  0
SECTION
  2
HEADER
  9
$ACADVER
  1
AC1015
  9
$ACADMAINTVER
 70
    20
  9
$DWGCODEPAGE
  3
ANSI_1252
  9
$INSBASE
 10
0.0
 20
0.0
 30
0.0
  9
$EXTMIN
 10
798.4831826474255
 20
1113.452959557579
 30
0.0
  9
$EXTMAX
 10
801.1057806280039
 20
1114.017959557579
 30
0.0
  9
$LIMMIN
 10
0.0
 20
0.0
  9
$LIMMAX
 10
420.0
 20
297.0
  9
$ORTHOMODE
 70
     1
  9
$REGENMODE
 70
     1
  9
$FILLMODE
 70
     1
  9
$QTEXTMODE
 70
     0
  9
$MIRRTEXT
 70
     0
  9
$LTSCALE
 40
1.0
  9
$ATTMODE
 70
     1
  9
$TEXTSIZE
 40
2.5
  9
$TRACEWID
 40
1.0
  9
$TEXTSTYLE
  7
Standard
  9
$CLAYER
  8
0
  9
$CELTYPE
  6
ByLayer
  9
$CECOLOR
 62
   256
  9
$CELTSCALE
 40
1.0
  9
$DISPSILH
 70
     0
  9
$DIMSCALE
 40
1.0
  9
$DIMASZ
 40
2.5
  9
$DIMEXO
 40
0.625
  9
$DIMDLI
 40
3.75
  9
$DIMRND
 40
0.0
  9
$DIMDLE
 40
0.0
  9
$DIMEXE
 40
1.25
  9
$DIMTP
 40
0.0
  9
$DIMTM
 40
0.0
  9
$DIMTXT
 40
2.5
  9
$DIMCEN
 40
2.5
  9
$DIMTSZ
 40
0.0
  9
$DIMTOL
 70
     0
  9
$DIMLIM
 70
     0
  9
$DIMTIH
 70
     0
  9
$DIMTOH
 70
     0
  9
$DIMSE1
 70
     0
  9
$DIMSE2
 70
     0
  9
$DIMTAD
 70
     1
  9
$DIMZIN
 70
     8
  9
$DIMBLK
  1

  9
$DIMASO
 70
     1
  9
$DIMSHO
 70
     1
  9
$DIMPOST
  1

  9
$DIMAPOST
  1

  9
$DIMALT
 70
     0
  9
$DIMALTD
 70
     3
  9
$DIMALTF
 40
0.03937007874016
  9
$DIMLFAC
 40
1.0
  9
$DIMTOFL
 70
     1
  9
$DIMTVP
 40
0.0
  9
$DIMTIX
 70
     0
  9
$DIMSOXD
 70
     0
  9
$DIMSAH
 70
     0
  9
$DIMBLK1
  1

  9
$DIMBLK2
  1

  9
$DIMSTYLE
  2
ISO-25
  9
$DIMCLRD
 70
     0
  9
$DIMCLRE
 70
     0
  9
$DIMCLRT
 70
     0
  9
$DIMTFAC
 40
1.0
  9
$DIMGAP
 40
0.625
  9
$DIMJUST
 70
     0
  9
$DIMSD1
 70
     0
  9
$DIMSD2
 70
     0
  9
$DIMTOLJ
 70
     0
  9
$DIMTZIN
 70
     8
  9
$DIMALTZ
 70
     0
  9
$DIMALTTZ
 70
     0
  9
$DIMUPT
 70
     0
  9
$DIMDEC
 70
     2
  9
$DIMTDEC
 70
     2
  9
$DIMALTU
 70
     2
  9
$DIMALTTD
 70
     3
  9
$DIMTXSTY
  7
Standard
  9
$DIMAUNIT
 70
     0
  9
$DIMADEC
 70
     0
  9
$DIMALTRND
 40
0.0
  9
$DIMAZIN
 70
     0
  9
$DIMDSEP
 70
    44
  9
$DIMATFIT
 70
     3
  9
$DIMFRAC
 70
     0
  9
$DIMLDRBLK
  1

  9
$DIMLUNIT
 70
     2
  9
$DIMLWD
 70
    -2
  9
$DIMLWE
 70
    -2
  9
$DIMTMOVE
 70
     0
  9
$LUNITS
 70
     2
  9
$LUPREC
 70
     4
  9
$SKETCHINC
 40
1.0
  9
$FILLETRAD
 40
0.0
  9
$AUNITS
 70
     0
  9
$AUPREC
 70
     0
  9
$MENU
  1
.
  9
$ELEVATION
 40
0.0
  9
$PELEVATION
 40
0.0
  9
$THICKNESS
 40
0.0
  9
$LIMCHECK
 70
     0
  9
$CHAMFERA
 40
0.0
  9
$CHAMFERB
 40
0.0
  9
$CHAMFERC
 40
0.0
  9
$CHAMFERD
 40
0.0
  9
$SKPOLY
 70
     0
  9
$TDCREATE
 40
2453797.502466898
  9
$TDUCREATE
 40
2453797.460800231
  9
$TDUPDATE
 40
2456149.576269710
  9
$TDUUPDATE
 40
2456149.534603044
  9
$TDINDWG
 40
0.0046119097
  9
$TDUSRTIMER
 40
0.0046119097
  9
$USRTIMER
 70
     1
  9
$ANGBASE
 50
0.0
  9
$ANGDIR
 70
     0
  9
$PDMODE
 70
     0
  9
$PDSIZE
 40
0.0
  9
$PLINEWID
 40
0.0
  9
$SPLFRAME
 70
     0
  9
$SPLINETYPE
 70
     6
  9
$SPLINESEGS
 70
     8
  9
$HANDSEED
  5
8F7
  9
$SURFTAB1
 70
     6
  9
$SURFTAB2
 70
     6
  9
$SURFTYPE
 70
     6
  9
$SURFU
 70
     6
  9
$SURFV
 70
     6
  9
$UCSBASE
  2

  9
$UCSNAME
  2

  9
$UCSORG
 10
0.0
 20
0.0
 30
0.0
  9
$UCSXDIR
 10
1.0
 20
0.0
 30
0.0
  9
$UCSYDIR
 10
0.0
 20
1.0
 30
0.0
  9
$UCSORTHOREF
  2

  9
$UCSORTHOVIEW
 70
     0
  9
$UCSORGTOP
 10
0.0
 20
0.0
 30
0.0
  9
$UCSORGBOTTOM
 10
0.0
 20
0.0
 30
0.0
  9
$UCSORGLEFT
 10
0.0
 20
0.0
 30
0.0
  9
$UCSORGRIGHT
 10
0.0
 20
0.0
 30
0.0
  9
$UCSORGFRONT
 10
0.0
 20
0.0
 30
0.0
  9
$UCSORGBACK
 10
0.0
 20
0.0
 30
0.0
  9
$PUCSBASE
  2

  9
$PUCSNAME
  2

  9
$PUCSORG
 10
0.0
 20
0.0
 30
0.0
  9
$PUCSXDIR
 10
1.0
 20
0.0
 30
0.0
  9
$PUCSYDIR
 10
0.0
 20
1.0
 30
0.0
  9
$PUCSORTHOREF
  2

  9
$PUCSORTHOVIEW
 70
     0
  9
$PUCSORGTOP
 10
0.0
 20
0.0
 30
0.0
  9
$PUCSORGBOTTOM
 10
0.0
 20
0.0
 30
0.0
  9
$PUCSORGLEFT
 10
0.0
 20
0.0
 30
0.0
  9
$PUCSORGRIGHT
 10
0.0
 20
0.0
 30
0.0
  9
$PUCSORGFRONT
 10
0.0
 20
0.0
 30
0.0
  9
$PUCSORGBACK
 10
0.0
 20
0.0
 30
0.0
  9
$USERI1
 70
     0
  9
$USERI2
 70
     0
  9
$USERI3
 70
     0
  9
$USERI4
 70
     0
  9
$USERI5
 70
     0
  9
$USERR1
 40
0.0
  9
$USERR2
 40
0.0
  9
$USERR3
 40
0.0
  9
$USERR4
 40
0.0
  9
$USERR5
 40
0.0
  9
$WORLDVIEW
 70
     1
  9
$SHADEDGE
 70
     3
  9
$SHADEDIF
 70
    70
  9
$TILEMODE
 70
     1
  9
$MAXACTVP
 70
    64
  9
$PINSBASE
 10
0.0
 20
0.0
 30
0.0
  9
$PLIMCHECK
 70
     0
  9
$PEXTMIN
 10
1.000000000000000E+20
 20
1.000000000000000E+20
 30
1.000000000000000E+20
  9
$PEXTMAX
 10
-1.000000000000000E+20
 20
-1.000000000000000E+20
 30
-1.000000000000000E+20
  9
$PLIMMIN
 10
0.0
 20
0.0
  9
$PLIMMAX
 10
420.0
 20
297.0
  9
$UNITMODE
 70
     0
  9
$VISRETAIN
 70
     1
  9
$PLINEGEN
 70
     0
  9
$PSLTSCALE
 70
     1
  9
$TREEDEPTH
 70
  3020
  9
$CMLSTYLE
  2
Standard
  9
$CMLJUST
 70
     0
  9
$CMLSCALE
 40
20.0
  9
$PROXYGRAPHICS
 70
     1
  9
$MEASUREMENT
 70
     1
  9
$CELWEIGHT
370
    -1
  9
$ENDCAPS
280
     0
  9
$JOINSTYLE
280
     0
  9
$LWDISPLAY
290
     0
  9
$INSUNITS
 70
     4
  9
$HYPERLINKBASE
  1

  9
$STYLESHEET
  1

  9
$XEDIT
290
     1
  9
$CEPSNTYPE
380
     0
  9
$PSTYLEMODE
290
     1
  9
$FINGERPRINTGUID
  2
{5D3587F6-28FB-4531-855F-0C77F911CB94}
  9
$VERSIONGUID
  2
{4BFFD32F-C5DE-4CA4-9593-F398C56B1AE7}
  9
$EXTNAMES
290
     1
  9
$PSVPSCALE
 40
0.0
  9
$OLESTARTUP
290
     0
  0
ENDSEC
  0
SECTION
  2
CLASSES
  0
CLASS
  1
ACDBDICTIONARYWDFLT
  2
AcDbDictionaryWithDefault
  3
ObjectDBX Classes
 90
        0
280
     0
281
     0
  0
CLASS
  1
TABLESTYLE
  2
AcDbTableStyle
  3
ObjectDBX Classes
 90
     4095
280
     0
281
     0
  0
CLASS
  1
DICTIONARYVAR
  2
AcDbDictionaryVar
  3
ObjectDBX Classes
 90
        0
280
     0
281
     0
  0
CLASS
  1
ACDBPLACEHOLDER
  2
AcDbPlaceHolder
  3
ObjectDBX Classes
 90
        0
280
     0
281
     0
  0
CLASS
  1
LAYOUT
  2
AcDbLayout
  3
ObjectDBX Classes
 90
        0
280
     0
281
     0
  0
CLASS
  1
MATERIAL
  2
AcDbMaterial
  3
ObjectDBX Classes
 90
     1153
280
     0
281
     0
  0
CLASS
  1
VISUALSTYLE
  2
AcDbVisualStyle
  3
ObjectDBX Classes
 90
     4095
280
     0
281
     0
  0
CLASS
  1
SCALE
  2
AcDbScale
  3
ObjectDBX Classes
 90
     1153
280
     0
281
     0
  0
CLASS
  1
MLEADERSTYLE
  2
AcDbMLeaderStyle
  3
ACDB_MLEADERSTYLE_CLASS
 90
     4095
280
     0
281
     0
  0
CLASS
  1
SORTENTSTABLE
  2
AcDbSortentsTable
  3
ObjectDBX Classes
 90
        0
280
     0
281
     0
  0
CLASS
  1
CELLSTYLEMAP
  2
AcDbCellStyleMap
  3
ObjectDBX Classes
 90
     1152
280
     0
281
     0
  0
ENDSEC
  0
SECTION
  2
TABLES
  0
TABLE
  2
VPORT
  5
8
330
0
100
AcDbSymbolTable
 70
     1
  0
VPORT
  5
66C
330
8
100
AcDbSymbolTableRecord
100
AcDbViewportTableRecord
  2
*Active
 70
     0
 10
0.0
 20
0.0
 11
1.0
 21
1.0
 12
799.7944816377147
 22
1113.735459557579
 13
0.0
 23
0.0
 14
10.0
 24
10.0
 15
10.0
 25
10.0
 16
0.0
 26
0.0
 36
1.0
 17
0.0
 27
0.0
 37
0.0
 40
1.599888790413822
 41
1.645464025026068
 42
50.0
 43
0.0
 44
0.0
 50
0.0
 51
0.0
 71
     0
 72
  1000
 73
     1
 74
     3
 75
     0
 76
     0
 77
     0
 78
     0
281
     0
 65
     1
110
0.0
120
0.0
130
0.0
111
1.0
121
0.0
131
0.0
112
0.0
122
1.0
132
0.0
 79
     0
146
0.0
  0
ENDTAB
  0
TABLE
  2
LTYPE
  5
5
330
0
100
AcDbSymbolTable
 70
     3
  0
LTYPE
  5
14
330
5
100
AcDbSymbolTableRecord
100
AcDbLinetypeTableRecord
  2
ByBlock
 70
     0
  3

 72
    65
 73
     0
 40
0.0
  0
LTYPE
  5
15
330
5
100
AcDbSymbolTableRecord
100
AcDbLinetypeTableRecord
  2
ByLayer
 70
     0
  3

 72
    65
 73
     0
 40
0.0
  0
LTYPE
  5
16
330
5
100
AcDbSymbolTableRecord
100
AcDbLinetypeTableRecord
  2
Continuous
 70
     0
  3
Solid line
 72
    65
 73
     0
 40
0.0
  0
LTYPE
  5
2F
330
5
100
AcDbSymbolTableRecord
100
AcDbLinetypeTableRecord
  2
DASHDOT
 70
     0
  3
Dash dot __ . __ . __ . __ . __ . __ . __ . __
 72
    65
 73
     4
 40
25.4
 49
12.7
 74
     0
 49
-6.349999999999999
 74
     0
 49
0.0
 74
     0
 49
-6.349999999999999
 74
     0
  0
LTYPE
  5
30
330
5
100
AcDbSymbolTableRecord
100
AcDbLinetypeTableRecord
  2
HIDDEN
 70
     0
  3
Hidden __ __ __ __ __ __ __ __ __ __ __ __ __ _
 72
    65
 73
     2
 40
9.524999999999998
 49
6.349999999999999
 74
     0
 49
-3.174999999999999
 74
     0
  0
ENDTAB
  0
TABLE
  2
LAYER
  5
2
330
0
100
AcDbSymbolTable
 70
    10
  0
LAYER
  5
10
102
{ACAD_XDICTIONARY
360
86D
102
}
330
2
100
AcDbSymbolTableRecord
100
AcDbLayerTableRecord
  2
0
 70
     0
 62
     7
  6
Continuous
370
    -3
390
F
  0
LAYER
  5
31
102
{ACAD_XDICTIONARY
360
86F
102
}
330
2
100
AcDbSymbolTableRecord
100
AcDbLayerTableRecord
  2
4
 70
     0
 62
     4
  6
Continuous
370
    -3
390
F
  0
LAYER
  5
32
102
{ACAD_XDICTIONARY
360
871
102
}
330
2
100
AcDbSymbolTableRecord
100
AcDbLayerTableRecord
  2
cen
 70
     0
 62
     7
  6
DASHDOT
370
    -3
390
F
  0
LAYER
  5
33
102
{ACAD_XDICTIONARY
360
873
102
}
330
2
100
AcDbSymbolTableRecord
100
AcDbLayerTableRecord
  2
hid
 70
     0
 62
     7
  6
HIDDEN
370
    -3
390
F
  0
LAYER
  5
34
102
{ACAD_XDICTIONARY
360
875
102
}
330
2
100
AcDbSymbolTableRecord
100
AcDbLayerTableRecord
  2
hatch
 70
     0
 62
     9
  6
Continuous
370
    -3
390
F
  0
LAYER
  5
35
102
{ACAD_XDICTIONARY
360
877
102
}
330
2
100
AcDbSymbolTableRecord
100
AcDbLayerTableRecord
  2
9
 70
     0
 62
     9
  6
Continuous
370
    -3
390
F
  0
LAYER
  5
36
102
{ACAD_XDICTIONARY
360
879
102
}
330
2
100
AcDbSymbolTableRecord
100
AcDbLayerTableRecord
  2
leg fin
 70
     0
 62
     9
  6
Continuous
370
    -3
390
F
  0
LAYER
  5
37
102
{ACAD_XDICTIONARY
360
87B
102
}
330
2
100
AcDbSymbolTableRecord
100
AcDbLayerTableRecord
  2
cotas
 70
     0
 62
     1
  6
Continuous
370
    -3
390
F
  0
LAYER
  5
38
102
{ACAD_XDICTIONARY
360
87D
102
}
330
2
100
AcDbSymbolTableRecord
100
AcDbLayerTableRecord
  2
indusa
 70
     0
 62
     3
  6
Continuous
370
    -3
390
F
  0
LAYER
  5
39
102
{ACAD_XDICTIONARY
360
87F
102
}
330
2
100
AcDbSymbolTableRecord
100
AcDbLayerTableRecord
  2
SANINDUSA
 70
     0
 62
     3
  6
Continuous
370
    -3
390
F
  0
ENDTAB
  0
TABLE
  2
STYLE
  5
3
330
0
100
AcDbSymbolTable
 70
     2
  0
STYLE
  5
11
330
3
100
AcDbSymbolTableRecord
100
AcDbTextStyleTableRecord
  2
Standard
 70
     0
 40
0.0
 41
1.0
 50
0.0
 71
     0
 42
2.5
  3
txt
  4

  0
STYLE
  5
3A
330
3
100
AcDbSymbolTableRecord
100
AcDbTextStyleTableRecord
  2
SANINDUSA
 70
     0
 40
0.0
 41
1.0
 50
0.0
 71
     0
 42
2.5
  3
verdana.TTF
  4

1001
ACAD
1000
Verdana
1071
       34
  0
ENDTAB
  0
TABLE
  2
VIEW
  5
6
330
0
100
AcDbSymbolTable
 70
     0
  0
ENDTAB
  0
TABLE
  2
UCS
  5
7
330
0
100
AcDbSymbolTable
 70
     0
  0
ENDTAB
  0
TABLE
  2
APPID
  5
9
330
0
100
AcDbSymbolTable
 70
     5
  0
APPID
  5
12
330
9
100
AcDbSymbolTableRecord
100
AcDbRegAppTableRecord
  2
ACAD
 70
     0
  0
APPID
  5
3C
330
9
100
AcDbSymbolTableRecord
100
AcDbRegAppTableRecord
  2
DCO15
 70
     0
  0
APPID
  5
65E
330
9
100
AcDbSymbolTableRecord
100
AcDbRegAppTableRecord
  2
ACAD_EXEMPT_FROM_CAD_STANDARDS
 70
     0
  0
APPID
  5
6BC
330
9
100
AcDbSymbolTableRecord
100
AcDbRegAppTableRecord
  2
ACAD_DSTYLE_DIMJOGGED_JOGANGLE_SYMBOL
 70
     0
  0
APPID
  5
8F6
330
9
100
AcDbSymbolTableRecord
100
AcDbRegAppTableRecord
  2
ACAD_MLEADERVER
 70
     0
  0
ENDTAB
  0
TABLE
  2
DIMSTYLE
  5
A
330
0
100
AcDbSymbolTable
 70
     2
100
AcDbDimStyleTable
 71
     1
340
2B
  0
DIMSTYLE
105
2B
330
A
100
AcDbSymbolTableRecord
100
AcDbDimStyleTableRecord
  2
ISO-25
 70
     0
 41
2.5
 42
0.625
 43
3.75
 44
1.25
 73
     0
 74
     0
 77
     1
 78
     8
140
2.5
141
2.5
143
0.03937007874016
147
0.625
171
     3
172
     1
271
     2
272
     2
274
     3
278
    44
283
     0
284
     8
340
11
  0
DIMSTYLE
105
3B
330
A
100
AcDbSymbolTableRecord
100
AcDbDimStyleTableRecord
  2
SANINDUSA
 70
     0
 41
10.0
 42
4.0
 43
4.0
 44
4.0
 73
     0
 74
     0
 77
     1
 78
     8
140
10.0
141
0.0
143
0.03937007874016
147
5.0
171
     3
172
     1
176
   256
177
   256
178
   256
179
     1
271
     1
272
     1
274
     3
278
    44
283
     0
284
     8
340
3A
371
    -1
372
    -1
  0
ENDTAB
  0
TABLE
  2
BLOCK_RECORD
  5
1
330
0
100
AcDbSymbolTable
 70
     2
  0
BLOCK_RECORD
  5
23
102
{ACAD_XDICTIONARY
360
867
102
}
330
1
100
AcDbSymbolTableRecord
100
AcDbBlockTableRecord
  2
*Model_Space
340
26
  0
BLOCK_RECORD
  5
1F
330
1
100
AcDbSymbolTableRecord
100
AcDbBlockTableRecord
  2
*Paper_Space
340
22
  0
BLOCK_RECORD
  5
27
330
1
100
AcDbSymbolTableRecord
100
AcDbBlockTableRecord
  2
*Paper_Space0
340
2A
  0
BLOCK_RECORD
  5
6BD
330
1
100
AcDbSymbolTableRecord
100
AcDbBlockTableRecord
  2
b sifões
340
0
1001
ACAD
1000
DesignCenter Data
1002
{
1070
     1
1070
     4
1002
}
  0
ENDTAB
  0
ENDSEC
  0
SECTION
  2
BLOCKS
  0
BLOCK
  5
24
330
23
100
AcDbEntity
  8
0
100
AcDbBlockBegin
  2
*Model_Space
 70
     0
 10
0.0
 20
0.0
 30
0.0
  3
*Model_Space
  1

  0
ENDBLK
  5
25
330
23
100
AcDbEntity
  8
0
100
AcDbBlockEnd
  0
BLOCK
  5
20
330
1F
100
AcDbEntity
 67
     1
  8
0
100
AcDbBlockBegin
  2
*Paper_Space
 70
     0
 10
0.0
 20
0.0
 30
0.0
  3
*Paper_Space
  1

  0
ENDBLK
  5
21
330
1F
100
AcDbEntity
 67
     1
  8
0
100
AcDbBlockEnd
  0
BLOCK
  5
28
330
27
100
AcDbEntity
 67
     1
  8
0
100
AcDbBlockBegin
  2
*Paper_Space0
 70
     0
 10
0.0
 20
0.0
 30
0.0
  3
*Paper_Space0
  1

  0
ENDBLK
  5
29
330
27
100
AcDbEntity
 67
     1
  8
0
100
AcDbBlockEnd
  0
BLOCK
  5
791
330
6BD
100
AcDbEntity
  8
0
100
AcDbBlockBegin
  2
b sifões
 70
     0
 10
0.0
 20
0.0
 30
0.0
  3
b sifões
  1

  0
LINE
  5
6BE
330
6BD
100
AcDbEntity
  8
SANINDUSA
  6
Continuous
100
AcDbLine
 10
-0.272276037755546
 20
0.095369895654585
 30
0.0
 11
-0.272276037755546
 21
-0.0046273022317109
 31
0.0
  0
LINE
  5
6BF
330
6BD
100
AcDbEntity
  8
SANINDUSA
  6
HIDDEN
100
AcDbLine
 10
-0.3160306080881128
 20
-0.1048813674701705
 30
0.0
 11
-0.3160306080881128
 21
-0.1931287032887212
 31
0.0
  0
LINE
  5
6C0
330
6BD
100
AcDbEntity
  8
SANINDUSA
  6
HIDDEN
100
AcDbLine
 10
-0.2300306080878727
 20
-0.1931287032887212
 30
0.0
 11
-0.2300306080878727
 21
-0.0817076545074542
 31
0.0
  0
LINE
  5
6C1
330
6BD
100
AcDbEntity
  8
SANINDUSA
  6
HIDDEN
100
AcDbLine
 10
-0.2280306080883747
 20
-0.1893966524810366
 30
0.0
 11
-0.2280306080883747
 21
-0.0817076515572808
 31
0.0
  0
LINE
  5
6C2
330
6BD
100
AcDbEntity
  8
SANINDUSA
  6
HIDDEN
100
AcDbLine
 10
-0.3160306080881128
 20
-0.1931287032887212
 30
0.0
 11
-0.2300306080878727
 21
-0.1931287032887212
 31
0.0
  0
LINE
  5
6C3
330
6BD
100
AcDbEntity
  8
SANINDUSA
  6
HIDDEN
100
AcDbLine
 10
-0.3180306080885202
 20
-0.1893966524810366
 30
0.0
 11
-0.3170306080883165
 21
-0.1931287032887212
 31
0.0
  0
LINE
  5
6C4
330
6BD
100
AcDbEntity
  8
SANINDUSA
  6
HIDDEN
100
AcDbLine
 10
-0.3170306080883165
 20
-0.1931287032887212
 30
0.0
 11
-0.3160306080881128
 21
-0.1931287032887212
 31
0.0
  0
LINE
  5
6C5
330
6BD
100
AcDbEntity
  8
SANINDUSA
  6
HIDDEN
100
AcDbLine
 10
-0.2300306080878727
 20
-0.1931287032887212
 30
0.0
 11
-0.2290306080885784
 21
-0.1931287032887212
 31
0.0
  0
LINE
  5
6C6
330
6BD
100
AcDbEntity
  8
SANINDUSA
  6
HIDDEN
100
AcDbLine
 10
-0.2290306080885784
 20
-0.1931287032887212
 30
0.0
 11
-0.2280306080883747
 21
-0.1893966524810366
 31
0.0
  0
ARC
  5
6C7
330
6BD
100
AcDbEntity
  8
SANINDUSA
  6
HIDDEN
100
AcDbCircle
 10
-0.3020306080879891
 20
0.036871296711297
 30
0.0
 40
0.056
100
AcDbArc
 50
100.2865606110578
 51
180.0
  0
ARC
  5
6C8
330
6BD
100
AcDbEntity
  8
SANINDUSA
  6
HIDDEN
100
AcDbCircle
 10
-0.3020306080879891
 20
0.036871296711297
 30
0.0
 40
0.0539999999999999
100
AcDbArc
 50
90.0
 51
180.0
  0
LINE
  5
6C9
330
6BD
100
AcDbEntity
  8
SANINDUSA
  6
HIDDEN
100
AcDbLine
 10
-0.3560306080880764
 20
-0.0388518804618343
 30
0.0
 11
-0.3560306080880764
 21
-0.0055992813397552
 31
0.0
  0
LINE
  5
6CA
330
6BD
100
AcDbEntity
  8
SANINDUSA
  6
HIDDEN
100
AcDbLine
 10
-0.3580306080884839
 20
-0.0388518804618343
 30
0.0
 11
-0.3580306080884839
 21
-0.0055992813381636
 31
0.0
  0
LINE
  5
6CB
330
6BD
100
AcDbEntity
  8
SANINDUSA
  6
HIDDEN
100
AcDbLine
 10
-0.3560306080880764
 20
0.036871296711297
 30
0.0
 11
-0.3560306080880764
 21
-0.0055992813397552
 31
0.0
  0
LINE
  5
6CC
330
6BD
100
AcDbEntity
  8
SANINDUSA
  6
HIDDEN
100
AcDbLine
 10
-0.3580306080884839
 20
0.036871296711297
 30
0.0
 11
-0.3580306080884839
 21
-0.0055992813397552
 31
0.0
  0
LINE
  5
6CD
330
6BD
100
AcDbEntity
  8
SANINDUSA
  6
HIDDEN
100
AcDbLine
 10
-0.3560306080880764
 20
-0.0055992813397552
 30
0.0
 11
-0.3560306080844384
 21
-0.0055992813397552
 31
0.0
  0
LINE
  5
6CE
330
6BD
100
AcDbEntity
  8
SANINDUSA
  6
HIDDEN
100
AcDbLine
 10
-0.2320306080882801
 20
-0.020128703288492
 30
0.0
 11
-0.2320306080882801
 21
-0.0221287032886721
 31
0.0
  0
LINE
  5
6CF
330
6BD
100
AcDbEntity
  8
SANINDUSA
  6
HIDDEN
100
AcDbLine
 10
-0.2620306080880255
 20
-0.0215172419257215
 30
0.0
 11
-0.2620306080880255
 21
-0.020128703288492
 31
0.0
  0
LINE
  5
6D0
330
6BD
100
AcDbEntity
  8
SANINDUSA
  6
HIDDEN
100
AcDbLine
 10
-0.2633468093381452
 20
-0.0237518592800825
 30
0.0
 11
-0.2348175302549862
 21
-0.0660503336177953
 31
0.0
  0
LINE
  5
6D1
330
6BD
100
AcDbEntity
  8
SANINDUSA
  6
HIDDEN
100
AcDbLine
 10
-0.2616886832329328
 20
-0.0226356277325977
 30
0.0
 11
-0.2331594560246231
 21
-0.0649319464539531
 31
0.0
  0
ARC
  5
6D2
330
6BD
100
AcDbEntity
  8
SANINDUSA
  6
HIDDEN
100
AcDbCircle
 10
-0.2600306080885275
 20
-0.0215172419257215
 30
0.0
 40
0.0020000000000001
100
AcDbArc
 50
180.0
 51
214.0000000001436
  0
ARC
  5
6D3
330
6BD
100
AcDbEntity
  8
SANINDUSA
  6
HIDDEN
100
AcDbCircle
 10
-0.2580304322136726
 20
-0.0817076310549965
 30
0.0
 40
0.0299998176965208
100
AcDbArc
 50
0.0
 51
33.99999865963669
  0
ARC
  5
6D4
330
6BD
100
AcDbEntity
  8
SANINDUSA
  6
HIDDEN
100
AcDbCircle
 10
-0.2580304028260798
 20
-0.0817076110581638
 30
0.0
 40
0.0279997830701829
100
AcDbArc
 50
0.0
 51
33.99999523654892
  0
LINE
  5
6D5
330
6BD
100
AcDbEntity
  8
SANINDUSA
  6
HIDDEN
100
AcDbLine
 10
-0.2320306080882801
 20
-0.0221287032886721
 30
0.0
 11
-0.2280306080883747
 21
-0.0221287032886721
 31
0.0
  0
LINE
  5
6D6
330
6BD
100
AcDbEntity
  8
SANINDUSA
  6
HIDDEN
100
AcDbLine
 10
-0.2280306080883747
 20
-0.0181287032885393
 30
0.0
 11
-0.2640306080884329
 21
-0.0181287032885393
 31
0.0
  0
LINE
  5
6D7
330
6BD
100
AcDbEntity
  8
SANINDUSA
  6
HIDDEN
100
AcDbLine
 10
-0.2320306080882801
 20
-0.020128703288492
 30
0.0
 11
-0.2620306080880255
 21
-0.020128703288492
 31
0.0
  0
LINE
  5
6D8
330
6BD
100
AcDbEntity
  8
SANINDUSA
  6
HIDDEN
100
AcDbLine
 10
-0.2640306080884329
 20
-0.0181542044297203
 30
0.0
 11
-0.2640306080884329
 21
-0.0181287032885393
 31
0.0
  0
LINE
  5
6D9
330
6BD
100
AcDbEntity
  8
SANINDUSA
  6
HIDDEN
100
AcDbLine
 10
-0.27103060808804
 20
0.1088712967114134
 30
0.0
 11
-0.2280306080883747
 21
0.1088712967114134
 31
0.0
  0
LINE
  5
6DA
330
6BD
100
AcDbEntity
  8
SANINDUSA
  6
HIDDEN
100
AcDbLine
 10
-0.27103060808804
 20
0.1108712967113661
 30
0.0
 11
-0.2320306080882801
 21
0.1108712967113661
 31
0.0
  0
LINE
  5
6DB
330
6BD
100
AcDbEntity
  8
SANINDUSA
  6
HIDDEN
100
AcDbLine
 10
-0.2730306080884475
 20
0.1068712967114607
 30
0.0
 11
-0.2730306080884475
 21
0.0958712967114934
 31
0.0
  0
LINE
  5
6DC
330
6BD
100
AcDbEntity
  8
SANINDUSA
  6
HIDDEN
100
AcDbLine
 10
-0.2750306080879454
 20
0.1068712967114607
 30
0.0
 11
-0.2750306080879454
 21
0.0958712967114934
 31
0.0
  0
LINE
  5
6DD
330
6BD
100
AcDbEntity
  8
SANINDUSA
  6
HIDDEN
100
AcDbLine
 10
-0.2970306080878799
 20
0.1098712967113897
 30
0.0
 11
-0.2970306080878799
 21
0.1058712967114843
 31
0.0
  0
LINE
  5
6DE
330
6BD
100
AcDbEntity
  8
SANINDUSA
  6
HIDDEN
100
AcDbLine
 10
-0.3120306080882074
 20
0.1098712967113897
 30
0.0
 11
-0.3120306080882074
 21
0.1058712967114843
 31
0.0
  0
LINE
  5
6DF
330
6BD
100
AcDbEntity
  8
SANINDUSA
  6
HIDDEN
100
AcDbLine
 10
-0.2970306080878799
 20
0.092871296711337
 30
0.0
 11
-0.2780306080885566
 21
0.092871296711337
 31
0.0
  0
LINE
  5
6E0
330
6BD
100
AcDbEntity
  8
SANINDUSA
  6
HIDDEN
100
AcDbLine
 10
-0.3020306080879891
 20
0.0908712967113843
 30
0.0
 11
-0.2780306080885566
 21
0.0908712967113843
 31
0.0
  0
LINE
  5
6E1
330
6BD
100
AcDbEntity
  8
SANINDUSA
  6
HIDDEN
100
AcDbLine
 10
-0.2970306080878799
 20
0.1058712967114843
 30
0.0
 11
-0.3120306080882074
 21
0.1058712967114843
 31
0.0
  0
LINE
  5
6E2
330
6BD
100
AcDbEntity
  8
SANINDUSA
  6
HIDDEN
100
AcDbLine
 10
-0.3120306080882074
 20
0.0978712967114461
 30
0.0
 11
-0.2970306080878799
 21
0.0978712967114461
 31
0.0
  0
LINE
  5
6E3
330
6BD
100
AcDbEntity
  8
SANINDUSA
  6
HIDDEN
100
AcDbLine
 10
-0.2970306080878799
 20
0.0978719059307878
 30
0.0
 11
-0.3120306080882074
 21
0.0978719059307878
 31
0.0
  0
LINE
  5
6E4
330
6BD
100
AcDbEntity
  8
SANINDUSA
  6
HIDDEN
100
AcDbLine
 10
-0.3120306080882074
 20
0.1057606146293892
 30
0.0
 11
-0.3120306080882074
 21
0.0979928728536379
 31
0.0
  0
LINE
  5
6E5
330
6BD
100
AcDbEntity
  8
SANINDUSA
  6
HIDDEN
100
AcDbLine
 10
-0.3120306080882074
 20
0.1058706874921427
 30
0.0
 11
-0.3120306080882074
 21
0.1058712967114843
 31
0.0
  0
LINE
  5
6E6
330
6BD
100
AcDbEntity
  8
SANINDUSA
  6
HIDDEN
100
AcDbLine
 10
-0.3120306080882074
 20
0.1057606146293892
 30
0.0
 11
-0.3120306080882074
 21
0.1058706874921427
 31
0.0
  0
LINE
  5
6E7
330
6BD
100
AcDbEntity
  8
SANINDUSA
  6
HIDDEN
100
AcDbLine
 10
-0.3120306080882074
 20
0.0978712967114461
 30
0.0
 11
-0.3120306080882074
 21
0.0978719059307878
 31
0.0
  0
LINE
  5
6E8
330
6BD
100
AcDbEntity
  8
SANINDUSA
  6
HIDDEN
100
AcDbLine
 10
-0.3120306080882074
 20
0.0978719059307878
 30
0.0
 11
-0.3120306080882074
 21
0.0979928728536379
 31
0.0
  0
LINE
  5
6E9
330
6BD
100
AcDbEntity
  8
SANINDUSA
  6
HIDDEN
100
AcDbLine
 10
-0.3120306080882074
 20
0.0978712967114461
 30
0.0
 11
-0.3120306080882074
 21
0.0919712059671838
 31
0.0
  0
LINE
  5
6EA
330
6BD
100
AcDbEntity
  8
SANINDUSA
  6
HIDDEN
100
AcDbLine
 10
-0.2970306080878799
 20
0.1057606146293892
 30
0.0
 11
-0.2970306080878799
 21
0.0979928728536379
 31
0.0
  0
LINE
  5
6EB
330
6BD
100
AcDbEntity
  8
SANINDUSA
  6
HIDDEN
100
AcDbLine
 10
-0.2970306080878799
 20
0.1058706874921427
 30
0.0
 11
-0.2970306080878799
 21
0.1058712967114843
 31
0.0
  0
LINE
  5
6EC
330
6BD
100
AcDbEntity
  8
SANINDUSA
  6
HIDDEN
100
AcDbLine
 10
-0.2970306080878799
 20
0.1057606146293892
 30
0.0
 11
-0.2970306080878799
 21
0.1058706874921427
 31
0.0
  0
LINE
  5
6ED
330
6BD
100
AcDbEntity
  8
SANINDUSA
  6
HIDDEN
100
AcDbLine
 10
-0.2970306080878799
 20
0.0978712967114461
 30
0.0
 11
-0.2970306080878799
 21
0.0978719059307878
 31
0.0
  0
LINE
  5
6EE
330
6BD
100
AcDbEntity
  8
SANINDUSA
  6
HIDDEN
100
AcDbLine
 10
-0.2970306080878799
 20
0.0978719059307878
 30
0.0
 11
-0.2970306080878799
 21
0.0979928728536379
 31
0.0
  0
LINE
  5
6EF
330
6BD
100
AcDbEntity
  8
SANINDUSA
  6
HIDDEN
100
AcDbLine
 10
-0.2970306080878799
 20
0.0978712967114461
 30
0.0
 11
-0.2970306080878799
 21
0.092871296711337
 31
0.0
  0
ARC
  5
6F0
330
6BD
100
AcDbEntity
  8
SANINDUSA
  6
HIDDEN
100
AcDbCircle
 10
-0.2780306080885566
 20
0.0958712967114934
 30
0.0
 40
0.003
100
AcDbArc
 50
270.0
 51
0.0
  0
ARC
  5
6F1
330
6BD
100
AcDbEntity
  8
SANINDUSA
  6
HIDDEN
100
AcDbCircle
 10
-0.2780306080885566
 20
0.0958712967114934
 30
0.0
 40
0.005
100
AcDbArc
 50
270.0
 51
0.0
  0
LINE
  5
6F2
330
6BD
100
AcDbEntity
  8
SANINDUSA
  6
HIDDEN
100
AcDbLine
 10
-0.3120306080882074
 20
0.1098712967113897
 30
0.0
 11
-0.2970306080878799
 21
0.1098712967113897
 31
0.0
  0
ARC
  5
6F3
330
6BD
100
AcDbEntity
  8
SANINDUSA
  6
HIDDEN
100
AcDbCircle
 10
-0.27103060808804
 20
0.1068712967114607
 30
0.0
 40
0.002
100
AcDbArc
 50
90.0
 51
180.0
  0
ARC
  5
6F4
330
6BD
100
AcDbEntity
  8
SANINDUSA
  6
HIDDEN
100
AcDbCircle
 10
-0.27103060808804
 20
0.1068712967114607
 30
0.0
 40
0.0040000000000001
100
AcDbArc
 50
90.0
 51
180.0
  0
LINE
  5
6F5
330
6BD
100
AcDbEntity
  8
SANINDUSA
  6
HIDDEN
100
AcDbLine
 10
-0.2280306080883747
 20
0.1128712967113188
 30
0.0
 11
-0.2320306080882801
 21
0.1128712967113188
 31
0.0
  0
LINE
  5
6F6
330
6BD
100
AcDbEntity
  8
SANINDUSA
  6
HIDDEN
100
AcDbLine
 10
-0.2320306080882801
 20
0.1128712967113188
 30
0.0
 11
-0.2320306080882801
 21
0.1108712967113661
 31
0.0
  0
LINE
  5
6F7
330
6BD
100
AcDbEntity
  8
SANINDUSA
  6
HIDDEN
100
AcDbLine
 10
-0.2280306080883747
 20
0.1128712967113188
 30
0.0
 11
-0.2280306080883747
 21
0.1088712967114134
 31
0.0
  0
LINE
  5
6F8
330
6BD
100
AcDbEntity
  8
SANINDUSA
  6
HIDDEN
100
AcDbLine
 10
-0.2280306080883747
 20
-0.0181287032885393
 30
0.0
 11
-0.2280306080883747
 21
-0.0221287032886721
 31
0.0
  0
LINE
  5
6F9
330
6BD
100
AcDbEntity
  8
SANINDUSA
  6
HIDDEN
100
AcDbLine
 10
-0.2640306080884329
 20
-0.0181542044297203
 30
0.0
 11
-0.2640306080884329
 21
-0.0215151632185098
 31
0.0
  0
ARC
  5
6FA
330
6BD
100
AcDbEntity
  8
SANINDUSA
  6
HIDDEN
100
AcDbCircle
 10
-0.2600306080885275
 20
-0.0215151632185098
 30
0.0
 40
0.004
100
AcDbArc
 50
180.0
 51
213.9986946280409
  0
LINE
  5
6FB
330
6BD
100
AcDbEntity
  8
SANINDUSA
  6
HIDDEN
100
AcDbLine
 10
-0.3180306080885202
 20
-0.1048813674701705
 30
0.0
 11
-0.3180306080885202
 21
-0.1893966524810366
 31
0.0
  0
ARC
  5
6FC
330
6BD
100
AcDbEntity
  8
SANINDUSA
  6
HIDDEN
100
AcDbCircle
 10
-0.3380306080880473
 20
-0.1048813674701705
 30
0.0
 40
0.02
100
AcDbArc
 50
0.0
 51
37.28570792801806
  0
LINE
  5
6FD
330
6BD
100
AcDbEntity
  8
SANINDUSA
  6
HIDDEN
100
AcDbLine
 10
-0.3539431004101061
 20
-0.0509676795729774
 30
0.0
 11
-0.3221181157659885
 21
-0.0927655683592548
 31
0.0
  0
ARC
  5
6FE
330
6BD
100
AcDbEntity
  8
SANINDUSA
  6
HIDDEN
100
AcDbCircle
 10
-0.3380306080880473
 20
-0.0388518804618343
 30
0.0
 40
0.02
100
AcDbArc
 50
180.0
 51
217.2857079280181
  0
ARC
  5
6FF
330
6BD
100
AcDbEntity
  8
SANINDUSA
  6
HIDDEN
100
AcDbCircle
 10
-0.3380306080880473
 20
-0.1048813674701705
 30
0.0
 40
0.022
100
AcDbArc
 50
0.0
 51
37.28570792801806
  0
LINE
  5
700
330
6BD
100
AcDbEntity
  8
SANINDUSA
  6
HIDDEN
100
AcDbLine
 10
-0.352351851178355
 20
-0.0497560996618631
 30
0.0
 11
-0.3205268665342373
 21
-0.0915539884479131
 31
0.0
  0
ARC
  5
701
330
6BD
100
AcDbEntity
  8
SANINDUSA
  6
HIDDEN
100
AcDbCircle
 10
-0.3380306080880473
 20
-0.0388518804618343
 30
0.0
 40
0.018
100
AcDbArc
 50
180.0
 51
217.2857079280181
  0
LINE
  5
702
330
6BD
100
AcDbEntity
  8
SANINDUSA
100
AcDbLine
 10
-0.2480306080879018
 20
-0.0246287032884993
 30
0.0
 11
-0.2279851652774596
 21
-0.0241731250428075
 31
0.0
  0
LINE
  5
703
330
6BD
100
AcDbEntity
  8
SANINDUSA
100
AcDbLine
 10
-0.2279851652774596
 20
0.1149157184656815
 30
0.0
 11
-0.2480306080879018
 21
0.1153712967113734
 31
0.0
  0
LINE
  5
704
330
6BD
100
AcDbEntity
  8
SANINDUSA
100
AcDbLine
 10
-0.2480306080879018
 20
-0.020128703288492
 30
0.0
 11
-0.2480306080879018
 21
-0.0246287032884993
 31
0.0
  0
LINE
  5
705
330
6BD
100
AcDbEntity
  8
SANINDUSA
100
AcDbLine
 10
-0.2480306080879018
 20
0.1153712967113734
 30
0.0
 11
-0.2480306080879018
 21
0.1108712967113661
 31
0.0
  0
LINE
  5
706
330
6BD
100
AcDbEntity
  8
SANINDUSA
100
AcDbLine
 10
-0.2260306080879673
 20
0.1038712967113042
 30
0.0
 11
-0.2260306080879673
 21
0.0971861471693956
 31
0.0
  0
LINE
  5
707
330
6BD
100
AcDbEntity
  8
SANINDUSA
100
AcDbLine
 10
-0.2260306080879673
 20
-0.0064435537465215
 30
0.0
 11
-0.2260306080879673
 21
-0.0131287032886576
 31
0.0
  0
LINE
  5
708
330
6BD
100
AcDbEntity
  8
SANINDUSA
100
AcDbLine
 10
-0.2260306080879673
 20
-0.0221736413718645
 30
0.0
 11
-0.2260306080879673
 21
-0.0131287032886576
 31
0.0
  0
LINE
  5
709
330
6BD
100
AcDbEntity
  8
SANINDUSA
100
AcDbLine
 10
-0.2280306080883747
 20
-0.0141287032886339
 30
0.0
 11
-0.2280306080883747
 21
-0.0221736413718645
 31
0.0
  0
LINE
  5
70A
330
6BD
100
AcDbEntity
  8
SANINDUSA
100
AcDbLine
 10
-0.2280306080883747
 20
-0.0221736413718645
 30
0.0
 11
-0.2330078866825715
 21
-0.0222867613399558
 31
0.0
  0
LINE
  5
70B
330
6BD
100
AcDbEntity
  8
SANINDUSA
100
AcDbLine
 10
-0.2460306080884038
 20
-0.0215597467770294
 30
0.0
 11
-0.2460306080884038
 21
-0.020128703288492
 31
0.0
  0
LINE
  5
70C
330
6BD
100
AcDbEntity
  8
SANINDUSA
100
AcDbLine
 10
-0.2340306080877781
 20
-0.0212870195043706
 30
0.0
 11
-0.2340306080877781
 21
-0.020128703288492
 31
0.0
  0
LINE
  5
70D
330
6BD
100
AcDbEntity
  8
SANINDUSA
100
AcDbLine
 10
-0.2360306080881855
 20
-0.020128703288492
 30
0.0
 11
-0.2360306080881855
 21
-0.0213779285952569
 31
0.0
  0
LINE
  5
70E
330
6BD
100
AcDbEntity
  8
SANINDUSA
100
AcDbLine
 10
-0.238030608088593
 20
-0.0213779285952569
 30
0.0
 11
-0.238030608088593
 21
-0.020128703288492
 31
0.0
  0
LINE
  5
70F
330
6BD
100
AcDbEntity
  8
SANINDUSA
100
AcDbLine
 10
-0.240030608088091
 20
-0.020128703288492
 30
0.0
 11
-0.240030608088091
 21
-0.0214688376861432
 31
0.0
  0
LINE
  5
710
330
6BD
100
AcDbEntity
  8
SANINDUSA
100
AcDbLine
 10
-0.2420306080884984
 20
-0.0214688376861432
 30
0.0
 11
-0.2420306080884984
 21
-0.020128703288492
 31
0.0
  0
LINE
  5
711
330
6BD
100
AcDbEntity
  8
SANINDUSA
100
AcDbLine
 10
-0.2440306080879964
 20
-0.020128703288492
 30
0.0
 11
-0.2440306080879964
 21
-0.0215597467770294
 31
0.0
  0
LINE
  5
712
330
6BD
100
AcDbEntity
  8
SANINDUSA
100
AcDbLine
 10
-0.2327124466928581
 20
-0.0063256389478283
 30
0.0
 11
-0.2280306080883747
 21
-0.0141287032886339
 31
0.0
  0
LINE
  5
713
330
6BD
100
AcDbEntity
  8
SANINDUSA
100
AcDbLine
 10
-0.2260306080879673
 20
-0.0131287032886576
 30
0.0
 11
-0.2290252732318549
 21
-0.0063907067146829
 31
0.0
  0
LINE
  5
714
330
6BD
100
AcDbEntity
  8
SANINDUSA
100
AcDbLine
 10
-0.2280306080883747
 20
0.1129162347945112
 30
0.0
 11
-0.2280306080883747
 21
0.104871296711508
 31
0.0
  0
LINE
  5
715
330
6BD
100
AcDbEntity
  8
SANINDUSA
100
AcDbLine
 10
-0.2260306080879673
 20
0.1038712967113042
 30
0.0
 11
-0.2260306080879673
 21
0.1129162347945112
 31
0.0
  0
LINE
  5
716
330
6BD
100
AcDbEntity
  8
SANINDUSA
100
AcDbLine
 10
-0.2280306080883747
 20
0.104871296711508
 30
0.0
 11
-0.2327124466928581
 21
0.097068232370475
 31
0.0
  0
LINE
  5
717
330
6BD
100
AcDbEntity
  8
SANINDUSA
100
AcDbLine
 10
-0.2290252732318549
 20
0.097133300137557
 30
0.0
 11
-0.2260306080879673
 21
0.1038712967113042
 31
0.0
  0
LINE
  5
718
330
6BD
100
AcDbEntity
  8
SANINDUSA
100
AcDbLine
 10
-0.2330078866825715
 20
0.1130293547626024
 30
0.0
 11
-0.2280306080883747
 21
0.1129162347945112
 31
0.0
  0
LINE
  5
719
330
6BD
100
AcDbEntity
  8
SANINDUSA
100
AcDbLine
 10
-0.2460306080884038
 20
0.1108712967113661
 30
0.0
 11
-0.2460306080884038
 21
0.1123023401999035
 31
0.0
  0
LINE
  5
71A
330
6BD
100
AcDbEntity
  8
SANINDUSA
100
AcDbLine
 10
-0.2440306080879964
 20
0.1123023401999035
 30
0.0
 11
-0.2440306080879964
 21
0.1108712967113661
 31
0.0
  0
LINE
  5
71B
330
6BD
100
AcDbEntity
  8
SANINDUSA
100
AcDbLine
 10
-0.2420306080884984
 20
0.1108712967113661
 30
0.0
 11
-0.2420306080884984
 21
0.1122114311090172
 31
0.0
  0
LINE
  5
71C
330
6BD
100
AcDbEntity
  8
SANINDUSA
100
AcDbLine
 10
-0.240030608088091
 20
0.1122114311090172
 30
0.0
 11
-0.240030608088091
 21
0.1108712967113661
 31
0.0
  0
LINE
  5
71D
330
6BD
100
AcDbEntity
  8
SANINDUSA
100
AcDbLine
 10
-0.238030608088593
 20
0.1108712967113661
 30
0.0
 11
-0.238030608088593
 21
0.1121205220181309
 31
0.0
  0
LINE
  5
71E
330
6BD
100
AcDbEntity
  8
SANINDUSA
100
AcDbLine
 10
-0.2360306080881855
 20
0.1121205220181309
 30
0.0
 11
-0.2360306080881855
 21
0.1108712967113661
 31
0.0
  0
LINE
  5
71F
330
6BD
100
AcDbEntity
  8
SANINDUSA
100
AcDbLine
 10
-0.2340306080877781
 20
0.1108712967113661
 30
0.0
 11
-0.2340306080877781
 21
0.1120296129272447
 31
0.0
  0
ARC
  5
720
330
6BD
100
AcDbEntity
  8
SANINDUSA
100
AcDbCircle
 10
-0.2450306080882001
 20
-0.0215597467770294
 30
0.0
 40
0.0010000000000002
100
AcDbArc
 50
180.0
 51
0.0
  0
ARC
  5
721
330
6BD
100
AcDbEntity
  8
SANINDUSA
100
AcDbCircle
 10
-0.2410306080882947
 20
-0.0214688376861432
 30
0.0
 40
0.0010000000000002
100
AcDbArc
 50
180.0
 51
0.0
  0
ARC
  5
722
330
6BD
100
AcDbEntity
  8
SANINDUSA
100
AcDbCircle
 10
-0.2370306080883893
 20
-0.0213779285952569
 30
0.0
 40
0.0010000000000002
100
AcDbArc
 50
180.0
 51
0.0
  0
ARC
  5
723
330
6BD
100
AcDbEntity
  8
SANINDUSA
100
AcDbCircle
 10
-0.2330306080884839
 20
-0.0212870195043706
 30
0.0
 40
0.0010000000000002
100
AcDbArc
 50
180.0
 51
271.301952672039
  0
ARC
  5
724
330
6BD
100
AcDbEntity
  8
SANINDUSA
100
AcDbCircle
 10
-0.2370306080883893
 20
0.1121205220181309
 30
0.0
 40
0.0010000000000002
100
AcDbArc
 50
0.0
 51
180.0
  0
ARC
  5
725
330
6BD
100
AcDbEntity
  8
SANINDUSA
100
AcDbCircle
 10
-0.2450306080882001
 20
0.1123023401999035
 30
0.0
 40
0.0010000000000002
100
AcDbArc
 50
0.0
 51
180.0
  0
LINE
  5
726
330
6BD
100
AcDbEntity
  8
SANINDUSA
100
AcDbLine
 10
-0.2460306080884038
 20
0.1123023401999035
 30
0.0
 11
-0.2460306080884038
 21
0.1108712967113661
 31
0.0
  0
ARC
  5
727
330
6BD
100
AcDbEntity
  8
SANINDUSA
100
AcDbCircle
 10
-0.2410306080882947
 20
0.1122114311090172
 30
0.0
 40
0.0010000000000002
100
AcDbArc
 50
0.0
 51
180.0
  0
LINE
  5
728
330
6BD
100
AcDbEntity
  8
SANINDUSA
100
AcDbLine
 10
-0.2440306080879964
 20
0.1108712967113661
 30
0.0
 11
-0.2440306080879964
 21
0.1123023401999035
 31
0.0
  0
LINE
  5
729
330
6BD
100
AcDbEntity
  8
SANINDUSA
100
AcDbLine
 10
-0.2420306080884984
 20
0.1122114311090172
 30
0.0
 11
-0.2420306080884984
 21
0.1108712967113661
 31
0.0
  0
LINE
  5
72A
330
6BD
100
AcDbEntity
  8
SANINDUSA
100
AcDbLine
 10
-0.240030608088091
 20
0.1108712967113661
 30
0.0
 11
-0.240030608088091
 21
0.1122114311090172
 31
0.0
  0
LINE
  5
72B
330
6BD
100
AcDbEntity
  8
SANINDUSA
100
AcDbLine
 10
-0.238030608088593
 20
0.1121205220181309
 30
0.0
 11
-0.238030608088593
 21
0.1108712967113661
 31
0.0
  0
ARC
  5
72C
330
6BD
100
AcDbEntity
  8
SANINDUSA
100
AcDbCircle
 10
-0.2330306080884839
 20
0.1120296129272447
 30
0.0
 40
0.0010000000000002
100
AcDbArc
 50
88.69804732796104
 51
180.0
  0
LINE
  5
72D
330
6BD
100
AcDbEntity
  8
SANINDUSA
100
AcDbLine
 10
-0.2360306080881855
 20
0.1108712967113661
 30
0.0
 11
-0.2360306080881855
 21
0.1121205220181309
 31
0.0
  0
LINE
  5
72E
330
6BD
100
AcDbEntity
  8
SANINDUSA
100
AcDbLine
 10
-0.2340306080877781
 20
0.1120296129272447
 30
0.0
 11
-0.2340306080877781
 21
0.1108712967113661
 31
0.0
  0
ARC
  5
72F
330
6BD
100
AcDbEntity
  8
SANINDUSA
100
AcDbCircle
 10
-0.2280306080883747
 20
0.1129162347945112
 30
0.0
 40
0.002
100
AcDbArc
 50
0.0
 51
88.69804732796104
  0
ARC
  5
730
330
6BD
100
AcDbEntity
  8
SANINDUSA
100
AcDbCircle
 10
-0.2280306080883747
 20
-0.0221736413718645
 30
0.0
 40
0.002
100
AcDbArc
 50
271.301952672039
 51
0.0
  0
LINE
  5
731
330
6BD
100
AcDbEntity
  8
SANINDUSA
  6
Continuous
100
AcDbLine
 10
0.2571759601205485
 20
0.049998598943148
 30
0.0
 11
0.2571759601205485
 21
-0.049998598943148
 31
0.0
  0
LINE
  5
732
330
6BD
100
AcDbEntity
  8
SANINDUSA
100
AcDbLine
 10
0.2641999999996187
 20
-0.0699999999999363
 30
0.0
 11
0.2842454428100609
 21
-0.0695444217542445
 31
0.0
  0
LINE
  5
733
330
6BD
100
AcDbEntity
  8
SANINDUSA
100
AcDbLine
 10
0.2842454428100609
 20
0.0695444217542445
 30
0.0
 11
0.2641999999996187
 21
0.0699999999999363
 31
0.0
  0
LINE
  5
734
330
6BD
100
AcDbEntity
  8
SANINDUSA
100
AcDbLine
 10
0.2641999999996187
 20
-0.0629638746470391
 30
0.0
 11
0.2641999999996187
 21
-0.0699999999999363
 31
0.0
  0
LINE
  5
735
330
6BD
100
AcDbEntity
  8
SANINDUSA
100
AcDbLine
 10
0.2641999999996187
 20
0.0699999999999363
 30
0.0
 11
0.2641999999996187
 21
0.0629638746472665
 31
0.0
  0
LINE
  5
736
330
6BD
100
AcDbEntity
  8
SANINDUSA
100
AcDbLine
 10
0.2861999999995532
 20
0.0584999999998672
 30
0.0
 11
0.2861999999995532
 21
0.0515109435793875
 31
0.0
  0
LINE
  5
737
330
6BD
100
AcDbEntity
  8
SANINDUSA
100
AcDbLine
 10
0.2861999999995532
 20
-0.0515109435793875
 30
0.0
 11
0.2861999999995532
 21
-0.0585000000000946
 31
0.0
  0
LINE
  5
738
330
6BD
100
AcDbEntity
  8
SANINDUSA
100
AcDbLine
 10
0.2861999999995532
 20
-0.0675449380833015
 30
0.0
 11
0.2861999999995532
 21
-0.0585000000000946
 31
0.0
  0
LINE
  5
739
330
6BD
100
AcDbEntity
  8
SANINDUSA
100
AcDbLine
 10
0.2842000000000553
 20
-0.059500000000071
 30
0.0
 11
0.2842000000000553
 21
-0.0675449380833015
 31
0.0
  0
LINE
  5
73A
330
6BD
100
AcDbEntity
  8
SANINDUSA
100
AcDbLine
 10
0.2842000000000553
 20
-0.0675449380833015
 30
0.0
 11
0.279222721404949
 21
-0.0676580580513928
 31
0.0
  0
LINE
  5
73B
330
6BD
100
AcDbEntity
  8
SANINDUSA
100
AcDbLine
 10
0.2662000000000262
 20
-0.0669310434884665
 30
0.0
 11
0.2662000000000262
 21
-0.063890836662722
 31
0.0
  0
LINE
  5
73C
330
6BD
100
AcDbEntity
  8
SANINDUSA
100
AcDbLine
 10
0.2681999999995241
 20
-0.0648500063841766
 30
0.0
 11
0.2681999999995241
 21
-0.0669310434884665
 31
0.0
  0
LINE
  5
73D
330
6BD
100
AcDbEntity
  8
SANINDUSA
100
AcDbLine
 10
0.2793338659039364
 20
-0.0513897765072216
 30
0.0
 11
0.2842000000000553
 21
-0.059500000000071
 31
0.0
  0
LINE
  5
73E
330
6BD
100
AcDbEntity
  8
SANINDUSA
100
AcDbLine
 10
0.2861999999995532
 20
-0.0585000000000946
 30
0.0
 11
0.2830691973867942
 21
-0.0514556941216142
 31
0.0
  0
LINE
  5
73F
330
6BD
100
AcDbEntity
  8
SANINDUSA
100
AcDbLine
 10
0.2842000000000553
 20
0.0675449380830742
 30
0.0
 11
0.2842000000000553
 21
0.059500000000071
 31
0.0
  0
LINE
  5
740
330
6BD
100
AcDbEntity
  8
SANINDUSA
100
AcDbLine
 10
0.2861999999995532
 20
0.0584999999998672
 30
0.0
 11
0.2861999999995532
 21
0.0675449380830742
 31
0.0
  0
LINE
  5
741
330
6BD
100
AcDbEntity
  8
SANINDUSA
100
AcDbLine
 10
0.2842000000000553
 20
0.059500000000071
 30
0.0
 11
0.2793338659039364
 21
0.0513897765069942
 31
0.0
  0
LINE
  5
742
330
6BD
100
AcDbEntity
  8
SANINDUSA
100
AcDbLine
 10
0.2830691973867942
 20
0.0514556941213869
 30
0.0
 11
0.2861999999995532
 21
0.0584999999998672
 31
0.0
  0
LINE
  5
743
330
6BD
100
AcDbEntity
  8
SANINDUSA
100
AcDbLine
 10
0.279222721404949
 20
0.0676580580511654
 30
0.0
 11
0.2842000000000553
 21
0.0675449380830742
 31
0.0
  0
LINE
  5
744
330
6BD
100
AcDbEntity
  8
SANINDUSA
100
AcDbLine
 10
0.2662000000000262
 20
0.0638908366629494
 30
0.0
 11
0.2662000000000262
 21
0.0669310434884665
 31
0.0
  0
LINE
  5
745
330
6BD
100
AcDbEntity
  8
SANINDUSA
100
AcDbLine
 10
0.2681999999995241
 20
0.0669310434884665
 30
0.0
 11
0.2681999999995241
 21
0.0648500063839492
 31
0.0
  0
ARC
  5
746
330
6BD
100
AcDbEntity
  8
SANINDUSA
100
AcDbCircle
 10
0.2671999999993204
 20
-0.0669310434884665
 30
0.0
 40
0.0010000000000002
100
AcDbArc
 50
180.0
 51
0.0
  0
ARC
  5
747
330
6BD
100
AcDbEntity
  8
SANINDUSA
100
AcDbCircle
 10
0.2711999999992258
 20
-0.0668401343975802
 30
0.0
 40
0.0010000000000002
100
AcDbArc
 50
180.5639344929796
 51
343.1500899781601
  0
ARC
  5
748
330
6BD
100
AcDbEntity
  8
SANINDUSA
100
AcDbCircle
 10
0.2752000000000407
 20
-0.0667492253066939
 30
0.0
 40
0.0010000000000002
100
AcDbArc
 50
202.3816772040944
 51
337.6183227959056
  0
ARC
  5
749
330
6BD
100
AcDbEntity
  8
SANINDUSA
100
AcDbCircle
 10
0.2791999999999462
 20
-0.0666583162158077
 30
0.0
 40
0.0010000000000002
100
AcDbArc
 50
208.1436502311457
 51
271.301952672039
  0
ARC
  5
74A
330
6BD
100
AcDbEntity
  8
SANINDUSA
100
AcDbCircle
 10
0.2752000000000407
 20
0.0667492253066939
 30
0.0
 40
0.0010000000000002
100
AcDbArc
 50
22.38167719202895
 51
157.618322807971
  0
ARC
  5
74B
330
6BD
100
AcDbEntity
  8
SANINDUSA
100
AcDbCircle
 10
0.2671999999993204
 20
0.0669310434884665
 30
0.0
 40
0.0010000000000002
100
AcDbArc
 50
0.0
 51
180.0
  0
LINE
  5
74C
330
6BD
100
AcDbEntity
  8
SANINDUSA
100
AcDbLine
 10
0.2662000000000262
 20
0.0669310434884665
 30
0.0
 11
0.2662000000000262
 21
0.0638908366629494
 31
0.0
  0
ARC
  5
74D
330
6BD
100
AcDbEntity
  8
SANINDUSA
100
AcDbCircle
 10
0.2711999999992258
 20
0.0668401343975802
 30
0.0
 40
0.0010000000000002
100
AcDbArc
 50
16.84991000937676
 51
179.4360655200489
  0
LINE
  5
74E
330
6BD
100
AcDbEntity
  8
SANINDUSA
100
AcDbLine
 10
0.2681999999995241
 20
0.0648500063839492
 30
0.0
 11
0.2681999999995241
 21
0.0669310434884665
 31
0.0
  0
ARC
  5
74F
330
6BD
100
AcDbEntity
  8
SANINDUSA
100
AcDbCircle
 10
0.2791999999999462
 20
0.0666583162158077
 30
0.0
 40
0.0010000000000002
100
AcDbArc
 50
88.69804732796104
 51
151.8563497803362
  0
ARC
  5
750
330
6BD
100
AcDbEntity
  8
SANINDUSA
100
AcDbCircle
 10
0.2842000000000553
 20
0.0675449380830742
 30
0.0
 40
0.002
100
AcDbArc
 50
0.0
 51
88.69804732796104
  0
ARC
  5
751
330
6BD
100
AcDbEntity
  8
SANINDUSA
100
AcDbCircle
 10
0.2842000000000553
 20
-0.0675449380833015
 30
0.0
 40
0.002
100
AcDbArc
 50
271.301952672039
 51
0.0
  0
LINE
  5
752
330
6BD
100
AcDbEntity
  8
SANINDUSA
100
AcDbLine
 10
0.271900752518377
 20
0.064679999999953
 30
0.0
 11
0.271900752518377
 21
0.0512586039178586
 31
0.0
  0
LINE
  5
753
330
6BD
100
AcDbEntity
  8
SANINDUSA
100
AcDbLine
 10
0.271900752518377
 20
-0.051258603918086
 30
0.0
 11
0.271900752518377
 21
-0.0646800000001804
 31
0.0
  0
LINE
  5
754
330
6BD
100
AcDbEntity
  8
SANINDUSA
100
AcDbLine
 10
0.2655799999993178
 20
0.0548799999999119
 30
0.0
 11
0.2655799999993178
 21
0.051147061226402
 31
0.0
  0
LINE
  5
755
330
6BD
100
AcDbEntity
  8
SANINDUSA
100
AcDbLine
 10
0.2655799999993178
 20
-0.0511470612266294
 30
0.0
 11
0.2655799999993178
 21
-0.0548800000001393
 31
0.0
  0
LINE
  5
756
330
6BD
100
AcDbEntity
  8
SANINDUSA
100
AcDbLine
 10
0.2616107525182088
 20
0.0543900000000122
 30
0.0
 11
0.2616107525182088
 21
0.0510770156827221
 31
0.0
  0
LINE
  5
757
330
6BD
100
AcDbEntity
  8
SANINDUSA
100
AcDbLine
 10
0.2616107525182088
 20
-0.0510770156827221
 30
0.0
 11
0.2616107525182088
 21
-0.0543900000000122
 31
0.0
  0
LINE
  5
758
330
6BD
100
AcDbEntity
  8
SANINDUSA
100
AcDbLine
 10
0.0
 20
-0.0480199999999513
 30
0.0
 11
0.0
 21
0.0480199999999513
 31
0.0
  0
LINE
  5
759
330
6BD
100
AcDbEntity
  8
SANINDUSA
100
AcDbLine
 10
0.000489999999445
 20
0.0475300000000516
 30
0.0
 11
0.000489999999445
 21
-0.0475300000000516
 31
0.0
  0
LINE
  5
75A
330
6BD
100
AcDbEntity
  8
SANINDUSA
100
AcDbLine
 10
0.2394558456726372
 20
0.0514954290604237
 30
0.0
 11
0.2680610583383896
 21
0.0647534018573879
 31
0.0
  0
LINE
  5
75B
330
6BD
100
AcDbEntity
  8
SANINDUSA
100
AcDbLine
 10
0.2546318585818881
 20
0.0478170353544556
 30
0.0
 11
0.2609177878730406
 21
0.0541029646453808
 31
0.0
  0
LINE
  5
75C
330
6BD
100
AcDbEntity
  8
SANINDUSA
100
AcDbLine
 10
0.000489999999445
 20
0.0475300000000516
 30
0.0
 11
0.25393889393672
 21
0.0475300000000516
 31
0.0
  0
LINE
  5
75D
330
6BD
100
AcDbEntity
  8
SANINDUSA
100
AcDbLine
 10
0.0082044012569895
 20
0.0514499999999316
 30
0.0
 11
0.2392497954851933
 21
0.0514499999999316
 31
0.0
  0
ARC
  5
75E
330
6BD
100
AcDbEntity
  8
SANINDUSA
100
AcDbCircle
 10
0.0082044012569895
 20
0.0166170408240305
 30
0.0
 40
0.0348329591759133
100
AcDbArc
 50
90.0
 51
102.981023069007
  0
ARC
  5
75F
330
6BD
100
AcDbEntity
  8
SANINDUSA
100
AcDbCircle
 10
0.000489999999445
 20
0.0500823491029223
 30
0.0
 40
0.0004900000000001
100
AcDbArc
 50
102.981023069007
 51
180.0
  0
LINE
  5
760
330
6BD
100
AcDbEntity
  8
SANINDUSA
100
AcDbLine
 10
0.0
 20
0.0480199999999513
 30
0.0
 11
0.0
 21
0.0500823491029223
 31
0.0
  0
ARC
  5
761
330
6BD
100
AcDbEntity
  8
SANINDUSA
100
AcDbCircle
 10
0.000489999999445
 20
0.0480199999999513
 30
0.0
 40
0.00049
100
AcDbArc
 50
180.0
 51
270.0
  0
ARC
  5
762
330
6BD
100
AcDbEntity
  8
SANINDUSA
100
AcDbCircle
 10
0.25393889393672
 20
0.0485099999998511
 30
0.0
 40
0.00098
100
AcDbArc
 50
270.0
 51
315.0000000000092
  0
ARC
  5
763
330
6BD
100
AcDbEntity
  8
SANINDUSA
100
AcDbCircle
 10
0.2392497954851933
 20
0.0519400000000587
 30
0.0
 40
0.00049
100
AcDbArc
 50
270.0
 51
294.8668271162652
  0
ARC
  5
764
330
6BD
100
AcDbEntity
  8
SANINDUSA
100
AcDbCircle
 10
0.2832199999993463
 20
0.0661499999998796
 30
0.0
 40
0.0009800000000001
100
AcDbArc
 50
0.0
 51
90.0
  0
ARC
  5
765
330
6BD
100
AcDbEntity
  8
SANINDUSA
100
AcDbCircle
 10
0.2708859292906709
 20
0.0661499999998796
 30
0.0
 40
0.0009799999999999
100
AcDbArc
 50
90.0
 51
135.0000000000092
  0
LINE
  5
766
330
6BD
100
AcDbEntity
  8
SANINDUSA
100
AcDbLine
 10
0.271900752518377
 20
0.064679999999953
 30
0.0
 11
0.2832199999993463
 21
0.064679999999953
 31
0.0
  0
LINE
  5
767
330
6BD
100
AcDbEntity
  8
SANINDUSA
100
AcDbLine
 10
0.2708859292906709
 20
0.0671299999999064
 30
0.0
 11
0.2832199999993463
 21
0.0671299999999064
 31
0.0
  0
ARC
  5
768
330
6BD
100
AcDbEntity
  8
SANINDUSA
100
AcDbCircle
 10
0.2616107525182088
 20
0.0534099999999853
 30
0.0
 40
0.00098
100
AcDbArc
 50
90.0
 51
135.0000000000092
  0
LINE
  5
769
330
6BD
100
AcDbEntity
  8
SANINDUSA
100
AcDbLine
 10
0.265065376259372
 20
0.0582505530317121
 30
0.0
 11
0.265065376259372
 21
0.0568646237404664
 31
0.0
  0
LINE
  5
76A
330
6BD
100
AcDbEntity
  8
SANINDUSA
100
AcDbLine
 10
0.2650899999998728
 20
0.0543900000000122
 30
0.0
 11
0.2616107525182088
 21
0.0543900000000122
 31
0.0
  0
ARC
  5
76B
330
6BD
100
AcDbEntity
  8
SANINDUSA
100
AcDbCircle
 10
0.2650899999998728
 20
0.0548799999999119
 30
0.0
 40
0.0004900000000001
100
AcDbArc
 50
270.0
 51
0.0
  0
LINE
  5
76C
330
6BD
100
AcDbEntity
  8
SANINDUSA
100
AcDbLine
 10
0.2655799999993178
 20
0.0561470353543427
 30
0.0
 11
0.2655799999993178
 21
0.0548799999999119
 31
0.0
  0
ARC
  5
76D
330
6BD
100
AcDbEntity
  8
SANINDUSA
100
AcDbCircle
 10
0.2650899999998728
 20
0.0561470353543427
 30
0.0
 40
0.0004900000000001
100
AcDbArc
 50
0.0
 51
44.99999999999078
  0
LINE
  5
76E
330
6BD
100
AcDbEntity
  8
SANINDUSA
100
AcDbLine
 10
0.265065376259372
 20
0.0568646237404664
 30
0.0
 11
0.2654364823229116
 21
0.0564935176771542
 31
0.0
  0
ARC
  5
76F
330
6BD
100
AcDbEntity
  8
SANINDUSA
100
AcDbCircle
 10
0.2657583409045401
 20
0.0575575883860893
 30
0.0
 40
0.00098
100
AcDbArc
 50
135.0000000000092
 51
224.9999999999908
  0
ARC
  5
770
330
6BD
100
AcDbEntity
  8
SANINDUSA
100
AcDbCircle
 10
0.271900752518377
 20
0.0636999999999262
 30
0.0
 40
0.0009799999999999
100
AcDbArc
 50
90.0
 51
135.0000000000092
  0
ARC
  5
771
330
6BD
100
AcDbEntity
  8
SANINDUSA
100
AcDbCircle
 10
0.2678550081509456
 20
0.0651979727970229
 30
0.0
 40
0.00049
100
AcDbArc
 50
294.8668271162652
 51
315.0000000000092
  0
LINE
  5
772
330
6BD
100
AcDbEntity
  8
SANINDUSA
100
AcDbLine
 10
0.2682014904739844
 20
0.0648514904742115
 30
0.0
 11
0.2701929646455028
 21
0.0668429646455024
 31
0.0
  0
LINE
  5
773
330
6BD
100
AcDbEntity
  8
SANINDUSA
100
AcDbLine
 10
0.265065376259372
 20
0.0582505530317121
 30
0.0
 11
0.2712077878732089
 21
0.064392964645549
 31
0.0
  0
ARC
  5
774
330
6BD
100
AcDbEntity
  8
SANINDUSA
100
AcDbCircle
 10
0.2832199999993463
 20
0.0656599999999799
 30
0.0
 40
0.0009800000000001
100
AcDbArc
 50
270.0
 51
0.0
  0
LINE
  5
775
330
6BD
100
AcDbEntity
  8
SANINDUSA
100
AcDbLine
 10
0.2842000000000553
 20
0.0661499999998796
 30
0.0
 11
0.2842000000000553
 21
0.0656599999999799
 31
0.0
  0
LINE
  5
776
330
6BD
100
AcDbEntity
  8
SANINDUSA
100
AcDbLine
 10
0.2394558456726372
 20
-0.0514954290604237
 30
0.0
 11
0.2680610583383896
 21
-0.0647534018573879
 31
0.0
  0
LINE
  5
777
330
6BD
100
AcDbEntity
  8
SANINDUSA
100
AcDbLine
 10
0.2609177878730406
 20
-0.0541029646456082
 30
0.0
 11
0.2546318585818881
 21
-0.0478170353544556
 31
0.0
  0
LINE
  5
778
330
6BD
100
AcDbEntity
  8
SANINDUSA
100
AcDbLine
 10
0.25393889393672
 20
-0.0475300000000516
 30
0.0
 11
0.000489999999445
 21
-0.0475300000000516
 31
0.0
  0
LINE
  5
779
330
6BD
100
AcDbEntity
  8
SANINDUSA
100
AcDbLine
 10
0.2392497954851933
 20
-0.051450000000159
 30
0.0
 11
0.0082044012569895
 21
-0.051450000000159
 31
0.0
  0
ARC
  5
77A
330
6BD
100
AcDbEntity
  8
SANINDUSA
100
AcDbCircle
 10
0.0082044012569895
 20
-0.0166170408240305
 30
0.0
 40
0.0348329591759133
100
AcDbArc
 50
257.018976930993
 51
270.0
  0
ARC
  5
77B
330
6BD
100
AcDbEntity
  8
SANINDUSA
100
AcDbCircle
 10
0.000489999999445
 20
-0.0500823491031497
 30
0.0
 40
0.00049
100
AcDbArc
 50
180.0
 51
257.018976930993
  0
ARC
  5
77C
330
6BD
100
AcDbEntity
  8
SANINDUSA
100
AcDbCircle
 10
0.000489999999445
 20
-0.0480199999999513
 30
0.0
 40
0.00049
100
AcDbArc
 50
90.0
 51
180.0
  0
LINE
  5
77D
330
6BD
100
AcDbEntity
  8
SANINDUSA
100
AcDbLine
 10
0.0
 20
-0.0500823491031497
 30
0.0
 11
0.0
 21
-0.0480199999999513
 31
0.0
  0
ARC
  5
77E
330
6BD
100
AcDbEntity
  8
SANINDUSA
100
AcDbCircle
 10
0.25393889393672
 20
-0.0485100000000784
 30
0.0
 40
0.00098
100
AcDbArc
 50
44.99999999999078
 51
90.0
  0
ARC
  5
77F
330
6BD
100
AcDbEntity
  8
SANINDUSA
100
AcDbCircle
 10
0.2832199999993463
 20
-0.066150000000107
 30
0.0
 40
0.0009800000000001
100
AcDbArc
 50
270.0
 51
0.0
  0
LINE
  5
780
330
6BD
100
AcDbEntity
  8
SANINDUSA
100
AcDbLine
 10
0.2701929646455028
 20
-0.0668429646455024
 30
0.0
 11
0.2682014904739844
 21
-0.0648514904742115
 31
0.0
  0
LINE
  5
781
330
6BD
100
AcDbEntity
  8
SANINDUSA
100
AcDbLine
 10
0.2832199999993463
 20
-0.0646800000001804
 30
0.0
 11
0.271900752518377
 21
-0.0646800000001804
 31
0.0
  0
ARC
  5
782
330
6BD
100
AcDbEntity
  8
SANINDUSA
100
AcDbCircle
 10
0.271900752518377
 20
-0.0636999999999262
 30
0.0
 40
0.00098
100
AcDbArc
 50
224.9999999999908
 51
270.0
  0
ARC
  5
783
330
6BD
100
AcDbEntity
  8
SANINDUSA
100
AcDbCircle
 10
0.2678550081509456
 20
-0.0651979727970229
 30
0.0
 40
0.00049
100
AcDbArc
 50
44.99999999999078
 51
65.13317288373476
  0
ARC
  5
784
330
6BD
100
AcDbEntity
  8
SANINDUSA
100
AcDbCircle
 10
0.2616107525182088
 20
-0.0534099999999853
 30
0.0
 40
0.00098
100
AcDbArc
 50
224.9999999999908
 51
270.0
  0
LINE
  5
785
330
6BD
100
AcDbEntity
  8
SANINDUSA
100
AcDbLine
 10
0.265065376259372
 20
-0.0568646237404664
 30
0.0
 11
0.265065376259372
 21
-0.0582505530317121
 31
0.0
  0
ARC
  5
786
330
6BD
100
AcDbEntity
  8
SANINDUSA
100
AcDbCircle
 10
0.2657583409045401
 20
-0.0575575883860893
 30
0.0
 40
0.0009799999999999
100
AcDbArc
 50
135.0000000000092
 51
224.9999999999908
  0
LINE
  5
787
330
6BD
100
AcDbEntity
  8
SANINDUSA
100
AcDbLine
 10
0.2654364823229116
 20
-0.0564935176773815
 30
0.0
 11
0.265065376259372
 21
-0.0568646237404664
 31
0.0
  0
ARC
  5
788
330
6BD
100
AcDbEntity
  8
SANINDUSA
100
AcDbCircle
 10
0.2650899999998728
 20
-0.0561470353545701
 30
0.0
 40
0.0004900000000001
100
AcDbArc
 50
315.0000000000092
 51
0.0
  0
LINE
  5
789
330
6BD
100
AcDbEntity
  8
SANINDUSA
100
AcDbLine
 10
0.2655799999993178
 20
-0.0548800000001393
 30
0.0
 11
0.2655799999993178
 21
-0.0561470353545701
 31
0.0
  0
ARC
  5
78A
330
6BD
100
AcDbEntity
  8
SANINDUSA
100
AcDbCircle
 10
0.2650899999998728
 20
-0.0548800000001393
 30
0.0
 40
0.00049
100
AcDbArc
 50
0.0
 51
90.0
  0
LINE
  5
78B
330
6BD
100
AcDbEntity
  8
SANINDUSA
100
AcDbLine
 10
0.2616107525182088
 20
-0.0543900000000122
 30
0.0
 11
0.2650899999998728
 21
-0.0543900000000122
 31
0.0
  0
LINE
  5
78C
330
6BD
100
AcDbEntity
  8
SANINDUSA
100
AcDbLine
 10
0.2712077878732089
 20
-0.064392964645549
 30
0.0
 11
0.265065376259372
 21
-0.0582505530317121
 31
0.0
  0
LINE
  5
78D
330
6BD
100
AcDbEntity
  8
SANINDUSA
100
AcDbLine
 10
0.2842000000000553
 20
-0.0656599999999799
 30
0.0
 11
0.2842000000000553
 21
-0.066150000000107
 31
0.0
  0
ARC
  5
78E
330
6BD
100
AcDbEntity
  8
SANINDUSA
100
AcDbCircle
 10
0.2832199999993463
 20
-0.0656599999999799
 30
0.0
 40
0.0009800000000001
100
AcDbArc
 50
0.0
 51
90.0
  0
LINE
  5
78F
330
6BD
100
AcDbEntity
  8
SANINDUSA
100
AcDbLine
 10
0.2832199999993463
 20
-0.0671300000001338
 30
0.0
 11
0.2708859292906709
 21
-0.0671300000001338
 31
0.0
  0
ARC
  5
790
330
6BD
100
AcDbEntity
  8
SANINDUSA
100
AcDbCircle
 10
0.2708859292906709
 20
-0.066150000000107
 30
0.0
 40
0.00098
100
AcDbArc
 50
224.9999999999908
 51
270.0
  0
ENDBLK
  5
792
330
6BD
100
AcDbEntity
  8
0
100
AcDbBlockEnd
  0
ENDSEC
  0
SECTION
  2
ENTITIES
  0
LINE
  5
308
330
23
100
AcDbEntity
  8
SANINDUSA
100
AcDbLine
 10
800.9919548809646
 20
1113.51549034956
 30
0.0
 11
800.6900720562997
 21
1113.51549034956
 31
0.0
  0
LINE
  5
309
330
23
100
AcDbEntity
  8
SANINDUSA
100
AcDbLine
 10
800.5457806280039
 20
1113.51549034956
 30
0.0
 11
800.5457806280039
 21
1113.55549034956
 31
0.0
  0
LINE
  5
30A
330
23
100
AcDbEntity
  8
SANINDUSA
100
AcDbLine
 10
800.6957806280039
 20
1113.91549034956
 30
0.0
 11
800.830780628004
 21
1113.91549034956
 31
0.0
  0
ARC
  5
30B
330
23
100
AcDbEntity
  8
SANINDUSA
100
AcDbCircle
 10
800.5661989721339
 20
1113.94549034956
 30
0.0
 40
0.0050000000000001
100
AcDbArc
 50
4.999999995723404
 51
90.0
  0
ARC
  5
30C
330
23
100
AcDbEntity
  8
SANINDUSA
100
AcDbCircle
 10
800.5437806280038
 20
1113.94749034956
 30
0.0
 40
0.003
100
AcDbArc
 50
90.0
 51
180.0
  0
LINE
  5
30D
330
23
100
AcDbEntity
  8
SANINDUSA
100
AcDbLine
 10
800.6957806280039
 20
1113.91549034956
 30
0.0
 11
800.5784243870975
 21
1113.91549034956
 31
0.0
  0
LINE
  5
30E
330
23
100
AcDbEntity
  8
SANINDUSA
100
AcDbLine
 10
800.540780628004
 20
1113.94749034956
 30
0.0
 11
800.540780628004
 21
1113.86549034956
 31
0.0
  0
ARC
  5
30F
330
23
100
AcDbEntity
  8
SANINDUSA
100
AcDbCircle
 10
800.5784243870975
 20
1113.92049034956
 30
0.0
 40
0.005
100
AcDbArc
 50
184.9999999957234
 51
270.0
  0
LINE
  5
310
330
23
100
AcDbEntity
  8
SANINDUSA
100
AcDbLine
 10
800.5734434136069
 20
1113.920054570846
 30
0.0
 11
800.5711799456243
 21
1113.945926128274
 31
0.0
  0
LINE
  5
311
330
23
100
AcDbEntity
  8
SANINDUSA
100
AcDbLine
 10
800.5437806280038
 20
1113.95049034956
 30
0.0
 11
800.5661989721339
 21
1113.95049034956
 31
0.0
  0
LINE
  5
312
330
23
100
AcDbEntity
  8
SANINDUSA
100
AcDbLine
 10
800.830780628004
 20
1113.91549034956
 30
0.0
 11
800.920780628004
 21
1113.91549034956
 31
0.0
  0
LINE
  5
314
330
23
100
AcDbEntity
  8
SANINDUSA
100
AcDbLine
 10
800.6458266266326
 20
1113.73649034956
 30
0.0
 11
800.6458266266326
 21
1113.65449034956
 31
0.0
  0
ARC
  5
318
330
23
100
AcDbEntity
  8
SANINDUSA
100
AcDbCircle
 10
800.0444108234301
 20
1113.576390210452
 30
0.0
 40
0.7801605001700374
100
AcDbArc
 50
1.402873788153013
 51
7.257988810304336
  0
ARC
  5
319
330
23
100
AcDbEntity
  8
SANINDUSA
100
AcDbCircle
 10
800.0444108234301
 20
1113.576390210452
 30
0.0
 40
0.7901605001700374
100
AcDbArc
 50
1.3851160177852
 51
7.257988810304336
  0
LINE
  5
31B
330
23
100
AcDbEntity
  8
SANINDUSA
100
AcDbLine
 10
800.9340438072522
 20
1113.708499702976
 30
0.0
 11
800.9171746692492
 21
1113.609848012437
 31
0.0
  0
LINE
  5
31C
330
23
100
AcDbEntity
  8
SANINDUSA
100
AcDbLine
 10
800.9439007560782
 20
1113.706814306928
 30
0.0
 11
800.9271079098395
 21
1113.608602242075
 31
0.0
  0
LINE
  5
31D
330
23
100
AcDbEntity
  8
SANINDUSA
100
AcDbLine
 10
800.7428619911678
 20
1113.590643174332
 30
0.0
 11
800.7300366461864
 21
1113.635292902254
 31
0.0
  0
LINE
  5
31E
330
23
100
AcDbEntity
  8
SANINDUSA
100
AcDbLine
 10
800.6458266266326
 20
1113.644488826279
 30
0.0
 11
800.6458266266326
 21
1113.65449034956
 31
0.0
  0
LINE
  5
320
330
23
100
AcDbEntity
  8
SANINDUSA
100
AcDbLine
 10
800.752473338553
 20
1113.59340397158
 30
0.0
 11
800.7396485858054
 21
1113.638051637718
 31
0.0
  0
LINE
  5
324
330
23
100
AcDbEntity
  8
SANINDUSA
100
AcDbLine
 10
800.8243374806946
 20
1113.59549034956
 30
0.0
 11
800.8343404410007
 21
1113.59549034956
 31
0.0
  0
ARC
  5
32B
330
23
100
AcDbEntity
  8
SANINDUSA
100
AcDbCircle
 10
800.8373143977193
 20
1113.901315920305
 30
0.0
 40
0.1712820657056132
100
AcDbArc
 50
206.4679399141202
 51
249.4901430571925
  0
LINE
  5
32E
330
23
100
AcDbEntity
  8
SANINDUSA
100
AcDbLine
 10
800.6458266266326
 20
1113.73649034956
 30
0.0
 11
800.6458266266326
 21
1113.74649173121
 31
0.0
  0
LINE
  5
32F
330
23
100
AcDbEntity
  8
SANINDUSA
100
AcDbLine
 10
800.7082231248244
 20
1113.752320548098
 30
0.0
 11
800.7123725862722
 21
1113.758473191336
 31
0.0
  0
ARC
  5
330
330
23
100
AcDbEntity
  8
SANINDUSA
100
AcDbCircle
 10
800.7488810517971
 20
1113.666109959372
 30
0.0
 40
0.08
100
AcDbArc
 50
7.257988810304336
 51
69.19008174909982
  0
ARC
  5
335
330
23
100
AcDbEntity
  8
SANINDUSA
100
AcDbCircle
 10
800.7488810517971
 20
1113.666109959372
 30
0.0
 40
0.07
100
AcDbArc
 50
7.257988810304336
 51
69.19008174909982
  0
ARC
  5
339
330
23
100
AcDbEntity
  8
SANINDUSA
100
AcDbCircle
 10
800.841196461825
 20
1113.909005322421
 30
0.0
 40
0.1898466707870334
100
AcDbArc
 50
244.0469198127442
 51
249.1900817490998
  0
LINE
  5
33A
330
23
100
AcDbEntity
  8
SANINDUSA
  6
Continuous
100
AcDbLine
 10
800.650730628004
 20
1113.840978517719
 30
0.0
 11
800.6609376042808
 21
1113.840978517719
 31
0.0
  0
LINE
  5
33B
330
23
100
AcDbEntity
  8
SANINDUSA
  6
Continuous
100
AcDbLine
 10
800.6106051366618
 20
1113.830947853147
 30
0.0
 11
800.6676741047716
 21
1113.829784370967
 31
0.0
  0
LINE
  5
33F
330
23
100
AcDbEntity
  8
SANINDUSA
  6
Continuous
100
AcDbLine
 10
800.609730628004
 20
1113.840978517719
 30
0.0
 11
800.636730628004
 21
1113.840978517719
 31
0.0
  0
ARC
  5
340
330
23
100
AcDbEntity
  8
SANINDUSA
  6
Continuous
100
AcDbCircle
 10
800.6107306280039
 20
1113.832943912245
 30
0.0
 40
0.0019999999999999
100
AcDbArc
 50
180.0
 51
269.0000000030781
  0
ARC
  5
341
330
23
100
AcDbEntity
  8
SANINDUSA
  6
Continuous
100
AcDbCircle
 10
800.609730628004
 20
1113.839978517719
 30
0.0
 40
0.0010000000000001
100
AcDbArc
 50
90.0
 51
180.0
  0
LINE
  5
342
330
23
100
AcDbEntity
  8
SANINDUSA
  6
Continuous
100
AcDbLine
 10
800.6477306280039
 20
1113.850978517719
 30
0.0
 11
800.6397306280039
 21
1113.850978517719
 31
0.0
  0
ARC
  5
343
330
23
100
AcDbEntity
  8
SANINDUSA
  6
Continuous
100
AcDbCircle
 10
800.636730628004
 20
1113.842978517719
 30
0.0
 40
0.002
100
AcDbArc
 50
270.0
 51
0.0
  0
LINE
  5
344
330
23
100
AcDbEntity
  8
SANINDUSA
  6
Continuous
100
AcDbLine
 10
800.6387306280039
 20
1113.849978517719
 30
0.0
 11
800.6387306280039
 21
1113.842978517719
 31
0.0
  0
LINE
  5
345
330
23
100
AcDbEntity
  8
SANINDUSA
  6
Continuous
100
AcDbLine
 10
800.6487306280039
 20
1113.849978517719
 30
0.0
 11
800.6487306280039
 21
1113.842978517719
 31
0.0
  0
ARC
  5
346
330
23
100
AcDbEntity
  8
SANINDUSA
  6
Continuous
100
AcDbCircle
 10
800.650730628004
 20
1113.842978517719
 30
0.0
 40
0.002
100
AcDbArc
 50
180.0
 51
270.0
  0
ARC
  5
347
330
23
100
AcDbEntity
  8
SANINDUSA
  6
Continuous
100
AcDbCircle
 10
800.6397306280039
 20
1113.849978517719
 30
0.0
 40
0.0010000000000001
100
AcDbArc
 50
90.0
 51
180.0
  0
ARC
  5
348
330
23
100
AcDbEntity
  8
SANINDUSA
  6
Continuous
100
AcDbCircle
 10
800.6477306280039
 20
1113.849978517719
 30
0.0
 40
0.0010000000000002
100
AcDbArc
 50
0.0
 51
90.0
  0
LINE
  5
349
330
23
100
AcDbEntity
  8
SANINDUSA
100
AcDbLine
 10
800.607730628004
 20
1113.903478517719
 30
0.0
 11
800.540780628004
 21
1113.903478517719
 31
0.0
  0
LINE
  5
34A
330
23
100
AcDbEntity
  8
SANINDUSA
100
AcDbLine
 10
800.6487306280039
 20
1113.90349034956
 30
0.0
 11
800.6894759266113
 21
1113.90349034956
 31
0.0
  0
LINE
  5
34B
330
23
100
AcDbEntity
  8
SANINDUSA
100
AcDbLine
 10
800.608730628004
 20
1113.839978517719
 30
0.0
 11
800.608730628004
 21
1113.896978517719
 31
0.0
  0
LINE
  5
34C
330
23
100
AcDbEntity
  8
SANINDUSA
100
AcDbLine
 10
800.609730628004
 20
1113.895978517719
 30
0.0
 11
800.6387306280039
 21
1113.895978517719
 31
0.0
  0
LINE
  5
34D
330
23
100
AcDbEntity
  8
SANINDUSA
100
AcDbLine
 10
800.608730628004
 20
1113.902478517719
 30
0.0
 11
800.608730628004
 21
1113.896978517719
 31
0.0
  0
ARC
  5
34E
330
23
100
AcDbEntity
  8
SANINDUSA
100
AcDbCircle
 10
800.607730628004
 20
1113.902478517719
 30
0.0
 40
0.001
100
AcDbArc
 50
0.0
 51
90.0
  0
ARC
  5
34F
330
23
100
AcDbEntity
  8
SANINDUSA
100
AcDbCircle
 10
800.609730628004
 20
1113.896978517719
 30
0.0
 40
0.001
100
AcDbArc
 50
180.0
 51
270.0
  0
ARC
  5
350
330
23
100
AcDbEntity
  8
SANINDUSA
  6
Continuous
100
AcDbCircle
 10
800.6477306280039
 20
1113.886978517719
 30
0.0
 40
0.0010000000000002
100
AcDbArc
 50
270.0
 51
0.0
  0
LINE
  5
351
330
23
100
AcDbEntity
  8
SANINDUSA
  6
Continuous
100
AcDbLine
 10
800.6397306280039
 20
1113.885978517719
 30
0.0
 11
800.6477306280039
 21
1113.885978517719
 31
0.0
  0
ARC
  5
352
330
23
100
AcDbEntity
  8
SANINDUSA
  6
Continuous
100
AcDbCircle
 10
800.6397306280039
 20
1113.886978517719
 30
0.0
 40
0.0010000000000001
100
AcDbArc
 50
180.0
 51
270.0
  0
LINE
  5
353
330
23
100
AcDbEntity
  8
SANINDUSA
  6
Continuous
100
AcDbLine
 10
800.6487306280039
 20
1113.90349034956
 30
0.0
 11
800.6487306280039
 21
1113.886978517719
 31
0.0
  0
LINE
  5
354
330
23
100
AcDbEntity
  8
SANINDUSA
  6
Continuous
100
AcDbLine
 10
800.6387306280039
 20
1113.895978517719
 30
0.0
 11
800.6387306280039
 21
1113.886978517719
 31
0.0
  0
LINE
  5
356
330
23
100
AcDbEntity
  8
SANINDUSA
100
AcDbLine
 10
800.5597846539156
 20
1113.93849034956
 30
0.0
 11
800.5527806280039
 21
1113.93849034956
 31
0.0
  0
LINE
  5
357
330
23
100
AcDbEntity
  8
SANINDUSA
100
AcDbLine
 10
800.5597846539156
 20
1113.93849034956
 30
0.0
 11
800.5614890772299
 21
1113.919008701933
 31
0.0
  0
LINE
  5
358
330
23
100
AcDbEntity
  8
SANINDUSA
100
AcDbLine
 10
800.5631740630882
 20
1113.912978517719
 30
0.0
 11
800.5527806280039
 21
1113.912978517719
 31
0.0
  0
ARC
  5
359
330
23
100
AcDbEntity
  8
SANINDUSA
100
AcDbCircle
 10
800.5784243870975
 20
1113.92049034956
 30
0.0
 40
0.0170000000000005
100
AcDbArc
 50
184.9999999957234
 51
206.2234126933062
  0
LINE
  5
35A
330
23
100
AcDbEntity
  8
SANINDUSA
100
AcDbLine
 10
800.5527806280039
 20
1113.912978517719
 30
0.0
 11
800.5527806280039
 21
1113.93849034956
 31
0.0
  0
LINE
  5
35B
330
23
100
AcDbEntity
  8
SANINDUSA
100
AcDbLine
 10
800.5607806280039
 20
1113.51549034956
 30
0.0
 11
800.5607806280039
 21
1113.56244240454
 31
0.0
  0
LINE
  5
360
330
23
100
AcDbEntity
  8
SANINDUSA
100
AcDbLine
 10
800.608730628004
 20
1113.839978517719
 30
0.0
 11
800.608730628004
 21
1113.832943912245
 31
0.0
  0
ARC
  5
362
330
23
100
AcDbEntity
  8
SANINDUSA
100
AcDbCircle
 10
800.9636146537303
 20
1113.703443514831
 30
0.0
 40
0.03
100
AcDbArc
 50
105.7941232802939
 51
170.2970805539261
  0
ARC
  5
363
330
23
100
AcDbEntity
  8
SANINDUSA
100
AcDbCircle
 10
800.9636146537303
 20
1113.703443514831
 30
0.0
 40
0.02
100
AcDbArc
 50
105.7941232802939
 51
170.2970805539261
  0
ARC
  5
364
330
23
100
AcDbEntity
  8
SANINDUSA
100
AcDbCircle
 10
800.8763748713535
 20
1114.011863109902
 30
0.0
 40
0.3005205551174331
100
AcDbArc
 50
285.7941232802939
 51
290.1194426091817
  0
LINE
  5
365
330
23
100
AcDbEntity
  8
SANINDUSA
100
AcDbLine
 10
800.9919548809646
 20
1113.51549034956
 30
0.0
 11
801.0307806280039
 21
1113.51549034956
 31
0.0
  0
LWPOLYLINE
  5
374
330
23
100
AcDbEntity
  8
SANINDUSA
100
AcDbPolyline
 90
        5
 70
   128
 43
0.0
 10
798.6227577512994
 20
1113.792560855456
 10
798.6292320293919
 20
1113.793222696828
 10
798.6375092112099
 20
1113.793981313395
 10
798.6444582729295
 20
1113.79450504111
 10
798.6454193830902
 20
1113.794567502619
  0
LWPOLYLINE
  5
375
330
23
100
AcDbEntity
  8
SANINDUSA
100
AcDbPolyline
 90
        6
 70
   128
 43
0.0
 10
798.6375952540833
 20
1113.728293342707
 10
798.6343497038128
 20
1113.72774244353
 10
798.6314698039482
 20
1113.726147197342
 10
798.6292818878382
 20
1113.723695850185
 10
798.6279996732941
 20
1113.720634683649
 10
798.6277258495552
 20
1113.717962504876
  0
LWPOLYLINE
  5
376
330
23
100
AcDbEntity
  8
SANINDUSA
100
AcDbPolyline
 90
        4
 70
   128
 43
0.0
 10
798.6303983113134
 20
1113.749742542437
 10
798.6335700121224
 20
1113.740323761569
 10
798.6367274745239
 20
1113.73089176687
 10
798.6375952540833
 20
1113.728293342707
  0
LWPOLYLINE
  5
377
330
23
100
AcDbEntity
  8
SANINDUSA
100
AcDbPolyline
 90
        7
 70
   128
 43
0.0
 10
798.7344642214611
 20
1113.66058521081
 10
798.7347512973619
 20
1113.666372913164
 10
798.735407542025
 20
1113.689546517124
 10
798.7353928356835
 20
1113.704118824494
 10
798.7350893706915
 20
1113.718685277895
 10
798.7345765192805
 20
1113.733283345886
 10
798.7339716842114
 20
1113.747827938592
  0
LWPOLYLINE
  5
378
330
23
100
AcDbEntity
  8
SANINDUSA
100
AcDbPolyline
 90
        6
 70
   128
 43
0.0
 10
798.7180097919843
 20
1113.750904780116
 10
798.7176194147877
 20
1113.739779401391
 10
798.7172588533756
 20
1113.728609166499
 10
798.7165947953696
 20
1113.706124424547
 10
798.7159672938657
 20
1113.683547321938
 10
798.715352991938
 20
1113.660967048821
  0
LWPOLYLINE
  5
379
330
23
100
AcDbEntity
  8
SANINDUSA
100
AcDbPolyline
 90
        4
 70
   128
 43
0.0
 10
798.708639445296
 20
1113.717962504876
 10
798.7096009487185
 20
1113.720860962324
 10
798.7127315262211
 20
1113.730292947404
 10
798.7158619444389
 20
1113.739711699856
  0
LWPOLYLINE
  5
37A
330
23
100
AcDbEntity
  8
SANINDUSA
100
AcDbPolyline
 90
       10
 70
   128
 43
0.0
 10
798.7136075435516
 20
1113.792560855456
 10
798.7129522998958
 20
1113.786388317811
 10
798.7122521941723
 20
1113.780538844367
 10
798.7113911404001
 20
1113.774199963846
 10
798.7104946624614
 20
1113.768404076565
 10
798.709582921316
 20
1113.763240493457
 10
798.7086252529523
 20
1113.758564564629
 10
798.7076721073273
 20
1113.7546676136
 10
798.7067387357805
 20
1113.751624724671
 10
798.7059669835377
 20
1113.749742542437
  0
LWPOLYLINE
  5
37B
330
23
100
AcDbEntity
  8
SANINDUSA
100
AcDbPolyline
 90
        5
 70
   128
 43
0.0
 10
798.7136075435516
 20
1113.792560855456
 10
798.7071332654592
 20
1113.793222696828
 10
798.6988560836413
 20
1113.793981313395
 10
798.6919070219216
 20
1113.79450504111
 10
798.690945911761
 20
1113.794567502619
  0
LWPOLYLINE
  5
37C
330
23
100
AcDbEntity
  8
SANINDUSA
100
AcDbPolyline
 90
        7
 70
   128
 43
0.0
 10
798.7339716842114
 20
1113.747827938592
 10
798.7335888447838
 20
1113.752260359914
 10
798.7328408412503
 20
1113.756646750204
 10
798.7303083434682
 20
1113.765405424268
 10
798.7285036591306
 20
1113.769836031822
 10
798.7263675725407
 20
1113.77414988701
 10
798.72636754302
 20
1113.774149938962
  0
LWPOLYLINE
  5
37D
330
23
100
AcDbEntity
  8
SANINDUSA
100
AcDbPolyline
 90
        7
 70
   128
 43
0.0
 10
798.7136075435516
 20
1113.792560855456
 10
798.713615358462
 20
1113.792516296737
 10
798.7150224318972
 20
1113.784273129038
 10
798.7166724095973
 20
1113.773571472597
 10
798.7178256154487
 20
1113.763287181248
 10
798.718161738145
 20
1113.757050579172
 10
798.7180097919843
 20
1113.750904780116
  0
LWPOLYLINE
  5
37E
330
23
100
AcDbEntity
  8
SANINDUSA
100
AcDbPolyline
 90
        4
 70
   128
 43
0.0
 10
798.7158619444389
 20
1113.739711699856
 10
798.7164534145812
 20
1113.74185507414
 10
798.7172283898094
 20
1113.745745164868
 10
798.7180097919843
 20
1113.750904780116
  0
LWPOLYLINE
  5
37F
330
23
100
AcDbEntity
  8
SANINDUSA
100
AcDbPolyline
 90
        5
 70
   128
 43
0.0
 10
798.7208273017354
 20
1113.783359900681
 10
798.7208272674558
 20
1113.783359949458
 10
798.71862443405
 20
1113.786393398419
 10
798.7136292175947
 20
1113.79253597188
 10
798.7136075435516
 20
1113.792560855456
  0
LWPOLYLINE
  5
380
330
23
100
AcDbEntity
  8
SANINDUSA
100
AcDbPolyline
 90
        4
 70
   128
 43
0.0
 10
798.72636754302
 20
1113.774149938962
 10
798.7263675123872
 20
1113.77414999033
 10
798.726083447119
 20
1113.774849546073
 10
798.7260834240272
 20
1113.774849600493
  0
LWPOLYLINE
  5
381
330
23
100
AcDbEntity
  8
SANINDUSA
100
AcDbPolyline
 90
        4
 70
   128
 43
0.0
 10
798.7260834240272
 20
1113.774849600493
 10
798.7260833961215
 20
1113.774849653162
 10
798.725598222526
 20
1113.775760358862
 10
798.725598194394
 20
1113.77576041129
  0
LWPOLYLINE
  5
382
330
23
100
AcDbEntity
  8
SANINDUSA
100
AcDbPolyline
 90
        4
 70
   128
 43
0.0
 10
798.725598194394
 20
1113.77576041129
 10
798.7255981688978
 20
1113.775760464984
 10
798.7250766545813
 20
1113.776641215347
 10
798.7250766160229
 20
1113.776641259672
  0
LWPOLYLINE
  5
383
330
23
100
AcDbEntity
  8
SANINDUSA
100
AcDbPolyline
 90
        4
 70
   128
 43
0.0
 10
798.7250766160229
 20
1113.776641259672
 10
798.7250765859982
 20
1113.776641311235
 10
798.7225418802124
 20
1113.780741066703
 10
798.722541848011
 20
1113.780741116908
  0
LWPOLYLINE
  5
384
330
23
100
AcDbEntity
  8
SANINDUSA
100
AcDbPolyline
 90
        4
 70
   128
 43
0.0
 10
798.722541848011
 20
1113.780741116908
 10
798.722541817133
 20
1113.780741167885
 10
798.7208273353274
 20
1113.783359851483
 10
798.7208273017354
 20
1113.783359900681
  0
LINE
  5
385
330
23
100
AcDbEntity
  8
SANINDUSA
100
AcDbLine
 10
798.6382624972356
 20
1113.728293342707
 30
0.0
 11
798.6981027976156
 21
1113.728293342707
 31
0.0
  0
LWPOLYLINE
  5
388
330
23
100
AcDbEntity
  8
SANINDUSA
100
AcDbPolyline
 90
       16
 70
   128
 43
0.0
 10
798.7082708303078
 20
1113.673329921619
 10
798.7080141698068
 20
1113.673986912049
 10
798.7077737596032
 20
1113.675031473219
 10
798.7075518681636
 20
1113.676453748841
 10
798.7073505892143
 20
1113.678240318585
 10
798.7071718219866
 20
1113.68037432471
 10
798.7070172532948
 20
1113.682835631128
 10
798.7068883416209
 20
1113.685601013405
 10
798.7067863033512
 20
1113.688644377906
 10
798.7067121013003
 20
1113.691937008004
 10
798.7066664356249
 20
1113.695447835051
 10
798.7066497372178
 20
1113.69914373153
 10
798.7066621636423
 20
1113.702989823646
 10
798.7067035976449
 20
1113.706949820382
 10
798.7067736482619
 20
1113.710986355942
 10
798.7068716545086
 20
1113.71506134232
  0
LINE
  5
389
330
23
100
AcDbEntity
  8
SANINDUSA
100
AcDbLine
 10
798.7068716545086
 20
1113.71506134232
 30
0.0
 11
798.7071064525873
 21
1113.723640831045
 31
0.0
  0
LWPOLYLINE
  5
38A
330
23
100
AcDbEntity
  8
SANINDUSA
100
AcDbPolyline
 90
        6
 70
   128
 43
0.0
 10
798.6987700407679
 20
1113.728293342707
 10
798.7020155910384
 20
1113.72774244353
 10
798.7048954909028
 20
1113.726147197342
 10
798.7070834070128
 20
1113.723695850185
 10
798.708365621557
 20
1113.720634683649
 10
798.708639445296
 20
1113.717962504876
  0
LWPOLYLINE
  5
38B
330
23
100
AcDbEntity
  8
SANINDUSA
100
AcDbPolyline
 90
        4
 70
   128
 43
0.0
 10
798.7059669835377
 20
1113.749742542437
 10
798.7027952827288
 20
1113.740323761569
 10
798.6996378203272
 20
1113.73089176687
 10
798.6987700407679
 20
1113.728293342707
  0
LWPOLYLINE
  5
38C
330
23
100
AcDbEntity
  8
SANINDUSA
100
AcDbPolyline
 90
        3
 70
   128
 43
0.0
 10
798.690945911761
 20
1113.794567502619
 10
798.6852734808381
 20
1113.794894587852
 10
798.6681826474256
 20
1113.795349303223
  0
LWPOLYLINE
  5
38D
330
23
100
AcDbEntity
  8
SANINDUSA
100
AcDbPolyline
 90
        3
 70
   128
 43
0.0
 10
798.6454193830902
 20
1113.794567502619
 10
798.6510918140131
 20
1113.794894587852
 10
798.6681826474256
 20
1113.795349303223
  0
LWPOLYLINE
  5
38E
330
23
100
AcDbEntity
  8
SANINDUSA
100
AcDbPolyline
 90
        6
 70
   128
 43
0.0
 10
798.6183555028668
 20
1113.750904780116
 10
798.6187458800634
 20
1113.739779401391
 10
798.6191064414755
 20
1113.728609166499
 10
798.6197704994816
 20
1113.706124424547
 10
798.6203980009853
 20
1113.683547321938
 10
798.6210123029132
 20
1113.660967048821
  0
LWPOLYLINE
  5
38F
330
23
100
AcDbEntity
  8
SANINDUSA
100
AcDbPolyline
 90
        7
 70
   128
 43
0.0
 10
798.6019010733899
 20
1113.66058521081
 10
798.6016139974893
 20
1113.666372913164
 10
798.6009577528262
 20
1113.689546517124
 10
798.6009724591675
 20
1113.704118824494
 10
798.6012759241596
 20
1113.718685277895
 10
798.6017887755706
 20
1113.733283345886
 10
798.6023936106398
 20
1113.747827938592
  0
LWPOLYLINE
  5
390
330
23
100
AcDbEntity
  8
SANINDUSA
100
AcDbPolyline
 90
        7
 70
   128
 43
0.0
 10
798.6023936106398
 20
1113.747827938592
 10
798.6027764500672
 20
1113.752260359914
 10
798.6035244536009
 20
1113.756646750204
 10
798.606056951383
 20
1113.765405424268
 10
798.6078616357206
 20
1113.769836031822
 10
798.6099977223103
 20
1113.77414988701
 10
798.6099977518311
 20
1113.774149938962
  0
LWPOLYLINE
  5
391
330
23
100
AcDbEntity
  8
SANINDUSA
100
AcDbPolyline
 90
       10
 70
   128
 43
0.0
 10
798.6227577512994
 20
1113.792560855456
 10
798.6234129949552
 20
1113.786388317811
 10
798.6241131006789
 20
1113.780538844367
 10
798.6249741544511
 20
1113.774199963846
 10
798.6258706323897
 20
1113.768404076565
 10
798.626782373535
 20
1113.763240493457
 10
798.6277400418989
 20
1113.758564564629
 10
798.6286931875239
 20
1113.7546676136
 10
798.6296265590706
 20
1113.751624724671
 10
798.6303983113134
 20
1113.749742542437
  0
LWPOLYLINE
  5
392
330
23
100
AcDbEntity
  8
SANINDUSA
100
AcDbPolyline
 90
        7
 70
   128
 43
0.0
 10
798.6227577512994
 20
1113.792560855456
 10
798.6227499363891
 20
1113.792516296737
 10
798.621342862954
 20
1113.784273129038
 10
798.6196928852539
 20
1113.773571472597
 10
798.6185396794025
 20
1113.763287181248
 10
798.6182035567061
 20
1113.757050579172
 10
798.6183555028668
 20
1113.750904780116
  0
LWPOLYLINE
  5
393
330
23
100
AcDbEntity
  8
SANINDUSA
100
AcDbPolyline
 90
        4
 70
   128
 43
0.0
 10
798.6205033504121
 20
1113.739711699856
 10
798.6199118802699
 20
1113.74185507414
 10
798.6191369050417
 20
1113.745745164868
 10
798.6183555028668
 20
1113.750904780116
  0
LWPOLYLINE
  5
394
330
23
100
AcDbEntity
  8
SANINDUSA
100
AcDbPolyline
 90
       16
 70
   128
 43
0.0
 10
798.6280944645433
 20
1113.673329921619
 10
798.6283511250444
 20
1113.673986912049
 10
798.6285915352478
 20
1113.675031473219
 10
798.6288134266876
 20
1113.676453748841
 10
798.6290147056369
 20
1113.678240318585
 10
798.6291934728646
 20
1113.68037432471
 10
798.6293480415562
 20
1113.682835631128
 10
798.6294769532303
 20
1113.685601013405
 10
798.6295789914999
 20
1113.688644377906
 10
798.6296531935509
 20
1113.691937008004
 10
798.6296988592263
 20
1113.695447835051
 10
798.6297155576332
 20
1113.69914373153
 10
798.6297031312087
 20
1113.702989823646
 10
798.6296616972063
 20
1113.706949820382
 10
798.6295916465892
 20
1113.710986355942
 10
798.6294936403425
 20
1113.71506134232
  0
LINE
  5
395
330
23
100
AcDbEntity
  8
SANINDUSA
100
AcDbLine
 10
798.6294936403425
 20
1113.71506134232
 30
0.0
 11
798.6292588422637
 21
1113.723640831045
 31
0.0
  0
LWPOLYLINE
  5
396
330
23
100
AcDbEntity
  8
SANINDUSA
100
AcDbPolyline
 90
        4
 70
   128
 43
0.0
 10
798.6277258495552
 20
1113.717962504876
 10
798.6267643461326
 20
1113.720860962324
 10
798.6236337686301
 20
1113.730292947404
 10
798.6205033504121
 20
1113.739711699856
  0
LWPOLYLINE
  5
397
330
23
100
AcDbEntity
  8
SANINDUSA
100
AcDbPolyline
 90
        4
 70
   128
 43
0.0
 10
798.6138234468402
 20
1113.780741116908
 10
798.6138234777181
 20
1113.780741167885
 10
798.6155379595238
 20
1113.783359851483
 10
798.6155379931156
 20
1113.783359900681
  0
LWPOLYLINE
  5
398
330
23
100
AcDbEntity
  8
SANINDUSA
100
AcDbPolyline
 90
        4
 70
   128
 43
0.0
 10
798.6099977518311
 20
1113.774149938962
 10
798.6099977824639
 20
1113.77414999033
 10
798.610281847732
 20
1113.774849546073
 10
798.6102818708238
 20
1113.774849600493
  0
LWPOLYLINE
  5
399
330
23
100
AcDbEntity
  8
SANINDUSA
100
AcDbPolyline
 90
        4
 70
   128
 43
0.0
 10
798.6107671004571
 20
1113.77576041129
 10
798.6107671259534
 20
1113.775760464984
 10
798.6112886402699
 20
1113.776641215347
 10
798.6112886788281
 20
1113.776641259672
  0
LWPOLYLINE
  5
39A
330
23
100
AcDbEntity
  8
SANINDUSA
100
AcDbPolyline
 90
        4
 70
   128
 43
0.0
 10
798.6102818708238
 20
1113.774849600493
 10
798.6102818987297
 20
1113.774849653162
 10
798.6107670723251
 20
1113.775760358862
 10
798.6107671004571
 20
1113.77576041129
  0
LWPOLYLINE
  5
39B
330
23
100
AcDbEntity
  8
SANINDUSA
100
AcDbPolyline
 90
        4
 70
   128
 43
0.0
 10
798.6112886788281
 20
1113.776641259672
 10
798.611288708853
 20
1113.776641311235
 10
798.6138234146387
 20
1113.780741066703
 10
798.6138234468402
 20
1113.780741116908
  0
LWPOLYLINE
  5
39C
330
23
100
AcDbEntity
  8
SANINDUSA
100
AcDbPolyline
 90
        5
 70
   128
 43
0.0
 10
798.6155379931156
 20
1113.783359900681
 10
798.6155380273954
 20
1113.783359949458
 10
798.6177408608011
 20
1113.786393398419
 10
798.6227360772565
 20
1113.79253597188
 10
798.6227577512994
 20
1113.792560855456
  0
LWPOLYLINE
  5
39D
330
23
100
AcDbEntity
  8
SANINDUSA
100
AcDbPolyline
 90
       16
 70
   128
 43
0.0
 10
798.6681826474256
 20
1113.636482327567
 10
798.6742493162946
 20
1113.636836173706
 10
798.678084983396
 20
1113.637455453454
 10
798.6818398566438
 20
1113.638461436345
 10
798.6854745982671
 20
1113.639843583242
 10
798.6889511290489
 20
1113.641587414141
 10
798.6922330272617
 20
1113.643674659873
 10
798.6952859102375
 20
1113.646083453494
 10
798.6980777945769
 20
1113.648788559382
 10
798.7005794312218
 20
1113.651761637608
 10
798.7027646118816
 20
1113.654971540843
 10
798.7046104436037
 20
1113.658384640674
 10
798.7060975886095
 20
1113.661965179902
 10
798.707210466888
 20
1113.665675647161
 10
798.7079374194165
 20
1113.669477169898
 10
798.7082708303078
 20
1113.673329921619
  0
LWPOLYLINE
  5
39E
330
23
100
AcDbEntity
  8
SANINDUSA
100
AcDbPolyline
 90
       11
 70
   128
 43
0.0
 10
798.7069536184288
 20
1113.612106837408
 10
798.706953668429
 20
1113.612106870574
 10
798.7120819331362
 20
1113.615913314899
 10
798.7168005858981
 20
1113.620243119028
 10
798.7210345648433
 20
1113.62502471681
 10
798.7247581803455
 20
1113.630244896767
 10
798.7279313300615
 20
1113.63583710852
 10
798.7305055112555
 20
1113.641710308385
 10
798.7326025261152
 20
1113.6483688526
 10
798.7338322898875
 20
1113.654431458583
 10
798.7344642214611
 20
1113.66058521081
  0
LWPOLYLINE
  5
39F
330
23
100
AcDbEntity
  8
SANINDUSA
100
AcDbPolyline
 90
        7
 70
   128
 43
0.0
 10
798.715352991938
 20
1113.660967048821
 10
798.7146904402915
 20
1113.654661816852
 10
798.712934770862
 20
1113.648376432532
 10
798.7102500475048
 20
1113.642691938912
 10
798.7065366625564
 20
1113.637388215983
 10
798.7021184585429
 20
1113.632930751045
 10
798.6968598599877
 20
1113.629176477741
  0
LWPOLYLINE
  5
3A1
330
23
100
AcDbEntity
  8
SANINDUSA
100
AcDbPolyline
 90
        6
 70
   128
 43
0.0
 10
798.6968598599877
 20
1113.629176477741
 10
798.6932873410863
 20
1113.627315721489
 10
798.6895339732294
 20
1113.625849888725
 10
798.6856419283108
 20
1113.624795449176
 10
798.6816549363644
 20
1113.624164250256
 10
798.6776177942251
 20
1113.623963383959
  0
LINE
  5
3A2
330
23
100
AcDbEntity
  8
SANINDUSA
100
AcDbLine
 10
798.6776177942251
 20
1113.604091278863
 30
0.0
 11
798.6587475006261
 21
1113.604091278863
 31
0.0
  0
LINE
  5
3A3
330
23
100
AcDbEntity
  8
SANINDUSA
100
AcDbLine
 10
798.6587475006261
 20
1113.623963383959
 30
0.0
 11
798.6776177942251
 21
1113.623963383959
 31
0.0
  0
LWPOLYLINE
  5
3A4
330
23
100
AcDbEntity
  8
SANINDUSA
100
AcDbPolyline
 90
        7
 70
   128
 43
0.0
 10
798.6776177942251
 20
1113.604091278863
 10
798.6827554692996
 20
1113.604319934522
 10
798.6878495547028
 20
1113.605004110151
 10
798.692860142058
 20
1113.606138445743
 10
798.6977479771348
 20
1113.607714054621
 10
798.7024747673745
 20
1113.609718593059
 10
798.7070034818863
 20
1113.612136356987
  0
LINE
  5
3A5
330
23
100
AcDbEntity
  8
SANINDUSA
100
AcDbLine
 10
798.715352991938
 20
1113.660967048821
 30
0.0
 11
798.7082708303078
 21
1113.673329921619
 31
0.0
  0
LWPOLYLINE
  5
3A7
330
23
100
AcDbEntity
  8
SANINDUSA
100
AcDbPolyline
 90
       16
 70
   128
 43
0.0
 10
798.6681826474256
 20
1113.636482327567
 10
798.6621159785564
 20
1113.636836173706
 10
798.6582803114551
 20
1113.637455453454
 10
798.6545254382074
 20
1113.638461436345
 10
798.6508906965841
 20
1113.639843583242
 10
798.6474141658022
 20
1113.641587414141
 10
798.6441322675895
 20
1113.643674659873
 10
798.6410793846135
 20
1113.646083453494
 10
798.6382875002741
 20
1113.648788559382
 10
798.6357858636292
 20
1113.651761637608
 10
798.6336006829694
 20
1113.654971540843
 10
798.6317548512475
 20
1113.658384640674
 10
798.6302677062415
 20
1113.661965179902
 10
798.6291548279631
 20
1113.665675647161
 10
798.6284278754346
 20
1113.669477169898
 10
798.6280944645433
 20
1113.673329921619
  0
LWPOLYLINE
  5
3A8
330
23
100
AcDbEntity
  8
SANINDUSA
100
AcDbPolyline
 90
        7
 70
   128
 43
0.0
 10
798.6210123029132
 20
1113.660967048821
 10
798.6216748545595
 20
1113.654661816852
 10
798.6234305239892
 20
1113.648376432532
 10
798.6261152473463
 20
1113.642691938912
 10
798.6298286322947
 20
1113.637388215983
 10
798.6342468363082
 20
1113.632930751045
 10
798.6395054348634
 20
1113.629176477741
  0
LINE
  5
3A9
330
23
100
AcDbEntity
  8
SANINDUSA
100
AcDbLine
 10
798.6210123029132
 20
1113.660967048821
 30
0.0
 11
798.6280944645433
 21
1113.673329921619
 31
0.0
  0
LWPOLYLINE
  5
3AB
330
23
100
AcDbEntity
  8
SANINDUSA
100
AcDbPolyline
 90
       11
 70
   128
 43
0.0
 10
798.6294116764224
 20
1113.612106837408
 10
798.6294116264221
 20
1113.612106870574
 10
798.6242833617149
 20
1113.615913314899
 10
798.619564708953
 20
1113.620243119028
 10
798.6153307300078
 20
1113.62502471681
 10
798.6116071145057
 20
1113.630244896767
 10
798.6084339647897
 20
1113.63583710852
 10
798.6058597835957
 20
1113.641710308385
 10
798.603762768736
 20
1113.6483688526
 10
798.6025330049636
 20
1113.654431458583
 10
798.6019010733899
 20
1113.66058521081
  0
LWPOLYLINE
  5
3AC
330
23
100
AcDbEntity
  8
SANINDUSA
100
AcDbPolyline
 90
        7
 70
   128
 43
0.0
 10
798.6587475006261
 20
1113.604091278863
 10
798.6536098255514
 20
1113.604319934522
 10
798.6485157401484
 20
1113.605004110151
 10
798.643505152793
 20
1113.606138445743
 10
798.6386173177164
 20
1113.607714054621
 10
798.6338905274765
 20
1113.609718593059
 10
798.6293618129648
 20
1113.612136356987
  0
LWPOLYLINE
  5
3AE
330
23
100
AcDbEntity
  8
SANINDUSA
100
AcDbPolyline
 90
        6
 70
   128
 43
0.0
 10
798.6395054348634
 20
1113.629176477741
 10
798.6430779537649
 20
1113.627315721489
 10
798.6468313216217
 20
1113.625849888725
 10
798.6507233665403
 20
1113.624795449176
 10
798.6547103584866
 20
1113.624164250256
 10
798.6587475006261
 20
1113.623963383959
  0
LINE
  5
3B2
330
23
100
AcDbEntity
  8
SANINDUSA
100
AcDbLine
 10
800.0553282978563
 20
1113.729368101609
 30
0.0
 11
800.0510967092189
 21
1113.567825626717
 31
0.0
  0
LINE
  5
3B4
330
23
100
AcDbEntity
  8
SANINDUSA
100
AcDbLine
 10
800.0355171988122
 20
1113.560961086331
 30
0.0
 11
800.2641053646621
 21
1113.560961086331
 31
0.0
  0
LINE
  5
3B5
330
23
100
AcDbEntity
  8
SANINDUSA
100
AcDbLine
 10
800.0310445756015
 20
1113.51549034956
 30
0.0
 11
800.2685841258593
 21
1113.51549034956
 31
0.0
  0
LINE
  5
3B6
330
23
100
AcDbEntity
  8
SANINDUSA
100
AcDbLine
 10
800.2448572479334
 20
1113.56298414492
 30
0.0
 11
800.0547531674468
 21
1113.56298414492
 31
0.0
  0
LINE
  5
3B8
330
23
100
AcDbEntity
  8
SANINDUSA
100
AcDbLine
 10
800.0235306260099
 20
1113.555989283287
 30
0.0
 11
800.0235306260099
 21
1113.51549034956
 31
0.0
  0
LINE
  5
3BA
330
23
100
AcDbEntity
  8
SANINDUSA
100
AcDbLine
 10
800.0235398782358
 20
1113.51549034956
 30
0.0
 11
800.0310445756015
 21
1113.51549034956
 31
0.0
  0
LINE
  5
3BB
330
23
100
AcDbEntity
  8
SANINDUSA
100
AcDbLine
 10
800.0235398782358
 20
1113.51549034956
 30
0.0
 11
800.0235306260099
 21
1113.51549034956
 31
0.0
  0
LWPOLYLINE
  5
3BD
330
23
100
AcDbEntity
  8
SANINDUSA
100
AcDbPolyline
 90
       17
 70
   128
 43
0.0
 10
800.0235306260099
 20
1113.555989283287
 10
800.0235608453916
 20
1113.556445987654
 10
800.02362357095
 20
1113.556899646378
 10
800.0237275286602
 20
1113.557345660745
 10
800.0238718463441
 20
1113.557780288812
 10
800.0240553132144
 20
1113.558199884163
 10
800.0242763900324
 20
1113.558600926503
 10
800.0245332220213
 20
1113.558980051193
 10
800.0248236544287
 20
1113.559334077476
 10
800.0251452506025
 20
1113.559660035164
 10
800.0254953124356
 20
1113.559955189559
 10
800.025870903001
 20
1113.560217064391
 10
800.0262688711927
 20
1113.560443462602
 10
800.0266858781621
 20
1113.560632484767
 10
800.0271184253302
 20
1113.560782545043
 10
800.02756288374
 20
1113.560892384461
 10
800.0279976952443
 20
1113.560961081488
  0
LINE
  5
3C4
330
23
100
AcDbEntity
  8
SANINDUSA
100
AcDbLine
 10
800.0547368054252
 20
1113.56298392061
 30
0.0
 11
800.0466770239578
 21
1113.56298392061
 31
0.0
  0
LWPOLYLINE
  5
3C5
330
23
100
AcDbEntity
  8
SANINDUSA
100
AcDbPolyline
 90
       17
 70
   128
 43
0.0
 10
800.0510967092189
 20
1113.567825626717
 10
800.0510829688503
 20
1113.567376960838
 10
800.0510241653461
 20
1113.566932985246
 10
800.0509350749529
 20
1113.566497293023
 10
800.0507846350796
 20
1113.566073410215
 10
800.0505967227089
 20
1113.565664767293
 10
800.0503728586105
 20
1113.565274671393
 10
800.0501148545101
 20
1113.564906279551
 10
800.0498247984282
 20
1113.564562573151
 10
800.0495050377804
 20
1113.564246333801
 10
800.0491581603808
 20
1113.563960120815
 10
800.0487869734987
 20
1113.563706250509
 10
800.0483944811392
 20
1113.563486777448
 10
800.0479838597321
 20
1113.56330347782
 10
800.0475584324254
 20
1113.563157835065
 10
800.0471216421901
 20
1113.563051027866
 10
800.0466770239578
 20
1113.56298392061
  0
LINE
  5
3C7
330
23
100
AcDbEntity
  8
SANINDUSA
100
AcDbLine
 10
800.0279976952443
 20
1113.560961081488
 30
0.0
 11
800.0355171988122
 21
1113.560961086331
 31
0.0
  0
LWPOLYLINE
  5
3C9
330
23
100
AcDbEntity
  8
SANINDUSA
100
AcDbPolyline
 90
       34
 70
   128
 43
0.0
 10
800.0466770239578
 20
1113.56298392061
 10
800.0457560990888
 20
1113.562886683958
 10
800.0448428528677
 20
1113.562790147078
 10
800.043938934562
 20
1113.562694484309
 10
800.0430459765933
 20
1113.562599868412
 10
800.0421655915888
 20
1113.562506470258
 10
800.0412993694704
 20
1113.562414458518
 10
800.0404488745825
 20
1113.562323999359
 10
800.0396156428674
 20
1113.562235256147
 10
800.0388011790905
 20
1113.562148389144
 10
800.0380069541236
 20
1113.562063555228
 10
800.0372344022892
 20
1113.561980907604
 10
800.0364849187684
 20
1113.561900595529
 10
800.0357598570831
 20
1113.56182276404
 10
800.0350605266502
 20
1113.561747553697
 10
800.0343881904184
 20
1113.561675100326
 10
800.0337440625855
 20
1113.561605534772
 10
800.0331293064075
 20
1113.561538982667
 10
800.0325450320962
 20
1113.561475564199
 10
800.0319922948159
 20
1113.5614153939
 10
800.0314720927763
 20
1113.561358580432
 10
800.0309853654306
 20
1113.561305226397
 10
800.0305329917786
 20
1113.561255428149
 10
800.0301157887797
 20
1113.561209275622
 10
800.029734509877
 20
1113.561166852163
 10
800.0293898436375
 20
1113.561128234387
 10
800.0290824125066
 20
1113.561093492036
 10
800.0288127716869
 20
1113.561062687851
 10
800.028581408133
 20
1113.561035877463
 10
800.0283887396733
 20
1113.561013109291
 10
800.0282351142555
 20
1113.560994424451
 10
800.0281208093177
 20
1113.560979856689
 10
800.0280460312877
 20
1113.560969432311
 10
800.0279976952443
 20
1113.560961081488
  0
LINE
  5
3CB
330
23
100
AcDbEntity
  8
SANINDUSA
100
AcDbLine
 10
800.2760980754509
 20
1113.51549034956
 30
0.0
 11
800.2760980754509
 21
1113.555989283287
 31
0.0
  0
LINE
  5
3CD
330
23
100
AcDbEntity
  8
SANINDUSA
100
AcDbLine
 10
800.2760980754509
 20
1113.51549034956
 30
0.0
 11
800.2760888232252
 21
1113.51549034956
 31
0.0
  0
LINE
  5
3CE
330
23
100
AcDbEntity
  8
SANINDUSA
100
AcDbLine
 10
800.2685841258593
 20
1113.51549034956
 30
0.0
 11
800.2760888232252
 21
1113.51549034956
 31
0.0
  0
LWPOLYLINE
  5
3D0
330
23
100
AcDbEntity
  8
SANINDUSA
100
AcDbPolyline
 90
       17
 70
   128
 43
0.0
 10
800.2485330199146
 20
1113.567825626717
 10
800.2485489693517
 20
1113.567376960838
 10
800.248603887991
 20
1113.566932985246
 10
800.2486936265079
 20
1113.566497293023
 10
800.2488440663812
 20
1113.566073410215
 10
800.249031978752
 20
1113.565664767293
 10
800.2492558428503
 20
1113.565274671393
 10
800.2495138469507
 20
1113.564906279551
 10
800.2498039030326
 20
1113.564562573151
 10
800.2501236636804
 20
1113.564246333801
 10
800.25047054108
 20
1113.563960120815
 10
800.2508417279623
 20
1113.563706250509
 10
800.2512342203216
 20
1113.563486777448
 10
800.2516448417287
 20
1113.56330347782
 10
800.2520702690354
 20
1113.563157835065
 10
800.2525070592707
 20
1113.563051027866
 10
800.252951677503
 20
1113.56298392061
  0
LINE
  5
3D1
330
23
100
AcDbEntity
  8
SANINDUSA
100
AcDbLine
 10
800.2641053646621
 20
1113.560961086331
 30
0.0
 11
800.2716177862508
 21
1113.560963170145
 31
0.0
  0
LWPOLYLINE
  5
3D5
330
23
100
AcDbEntity
  8
SANINDUSA
100
AcDbPolyline
 90
       17
 70
   128
 43
0.0
 10
800.2760980754509
 20
1113.555989283372
 10
800.2760678560694
 20
1113.556445987654
 10
800.2760051305109
 20
1113.556899646378
 10
800.2759011728008
 20
1113.557345660745
 10
800.2757568551167
 20
1113.557780288812
 10
800.2755733882462
 20
1113.558199884163
 10
800.2753523114284
 20
1113.558600926503
 10
800.2750954794393
 20
1113.558980051193
 10
800.2748050470323
 20
1113.559334077476
 10
800.2744834508584
 20
1113.559660035164
 10
800.2741333890252
 20
1113.559955189559
 10
800.2737577984598
 20
1113.560217064391
 10
800.2733598302681
 20
1113.560443462602
 10
800.2729428232987
 20
1113.560632484767
 10
800.2725102761306
 20
1113.560782545043
 10
800.2720658177208
 20
1113.560892384461
 10
800.2716177862508
 20
1113.560963170145
  0
LINE
  5
3DB
330
23
100
AcDbEntity
  8
SANINDUSA
100
AcDbLine
 10
800.252951677503
 20
1113.56298392061
 30
0.0
 11
800.2448756390673
 21
1113.56298392061
 31
0.0
  0
LINE
  5
3DD
330
23
100
AcDbEntity
  8
SANINDUSA
100
AcDbLine
 10
799.9698143507304
 20
1113.91549034956
 30
0.0
 11
800.3298143507304
 21
1113.91549034956
 31
0.0
  0
LWPOLYLINE
  5
3DE
330
23
100
AcDbEntity
  8
SANINDUSA
100
AcDbPolyline
 90
      137
 70
   128
 43
0.0
 10
799.9823811746016
 20
1113.863641451947
 10
799.982481839882
 20
1113.863638902381
 10
799.982658333202
 20
1113.863636805327
 10
799.9829429195892
 20
1113.863634374294
 10
799.9833351938839
 20
1113.863631640844
 10
799.9837459375446
 20
1113.863629143653
 10
799.9842313132509
 20
1113.863626476662
 10
799.9847920398666
 20
1113.863623653966
 10
799.9854268458132
 20
1113.863620700134
 10
799.986139408695
 20
1113.863617617716
 10
799.9869259051527
 20
1113.863614442653
 10
799.9877874640888
 20
1113.863611188653
 10
799.988722139345
 20
1113.863607880697
 10
799.9897512087959
 20
1113.863604467439
 10
799.9908552324757
 20
1113.863601036676
 10
799.9920358440828
 20
1113.863597600484
 10
799.9932903222423
 20
1113.863594182701
 10
799.9946257084967
 20
1113.863590780972
 10
799.9960343198075
 20
1113.863587430349
 10
799.997518253942
 20
1113.863584139558
 10
799.9990741080498
 20
1113.863580928369
 10
800.0006353312558
 20
1113.863577931003
 10
800.0022613866123
 20
1113.86357502864
 10
800.0039544937854
 20
1113.863572225844
 10
800.0057110998204
 20
1113.863569535831
 10
800.0075400696871
 20
1113.863566953094
 10
800.0094315477284
 20
1113.863564498555
 10
800.011388138291
 20
1113.863562174413
 10
800.013405707873
 20
1113.863559990263
 10
800.0155253362112
 20
1113.863557911857
 10
800.0177064701738
 20
1113.863555988532
 10
800.0199522254682
 20
1113.863554221416
 10
800.0222576601386
 20
1113.863552617879
 10
800.0246348413602
 20
1113.863551174201
 10
800.0270701766595
 20
1113.863549903268
 10
800.0295671596388
 20
1113.863548807021
 10
800.0321202058083
 20
1113.863547891986
 10
800.0354293447376
 20
1113.863546996634
 10
800.0388246013178
 20
1113.863546387015
 10
800.0423023038399
 20
1113.863546054115
 10
800.045884731376
 20
1113.863545989574
 10
800.0495468798725
 20
1113.863546187371
 10
800.0532847044262
 20
1113.863546638026
 10
800.0561639044816
 20
1113.863547141547
 10
800.059084106658
 20
1113.86354777945
 10
800.0620492291158
 20
1113.863548547981
 10
800.0650530112329
 20
1113.863549440186
 10
800.0681316433755
 20
1113.86355046279
 10
800.0712472544474
 20
1113.863551598109
 10
800.0744041577524
 20
1113.863552840464
 10
800.0775954432826
 20
1113.863554178823
 10
800.081697283838
 20
1113.863556002716
 10
800.0858502291409
 20
1113.863557943813
 10
800.090049834498
 20
1113.863559977226
 10
800.0943223104265
 20
1113.863562092181
 10
800.0986375382961
 20
1113.863564245786
 10
800.1029907795638
 20
1113.863566406295
 10
800.1063107554557
 20
1113.863568027489
 10
800.1096497747278
 20
1113.863569619481
 10
800.1130122866562
 20
1113.863571169767
 10
800.1163910579581
 20
1113.863572659906
 10
800.1198265555299
 20
1113.863574090979
 10
800.123275710729
 20
1113.863575427699
 10
800.1267432973277
 20
1113.86357665566
 10
800.1302214917322
 20
1113.863577755993
 10
800.1348424666915
 20
1113.863578989075
 10
800.1394765311317
 20
1113.863579934744
 10
800.1441180727537
 20
1113.863580559095
 10
800.1487987849456
 20
1113.863580825351
 10
800.1534813128863
 20
1113.863580718819
 10
800.1581598291464
 20
1113.863580248799
 10
800.1617012899135
 20
1113.863579662289
 10
800.1652371128946
 20
1113.863578896087
 10
800.1687723108588
 20
1113.863577963272
 10
800.1722985316101
 20
1113.863576881265
 10
800.1758613169904
 20
1113.863575649372
 10
800.1794115081958
 20
1113.863574298869
 10
800.1829542065715
 20
1113.863572844696
 10
800.1864809168683
 20
1113.863571307357
 10
800.1898976839441
 20
1113.863569747717
 10
800.1932962286755
 20
1113.863568142472
 10
800.1966811167172
 20
1113.863566504668
 10
800.2000447441776
 20
1113.86356485267
 10
800.2034036909389
 20
1113.863563192705
 10
800.2067381970686
 20
1113.863561548279
 10
800.2100527295187
 20
1113.86355993064
 10
800.2133398299433
 20
1113.863558355964
 10
800.2166647822038
 20
1113.863556806356
 10
800.2199581741697
 20
1113.863555327026
 10
800.2232245417005
 20
1113.863553927201
 10
800.2264562697693
 20
1113.863552620282
 10
800.2296697359263
 20
1113.863551409836
 10
800.2328452385709
 20
1113.863550312461
 10
800.2359871502742
 20
1113.863549334912
 10
800.2390880748961
 20
1113.863548486755
 10
800.2429852693108
 20
1113.863547603127
 10
800.2468111936059
 20
1113.863546953853
 10
800.2505615609136
 20
1113.86354655041
 10
800.2542592553592
 20
1113.863546403254
 10
800.2578761807196
 20
1113.8635465251
 10
800.2614082467307
 20
1113.863546925088
 10
800.2640534406255
 20
1113.863547425062
 10
800.2666466061938
 20
1113.863548097796
 10
800.2691911060159
 20
1113.863548949468
 10
800.2716811209984
 20
1113.863549978443
 10
800.2741285766939
 20
1113.863551188229
 10
800.2765186731974
 20
1113.863552569708
 10
800.2788544813103
 20
1113.863554122165
 10
800.2811305267584
 20
1113.863555839505
 10
800.2839034595801
 20
1113.863558225003
 10
800.2865788572904
 20
1113.863560856761
 10
800.2891537729793
 20
1113.863563724573
 10
800.2916425784805
 20
1113.863566840288
 10
800.2940266496027
 20
1113.863570172781
 10
800.2963032661883
 20
1113.863573706145
 10
800.297954383036
 20
1113.863576505291
 10
800.2995423790228
 20
1113.86357940205
 10
800.3010690360136
 20
1113.863582392522
 10
800.3025308922493
 20
1113.86358546156
 10
800.3039436491683
 20
1113.863588636409
 10
800.3052885961134
 20
1113.86359186793
 10
800.3065672138044
 20
1113.863595148668
 10
800.30777640386
 20
1113.863598458353
 10
800.3092300965946
 20
1113.863602738437
 10
800.3105664774938
 20
1113.863607006504
 10
800.3117837499763
 20
1113.863611223826
 10
800.3128878605455
 20
1113.863615380571
 10
800.3138692294456
 20
1113.863619406541
 10
800.3147263632243
 20
1113.863623257671
 10
800.3152922629894
 20
1113.863626032173
 10
800.3157859884025
 20
1113.863628663334
 10
800.3162078271877
 20
1113.863631136712
 10
800.316556492879
 20
1113.863633429149
 10
800.316834664733
 20
1113.863635547803
 10
800.3170371823452
 20
1113.863637444779
 10
800.3171639458084
 20
1113.863639105902
 10
800.3172143216051
 20
1113.863640511958
  0
LINE
  5
3E2
330
23
100
AcDbEntity
  8
SANINDUSA
100
AcDbLine
 10
799.9948143507305
 20
1113.95049034956
 30
0.0
 11
800.3048143507305
 21
1113.95049034956
 31
0.0
  0
LWPOLYLINE
  5
3E3
330
23
100
AcDbEntity
  8
SANINDUSA
100
AcDbPolyline
 90
       96
 70
   128
 43
0.0
 10
800.0583892338017
 20
1113.738306165432
 10
800.0583892353398
 20
1113.73830616544
 10
800.0584859006369
 20
1113.73830673065
 10
800.0586505923013
 20
1113.73830777256
 10
800.0588827918232
 20
1113.738309262964
 10
800.059184433768
 20
1113.73831118417
 10
800.0595535863846
 20
1113.738313479797
 10
800.0599895205779
 20
1113.738316099471
 10
800.0607648904464
 20
1113.738320506295
 10
800.0616868194761
 20
1113.738325337954
 10
800.0627519709851
 20
1113.738330406541
 10
800.0639570082924
 20
1113.738335524147
 10
800.0650508603579
 20
1113.738339638953
 10
800.0662372846312
 20
1113.738343587195
 10
800.0675138875097
 20
1113.738347296397
 10
800.0688782753908
 20
1113.738350694087
 10
800.0703280546719
 20
1113.73835370779
 10
800.0718765520021
 20
1113.73835629901
 10
800.0735105701037
 20
1113.738358402421
 10
800.0752272311885
 20
1113.738359979015
 10
800.0770236574677
 20
1113.738360989782
 10
800.0788969711528
 20
1113.738361395714
 10
800.0809010074323
 20
1113.738361139669
 10
800.0829849520702
 20
1113.738360163365
 10
800.0851452621688
 20
1113.738358433484
 10
800.0873783948311
 20
1113.738355916708
 10
800.0896808071592
 20
1113.738352579719
 10
800.0919911906445
 20
1113.738348535456
 10
800.0943663182297
 20
1113.738343751351
 10
800.0968024992124
 20
1113.738338261035
 10
800.0992960428899
 20
1113.73833209814
 10
800.1018432585592
 20
1113.738325296296
 10
800.1045168119079
 20
1113.738317666107
 10
800.1072459940491
 20
1113.738309459401
 10
800.1100262459379
 20
1113.738300779709
 10
800.1128530085296
 20
1113.738291730562
 10
800.115721722779
 20
1113.738282415491
 10
800.1185498201779
 20
1113.738273210661
 10
800.121416347836
 20
1113.738264006997
 10
800.1243165352379
 20
1113.738254971001
 10
800.127245611868
 20
1113.738246269172
 10
800.1301988072111
 20
1113.738238068013
 10
800.1332666192542
 20
1113.73823032398
 10
800.13635844613
 20
1113.738223486719
 10
800.1394684411895
 20
1113.738217741695
 10
800.1425907577834
 20
1113.738213274376
 10
800.1457195492625
 20
1113.738210270228
 10
800.1477663719631
 20
1113.738209175455
 10
800.1498143507305
 20
1113.738208803098
 10
800.1528520512982
 20
1113.73820962649
 10
800.1558887338227
 20
1113.738211997917
 10
800.158918935409
 20
1113.738215769251
 10
800.1619371931628
 20
1113.738220792369
 10
800.1649380441893
 20
1113.738226919144
 10
800.1680140274196
 20
1113.738234222232
 10
800.1710697797241
 20
1113.738242328266
 10
800.1740999097593
 20
1113.738251045084
 10
800.1770990261819
 20
1113.738260180524
 10
800.1800617376485
 20
1113.738269542422
 10
800.1829028342042
 20
1113.738278681497
 10
800.1857083380768
 20
1113.738287743966
 10
800.1884739020299
 20
1113.738296612829
 10
800.1911951788271
 20
1113.738305171091
 10
800.193867821232
 20
1113.738313301753
 10
800.1965648021107
 20
1113.738321122245
 10
800.1992092333779
 20
1113.738328349275
 10
800.2017969664155
 20
1113.738334934395
 10
800.2043238526054
 20
1113.738340829157
 10
800.2067857433292
 20
1113.738345985114
 10
800.2091173868773
 20
1113.738350248546
 10
800.2113865183858
 20
1113.738353760243
 10
800.2135897421171
 20
1113.738356523073
 10
800.2157236623338
 20
1113.738358539902
 10
800.2177848832983
 20
1113.738359813598
 10
800.2198257211393
 20
1113.738360385278
 10
800.2217886500393
 20
1113.738360271081
 10
800.2236704286506
 20
1113.738359510001
 10
800.2254678156253
 20
1113.738358141033
 10
800.227177569616
 20
1113.738356203171
 10
800.2287543868815
 20
1113.73835380706
 10
800.23024709976
 20
1113.738350954609
 10
800.2316531350412
 20
1113.7383477082
 10
800.2329699195152
 20
1113.738344130217
 10
800.2341948799715
 20
1113.738340283045
 10
800.2353579335991
 20
1113.738336115758
 10
800.2364222661567
 20
1113.738331834727
 10
800.2373856596376
 20
1113.738327550567
 10
800.2382458960353
 20
1113.738323373896
 10
800.2390007573433
 20
1113.738319415328
 10
800.2396142040833
 20
1113.738315988369
 10
800.2401327691506
 20
1113.738312948199
 10
800.2405550964285
 20
1113.738310386499
 10
800.2408829867828
 20
1113.738308373861
 10
800.2411109478428
 20
1113.738307002773
 10
800.2412380032577
 20
1113.738306328346
 10
800.2412380047985
 20
1113.73830632834
  0
LWPOLYLINE
  5
3E4
330
23
100
AcDbEntity
  8
SANINDUSA
100
AcDbPolyline
 90
       91
 70
   128
 43
0.0
 10
800.2361736680311
 20
1113.729343214944
 10
800.236055022902
 20
1113.729343452842
 10
800.2358457688519
 20
1113.729345765596
 10
800.235546216289
 20
1113.729350915845
 10
800.2351523050352
 20
1113.729359001285
 10
800.23466692656
 20
1113.729369215685
 10
800.2340908709996
 20
1113.729381162772
 10
800.2332317412141
 20
1113.729398176646
 10
800.232229445309
 20
1113.729416563108
 10
800.2310771556452
 20
1113.729435680498
 10
800.2297834878241
 20
1113.729454647522
 10
800.228822449697
 20
1113.729467101933
 10
800.2277974309146
 20
1113.729478933564
 10
800.2267096762695
 20
1113.729489931401
 10
800.225551100992
 20
1113.729499965791
 10
800.224330250243
 20
1113.729508779464
 10
800.2230486264641
 20
1113.729516201917
 10
800.2210877113293
 20
1113.729524168871
 10
800.2190045699384
 20
1113.729528529323
 10
800.2167869754099
 20
1113.729528951421
 10
800.2144529396428
 20
1113.729525182223
 10
800.2127985034322
 20
1113.729520130849
 10
800.2110929113616
 20
1113.729513040096
 10
800.2093382282849
 20
1113.729503896158
 10
800.2075220344504
 20
1113.729492601489
 10
800.205658217985
 20
1113.729479276887
 10
800.2037490665871
 20
1113.729464011573
 10
800.2009103840466
 20
1113.72943869224
 10
800.1979842295755
 20
1113.729409892302
 10
800.1955415755841
 20
1113.729384161845
 10
800.1930448711393
 20
1113.729356666893
 10
800.1904984382012
 20
1113.729327763786
 10
800.1879065987305
 20
1113.729297808865
 10
800.1852736746876
 20
1113.729267158469
 10
800.1830067815598
 20
1113.729240852704
 10
800.1807122638691
 20
1113.729214562652
 10
800.1783929306462
 20
1113.729188559394
 10
800.1749947258309
 20
1113.729151960287
 10
800.1715533262686
 20
1113.729117342438
 10
800.1680503056794
 20
1113.729085342713
 10
800.1645155364803
 20
1113.729057078774
 10
800.1620928134196
 20
1113.729040413561
 10
800.1596596696099
 20
1113.729026156134
 10
800.1572190528058
 20
1113.729014584033
 10
800.1547543705477
 20
1113.729005915373
 10
800.1522851223874
 20
1113.729000514366
 10
800.1498143507305
 20
1113.728998653481
 10
800.1478808116146
 20
1113.728999804997
 10
800.145948246031
 20
1113.729003173191
 10
800.1423766171493
 20
1113.729014820924
 10
800.1388178037053
 20
1113.729032787537
 10
800.135253337347
 20
1113.729056416661
 10
800.1317142818944
 20
1113.729084730329
 10
800.1293213134799
 20
1113.729106252784
 10
800.1269444472505
 20
1113.729129270456
 10
800.1245865608305
 20
1113.729153497552
 10
800.1222319529016
 20
1113.729178851474
 10
800.1198994947426
 20
1113.729204886845
 10
800.1175920487305
 20
1113.729231320339
 10
800.1142999739951
 20
1113.729269744624
 10
800.1110688574213
 20
1113.729307682656
 10
800.107882543917
 20
1113.729344644019
 10
800.1047691710784
 20
1113.729379685541
 10
800.1026931474717
 20
1113.72940212442
 10
800.1006547380793
 20
1113.729423210656
 10
800.0986564069219
 20
1113.729442776023
 10
800.0966851578366
 20
1113.729460797674
 10
800.0947570127539
 20
1113.729477011595
 10
800.0928743379574
 20
1113.729491301422
 10
800.0902332328688
 20
1113.729508369725
 10
800.0876942293382
 20
1113.729521061269
 10
800.0852452655735
 20
1113.729529384871
 10
800.082908497127
 20
1113.729533324169
 10
800.0813832701025
 20
1113.729533553619
 10
800.0799129246702
 20
1113.729531876613
 10
800.0784992407892
 20
1113.729528378199
 10
800.077133371627
 20
1113.729523106102
 10
800.075826710618
 20
1113.729516212764
 10
800.0745808639749
 20
1113.72950784371
 10
800.0729307994635
 20
1113.729493828745
 10
800.0714044007912
 20
1113.729477694299
 10
800.0700052407921
 20
1113.729460040628
 10
800.0687368923008
 20
1113.729441467985
 10
800.0675858717253
 20
1113.729422335947
 10
800.0665721288784
 20
1113.729403633638
 10
800.0656865674454
 20
1113.729385872177
 10
800.0649453345081
 20
1113.729370099713
 10
800.0643643793228
 20
1113.729357428663
 10
800.0639220508006
 20
1113.729348122738
 10
800.0636176819931
 20
1113.729343301971
 10
800.0634550156245
 20
1113.729342534758
  0
LINE
  5
3E6
330
23
100
AcDbEntity
  8
SANINDUSA
100
AcDbLine
 10
800.3303369930467
 20
1113.865019760305
 30
0.0
 11
799.9692917084141
 21
1113.865019760305
 31
0.0
  0
LWPOLYLINE
  5
3E8
330
23
100
AcDbEntity
  8
SANINDUSA
100
AcDbPolyline
 90
       40
 70
   128
 43
0.0
 10
799.9849430229374
 20
1113.860793087005
 10
799.9851450337039
 20
1113.85681561289
 10
799.9854323163178
 20
1113.852847385601
 10
799.9858047084763
 20
1113.848892890437
 10
799.9862613094331
 20
1113.844962998212
 10
799.9868029094204
 20
1113.841049087244
 10
799.9874288170189
 20
1113.837155561523
 10
799.9881383408085
 20
1113.833286825036
 10
799.9889307893695
 20
1113.829447281772
 10
799.9898054712822
 20
1113.825641335719
 10
799.9907911812945
 20
1113.821761824541
 10
799.9918639569715
 20
1113.817917917871
 10
799.9930223782041
 20
1113.81411414975
 10
799.9942650248832
 20
1113.810355054217
 10
799.9955904768994
 20
1113.806645165312
 10
799.9969973141437
 20
1113.802989017076
 10
799.9984289889716
 20
1113.799519506839
 10
799.9999361067742
 20
1113.79609980037
 10
800.0015169172119
 20
1113.792733610795
 10
800.0031696699446
 20
1113.78942465124
 10
800.0048926146329
 20
1113.786176634833
 10
800.0066840009367
 20
1113.782993274701
 10
800.0085972370191
 20
1113.779788163964
 10
800.0105829938005
 20
1113.77665148439
 10
800.0126389252782
 20
1113.773586889999
 10
800.0147626854488
 20
1113.770598034814
 10
800.0169519283096
 20
1113.767688572853
 10
800.0192043078573
 20
1113.764862158139
 10
800.0214572346445
 20
1113.762191484207
 10
800.023770222746
 20
1113.759599692302
 10
800.0261406800561
 20
1113.757089713973
 10
800.0285660144683
 20
1113.754664480768
 10
800.0310436338763
 20
1113.752326924235
 10
800.0335709461737
 20
1113.750079975923
 10
800.0362234098318
 20
1113.747863093075
 10
800.0389287318116
 20
1113.745742477488
 10
800.0416835825495
 20
1113.743720644894
 10
800.0444846324818
 20
1113.741800111027
 10
800.0473285520453
 20
1113.739983391621
 10
800.0502120116763
 20
1113.738273002409
  0
LWPOLYLINE
  5
3EB
330
23
100
AcDbEntity
  8
SANINDUSA
100
AcDbPolyline
 90
        5
 70
   128
 43
0.0
 10
800.0502120116763
 20
1113.738273002409
 10
800.050682696461
 20
1113.738272061135
 10
800.0527429972565
 20
1113.738279137161
 10
800.0548198607376
 20
1113.738294290197
 10
800.0583892419149
 20
1113.738306160834
  0
ARC
  5
3EC
330
23
100
AcDbEntity
  8
SANINDUSA
100
AcDbCircle
 10
800.0453353567635
 20
1113.729629618318
 30
0.0
 40
0.0099963624721631
100
AcDbArc
 50
358.5009033555146
 51
35.56478513102845
  0
LWPOLYLINE
  5
3EE
330
23
100
AcDbEntity
  8
SANINDUSA
100
AcDbPolyline
 90
        8
 70
   128
 43
0.0
 10
800.0502120116763
 20
1113.738273002409
 10
800.0507814065596
 20
1113.737926534171
 10
800.0512974342779
 20
1113.737568303183
 10
800.0517724805501
 20
1113.737196976452
 10
800.0522021926471
 20
1113.736822143001
 10
800.0525598157883
 20
1113.736478303141
 10
800.0528860791922
 20
1113.736135783717
 10
800.0534669816774
 20
1113.735443733809
  0
LWPOLYLINE
  5
3F0
330
23
100
AcDbEntity
  8
SANINDUSA
100
AcDbPolyline
 90
        5
 70
   128
 43
0.0
 10
800.0634550160313
 20
1113.729342550292
 10
800.0615818224371
 20
1113.729357679583
 10
800.059351382095
 20
1113.729354358656
 10
800.0563922366739
 20
1113.729355345047
 10
800.0553282978563
 20
1113.729368101609
  0
LINE
  5
3F1
330
23
100
AcDbEntity
  8
SANINDUSA
100
AcDbLine
 10
799.9648143507304
 20
1113.91049034956
 30
0.0
 11
799.9648143507304
 21
1113.869992369782
 31
0.0
  0
ARC
  5
3F5
330
23
100
AcDbEntity
  8
SANINDUSA
100
AcDbCircle
 10
799.9819449857763
 20
1113.86067290807
 30
0.0
 40
0.0030004449328519
100
AcDbArc
 50
2.295522293824379
 51
54.19754237640059
  0
ARC
  5
3F6
330
23
100
AcDbEntity
  8
SANINDUSA
100
AcDbCircle
 10
799.9819452003946
 20
1113.860673291039
 30
0.0
 40
0.0030000087802684
100
AcDbArc
 50
54.19658801823733
 51
84.00000347372786
  0
ARC
  5
3F7
330
23
100
AcDbEntity
  8
SANINDUSA
100
AcDbCircle
 10
799.9698143507304
 20
1113.869992369782
 30
0.0
 40
0.0050000000000001
100
AcDbArc
 50
180.0
 51
264.0000000022097
  0
LINE
  5
3F8
330
23
100
AcDbEntity
  8
SANINDUSA
100
AcDbLine
 10
799.9822587867022
 20
1113.863656865458
 30
0.0
 11
799.9692917084141
 21
1113.865019760305
 31
0.0
  0
LINE
  5
3FC
330
23
100
AcDbEntity
  8
SANINDUSA
100
AcDbLine
 10
799.9648143507304
 20
1113.919618792132
 30
0.0
 11
799.9648143507304
 21
1113.92049034956
 31
0.0
  0
LINE
  5
3FD
330
23
100
AcDbEntity
  8
SANINDUSA
100
AcDbLine
 10
799.9648143507304
 20
1113.91049034956
 30
0.0
 11
799.9648143507304
 21
1113.919618792132
 31
0.0
  0
ARC
  5
3FE
330
23
100
AcDbEntity
  8
SANINDUSA
100
AcDbCircle
 10
799.9698143507304
 20
1113.91049034956
 30
0.0
 40
0.005
100
AcDbArc
 50
90.0
 51
180.0
  0
ARC
  5
402
330
23
100
AcDbEntity
  8
SANINDUSA
100
AcDbCircle
 10
799.9948143507305
 20
1113.92049034956
 30
0.0
 40
0.0300000000000001
100
AcDbArc
 50
90.0
 51
180.0
  0
LWPOLYLINE
  5
403
330
23
100
AcDbEntity
  8
SANINDUSA
100
AcDbPolyline
 90
       40
 70
   128
 43
0.0
 10
800.2494166893105
 20
1113.738273002201
 10
800.2522115429771
 20
1113.739928584411
 10
800.2549677947907
 20
1113.741682781498
 10
800.257682296357
 20
1113.743533510383
 10
800.2603720191739
 20
1113.745493659957
 10
800.2630163835648
 20
1113.747549280071
 10
800.2656124095979
 20
1113.749697858922
 10
800.2682135158586
 20
1113.751987879831
 10
800.2707612592057
 20
1113.754371987763
 10
800.2732527136153
 20
1113.756847169643
 10
800.2757040034754
 20
1113.759430899256
 10
800.2780954763878
 20
1113.762103682015
 10
800.2804243913987
 20
1113.764862157409
 10
800.2826101144897
 20
1113.76760225879
 10
800.2847353827304
 20
1113.770418786425
 10
800.2867979506779
 20
1113.773308507264
 10
800.288810038835
 20
1113.77629005647
 10
800.2907565118441
 20
1113.779342336842
 10
800.2926352834304
 20
1113.782461862312
 10
800.2944827445586
 20
1113.785714719011
 10
800.2962576187853
 20
1113.789033881227
 10
800.2979579028863
 20
1113.792415450396
 10
800.2995938605819
 20
1113.795882133128
 10
800.301152292071
 20
1113.799408043878
 10
800.3026313834839
 20
1113.802989013428
 10
800.3039966139146
 20
1113.80653254178
 10
800.305284803
 20
1113.810124451048
 10
800.3064945049175
 20
1113.81376070209
 10
800.3076324560243
 20
1113.81746463467
 10
800.3086895389175
 20
1113.821209322719
 10
800.3096645700846
 20
1113.824990481048
 10
800.3105751675224
 20
1113.828888130623
 10
800.3113990992474
 20
1113.83281923843
 10
800.3121354283543
 20
1113.836779108429
 10
800.3127880566809
 20
1113.840794331807
 10
800.3133511055622
 20
1113.844833887351
 10
800.3138239918644
 20
1113.848892887499
 10
800.3141963843608
 20
1113.852847383656
 10
800.3144836672731
 20
1113.856815611959
 10
800.3146856782963
 20
1113.860793087101
  0
ARC
  5
405
330
23
100
AcDbEntity
  8
SANINDUSA
100
AcDbCircle
 10
800.2542933427267
 20
1113.729629620223
 30
0.0
 40
0.0099963605520425
100
AcDbArc
 50
144.4352183142837
 51
181.4991003195538
  0
LWPOLYLINE
  5
408
330
23
100
AcDbEntity
  8
SANINDUSA
100
AcDbPolyline
 90
        5
 70
   128
 43
0.0
 10
800.2443004035701
 20
1113.729368102921
 10
800.2426195803211
 20
1113.729352068625
 10
800.2402773096624
 20
1113.729354726158
 10
800.237935022195
 20
1113.729358019425
 10
800.2361736675013
 20
1113.729343235183
  0
LWPOLYLINE
  5
40A
330
23
100
AcDbEntity
  8
SANINDUSA
100
AcDbPolyline
 90
        5
 70
   128
 43
0.0
 10
800.2412380065795
 20
1113.73830632935
 10
800.2429733458765
 20
1113.738305008686
 10
800.245296539648
 20
1113.738290766391
 10
800.2476160601654
 20
1113.738275038723
 10
800.2494166893105
 20
1113.738273002201
  0
LWPOLYLINE
  5
40B
330
23
100
AcDbEntity
  8
SANINDUSA
100
AcDbPolyline
 90
        8
 70
   128
 43
0.0
 10
800.2461617190245
 20
1113.735443734106
 10
800.2467398900485
 20
1113.73613278987
 10
800.2470673818088
 20
1113.736476791297
 10
800.2474264955555
 20
1113.736822131288
 10
800.2478491932562
 20
1113.73719115513
 10
800.2483157561448
 20
1113.737556834726
 10
800.2488387292427
 20
1113.737920947533
 10
800.2494166893105
 20
1113.738273002201
  0
LINE
  5
40C
330
23
100
AcDbEntity
  8
SANINDUSA
100
AcDbLine
 10
800.3348143507304
 20
1113.91049034956
 30
0.0
 11
800.3348143507304
 21
1113.869992369782
 31
0.0
  0
ARC
  5
40D
330
23
100
AcDbEntity
  8
SANINDUSA
100
AcDbCircle
 10
800.3298143507304
 20
1113.869992369782
 30
0.0
 40
0.0050000000000001
100
AcDbArc
 50
275.9999999977903
 51
0.0
  0
ARC
  5
411
330
23
100
AcDbEntity
  8
SANINDUSA
100
AcDbCircle
 10
800.3177248410642
 20
1113.860596682369
 30
0.0
 40
0.0030863455226432
100
AcDbArc
 50
99.52118566031662
 51
125.5938498533036
  0
ARC
  5
412
330
23
100
AcDbEntity
  8
SANINDUSA
100
AcDbCircle
 10
800.3176837155617
 20
1113.860672907967
 30
0.0
 40
0.0030004450450618
100
AcDbArc
 50
125.8024575819427
 51
177.704473990302
  0
LINE
  5
413
330
23
100
AcDbEntity
  8
SANINDUSA
100
AcDbLine
 10
800.3172143216051
 20
1113.863640511958
 30
0.0
 11
800.3303369930467
 21
1113.865019760305
 31
0.0
  0
LINE
  5
417
330
23
100
AcDbEntity
  8
SANINDUSA
100
AcDbLine
 10
800.3348143507304
 20
1113.92049034956
 30
0.0
 11
800.3348143507304
 21
1113.919618792132
 31
0.0
  0
ARC
  5
41A
330
23
100
AcDbEntity
  8
SANINDUSA
100
AcDbCircle
 10
800.3298143507304
 20
1113.91049034956
 30
0.0
 40
0.005
100
AcDbArc
 50
0.0
 51
90.0
  0
LINE
  5
41C
330
23
100
AcDbEntity
  8
SANINDUSA
100
AcDbLine
 10
800.3348143507304
 20
1113.919618792132
 30
0.0
 11
800.3348143507304
 21
1113.91049034956
 31
0.0
  0
ARC
  5
41D
330
23
100
AcDbEntity
  8
SANINDUSA
100
AcDbCircle
 10
800.3048143507305
 20
1113.92049034956
 30
0.0
 40
0.0299999999999998
100
AcDbArc
 50
0.0
 51
90.0
  0
LINE
  5
41E
330
23
100
AcDbEntity
  8
SANINDUSA
100
AcDbLine
 10
800.920780628004
 20
1113.91549034956
 30
0.0
 11
801.0534923896473
 21
1113.91549034956
 31
0.0
  0
LINE
  5
420
330
23
100
AcDbEntity
  8
SANINDUSA
100
AcDbLine
 10
800.5457806280039
 20
1113.51549034956
 30
0.0
 11
800.5457806280039
 21
1113.55844240454
 31
0.0
  0
ARC
  5
424
330
23
100
AcDbEntity
  8
SANINDUSA
100
AcDbCircle
 10
800.5507806280039
 20
1113.55844240454
 30
0.0
 40
0.005
100
AcDbArc
 50
90.0
 51
180.0
  0
LINE
  5
427
330
23
100
AcDbEntity
  8
SANINDUSA
100
AcDbLine
 10
800.6990600655001
 20
1113.910786881428
 30
0.0
 11
800.7016917212322
 21
1113.866491076328
 31
0.0
  0
ARC
  5
428
330
23
100
AcDbEntity
  8
SANINDUSA
100
AcDbCircle
 10
800.6940688663606
 20
1113.91049034956
 30
0.0
 40
0.005
100
AcDbArc
 50
3.399999994859978
 51
90.0
  0
LINE
  5
42E
330
23
100
AcDbEntity
  8
SANINDUSA
100
AcDbLine
 10
801.0307806280039
 20
1113.51549034956
 30
0.0
 11
801.0307806280039
 21
1113.55598849697
 31
0.0
  0
LWPOLYLINE
  5
42F
330
23
100
AcDbEntity
  8
SANINDUSA
100
AcDbPolyline
 90
       41
 70
   128
 43
0.0
 10
801.0849724956967
 20
1113.861120882503
 10
801.0840604734838
 20
1113.855745023725
 10
801.083203863604
 20
1113.850359783955
 10
801.0823667404761
 20
1113.844971454179
 10
801.0817294439572
 20
1113.840931318818
 10
801.0810646108119
 20
1113.836895372532
 10
801.0803542418752
 20
1113.832867579367
 10
801.0795803379831
 20
1113.828851903368
 10
801.0789005572698
 20
1113.825640561072
 10
801.0781574296853
 20
1113.822441637825
 10
801.0773417382965
 20
1113.819260578734
 10
801.0764442661709
 20
1113.816102828904
 10
801.075455796376
 20
1113.812973833445
 10
801.0744217266783
 20
1113.810027403123
 10
801.0732946796546
 20
1113.807113629448
 10
801.072077490927
 20
1113.804236269688
 10
801.0707729961175
 20
1113.801399081109
 10
801.0693837470606
 20
1113.798603632192
 10
801.0679120732667
 20
1113.795849185564
 10
801.0663615283245
 20
1113.793138237407
 10
801.0647356658223
 20
1113.790473283899
 10
801.0629329805661
 20
1113.787699600523
 10
801.0610508147406
 20
1113.784977618692
 10
801.0590931211797
 20
1113.782309309105
 10
801.0570638527166
 20
1113.779696642462
 10
801.0545748369709
 20
1113.776678506157
 10
801.0519925408827
 20
1113.773737368456
 10
801.0493226418409
 20
1113.77087530541
 10
801.046570817235
 20
1113.768094393072
 10
801.0437413283852
 20
1113.765395455604
 10
801.040836691053
 20
1113.762775418224
 10
801.0378630882502
 20
1113.760233575163
 10
801.0348267029893
 20
1113.757769220651
 10
801.0315677860555
 20
1113.75525681822
 10
801.0282466693009
 20
1113.752825173566
 10
801.0248679798571
 20
1113.750473951434
 10
801.0214363448557
 20
1113.748202816571
 10
801.0171583548437
 20
1113.745524291254
 10
801.0128064748561
 20
1113.742963770498
 10
801.008385630147
 20
1113.740524269411
 10
801.0039007459695
 20
1113.738208803098
  0
ARC
  5
430
330
23
100
AcDbEntity
  8
SANINDUSA
100
AcDbCircle
 10
801.0257806280039
 20
1113.55598849697
 30
0.0
 40
0.005
100
AcDbArc
 50
0.0
 51
83.99779512870896
  0
LWPOLYLINE
  5
431
330
23
100
AcDbEntity
  8
SANINDUSA
100
AcDbPolyline
 90
        7
 70
   128
 43
0.0
 10
801.0263034673906
 20
1113.56096108573
 10
801.0229904441688
 20
1113.561309431252
 10
801.0196774275105
 20
1113.561657784256
 10
801.0163644117829
 20
1113.562006146112
 10
801.0130513970779
 20
1113.562354517692
 10
801.0100576525514
 20
1113.56266932652
 10
801.0070639088299
 20
1113.562984144941
  0
ARC
  5
432
330
23
100
AcDbEntity
  8
SANINDUSA
100
AcDbCircle
 10
801.0075868280367
 20
1113.567956725308
 30
0.0
 40
0.0050000000000001
100
AcDbArc
 50
181.4999999976663
 51
263.9968119085519
  0
ARC
  5
433
330
23
100
AcDbEntity
  8
SANINDUSA
100
AcDbCircle
 10
801.0083646560234
 20
1113.729260422964
 30
0.0
 40
0.01
100
AcDbArc
 50
116.5123692869805
 51
181.4999999976663
  0
LINE
  5
434
330
23
100
AcDbEntity
  8
SANINDUSA
100
AcDbLine
 10
801.0876128627394
 20
1113.863580840485
 30
0.0
 11
801.1013032703202
 21
1113.865019760305
 31
0.0
  0
LINE
  5
435
330
23
100
AcDbEntity
  8
SANINDUSA
100
AcDbLine
 10
801.1007806280039
 20
1113.91549034956
 30
0.0
 11
801.0534923896473
 21
1113.91549034956
 31
0.0
  0
ARC
  5
436
330
23
100
AcDbEntity
  8
SANINDUSA
100
AcDbCircle
 10
801.0879264481292
 20
1113.860597274799
 30
0.0
 40
0.0030000000000001
100
AcDbArc
 50
95.99999999779033
 51
169.9483484393069
  0
ARC
  5
437
330
23
100
AcDbEntity
  8
SANINDUSA
100
AcDbCircle
 10
801.0534923896473
 20
1113.91049034956
 30
0.0
 40
0.005
100
AcDbArc
 50
90.0
 51
176.60000000514
  0
LINE
  5
438
330
23
100
AcDbEntity
  8
SANINDUSA
100
AcDbLine
 10
801.1057806280039
 20
1113.869992369782
 30
0.0
 11
801.1057806280039
 21
1113.91049034956
 31
0.0
  0
ARC
  5
439
330
23
100
AcDbEntity
  8
SANINDUSA
100
AcDbCircle
 10
801.1007806280039
 20
1113.869992369782
 30
0.0
 40
0.0050000000000002
100
AcDbArc
 50
275.9999999977903
 51
0.0
  0
ARC
  5
43A
330
23
100
AcDbEntity
  8
SANINDUSA
100
AcDbCircle
 10
801.1007806280039
 20
1113.91049034956
 30
0.0
 40
0.005
100
AcDbArc
 50
0.0
 51
90.0
  0
LINE
  5
43B
330
23
100
AcDbEntity
  8
SANINDUSA
100
AcDbLine
 10
800.6894759266113
 20
1113.90349034956
 30
0.0
 11
800.6911755655908
 21
1113.874882171044
 31
0.0
  0
LINE
  5
43C
330
23
100
AcDbEntity
  8
SANINDUSA
100
AcDbLine
 10
801.095530628004
 20
1113.90549034956
 30
0.0
 11
801.058439739373
 21
1113.90549034956
 31
0.0
  0
LINE
  5
43D
330
23
100
AcDbEntity
  8
SANINDUSA
100
AcDbLine
 10
801.0563900706129
 20
1113.874955898126
 30
0.0
 11
801.0581901794159
 21
1113.905255176153
 31
0.0
  0
LINE
  5
43E
330
23
100
AcDbEntity
  8
SANINDUSA
100
AcDbLine
 10
801.0957806280039
 20
1113.874719491014
 30
0.0
 11
801.0957806280039
 21
1113.90524034956
 31
0.0
  0
ARC
  5
43F
330
23
100
AcDbEntity
  8
SANINDUSA
100
AcDbCircle
 10
800.7735038406218
 20
1113.86954571895
 30
0.0
 40
0.1
100
AcDbArc
 50
183.8574159019261
 51
206.4679399141202
  0
ARC
  5
440
330
23
100
AcDbEntity
  8
SANINDUSA
100
AcDbCircle
 10
800.8373143977193
 20
1113.901315920305
 30
0.0
 40
0.1812820657056132
100
AcDbArc
 50
206.4679399141202
 51
225.8512230931961
  0
ARC
  5
441
330
23
100
AcDbEntity
  8
SANINDUSA
100
AcDbCircle
 10
800.7735038406218
 20
1113.86954571895
 30
0.0
 40
0.11
100
AcDbArc
 50
183.2798790448222
 51
191.8255292354441
  0
ARC
  5
442
330
23
100
AcDbEntity
  8
SANINDUSA
100
AcDbCircle
 10
800.7735038406218
 20
1113.86954571895
 30
0.0
 40
0.11
100
AcDbArc
 50
202.9059792078172
 51
206.4679399141202
  0
ARC
  5
443
330
23
100
AcDbEntity
  8
SANINDUSA
100
AcDbCircle
 10
800.70408186772
 20
1113.764064612076
 30
0.0
 40
0.01
100
AcDbArc
 50
326.0035128125472
 51
45.85122309319607
  0
ARC
  5
444
330
23
100
AcDbEntity
  8
SANINDUSA
100
AcDbCircle
 10
800.8908826492824
 20
1113.963462851668
 30
0.0
 40
0.24
100
AcDbArc
 50
285.6061592677932
 51
297.8809242291246
  0
LINE
  5
445
330
23
100
AcDbEntity
  8
SANINDUSA
100
AcDbLine
 10
800.9919548809646
 20
1113.51549034956
 30
0.0
 11
800.9864656128183
 21
1113.725117042737
 31
0.0
  0
LINE
  5
446
330
23
100
AcDbEntity
  8
SANINDUSA
100
AcDbLine
 10
801.0025885414117
 20
1113.567825840566
 30
0.0
 11
800.9983680827737
 21
1113.728998653481
 31
0.0
  0
LINE
  5
449
330
23
100
AcDbEntity
  8
SANINDUSA
100
AcDbLine
 10
801.0207806280039
 20
1113.52549034956
 30
0.0
 11
801.0207806280039
 21
1113.55148665902
 31
0.0
  0
LINE
  5
44A
330
23
100
AcDbEntity
  8
SANINDUSA
100
AcDbLine
 10
801.0207806280039
 20
1113.52549034956
 30
0.0
 11
801.0019399888916
 21
1113.52549034956
 31
0.0
  0
LINE
  5
44B
330
23
100
AcDbEntity
  8
SANINDUSA
100
AcDbLine
 10
801.0016900745604
 20
1113.525733805323
 30
0.0
 11
801.0009365032246
 21
1113.554511533606
 31
0.0
  0
LWPOLYLINE
  5
44C
330
23
100
AcDbEntity
  8
SANINDUSA
100
AcDbPolyline
 90
        6
 70
   128
 43
0.0
 10
801.0207806280039
 20
1113.55148665902
 10
801.0186317112008
 20
1113.551712610683
 10
801.0153186675486
 20
1113.552060975476
 10
801.0120056230544
 20
1113.552409350188
 10
801.0090118473266
 20
1113.552724162296
 10
801.0060180877223
 20
1113.553038982387
  0
ARC
  5
44D
330
23
100
AcDbEntity
  8
SANINDUSA
100
AcDbCircle
 10
801.0075868280367
 20
1113.567956725308
 30
0.0
 40
0.0150000000000001
100
AcDbArc
 50
243.6818607134557
 51
263.9968119085519
  0
ARC
  5
44E
330
23
100
AcDbEntity
  8
SANINDUSA
100
AcDbCircle
 10
800.8293641176342
 20
1113.61549034956
 30
0.0
 40
0.08
100
AcDbArc
 50
196.0263690350435
 51
274.7362821348185
  0
ARC
  5
44F
330
23
100
AcDbEntity
  8
SANINDUSA
100
AcDbCircle
 10
800.8285384215788
 20
1113.62545620256
 30
0.0
 40
0.09
100
AcDbArc
 50
274.7362821348185
 51
350.0130228492491
  0
ARC
  5
450
330
23
100
AcDbEntity
  8
SANINDUSA
100
AcDbCircle
 10
800.8285384215788
 20
1113.62545620256
 30
0.0
 40
0.1
100
AcDbArc
 50
274.7362821348185
 51
350.2970805539261
  0
ARC
  5
451
330
23
100
AcDbEntity
  8
SANINDUSA
100
AcDbCircle
 10
800.8293641176342
 20
1113.61549034956
 30
0.0
 40
0.09
100
AcDbArc
 50
196.0263690350435
 51
274.7362821348185
  0
LINE
  5
452
330
23
100
AcDbEntity
  8
SANINDUSA
100
AcDbLine
 10
800.6746688133564
 20
1113.863883856503
 30
0.0
 11
800.6751650033431
 21
1113.86391333562
 31
0.0
  0
ARC
  5
453
330
23
100
AcDbEntity
  8
SANINDUSA
100
AcDbCircle
 10
800.9814673261933
 20
1113.724986157996
 30
0.0
 40
0.005
100
AcDbArc
 50
1.499999997666362
 51
110.1194426091817
  0
ARC
  5
455
330
23
100
AcDbEntity
  8
SANINDUSA
100
AcDbCircle
 10
801.058439739373
 20
1113.90524034956
 30
0.0
 40
0.00025
100
AcDbArc
 50
90.0
 51
176.60000000514
  0
ARC
  5
456
330
23
100
AcDbEntity
  8
SANINDUSA
100
AcDbCircle
 10
801.095530628004
 20
1113.90524034956
 30
0.0
 40
0.00025
100
AcDbArc
 50
0.0
 51
90.0
  0
ARC
  5
457
330
23
100
AcDbEntity
  8
SANINDUSA
100
AcDbCircle
 10
801.095530628004
 20
1113.874719491014
 30
0.0
 40
0.00025
100
AcDbArc
 50
275.9999999977903
 51
0.0
  0
ARC
  5
458
330
23
100
AcDbEntity
  8
SANINDUSA
100
AcDbCircle
 10
801.0019399888916
 20
1113.52574034956
 30
0.0
 40
0.00025
100
AcDbArc
 50
181.4999999976663
 51
270.0
  0
LINE
  5
459
330
23
100
AcDbEntity
  8
SANINDUSA
100
AcDbLine
 10
800.5607806280039
 20
1113.51549034956
 30
0.0
 11
800.5457806280039
 21
1113.51549034956
 31
0.0
  0
LWPOLYLINE
  5
45B
330
23
100
AcDbEntity
  8
SANINDUSA
100
AcDbPolyline
 90
        2
 70
   128
 43
0.0
 10
801.0563900706129
 20
1113.874955898126
 10
801.0574031773209
 20
1113.874895708496
  0
LINE
  5
45C
330
23
100
AcDbEntity
  8
SANINDUSA
100
AcDbLine
 10
801.056810113585
 20
1113.864913310217
 30
0.0
 11
801.0574031773209
 21
1113.874895708496
 31
0.0
  0
LINE
  5
45D
330
23
100
AcDbEntity
  8
SANINDUSA
100
AcDbLine
 10
801.0717837110039
 20
1113.864023714614
 30
0.0
 11
801.0723767747396
 21
1113.874006112893
 31
0.0
  0
LWPOLYLINE
  5
45E
330
23
100
AcDbEntity
  8
SANINDUSA
100
AcDbPolyline
 90
       42
 70
   128
 43
0.0
 10
801.0717837110039
 20
1113.864023714614
 10
801.0721653192216
 20
1113.864001042908
 42
-0.4464245768510188
 10
801.0730919254168
 20
1113.862835541588
 10
801.0722191790945
 20
1113.857691192129
 10
801.0713494441949
 20
1113.852223439443
 10
801.0705111305961
 20
1113.846827446937
 10
801.069882374629
 20
1113.842841454322
 10
801.069235212002
 20
1113.838912778958
 10
801.0685531107254
 20
1113.835045263476
 10
801.0678178468131
 20
1113.831230084775
 10
801.0671851235651
 20
1113.828241045975
 10
801.0664995791039
 20
1113.825289999399
 10
801.0657564005894
 20
1113.82239172831
 10
801.0649491056806
 20
1113.81955126643
 10
801.0640702018694
 20
1113.816769101462
 10
801.063161498063
 20
1113.814179882907
 10
801.0621701078026
 20
1113.811616824951
 10
801.061097592998
 20
1113.809081465502
 10
801.0599460655933
 20
1113.806576970753
 10
801.0587163520224
 20
1113.804102539366
 10
801.0574096020583
 20
1113.801656771121
 10
801.0560291758778
 20
1113.799243255905
 10
801.0545807508131
 20
1113.796869140351
 10
801.0529650100155
 20
1113.794383097169
 10
801.0512761865612
 20
1113.791940726419
 10
801.0495151226928
 20
1113.789540420418
 10
801.0476943196726
 20
1113.787196151336
 10
801.0454349340973
 20
1113.7844564605
 10
801.0430943795205
 20
1113.781790657249
 10
801.0406685053467
 20
1113.77919018258
 10
801.0381628807156
 20
1113.776658072635
 10
801.0355796918133
 20
1113.774194070942
 10
801.0329179382265
 20
1113.771793119259
 10
801.0301821965699
 20
1113.769454600496
 10
801.0273811457839
 20
1113.767181245322
 10
801.0243588000951
 20
1113.764851223167
 10
801.0212739211038
 20
1113.762592546324
 10
801.0181284573928
 20
1113.760403625438
 10
801.0149398261656
 20
1113.758293316054
 10
801.0109304479772
 20
1113.755782973357
 10
801.0068638599474
 20
1113.753390310166
 10
801.0031151817193
 20
1113.751321722551
  0
LWPOLYLINE
  5
45F
330
23
100
AcDbEntity
  8
SANINDUSA
100
AcDbPolyline
 90
        4
 70
   128
 43
0.0
 10
801.0723767747396
 20
1113.874006112893
 10
801.0835401758104
 20
1113.873342884663
 42
0.0410382521989228
 10
801.0851785241788
 20
1113.873380063988
 10
801.0955567601197
 20
1113.87447086054
  0
LINE
  5
460
330
23
100
AcDbEntity
  8
SANINDUSA
100
AcDbLine
 10
801.0574031773209
 20
1113.874895708496
 30
0.0
 11
801.0723767747396
 21
1113.874006112893
 31
0.0
  0
LINE
  5
461
330
23
100
AcDbEntity
  8
SANINDUSA
100
AcDbLine
 10
801.056810113585
 20
1113.864913310217
 30
0.0
 11
801.0717837110039
 21
1113.864023714614
 31
0.0
  0
LINE
  5
462
330
23
100
AcDbEntity
  8
SANINDUSA
100
AcDbLine
 10
800.6730745798654
 20
1113.873806774339
 30
0.0
 11
800.6745719396073
 21
1113.873895733899
 31
0.0
  0
ARC
  5
463
330
23
100
AcDbEntity
  8
SANINDUSA
100
AcDbCircle
 10
800.6736676436013
 20
1113.86382437606
 30
0.0
 40
0.01
100
AcDbArc
 50
93.40000000174859
 51
183.2798790448222
  0
LINE
  5
464
330
23
100
AcDbEntity
  8
SANINDUSA
100
AcDbLine
 10
800.6745719396073
 20
1113.873895733899
 30
0.0
 11
800.6751650033431
 21
1113.86391333562
 31
0.0
  0
LINE
  5
465
330
23
100
AcDbEntity
  8
SANINDUSA
100
AcDbLine
 10
800.6895455370262
 20
1113.874785329503
 30
0.0
 11
800.6901386007619
 21
1113.864802931224
 31
0.0
  0
ARC
  5
466
330
23
100
AcDbEntity
  8
SANINDUSA
100
AcDbCircle
 10
800.67472811973
 20
1113.862885616675
 30
0.0
 40
0.001
100
AcDbArc
 50
93.40000000174859
 51
183.8574159019261
  0
LINE
  5
467
330
23
100
AcDbEntity
  8
SANINDUSA
100
AcDbLine
 10
800.6901386007619
 20
1113.864802931224
 30
0.0
 11
800.7007527877778
 21
1113.865433530127
 31
0.0
  0
LINE
  5
468
330
23
100
AcDbEntity
  8
SANINDUSA
100
AcDbLine
 10
800.6895455370262
 20
1113.874785329503
 30
0.0
 11
800.6911755655908
 21
1113.874882171044
 31
0.0
  0
LINE
  5
469
330
23
100
AcDbEntity
  8
SANINDUSA
100
AcDbLine
 10
800.6745719396073
 20
1113.873895733899
 30
0.0
 11
800.6895455370262
 21
1113.874785329503
 31
0.0
  0
ARC
  5
46A
330
23
100
AcDbEntity
  8
SANINDUSA
100
AcDbCircle
 10
800.7006934814043
 20
1113.866431769954
 30
0.0
 40
0.001
100
AcDbArc
 50
273.4000000017486
 51
3.399999994859978
  0
LWPOLYLINE
  5
46C
330
23
100
AcDbEntity
  8
SANINDUSA
100
AcDbPolyline
 90
        4
 70
   128
 43
0.0
 10
801.0485011905077
 20
1113.910786881428
 10
801.0458739149715
 20
1113.86656480341
 42
0.4142135623730722
 10
801.0468128484259
 20
1113.865507257209
 10
801.056810113585
 20
1113.864913310217
  0
LINE
  5
470
330
23
100
AcDbEntity
  8
SANINDUSA
100
AcDbLine
 10
801.0468128484259
 20
1113.865507257209
 30
0.0
 11
800.7010746325324
 21
1113.865507257209
 31
0.0
  0
LINE
  5
4F5
330
23
100
AcDbEntity
  8
SANINDUSA
100
AcDbLine
 10
798.5131826474255
 20
1114.017959557579
 30
0.0
 11
798.8231826474256
 21
1114.017959557579
 31
0.0
  0
LINE
  5
4F8
330
23
100
AcDbEntity
  8
SANINDUSA
100
AcDbLine
 10
798.8231826474256
 20
1113.987560239958
 30
0.0
 11
798.5131826474255
 21
1113.987560239958
 31
0.0
  0
LINE
  5
4F9
330
23
100
AcDbEntity
  8
SANINDUSA
100
AcDbLine
 10
798.4881826474255
 20
1113.985296771976
 30
0.0
 11
798.8481826474256
 21
1113.985296771976
 31
0.0
  0
ARC
  5
4FD
330
23
100
AcDbEntity
  8
SANINDUSA
100
AcDbCircle
 10
798.6681826474256
 20
1113.637959557578
 30
0.0
 40
0.127720562503776
100
AcDbArc
 50
180.0
 51
0.0
  0
ARC
  5
4FF
330
23
100
AcDbEntity
  8
SANINDUSA
100
AcDbCircle
 10
798.6681826474256
 20
1113.637959557578
 30
0.0
 40
0.1850000000000001
100
AcDbArc
 50
180.0
 51
0.0
  0
ARC
  5
501
330
23
100
AcDbEntity
  8
SANINDUSA
100
AcDbCircle
 10
798.6681826474256
 20
1113.731959557579
 30
0.0
 40
0.127720562503776
100
AcDbArc
 50
0.0
 51
180.0
  0
LINE
  5
504
330
23
100
AcDbEntity
  8
SANINDUSA
100
AcDbLine
 10
798.8531826474256
 20
1113.980315798485
 30
0.0
 11
798.8531826474256
 21
1113.637959557578
 31
0.0
  0
LINE
  5
507
330
23
100
AcDbEntity
  8
SANINDUSA
100
AcDbLine
 10
798.7959032099293
 20
1113.637959557578
 30
0.0
 11
798.7959032099293
 21
1113.731959557579
 31
0.0
  0
LINE
  5
50D
330
23
100
AcDbEntity
  8
SANINDUSA
100
AcDbLine
 10
798.8231826474256
 20
1114.017959557579
 30
0.0
 11
798.8501826474256
 21
1114.017959557579
 31
0.0
  0
LWPOLYLINE
  5
510
330
23
100
AcDbEntity
  8
SANINDUSA
100
AcDbPolyline
 90
       41
 70
   128
 43
0.0
 10
798.8481826474256
 20
1113.98537302337
 10
798.8481633733316
 20
1113.98545889309
 10
798.8481055807689
 20
1113.985544630406
 10
798.8480093588495
 20
1113.985630103115
 10
798.8478748559405
 20
1113.985715179427
 10
798.8477022794357
 20
1113.985799728159
 10
798.8474918954355
 20
1113.985883618942
 10
798.8472440283369
 20
1113.985966722425
 10
798.846959060333
 20
1113.986048910466
 10
798.8466374308236
 20
1113.986130056339
 10
798.8462796357383
 20
1113.986210034922
 10
798.8458862267711
 20
1113.986288722893
 10
798.8454578105303
 20
1113.986365998922
 10
798.8449950476024
 20
1113.986441743855
 10
798.8444986515344
 20
1113.986515840898
 10
798.8439693877332
 20
1113.9865881758
 10
798.843408072285
 20
1113.986658637024
 10
798.8428155706976
 20
1113.986727115926
 10
798.8421927965655
 20
1113.986793506914
 10
798.8415407101614
 20
1113.986857707621
 10
798.8408603169553
 20
1113.986919619051
 10
798.8401526660639
 20
1113.986979145744
 10
798.8394188486338
 20
1113.987036195912
 10
798.8386599961582
 20
1113.987090681588
 10
798.8378772787329
 20
1113.98714251876
 10
798.837071903251
 20
1113.987191627499
 10
798.8362451115435
 20
1113.987237932081
 10
798.835398178463
 20
1113.98728136111
 10
798.8345324099191
 20
1113.98732184762
 10
798.833649140864
 20
1113.987359329184
 10
798.8327497332346
 20
1113.987393748009
 10
798.8318355738526
 20
1113.987425051023
 10
798.8309080722849
 20
1113.987453189959
 10
798.8299686586722
 20
1113.987478121429
 10
798.829018781522
 20
1113.98749980699
 10
798.828059905476
 20
1113.987518213205
 10
798.8270935090516
 20
1113.987533311693
 10
798.8261210823621
 20
1113.987545079172
 10
798.8251441248187
 20
1113.9875534975
 10
798.8241641428195
 20
1113.987558553694
 10
798.8231826474256
 20
1113.987560239958
  0
LINE
  5
512
330
23
100
AcDbEntity
  8
SANINDUSA
100
AcDbLine
 10
798.8531826474256
 20
1113.990277745466
 30
0.0
 11
798.8531826474256
 21
1113.980315798485
 31
0.0
  0
ARC
  5
514
330
23
100
AcDbEntity
  8
SANINDUSA
100
AcDbCircle
 10
798.8501826474256
 20
1114.014959557579
 30
0.0
 40
0.003
100
AcDbArc
 50
0.0
 51
90.0
  0
LWPOLYLINE
  5
518
330
23
100
AcDbEntity
  8
SANINDUSA
100
AcDbPolyline
 90
       18
 70
   128
 43
0.0
 10
798.8531826474256
 20
1113.990277745466
 10
798.8531613183071
 20
1113.989818159214
 10
798.853097512924
 20
1113.989362493989
 10
798.8529917756415
 20
1113.988914637367
 10
798.8528450085725
 20
1113.988478410303
 10
798.8526584638823
 20
1113.988057534532
 10
798.8524337331043
 20
1113.987655600818
 10
798.852172733562
 20
1113.987276038318
 10
798.8518776920117
 20
1113.986922085324
 10
798.8515511256438
 20
1113.98659676164
 10
798.8511958206075
 20
1113.986302842812
 10
798.85081480824
 20
1113.986042836452
 10
798.8504113392044
 20
1113.985818960842
 10
798.8499888557566
 20
1113.985633126011
 10
798.8495509623759
 20
1113.985486917435
 10
798.8491013950147
 20
1113.985381582515
 10
798.8486439892228
 20
1113.98531801993
 10
798.8481826474256
 20
1113.985296771976
  0
LINE
  5
519
330
23
100
AcDbEntity
  8
SANINDUSA
100
AcDbLine
 10
798.8531826474256
 20
1114.014959557579
 30
0.0
 11
798.8531826474256
 21
1113.99035399686
 31
0.0
  0
LINE
  5
51E
330
23
100
AcDbEntity
  8
SANINDUSA
100
AcDbLine
 10
798.4831826474255
 20
1113.637959557578
 30
0.0
 11
798.4831826474255
 21
1113.980315798485
 31
0.0
  0
LINE
  5
51F
330
23
100
AcDbEntity
  8
SANINDUSA
100
AcDbLine
 10
798.5404620849218
 20
1113.731959557579
 30
0.0
 11
798.5404620849218
 21
1113.637959557578
 31
0.0
  0
LINE
  5
527
330
23
100
AcDbEntity
  8
SANINDUSA
100
AcDbLine
 10
798.4861826474256
 20
1114.017959557579
 30
0.0
 11
798.5131826474255
 21
1114.017959557579
 31
0.0
  0
LWPOLYLINE
  5
529
330
23
100
AcDbEntity
  8
SANINDUSA
100
AcDbPolyline
 90
       41
 70
   128
 43
0.0
 10
798.5131826474255
 20
1113.987560239958
 10
798.5122011520315
 20
1113.987558553694
 10
798.5112211700323
 20
1113.9875534975
 10
798.5102442124891
 20
1113.987545079172
 10
798.5092717857996
 20
1113.987533311693
 10
798.5083053893752
 20
1113.987518213205
 10
798.5073465133291
 20
1113.98749980699
 10
798.5063966361789
 20
1113.987478121429
 10
798.5054572225662
 20
1113.987453189959
 10
798.5045297209986
 20
1113.987425051023
 10
798.5036155616165
 20
1113.987393748009
 10
798.5027161539871
 20
1113.987359329184
 10
798.5018328849321
 20
1113.98732184762
 10
798.5009671163882
 20
1113.98728136111
 10
798.5001201833076
 20
1113.987237932081
 10
798.4992933916
 20
1113.987191627499
 10
798.4984880161182
 20
1113.98714251876
 10
798.4977052986928
 20
1113.987090681588
 10
798.4969464462173
 20
1113.987036195912
 10
798.4962126287872
 20
1113.986979145744
 10
798.4955049778959
 20
1113.986919619051
 10
798.4948245846896
 20
1113.986857707621
 10
798.4941724982856
 20
1113.986793506914
 10
798.4935497241536
 20
1113.986727115926
 10
798.4929572225662
 20
1113.986658637024
 10
798.492395907118
 20
1113.9865881758
 10
798.4918666433167
 20
1113.986515840898
 10
798.4913702472488
 20
1113.986441743855
 10
798.4909074843209
 20
1113.986365998922
 10
798.4904790680799
 20
1113.986288722893
 10
798.4900856591127
 20
1113.986210034922
 10
798.4897278640275
 20
1113.986130056339
 10
798.4894062345182
 20
1113.986048910466
 10
798.4891212665143
 20
1113.985966722425
 10
798.4888733994156
 20
1113.985883618942
 10
798.4886630154155
 20
1113.985799728159
 10
798.4884904389107
 20
1113.985715179427
 10
798.4883559360017
 20
1113.985630103115
 10
798.4882597140822
 20
1113.985544630406
 10
798.4882019215196
 20
1113.98545889309
 10
798.4881826474255
 20
1113.98537302337
  0
LINE
  5
52F
330
23
100
AcDbEntity
  8
SANINDUSA
100
AcDbLine
 10
798.4831826474255
 20
1113.980315798485
 30
0.0
 11
798.4831826474255
 21
1113.990277745466
 31
0.0
  0
ARC
  5
531
330
23
100
AcDbEntity
  8
SANINDUSA
100
AcDbCircle
 10
798.4861826474256
 20
1114.014959557579
 30
0.0
 40
0.003
100
AcDbArc
 50
90.0
 51
180.0
  0
LWPOLYLINE
  5
535
330
23
100
AcDbEntity
  8
SANINDUSA
100
AcDbPolyline
 90
       18
 70
   128
 43
0.0
 10
798.4881826474255
 20
1113.985296771976
 10
798.4877213056282
 20
1113.98531801993
 10
798.4872638998365
 20
1113.985381582515
 10
798.4868143324752
 20
1113.985486917435
 10
798.4863764390946
 20
1113.985633126011
 10
798.4859539556467
 20
1113.985818960842
 10
798.4855504866112
 20
1113.986042836452
 10
798.4851694742436
 20
1113.986302842812
 10
798.4848141692073
 20
1113.98659676164
 10
798.4844876028395
 20
1113.986922085324
 10
798.4841925612892
 20
1113.987276038318
 10
798.4839315617469
 20
1113.987655600818
 10
798.4837068309688
 20
1113.988057534532
 10
798.4835202862785
 20
1113.988478410303
 10
798.4833735192097
 20
1113.988914637367
 10
798.4832677819272
 20
1113.989362493989
 10
798.4832039765441
 20
1113.989818159214
 10
798.4831826474255
 20
1113.990277745466
  0
LINE
  5
536
330
23
100
AcDbEntity
  8
SANINDUSA
100
AcDbLine
 10
798.4831826474255
 20
1113.99035399686
 30
0.0
 11
798.4831826474255
 21
1114.014959557579
 31
0.0
  0
LWPOLYLINE
  5
539
330
23
100
AcDbEntity
  8
SANINDUSA
100
AcDbPolyline
 90
       31
 70
   128
 43
0.0
 10
800.2713935872053
 20
1113.560994424451
 10
800.2712399617875
 20
1113.561013109291
 10
800.2710472933278
 20
1113.561035877463
 10
800.2708159297739
 20
1113.561062687851
 10
800.2705462889542
 20
1113.561093492036
 10
800.2702388578235
 20
1113.561128234387
 10
800.2698941915836
 20
1113.561166852163
 10
800.2695129126811
 20
1113.561209275622
 10
800.2690957096824
 20
1113.561255428149
 10
800.2686433360302
 20
1113.561305226397
 10
800.2681566086845
 20
1113.561358580432
 10
800.2676364066449
 20
1113.5614153939
 10
800.2670836693646
 20
1113.561475564199
 10
800.2664993950533
 20
1113.561538982667
 10
800.2658846388753
 20
1113.561605534772
 10
800.2652405110424
 20
1113.561675100326
 10
800.2645681748106
 20
1113.561747553697
 10
800.2638688443777
 20
1113.56182276404
 10
800.2631437826925
 20
1113.561900595529
 10
800.2623942991716
 20
1113.561980907604
 10
800.2616217473372
 20
1113.562063555228
 10
800.2608275223705
 20
1113.562148389144
 10
800.2600130585936
 20
1113.562235256147
 10
800.2591798268783
 20
1113.562323999359
 10
800.2583293319906
 20
1113.562414458518
 10
800.2574631098722
 20
1113.562506470258
 10
800.2565827248677
 20
1113.562599868412
 10
800.2556897668988
 20
1113.562694484309
 10
800.2547858485932
 20
1113.562790147078
 10
800.2538726023722
 20
1113.562886683958
 10
800.252951677503
 20
1113.56298392061
  0
LINE
  5
53A
330
23
100
AcDbEntity
  8
SANINDUSA
100
AcDbLine
 10
800.2485330199146
 20
1113.567825626717
 30
0.0
 11
800.2443014304901
 21
1113.729368129821
 31
0.0
  0
ARC
  5
544
330
23
100
AcDbEntity
  8
SANINDUSA
100
AcDbCircle
 10
800.6609445805578
 20
1113.845978517719
 30
0.0
 40
0.005
100
AcDbArc
 50
270.0
 51
11.82552923544408
  0
LINE
  5
545
330
23
100
AcDbEntity
  8
SANINDUSA
100
AcDbLine
 10
800.6458266266326
 20
1113.74649173121
 30
0.0
 11
800.7001941757552
 21
1113.747915395587
 31
0.0
  0
LINE
  5
546
330
23
100
AcDbEntity
  8
SANINDUSA
100
AcDbLine
 10
800.6458266266326
 20
1113.73649034956
 30
0.0
 11
800.7534748000253
 21
1113.739309216186
 31
0.0
  0
LINE
  5
547
330
23
100
AcDbEntity
  8
SANINDUSA
100
AcDbLine
 10
800.6458266266326
 20
1113.65449034956
 30
0.0
 11
800.7209494300012
 21
1113.652523189723
 31
0.0
  0
LINE
  5
548
330
23
100
AcDbEntity
  8
SANINDUSA
100
AcDbLine
 10
800.6458266266326
 20
1113.64448896791
 30
0.0
 11
800.7206870682843
 21
1113.642528678256
 31
0.0
  0
ARC
  5
54C
330
23
100
AcDbEntity
  8
SANINDUSA
100
AcDbCircle
 10
800.667572189449
 20
1113.824785409748
 30
0.0
 40
0.005
100
AcDbArc
 50
22.90597920781727
 51
88.83205554299298
  0
CIRCLE
  5
54F
330
23
100
AcDbEntity
  8
SANINDUSA
100
AcDbCircle
 10
798.5906826474256
 20
1113.912713213159
 30
0.0
 40
0.0075
  0
CIRCLE
  5
551
330
23
100
AcDbEntity
  8
SANINDUSA
100
AcDbCircle
 10
798.7456826474256
 20
1113.912713213159
 30
0.0
 40
0.0075
  0
LINE
  5
554
330
23
100
AcDbEntity
  8
SANINDUSA
100
AcDbLine
 10
800.6751650033431
 20
1113.86391333562
 30
0.0
 11
800.6901386007619
 21
1113.864802931224
 31
0.0
  0
ARC
  5
559
330
23
100
AcDbEntity
  8
SANINDUSA
100
AcDbCircle
 10
800.7204252988012
 20
1113.632532105007
 30
0.0
 40
0.01
100
AcDbArc
 50
16.02636903504354
 51
88.50000000216311
  0
ARC
  5
55A
330
23
100
AcDbEntity
  8
SANINDUSA
100
AcDbCircle
 10
800.720425891035
 20
1113.632530043223
 30
0.0
 40
0.02
100
AcDbArc
 50
16.02636903504354
 51
88.50000000216311
  0
ARC
  5
55B
330
23
100
AcDbEntity
  8
SANINDUSA
100
AcDbCircle
 10
800.7537365695082
 20
1113.729312642936
 30
0.0
 40
0.01
100
AcDbArc
 50
64.04691981274414
 51
91.49999999783688
  0
ARC
  5
55C
330
23
100
AcDbEntity
  8
SANINDUSA
100
AcDbCircle
 10
800.6999324062721
 20
1113.757911968837
 30
0.0
 40
0.01
100
AcDbArc
 50
271.4999999978369
 51
326.0035128125472
  0
CIRCLE
  5
5CE
330
23
100
AcDbEntity
  8
SANINDUSA
100
AcDbCircle
 10
799.3967006435743
 20
1113.57549034956
 30
0.0
 40
0.005
  0
LWPOLYLINE
  5
5D5
330
23
100
AcDbEntity
  8
SANINDUSA
100
AcDbPolyline
 90
        5
 70
   128
 43
0.0
 10
799.5134438454064
 20
1113.729342550292
 10
799.4418943336045
 20
1113.729357679583
 10
799.3567205754487
 20
1113.729354358656
 10
799.2437143842547
 20
1113.729355345047
 10
799.2030714390913
 20
1113.729368101609
  0
LINE
  5
5D7
330
23
100
AcDbEntity
  8
SANINDUSA
100
AcDbLine
 10
799.5130508855061
 20
1113.56298392061
 30
0.0
 11
799.2052602489986
 21
1113.56298392061
 31
0.0
  0
LINE
  5
5D8
330
23
100
AcDbEntity
  8
SANINDUSA
100
AcDbLine
 10
799.2276997127612
 20
1113.51549034956
 30
0.0
 11
799.5142925426574
 21
1113.51549034956
 31
0.0
  0
LINE
  5
5D9
330
23
100
AcDbEntity
  8
SANINDUSA
100
AcDbLine
 10
799.2275825138392
 20
1113.560961081499
 30
0.0
 11
799.5140581424074
 21
1113.560961086331
 31
0.0
  0
LWPOLYLINE
  5
5DB
330
23
100
AcDbEntity
  8
SANINDUSA
100
AcDbPolyline
 90
        5
 70
   128
 43
0.0
 10
799.1972539647965
 20
1113.738273002409
 10
799.2156819550525
 20
1113.738272061135
 10
799.2956554217339
 20
1113.738279137161
 10
799.3756284574487
 20
1113.738294290197
 10
799.5136469815729
 20
1113.738306160834
  0
LWPOLYLINE
  5
5DD
330
23
100
AcDbEntity
  8
SANINDUSA
100
AcDbPolyline
 90
        5
 70
   128
 43
0.0
 10
799.1429929351569
 20
1113.863656865476
 10
799.2345021552075
 20
1113.863650699768
 10
799.3304774001869
 20
1113.86364927022
 10
799.4250601009172
 20
1113.86364774381
 10
799.519642798545
 20
1113.863640732321
  0
LINE
  5
5DE
330
23
100
AcDbEntity
  8
SANINDUSA
100
AcDbLine
 10
799.1776366942505
 20
1113.91549034956
 30
0.0
 11
799.519992935157
 21
1113.91549034956
 31
0.0
  0
LINE
  5
5E1
330
23
100
AcDbEntity
  8
SANINDUSA
100
AcDbLine
 10
799.519992935157
 20
1113.865019760305
 30
0.0
 11
799.1429929351569
 21
1113.865019760305
 31
0.0
  0
LINE
  5
5E3
330
23
100
AcDbEntity
  8
SANINDUSA
100
AcDbLine
 10
799.1999929351569
 20
1113.51549034956
 30
0.0
 11
799.1999929351569
 21
1113.55836212599
 31
0.0
  0
LINE
  5
5E4
330
23
100
AcDbEntity
  8
SANINDUSA
100
AcDbLine
 10
799.144992935157
 20
1113.55844240454
 30
0.0
 11
799.144992935157
 21
1113.51549034956
 31
0.0
  0
LINE
  5
5E5
330
23
100
AcDbEntity
  8
SANINDUSA
100
AcDbLine
 10
799.1999929351569
 20
1113.51549034956
 30
0.0
 11
799.144992935157
 21
1113.51549034956
 31
0.0
  0
LINE
  5
5E6
330
23
100
AcDbEntity
  8
SANINDUSA
100
AcDbLine
 10
799.2276997127612
 20
1113.51549034956
 30
0.0
 11
799.1999929351569
 21
1113.51549034956
 31
0.0
  0
LWPOLYLINE
  5
5E8
330
23
100
AcDbEntity
  8
SANINDUSA
100
AcDbPolyline
 90
       53
 70
   128
 43
0.0
 10
799.1954995761083
 20
1113.738404442254
 10
799.1937718595529
 20
1113.739642917113
 10
799.1920612151191
 20
1113.740936475637
 10
799.1903654399708
 20
1113.742286896185
 10
799.1886881728852
 20
1113.743691349948
 10
799.1870215043487
 20
1113.745156915956
 10
799.1853748705751
 20
1113.746675716439
 10
799.1837461247129
 20
1113.748249811434
 10
799.1821387674945
 20
1113.749875860268
 10
799.1805223069592
 20
1113.751586782748
 10
799.178929382462
 20
1113.753350106514
 10
799.17735784585
 20
1113.755168286023
 10
799.1758111881647
 20
1113.757037325031
 10
799.1742818695286
 20
1113.758966854095
 10
799.172778926139
 20
1113.760945967003
 10
799.1713003294209
 20
1113.762977425084
 10
799.1698493911473
 20
1113.765056738708
 10
799.1684797359239
 20
1113.767102058413
 10
799.1671367375471
 20
1113.76918990796
 10
799.1658187371061
 20
1113.771322966222
 10
799.1645284720468
 20
1113.773496879685
 10
799.1632601669712
 20
1113.775721940632
 10
799.1620208435046
 20
1113.777986379562
 10
799.1608089781091
 20
1113.780293126643
 10
799.1596271291519
 20
1113.782637436026
 10
799.1584540204407
 20
1113.785064244925
 10
799.1573130343028
 20
1113.787527975519
 10
799.1562027391325
 20
1113.790031943041
 10
799.1551255983132
 20
1113.792570790846
 10
799.1540766452983
 20
1113.795157088344
 10
799.1530620885294
 20
1113.797776384541
 10
799.1520806658646
 20
1113.800432249089
 10
799.1511346136896
 20
1113.803118911497
 10
799.1502479654001
 20
1113.805762967182
 10
799.1493955945744
 20
1113.808433995884
 10
799.1485765148222
 20
1113.811135454133
 10
799.1477925274357
 20
1113.813861731612
 10
799.1470402392049
 20
1113.816625795559
 10
799.1463240602357
 20
1113.819412605566
 10
799.1456431748036
 20
1113.822225804406
 10
799.1449991248099
 20
1113.825059439824
 10
799.1443806951409
 20
1113.827968296976
 10
799.14380111978
 20
1113.830895847163
 10
799.1432597340625
 20
1113.833846065883
 10
799.1427578358639
 20
1113.836812418208
 10
799.142293257532
 20
1113.839809754174
 10
799.1418690104254
 20
1113.842820700756
 10
799.1414846208718
 20
1113.845849375269
 10
799.1411410321307
 20
1113.848888966161
 10
799.1408473163807
 20
1113.851841572696
 10
799.1405919736599
 20
1113.854803120466
 10
799.140374951263
 20
1113.857774874019
 10
799.1401965715903
 20
1113.860753076558
  0
LINE
  5
5EA
330
23
100
AcDbEntity
  8
SANINDUSA
100
AcDbLine
 10
799.149992935157
 20
1113.56344240454
 30
0.0
 11
799.1999929351569
 21
1113.56344240454
 31
0.0
  0
ARC
  5
5EB
330
23
100
AcDbEntity
  8
SANINDUSA
100
AcDbCircle
 10
799.149992935157
 20
1113.55844240454
 30
0.0
 40
0.005
100
AcDbArc
 50
90.0
 51
180.0
  0
LINE
  5
5ED
330
23
100
AcDbEntity
  8
SANINDUSA
100
AcDbLine
 10
799.1999929351569
 20
1113.562534301357
 30
0.0
 11
799.1999929351569
 21
1113.729289570764
 31
0.0
  0
LWPOLYLINE
  5
5EE
330
23
100
AcDbEntity
  8
SANINDUSA
100
AcDbPolyline
 90
       35
 70
   128
 43
0.0
 10
799.2052602489986
 20
1113.56298392061
 10
799.2054214070406
 20
1113.562886683958
 10
799.2056215466645
 20
1113.562790147078
 10
799.2058603064305
 20
1113.562694484309
 10
799.206137255153
 20
1113.562599868412
 10
799.2064518926794
 20
1113.562506470258
 10
799.2068036507936
 20
1113.562414458518
 10
799.2071918942417
 20
1113.562323999359
 10
799.2076159218798
 20
1113.562235256147
 10
799.2080749679397
 20
1113.562148389144
 10
799.2085682034123
 20
1113.562063555228
 10
799.2090947375443
 20
1113.561980907604
 10
799.2096536194472
 20
1113.561900595529
 10
799.210243839814
 20
1113.56182276404
 10
799.2108643327431
 20
1113.561747553697
 10
799.2115139776618
 20
1113.561675100326
 10
799.2121916013509
 20
1113.561605534772
 10
799.2128959800635
 20
1113.561538982667
 10
799.2136258417342
 20
1113.561475564199
 10
799.2143798682776
 20
1113.5614153939
 10
799.2151566979674
 20
1113.561358580432
 10
799.2159549278967
 20
1113.561305226397
 10
799.2167731165108
 20
1113.561255428149
 10
799.2176097862108
 20
1113.561209275622
 10
799.2184634260222
 20
1113.561166852163
 10
799.2193324943236
 20
1113.561128234387
 10
799.2202154216303
 20
1113.561093492036
 10
799.2211106134296
 20
1113.561062687851
 10
799.2220164530595
 20
1113.561035877463
 10
799.2229313046286
 20
1113.561013109291
 10
799.2238535159712
 20
1113.560994424451
 10
799.2247814216292
 20
1113.560979856689
 10
799.2257133458618
 20
1113.560969432311
 10
799.2266476056706
 20
1113.560963170145
 10
799.2275825138392
 20
1113.560961081499
  0
LWPOLYLINE
  5
5F2
330
23
100
AcDbEntity
  8
SANINDUSA
100
AcDbPolyline
 90
        3
 70
   128
 43
0.0
 10
799.2052602489986
 20
1113.56298392061
 10
799.2047355815055
 20
1113.56296338684
 10
799.2042090252448
 20
1113.56288664696
  0
LWPOLYLINE
  5
5F6
330
23
100
AcDbEntity
  8
SANINDUSA
100
AcDbPolyline
 90
        4
 70
   128
 43
0.0
 10
799.1999929351569
 20
1113.562534301357
 10
799.2000277945489
 20
1113.562342011939
 10
799.2001378806076
 20
1113.562169893441
 10
799.2002659499751
 20
1113.562073581484
  0
LINE
  5
5F7
330
23
100
AcDbEntity
  8
SANINDUSA
100
AcDbLine
 10
799.2003598482805
 20
1113.560266301652
 30
0.0
 11
799.2006437057629
 21
1113.561045137576
 31
0.0
  0
LWPOLYLINE
  5
5F8
330
23
100
AcDbEntity
  8
SANINDUSA
100
AcDbPolyline
 90
        7
 70
   128
 43
0.0
 10
799.2006437057629
 20
1113.561045137576
 10
799.2006802008806
 20
1113.561233194232
 10
799.200691492651
 20
1113.561405621119
 10
799.2006706435744
 20
1113.561584647945
 10
799.2006162503839
 20
1113.561734997465
 10
799.2004677324947
 20
1113.561930517409
 10
799.2002659499751
 20
1113.562073581484
  0
LWPOLYLINE
  5
5F9
330
23
100
AcDbEntity
  8
SANINDUSA
100
AcDbPolyline
 90
        4
 70
   128
 43
0.0
 10
799.1999929351569
 20
1113.55836212599
 10
799.2000522969489
 20
1113.559136427363
 10
799.2002331923543
 20
1113.559910728736
 10
799.2003598482805
 20
1113.560266301652
  0
LWPOLYLINE
  5
5FC
330
23
100
AcDbEntity
  8
SANINDUSA
100
AcDbPolyline
 90
       11
 70
   128
 43
0.0
 10
799.2042090252448
 20
1113.56288664696
 10
799.2037539135433
 20
1113.562779119968
 10
799.2033211458505
 20
1113.562646885436
 10
799.2028791653956
 20
1113.562478953803
 10
799.2024727847372
 20
1113.562291950583
 10
799.2021044751258
 20
1113.562091070269
 10
799.2016668226873
 20
1113.561804304255
 10
799.201287729026
 20
1113.561499604486
 10
799.2009654094579
 20
1113.561180826782
 10
799.2006191949625
 20
1113.560737643505
 10
799.2003598482805
 20
1113.560266301652
  0
ARC
  5
5FE
330
23
100
AcDbEntity
  8
SANINDUSA
100
AcDbCircle
 10
799.1949929351569
 20
1113.732719280463
 30
0.0
 40
0.0050000000000353
100
AcDbArc
 50
0.0
 51
57.01865272404837
  0
LWPOLYLINE
  5
5FF
330
23
100
AcDbEntity
  8
SANINDUSA
100
AcDbPolyline
 90
        6
 70
   128
 43
0.0
 10
799.1977147650356
 20
1113.736913519621
 10
799.1977147650356
 20
1113.736913519621
 10
799.1976591814192
 20
1113.736949623573
 10
799.1969039867222
 20
1113.737446771451
 10
799.1961797669432
 20
1113.737935195259
 10
799.1954995761083
 20
1113.738404442254
  0
LINE
  5
602
330
23
100
AcDbEntity
  8
SANINDUSA
100
AcDbLine
 10
799.1999929351569
 20
1113.729289570764
 30
0.0
 11
799.1999929351569
 21
1113.732719280463
 31
0.0
  0
LINE
  5
608
330
23
100
AcDbEntity
  8
SANINDUSA
100
AcDbLine
 10
799.139992935157
 20
1113.869992369782
 30
0.0
 11
799.139992935157
 21
1113.92049034956
 31
0.0
  0
LINE
  5
60A
330
23
100
AcDbEntity
  8
SANINDUSA
100
AcDbLine
 10
799.139992935157
 20
1113.868003325991
 30
0.0
 11
799.139992935157
 21
1113.869992369782
 31
0.0
  0
ARC
  5
60C
330
23
100
AcDbEntity
  8
SANINDUSA
100
AcDbCircle
 10
799.3694055569606
 20
1113.8729788574
 30
0.0
 40
0.2295348093245574
100
AcDbArc
 50
181.8776804093544
 51
183.0532069625665
  0
LINE
  5
60D
330
23
100
AcDbEntity
  8
SANINDUSA
100
AcDbLine
 10
799.139992935157
 20
1113.86549034956
 30
0.0
 11
799.139992935157
 21
1113.866640431163
 31
0.0
  0
LINE
  5
612
330
23
100
AcDbEntity
  8
SANINDUSA
100
AcDbLine
 10
799.139992935157
 20
1113.866640431163
 30
0.0
 11
799.139992935157
 21
1113.868003325991
 31
0.0
  0
LWPOLYLINE
  5
613
330
23
100
AcDbEntity
  8
SANINDUSA
100
AcDbPolyline
 90
       14
 70
   128
 43
0.0
 10
799.139992935157
 20
1113.866640431163
 10
799.1400148085347
 20
1113.866280802059
 10
799.1400801097047
 20
1113.865926417159
 10
799.1401878864289
 20
1113.86558244419
 10
799.14033656708
 20
1113.865253899053
 10
799.1405239835593
 20
1113.864945572677
 10
799.1407474029124
 20
1113.864661961154
 10
799.1410035671822
 20
1113.864407200179
 10
799.1412887409168
 20
1113.86418500474
 10
799.1415987656409
 20
1113.863998614948
 10
799.1419291204959
 20
1113.863850748785
 10
799.1422749881641
 20
1113.863743562473
 10
799.1426313251162
 20
1113.86367861903
 10
799.1429929351569
 20
1113.863656865476
  0
LWPOLYLINE
  5
615
330
23
100
AcDbEntity
  8
SANINDUSA
100
AcDbPolyline
 90
       14
 70
   128
 43
0.0
 10
799.139992935157
 20
1113.868003325991
 10
799.1400148085347
 20
1113.867643696888
 10
799.1400801097047
 20
1113.867289311987
 10
799.1401878864289
 20
1113.866945339018
 10
799.14033656708
 20
1113.866616793881
 10
799.1405239835593
 20
1113.866308467505
 10
799.1407474029124
 20
1113.866024855982
 10
799.1410035671822
 20
1113.865770095007
 10
799.1412887409168
 20
1113.865547899568
 10
799.1415987656409
 20
1113.865361509776
 10
799.1419291204959
 20
1113.865213643613
 10
799.1422749881641
 20
1113.865106457301
 10
799.1426313251162
 20
1113.865041513858
 10
799.1429929351569
 20
1113.865019760305
  0
ARC
  5
617
330
23
100
AcDbEntity
  8
SANINDUSA
100
AcDbCircle
 10
799.1776366942505
 20
1113.92049034956
 30
0.0
 40
0.005
100
AcDbArc
 50
184.9999999957234
 51
270.0
  0
ARC
  5
61A
330
23
100
AcDbEntity
  8
SANINDUSA
100
AcDbCircle
 10
799.1654112792868
 20
1113.94549034956
 30
0.0
 40
0.005
100
AcDbArc
 50
4.999999995723404
 51
90.0
  0
ARC
  5
61B
330
23
100
AcDbEntity
  8
SANINDUSA
100
AcDbCircle
 10
799.1429929351569
 20
1113.94749034956
 30
0.0
 40
0.003
100
AcDbArc
 50
90.0
 51
180.0
  0
LINE
  5
61C
330
23
100
AcDbEntity
  8
SANINDUSA
100
AcDbLine
 10
799.1429929351569
 20
1113.95049034956
 30
0.0
 11
799.1654112792868
 21
1113.95049034956
 31
0.0
  0
LINE
  5
61E
330
23
100
AcDbEntity
  8
SANINDUSA
100
AcDbLine
 10
799.139992935157
 20
1113.92049034956
 30
0.0
 11
799.139992935157
 21
1113.94749034956
 31
0.0
  0
LINE
  5
621
330
23
100
AcDbEntity
  8
SANINDUSA
100
AcDbLine
 10
799.1703922527773
 20
1113.945926128274
 30
0.0
 11
799.1725794693654
 21
1113.920926128274
 31
0.0
  0
LINE
  5
623
330
23
100
AcDbEntity
  8
SANINDUSA
100
AcDbLine
 10
799.1725794693654
 20
1113.920926128274
 30
0.0
 11
799.17265572076
 21
1113.920054570846
 31
0.0
  0
LINE
  5
628
330
23
100
AcDbEntity
  8
SANINDUSA
100
AcDbLine
 10
799.629992935157
 20
1113.51549034956
 30
0.0
 11
799.629992935157
 21
1113.55598849697
 31
0.0
  0
LINE
  5
629
330
23
100
AcDbEntity
  8
SANINDUSA
100
AcDbLine
 10
799.5142925426574
 20
1113.51549034956
 30
0.0
 11
799.629992935157
 21
1113.51549034956
 31
0.0
  0
LWPOLYLINE
  5
62B
330
23
100
AcDbEntity
  8
SANINDUSA
100
AcDbPolyline
 90
       75
 70
   128
 43
0.0
 10
799.519992935157
 20
1113.86364064238
 10
799.5241721381216
 20
1113.863638901604
 10
799.5283481826299
 20
1113.863636805327
 10
799.5325293942435
 20
1113.863634373349
 10
799.5367019023213
 20
1113.863631640844
 10
799.5401910775588
 20
1113.863629141115
 10
799.5436710288875
 20
1113.863626471002
 10
799.5471393822628
 20
1113.863623650627
 10
799.5506092590641
 20
1113.863620686831
 10
799.5540651077061
 20
1113.863617610667
 10
799.5575045956676
 20
1113.863614442653
 10
799.5609731973395
 20
1113.86361115737
 10
799.5644222536125
 20
1113.863607817282
 10
799.5678565490719
 20
1113.863604435481
 10
799.5712681253302
 20
1113.863601036676
 10
799.5747001152452
 20
1113.863597593981
 10
799.5781056472971
 20
1113.863594169797
 10
799.5814894966842
 20
1113.863590774602
 10
799.5848436929139
 20
1113.863587430349
 10
799.5881784179681
 20
1113.863584140272
 10
799.5914817649222
 20
1113.863580928369
 10
799.5946240215803
 20
1113.863577928456
 10
799.5977334704408
 20
1113.863575023334
 10
799.6008081345201
 20
1113.863572222792
 10
799.6038588206657
 20
1113.863569524997
 10
799.606872520724
 20
1113.863566947836
 10
799.6098473071342
 20
1113.863564498555
 10
799.6128200405864
 20
1113.863562153989
 10
799.6157505907133
 20
1113.863559952006
 10
799.6186427553622
 20
1113.863557894081
 10
799.6214900445018
 20
1113.863555988532
 10
799.6243263038642
 20
1113.863554218333
 10
799.627114001825
 20
1113.863552612319
 10
799.6298568165132
 20
1113.863551171731
 10
799.6325484124278
 20
1113.863549903268
 10
799.6351965284664
 20
1113.86354880725
 10
799.6377918425602
 20
1113.863547891986
 10
799.6402014825535
 20
1113.863547193804
 10
799.6425604937821
 20
1113.863546657472
 10
799.6448716339816
 20
1113.863546278499
 10
799.6471299905807
 20
1113.863546054115
 10
799.649349978324
 20
1113.86354598068
 10
799.65151472709
 20
1113.863546056485
 10
799.6536228423735
 20
1113.863546277631
 10
799.6556813176182
 20
1113.863546641884
 10
799.6576813364255
 20
1113.863547144119
 10
799.6596215875288
 20
1113.86354777945
 10
799.6615252339613
 20
1113.863548553668
 10
799.6633662151981
 20
1113.863549453227
 10
799.6651432712082
 20
1113.863550471335
 10
799.6668624163536
 20
1113.863551605923
 10
799.6685158459109
 20
1113.863552844802
 10
799.6701023887134
 20
1113.863554178823
 10
799.6715548987102
 20
1113.863555533538
 10
799.6729451585157
 20
1113.863556957292
 10
799.6742746317614
 20
1113.863558442848
 10
799.6755403682255
 20
1113.863559977226
 10
799.6767499705169
 20
1113.863561560552
 10
799.6778938250239
 20
1113.863563169918
 10
799.6789711022699
 20
1113.863564792174
 10
799.6799850491094
 20
1113.863566420536
 10
799.6809310039626
 20
1113.863568034617
 10
799.681808232695
 20
1113.863569619481
 10
799.6826263078592
 20
1113.863571180068
 10
799.6833730265239
 20
1113.863572679736
 10
799.6840477474572
 20
1113.863574102017
 10
799.6846523515394
 20
1113.863575435962
 10
799.6851836473807
 20
1113.863576659455
 10
799.6856411263315
 20
1113.863577755993
 10
799.6860230444321
 20
1113.863578706055
 10
799.6863311400873
 20
1113.86357949933
 10
799.686565480041
 20
1113.863580122077
 10
799.6867252165827
 20
1113.863580559095
 10
799.6868104733136
 20
1113.863580796184
 10
799.6868161550585
 20
1113.863580812432
  0
LINE
  5
62C
330
23
100
AcDbEntity
  8
SANINDUSA
100
AcDbLine
 10
799.7005155774733
 20
1113.865019760305
 30
0.0
 11
799.519992935157
 21
1113.865019760305
 31
0.0
  0
LINE
  5
62F
330
23
100
AcDbEntity
  8
SANINDUSA
100
AcDbLine
 10
799.519992935157
 20
1113.91549034956
 30
0.0
 11
799.6999929351569
 21
1113.91549034956
 31
0.0
  0
LWPOLYLINE
  5
630
330
23
100
AcDbEntity
  8
SANINDUSA
100
AcDbPolyline
 90
       51
 70
   128
 43
0.0
 10
799.5975803899267
 20
1113.728998653481
 10
799.5975587321911
 20
1113.728999804285
 10
799.5974937285664
 20
1113.729003173191
 10
799.5972594895577
 20
1113.729014806654
 10
799.5968768228152
 20
1113.729032787537
 10
799.5963435315156
 20
1113.729056392915
 10
799.5956608618428
 20
1113.729084730329
 10
799.5952558705351
 20
1113.729100707604
 10
799.5948127382278
 20
1113.729117560945
 10
799.5943307493497
 20
1113.729135206534
 10
799.5938109078134
 20
1113.729153497552
 10
799.593250260492
 20
1113.729172423021
 10
799.5926518441637
 20
1113.729191766619
 10
799.5920147187969
 20
1113.729211448949
 10
799.5913402604798
 20
1113.729231320339
 10
799.5899371620653
 20
1113.729269713726
 10
799.5883963904367
 20
1113.729307682656
 10
799.5867138404524
 20
1113.72934461568
 10
799.5848968440975
 20
1113.729379685541
 10
799.5839205592635
 20
1113.729396623792
 10
799.5829113096496
 20
1113.729412822507
 10
799.581867622114
 20
1113.729428237918
 10
799.5807917847371
 20
1113.729442776023
 10
799.5796780841654
 20
1113.729456448733
 10
799.5785328858635
 20
1113.729469119819
 10
799.577354510679
 20
1113.72948075967
 10
799.5761455944466
 20
1113.729491301422
 10
799.573733633961
 20
1113.729508369893
 10
799.5712102027908
 20
1113.729521061269
 10
799.568569747333
 20
1113.729529383474
 10
799.5658248501866
 20
1113.729533324169
 10
799.5643881011309
 20
1113.729533680752
 10
799.5629272556116
 20
1113.729532954969
 10
799.5614402505577
 20
1113.729531174069
 10
799.5599304002567
 20
1113.729528378199
 10
799.5583898786859
 20
1113.729524587442
 10
799.5568276598045
 20
1113.729519866891
 10
799.555241516721
 20
1113.729514261569
 10
799.5536350467792
 20
1113.72950784371
 10
799.5505771615147
 20
1113.729493890949
 10
799.5474556596185
 20
1113.729477841823
 10
799.544254559663
 20
1113.729460125286
 10
799.5409993347638
 20
1113.729441467985
 10
799.5376646839599
 20
1113.729422352827
 10
799.534280168508
 20
1113.729403633638
 10
799.5308161176504
 20
1113.729385886755
 10
799.5273123585096
 20
1113.729370099713
 10
799.523884806342
 20
1113.729357437061
 10
799.5204310257305
 20
1113.729348122738
 10
799.5169450572941
 20
1113.72934289619
 10
799.513443845417
 20
1113.729342534758
  0
LWPOLYLINE
  5
631
330
23
100
AcDbEntity
  8
SANINDUSA
100
AcDbPolyline
 90
       56
 70
   128
 43
0.0
 10
799.5136469819616
 20
1113.738306165432
 10
799.5136470419419
 20
1113.73830616544
 10
799.5154727039747
 20
1113.738306542032
 10
799.5172965820146
 20
1113.738307190191
 10
799.5209421992826
 20
1113.738309262964
 10
799.5227687120281
 20
1113.738310665122
 10
799.524590258735
 20
1113.73831228432
 10
799.5282216323862
 20
1113.738316099471
 10
799.5317984348965
 20
1113.73832049401
 10
799.5353408455802
 20
1113.738325307999
 10
799.5388663492306
 20
1113.738330389285
 10
799.5423457809634
 20
1113.738335524147
 10
799.5446833577318
 20
1113.738338957102
 10
799.5469958993225
 20
1113.738342285008
 10
799.549280932388
 20
1113.738345460069
 10
799.5515522767946
 20
1113.738348457411
 10
799.5537934014911
 20
1113.738351218674
 10
799.5560019314162
 20
1113.73835370779
 10
799.5581812746914
 20
1113.738355896427
 10
799.5603256610709
 20
1113.738357753467
 10
799.5624328384577
 20
1113.738359253505
 10
799.5645152128896
 20
1113.738360379493
 10
799.5665577356142
 20
1113.738361100381
 10
799.5685582360419
 20
1113.738361395714
 10
799.5705552093991
 20
1113.738361237649
 10
799.5725062439718
 20
1113.738360592696
 10
799.5744091539332
 20
1113.738359436569
 10
799.5762753845967
 20
1113.738357722451
 10
799.5780906731006
 20
1113.738355437622
 10
799.5798529345298
 20
1113.738352579719
 10
799.5823155980927
 20
1113.738347429144
 10
799.5846600667723
 20
1113.738341148355
 10
799.5861648641188
 20
1113.738336324211
 10
799.5876136339354
 20
1113.738331032037
 10
799.5890046384155
 20
1113.738325296296
 10
799.5903640236191
 20
1113.73831900803
 10
799.5916612673728
 20
1113.738312320576
 10
799.5928946436166
 20
1113.738305280364
 10
799.5940713049892
 20
1113.738297880027
 10
799.5951812556597
 20
1113.738290233779
 10
799.5962228827787
 20
1113.738282415491
 10
799.5971624506554
 20
1113.738274776058
 10
799.5980367221841
 20
1113.738267125796
 10
799.5988444082664
 20
1113.738259552704
 10
799.5995897203346
 20
1113.738252091842
 10
799.6002659805375
 20
1113.738244895604
 10
799.6008720627798
 20
1113.738238068013
 10
799.6014186111883
 20
1113.738231572016
 10
799.6018903193351
 20
1113.738225678529
 10
799.6022862178677
 20
1113.738220500896
 10
799.6026078521573
 20
1113.738216117682
 10
799.60285122571
 20
1113.738212674363
 10
799.6030156140768
 20
1113.738210270228
 10
799.6030886425037
 20
1113.73820917538
 10
799.6031130531227
 20
1113.738208803098
 10
799.6031130519386
 20
1113.738208803116
  0
LINE
  5
633
330
23
100
AcDbEntity
  8
SANINDUSA
100
AcDbLine
 10
799.6062762161749
 20
1113.56298414492
 30
0.0
 11
799.5136717113308
 21
1113.56298414492
 31
0.0
  0
LINE
  5
634
330
23
100
AcDbEntity
  8
SANINDUSA
100
AcDbLine
 10
799.5140581424074
 20
1113.560961086331
 30
0.0
 11
799.62551576883
 21
1113.560961086331
 31
0.0
  0
LWPOLYLINE
  5
63C
330
23
100
AcDbEntity
  8
SANINDUSA
100
AcDbPolyline
 90
        3
 70
   128
 43
0.0
 10
799.5136717113308
 20
1113.56298414492
 10
799.5133612959973
 20
1113.562984091163
 10
799.513050880885
 20
1113.56298392989
  0
LINE
  5
648
330
23
100
AcDbEntity
  8
SANINDUSA
100
AcDbLine
 10
799.519642798545
 20
1113.863640732321
 30
0.0
 11
799.519992935157
 21
1113.86364064238
 31
0.0
  0
LWPOLYLINE
  5
64B
330
23
100
AcDbEntity
  8
SANINDUSA
100
AcDbPolyline
 90
       51
 70
   128
 43
0.0
 10
799.6030876275559
 20
1113.738209190596
 10
799.6060383903644
 20
1113.739701562836
 10
799.6100360969265
 20
1113.741850988771
 10
799.6139305572447
 20
1113.744069726632
 10
799.6177083348356
 20
1113.746344590228
 10
799.6213581573083
 20
1113.748663163484
 10
799.6248707675919
 20
1113.751013766414
 10
799.6280503230954
 20
1113.753249514527
 10
799.6310965401101
 20
1113.755495318804
 10
799.6340059052216
 20
1113.757743032418
 10
799.6367760719732
 20
1113.759984992866
 10
799.6394057650629
 20
1113.762214000043
 10
799.6416742292166
 20
1113.764223434163
 10
799.6438267603504
 20
1113.76621179634
 10
799.6458647582664
 20
1113.768174595466
 10
799.6477913000213
 20
1113.770107630262
 10
799.6496098209027
 20
1113.772006948589
 10
799.6513238169923
 20
1113.773868830507
 10
799.6529368271541
 20
1113.775689778078
 10
799.65432975038
 20
1113.777320210404
 10
799.6556435645036
 20
1113.778911102276
 10
799.6568810174039
 20
1113.780460209862
 10
799.6580448424902
 20
1113.781965420789
 10
799.6591394561671
 20
1113.783427064674
 10
799.6602271467767
 20
1113.784926988261
 10
799.6614369642823
 20
1113.786655632323
 10
799.6626659173077
 20
1113.788482722351
 10
799.663908367269
 20
1113.79041040419
 10
799.6651582784096
 20
1113.792440834306
 10
799.666409198581
 20
1113.794576168908
 10
799.667654239209
 20
1113.796818552604
 10
799.66888605445
 20
1113.799170106605
 10
799.6699969262158
 20
1113.801423382871
 10
799.6710837191457
 20
1113.803771716597
 10
799.6721396677274
 20
1113.806216636213
 10
799.6731576218715
 20
1113.808759618688
 10
799.6741300317371
 20
1113.811402080489
 10
799.6750506791528
 20
1113.814145401025
 10
799.6759952038693
 20
1113.817254800628
 10
799.6768789329726
 20
1113.820487678874
 10
799.6777050045904
 20
1113.823845704167
 10
799.6784781801851
 20
1113.827330429982
 10
799.6792049735796
 20
1113.830943281207
 10
799.6798937835517
 20
1113.834685540108
 10
799.6805550299945
 20
1113.838558331924
 10
799.6811476631684
 20
1113.842223878179
 10
799.6817390675694
 20
1113.846000508391
 10
799.6823423516644
 20
1113.849888677313
 10
799.6829724427608
 20
1113.853888687358
 10
799.683646186197
 20
1113.858000678099
 10
799.6841847146185
 20
1113.861120384499
  0
LINE
  5
64C
330
23
100
AcDbEntity
  8
SANINDUSA
100
AcDbLine
 10
799.6018008485648
 20
1113.567825840566
 30
0.0
 11
799.5975803861506
 21
1113.728998797722
 31
0.0
  0
ARC
  5
64D
330
23
100
AcDbEntity
  8
SANINDUSA
100
AcDbCircle
 10
799.624992935157
 20
1113.55598849697
 30
0.0
 40
0.005
100
AcDbArc
 50
0.0
 51
83.99779512870896
  0
ARC
  5
64E
330
23
100
AcDbEntity
  8
SANINDUSA
100
AcDbCircle
 10
799.6067991351897
 20
1113.567956725308
 30
0.0
 40
0.0050000000000001
100
AcDbArc
 50
181.4999999976663
 51
263.9968119085519
  0
LWPOLYLINE
  5
64F
330
23
100
AcDbEntity
  8
SANINDUSA
100
AcDbPolyline
 90
        3
 70
   128
 43
0.0
 10
799.6255157687173
 20
1113.560961086331
 10
799.6158955964452
 20
1113.561972615625
 10
799.6062762161719
 20
1113.56298414492
  0
ARC
  5
650
330
23
100
AcDbEntity
  8
SANINDUSA
100
AcDbCircle
 10
799.6075769631764
 20
1113.729260422964
 30
0.0
 40
0.0099999999999984
100
AcDbArc
 50
116.5116377384485
 51
181.4991752666553
  0
ARC
  5
651
330
23
100
AcDbEntity
  8
SANINDUSA
100
AcDbCircle
 10
799.6999929351569
 20
1113.91049034956
 30
0.0
 40
0.005
100
AcDbArc
 50
0.0
 51
90.0
  0
ARC
  5
652
330
23
100
AcDbEntity
  8
SANINDUSA
100
AcDbCircle
 10
799.6999929351569
 20
1113.869992369782
 30
0.0
 40
0.0050000000000002
100
AcDbArc
 50
275.9999999977903
 51
0.0
  0
LINE
  5
653
330
23
100
AcDbEntity
  8
SANINDUSA
100
AcDbLine
 10
799.6868163156531
 20
1113.86357989658
 30
0.0
 11
799.7005155822438
 21
1113.865019760806
 31
0.0
  0
ARC
  5
654
330
23
100
AcDbEntity
  8
SANINDUSA
100
AcDbCircle
 10
799.6871387552821
 20
1113.860597274799
 30
0.0
 40
0.003
100
AcDbArc
 50
96.17006176271948
 51
169.9580077282595
  0
LINE
  5
655
330
23
100
AcDbEntity
  8
SANINDUSA
100
AcDbLine
 10
799.7049929351569
 20
1113.869992369782
 30
0.0
 11
799.7049929351569
 21
1113.91049034956
 31
0.0
  0
LINE
  5
795
330
23
100
AcDbEntity
  8
SANINDUSA
  6
HIDDEN
100
AcDbLine
 10
800.6020720563
 20
1113.545237685378
 30
0.0
 11
800.6020720563
 21
1113.45699034956
 31
0.0
  0
LINE
  5
796
330
23
100
AcDbEntity
  8
SANINDUSA
  6
HIDDEN
100
AcDbLine
 10
800.6880720563001
 20
1113.45699034956
 30
0.0
 11
800.6880720563001
 21
1113.568411398341
 31
0.0
  0
LINE
  5
797
330
23
100
AcDbEntity
  8
SANINDUSA
  6
HIDDEN
100
AcDbLine
 10
800.6900720562997
 20
1113.460722400368
 30
0.0
 11
800.6900720562997
 21
1113.568411401291
 31
0.0
  0
LINE
  5
798
330
23
100
AcDbEntity
  8
SANINDUSA
  6
HIDDEN
100
AcDbLine
 10
800.6020720563
 20
1113.45699034956
 30
0.0
 11
800.6880720563001
 21
1113.45699034956
 31
0.0
  0
LINE
  5
799
330
23
100
AcDbEntity
  8
SANINDUSA
  6
HIDDEN
100
AcDbLine
 10
800.6000720562996
 20
1113.460722400368
 30
0.0
 11
800.6010720562997
 21
1113.45699034956
 31
0.0
  0
LINE
  5
79A
330
23
100
AcDbEntity
  8
SANINDUSA
  6
HIDDEN
100
AcDbLine
 10
800.6010720562997
 20
1113.45699034956
 30
0.0
 11
800.6020720563
 21
1113.45699034956
 31
0.0
  0
LINE
  5
79B
330
23
100
AcDbEntity
  8
SANINDUSA
  6
HIDDEN
100
AcDbLine
 10
800.6880720563001
 20
1113.45699034956
 30
0.0
 11
800.6890720562996
 21
1113.45699034956
 31
0.0
  0
LINE
  5
79C
330
23
100
AcDbEntity
  8
SANINDUSA
  6
HIDDEN
100
AcDbLine
 10
800.6890720562996
 20
1113.45699034956
 30
0.0
 11
800.6900720562997
 21
1113.460722400368
 31
0.0
  0
ARC
  5
79D
330
23
100
AcDbEntity
  8
SANINDUSA
  6
HIDDEN
100
AcDbCircle
 10
800.6160720563
 20
1113.68699034956
 30
0.0
 40
0.056
100
AcDbArc
 50
100.2865606110578
 51
180.0
  0
ARC
  5
79E
330
23
100
AcDbEntity
  8
SANINDUSA
  6
HIDDEN
100
AcDbCircle
 10
800.6160720563
 20
1113.68699034956
 30
0.0
 40
0.0539999999999999
100
AcDbArc
 50
90.0
 51
180.0
  0
LINE
  5
79F
330
23
100
AcDbEntity
  8
SANINDUSA
  6
HIDDEN
100
AcDbLine
 10
800.5620720562999
 20
1113.611267172387
 30
0.0
 11
800.5620720562999
 21
1113.644519771509
 31
0.0
  0
LINE
  5
7A0
330
23
100
AcDbEntity
  8
SANINDUSA
  6
HIDDEN
100
AcDbLine
 10
800.5600720562997
 20
1113.611267172387
 30
0.0
 11
800.5600720562997
 21
1113.644519771511
 31
0.0
  0
LINE
  5
7A1
330
23
100
AcDbEntity
  8
SANINDUSA
  6
HIDDEN
100
AcDbLine
 10
800.5620720562999
 20
1113.68699034956
 30
0.0
 11
800.5620720562999
 21
1113.644519771509
 31
0.0
  0
LINE
  5
7A2
330
23
100
AcDbEntity
  8
SANINDUSA
  6
HIDDEN
100
AcDbLine
 10
800.5600720562997
 20
1113.68699034956
 30
0.0
 11
800.5600720562997
 21
1113.644519771509
 31
0.0
  0
LINE
  5
7A3
330
23
100
AcDbEntity
  8
SANINDUSA
  6
HIDDEN
100
AcDbLine
 10
800.5620720562999
 20
1113.644519771509
 30
0.0
 11
800.5620720563037
 21
1113.644519771509
 31
0.0
  0
LINE
  5
7A4
330
23
100
AcDbEntity
  8
SANINDUSA
  6
HIDDEN
100
AcDbLine
 10
800.6860720562999
 20
1113.62999034956
 30
0.0
 11
800.6860720562999
 21
1113.62799034956
 31
0.0
  0
LINE
  5
7A5
330
23
100
AcDbEntity
  8
SANINDUSA
  6
HIDDEN
100
AcDbLine
 10
800.6560720563001
 20
1113.628601810923
 30
0.0
 11
800.6560720563001
 21
1113.62999034956
 31
0.0
  0
LINE
  5
7A6
330
23
100
AcDbEntity
  8
SANINDUSA
  6
HIDDEN
100
AcDbLine
 10
800.6547558550499
 20
1113.626367193568
 30
0.0
 11
800.683285134133
 21
1113.584068719231
 31
0.0
  0
LINE
  5
7A7
330
23
100
AcDbEntity
  8
SANINDUSA
  6
HIDDEN
100
AcDbLine
 10
800.6564139811551
 20
1113.627483425116
 30
0.0
 11
800.6849432083635
 21
1113.585187106395
 31
0.0
  0
ARC
  5
7A8
330
23
100
AcDbEntity
  8
SANINDUSA
  6
HIDDEN
100
AcDbCircle
 10
800.6580720562995
 20
1113.628601810923
 30
0.0
 40
0.0020000000000001
100
AcDbArc
 50
180.0
 51
214.0000000001473
  0
ARC
  5
7A9
330
23
100
AcDbEntity
  8
SANINDUSA
  6
HIDDEN
100
AcDbCircle
 10
800.6600722321744
 20
1113.568411421794
 30
0.0
 40
0.0299998176965208
100
AcDbArc
 50
0.0
 51
33.99999865964034
  0
ARC
  5
7AA
330
23
100
AcDbEntity
  8
SANINDUSA
  6
HIDDEN
100
AcDbCircle
 10
800.6600722615621
 20
1113.56841144179
 30
0.0
 40
0.0279997830701829
100
AcDbArc
 50
0.0
 51
33.99999523655256
  0
LINE
  5
7AB
330
23
100
AcDbEntity
  8
SANINDUSA
  6
HIDDEN
100
AcDbLine
 10
800.6860720562999
 20
1113.62799034956
 30
0.0
 11
800.6900720562997
 21
1113.62799034956
 31
0.0
  0
LINE
  5
7AC
330
23
100
AcDbEntity
  8
SANINDUSA
  6
HIDDEN
100
AcDbLine
 10
800.6900720562997
 20
1113.63199034956
 30
0.0
 11
800.6540720562997
 21
1113.63199034956
 31
0.0
  0
LINE
  5
7AD
330
23
100
AcDbEntity
  8
SANINDUSA
  6
HIDDEN
100
AcDbLine
 10
800.6860720562999
 20
1113.62999034956
 30
0.0
 11
800.6560720563001
 21
1113.62999034956
 31
0.0
  0
LINE
  5
7AE
330
23
100
AcDbEntity
  8
SANINDUSA
  6
HIDDEN
100
AcDbLine
 10
800.6540720562997
 20
1113.631964848419
 30
0.0
 11
800.6540720562997
 21
1113.63199034956
 31
0.0
  0
LINE
  5
7AF
330
23
100
AcDbEntity
  8
SANINDUSA
  6
HIDDEN
100
AcDbLine
 10
800.6470720563001
 20
1113.75899034956
 30
0.0
 11
800.6900720562997
 21
1113.75899034956
 31
0.0
  0
LINE
  5
7B0
330
23
100
AcDbEntity
  8
SANINDUSA
  6
HIDDEN
100
AcDbLine
 10
800.6470720563001
 20
1113.76099034956
 30
0.0
 11
800.6860720562999
 21
1113.76099034956
 31
0.0
  0
LINE
  5
7B1
330
23
100
AcDbEntity
  8
SANINDUSA
  6
HIDDEN
100
AcDbLine
 10
800.6450720562996
 20
1113.75699034956
 30
0.0
 11
800.6450720562996
 21
1113.74599034956
 31
0.0
  0
LINE
  5
7B2
330
23
100
AcDbEntity
  8
SANINDUSA
  6
HIDDEN
100
AcDbLine
 10
800.6430720563001
 20
1113.75699034956
 30
0.0
 11
800.6430720563001
 21
1113.74599034956
 31
0.0
  0
LINE
  5
7B3
330
23
100
AcDbEntity
  8
SANINDUSA
  6
HIDDEN
100
AcDbLine
 10
800.6210720563002
 20
1113.75999034956
 30
0.0
 11
800.6210720563002
 21
1113.75599034956
 31
0.0
  0
LINE
  5
7B4
330
23
100
AcDbEntity
  8
SANINDUSA
  6
HIDDEN
100
AcDbLine
 10
800.6060720562999
 20
1113.75999034956
 30
0.0
 11
800.6060720562999
 21
1113.75599034956
 31
0.0
  0
LINE
  5
7B5
330
23
100
AcDbEntity
  8
SANINDUSA
  6
HIDDEN
100
AcDbLine
 10
800.6210720563002
 20
1113.74299034956
 30
0.0
 11
800.6400720562995
 21
1113.74299034956
 31
0.0
  0
LINE
  5
7B6
330
23
100
AcDbEntity
  8
SANINDUSA
  6
HIDDEN
100
AcDbLine
 10
800.6160720563
 20
1113.74099034956
 30
0.0
 11
800.6400720562995
 21
1113.74099034956
 31
0.0
  0
LINE
  5
7B7
330
23
100
AcDbEntity
  8
SANINDUSA
  6
HIDDEN
100
AcDbLine
 10
800.6210720563002
 20
1113.75599034956
 30
0.0
 11
800.6060720562999
 21
1113.75599034956
 31
0.0
  0
LINE
  5
7B8
330
23
100
AcDbEntity
  8
SANINDUSA
  6
HIDDEN
100
AcDbLine
 10
800.6060720562999
 20
1113.74799034956
 30
0.0
 11
800.6210720563002
 21
1113.74799034956
 31
0.0
  0
LINE
  5
7B9
330
23
100
AcDbEntity
  8
SANINDUSA
  6
HIDDEN
100
AcDbLine
 10
800.6210720563002
 20
1113.747990958779
 30
0.0
 11
800.6060720562999
 21
1113.747990958779
 31
0.0
  0
LINE
  5
7BA
330
23
100
AcDbEntity
  8
SANINDUSA
  6
HIDDEN
100
AcDbLine
 10
800.6060720562999
 20
1113.755879667478
 30
0.0
 11
800.6060720562999
 21
1113.748111925702
 31
0.0
  0
LINE
  5
7BB
330
23
100
AcDbEntity
  8
SANINDUSA
  6
HIDDEN
100
AcDbLine
 10
800.6060720562999
 20
1113.755989740341
 30
0.0
 11
800.6060720562999
 21
1113.75599034956
 31
0.0
  0
LINE
  5
7BC
330
23
100
AcDbEntity
  8
SANINDUSA
  6
HIDDEN
100
AcDbLine
 10
800.6060720562999
 20
1113.755879667478
 30
0.0
 11
800.6060720562999
 21
1113.755989740341
 31
0.0
  0
LINE
  5
7BD
330
23
100
AcDbEntity
  8
SANINDUSA
  6
HIDDEN
100
AcDbLine
 10
800.6060720562999
 20
1113.74799034956
 30
0.0
 11
800.6060720562999
 21
1113.747990958779
 31
0.0
  0
LINE
  5
7BE
330
23
100
AcDbEntity
  8
SANINDUSA
  6
HIDDEN
100
AcDbLine
 10
800.6060720562999
 20
1113.747990958779
 30
0.0
 11
800.6060720562999
 21
1113.748111925702
 31
0.0
  0
LINE
  5
7BF
330
23
100
AcDbEntity
  8
SANINDUSA
  6
HIDDEN
100
AcDbLine
 10
800.6060720562999
 20
1113.74799034956
 30
0.0
 11
800.6060720562999
 21
1113.742090258816
 31
0.0
  0
LINE
  5
7C0
330
23
100
AcDbEntity
  8
SANINDUSA
  6
HIDDEN
100
AcDbLine
 10
800.6210720563002
 20
1113.755879667478
 30
0.0
 11
800.6210720563002
 21
1113.748111925702
 31
0.0
  0
LINE
  5
7C1
330
23
100
AcDbEntity
  8
SANINDUSA
  6
HIDDEN
100
AcDbLine
 10
800.6210720563002
 20
1113.755989740341
 30
0.0
 11
800.6210720563002
 21
1113.75599034956
 31
0.0
  0
LINE
  5
7C2
330
23
100
AcDbEntity
  8
SANINDUSA
  6
HIDDEN
100
AcDbLine
 10
800.6210720563002
 20
1113.755879667478
 30
0.0
 11
800.6210720563002
 21
1113.755989740341
 31
0.0
  0
LINE
  5
7C3
330
23
100
AcDbEntity
  8
SANINDUSA
  6
HIDDEN
100
AcDbLine
 10
800.6210720563002
 20
1113.74799034956
 30
0.0
 11
800.6210720563002
 21
1113.747990958779
 31
0.0
  0
LINE
  5
7C4
330
23
100
AcDbEntity
  8
SANINDUSA
  6
HIDDEN
100
AcDbLine
 10
800.6210720563002
 20
1113.747990958779
 30
0.0
 11
800.6210720563002
 21
1113.748111925702
 31
0.0
  0
LINE
  5
7C5
330
23
100
AcDbEntity
  8
SANINDUSA
  6
HIDDEN
100
AcDbLine
 10
800.6210720563002
 20
1113.74799034956
 30
0.0
 11
800.6210720563002
 21
1113.74299034956
 31
0.0
  0
ARC
  5
7C6
330
23
100
AcDbEntity
  8
SANINDUSA
  6
HIDDEN
100
AcDbCircle
 10
800.6400720562995
 20
1113.74599034956
 30
0.0
 40
0.003
100
AcDbArc
 50
270.0
 51
0.0
  0
ARC
  5
7C7
330
23
100
AcDbEntity
  8
SANINDUSA
  6
HIDDEN
100
AcDbCircle
 10
800.6400720562995
 20
1113.74599034956
 30
0.0
 40
0.005
100
AcDbArc
 50
270.0
 51
0.0
  0
LINE
  5
7C8
330
23
100
AcDbEntity
  8
SANINDUSA
  6
HIDDEN
100
AcDbLine
 10
800.6060720562999
 20
1113.75999034956
 30
0.0
 11
800.6210720563002
 21
1113.75999034956
 31
0.0
  0
ARC
  5
7C9
330
23
100
AcDbEntity
  8
SANINDUSA
  6
HIDDEN
100
AcDbCircle
 10
800.6470720563001
 20
1113.75699034956
 30
0.0
 40
0.002
100
AcDbArc
 50
90.0
 51
180.0
  0
ARC
  5
7CA
330
23
100
AcDbEntity
  8
SANINDUSA
  6
HIDDEN
100
AcDbCircle
 10
800.6470720563001
 20
1113.75699034956
 30
0.0
 40
0.0040000000000001
100
AcDbArc
 50
90.0
 51
180.0
  0
LINE
  5
7CB
330
23
100
AcDbEntity
  8
SANINDUSA
  6
HIDDEN
100
AcDbLine
 10
800.6900720562997
 20
1113.76299034956
 30
0.0
 11
800.6860720562999
 21
1113.76299034956
 31
0.0
  0
LINE
  5
7CC
330
23
100
AcDbEntity
  8
SANINDUSA
  6
HIDDEN
100
AcDbLine
 10
800.6860720562999
 20
1113.76299034956
 30
0.0
 11
800.6860720562999
 21
1113.76099034956
 31
0.0
  0
LINE
  5
7CD
330
23
100
AcDbEntity
  8
SANINDUSA
  6
HIDDEN
100
AcDbLine
 10
800.6900720562997
 20
1113.76299034956
 30
0.0
 11
800.6900720562997
 21
1113.75899034956
 31
0.0
  0
LINE
  5
7CE
330
23
100
AcDbEntity
  8
SANINDUSA
  6
HIDDEN
100
AcDbLine
 10
800.6900720562997
 20
1113.63199034956
 30
0.0
 11
800.6900720562997
 21
1113.62799034956
 31
0.0
  0
LINE
  5
7CF
330
23
100
AcDbEntity
  8
SANINDUSA
  6
HIDDEN
100
AcDbLine
 10
800.6540720562997
 20
1113.631964848419
 30
0.0
 11
800.6540720562997
 21
1113.62860388963
 31
0.0
  0
ARC
  5
7D0
330
23
100
AcDbEntity
  8
SANINDUSA
  6
HIDDEN
100
AcDbCircle
 10
800.6580720562995
 20
1113.62860388963
 30
0.0
 40
0.004
100
AcDbArc
 50
180.0
 51
213.9986946280446
  0
LINE
  5
7D1
330
23
100
AcDbEntity
  8
SANINDUSA
  6
HIDDEN
100
AcDbLine
 10
800.6000720562996
 20
1113.545237685378
 30
0.0
 11
800.6000720562996
 21
1113.460722400368
 31
0.0
  0
ARC
  5
7D2
330
23
100
AcDbEntity
  8
SANINDUSA
  6
HIDDEN
100
AcDbCircle
 10
800.5800720563
 20
1113.545237685378
 30
0.0
 40
0.02
100
AcDbArc
 50
0.0
 51
37.28570792802202
  0
LINE
  5
7D3
330
23
100
AcDbEntity
  8
SANINDUSA
  6
HIDDEN
100
AcDbLine
 10
800.5641595639779
 20
1113.599151373276
 30
0.0
 11
800.5959845486222
 21
1113.557353484489
 31
0.0
  0
ARC
  5
7D4
330
23
100
AcDbEntity
  8
SANINDUSA
  6
HIDDEN
100
AcDbCircle
 10
800.5800720563
 20
1113.611267172387
 30
0.0
 40
0.02
100
AcDbArc
 50
180.0
 51
217.285707928022
  0
ARC
  5
7D5
330
23
100
AcDbEntity
  8
SANINDUSA
  6
HIDDEN
100
AcDbCircle
 10
800.5800720563
 20
1113.545237685378
 30
0.0
 40
0.022
100
AcDbArc
 50
0.0
 51
37.28570792802202
  0
LINE
  5
7D6
330
23
100
AcDbEntity
  8
SANINDUSA
  6
HIDDEN
100
AcDbLine
 10
800.5657508132097
 20
1113.600362953187
 30
0.0
 11
800.5975757978539
 21
1113.558565064401
 31
0.0
  0
ARC
  5
7D7
330
23
100
AcDbEntity
  8
SANINDUSA
  6
HIDDEN
100
AcDbCircle
 10
800.5800720563
 20
1113.611267172387
 30
0.0
 40
0.018
100
AcDbArc
 50
180.0
 51
217.285707928022
  0
LINE
  5
7D8
330
23
100
AcDbEntity
  8
SANINDUSA
100
AcDbLine
 10
800.6700720563001
 20
1113.62549034956
 30
0.0
 11
800.6901174991106
 21
1113.625945927806
 31
0.0
  0
LINE
  5
7D9
330
23
100
AcDbEntity
  8
SANINDUSA
100
AcDbLine
 10
800.6901174991106
 20
1113.765034771314
 30
0.0
 11
800.6700720563001
 21
1113.76549034956
 31
0.0
  0
LINE
  5
7DA
330
23
100
AcDbEntity
  8
SANINDUSA
100
AcDbLine
 10
800.6700720563001
 20
1113.62999034956
 30
0.0
 11
800.6700720563001
 21
1113.62549034956
 31
0.0
  0
LINE
  5
7DB
330
23
100
AcDbEntity
  8
SANINDUSA
100
AcDbLine
 10
800.6700720563001
 20
1113.76549034956
 30
0.0
 11
800.6700720563001
 21
1113.76099034956
 31
0.0
  0
LINE
  5
7DC
330
23
100
AcDbEntity
  8
SANINDUSA
100
AcDbLine
 10
800.6920720563002
 20
1113.75399034956
 30
0.0
 11
800.6920720563002
 21
1113.747305200018
 31
0.0
  0
LINE
  5
7DD
330
23
100
AcDbEntity
  8
SANINDUSA
100
AcDbLine
 10
800.6920720563002
 20
1113.643675499102
 30
0.0
 11
800.6920720563002
 21
1113.63699034956
 31
0.0
  0
LINE
  5
7DE
330
23
100
AcDbEntity
  8
SANINDUSA
100
AcDbLine
 10
800.6920720563002
 20
1113.627945411477
 30
0.0
 11
800.6920720563002
 21
1113.63699034956
 31
0.0
  0
LINE
  5
7DF
330
23
100
AcDbEntity
  8
SANINDUSA
100
AcDbLine
 10
800.6900720562997
 20
1113.63599034956
 30
0.0
 11
800.6900720562997
 21
1113.627945411477
 31
0.0
  0
LINE
  5
7E0
330
23
100
AcDbEntity
  8
SANINDUSA
100
AcDbLine
 10
800.6900720562997
 20
1113.627945411477
 30
0.0
 11
800.6850947777055
 21
1113.627832291509
 31
0.0
  0
LINE
  5
7E1
330
23
100
AcDbEntity
  8
SANINDUSA
100
AcDbLine
 10
800.6720720562997
 20
1113.628559306071
 30
0.0
 11
800.6720720562997
 21
1113.62999034956
 31
0.0
  0
LINE
  5
7E2
330
23
100
AcDbEntity
  8
SANINDUSA
100
AcDbLine
 10
800.6840720563003
 20
1113.628832033344
 30
0.0
 11
800.6840720563003
 21
1113.62999034956
 31
0.0
  0
LINE
  5
7E3
330
23
100
AcDbEntity
  8
SANINDUSA
100
AcDbLine
 10
800.6820720562998
 20
1113.62999034956
 30
0.0
 11
800.6820720562998
 21
1113.628741124253
 31
0.0
  0
LINE
  5
7E4
330
23
100
AcDbEntity
  8
SANINDUSA
100
AcDbLine
 10
800.6800720562996
 20
1113.628741124253
 30
0.0
 11
800.6800720562996
 21
1113.62999034956
 31
0.0
  0
LINE
  5
7E5
330
23
100
AcDbEntity
  8
SANINDUSA
100
AcDbLine
 10
800.6780720563
 20
1113.62999034956
 30
0.0
 11
800.6780720563
 21
1113.628650215162
 31
0.0
  0
LINE
  5
7E6
330
23
100
AcDbEntity
  8
SANINDUSA
100
AcDbLine
 10
800.6760720562995
 20
1113.628650215162
 30
0.0
 11
800.6760720562995
 21
1113.62999034956
 31
0.0
  0
LINE
  5
7E7
330
23
100
AcDbEntity
  8
SANINDUSA
100
AcDbLine
 10
800.6740720563001
 20
1113.62999034956
 30
0.0
 11
800.6740720563001
 21
1113.628559306071
 31
0.0
  0
LINE
  5
7E8
330
23
100
AcDbEntity
  8
SANINDUSA
100
AcDbLine
 10
800.6853902176953
 20
1113.643793413901
 30
0.0
 11
800.6900720562997
 21
1113.63599034956
 31
0.0
  0
LINE
  5
7E9
330
23
100
AcDbEntity
  8
SANINDUSA
100
AcDbLine
 10
800.6920720563002
 20
1113.63699034956
 30
0.0
 11
800.6890773911562
 21
1113.643728346134
 31
0.0
  0
LINE
  5
7EA
330
23
100
AcDbEntity
  8
SANINDUSA
100
AcDbLine
 10
800.6900720562997
 20
1113.763035287643
 30
0.0
 11
800.6900720562997
 21
1113.75499034956
 31
0.0
  0
LINE
  5
7EB
330
23
100
AcDbEntity
  8
SANINDUSA
100
AcDbLine
 10
800.6920720563002
 20
1113.75399034956
 30
0.0
 11
800.6920720563002
 21
1113.763035287643
 31
0.0
  0
LINE
  5
7EC
330
23
100
AcDbEntity
  8
SANINDUSA
100
AcDbLine
 10
800.6900720562997
 20
1113.75499034956
 30
0.0
 11
800.6853902176953
 21
1113.747187285219
 31
0.0
  0
LINE
  5
7ED
330
23
100
AcDbEntity
  8
SANINDUSA
100
AcDbLine
 10
800.6890773911562
 20
1113.747252352986
 30
0.0
 11
800.6920720563002
 21
1113.75399034956
 31
0.0
  0
LINE
  5
7EE
330
23
100
AcDbEntity
  8
SANINDUSA
100
AcDbLine
 10
800.6850947777055
 20
1113.763148407611
 30
0.0
 11
800.6900720562997
 21
1113.763035287643
 31
0.0
  0
LINE
  5
7EF
330
23
100
AcDbEntity
  8
SANINDUSA
100
AcDbLine
 10
800.6720720562997
 20
1113.76099034956
 30
0.0
 11
800.6720720562997
 21
1113.762421393049
 31
0.0
  0
LINE
  5
7F0
330
23
100
AcDbEntity
  8
SANINDUSA
100
AcDbLine
 10
800.6740720563001
 20
1113.762421393049
 30
0.0
 11
800.6740720563001
 21
1113.76099034956
 31
0.0
  0
LINE
  5
7F1
330
23
100
AcDbEntity
  8
SANINDUSA
100
AcDbLine
 10
800.6760720562995
 20
1113.76099034956
 30
0.0
 11
800.6760720562995
 21
1113.762330483958
 31
0.0
  0
LINE
  5
7F2
330
23
100
AcDbEntity
  8
SANINDUSA
100
AcDbLine
 10
800.6780720563
 20
1113.762330483958
 30
0.0
 11
800.6780720563
 21
1113.76099034956
 31
0.0
  0
LINE
  5
7F3
330
23
100
AcDbEntity
  8
SANINDUSA
100
AcDbLine
 10
800.6800720562996
 20
1113.76099034956
 30
0.0
 11
800.6800720562996
 21
1113.762239574867
 31
0.0
  0
LINE
  5
7F4
330
23
100
AcDbEntity
  8
SANINDUSA
100
AcDbLine
 10
800.6820720562998
 20
1113.762239574867
 30
0.0
 11
800.6820720562998
 21
1113.76099034956
 31
0.0
  0
LINE
  5
7F5
330
23
100
AcDbEntity
  8
SANINDUSA
100
AcDbLine
 10
800.6840720563003
 20
1113.76099034956
 30
0.0
 11
800.6840720563003
 21
1113.762148665776
 31
0.0
  0
ARC
  5
7F6
330
23
100
AcDbEntity
  8
SANINDUSA
100
AcDbCircle
 10
800.6730720562998
 20
1113.628559306071
 30
0.0
 40
0.0010000000000002
100
AcDbArc
 50
180.0
 51
0.0
  0
ARC
  5
7F7
330
23
100
AcDbEntity
  8
SANINDUSA
100
AcDbCircle
 10
800.6770720562998
 20
1113.628650215162
 30
0.0
 40
0.0010000000000002
100
AcDbArc
 50
180.0
 51
0.0
  0
ARC
  5
7F8
330
23
100
AcDbEntity
  8
SANINDUSA
100
AcDbCircle
 10
800.6810720562997
 20
1113.628741124253
 30
0.0
 40
0.0010000000000002
100
AcDbArc
 50
180.0
 51
0.0
  0
ARC
  5
7F9
330
23
100
AcDbEntity
  8
SANINDUSA
100
AcDbCircle
 10
800.6850720562995
 20
1113.628832033344
 30
0.0
 40
0.0010000000000002
100
AcDbArc
 50
180.0
 51
271.301952672039
  0
ARC
  5
7FA
330
23
100
AcDbEntity
  8
SANINDUSA
100
AcDbCircle
 10
800.6810720562997
 20
1113.762239574867
 30
0.0
 40
0.0010000000000002
100
AcDbArc
 50
0.0
 51
180.0
  0
ARC
  5
7FB
330
23
100
AcDbEntity
  8
SANINDUSA
100
AcDbCircle
 10
800.6730720562998
 20
1113.762421393049
 30
0.0
 40
0.0010000000000002
100
AcDbArc
 50
0.0
 51
180.0
  0
LINE
  5
7FC
330
23
100
AcDbEntity
  8
SANINDUSA
100
AcDbLine
 10
800.6720720562997
 20
1113.762421393049
 30
0.0
 11
800.6720720562997
 21
1113.76099034956
 31
0.0
  0
ARC
  5
7FD
330
23
100
AcDbEntity
  8
SANINDUSA
100
AcDbCircle
 10
800.6770720562998
 20
1113.762330483958
 30
0.0
 40
0.0010000000000002
100
AcDbArc
 50
0.0
 51
180.0
  0
LINE
  5
7FE
330
23
100
AcDbEntity
  8
SANINDUSA
100
AcDbLine
 10
800.6740720563001
 20
1113.76099034956
 30
0.0
 11
800.6740720563001
 21
1113.762421393049
 31
0.0
  0
LINE
  5
7FF
330
23
100
AcDbEntity
  8
SANINDUSA
100
AcDbLine
 10
800.6760720562995
 20
1113.762330483958
 30
0.0
 11
800.6760720562995
 21
1113.76099034956
 31
0.0
  0
LINE
  5
800
330
23
100
AcDbEntity
  8
SANINDUSA
100
AcDbLine
 10
800.6780720563
 20
1113.76099034956
 30
0.0
 11
800.6780720563
 21
1113.762330483958
 31
0.0
  0
LINE
  5
801
330
23
100
AcDbEntity
  8
SANINDUSA
100
AcDbLine
 10
800.6800720562996
 20
1113.762239574867
 30
0.0
 11
800.6800720562996
 21
1113.76099034956
 31
0.0
  0
ARC
  5
802
330
23
100
AcDbEntity
  8
SANINDUSA
100
AcDbCircle
 10
800.6850720562995
 20
1113.762148665776
 30
0.0
 40
0.0010000000000002
100
AcDbArc
 50
88.69804732796104
 51
180.0
  0
LINE
  5
803
330
23
100
AcDbEntity
  8
SANINDUSA
100
AcDbLine
 10
800.6820720562998
 20
1113.76099034956
 30
0.0
 11
800.6820720562998
 21
1113.762239574867
 31
0.0
  0
LINE
  5
804
330
23
100
AcDbEntity
  8
SANINDUSA
100
AcDbLine
 10
800.6840720563003
 20
1113.762148665776
 30
0.0
 11
800.6840720563003
 21
1113.76099034956
 31
0.0
  0
ARC
  5
805
330
23
100
AcDbEntity
  8
SANINDUSA
100
AcDbCircle
 10
800.6900720562997
 20
1113.763035287643
 30
0.0
 40
0.002
100
AcDbArc
 50
0.0
 51
88.69804732796104
  0
ARC
  5
806
330
23
100
AcDbEntity
  8
SANINDUSA
100
AcDbCircle
 10
800.6900720562997
 20
1113.627945411477
 30
0.0
 40
0.002
100
AcDbArc
 50
271.301952672039
 51
0.0
  0
LWPOLYLINE
  5
869
330
23
100
AcDbEntity
  8
SANINDUSA
100
AcDbPolyline
 90
       38
 70
   128
 43
0.0
 10
800.595408021325
 20
1113.739038381785
 10
800.5934210547884
 20
1113.740496818958
 10
800.5909807911859
 20
1113.742428592376
 10
800.5886100173809
 20
1113.74444413076
 10
800.5863106317487
 20
1113.746536195962
 10
800.5840163537158
 20
1113.748765304529
 10
800.581792697265
 20
1113.75106780524
 10
800.5796396698652
 20
1113.753437872573
 10
800.577557278985
 20
1113.755869681011
 10
800.5755455320931
 20
1113.75835740503
 10
800.5731875716685
 20
1113.761458339536
 10
800.5709264945254
 20
1113.764634354597
 10
800.5687610079124
 20
1113.767878758235
 10
800.5666898190783
 20
1113.771184858471
 10
800.5647116352713
 20
1113.774545963328
 10
800.5628251637405
 20
1113.777955380827
 10
800.5610297266152
 20
1113.781405338567
 10
800.5593190620773
 20
1113.784900325999
 10
800.5576919277759
 20
1113.78843633894
 10
800.5561470813599
 20
1113.792009373203
 10
800.5546832804784
 20
1113.795615424604
 10
800.55329928278
 20
1113.799250488958
 10
800.5519048454086
 20
1113.803169652185
 10
800.5505972825361
 20
1113.807119693634
 10
800.5493754801799
 20
1113.811097185611
 10
800.5482383243579
 20
1113.815098700419
 10
800.5471770025021
 20
1113.819151712622
 10
800.5461986549253
 20
1113.823226433273
 10
800.545302479402
 20
1113.827320064608
 10
800.5444876737072
 20
1113.831429808859
 10
800.543739265553
 20
1113.835637473021
 10
800.5430735254062
 20
1113.839859829353
 10
800.5424898995757
 20
1113.844094349785
 10
800.5419878343703
 20
1113.848338506247
 10
800.5415643865642
 20
1113.852616733123
 10
800.5412222571401
 20
1113.85690300264
 10
800.5409611147394
 20
1113.86119498479
 10
800.540780628004
 20
1113.86549034956
  0
LINE
  5
86A
330
23
100
AcDbEntity
  8
SANINDUSA
100
AcDbLine
 10
800.5913484343889
 20
1113.56344240454
 30
0.0
 11
800.5507806280039
 21
1113.56344240454
 31
0.0
  0
LINE
  5
86B
330
23
100
AcDbEntity
  8
SANINDUSA
100
AcDbLine
 10
800.6000720562996
 20
1113.51549034956
 30
0.0
 11
800.5607806280039
 21
1113.51549034956
 31
0.0
  0
ENDSEC
  0
SECTION
  2
OBJECTS
  0
DICTIONARY
  5
C
330
0
100
AcDbDictionary
281
     1
  3
ACAD_COLOR
350
1C
  3
ACAD_GROUP
350
D
  3
ACAD_LAYOUT
350
1A
  3
ACAD_MATERIAL
350
1B
  3
ACAD_MLEADERSTYLE
350
6B6
  3
ACAD_MLINESTYLE
350
17
  3
ACAD_PLOTSETTINGS
350
19
  3
ACAD_PLOTSTYLENAME
350
E
  3
ACAD_SCALELIST
350
6A4
  3
ACAD_TABLESTYLE
350
1D
  3
ACAD_VISUALSTYLE
350
690
  3
ACDB_RECOMPOSE_DATA
350
8C4
  3
AcDbVariableDictionary
350
669
  3
ASE_INDEX_DICTIONARY
350
666
  3
Autodesk_PNP
350
6BB
  3
DWGPROPS
350
8C5
  0
DICTIONARY
  5
86D
330
10
100
AcDbDictionary
280
     1
281
     1
  3
ADSK_XREC_LAYER_RECONCILED
360
86E
  0
DICTIONARY
  5
86F
330
31
100
AcDbDictionary
280
     1
281
     1
  3
ADSK_XREC_LAYER_RECONCILED
360
870
  0
DICTIONARY
  5
871
330
32
100
AcDbDictionary
280
     1
281
     1
  3
ADSK_XREC_LAYER_RECONCILED
360
872
  0
DICTIONARY
  5
873
330
33
100
AcDbDictionary
280
     1
281
     1
  3
ADSK_XREC_LAYER_RECONCILED
360
874
  0
DICTIONARY
  5
875
330
34
100
AcDbDictionary
280
     1
281
     1
  3
ADSK_XREC_LAYER_RECONCILED
360
876
  0
DICTIONARY
  5
877
330
35
100
AcDbDictionary
280
     1
281
     1
  3
ADSK_XREC_LAYER_RECONCILED
360
878
  0
DICTIONARY
  5
879
330
36
100
AcDbDictionary
280
     1
281
     1
  3
ADSK_XREC_LAYER_RECONCILED
360
87A
  0
DICTIONARY
  5
87B
330
37
100
AcDbDictionary
280
     1
281
     1
  3
ADSK_XREC_LAYER_RECONCILED
360
87C
  0
DICTIONARY
  5
87D
330
38
100
AcDbDictionary
280
     1
281
     1
  3
ADSK_XREC_LAYER_RECONCILED
360
87E
  0
DICTIONARY
  5
87F
330
39
100
AcDbDictionary
280
     1
281
     1
  3
ADSK_XREC_LAYER_RECONCILED
360
880
  0
DICTIONARY
  5
867
330
23
100
AcDbDictionary
280
     1
281
     1
  3
ACAD_SORTENTS
360
868
  0
DICTIONARY
  5
1C
102
{ACAD_REACTORS
330
C
102
}
330
C
100
AcDbDictionary
281
     1
  0
DICTIONARY
  5
D
102
{ACAD_REACTORS
330
C
102
}
330
C
100
AcDbDictionary
281
     1
  0
DICTIONARY
  5
1A
102
{ACAD_REACTORS
330
C
102
}
330
C
100
AcDbDictionary
281
     1
  3
Layout1
350
22
  3
Layout2
350
2A
  3
Model
350
26
  0
DICTIONARY
  5
1B
102
{ACAD_REACTORS
330
C
102
}
330
C
100
AcDbDictionary
281
     1
  3
ByBlock
350
680
  3
ByLayer
350
678
  3
Global
350
688
  0
DICTIONARY
  5
6B6
102
{ACAD_REACTORS
330
C
102
}
330
C
100
AcDbDictionary
281
     1
  3
Standard
350
6B7
  0
DICTIONARY
  5
17
102
{ACAD_REACTORS
330
C
102
}
330
C
100
AcDbDictionary
281
     1
  3
Standard
350
18
  0
DICTIONARY
  5
19
102
{ACAD_REACTORS
330
C
102
}
330
C
100
AcDbDictionary
281
     1
  0
ACDBDICTIONARYWDFLT
  5
E
102
{ACAD_REACTORS
330
C
102
}
330
C
100
AcDbDictionary
281
     1
  3
Normal
350
F
100
AcDbDictionaryWithDefault
340
F
  0
DICTIONARY
  5
6A4
102
{ACAD_REACTORS
330
C
102
}
330
C
100
AcDbDictionary
281
     1
  3
A0
350
6A5
  3
A1
350
6A6
  3
A2
350
6A7
  3
A3
350
6A8
  3
A4
350
6A9
  3
A5
350
6AA
  3
A6
350
6AB
  3
A7
350
6AC
  3
A8
350
6AD
  3
A9
350
6AE
  3
B0
350
6AF
  3
B1
350
6B0
  3
B2
350
6B1
  3
B3
350
6B2
  3
B4
350
6B3
  3
B5
350
6B4
  3
B6
350
6B5
  0
DICTIONARY
  5
1D
102
{ACAD_REACTORS
330
C
102
}
330
C
100
AcDbDictionary
281
     1
  3
Standard
350
1E
  0
DICTIONARY
  5
690
102
{ACAD_REACTORS
330
C
102
}
330
C
100
AcDbDictionary
281
     1
  3
2dWireframe
350
696
  3
3D Hidden
350
698
  3
3dWireframe
350
697
  3
Basic
350
695
  3
Brighten
350
69C
  3
ColorChange
350
6A0
  3
Conceptual
350
699
  3
Dim
350
69B
  3
EdgeColorOff
350
6A3
  3
Facepattern
350
69F
  3
Flat
350
691
  3
FlatWithEdges
350
692
  3
Gouraud
350
693
  3
GouraudWithEdges
350
694
  3
JitterOff
350
6A1
  3
Linepattern
350
69E
  3
OverhangOff
350
6A2
  3
Realistic
350
69A
  3
Thicken
350
69D
  0
XRECORD
  5
8C4
102
{ACAD_REACTORS
330
C
102
}
330
C
100
AcDbXrecord
280
     1
 90
        1
330
1E
  0
DICTIONARY
  5
669
102
{ACAD_REACTORS
330
C
102
}
330
C
100
AcDbDictionary
281
     1
  3
CANNOSCALE
350
8BE
  3
CMLEADERSTYLE
350
8BD
  3
CTABLESTYLE
350
66A
  3
DIMASSOC
350
675
  3
HIDETEXT
350
674
  3
INDEXCTL
350
8C0
  3
PROJECTNAME
350
676
  3
SORTENTS
350
8BF
  3
XCLIPFRAME
350
8C1
  0
DICTIONARY
  5
666
102
{ACAD_REACTORS
330
C
102
}
330
C
100
AcDbDictionary
281
     1
  3
ASEBlockHierarchyIndexRecord
350
667
1001
DCO15
1040
1554703421.625
  0
DICTIONARY
  5
6BB
102
{ACAD_REACTORS
330
C
102
}
330
C
100
AcDbDictionary
281
     1
  0
XRECORD
  5
8C5
102
{ACAD_REACTORS
330
C
102
}
330
C
100
AcDbXrecord
280
     1
  1
DWGPROPS COOKIE
  2

  3

  4

  6

  7

  8
Julio
  9

300
=
301
=
302
=
303
=
304
=
305
=
306
=
307
=
308
=
309
=
 40
0.0046119097222222
 41
2453797.502466898
 42
2456149.57626971
  1

 90
        0
  0
XRECORD
  5
86E
102
{ACAD_REACTORS
330
86D
102
}
330
86D
100
AcDbXrecord
280
     1
290
     1
  0
XRECORD
  5
870
102
{ACAD_REACTORS
330
86F
102
}
330
86F
100
AcDbXrecord
280
     1
290
     1
  0
XRECORD
  5
872
102
{ACAD_REACTORS
330
871
102
}
330
871
100
AcDbXrecord
280
     1
290
     1
  0
XRECORD
  5
874
102
{ACAD_REACTORS
330
873
102
}
330
873
100
AcDbXrecord
280
     1
290
     1
  0
XRECORD
  5
876
102
{ACAD_REACTORS
330
875
102
}
330
875
100
AcDbXrecord
280
     1
290
     1
  0
XRECORD
  5
878
102
{ACAD_REACTORS
330
877
102
}
330
877
100
AcDbXrecord
280
     1
290
     1
  0
XRECORD
  5
87A
102
{ACAD_REACTORS
330
879
102
}
330
879
100
AcDbXrecord
280
     1
290
     1
  0
XRECORD
  5
87C
102
{ACAD_REACTORS
330
87B
102
}
330
87B
100
AcDbXrecord
280
     1
290
     1
  0
XRECORD
  5
87E
102
{ACAD_REACTORS
330
87D
102
}
330
87D
100
AcDbXrecord
280
     1
290
     1
  0
XRECORD
  5
880
102
{ACAD_REACTORS
330
87F
102
}
330
87F
100
AcDbXrecord
280
     1
290
     1
  0
SORTENTSTABLE
  5
868
102
{ACAD_REACTORS
330
867
102
}
330
867
100
AcDbSortentsTable
330
23
331
7F0
  5
7F4
331
650
  5
654
331
801
  5
805
331
529
  5
536
331
3F0
  5
3F5
331
53A
  5
547
331
55C
  5
5D8
331
5D5
  5
5DB
331
434
  5
438
331
5E6
  5
5ED
331
7B0
  5
7B4
331
79F
  5
7A3
331
5F7
  5
5FE
331
356
  5
358
331
345
  5
347
331
412
  5
417
331
7C1
  5
7C5
331
441
  5
445
331
7D2
  5
7D6
331
452
  5
457
331
391
  5
393
331
7E3
  5
7E7
331
463
  5
467
331
615
  5
61C
331
4FD
  5
507
331
324
  5
32E
331
3A2
  5
3A4
331
380
  5
382
331
51F
  5
531
331
3CE
  5
3D1
331
335
  5
33A
331
7F1
  5
7F5
331
651
  5
655
331
802
  5
806
331
3F1
  5
3F6
331
54C
  5
559
331
413
  5
41A
331
402
  5
405
331
435
  5
439
331
7B1
  5
7B5
331
7A0
  5
7A4
331
5F8
  5
5FF
331
357
  5
359
331
346
  5
348
331
7C2
  5
7C6
331
442
  5
446
331
381
  5
383
331
424
  5
428
331
7D3
  5
7D7
331
453
  5
458
331
464
  5
468
331
7E4
  5
7E8
331
3B4
  5
3B6
331
314
  5
319
331
3A3
  5
3A5
331
392
  5
394
331
628
  5
62F
331
510
  5
519
331
803
  5
869
331
7F2
  5
7F6
331
652
  5
795
331
3D0
  5
3D5
331
5D7
  5
5DD
331
436
  5
43A
331
403
  5
408
331
5E8
  5
5EE
331
7B2
  5
7B6
331
7A1
  5
7A5
331
5F9
  5
602
331
358
  5
35A
331
347
  5
349
331
7C3
  5
7C7
331
443
  5
449
331
7D4
  5
7D8
331
393
  5
395
331
7E5
  5
7E9
331
465
  5
469
331
617
  5
61E
331
3B5
  5
3B8
331
4FF
  5
50D
331
3A4
  5
3A7
331
382
  5
384
331
629
  5
630
331
804
  5
86A
331
7F3
  5
7F7
331
653
  5
796
331
3E2
  5
3E4
331
3D1
  5
3DB
331
5D8
  5
5DE
331
437
  5
43B
331
7B3
  5
7B7
331
7A2
  5
7A6
331
359
  5
35B
331
7C4
  5
7C8
331
444
  5
44A
331
383
  5
385
331
348
  5
34A
331
7D5
  5
7D9
331
455
  5
459
331
7E6
  5
7EA
331
466
  5
46A
331
3B6
  5
3BA
331
3A5
  5
3A8
331
394
  5
396
331
608
  5
612
331
501
  5
510
331
512
  5
51E
331
339
  5
33B
331
805
  5
86B
331
7F4
  5
7F8
331
654
  5
797
331
3E3
  5
3E6
331
54F
  5
55A
331
5D9
  5
5E1
331
427
  5
430
331
5EA
  5
5F2
331
7B4
  5
7B8
331
7A3
  5
7A7
331
35A
  5
360
331
349
  5
34B
331
7C5
  5
7C9
331
445
  5
44B
331
7D6
  5
7DA
331
456
  5
45B
331
395
  5
397
331
7E7
  5
7EB
331
467
  5
46C
331
384
  5
388
331
405
  5
40A
331
468
  5
470
331
7E8
  5
7EC
331
318
  5
31B
331
61A
  5
621
331
3B8
  5
3BB
331
63C
  5
64D
331
62B
  5
631
331
7F5
  5
7F9
331
655
  5
798
331
3E4
  5
3E8
331
806
  5
86C
331
428
  5
431
331
417
  5
41C
331
5EB
  5
5F6
331
7A4
  5
7A8
331
5FC
  5
608
331
35B
  5
362
331
34A
  5
34C
331
7B5
  5
7B9
331
7C6
  5
7CA
331
446
  5
44C
331
385
  5
389
331
7D7
  5
7DB
331
457
  5
45C
331
3A7
  5
3A9
331
396
  5
398
331
374
  5
376
331
3F5
  5
3F7
331
33A
  5
33F
331
458
  5
45D
331
7D8
  5
7DC
331
469
  5
4F5
331
3A8
  5
3AB
331
7E9
  5
7ED
331
319
  5
31C
331
61B
  5
623
331
60A
  5
613
331
62C
  5
633
331
7F6
  5
7FA
331
514
  5
51F
331
5DB
  5
5E3
331
551
  5
55B
331
52F
  5
539
331
7A5
  5
7A9
331
34B
  5
34D
331
7C7
  5
7CB
331
7B6
  5
7BA
331
375
  5
377
331
397
  5
399
331
3F6
  5
3F8
331
33B
  5
340
331
308
  5
308
331
7C8
  5
7CC
331
459
  5
45E
331
398
  5
39A
331
7D9
  5
7DD
331
309
  5
30B
331
7EA
  5
7EE
331
46A
  5
4F8
331
3A9
  5
3AC
331
61C
  5
628
331
32B
  5
32F
331
504
  5
512
331
7F7
  5
7FB
331
3E6
  5
3EB
331
3D5
  5
3DD
331
408
  5
40B
331
3F7
  5
3FC
331
795
  5
799
331
5ED
  5
5F7
331
7A6
  5
7AA
331
5FE
  5
60A
331
34C
  5
34E
331
7B7
  5
7BB
331
376
  5
378
331
3C4
  5
3C7
331
3BA
  5
3BD
331
7B8
  5
7BC
331
438
  5
43C
331
7C9
  5
7CD
331
449
  5
44D
331
388
  5
38A
331
399
  5
39B
331
7DA
  5
7DE
331
7EB
  5
7EF
331
31B
  5
31D
331
30A
  5
30C
331
60C
  5
615
331
7F8
  5
7FC
331
527
  5
535
331
3C5
  5
3C9
331
531
  5
53A
331
5DD
  5
5E4
331
41A
  5
41D
331
796
  5
79A
331
5EE
  5
5F8
331
7A7
  5
7AB
331
5FF
  5
60C
331
34D
  5
34F
331
3F8
  5
3FD
331
377
  5
379
331
3BB
  5
3C4
331
7A8
  5
7AC
331
439
  5
43D
331
378
  5
37A
331
7B9
  5
7BD
331
869
  5
425
331
7CA
  5
7CE
331
44A
  5
44E
331
45B
  5
45F
331
39A
  5
39C
331
7DB
  5
7DF
331
46C
  5
4F9
331
3AB
  5
3AE
331
30B
  5
30D
331
389
  5
38B
331
7EC
  5
7F0
331
60D
  5
617
331
648
  5
64E
331
62F
  5
634
331
61E
  5
629
331
7F9
  5
7FD
331
3E8
  5
3EC
331
5DE
  5
5E5
331
554
  5
55C
331
40A
  5
40C
331
797
  5
79B
331
34E
  5
350
331
4F5
  5
4FF
331
31C
  5
31E
331
798
  5
79C
331
7A9
  5
7AD
331
360
  5
363
331
43A
  5
43E
331
379
  5
37B
331
7BA
  5
7BE
331
7CB
  5
7CF
331
44B
  5
44F
331
38A
  5
38C
331
45C
  5
460
331
39B
  5
39D
331
7DC
  5
7E0
331
3AC
  5
3B2
331
30C
  5
30E
331
86A
  5
427
331
7ED
  5
7F1
331
3BD
  5
3C5
331
507
  5
514
331
630
  5
63C
331
3C7
  5
3CB
331
33F
  5
341
331
7FA
  5
7FE
331
544
  5
548
331
40B
  5
40D
331
5CE
  5
5D9
331
41C
  5
41E
331
34F
  5
351
331
518
  5
527
331
32E
  5
330
331
31D
  5
320
331
799
  5
79D
331
350
  5
352
331
7AA
  5
7AE
331
602
  5
60D
331
43B
  5
43F
331
37A
  5
37C
331
7BB
  5
7BF
331
86B
  5
30A
331
7CC
  5
7D0
331
44C
  5
450
331
45D
  5
461
331
39C
  5
39E
331
7DD
  5
7E1
331
7EE
  5
7F2
331
31E
  5
324
331
30D
  5
30F
331
38B
  5
38D
331
631
  5
648
331
7FB
  5
7FF
331
519
  5
529
331
545
  5
54C
331
42E
  5
432
331
41D
  5
420
331
40C
  5
411
331
32F
  5
335
331
5E1
  5
5E6
331
340
  5
342
331
79A
  5
79E
331
5F2
  5
5F9
331
351
  5
353
331
7AB
  5
7AF
331
362
  5
364
331
43C
  5
440
331
7BC
  5
7C0
331
7CD
  5
7D1
331
44D
  5
451
331
38C
  5
38E
331
45E
  5
462
331
39D
  5
39F
331
7DE
  5
7E2
331
7EF
  5
7F3
331
3AE
  5
3B4
331
30E
  5
310
331
37B
  5
37D
331
621
  5
62B
331
330
  5
339
331
64B
  5
64F
331
3C9
  5
3CD
331
7FC
  5
800
331
535
  5
544
331
3FC
  5
3FE
331
546
  5
54F
331
42F
  5
433
331
41E
  5
422
331
40D
  5
412
331
3EB
  5
3EE
331
4F8
  5
501
331
430
  5
434
331
79B
  5
79F
331
352
  5
354
331
341
  5
343
331
7AC
  5
7B0
331
363
  5
365
331
7BD
  5
7C1
331
43D
  5
441
331
7CE
  5
7D2
331
44E
  5
452
331
38D
  5
38F
331
45F
  5
463
331
7DF
  5
7E3
331
470
  5
4FD
331
30F
  5
311
331
39E
  5
3A1
331
37C
  5
37E
331
633
  5
64B
331
4F9
  5
504
331
64C
  5
650
331
3DB
  5
3DE
331
7FD
  5
801
331
547
  5
551
331
536
  5
545
331
3FD
  5
402
331
3EC
  5
3F0
331
320
  5
32B
331
548
  5
554
331
559
  5
5CE
331
420
  5
423
331
431
  5
435
331
5E3
  5
5E8
331
79C
  5
7A0
331
353
  5
356
331
342
  5
344
331
7AD
  5
7B1
331
7BE
  5
7C2
331
43E
  5
442
331
37D
  5
37F
331
7CF
  5
7D3
331
44F
  5
453
331
460
  5
464
331
39F
  5
3A2
331
7E0
  5
7E4
331
623
  5
62C
331
612
  5
61A
331
310
  5
312
331
38E
  5
390
331
364
  5
374
331
7FE
  5
802
331
64D
  5
651
331
634
  5
64C
331
3FE
  5
403
331
3CB
  5
3CE
331
55A
  5
5D5
331
432
  5
436
331
5E4
  5
5EA
331
343
  5
345
331
79D
  5
7A1
331
354
  5
357
331
7AE
  5
7B2
331
7BF
  5
7C3
331
43F
  5
443
331
37E
  5
380
331
7D0
  5
7D4
331
450
  5
455
331
461
  5
465
331
7E1
  5
7E5
331
613
  5
61B
331
311
  5
314
331
38F
  5
391
331
365
  5
375
331
64E
  5
652
331
7FF
  5
803
331
3EE
  5
3F1
331
3DD
  5
3E2
331
800
  5
804
331
539
  5
546
331
55B
  5
5D7
331
411
  5
413
331
433
  5
437
331
7AF
  5
7B3
331
79E
  5
7A2
331
5F6
  5
5FC
331
5E5
  5
5EB
331
7C0
  5
7C4
331
440
  5
444
331
37F
  5
381
331
344
  5
346
331
7D1
  5
7D5
331
451
  5
456
331
462
  5
466
331
7E2
  5
7E6
331
50D
  5
518
331
3B2
  5
3B5
331
312
  5
318
331
3A1
  5
3A3
331
390
  5
392
331
51E
  5
52F
331
64F
  5
653
331
3DE
  5
3E3
331
3CD
  5
3D0
  0
LAYOUT
  5
22
102
{ACAD_XDICTIONARY
360
8C7
102
}
102
{ACAD_REACTORS
330
1A
102
}
330
1A
100
AcDbPlotSettings
  1

  2
HP DesignJet 500PS42+HPGL2 Card
  4

  6

 40
0.0
 41
0.0
 42
0.0
 43
0.0
 44
0.0
 45
0.0
 46
0.0
 47
0.0
 48
0.0
 49
0.0
140
0.0
141
0.0
142
1.0
143
1.0
 70
   688
 72
     0
 73
     0
 74
     5
  7
C:\Documents and Settings\Julio\Application Data\Autodesk\AutoCAD 2006\R16.2\enu\Plot Styles\sanindusa.ctb
 75
    16
147
1.0
148
0.0
149
0.0
100
AcDbLayout
  1
Layout1
 70
     1
 71
     1
 10
0.0
 20
0.0
 11
420.0
 21
297.0
 12
0.0
 22
0.0
 32
0.0
 14
1.000000000000000E+20
 24
1.000000000000000E+20
 34
1.000000000000000E+20
 15
-1.000000000000000E+20
 25
-1.000000000000000E+20
 35
-1.000000000000000E+20
146
0.0
 13
0.0
 23
0.0
 33
0.0
 16
1.0
 26
0.0
 36
0.0
 17
0.0
 27
1.0
 37
0.0
 76
     0
330
1F
  0
LAYOUT
  5
2A
102
{ACAD_XDICTIONARY
360
8CB
102
}
102
{ACAD_REACTORS
330
1A
102
}
330
1A
100
AcDbPlotSettings
  1

  2
HP DesignJet 500PS42+HPGL2 Card
  4

  6

 40
0.0
 41
0.0
 42
0.0
 43
0.0
 44
0.0
 45
0.0
 46
0.0
 47
0.0
 48
0.0
 49
0.0
140
0.0
141
0.0
142
1.0
143
1.0
 70
   688
 72
     0
 73
     0
 74
     5
  7
C:\Documents and Settings\Julio\Application Data\Autodesk\AutoCAD 2006\R16.2\enu\Plot Styles\sanindusa.ctb
 75
    16
147
1.0
148
0.0
149
0.0
100
AcDbLayout
  1
Layout2
 70
     1
 71
     2
 10
0.0
 20
0.0
 11
12.0
 21
9.0
 12
0.0
 22
0.0
 32
0.0
 14
0.0
 24
0.0
 34
0.0
 15
0.0
 25
0.0
 35
0.0
146
0.0
 13
0.0
 23
0.0
 33
0.0
 16
1.0
 26
0.0
 36
0.0
 17
0.0
 27
1.0
 37
0.0
 76
     0
330
27
  0
LAYOUT
  5
26
102
{ACAD_XDICTIONARY
360
8C9
102
}
102
{ACAD_REACTORS
330
1A
102
}
330
1A
100
AcDbPlotSettings
  1

  2
HP DesignJet 500PS42+HPGL2 Card
  4

  6

 40
0.0
 41
0.0
 42
0.0
 43
0.0
 44
0.0
 45
0.0
 46
0.0
 47
0.0
 48
0.0
 49
0.0
140
0.0
141
0.0
142
1.0
143
1.0
 70
  1712
 72
     0
 73
     0
 74
     0
  7
C:\Documents and Settings\Julio\Application Data\Autodesk\AutoCAD 2006\R16.2\enu\Plot Styles\sanindusa.ctb
 75
     0
147
1.0
148
0.0
149
0.0
100
AcDbLayout
  1
Model
 70
     1
 71
     0
 10
0.0
 20
0.0
 11
12.0
 21
9.0
 12
0.0
 22
0.0
 32
0.0
 14
0.0
 24
0.0
 34
0.0
 15
0.0
 25
0.0
 35
0.0
146
0.0
 13
0.0
 23
0.0
 33
0.0
 16
1.0
 26
0.0
 36
0.0
 17
0.0
 27
1.0
 37
0.0
 76
     0
330
23
331
66C
  0
MATERIAL
  5
680
102
{ACAD_XDICTIONARY
360
681
102
}
102
{ACAD_REACTORS
330
1B
102
}
330
1B
100
AcDbMaterial
  1
ByBlock
 72
     0
 43
0.0008202099737533
 43
0.0
 43
0.0
 43
0.0
 43
0.0
 43
0.0008202099737533
 43
0.0
 43
0.0
 43
0.0
 43
0.0
 43
1.0
 43
0.0
 43
0.0
 43
0.0
 43
0.0
 43
1.0
 77
     0
 47
0.0008202099737533
 47
0.0
 47
0.0
 47
0.0
 47
0.0
 47
0.0008202099737533
 47
0.0
 47
0.0
 47
0.0
 47
0.0
 47
1.0
 47
0.0
 47
0.0
 47
0.0
 47
0.0
 47
1.0
171
     0
 49
0.0008202099737533
 49
0.0
 49
0.0
 49
0.0
 49
0.0
 49
0.0008202099737533
 49
0.0
 49
0.0
 49
0.0
 49
0.0
 49
1.0
 49
0.0
 49
0.0
 49
0.0
 49
0.0
 49
1.0
175
     0
142
0.0008202099737533
142
0.0
142
0.0
142
0.0
142
0.0
142
0.0008202099737533
142
0.0
142
0.0
142
0.0
142
0.0
142
1.0
142
0.0
142
0.0
142
0.0
142
0.0
142
1.0
179
     0
144
0.0008202099737533
144
0.0
144
0.0
144
0.0
144
0.0
144
0.0008202099737533
144
0.0
144
0.0
144
0.0
144
0.0
144
1.0
144
0.0
144
0.0
144
0.0
144
0.0
144
1.0
147
0.0008202099737533
147
0.0
147
0.0
147
0.0
147
0.0
147
0.0008202099737533
147
0.0
147
0.0
147
0.0
147
0.0
147
1.0
147
0.0
147
0.0
147
0.0
147
0.0
147
1.0
  0
MATERIAL
  5
678
102
{ACAD_XDICTIONARY
360
679
102
}
102
{ACAD_REACTORS
330
1B
102
}
330
1B
100
AcDbMaterial
  1
ByLayer
 72
     0
 43
0.0008202099737533
 43
0.0
 43
0.0
 43
0.0
 43
0.0
 43
0.0008202099737533
 43
0.0
 43
0.0
 43
0.0
 43
0.0
 43
1.0
 43
0.0
 43
0.0
 43
0.0
 43
0.0
 43
1.0
 77
     0
 47
0.0008202099737533
 47
0.0
 47
0.0
 47
0.0
 47
0.0
 47
0.0008202099737533
 47
0.0
 47
0.0
 47
0.0
 47
0.0
 47
1.0
 47
0.0
 47
0.0
 47
0.0
 47
0.0
 47
1.0
171
     0
 49
0.0008202099737533
 49
0.0
 49
0.0
 49
0.0
 49
0.0
 49
0.0008202099737533
 49
0.0
 49
0.0
 49
0.0
 49
0.0
 49
1.0
 49
0.0
 49
0.0
 49
0.0
 49
0.0
 49
1.0
175
     0
142
0.0008202099737533
142
0.0
142
0.0
142
0.0
142
0.0
142
0.0008202099737533
142
0.0
142
0.0
142
0.0
142
0.0
142
1.0
142
0.0
142
0.0
142
0.0
142
0.0
142
1.0
179
     0
144
0.0008202099737533
144
0.0
144
0.0
144
0.0
144
0.0
144
0.0008202099737533
144
0.0
144
0.0
144
0.0
144
0.0
144
1.0
144
0.0
144
0.0
144
0.0
144
0.0
144
1.0
147
0.0008202099737533
147
0.0
147
0.0
147
0.0
147
0.0
147
0.0008202099737533
147
0.0
147
0.0
147
0.0
147
0.0
147
1.0
147
0.0
147
0.0
147
0.0
147
0.0
147
1.0
  0
MATERIAL
  5
688
102
{ACAD_XDICTIONARY
360
689
102
}
102
{ACAD_REACTORS
330
1B
102
}
330
1B
100
AcDbMaterial
  1
Global
 72
     0
 43
0.0008202099737533
 43
0.0
 43
0.0
 43
0.0
 43
0.0
 43
0.0008202099737533
 43
0.0
 43
0.0
 43
0.0
 43
0.0
 43
1.0
 43
0.0
 43
0.0
 43
0.0
 43
0.0
 43
1.0
 77
     0
 47
0.0008202099737533
 47
0.0
 47
0.0
 47
0.0
 47
0.0
 47
0.0008202099737533
 47
0.0
 47
0.0
 47
0.0
 47
0.0
 47
1.0
 47
0.0
 47
0.0
 47
0.0
 47
0.0
 47
1.0
171
     0
 49
0.0008202099737533
 49
0.0
 49
0.0
 49
0.0
 49
0.0
 49
0.0008202099737533
 49
0.0
 49
0.0
 49
0.0
 49
0.0
 49
1.0
 49
0.0
 49
0.0
 49
0.0
 49
0.0
 49
1.0
175
     0
142
0.0008202099737533
142
0.0
142
0.0
142
0.0
142
0.0
142
0.0008202099737533
142
0.0
142
0.0
142
0.0
142
0.0
142
1.0
142
0.0
142
0.0
142
0.0
142
0.0
142
1.0
179
     0
144
0.0008202099737533
144
0.0
144
0.0
144
0.0
144
0.0
144
0.0008202099737533
144
0.0
144
0.0
144
0.0
144
0.0
144
1.0
144
0.0
144
0.0
144
0.0
144
0.0
144
1.0
147
0.0008202099737533
147
0.0
147
0.0
147
0.0
147
0.0
147
0.0008202099737533
147
0.0
147
0.0
147
0.0
147
0.0
147
1.0
147
0.0
147
0.0
147
0.0
147
0.0
147
1.0
  0
MLEADERSTYLE
  5
6B7
102
{ACAD_REACTORS
330
6B6
102
}
330
6B6
100
AcDbMLeaderStyle
170
     2
171
     1
172
     0
 90
        2
 40
0.0
 41
0.0
173
     1
 91
-1056964608
340
14
 92
       -2
290
     1
 42
2.0
291
     1
 43
0.36
  3
Standard
 44
4.0
300

342
11
174
     1
178
     6
175
     1
176
     0
 93
-1056964608
 45
4.0
292
     0
297
     0
 46
4.0
 94
-1056964608
 47
1.0
 49
1.0
140
1.0
293
     1
141
0.0
294
     1
177
     0
142
1.0
295
     0
296
     0
143
0.125
1001
ACAD_MLEADERVER
1070
     2
  0
MLINESTYLE
  5
18
102
{ACAD_REACTORS
330
17
102
}
330
17
100
AcDbMlineStyle
  2
STANDARD
 70
     0
  3

 62
   256
 51
90.0
 52
90.0
 71
     2
 49
0.5
 62
   256
  6
BYLAYER
 49
-0.5
 62
   256
  6
BYLAYER
  0
ACDBPLACEHOLDER
  5
F
102
{ACAD_REACTORS
330
E
102
}
330
E
  0
SCALE
  5
6A5
102
{ACAD_REACTORS
330
6A4
102
}
330
6A4
100
AcDbScale
 70
     0
300
1:1
140
1.0
141
1.0
290
     1
  0
SCALE
  5
6A6
102
{ACAD_REACTORS
330
6A4
102
}
330
6A4
100
AcDbScale
 70
     0
300
1:2
140
1.0
141
2.0
290
     0
  0
SCALE
  5
6A7
102
{ACAD_REACTORS
330
6A4
102
}
330
6A4
100
AcDbScale
 70
     0
300
1:4
140
1.0
141
4.0
290
     0
  0
SCALE
  5
6A8
102
{ACAD_REACTORS
330
6A4
102
}
330
6A4
100
AcDbScale
 70
     0
300
1:5
140
1.0
141
5.0
290
     0
  0
SCALE
  5
6A9
102
{ACAD_REACTORS
330
6A4
102
}
330
6A4
100
AcDbScale
 70
     0
300
1:8
140
1.0
141
8.0
290
     0
  0
SCALE
  5
6AA
102
{ACAD_REACTORS
330
6A4
102
}
330
6A4
100
AcDbScale
 70
     0
300
1:10
140
1.0
141
10.0
290
     0
  0
SCALE
  5
6AB
102
{ACAD_REACTORS
330
6A4
102
}
330
6A4
100
AcDbScale
 70
     0
300
1:16
140
1.0
141
16.0
290
     0
  0
SCALE
  5
6AC
102
{ACAD_REACTORS
330
6A4
102
}
330
6A4
100
AcDbScale
 70
     0
300
1:20
140
1.0
141
20.0
290
     0
  0
SCALE
  5
6AD
102
{ACAD_REACTORS
330
6A4
102
}
330
6A4
100
AcDbScale
 70
     0
300
1:30
140
1.0
141
30.0
290
     0
  0
SCALE
  5
6AE
102
{ACAD_REACTORS
330
6A4
102
}
330
6A4
100
AcDbScale
 70
     0
300
1:40
140
1.0
141
40.0
290
     0
  0
SCALE
  5
6AF
102
{ACAD_REACTORS
330
6A4
102
}
330
6A4
100
AcDbScale
 70
     0
300
1:50
140
1.0
141
50.0
290
     0
  0
SCALE
  5
6B0
102
{ACAD_REACTORS
330
6A4
102
}
330
6A4
100
AcDbScale
 70
     0
300
1:100
140
1.0
141
100.0
290
     0
  0
SCALE
  5
6B1
102
{ACAD_REACTORS
330
6A4
102
}
330
6A4
100
AcDbScale
 70
     0
300
2:1
140
2.0
141
1.0
290
     0
  0
SCALE
  5
6B2
102
{ACAD_REACTORS
330
6A4
102
}
330
6A4
100
AcDbScale
 70
     0
300
4:1
140
4.0
141
1.0
290
     0
  0
SCALE
  5
6B3
102
{ACAD_REACTORS
330
6A4
102
}
330
6A4
100
AcDbScale
 70
     0
300
8:1
140
8.0
141
1.0
290
     0
  0
SCALE
  5
6B4
102
{ACAD_REACTORS
330
6A4
102
}
330
6A4
100
AcDbScale
 70
     0
300
10:1
140
10.0
141
1.0
290
     0
  0
SCALE
  5
6B5
102
{ACAD_REACTORS
330
6A4
102
}
330
6A4
100
AcDbScale
 70
     0
300
100:1
140
100.0
141
1.0
290
     0
  0
TABLESTYLE
  5
1E
102
{ACAD_XDICTIONARY
360
8C2
102
}
102
{ACAD_REACTORS
330
1D
102
}
330
1D
100
AcDbTableStyle
  3
Standard
 70
     0
 71
     0
 40
1.5
 41
1.5
280
     0
281
     0
  7
Standard
140
4.5
170
     2
 62
     0
 63
     7
283
     0
274
    -2
284
     1
 64
     0
275
    -2
285
     1
 65
     0
276
    -2
286
     1
 66
     0
277
    -2
287
     1
 67
     0
278
    -2
288
     1
 68
     0
279
    -2
289
     1
 69
     0
  7
Standard
140
6.0
170
     5
 62
     0
 63
     7
283
     0
274
    -2
284
     1
 64
     0
275
    -2
285
     1
 65
     0
276
    -2
286
     1
 66
     0
277
    -2
287
     1
 67
     0
278
    -2
288
     1
 68
     0
279
    -2
289
     1
 69
     0
  7
Standard
140
4.5
170
     5
 62
     0
 63
     7
283
     0
274
    -2
284
     1
 64
     0
275
    -2
285
     1
 65
     0
276
    -2
286
     1
 66
     0
277
    -2
287
     1
 67
     0
278
    -2
288
     1
 68
     0
279
    -2
289
     1
 69
     0
  0
VISUALSTYLE
  5
696
102
{ACAD_XDICTIONARY
360
8DA
102
}
102
{ACAD_REACTORS
330
690
102
}
330
690
100
AcDbVisualStyle
  2
2dWireframe
 70
     4
 71
     0
 72
     2
 73
     0
 90
        0
 40
-0.6
 41
-30.0
 62
     5
 63
     7
 74
     1
 91
        4
 64
     7
 65
   257
 75
     1
175
     1
 42
1.0
 92
        0
 66
   257
 43
1.0
 76
     1
 77
     6
 78
     2
 67
     7
 79
     5
170
     0
171
     0
290
     0
174
     0
 93
        1
 44
0.0
173
     0
291
     0
 45
0.0
1001
ACAD
1000
AcDbSavedByObjectVersion
1070
     0
  0
VISUALSTYLE
  5
698
102
{ACAD_XDICTIONARY
360
8DE
102
}
102
{ACAD_REACTORS
330
690
102
}
330
690
100
AcDbVisualStyle
  2
3D Hidden
 70
     6
 71
     1
 72
     2
 73
     2
 90
        0
 40
-0.6
 41
-30.0
 62
     5
 63
     7
 74
     2
 91
        2
 64
     7
 65
   257
 75
     2
175
     1
 42
179.0
 92
        0
 66
   257
 43
1.0
 76
     1
 77
     6
 78
     2
 67
     7
 79
     3
170
     0
171
     0
290
     0
174
     0
 93
        1
 44
0.0
173
     0
291
     0
 45
0.0
1001
ACAD
1000
AcDbSavedByObjectVersion
1070
     0
  0
VISUALSTYLE
  5
697
102
{ACAD_XDICTIONARY
360
8DC
102
}
102
{ACAD_REACTORS
330
690
102
}
330
690
100
AcDbVisualStyle
  2
3dWireframe
 70
     5
 71
     0
 72
     2
 73
     0
 90
        0
 40
-0.6
 41
-30.0
 62
     5
 63
     7
 74
     1
 91
        4
 64
     7
 65
   257
 75
     1
175
     1
 42
1.0
 92
        0
 66
   257
 43
1.0
 76
     1
 77
     6
 78
     2
 67
     7
 79
     5
170
     0
171
     0
290
     0
174
     0
 93
        1
 44
0.0
173
     0
291
     0
 45
0.0
1001
ACAD
1000
AcDbSavedByObjectVersion
1070
     0
  0
VISUALSTYLE
  5
695
102
{ACAD_XDICTIONARY
360
8D8
102
}
102
{ACAD_REACTORS
330
690
102
}
330
690
100
AcDbVisualStyle
  2
Basic
 70
     7
 71
     1
 72
     0
 73
     1
 90
        0
 40
-0.6
 41
-30.0
 62
     5
 63
     7
 74
     0
 91
        4
 64
     7
 65
   257
 75
     1
175
     1
 42
1.0
 92
        8
 66
     7
 43
1.0
 76
     1
 77
     6
 78
     2
 67
     7
 79
     5
170
     0
171
     0
290
     0
174
     0
 93
        1
 44
0.0
173
     0
291
     1
 45
0.0
1001
ACAD
1000
AcDbSavedByObjectVersion
1070
     0
  0
VISUALSTYLE
  5
69C
102
{ACAD_XDICTIONARY
360
8E6
102
}
102
{ACAD_REACTORS
330
690
102
}
330
690
100
AcDbVisualStyle
  2
Brighten
 70
    12
 71
     2
 72
     2
 73
     0
 90
        0
 40
-0.6
 41
-30.0
 62
     5
 63
     7
 74
     1
 91
        4
 64
     7
 65
   257
 75
     1
175
     1
 42
1.0
 92
        8
 66
     7
 43
1.0
 76
     1
 77
     6
 78
     2
 67
     7
 79
     5
170
     0
171
     0
290
     0
174
     0
 93
        1
 44
50.0
173
     0
291
     1
 45
0.0
1001
ACAD
1000
AcDbSavedByObjectVersion
1070
     0
  0
VISUALSTYLE
  5
6A0
102
{ACAD_XDICTIONARY
360
8EE
102
}
102
{ACAD_REACTORS
330
690
102
}
330
690
100
AcDbVisualStyle
  2
ColorChange
 70
    16
 71
     2
 72
     2
 73
     3
 90
        0
 40
-0.6
 41
-30.0
 62
     5
 63
     8
 74
     1
 91
        4
 64
     7
 65
   257
 75
     1
175
     1
 42
1.0
 92
        8
 66
     8
 43
1.0
 76
     1
 77
     6
 78
     2
 67
     7
 79
     5
170
     0
171
     0
290
     0
174
     0
 93
        1
 44
0.0
173
     0
291
     1
 45
0.0
1001
ACAD
1000
AcDbSavedByObjectVersion
1070
     0
  0
VISUALSTYLE
  5
699
102
{ACAD_XDICTIONARY
360
8E0
102
}
102
{ACAD_REACTORS
330
690
102
}
330
690
100
AcDbVisualStyle
  2
Conceptual
 70
     9
 71
     3
 72
     2
 73
     0
 90
        0
 40
-0.6
 41
-30.0
 62
     5
 63
     7
 74
     2
 91
        2
 64
     7
 65
   257
 75
     1
175
     1
 42
179.0
 92
        8
 66
     7
 43
1.0
 76
     1
 77
     6
 78
     2
 67
     7
 79
     3
170
     0
171
     0
290
     0
174
     0
 93
        1
 44
0.0
173
     0
291
     0
 45
0.0
1001
ACAD
1000
AcDbSavedByObjectVersion
1070
     0
  0
VISUALSTYLE
  5
69B
102
{ACAD_XDICTIONARY
360
8E4
102
}
102
{ACAD_REACTORS
330
690
102
}
330
690
100
AcDbVisualStyle
  2
Dim
 70
    11
 71
     2
 72
     2
 73
     0
 90
        0
 40
-0.6
 41
-30.0
 62
     5
 63
     7
 74
     1
 91
        4
 64
     7
 65
   257
 75
     1
175
     1
 42
1.0
 92
        8
 66
     7
 43
1.0
 76
     1
 77
     6
 78
     2
 67
     7
 79
     5
170
     0
171
     0
290
     0
174
     0
 93
        1
 44
-50.0
173
     0
291
     1
 45
0.0
1001
ACAD
1000
AcDbSavedByObjectVersion
1070
     0
  0
VISUALSTYLE
  5
6A3
102
{ACAD_XDICTIONARY
360
8F4
102
}
102
{ACAD_REACTORS
330
690
102
}
330
690
100
AcDbVisualStyle
  2
EdgeColorOff
 70
    22
 71
     2
 72
     2
 73
     0
 90
        0
 40
-0.6
 41
-30.0
 62
     5
 63
     7
 74
     1
 91
        4
 64
     7
 65
   257
 75
     1
175
     1
 42
1.0
 92
        8
 66
     7
 43
1.0
 76
     1
 77
     6
 78
     2
 67
     7
 79
     5
170
     0
171
     0
290
     0
174
     0
 93
        1
 44
0.0
173
     0
291
     1
 45
0.0
1001
ACAD
1000
AcDbSavedByObjectVersion
1070
     0
  0
VISUALSTYLE
  5
69F
102
{ACAD_XDICTIONARY
360
8EC
102
}
102
{ACAD_REACTORS
330
690
102
}
330
690
100
AcDbVisualStyle
  2
Facepattern
 70
    15
 71
     2
 72
     2
 73
     0
 90
        0
 40
-0.6
 41
-30.0
 62
     5
 63
     7
 74
     1
 91
        4
 64
     7
 65
   257
 75
     1
175
     1
 42
1.0
 92
        8
 66
     7
 43
1.0
 76
     1
 77
     6
 78
     2
 67
     7
 79
     5
170
     0
171
     0
290
     0
174
     0
 93
        1
 44
0.0
173
     0
291
     1
 45
0.0
1001
ACAD
1000
AcDbSavedByObjectVersion
1070
     0
  0
VISUALSTYLE
  5
691
102
{ACAD_XDICTIONARY
360
8D0
102
}
102
{ACAD_REACTORS
330
690
102
}
330
690
100
AcDbVisualStyle
  2
Flat
 70
     0
 71
     2
 72
     1
 73
     1
 90
        2
 40
-0.6
 41
30.0
 62
     5
 63
     7
 74
     0
 91
        4
 64
     7
 65
   257
 75
     1
175
     1
 42
1.0
 92
        8
 66
     7
 43
1.0
 76
     1
 77
     6
 78
     2
 67
     7
 79
     5
170
     0
171
     0
290
     0
174
     0
 93
       13
 44
0.0
173
     0
291
     1
 45
0.0
1001
ACAD
1000
AcDbSavedByObjectVersion
1070
     0
  0
VISUALSTYLE
  5
692
102
{ACAD_XDICTIONARY
360
8D2
102
}
102
{ACAD_REACTORS
330
690
102
}
330
690
100
AcDbVisualStyle
  2
FlatWithEdges
 70
     1
 71
     2
 72
     1
 73
     1
 90
        2
 40
-0.6
 41
30.0
 62
     5
 63
     7
 74
     1
 91
        4
 64
     7
 65
   257
 75
     1
175
     1
 42
1.0
 92
        0
 66
   257
 43
1.0
 76
     1
 77
     6
 78
     2
 67
     7
 79
     5
170
     0
171
     0
290
     0
174
     0
 93
       13
 44
0.0
173
     0
291
     1
 45
0.0
1001
ACAD
1000
AcDbSavedByObjectVersion
1070
     0
  0
VISUALSTYLE
  5
693
102
{ACAD_XDICTIONARY
360
8D4
102
}
102
{ACAD_REACTORS
330
690
102
}
330
690
100
AcDbVisualStyle
  2
Gouraud
 70
     2
 71
     2
 72
     2
 73
     1
 90
        2
 40
-0.6
 41
30.0
 62
     5
 63
     7
 74
     0
 91
        4
 64
     7
 65
   257
 75
     1
175
     1
 42
1.0
 92
        0
 66
     7
 43
1.0
 76
     1
 77
     6
 78
     2
 67
     7
 79
     5
170
     0
171
     0
290
     0
174
     0
 93
       13
 44
0.0
173
     0
291
     1
 45
0.0
1001
ACAD
1000
AcDbSavedByObjectVersion
1070
     0
  0
VISUALSTYLE
  5
694
102
{ACAD_XDICTIONARY
360
8D6
102
}
102
{ACAD_REACTORS
330
690
102
}
330
690
100
AcDbVisualStyle
  2
GouraudWithEdges
 70
     3
 71
     2
 72
     2
 73
     1
 90
        2
 40
-0.6
 41
30.0
 62
     5
 63
     7
 74
     1
 91
        4
 64
     7
 65
   257
 75
     1
175
     1
 42
1.0
 92
        0
 66
   257
 43
1.0
 76
     1
 77
     6
 78
     2
 67
     7
 79
     5
170
     0
171
     0
290
     0
174
     0
 93
       13
 44
0.0
173
     0
291
     1
 45
0.0
1001
ACAD
1000
AcDbSavedByObjectVersion
1070
     0
  0
VISUALSTYLE
  5
6A1
102
{ACAD_XDICTIONARY
360
8F0
102
}
102
{ACAD_REACTORS
330
690
102
}
330
690
100
AcDbVisualStyle
  2
JitterOff
 70
    20
 71
     2
 72
     2
 73
     0
 90
        0
 40
-0.6
 41
-30.0
 62
     5
 63
     7
 74
     1
 91
        4
 64
     7
 65
   257
 75
     1
175
     1
 42
1.0
 92
       10
 66
     7
 43
1.0
 76
     1
 77
     6
 78
     2
 67
     7
 79
     5
170
     0
171
     0
290
     0
174
     0
 93
        1
 44
0.0
173
     0
291
     1
 45
0.0
1001
ACAD
1000
AcDbSavedByObjectVersion
1070
     0
  0
VISUALSTYLE
  5
69E
102
{ACAD_XDICTIONARY
360
8EA
102
}
102
{ACAD_REACTORS
330
690
102
}
330
690
100
AcDbVisualStyle
  2
Linepattern
 70
    14
 71
     2
 72
     2
 73
     0
 90
        0
 40
-0.6
 41
-30.0
 62
     5
 63
     7
 74
     1
 91
        4
 64
     7
 65
   257
 75
     7
175
     7
 42
1.0
 92
        8
 66
     7
 43
1.0
 76
     1
 77
     6
 78
     2
 67
     7
 79
     5
170
     0
171
     0
290
     0
174
     0
 93
        1
 44
0.0
173
     0
291
     1
 45
0.0
1001
ACAD
1000
AcDbSavedByObjectVersion
1070
     0
  0
VISUALSTYLE
  5
6A2
102
{ACAD_XDICTIONARY
360
8F2
102
}
102
{ACAD_REACTORS
330
690
102
}
330
690
100
AcDbVisualStyle
  2
OverhangOff
 70
    21
 71
     2
 72
     2
 73
     0
 90
        0
 40
-0.6
 41
-30.0
 62
     5
 63
     7
 74
     1
 91
        4
 64
     7
 65
   257
 75
     1
175
     1
 42
1.0
 92
        9
 66
     7
 43
1.0
 76
     1
 77
     6
 78
     2
 67
     7
 79
     5
170
     0
171
     0
290
     0
174
     0
 93
        1
 44
0.0
173
     0
291
     1
 45
0.0
1001
ACAD
1000
AcDbSavedByObjectVersion
1070
     0
  0
VISUALSTYLE
  5
69A
102
{ACAD_XDICTIONARY
360
8E2
102
}
102
{ACAD_REACTORS
330
690
102
}
330
690
100
AcDbVisualStyle
  2
Realistic
 70
     8
 71
     2
 72
     2
 73
     0
 90
        0
 40
-0.6
 41
-30.0
 62
     5
 63
     7
 74
     1
 91
        0
 64
     7
 65
   257
 75
     1
175
     1
 42
1.0
 92
        8
 66
     8
 43
1.0
 76
     1
 77
     6
 78
     2
 67
     7
 79
     5
170
     0
171
     0
290
     0
174
     0
 93
       13
 44
0.0
173
     0
291
     0
 45
0.0
1001
ACAD
1000
AcDbSavedByObjectVersion
1070
     0
  0
VISUALSTYLE
  5
69D
102
{ACAD_XDICTIONARY
360
8E8
102
}
102
{ACAD_REACTORS
330
690
102
}
330
690
100
AcDbVisualStyle
  2
Thicken
 70
    13
 71
     2
 72
     2
 73
     0
 90
        0
 40
-0.6
 41
-30.0
 62
     5
 63
     7
 74
     1
 91
        4
 64
     7
 65
   257
 75
     1
175
     1
 42
1.0
 92
       12
 66
     7
 43
1.0
 76
     1
 77
     6
 78
     2
 67
     7
 79
     5
170
     0
171
     0
290
     0
174
     0
 93
        1
 44
0.0
173
     0
291
     1
 45
0.0
1001
ACAD
1000
AcDbSavedByObjectVersion
1070
     0
  0
DICTIONARYVAR
  5
8BE
102
{ACAD_REACTORS
330
669
102
}
330
669
100
DictionaryVariables
280
     0
  1
1:1
  0
DICTIONARYVAR
  5
8BD
102
{ACAD_REACTORS
330
669
102
}
330
669
100
DictionaryVariables
280
     0
  1
STANDARD
  0
DICTIONARYVAR
  5
66A
102
{ACAD_REACTORS
330
669
102
}
330
669
100
DictionaryVariables
280
     0
  1
STANDARD
  0
DICTIONARYVAR
  5
675
102
{ACAD_REACTORS
330
669
102
}
330
669
100
DictionaryVariables
280
     0
  1
2
  0
DICTIONARYVAR
  5
674
102
{ACAD_REACTORS
330
669
102
}
330
669
100
DictionaryVariables
280
     0
  1
1
  0
DICTIONARYVAR
  5
8C0
102
{ACAD_REACTORS
330
669
102
}
330
669
100
DictionaryVariables
280
     0
  1
0
  0
DICTIONARYVAR
  5
676
102
{ACAD_REACTORS
330
669
102
}
330
669
100
DictionaryVariables
280
     0
  1

  0
DICTIONARYVAR
  5
8BF
102
{ACAD_REACTORS
330
669
102
}
330
669
100
DictionaryVariables
280
     0
  1
127
  0
DICTIONARYVAR
  5
8C1
102
{ACAD_REACTORS
330
669
102
}
330
669
100
DictionaryVariables
280
     0
  1
2
  0
XRECORD
  5
667
102
{ACAD_REACTORS
330
666
102
}
330
666
100
AcDbXrecord
280
     1
  0
DICTIONARY
  5
8C7
330
22
100
AcDbDictionary
280
     1
281
     1
  3
ACAD_XREC_ROUNDTRIP
360
8C8
  0
DICTIONARY
  5
8CB
330
2A
100
AcDbDictionary
280
     1
281
     1
  3
ACAD_XREC_ROUNDTRIP
360
8CC
  0
DICTIONARY
  5
8C9
330
26
100
AcDbDictionary
280
     1
281
     1
  3
ACAD_XREC_ROUNDTRIP
360
8CA
  0
DICTIONARY
  5
681
330
680
100
AcDbDictionary
280
     1
281
     1
  3
ACAD_XREC_ROUNDTRIP
360
8CE
  3
BUMPTILE
360
683
  3
DIFFUSETILE
360
682
  3
OPACITYTILE
360
686
  3
REFLECTIONTILE
360
685
  3
REFRACTIONTILE
360
687
  3
SPECULARTILE
360
684
  0
DICTIONARY
  5
679
330
678
100
AcDbDictionary
280
     1
281
     1
  3
ACAD_XREC_ROUNDTRIP
360
8CD
  3
BUMPTILE
360
67B
  3
DIFFUSETILE
360
67A
  3
OPACITYTILE
360
67E
  3
REFLECTIONTILE
360
67D
  3
REFRACTIONTILE
360
67F
  3
SPECULARTILE
360
67C
  0
DICTIONARY
  5
689
330
688
100
AcDbDictionary
280
     1
281
     1
  3
ACAD_XREC_ROUNDTRIP
360
8CF
  3
BUMPTILE
360
68B
  3
DIFFUSETILE
360
68A
  3
OPACITYTILE
360
68E
  3
REFLECTIONTILE
360
68D
  3
REFRACTIONTILE
360
68F
  3
SPECULARTILE
360
68C
  0
DICTIONARY
  5
8C2
330
1E
100
AcDbDictionary
280
     1
281
     1
  3
ACAD_ROUNDTRIP_2008_TABLESTYLE_CELLSTYLEMAP
360
8C3
  3
ACAD_XREC_ROUNDTRIP
360
8C6
  0
DICTIONARY
  5
8DA
330
696
100
AcDbDictionary
280
     1
281
     1
  3
ACAD_XREC_ROUNDTRIP
360
8DB
  0
DICTIONARY
  5
8DE
330
698
100
AcDbDictionary
280
     1
281
     1
  3
ACAD_XREC_ROUNDTRIP
360
8DF
  0
DICTIONARY
  5
8DC
330
697
100
AcDbDictionary
280
     1
281
     1
  3
ACAD_XREC_ROUNDTRIP
360
8DD
  0
DICTIONARY
  5
8D8
330
695
100
AcDbDictionary
280
     1
281
     1
  3
ACAD_XREC_ROUNDTRIP
360
8D9
  0
DICTIONARY
  5
8E6
330
69C
100
AcDbDictionary
280
     1
281
     1
  3
ACAD_XREC_ROUNDTRIP
360
8E7
  0
DICTIONARY
  5
8EE
330
6A0
100
AcDbDictionary
280
     1
281
     1
  3
ACAD_XREC_ROUNDTRIP
360
8EF
  0
DICTIONARY
  5
8E0
330
699
100
AcDbDictionary
280
     1
281
     1
  3
ACAD_XREC_ROUNDTRIP
360
8E1
  0
DICTIONARY
  5
8E4
330
69B
100
AcDbDictionary
280
     1
281
     1
  3
ACAD_XREC_ROUNDTRIP
360
8E5
  0
DICTIONARY
  5
8F4
330
6A3
100
AcDbDictionary
280
     1
281
     1
  3
ACAD_XREC_ROUNDTRIP
360
8F5
  0
DICTIONARY
  5
8EC
330
69F
100
AcDbDictionary
280
     1
281
     1
  3
ACAD_XREC_ROUNDTRIP
360
8ED
  0
DICTIONARY
  5
8D0
330
691
100
AcDbDictionary
280
     1
281
     1
  3
ACAD_XREC_ROUNDTRIP
360
8D1
  0
DICTIONARY
  5
8D2
330
692
100
AcDbDictionary
280
     1
281
     1
  3
ACAD_XREC_ROUNDTRIP
360
8D3
  0
DICTIONARY
  5
8D4
330
693
100
AcDbDictionary
280
     1
281
     1
  3
ACAD_XREC_ROUNDTRIP
360
8D5
  0
DICTIONARY
  5
8D6
330
694
100
AcDbDictionary
280
     1
281
     1
  3
ACAD_XREC_ROUNDTRIP
360
8D7
  0
DICTIONARY
  5
8F0
330
6A1
100
AcDbDictionary
280
     1
281
     1
  3
ACAD_XREC_ROUNDTRIP
360
8F1
  0
DICTIONARY
  5
8EA
330
69E
100
AcDbDictionary
280
     1
281
     1
  3
ACAD_XREC_ROUNDTRIP
360
8EB
  0
DICTIONARY
  5
8F2
330
6A2
100
AcDbDictionary
280
     1
281
     1
  3
ACAD_XREC_ROUNDTRIP
360
8F3
  0
DICTIONARY
  5
8E2
330
69A
100
AcDbDictionary
280
     1
281
     1
  3
ACAD_XREC_ROUNDTRIP
360
8E3
  0
DICTIONARY
  5
8E8
330
69D
100
AcDbDictionary
280
     1
281
     1
  3
ACAD_XREC_ROUNDTRIP
360
8E9
  0
XRECORD
  5
8C8
102
{ACAD_REACTORS
330
8C7
102
}
330
8C7
100
AcDbXrecord
280
     1
102
SHADEPLOT
 70
     0
102
SHADEPLOTRESLEVEL
 70
     2
102
SHADEPLOTCUSTOMDPI
 70
   300
  0
XRECORD
  5
8CC
102
{ACAD_REACTORS
330
8CB
102
}
330
8CB
100
AcDbXrecord
280
     1
102
SHADEPLOT
 70
     0
102
SHADEPLOTRESLEVEL
 70
     2
102
SHADEPLOTCUSTOMDPI
 70
   300
  0
XRECORD
  5
8CA
102
{ACAD_REACTORS
330
8C9
102
}
330
8C9
100
AcDbXrecord
280
     1
102
SHADEPLOT
 70
     0
102
SHADEPLOTRESLEVEL
 70
     2
102
SHADEPLOTCUSTOMDPI
 70
   300
  0
XRECORD
  5
8CE
102
{ACAD_REACTORS
330
681
102
}
330
681
100
AcDbXrecord
280
     1
102
MATERIAL
148
0.0
149
0.0
149
0.0
 93
        0
 94
      127
282
     0
 72
     0
 77
     0
171
     0
175
     0
179
     0
273
     0
  0
XRECORD
  5
683
102
{ACAD_REACTORS
330
681
102
}
330
681
100
AcDbXrecord
280
     1
270
     1
271
     1
  0
XRECORD
  5
682
102
{ACAD_REACTORS
330
681
102
}
330
681
100
AcDbXrecord
280
     1
270
     1
271
     1
  0
XRECORD
  5
686
102
{ACAD_REACTORS
330
681
102
}
330
681
100
AcDbXrecord
280
     1
270
     1
271
     1
  0
XRECORD
  5
685
102
{ACAD_REACTORS
330
681
102
}
330
681
100
AcDbXrecord
280
     1
270
     1
271
     1
  0
XRECORD
  5
687
102
{ACAD_REACTORS
330
681
102
}
330
681
100
AcDbXrecord
280
     1
270
     1
271
     1
  0
XRECORD
  5
684
102
{ACAD_REACTORS
330
681
102
}
330
681
100
AcDbXrecord
280
     1
270
     1
271
     1
  0
XRECORD
  5
8CD
102
{ACAD_REACTORS
330
679
102
}
330
679
100
AcDbXrecord
280
     1
102
MATERIAL
148
0.0
149
0.0
149
0.0
 93
        0
 94
      127
282
     0
 72
     0
 77
     0
171
     0
175
     0
179
     0
273
     0
  0
XRECORD
  5
67B
102
{ACAD_REACTORS
330
679
102
}
330
679
100
AcDbXrecord
280
     1
270
     1
271
     1
  0
XRECORD
  5
67A
102
{ACAD_REACTORS
330
679
102
}
330
679
100
AcDbXrecord
280
     1
270
     1
271
     1
  0
XRECORD
  5
67E
102
{ACAD_REACTORS
330
679
102
}
330
679
100
AcDbXrecord
280
     1
270
     1
271
     1
  0
XRECORD
  5
67D
102
{ACAD_REACTORS
330
679
102
}
330
679
100
AcDbXrecord
280
     1
270
     1
271
     1
  0
XRECORD
  5
67F
102
{ACAD_REACTORS
330
679
102
}
330
679
100
AcDbXrecord
280
     1
270
     1
271
     1
  0
XRECORD
  5
67C
102
{ACAD_REACTORS
330
679
102
}
330
679
100
AcDbXrecord
280
     1
270
     1
271
     1
  0
XRECORD
  5
8CF
102
{ACAD_REACTORS
330
689
102
}
330
689
100
AcDbXrecord
280
     1
102
MATERIAL
148
0.0
149
0.0
149
0.0
 93
        0
 94
      127
282
     0
 72
     0
 77
     0
171
     0
175
     0
179
     0
273
     0
  0
XRECORD
  5
68B
102
{ACAD_REACTORS
330
689
102
}
330
689
100
AcDbXrecord
280
     1
270
     1
271
     1
  0
XRECORD
  5
68A
102
{ACAD_REACTORS
330
689
102
}
330
689
100
AcDbXrecord
280
     1
270
     1
271
     1
  0
XRECORD
  5
68E
102
{ACAD_REACTORS
330
689
102
}
330
689
100
AcDbXrecord
280
     1
270
     1
271
     1
  0
XRECORD
  5
68D
102
{ACAD_REACTORS
330
689
102
}
330
689
100
AcDbXrecord
280
     1
270
     1
271
     1
  0
XRECORD
  5
68F
102
{ACAD_REACTORS
330
689
102
}
330
689
100
AcDbXrecord
280
     1
270
     1
271
     1
  0
XRECORD
  5
68C
102
{ACAD_REACTORS
330
689
102
}
330
689
100
AcDbXrecord
280
     1
270
     1
271
     1
  0
CELLSTYLEMAP
  5
8C3
102
{ACAD_REACTORS
330
8C2
102
}
330
8C2
100
AcDbCellStyleMap
 90
        3
300
CELLSTYLE
  1
TABLEFORMAT_BEGIN
 90
        5
170
     1
 91
        0
 92
    32768
 62
   257
 93
        1
300
CONTENTFORMAT
  1
CONTENTFORMAT_BEGIN
 90
        0
 91
        0
 92
        4
 93
        0
300

 40
0.0
140
1.0
 94
        5
 62
     0
340
11
144
6.0
309
CONTENTFORMAT_END
171
     1
301
MARGIN
  1
CELLMARGIN_BEGIN
 40
1.5
 40
1.5
 40
1.5
 40
1.5
 40
0.18
 40
0.18
309
CELLMARGIN_END
 94
        6
 95
        1
302
GRIDFORMAT
  1
GRIDFORMAT_BEGIN
 90
        0
 91
        1
 62
     0
 92
       -2
340
0
 93
        0
 40
0.045
309
GRIDFORMAT_END
 95
        2
302
GRIDFORMAT
  1
GRIDFORMAT_BEGIN
 90
        0
 91
        1
 62
     0
 92
       -2
340
0
 93
        0
 40
0.045
309
GRIDFORMAT_END
 95
        4
302
GRIDFORMAT
  1
GRIDFORMAT_BEGIN
 90
        0
 91
        1
 62
     0
 92
       -2
340
0
 93
        0
 40
0.045
309
GRIDFORMAT_END
 95
        8
302
GRIDFORMAT
  1
GRIDFORMAT_BEGIN
 90
        0
 91
        1
 62
     0
 92
       -2
340
0
 93
        0
 40
0.045
309
GRIDFORMAT_END
 95
       16
302
GRIDFORMAT
  1
GRIDFORMAT_BEGIN
 90
        0
 91
        1
 62
     0
 92
       -2
340
0
 93
        0
 40
0.045
309
GRIDFORMAT_END
 95
       32
302
GRIDFORMAT
  1
GRIDFORMAT_BEGIN
 90
        0
 91
        1
 62
     0
 92
       -2
340
0
 93
        0
 40
0.045
309
GRIDFORMAT_END
309
TABLEFORMAT_END
  1
CELLSTYLE_BEGIN
 90
        1
 91
        1
300
_TITLE
309
CELLSTYLE_END
300
CELLSTYLE
  1
TABLEFORMAT_BEGIN
 90
        5
170
     1
 91
        0
 92
        0
 62
   257
 93
        1
300
CONTENTFORMAT
  1
CONTENTFORMAT_BEGIN
 90
        0
 91
        0
 92
        4
 93
        0
300

 40
0.0
140
1.0
 94
        5
 62
     0
340
11
144
4.5
309
CONTENTFORMAT_END
171
     1
301
MARGIN
  1
CELLMARGIN_BEGIN
 40
1.5
 40
1.5
 40
1.5
 40
1.5
 40
0.18
 40
0.18
309
CELLMARGIN_END
 94
        6
 95
        1
302
GRIDFORMAT
  1
GRIDFORMAT_BEGIN
 90
        0
 91
        1
 62
     0
 92
       -2
340
0
 93
        0
 40
0.045
309
GRIDFORMAT_END
 95
        2
302
GRIDFORMAT
  1
GRIDFORMAT_BEGIN
 90
        0
 91
        1
 62
     0
 92
       -2
340
0
 93
        0
 40
0.045
309
GRIDFORMAT_END
 95
        4
302
GRIDFORMAT
  1
GRIDFORMAT_BEGIN
 90
        0
 91
        1
 62
     0
 92
       -2
340
0
 93
        0
 40
0.045
309
GRIDFORMAT_END
 95
        8
302
GRIDFORMAT
  1
GRIDFORMAT_BEGIN
 90
        0
 91
        1
 62
     0
 92
       -2
340
0
 93
        0
 40
0.045
309
GRIDFORMAT_END
 95
       16
302
GRIDFORMAT
  1
GRIDFORMAT_BEGIN
 90
        0
 91
        1
 62
     0
 92
       -2
340
0
 93
        0
 40
0.045
309
GRIDFORMAT_END
 95
       32
302
GRIDFORMAT
  1
GRIDFORMAT_BEGIN
 90
        0
 91
        1
 62
     0
 92
       -2
340
0
 93
        0
 40
0.045
309
GRIDFORMAT_END
309
TABLEFORMAT_END
  1
CELLSTYLE_BEGIN
 90
        2
 91
        1
300
_HEADER
309
CELLSTYLE_END
300
CELLSTYLE
  1
TABLEFORMAT_BEGIN
 90
        5
170
     1
 91
        0
 92
        0
 62
   257
 93
        1
300
CONTENTFORMAT
  1
CONTENTFORMAT_BEGIN
 90
        0
 91
        0
 92
        4
 93
        0
300

 40
0.0
140
1.0
 94
        2
 62
     0
340
11
144
4.5
309
CONTENTFORMAT_END
171
     1
301
MARGIN
  1
CELLMARGIN_BEGIN
 40
1.5
 40
1.5
 40
1.5
 40
1.5
 40
0.18
 40
0.18
309
CELLMARGIN_END
 94
        6
 95
        1
302
GRIDFORMAT
  1
GRIDFORMAT_BEGIN
 90
        0
 91
        1
 62
     0
 92
       -2
340
0
 93
        0
 40
0.045
309
GRIDFORMAT_END
 95
        2
302
GRIDFORMAT
  1
GRIDFORMAT_BEGIN
 90
        0
 91
        1
 62
     0
 92
       -2
340
0
 93
        0
 40
0.045
309
GRIDFORMAT_END
 95
        4
302
GRIDFORMAT
  1
GRIDFORMAT_BEGIN
 90
        0
 91
        1
 62
     0
 92
       -2
340
0
 93
        0
 40
0.045
309
GRIDFORMAT_END
 95
        8
302
GRIDFORMAT
  1
GRIDFORMAT_BEGIN
 90
        0
 91
        1
 62
     0
 92
       -2
340
0
 93
        0
 40
0.045
309
GRIDFORMAT_END
 95
       16
302
GRIDFORMAT
  1
GRIDFORMAT_BEGIN
 90
        0
 91
        1
 62
     0
 92
       -2
340
0
 93
        0
 40
0.045
309
GRIDFORMAT_END
 95
       32
302
GRIDFORMAT
  1
GRIDFORMAT_BEGIN
 90
        0
 91
        1
 62
     0
 92
       -2
340
0
 93
        0
 40
0.045
309
GRIDFORMAT_END
309
TABLEFORMAT_END
  1
CELLSTYLE_BEGIN
 90
        3
 91
        2
300
_DATA
309
CELLSTYLE_END
  0
XRECORD
  5
8C6
102
{ACAD_REACTORS
330
8C2
102
}
330
8C2
100
AcDbXrecord
280
     1
102
ACAD_ROUNDTRIP_PRE2007_TABLESTYLE
 90
        4
 91
        0
  1

 92
        4
 93
        0
  2

 94
        4
 95
        0
  3

  0
XRECORD
  5
8DB
102
{ACAD_REACTORS
330
8DA
102
}
330
8DA
100
AcDbXrecord
280
     1
102
RTVSPropertyOp0
 70
     1
102
RTVSPropertyOp1
 70
     1
102
RTVSPropertyOp2
 70
     1
102
RTVSPropertyOp3
 70
     1
102
RTVSPropertyOp4
 70
     1
102
RTVSPropertyOp5
 70
     1
102
RTVSPropertyOp6
 70
     1
102
RTVSPropertyOp7
 70
     1
102
RTVSPropertyOp8
 70
     1
102
RTVSPropertyOp9
 70
     1
102
RTVSPropertyOp10
 70
     1
102
RTVSPropertyOp11
 70
     1
102
RTVSPropertyOp12
 70
     1
102
RTVSPropertyOp13
 70
     1
102
RTVSPropertyOp14
 70
     1
102
RTVSPropertyOp15
 70
     1
102
RTVSPropertyOp16
 70
     1
102
RTVSPropertyOp17
 70
     1
102
RTVSPropertyOp18
 70
     1
102
RTVSPropertyOp19
 70
     1
102
RTVSPropertyOp20
 70
     1
102
RTVSPropertyOp21
 70
     1
102
RTVSPropertyOp22
 70
     1
102
RTVSPropertyOp23
 70
     1
102
RTVSPropertyOp24
 70
     1
102
RTVSPropertyOp25
 70
     1
102
RTVSPropertyOp26
 70
     1
102
RTVSPropertyOp27
 70
     1
  0
XRECORD
  5
8DF
102
{ACAD_REACTORS
330
8DE
102
}
330
8DE
100
AcDbXrecord
280
     1
102
RTVSPropertyOp0
 70
     1
102
RTVSPropertyOp1
 70
     1
102
RTVSPropertyOp2
 70
     1
102
RTVSPropertyOp3
 70
     1
102
RTVSPropertyOp4
 70
     1
102
RTVSPropertyOp5
 70
     1
102
RTVSPropertyOp6
 70
     1
102
RTVSPropertyOp7
 70
     1
102
RTVSPropertyOp8
 70
     1
102
RTVSPropertyOp9
 70
     1
102
RTVSPropertyOp10
 70
     1
102
RTVSPropertyOp11
 70
     1
102
RTVSPropertyOp12
 70
     1
102
RTVSPropertyOp13
 70
     1
102
RTVSPropertyOp14
 70
     1
102
RTVSPropertyOp15
 70
     1
102
RTVSPropertyOp16
 70
     1
102
RTVSPropertyOp17
 70
     1
102
RTVSPropertyOp18
 70
     1
102
RTVSPropertyOp19
 70
     1
102
RTVSPropertyOp20
 70
     1
102
RTVSPropertyOp21
 70
     1
102
RTVSPropertyOp22
 70
     1
102
RTVSPropertyOp23
 70
     1
102
RTVSPropertyOp24
 70
     1
102
RTVSPropertyOp25
 70
     1
102
RTVSPropertyOp26
 70
     1
102
RTVSPropertyOp27
 70
     1
  0
XRECORD
  5
8DD
102
{ACAD_REACTORS
330
8DC
102
}
330
8DC
100
AcDbXrecord
280
     1
102
RTVSPropertyOp0
 70
     1
102
RTVSPropertyOp1
 70
     1
102
RTVSPropertyOp2
 70
     1
102
RTVSPropertyOp3
 70
     1
102
RTVSPropertyOp4
 70
     1
102
RTVSPropertyOp5
 70
     1
102
RTVSPropertyOp6
 70
     1
102
RTVSPropertyOp7
 70
     1
102
RTVSPropertyOp8
 70
     1
102
RTVSPropertyOp9
 70
     1
102
RTVSPropertyOp10
 70
     1
102
RTVSPropertyOp11
 70
     1
102
RTVSPropertyOp12
 70
     1
102
RTVSPropertyOp13
 70
     1
102
RTVSPropertyOp14
 70
     1
102
RTVSPropertyOp15
 70
     1
102
RTVSPropertyOp16
 70
     1
102
RTVSPropertyOp17
 70
     1
102
RTVSPropertyOp18
 70
     1
102
RTVSPropertyOp19
 70
     1
102
RTVSPropertyOp20
 70
     1
102
RTVSPropertyOp21
 70
     1
102
RTVSPropertyOp22
 70
     1
102
RTVSPropertyOp23
 70
     1
102
RTVSPropertyOp24
 70
     1
102
RTVSPropertyOp25
 70
     1
102
RTVSPropertyOp26
 70
     1
102
RTVSPropertyOp27
 70
     1
  0
XRECORD
  5
8D9
102
{ACAD_REACTORS
330
8D8
102
}
330
8D8
100
AcDbXrecord
280
     1
102
RTVSPropertyOp0
 70
     1
102
RTVSPropertyOp1
 70
     1
102
RTVSPropertyOp2
 70
     1
102
RTVSPropertyOp3
 70
     1
102
RTVSPropertyOp4
 70
     1
102
RTVSPropertyOp5
 70
     1
102
RTVSPropertyOp6
 70
     1
102
RTVSPropertyOp7
 70
     1
102
RTVSPropertyOp8
 70
     1
102
RTVSPropertyOp9
 70
     1
102
RTVSPropertyOp10
 70
     1
102
RTVSPropertyOp11
 70
     1
102
RTVSPropertyOp12
 70
     1
102
RTVSPropertyOp13
 70
     1
102
RTVSPropertyOp14
 70
     1
102
RTVSPropertyOp15
 70
     1
102
RTVSPropertyOp16
 70
     1
102
RTVSPropertyOp17
 70
     1
102
RTVSPropertyOp18
 70
     1
102
RTVSPropertyOp19
 70
     1
102
RTVSPropertyOp20
 70
     1
102
RTVSPropertyOp21
 70
     1
102
RTVSPropertyOp22
 70
     1
102
RTVSPropertyOp23
 70
     1
102
RTVSPropertyOp24
 70
     1
102
RTVSPropertyOp25
 70
     1
102
RTVSPropertyOp26
 70
     1
102
RTVSPropertyOp27
 70
     1
  0
XRECORD
  5
8E7
102
{ACAD_REACTORS
330
8E6
102
}
330
8E6
100
AcDbXrecord
280
     1
102
RTVSPropertyOp0
 70
     1
102
RTVSPropertyOp1
 70
     1
102
RTVSPropertyOp2
 70
     1
102
RTVSPropertyOp3
 70
     1
102
RTVSPropertyOp4
 70
     1
102
RTVSPropertyOp5
 70
     1
102
RTVSPropertyOp6
 70
     1
102
RTVSPropertyOp7
 70
     1
102
RTVSPropertyOp8
 70
     1
102
RTVSPropertyOp9
 70
     1
102
RTVSPropertyOp10
 70
     1
102
RTVSPropertyOp11
 70
     1
102
RTVSPropertyOp12
 70
     1
102
RTVSPropertyOp13
 70
     1
102
RTVSPropertyOp14
 70
     1
102
RTVSPropertyOp15
 70
     1
102
RTVSPropertyOp16
 70
     1
102
RTVSPropertyOp17
 70
     1
102
RTVSPropertyOp18
 70
     1
102
RTVSPropertyOp19
 70
     1
102
RTVSPropertyOp20
 70
     1
102
RTVSPropertyOp21
 70
     1
102
RTVSPropertyOp22
 70
     1
102
RTVSPropertyOp23
 70
     1
102
RTVSPropertyOp24
 70
     1
102
RTVSPropertyOp25
 70
     1
102
RTVSPropertyOp26
 70
     1
102
RTVSPropertyOp27
 70
     1
  0
XRECORD
  5
8EF
102
{ACAD_REACTORS
330
8EE
102
}
330
8EE
100
AcDbXrecord
280
     1
102
RTVSPropertyOp0
 70
     1
102
RTVSPropertyOp1
 70
     1
102
RTVSPropertyOp2
 70
     1
102
RTVSPropertyOp3
 70
     1
102
RTVSPropertyOp4
 70
     1
102
RTVSPropertyOp5
 70
     1
102
RTVSPropertyOp6
 70
     1
102
RTVSPropertyOp7
 70
     1
102
RTVSPropertyOp8
 70
     1
102
RTVSPropertyOp9
 70
     1
102
RTVSPropertyOp10
 70
     1
102
RTVSPropertyOp11
 70
     1
102
RTVSPropertyOp12
 70
     1
102
RTVSPropertyOp13
 70
     1
102
RTVSPropertyOp14
 70
     1
102
RTVSPropertyOp15
 70
     1
102
RTVSPropertyOp16
 70
     1
102
RTVSPropertyOp17
 70
     1
102
RTVSPropertyOp18
 70
     1
102
RTVSPropertyOp19
 70
     1
102
RTVSPropertyOp20
 70
     1
102
RTVSPropertyOp21
 70
     1
102
RTVSPropertyOp22
 70
     1
102
RTVSPropertyOp23
 70
     1
102
RTVSPropertyOp24
 70
     1
102
RTVSPropertyOp25
 70
     1
102
RTVSPropertyOp26
 70
     1
102
RTVSPropertyOp27
 70
     1
  0
XRECORD
  5
8E1
102
{ACAD_REACTORS
330
8E0
102
}
330
8E0
100
AcDbXrecord
280
     1
102
RTVSPropertyOp0
 70
     1
102
RTVSPropertyOp1
 70
     1
102
RTVSPropertyOp2
 70
     1
102
RTVSPropertyOp3
 70
     1
102
RTVSPropertyOp4
 70
     1
102
RTVSPropertyOp5
 70
     1
102
RTVSPropertyOp6
 70
     1
102
RTVSPropertyOp7
 70
     1
102
RTVSPropertyOp8
 70
     1
102
RTVSPropertyOp9
 70
     1
102
RTVSPropertyOp10
 70
     1
102
RTVSPropertyOp11
 70
     1
102
RTVSPropertyOp12
 70
     1
102
RTVSPropertyOp13
 70
     1
102
RTVSPropertyOp14
 70
     1
102
RTVSPropertyOp15
 70
     1
102
RTVSPropertyOp16
 70
     1
102
RTVSPropertyOp17
 70
     1
102
RTVSPropertyOp18
 70
     1
102
RTVSPropertyOp19
 70
     1
102
RTVSPropertyOp20
 70
     1
102
RTVSPropertyOp21
 70
     1
102
RTVSPropertyOp22
 70
     1
102
RTVSPropertyOp23
 70
     1
102
RTVSPropertyOp24
 70
     1
102
RTVSPropertyOp25
 70
     1
102
RTVSPropertyOp26
 70
     1
102
RTVSPropertyOp27
 70
     1
  0
XRECORD
  5
8E5
102
{ACAD_REACTORS
330
8E4
102
}
330
8E4
100
AcDbXrecord
280
     1
102
RTVSPropertyOp0
 70
     1
102
RTVSPropertyOp1
 70
     1
102
RTVSPropertyOp2
 70
     1
102
RTVSPropertyOp3
 70
     1
102
RTVSPropertyOp4
 70
     1
102
RTVSPropertyOp5
 70
     1
102
RTVSPropertyOp6
 70
     1
102
RTVSPropertyOp7
 70
     1
102
RTVSPropertyOp8
 70
     1
102
RTVSPropertyOp9
 70
     1
102
RTVSPropertyOp10
 70
     1
102
RTVSPropertyOp11
 70
     1
102
RTVSPropertyOp12
 70
     1
102
RTVSPropertyOp13
 70
     1
102
RTVSPropertyOp14
 70
     1
102
RTVSPropertyOp15
 70
     1
102
RTVSPropertyOp16
 70
     1
102
RTVSPropertyOp17
 70
     1
102
RTVSPropertyOp18
 70
     1
102
RTVSPropertyOp19
 70
     1
102
RTVSPropertyOp20
 70
     1
102
RTVSPropertyOp21
 70
     1
102
RTVSPropertyOp22
 70
     1
102
RTVSPropertyOp23
 70
     1
102
RTVSPropertyOp24
 70
     1
102
RTVSPropertyOp25
 70
     1
102
RTVSPropertyOp26
 70
     1
102
RTVSPropertyOp27
 70
     1
  0
XRECORD
  5
8F5
102
{ACAD_REACTORS
330
8F4
102
}
330
8F4
100
AcDbXrecord
280
     1
102
RTVSPropertyOp0
 70
     0
102
RTVSPropertyOp1
 70
     0
102
RTVSPropertyOp2
 70
     0
102
RTVSPropertyOp3
 70
     0
102
RTVSPropertyOp4
 70
     0
102
RTVSPropertyOp5
 70
     0
102
RTVSPropertyOp6
 70
     0
102
RTVSPropertyOp7
 70
     0
102
RTVSPropertyOp8
 70
     0
102
RTVSPropertyOp9
 70
     0
102
RTVSPropertyOp10
 70
     0
102
RTVSPropertyOp11
 70
     0
102
RTVSPropertyOp12
 70
     0
102
RTVSPropertyOp13
 70
     0
102
RTVSPropertyOp14
 70
     2
102
RTVSPropertyOp15
 70
     0
102
RTVSPropertyOp16
 70
     0
102
RTVSPropertyOp17
 70
     0
102
RTVSPropertyOp18
 70
     0
102
RTVSPropertyOp19
 70
     0
102
RTVSPropertyOp20
 70
     0
102
RTVSPropertyOp21
 70
     0
102
RTVSPropertyOp22
 70
     0
102
RTVSPropertyOp23
 70
     0
102
RTVSPropertyOp24
 70
     0
102
RTVSPropertyOp25
 70
     0
102
RTVSPropertyOp26
 70
     0
102
RTVSPropertyOp27
 70
     0
  0
XRECORD
  5
8ED
102
{ACAD_REACTORS
330
8EC
102
}
330
8EC
100
AcDbXrecord
280
     1
102
RTVSPropertyOp0
 70
     1
102
RTVSPropertyOp1
 70
     1
102
RTVSPropertyOp2
 70
     1
102
RTVSPropertyOp3
 70
     1
102
RTVSPropertyOp4
 70
     1
102
RTVSPropertyOp5
 70
     1
102
RTVSPropertyOp6
 70
     1
102
RTVSPropertyOp7
 70
     1
102
RTVSPropertyOp8
 70
     1
102
RTVSPropertyOp9
 70
     1
102
RTVSPropertyOp10
 70
     1
102
RTVSPropertyOp11
 70
     1
102
RTVSPropertyOp12
 70
     1
102
RTVSPropertyOp13
 70
     1
102
RTVSPropertyOp14
 70
     1
102
RTVSPropertyOp15
 70
     1
102
RTVSPropertyOp16
 70
     1
102
RTVSPropertyOp17
 70
     1
102
RTVSPropertyOp18
 70
     1
102
RTVSPropertyOp19
 70
     1
102
RTVSPropertyOp20
 70
     1
102
RTVSPropertyOp21
 70
     1
102
RTVSPropertyOp22
 70
     1
102
RTVSPropertyOp23
 70
     1
102
RTVSPropertyOp24
 70
     1
102
RTVSPropertyOp25
 70
     1
102
RTVSPropertyOp26
 70
     1
102
RTVSPropertyOp27
 70
     1
  0
XRECORD
  5
8D1
102
{ACAD_REACTORS
330
8D0
102
}
330
8D0
100
AcDbXrecord
280
     1
102
RTVSPropertyOp0
 70
     1
102
RTVSPropertyOp1
 70
     1
102
RTVSPropertyOp2
 70
     1
102
RTVSPropertyOp3
 70
     1
102
RTVSPropertyOp4
 70
     1
102
RTVSPropertyOp5
 70
     1
102
RTVSPropertyOp6
 70
     1
102
RTVSPropertyOp7
 70
     1
102
RTVSPropertyOp8
 70
     1
102
RTVSPropertyOp9
 70
     1
102
RTVSPropertyOp10
 70
     1
102
RTVSPropertyOp11
 70
     1
102
RTVSPropertyOp12
 70
     1
102
RTVSPropertyOp13
 70
     1
102
RTVSPropertyOp14
 70
     1
102
RTVSPropertyOp15
 70
     1
102
RTVSPropertyOp16
 70
     1
102
RTVSPropertyOp17
 70
     1
102
RTVSPropertyOp18
 70
     1
102
RTVSPropertyOp19
 70
     1
102
RTVSPropertyOp20
 70
     1
102
RTVSPropertyOp21
 70
     1
102
RTVSPropertyOp22
 70
     1
102
RTVSPropertyOp23
 70
     1
102
RTVSPropertyOp24
 70
     1
102
RTVSPropertyOp25
 70
     1
102
RTVSPropertyOp26
 70
     1
102
RTVSPropertyOp27
 70
     1
  0
XRECORD
  5
8D3
102
{ACAD_REACTORS
330
8D2
102
}
330
8D2
100
AcDbXrecord
280
     1
102
RTVSPropertyOp0
 70
     1
102
RTVSPropertyOp1
 70
     1
102
RTVSPropertyOp2
 70
     1
102
RTVSPropertyOp3
 70
     1
102
RTVSPropertyOp4
 70
     1
102
RTVSPropertyOp5
 70
     1
102
RTVSPropertyOp6
 70
     1
102
RTVSPropertyOp7
 70
     1
102
RTVSPropertyOp8
 70
     1
102
RTVSPropertyOp9
 70
     1
102
RTVSPropertyOp10
 70
     1
102
RTVSPropertyOp11
 70
     1
102
RTVSPropertyOp12
 70
     1
102
RTVSPropertyOp13
 70
     1
102
RTVSPropertyOp14
 70
     1
102
RTVSPropertyOp15
 70
     1
102
RTVSPropertyOp16
 70
     1
102
RTVSPropertyOp17
 70
     1
102
RTVSPropertyOp18
 70
     1
102
RTVSPropertyOp19
 70
     1
102
RTVSPropertyOp20
 70
     1
102
RTVSPropertyOp21
 70
     1
102
RTVSPropertyOp22
 70
     1
102
RTVSPropertyOp23
 70
     1
102
RTVSPropertyOp24
 70
     1
102
RTVSPropertyOp25
 70
     1
102
RTVSPropertyOp26
 70
     1
102
RTVSPropertyOp27
 70
     1
  0
XRECORD
  5
8D5
102
{ACAD_REACTORS
330
8D4
102
}
330
8D4
100
AcDbXrecord
280
     1
102
RTVSPropertyOp0
 70
     1
102
RTVSPropertyOp1
 70
     1
102
RTVSPropertyOp2
 70
     1
102
RTVSPropertyOp3
 70
     1
102
RTVSPropertyOp4
 70
     1
102
RTVSPropertyOp5
 70
     1
102
RTVSPropertyOp6
 70
     1
102
RTVSPropertyOp7
 70
     1
102
RTVSPropertyOp8
 70
     1
102
RTVSPropertyOp9
 70
     1
102
RTVSPropertyOp10
 70
     1
102
RTVSPropertyOp11
 70
     1
102
RTVSPropertyOp12
 70
     1
102
RTVSPropertyOp13
 70
     1
102
RTVSPropertyOp14
 70
     1
102
RTVSPropertyOp15
 70
     1
102
RTVSPropertyOp16
 70
     1
102
RTVSPropertyOp17
 70
     1
102
RTVSPropertyOp18
 70
     1
102
RTVSPropertyOp19
 70
     1
102
RTVSPropertyOp20
 70
     1
102
RTVSPropertyOp21
 70
     1
102
RTVSPropertyOp22
 70
     1
102
RTVSPropertyOp23
 70
     1
102
RTVSPropertyOp24
 70
     1
102
RTVSPropertyOp25
 70
     1
102
RTVSPropertyOp26
 70
     1
102
RTVSPropertyOp27
 70
     1
  0
XRECORD
  5
8D7
102
{ACAD_REACTORS
330
8D6
102
}
330
8D6
100
AcDbXrecord
280
     1
102
RTVSPropertyOp0
 70
     1
102
RTVSPropertyOp1
 70
     1
102
RTVSPropertyOp2
 70
     1
102
RTVSPropertyOp3
 70
     1
102
RTVSPropertyOp4
 70
     1
102
RTVSPropertyOp5
 70
     1
102
RTVSPropertyOp6
 70
     1
102
RTVSPropertyOp7
 70
     1
102
RTVSPropertyOp8
 70
     1
102
RTVSPropertyOp9
 70
     1
102
RTVSPropertyOp10
 70
     1
102
RTVSPropertyOp11
 70
     1
102
RTVSPropertyOp12
 70
     1
102
RTVSPropertyOp13
 70
     1
102
RTVSPropertyOp14
 70
     1
102
RTVSPropertyOp15
 70
     1
102
RTVSPropertyOp16
 70
     1
102
RTVSPropertyOp17
 70
     1
102
RTVSPropertyOp18
 70
     1
102
RTVSPropertyOp19
 70
     1
102
RTVSPropertyOp20
 70
     1
102
RTVSPropertyOp21
 70
     1
102
RTVSPropertyOp22
 70
     1
102
RTVSPropertyOp23
 70
     1
102
RTVSPropertyOp24
 70
     1
102
RTVSPropertyOp25
 70
     1
102
RTVSPropertyOp26
 70
     1
102
RTVSPropertyOp27
 70
     1
  0
XRECORD
  5
8F1
102
{ACAD_REACTORS
330
8F0
102
}
330
8F0
100
AcDbXrecord
280
     1
102
RTVSPropertyOp0
 70
     0
102
RTVSPropertyOp1
 70
     0
102
RTVSPropertyOp2
 70
     0
102
RTVSPropertyOp3
 70
     0
102
RTVSPropertyOp4
 70
     0
102
RTVSPropertyOp5
 70
     0
102
RTVSPropertyOp6
 70
     0
102
RTVSPropertyOp7
 70
     0
102
RTVSPropertyOp8
 70
     0
102
RTVSPropertyOp9
 70
     0
102
RTVSPropertyOp10
 70
     0
102
RTVSPropertyOp11
 70
     0
102
RTVSPropertyOp12
 70
     0
102
RTVSPropertyOp13
 70
     0
102
RTVSPropertyOp14
 70
     2
102
RTVSPropertyOp15
 70
     0
102
RTVSPropertyOp16
 70
     0
102
RTVSPropertyOp17
 70
     0
102
RTVSPropertyOp18
 70
     0
102
RTVSPropertyOp19
 70
     0
102
RTVSPropertyOp20
 70
     0
102
RTVSPropertyOp21
 70
     0
102
RTVSPropertyOp22
 70
     0
102
RTVSPropertyOp23
 70
     0
102
RTVSPropertyOp24
 70
     0
102
RTVSPropertyOp25
 70
     0
102
RTVSPropertyOp26
 70
     0
102
RTVSPropertyOp27
 70
     0
  0
XRECORD
  5
8EB
102
{ACAD_REACTORS
330
8EA
102
}
330
8EA
100
AcDbXrecord
280
     1
102
RTVSPropertyOp0
 70
     1
102
RTVSPropertyOp1
 70
     1
102
RTVSPropertyOp2
 70
     1
102
RTVSPropertyOp3
 70
     1
102
RTVSPropertyOp4
 70
     1
102
RTVSPropertyOp5
 70
     1
102
RTVSPropertyOp6
 70
     1
102
RTVSPropertyOp7
 70
     1
102
RTVSPropertyOp8
 70
     1
102
RTVSPropertyOp9
 70
     1
102
RTVSPropertyOp10
 70
     1
102
RTVSPropertyOp11
 70
     1
102
RTVSPropertyOp12
 70
     1
102
RTVSPropertyOp13
 70
     1
102
RTVSPropertyOp14
 70
     1
102
RTVSPropertyOp15
 70
     1
102
RTVSPropertyOp16
 70
     1
102
RTVSPropertyOp17
 70
     1
102
RTVSPropertyOp18
 70
     1
102
RTVSPropertyOp19
 70
     1
102
RTVSPropertyOp20
 70
     1
102
RTVSPropertyOp21
 70
     1
102
RTVSPropertyOp22
 70
     1
102
RTVSPropertyOp23
 70
     1
102
RTVSPropertyOp24
 70
     1
102
RTVSPropertyOp25
 70
     1
102
RTVSPropertyOp26
 70
     1
102
RTVSPropertyOp27
 70
     1
  0
XRECORD
  5
8F3
102
{ACAD_REACTORS
330
8F2
102
}
330
8F2
100
AcDbXrecord
280
     1
102
RTVSPropertyOp0
 70
     0
102
RTVSPropertyOp1
 70
     0
102
RTVSPropertyOp2
 70
     0
102
RTVSPropertyOp3
 70
     0
102
RTVSPropertyOp4
 70
     0
102
RTVSPropertyOp5
 70
     0
102
RTVSPropertyOp6
 70
     0
102
RTVSPropertyOp7
 70
     0
102
RTVSPropertyOp8
 70
     0
102
RTVSPropertyOp9
 70
     0
102
RTVSPropertyOp10
 70
     0
102
RTVSPropertyOp11
 70
     0
102
RTVSPropertyOp12
 70
     0
102
RTVSPropertyOp13
 70
     0
102
RTVSPropertyOp14
 70
     2
102
RTVSPropertyOp15
 70
     0
102
RTVSPropertyOp16
 70
     0
102
RTVSPropertyOp17
 70
     0
102
RTVSPropertyOp18
 70
     0
102
RTVSPropertyOp19
 70
     0
102
RTVSPropertyOp20
 70
     0
102
RTVSPropertyOp21
 70
     0
102
RTVSPropertyOp22
 70
     0
102
RTVSPropertyOp23
 70
     0
102
RTVSPropertyOp24
 70
     0
102
RTVSPropertyOp25
 70
     0
102
RTVSPropertyOp26
 70
     0
102
RTVSPropertyOp27
 70
     0
  0
XRECORD
  5
8E3
102
{ACAD_REACTORS
330
8E2
102
}
330
8E2
100
AcDbXrecord
280
     1
102
RTVSPropertyOp0
 70
     1
102
RTVSPropertyOp1
 70
     1
102
RTVSPropertyOp2
 70
     1
102
RTVSPropertyOp3
 70
     1
102
RTVSPropertyOp4
 70
     1
102
RTVSPropertyOp5
 70
     1
102
RTVSPropertyOp6
 70
     1
102
RTVSPropertyOp7
 70
     1
102
RTVSPropertyOp8
 70
     1
102
RTVSPropertyOp9
 70
     1
102
RTVSPropertyOp10
 70
     1
102
RTVSPropertyOp11
 70
     1
102
RTVSPropertyOp12
 70
     1
102
RTVSPropertyOp13
 70
     1
102
RTVSPropertyOp14
 70
     1
102
RTVSPropertyOp15
 70
     1
102
RTVSPropertyOp16
 70
     1
102
RTVSPropertyOp17
 70
     1
102
RTVSPropertyOp18
 70
     1
102
RTVSPropertyOp19
 70
     1
102
RTVSPropertyOp20
 70
     1
102
RTVSPropertyOp21
 70
     1
102
RTVSPropertyOp22
 70
     1
102
RTVSPropertyOp23
 70
     1
102
RTVSPropertyOp24
 70
     1
102
RTVSPropertyOp25
 70
     1
102
RTVSPropertyOp26
 70
     1
102
RTVSPropertyOp27
 70
     1
  0
XRECORD
  5
8E9
102
{ACAD_REACTORS
330
8E8
102
}
330
8E8
100
AcDbXrecord
280
     1
102
RTVSPropertyOp0
 70
     1
102
RTVSPropertyOp1
 70
     1
102
RTVSPropertyOp2
 70
     1
102
RTVSPropertyOp3
 70
     1
102
RTVSPropertyOp4
 70
     1
102
RTVSPropertyOp5
 70
     1
102
RTVSPropertyOp6
 70
     1
102
RTVSPropertyOp7
 70
     1
102
RTVSPropertyOp8
 70
     1
102
RTVSPropertyOp9
 70
     1
102
RTVSPropertyOp10
 70
     1
102
RTVSPropertyOp11
 70
     1
102
RTVSPropertyOp12
 70
     1
102
RTVSPropertyOp13
 70
     1
102
RTVSPropertyOp14
 70
     1
102
RTVSPropertyOp15
 70
     1
102
RTVSPropertyOp16
 70
     1
102
RTVSPropertyOp17
 70
     1
102
RTVSPropertyOp18
 70
     1
102
RTVSPropertyOp19
 70
     1
102
RTVSPropertyOp20
 70
     1
102
RTVSPropertyOp21
 70
     1
102
RTVSPropertyOp22
 70
     1
102
RTVSPropertyOp23
 70
     1
102
RTVSPropertyOp24
 70
     1
102
RTVSPropertyOp25
 70
     1
102
RTVSPropertyOp26
 70
     1
102
RTVSPropertyOp27
 70
     1
  0
ENDSEC
  0
EOF
