  0
SECTION
  2
HEADER
  9
$ACADVER
  1
AC1015
  9
$ACADMAINTVER
 70
    20
  9
$DWGCODEPAGE
  3
ANSI_1252
  9
$INSBASE
 10
0.0
 20
0.0
 30
0.0
  9
$EXTMIN
 10
222.7799420284718
 20
149.7567292881833
 30
0.0
  9
$EXTMAX
 10
225.509334196397
 20
150.590828673602
 30
0.0
  9
$LIMMIN
 10
0.0
 20
0.0
  9
$LIMMAX
 10
420.0
 20
297.0
  9
$ORTHOMODE
 70
     0
  9
$REGENMODE
 70
     1
  9
$FILLMODE
 70
     1
  9
$QTEXTMODE
 70
     0
  9
$MIRRTEXT
 70
     1
  9
$LTSCALE
 40
1.0
  9
$ATTMODE
 70
     1
  9
$TEXTSIZE
 40
2.5
  9
$TRACEWID
 40
1.0
  9
$TEXTSTYLE
  7
SANINDUSA
  9
$CLAYER
  8
cotas
  9
$CELTYPE
  6
ByLayer
  9
$CECOLOR
 62
   256
  9
$CELTSCALE
 40
1.0
  9
$DISPSILH
 70
     0
  9
$DIMSCALE
 40
1.0
  9
$DIMASZ
 40
2.0
  9
$DIMEXO
 40
1.0
  9
$DIMDLI
 40
1.0
  9
$DIMRND
 40
0.0
  9
$DIMDLE
 40
0.0
  9
$DIMEXE
 40
1.0
  9
$DIMTP
 40
0.0
  9
$DIMTM
 40
0.0
  9
$DIMTXT
 40
2.0
  9
$DIMCEN
 40
0.0
  9
$DIMTSZ
 40
0.0
  9
$DIMTOL
 70
     0
  9
$DIMLIM
 70
     0
  9
$DIMTIH
 70
     0
  9
$DIMTOH
 70
     0
  9
$DIMSE1
 70
     0
  9
$DIMSE2
 70
     0
  9
$DIMTAD
 70
     1
  9
$DIMZIN
 70
     8
  9
$DIMBLK
  1

  9
$DIMASO
 70
     1
  9
$DIMSHO
 70
     1
  9
$DIMPOST
  1

  9
$DIMAPOST
  1

  9
$DIMALT
 70
     0
  9
$DIMALTD
 70
     3
  9
$DIMALTF
 40
0.03937007874016
  9
$DIMLFAC
 40
1.0
  9
$DIMTOFL
 70
     1
  9
$DIMTVP
 40
0.0
  9
$DIMTIX
 70
     0
  9
$DIMSOXD
 70
     0
  9
$DIMSAH
 70
     0
  9
$DIMBLK1
  1

  9
$DIMBLK2
  1

  9
$DIMSTYLE
  2
SANINDUSA
  9
$DIMCLRD
 70
   256
  9
$DIMCLRE
 70
   256
  9
$DIMCLRT
 70
   256
  9
$DIMTFAC
 40
1.0
  9
$DIMGAP
 40
1.0
  9
$DIMJUST
 70
     0
  9
$DIMSD1
 70
     0
  9
$DIMSD2
 70
     0
  9
$DIMTOLJ
 70
     0
  9
$DIMTZIN
 70
     8
  9
$DIMALTZ
 70
     0
  9
$DIMALTTZ
 70
     0
  9
$DIMUPT
 70
     0
  9
$DIMDEC
 70
     1
  9
$DIMTDEC
 70
     1
  9
$DIMALTU
 70
     2
  9
$DIMALTTD
 70
     3
  9
$DIMTXSTY
  7
SANINDUSA
  9
$DIMAUNIT
 70
     0
  9
$DIMADEC
 70
     1
  9
$DIMALTRND
 40
0.0
  9
$DIMAZIN
 70
     0
  9
$DIMDSEP
 70
    44
  9
$DIMATFIT
 70
     3
  9
$DIMFRAC
 70
     0
  9
$DIMLDRBLK
  1

  9
$DIMLUNIT
 70
     2
  9
$DIMLWD
 70
    -1
  9
$DIMLWE
 70
    -1
  9
$DIMTMOVE
 70
     0
  9
$LUNITS
 70
     2
  9
$LUPREC
 70
     4
  9
$SKETCHINC
 40
1.0
  9
$FILLETRAD
 40
0.0
  9
$AUNITS
 70
     0
  9
$AUPREC
 70
     0
  9
$MENU
  1
.
  9
$ELEVATION
 40
0.0
  9
$PELEVATION
 40
0.0
  9
$THICKNESS
 40
0.0
  9
$LIMCHECK
 70
     0
  9
$CHAMFERA
 40
10.0
  9
$CHAMFERB
 40
10.0
  9
$CHAMFERC
 40
20.0
  9
$CHAMFERD
 40
0.0
  9
$SKPOLY
 70
     0
  9
$TDCREATE
 40
2453909.488870440
  9
$TDUCREATE
 40
2453909.447203773
  9
$TDUPDATE
 40
2456147.738572951
  9
$TDUUPDATE
 40
2456147.696906285
  9
$TDINDWG
 40
0.0057394792
  9
$TDUSRTIMER
 40
0.0057394792
  9
$USRTIMER
 70
     1
  9
$ANGBASE
 50
0.0
  9
$ANGDIR
 70
     0
  9
$PDMODE
 70
     0
  9
$PDSIZE
 40
0.0
  9
$PLINEWID
 40
0.0
  9
$SPLFRAME
 70
     0
  9
$SPLINETYPE
 70
     6
  9
$SPLINESEGS
 70
     8
  9
$HANDSEED
  5
122D
  9
$SURFTAB1
 70
     6
  9
$SURFTAB2
 70
     6
  9
$SURFTYPE
 70
     6
  9
$SURFU
 70
     6
  9
$SURFV
 70
     6
  9
$UCSBASE
  2

  9
$UCSNAME
  2

  9
$UCSORG
 10
0.0
 20
0.0
 30
0.0
  9
$UCSXDIR
 10
1.0
 20
0.0
 30
0.0
  9
$UCSYDIR
 10
0.0
 20
1.0
 30
0.0
  9
$UCSORTHOREF
  2

  9
$UCSORTHOVIEW
 70
     0
  9
$UCSORGTOP
 10
0.0
 20
0.0
 30
0.0
  9
$UCSORGBOTTOM
 10
0.0
 20
0.0
 30
0.0
  9
$UCSORGLEFT
 10
0.0
 20
0.0
 30
0.0
  9
$UCSORGRIGHT
 10
0.0
 20
0.0
 30
0.0
  9
$UCSORGFRONT
 10
0.0
 20
0.0
 30
0.0
  9
$UCSORGBACK
 10
0.0
 20
0.0
 30
0.0
  9
$PUCSBASE
  2

  9
$PUCSNAME
  2

  9
$PUCSORG
 10
0.0
 20
0.0
 30
0.0
  9
$PUCSXDIR
 10
1.0
 20
0.0
 30
0.0
  9
$PUCSYDIR
 10
0.0
 20
1.0
 30
0.0
  9
$PUCSORTHOREF
  2

  9
$PUCSORTHOVIEW
 70
     0
  9
$PUCSORGTOP
 10
0.0
 20
0.0
 30
0.0
  9
$PUCSORGBOTTOM
 10
0.0
 20
0.0
 30
0.0
  9
$PUCSORGLEFT
 10
0.0
 20
0.0
 30
0.0
  9
$PUCSORGRIGHT
 10
0.0
 20
0.0
 30
0.0
  9
$PUCSORGFRONT
 10
0.0
 20
0.0
 30
0.0
  9
$PUCSORGBACK
 10
0.0
 20
0.0
 30
0.0
  9
$USERI1
 70
     0
  9
$USERI2
 70
     0
  9
$USERI3
 70
     0
  9
$USERI4
 70
     0
  9
$USERI5
 70
     0
  9
$USERR1
 40
0.0
  9
$USERR2
 40
0.0
  9
$USERR3
 40
0.0
  9
$USERR4
 40
0.0
  9
$USERR5
 40
0.0
  9
$WORLDVIEW
 70
     1
  9
$SHADEDGE
 70
     3
  9
$SHADEDIF
 70
    70
  9
$TILEMODE
 70
     1
  9
$MAXACTVP
 70
    64
  9
$PINSBASE
 10
0.0
 20
0.0
 30
0.0
  9
$PLIMCHECK
 70
     0
  9
$PEXTMIN
 10
1.000000000000000E+20
 20
1.000000000000000E+20
 30
1.000000000000000E+20
  9
$PEXTMAX
 10
-1.000000000000000E+20
 20
-1.000000000000000E+20
 30
-1.000000000000000E+20
  9
$PLIMMIN
 10
0.0
 20
0.0
  9
$PLIMMAX
 10
420.0
 20
297.0
  9
$UNITMODE
 70
     0
  9
$VISRETAIN
 70
     1
  9
$PLINEGEN
 70
     0
  9
$PSLTSCALE
 70
     1
  9
$TREEDEPTH
 70
  3020
  9
$CMLSTYLE
  2
Standard
  9
$CMLJUST
 70
     0
  9
$CMLSCALE
 40
20.0
  9
$PROXYGRAPHICS
 70
     1
  9
$MEASUREMENT
 70
     1
  9
$CELWEIGHT
370
    -1
  9
$ENDCAPS
280
     0
  9
$JOINSTYLE
280
     0
  9
$LWDISPLAY
290
     0
  9
$INSUNITS
 70
     4
  9
$HYPERLINKBASE
  1

  9
$STYLESHEET
  1
monochrome.ctb
  9
$XEDIT
290
     1
  9
$CEPSNTYPE
380
     0
  9
$PSTYLEMODE
290
     1
  9
$FINGERPRINTGUID
  2
{A3BF8520-E162-48CB-A751-0B2A392D169E}
  9
$VERSIONGUID
  2
{8D78DFA8-D4C9-4B10-AAEF-484AEB32561C}
  9
$EXTNAMES
290
     1
  9
$PSVPSCALE
 40
0.0
  9
$OLESTARTUP
290
     0
  0
ENDSEC
  0
SECTION
  2
CLASSES
  0
CLASS
  1
ACDBDICTIONARYWDFLT
  2
AcDbDictionaryWithDefault
  3
ObjectDBX Classes
 90
        0
280
     0
281
     0
  0
CLASS
  1
ACDBPLACEHOLDER
  2
AcDbPlaceHolder
  3
ObjectDBX Classes
 90
        0
280
     0
281
     0
  0
CLASS
  1
LAYOUT
  2
AcDbLayout
  3
ObjectDBX Classes
 90
        0
280
     0
281
     0
  0
CLASS
  1
DICTIONARYVAR
  2
AcDbDictionaryVar
  3
ObjectDBX Classes
 90
        0
280
     0
281
     0
  0
CLASS
  1
DIMASSOC
  2
AcDbDimAssoc
  3
"AcDbDimAssoc|Product Desc:     AcDim ARX App For Dimension|Company:          Autodesk, Inc.|WEB Address:      www.autodesk.com"
 90
    32768
280
     0
281
     0
  0
CLASS
  1
TABLESTYLE
  2
AcDbTableStyle
  3
ObjectDBX Classes
 90
     4095
280
     0
281
     0
  0
CLASS
  1
SORTENTSTABLE
  2
AcDbSortentsTable
  3
ObjectDBX Classes
 90
        0
280
     0
281
     0
  0
CLASS
  1
MATERIAL
  2
AcDbMaterial
  3
ObjectDBX Classes
 90
     1153
280
     0
281
     0
  0
CLASS
  1
VISUALSTYLE
  2
AcDbVisualStyle
  3
ObjectDBX Classes
 90
     4095
280
     0
281
     0
  0
CLASS
  1
SCALE
  2
AcDbScale
  3
ObjectDBX Classes
 90
     1153
280
     0
281
     0
  0
CLASS
  1
MLEADERSTYLE
  2
AcDbMLeaderStyle
  3
ACDB_MLEADERSTYLE_CLASS
 90
     4095
280
     0
281
     0
  0
CLASS
  1
CELLSTYLEMAP
  2
AcDbCellStyleMap
  3
ObjectDBX Classes
 90
     1152
280
     0
281
     0
  0
ENDSEC
  0
SECTION
  2
TABLES
  0
TABLE
  2
VPORT
  5
8
330
0
100
AcDbSymbolTable
 70
     1
  0
VPORT
  5
117C
330
8
100
AcDbSymbolTableRecord
100
AcDbViewportTableRecord
  2
*Active
 70
     0
 10
0.0
 20
0.0
 11
1.0
 21
1.0
 12
224.1924163949533
 22
150.1767890235372
 13
0.0
 23
0.0
 14
10.0
 24
10.0
 15
10.0
 25
10.0
 16
0.0
 26
0.0
 36
1.0
 17
0.0
 27
0.0
 37
0.0
 40
1.755631058165246
 41
1.645464025026068
 42
50.0
 43
0.0
 44
0.0
 50
0.0
 51
0.0
 71
     0
 72
   100
 73
     1
 74
     2
 75
     0
 76
     0
 77
     0
 78
     0
281
     0
 65
     1
110
0.0
120
0.0
130
0.0
111
1.0
121
0.0
131
0.0
112
0.0
122
1.0
132
0.0
 79
     0
146
0.0
  0
ENDTAB
  0
TABLE
  2
LTYPE
  5
5
330
0
100
AcDbSymbolTable
 70
     3
  0
LTYPE
  5
14
330
5
100
AcDbSymbolTableRecord
100
AcDbLinetypeTableRecord
  2
ByBlock
 70
     0
  3

 72
    65
 73
     0
 40
0.0
  0
LTYPE
  5
15
330
5
100
AcDbSymbolTableRecord
100
AcDbLinetypeTableRecord
  2
ByLayer
 70
     0
  3

 72
    65
 73
     0
 40
0.0
  0
LTYPE
  5
16
330
5
100
AcDbSymbolTableRecord
100
AcDbLinetypeTableRecord
  2
Continuous
 70
     0
  3
Solid line
 72
    65
 73
     0
 40
0.0
  0
LTYPE
  5
2D
330
5
100
AcDbSymbolTableRecord
100
AcDbLinetypeTableRecord
  2
DASHDOT
 70
     0
  3
Dash dot __ . __ . __ . __ . __ . __ . __ . __
 72
    65
 73
     4
 40
25.4
 49
12.7
 74
     0
 49
-6.349999999999999
 74
     0
 49
0.0
 74
     0
 49
-6.349999999999999
 74
     0
  0
LTYPE
  5
2E
330
5
100
AcDbSymbolTableRecord
100
AcDbLinetypeTableRecord
  2
HIDDEN
 70
     0
  3
Hidden __ __ __ __ __ __ __ __ __ __ __ __ __ _
 72
    65
 73
     2
 40
9.524999999999998
 49
6.349999999999999
 74
     0
 49
-3.174999999999999
 74
     0
  0
ENDTAB
  0
TABLE
  2
LAYER
  5
2
330
0
100
AcDbSymbolTable
 70
    17
  0
LAYER
  5
10
102
{ACAD_XDICTIONARY
360
11CB
102
}
330
2
100
AcDbSymbolTableRecord
100
AcDbLayerTableRecord
  2
0
 70
     0
 62
     7
  6
Continuous
370
    -3
390
F
  0
LAYER
  5
2F
102
{ACAD_XDICTIONARY
360
11CD
102
}
330
2
100
AcDbSymbolTableRecord
100
AcDbLayerTableRecord
  2
1
 70
     0
 62
     1
  6
Continuous
370
    -3
390
F
  0
LAYER
  5
30
102
{ACAD_XDICTIONARY
360
11CF
102
}
330
2
100
AcDbSymbolTableRecord
100
AcDbLayerTableRecord
  2
2
 70
     0
 62
     2
  6
Continuous
370
    -3
390
F
  0
LAYER
  5
31
102
{ACAD_XDICTIONARY
360
11D1
102
}
330
2
100
AcDbSymbolTableRecord
100
AcDbLayerTableRecord
  2
3
 70
     0
 62
     3
  6
Continuous
370
    -3
390
F
  0
LAYER
  5
32
102
{ACAD_XDICTIONARY
360
11D3
102
}
330
2
100
AcDbSymbolTableRecord
100
AcDbLayerTableRecord
  2
4
 70
     0
 62
     4
  6
Continuous
370
    -3
390
F
  0
LAYER
  5
33
102
{ACAD_XDICTIONARY
360
11D5
102
}
330
2
100
AcDbSymbolTableRecord
100
AcDbLayerTableRecord
  2
5
 70
     0
 62
     5
  6
Continuous
370
    -3
390
F
  0
LAYER
  5
34
102
{ACAD_XDICTIONARY
360
11D7
102
}
330
2
100
AcDbSymbolTableRecord
100
AcDbLayerTableRecord
  2
6
 70
     0
 62
     6
  6
Continuous
370
    -3
390
F
  0
LAYER
  5
35
102
{ACAD_XDICTIONARY
360
11D9
102
}
330
2
100
AcDbSymbolTableRecord
100
AcDbLayerTableRecord
  2
7
 70
     0
 62
     7
  6
Continuous
370
    -3
390
F
  0
LAYER
  5
36
102
{ACAD_XDICTIONARY
360
11DB
102
}
330
2
100
AcDbSymbolTableRecord
100
AcDbLayerTableRecord
  2
cen
 70
     0
 62
     7
  6
DASHDOT
370
    -3
390
F
  0
LAYER
  5
37
102
{ACAD_XDICTIONARY
360
11DD
102
}
330
2
100
AcDbSymbolTableRecord
100
AcDbLayerTableRecord
  2
hid
 70
     0
 62
     7
  6
HIDDEN
370
    -3
390
F
  0
LAYER
  5
5D6
102
{ACAD_XDICTIONARY
360
11DF
102
}
330
2
100
AcDbSymbolTableRecord
100
AcDbLayerTableRecord
  2
hatch
 70
     0
 62
     9
  6
Continuous
370
    -3
390
F
  0
LAYER
  5
8AF
102
{ACAD_XDICTIONARY
360
11E1
102
}
330
2
100
AcDbSymbolTableRecord
100
AcDbLayerTableRecord
  2
9
 70
     0
 62
     9
  6
Continuous
370
    -3
390
F
  0
LAYER
  5
8F8
102
{ACAD_XDICTIONARY
360
11E3
102
}
330
2
100
AcDbSymbolTableRecord
100
AcDbLayerTableRecord
  2
leg fin
 70
     0
 62
     9
  6
Continuous
370
    -3
390
F
  0
LAYER
  5
91D
102
{ACAD_XDICTIONARY
360
11E5
102
}
330
2
100
AcDbSymbolTableRecord
100
AcDbLayerTableRecord
  2
cotas
 70
     0
 62
     1
  6
Continuous
370
    -3
390
F
  0
LAYER
  5
92F
330
2
100
AcDbSymbolTableRecord
100
AcDbLayerTableRecord
  2
Defpoints
 70
     0
 62
     7
  6
Continuous
290
     0
370
    -3
390
F
  0
LAYER
  5
BA5
102
{ACAD_XDICTIONARY
360
11E7
102
}
330
2
100
AcDbSymbolTableRecord
100
AcDbLayerTableRecord
  2
SANINDUSA
 70
     0
 62
     3
  6
Continuous
370
    -3
390
F
  0
LAYER
  5
F89
102
{ACAD_XDICTIONARY
360
11E9
102
}
330
2
100
AcDbSymbolTableRecord
100
AcDbLayerTableRecord
  2
BLOCKS
 70
     0
 62
     3
  6
Continuous
370
    -3
390
F
  0
ENDTAB
  0
TABLE
  2
STYLE
  5
3
330
0
100
AcDbSymbolTable
 70
     4
  0
STYLE
  5
11
330
3
100
AcDbSymbolTableRecord
100
AcDbTextStyleTableRecord
  2
Standard
 70
     0
 40
0.0
 41
1.0
 50
0.0
 71
     0
 42
2.5
  3
Avgardn.ttf
  4

1001
ACAD
1000
AvantGarde Bk BT
1071
       34
  0
STYLE
  5
2C
330
3
100
AcDbSymbolTableRecord
100
AcDbTextStyleTableRecord
  2

 70
     1
 40
0.0
 41
1.0
 50
0.0
 71
     0
 42
2.5
  3
ltypeshp.shx
  4

  0
STYLE
  5
91F
330
3
100
AcDbSymbolTableRecord
100
AcDbTextStyleTableRecord
  2
SANINDUSA
 70
     0
 40
0.0
 41
1.0
 50
0.0
 71
     0
 42
2.5
  3
verdana.TTF
  4

1001
ACAD
1000
Verdana
1071
       34
  0
STYLE
  5
F8A
330
3
100
AcDbSymbolTableRecord
100
AcDbTextStyleTableRecord
  2
LEG-ATT
 70
     0
 40
2.0
 41
0.8
 50
0.0
 71
     0
 42
2.0
  3
ARIAL.TTF
  4

1001
ACAD
1000
Arial
1071
       34
  0
ENDTAB
  0
TABLE
  2
VIEW
  5
6
330
0
100
AcDbSymbolTable
 70
     0
  0
ENDTAB
  0
TABLE
  2
UCS
  5
7
330
0
100
AcDbSymbolTable
 70
     0
  0
ENDTAB
  0
TABLE
  2
APPID
  5
9
330
0
100
AcDbSymbolTable
 70
     3
  0
APPID
  5
12
330
9
100
AcDbSymbolTableRecord
100
AcDbRegAppTableRecord
  2
ACAD
 70
     0
  0
APPID
  5
3A
330
9
100
AcDbSymbolTableRecord
100
AcDbRegAppTableRecord
  2
DCO15
 70
     0
  0
APPID
  5
122C
330
9
100
AcDbSymbolTableRecord
100
AcDbRegAppTableRecord
  2
ACAD_MLEADERVER
 70
     0
  0
ENDTAB
  0
TABLE
  2
DIMSTYLE
  5
A
330
0
100
AcDbSymbolTable
 70
     3
100
AcDbDimStyleTable
 71
     1
340
921
  0
DIMSTYLE
105
45
330
A
100
AcDbSymbolTableRecord
100
AcDbDimStyleTableRecord
  2
STANDARD
 70
     0
289
     0
340
11
  0
DIMSTYLE
105
921
330
A
100
AcDbSymbolTableRecord
100
AcDbDimStyleTableRecord
  2
SANINDUSA
 70
     0
 41
2.0
 42
1.0
 43
1.0
 44
1.0
 73
     0
 74
     0
 77
     1
 78
     8
140
2.0
141
0.0
143
0.03937007874016
147
1.0
171
     3
172
     1
176
   256
177
   256
178
   256
179
     1
271
     1
272
     1
274
     3
278
    44
283
     0
284
     8
340
91F
371
    -1
372
    -1
  0
DIMSTYLE
105
F8B
330
A
100
AcDbSymbolTableRecord
100
AcDbDimStyleTableRecord
  2
ISO-25
 70
     0
 41
2.5
 42
0.625
 43
3.75
 44
1.25
 73
     0
 74
     0
 77
     1
 78
     8
140
2.5
141
2.5
143
0.03937007874016
147
0.625
171
     3
172
     1
271
     2
272
     2
274
     3
278
    44
283
     0
284
     8
340
11
  0
ENDTAB
  0
TABLE
  2
BLOCK_RECORD
  5
1
330
0
100
AcDbSymbolTable
 70
    36
  0
BLOCK_RECORD
  5
1F
102
{ACAD_XDICTIONARY
360
1094
102
}
330
1
100
AcDbSymbolTableRecord
100
AcDbBlockTableRecord
  2
*Model_Space
340
22
  0
BLOCK_RECORD
  5
1B
330
1
100
AcDbSymbolTableRecord
100
AcDbBlockTableRecord
  2
*Paper_Space
340
1E
  0
BLOCK_RECORD
  5
23
330
1
100
AcDbSymbolTableRecord
100
AcDbBlockTableRecord
  2
*Paper_Space0
340
26
  0
BLOCK_RECORD
  5
919
330
1
100
AcDbSymbolTableRecord
100
AcDbBlockTableRecord
  2
_DotSmall
340
0
  0
BLOCK_RECORD
  5
922
330
1
100
AcDbSymbolTableRecord
100
AcDbBlockTableRecord
  2
base para cotas
340
0
310
2800000020000000200000000100080000000000000400000000000000000000000000000000000000000000000080000080000000808000800000008000800080800000C0C0C000C0DCC000F0CAA6000020400000206000002080000020A0000020C0000020E00000400000004020000040400000406000004080000040A0
310
000040C0000040E00000600000006020000060400000606000006080000060A0000060C0000060E00000800000008020000080400000806000008080000080A0000080C0000080E00000A0000000A0200000A0400000A0600000A0800000A0A00000A0C00000A0E00000C0000000C0200000C0400000C0600000C0800000C0
310
A00000C0C00000C0E00000E0000000E0200000E0400000E0600000E0800000E0A00000E0C00000E0E00040000000400020004000400040006000400080004000A0004000C0004000E00040200000402020004020400040206000402080004020A0004020C0004020E000404000004040200040404000404060004040800040
310
40A0004040C0004040E00040600000406020004060400040606000406080004060A0004060C0004060E00040800000408020004080400040806000408080004080A0004080C0004080E00040A0000040A0200040A0400040A0600040A0800040A0A00040A0C00040A0E00040C0000040C0200040C0400040C0600040C08000
310
40C0A00040C0C00040C0E00040E0000040E0200040E0400040E0600040E0800040E0A00040E0C00040E0E00080000000800020008000400080006000800080008000A0008000C0008000E00080200000802020008020400080206000802080008020A0008020C0008020E00080400000804020008040400080406000804080
310
008040A0008040C0008040E00080600000806020008060400080606000806080008060A0008060C0008060E00080800000808020008080400080806000808080008080A0008080C0008080E00080A0000080A0200080A0400080A0600080A0800080A0A00080A0C00080A0E00080C0000080C0200080C0400080C0600080C0
310
800080C0A00080C0C00080C0E00080E0000080E0200080E0400080E0600080E0800080E0A00080E0C00080E0E000C0000000C0002000C0004000C0006000C0008000C000A000C000C000C000E000C0200000C0202000C0204000C0206000C0208000C020A000C020C000C020E000C0400000C0402000C0404000C0406000C0
310
408000C040A000C040C000C040E000C0600000C0602000C0604000C0606000C0608000C060A000C060C000C060E000C0800000C0802000C0804000C0806000C0808000C080A000C080C000C080E000C0A00000C0A02000C0A04000C0A06000C0A08000C0A0A000C0A0C000C0A0E000C0C00000C0C02000C0C04000C0C06000
310
C0C08000C0C0A000F0FBFF00A4A0A000808080000000FF0000FF000000FFFF00FF000000FF00FF00FFFF0000FFFFFF00A4A4A4A4A4A4A4A4A4A4A4A4A4A4A4A4A4A4A4A4A4A4A4A4A4A4A4A4A4A4A4A4A4A4A4A4A4A4A4A4A4A4A4A4A4A4A4A4A4A4A4A4A4A4A4A4A4A4A4A4A4A4A4A4A4A4A4A4A4A4A4A4A4A4A4A4A4A4A4
310
A4A4A4A4A4A4A4A4A4A4A4A4A4A4A4A4A4A4A4A4A4A4A4A4A4A4A4A4A4A4A4A4A4A4A4A4A4A4A4A4A4A4A4A4A4A4A4A4A4A4A4A4A4A4A4A4A4A4A4A4A4A4A4A4A4A4A4A4A4A4A4A4A4A4A4A4A4A4A4A4A4A4A4A4A4A4A4A4A4A4A4A4A4A4A4A4A4A4A4A4A4A4A4A4A4A4A4A4A4A4A4A4A4A4A4A4A4A4A4A4A4A4A4A4A4A4A4
310
A4A4A4A4A4A4A4A4A4A4A4A4A4A4A4A4A4A4A4A4A4A4A4A4A4A4A4A4A4A4A4A4A4A4A4A4A4A4A4A4A4A4A4A4A4A4A4A4A4A4A4A4A4A4A4A4A4A4A4A4A4A4A4A4A4A4A4A4A4A4A4A4A4A4A4A4A4A4A4A4A4A4A4A4A4A4A4A4A4A4A4A4A4A4A4A4A4A4A4A4A4A4A4A4A4A4A4A4A4A4A4A4A4A4A4A4A4A4A4A4A4A4A4A4A4A4A4
310
A4A4A4A4A4A4A4A4A4A4A4A4A4A4A4A4A4A4A4A4A4A4A4A4A4A4A4A4A4A4A4A4A4A4A4A4A4A4A4A4A4A4A4A4A4A4A4A4A4A4A4A4A4A4A4A4A4A4A4A4A4A4A4A4A4A4A4A4A4A4A4A4A4A4A4A4A4A4A4A4A4A4A4A4A4A4A4A4A4A4A4A4A4A4A4A4A4A4A4A4A4A4A4A4A4A4A4A4A4A4A4A4A4A4A4A4F9F9F9F9F9F9F9F9F9F9F9
310
F9F9F9F9F9F9F9F9F9F9F9F9F9F9F9F9F9F9F9A4A4F9F9F9F9F9F9F9F9F9F9F9F9F9F9F9F9F9F9F9F9F9F9F9F9F9F9F9F9F9F9A4A4F9F9F9F9F9F9F9F9F9F9F9F9F9F9F9F9F9F9F9F9F9F9F9F9F9F9F9F9F9F9A4A4F9A4A4A4A4A4A4A4A4A4A4A4A4A4A4A4A4A4A4A4A4A4A4A4A4A4A4A4A4F9A4A4A4A4A4A4A4A4A4A4A4A4
310
A4A4A4A4A4A4A4A4A4A4A4A4A4A4A4A4A4A4A4A4A4A4A4A4A4A4A4A4A4A4A4A4A4A4A4A4A4A4A4A4A4A4A4A4A4A4A4A4A4A4A4A4A4A4A4A4A4A4A4A4A4A4A4A4A4A4A4A4A4A4A4A4A4A4A4A4A4A4A4A4A4A4A4A4A4A4A4A4A4A4A4A4A4A4A4A4A4A4A4A4A4A4A4A4A4A4A4A4A4A4A4A4A4A4A4A4A4A4A4A4A4A4A4A4A4A4A4
310
A4A4A4A4A4A4A4A4A4A4A4A4A4A4A4A4A4A4A4A4A4A4A4A4A4A4A4A4A4A4A4A4A4A4A4A4A4A4A4A4A4A4A4A4A4A4A4A4A4A4A4A4A4A4A4A4A4A4A4A4A4A4A4A4A4A4A4A4A4A4A4A4A4A4A4A4A4A4A4A4A4A4A4A4A4A4A4A4A4A4A4A4A4A4A4A4A4A4A4A4A4A4A4A4A4A4A4A4A4A4A4A4A4A4A4A4A4A4A4A4A4A4A4A4A4A4A4
310
A4A4A4A4A4A4A4A4A4A4A4A4A4A4A4A4A4A4A4A4A4A4A4A4A4A4A4A4A4A4A4A4A4A4A4A4A4A4A4A4A4A4A4A4A4A4A4A4A4A4A4A4A4A4A4A4A4A4A4A4A4A4A4A4A4A4A4A4A4A4A4A4A4A4A4A4A4A4A4A4A4A4A4A4A4A4A4A4A4A4A4A4A4A4A4A4A4A4A4A4A4A4A4A4A4A4A4A4A4A4A4A4A4A4A4A4A4A4A4A4A4A4A4A4A4A4A4
310
A4A4A4A4A4A4A4A4A4A4A4A4A4A4A4A4A4A4A4A4A4A4A4A4A4A4A4A4A4A4A4A4A4A4A4A4A4A4A4A4A4A4A4A4A4A4A4A4A4A4A4A4A4A4A4A4
1001
ACAD
1000
DesignCenter Data
1002
{
1070
     1
1070
     4
1002
}
  0
BLOCK_RECORD
  5
AA8
330
1
100
AcDbSymbolTableRecord
100
AcDbBlockTableRecord
  2
_CLOSED
340
0
  0
BLOCK_RECORD
  5
F8C
330
1
100
AcDbSymbolTableRecord
100
AcDbBlockTableRecord
  2
114320PL
340
0
1001
ACAD
1000
DesignCenter Data
1002
{
1070
     1
1070
     4
1002
}
  0
BLOCK_RECORD
  5
FB8
330
1
100
AcDbSymbolTableRecord
100
AcDbBlockTableRecord
  2
114320CT
340
0
1001
ACAD
1000
DesignCenter Data
1002
{
1070
     1
1070
     4
1002
}
  0
BLOCK_RECORD
  5
1038
330
1
100
AcDbSymbolTableRecord
100
AcDbBlockTableRecord
  2
114320AL
340
0
1001
ACAD
1000
DesignCenter Data
1002
{
1070
     1
1070
     4
1002
}
  0
BLOCK_RECORD
  5
1058
330
1
100
AcDbSymbolTableRecord
100
AcDbBlockTableRecord
  2
114320AF
340
0
1001
ACAD
1000
DesignCenter Data
1002
{
1070
     1
1070
     4
1002
}
  0
BLOCK_RECORD
  5
10B1
330
1
100
AcDbSymbolTableRecord
100
AcDbBlockTableRecord
  2
114300PL
340
0
102
{BLKREFS
331
10D4
102
}
1001
ACAD
1000
DesignCenter Data
1002
{
1070
     1
1070
     4
1002
}
  0
BLOCK_RECORD
  5
10D5
330
1
100
AcDbSymbolTableRecord
100
AcDbBlockTableRecord
  2
114300CT
340
0
102
{BLKREFS
331
1144
102
}
1001
ACAD
1000
DesignCenter Data
1002
{
1070
     1
1070
     4
1002
}
  0
BLOCK_RECORD
  5
1145
330
1
100
AcDbSymbolTableRecord
100
AcDbBlockTableRecord
  2
114300AL
340
0
102
{BLKREFS
331
115C
102
}
1001
ACAD
1000
DesignCenter Data
1002
{
1070
     1
1070
     4
1002
}
  0
BLOCK_RECORD
  5
115D
330
1
100
AcDbSymbolTableRecord
100
AcDbBlockTableRecord
  2
114300AF
340
0
102
{BLKREFS
331
1173
102
}
1001
ACAD
1000
DesignCenter Data
1002
{
1070
     1
1070
     4
1002
}
  0
ENDTAB
  0
ENDSEC
  0
SECTION
  2
BLOCKS
  0
BLOCK
  5
20
330
1F
100
AcDbEntity
  8
0
100
AcDbBlockBegin
  2
*Model_Space
 70
     0
 10
0.0
 20
0.0
 30
0.0
  3
*Model_Space
  1

  0
ENDBLK
  5
21
330
1F
100
AcDbEntity
  8
0
100
AcDbBlockEnd
  0
BLOCK
  5
1C
330
1B
100
AcDbEntity
 67
     1
  8
0
100
AcDbBlockBegin
  2
*Paper_Space
 70
     0
 10
0.0
 20
0.0
 30
0.0
  3
*Paper_Space
  1

  0
ENDBLK
  5
1D
330
1B
100
AcDbEntity
 67
     1
  8
0
100
AcDbBlockEnd
  0
BLOCK
  5
24
330
23
100
AcDbEntity
 67
     1
  8
0
100
AcDbBlockBegin
  2
*Paper_Space0
 70
     0
 10
0.0
 20
0.0
 30
0.0
  3
*Paper_Space0
  1

  0
ENDBLK
  5
25
330
23
100
AcDbEntity
 67
     1
  8
0
100
AcDbBlockEnd
  0
BLOCK
  5
91B
330
919
100
AcDbEntity
  8
0
100
AcDbBlockBegin
  2
_DotSmall
 70
     0
 10
0.0
 20
0.0
 30
0.0
  3
_DotSmall
  1

  0
LWPOLYLINE
  5
91A
330
919
100
AcDbEntity
  8
0
  6
ByBlock
 62
     0
100
AcDbPolyline
 90
        2
 70
     1
 43
0.5
 10
-0.0625
 20
0.0
 42
1.0
 10
0.0625
 20
0.0
 42
1.0
  0
ENDBLK
  5
91C
330
919
100
AcDbEntity
  8
0
100
AcDbBlockEnd
  0
BLOCK
  5
92A
330
922
100
AcDbEntity
  8
0
100
AcDbBlockBegin
  2
base para cotas
 70
     0
 10
0.0
 20
0.0
 30
0.0
  3
base para cotas
  1

  0
LINE
  5
B36
330
922
100
AcDbEntity
  8
cotas
100
AcDbLine
 10
0.0
 20
-30.0
 30
0.0
 11
327.1260136525398
 21
-30.0
 31
0.0
  0
LINE
  5
B37
330
922
100
AcDbEntity
  8
cotas
100
AcDbLine
 10
0.0
 20
-25.0
 30
0.0
 11
327.1260136525398
 21
-25.0
 31
0.0
  0
LINE
  5
B38
330
922
100
AcDbEntity
  8
cotas
100
AcDbLine
 10
0.0
 20
-20.0
 30
0.0
 11
327.1260136525398
 21
-20.0
 31
0.0
  0
LINE
  5
B39
330
922
100
AcDbEntity
  8
cotas
100
AcDbLine
 10
0.0
 20
-15.0
 30
0.0
 11
327.1260136525398
 21
-15.0
 31
0.0
  0
LINE
  5
B3A
330
922
100
AcDbEntity
  8
cotas
100
AcDbLine
 10
0.0
 20
-10.0
 30
0.0
 11
327.1260136525398
 21
-10.0
 31
0.0
  0
LINE
  5
B3B
330
922
100
AcDbEntity
  8
cotas
100
AcDbLine
 10
0.0
 20
0.0
 30
0.0
 11
0.0
 21
-30.0
 31
0.0
  0
LINE
  5
B3C
330
922
100
AcDbEntity
  8
cotas
100
AcDbLine
 10
327.1260136525398
 20
-30.0
 30
0.0
 11
327.1260136525398
 21
0.0
 31
0.0
  0
ENDBLK
  5
92B
330
922
100
AcDbEntity
  8
0
100
AcDbBlockEnd
  0
BLOCK
  5
AAD
330
AA8
100
AcDbEntity
  8
0
100
AcDbBlockBegin
  2
_CLOSED
 70
     0
 10
0.0
 20
0.0
 30
0.0
  3
_CLOSED
  1

  0
LINE
  5
AA9
330
AA8
100
AcDbEntity
  8
0
100
AcDbLine
 10
-1.0
 20
0.166667
 30
0.0
 11
0.0
 21
0.0
 31
0.0
  0
LINE
  5
AAA
330
AA8
100
AcDbEntity
  8
0
100
AcDbLine
 10
0.0
 20
0.0
 30
0.0
 11
-1.0
 21
-0.166667
 31
0.0
  0
LINE
  5
AAB
330
AA8
100
AcDbEntity
  8
0
100
AcDbLine
 10
-1.0
 20
0.166667
 30
0.0
 11
-1.0
 21
-0.166667
 31
0.0
  0
LINE
  5
AAC
330
AA8
100
AcDbEntity
  8
0
100
AcDbLine
 10
0.0
 20
0.0
 30
0.0
 11
-1.0
 21
0.0
 31
0.0
  0
ENDBLK
  5
AAE
330
AA8
100
AcDbEntity
  8
0
100
AcDbBlockEnd
  0
BLOCK
  5
FB3
330
F8C
100
AcDbEntity
  8
0
100
AcDbBlockBegin
  2
114320PL
 70
     0
 10
0.0
 20
0.0
 30
0.0
  3
114320PL
  1

  0
ARC
  5
F8D
330
F8C
100
AcDbEntity
  8
BLOCKS
100
AcDbCircle
 10
0.2427836631736162
 20
-0.0120000000000005
 30
0.0
 40
0.012
100
AcDbArc
 50
23.95919677929448
 51
90.0
  0
ARC
  5
F8E
330
F8C
100
AcDbEntity
  8
BLOCKS
100
AcDbCircle
 10
0.2819097243142894
 20
0.0053866683231308
 30
0.0
 40
0.0308152413955858
100
AcDbArc
 50
203.9591967792945
 51
237.9743018988534
  0
ARC
  5
F8F
330
F8C
100
AcDbEntity
  8
BLOCKS
100
AcDbCircle
 10
0.1566387980646922
 20
-0.158520158134944
 30
0.0
 40
0.1764440919655268
100
AcDbArc
 50
12.96296146523024
 51
46.91980718883736
  0
ARC
  5
F90
330
F8C
100
AcDbEntity
  8
BLOCKS
100
AcDbCircle
 10
0.181865502207014
 20
-0.1417454632949171
 30
0.0
 40
0.0907721013780343
100
AcDbArc
 50
13.41267544674266
 51
55.6082691265841
  0
ARC
  5
F91
330
F8C
100
AcDbEntity
  8
BLOCKS
100
AcDbCircle
 10
0.0667851835076499
 20
-0.4800471982171423
 30
0.0
 40
0.3219021957133211
100
AcDbArc
 50
50.98014253167205
 51
50.98772805637428
  0
ARC
  5
F92
330
F8C
100
AcDbEntity
  8
BLOCKS
100
AcDbCircle
 10
0.2256604430646576
 20
-0.2614654836217085
 30
0.0
 40
0.0516813340930787
100
AcDbArc
 50
7.430366645067593
 51
53.98861875876924
  0
ARC
  5
F93
330
F8C
100
AcDbEntity
  8
BLOCKS
100
AcDbCircle
 10
0.1460265501063975
 20
-0.2924766671038145
 30
0.0
 40
0.1383582144817593
100
AcDbArc
 50
27.94603777403589
 51
75.37747485979074
  0
ARC
  5
F94
330
F8C
100
AcDbEntity
  8
BLOCKS
100
AcDbCircle
 10
0.1366027824606417
 20
-0.2531038611551395
 30
0.0
 40
0.1420777183602326
100
AcDbArc
 50
330.9190641486725
 51
351.9335490723096
  0
ARC
  5
F95
330
F8C
100
AcDbEntity
  8
BLOCKS
100
AcDbCircle
 10
0.1975795757435142
 20
-0.2651276864069439
 30
0.0
 40
0.08
100
AcDbArc
 50
352.553126109233
 51
27.94603777403589
  0
ARC
  5
F96
330
F8C
100
AcDbEntity
  8
BLOCKS
100
AcDbCircle
 10
-0.1279081658590086
 20
-0.2156163846991382
 30
0.0
 40
0.4092318923347376
100
AcDbArc
 50
351.9335490723096
 51
13.41267544674266
  0
ARC
  5
F97
330
F8C
100
AcDbEntity
  8
BLOCKS
100
AcDbCircle
 10
0.2253399320506924
 20
-0.0850536351312076
 30
0.0
 40
0.0758599191885889
100
AcDbArc
 50
46.91980718883736
 51
57.97430189885345
  0
ARC
  5
F98
330
F8C
100
AcDbEntity
  8
BLOCKS
100
AcDbCircle
 10
-0.2427836631736173
 20
-0.0120000000000005
 30
0.0
 40
0.012
100
AcDbArc
 50
90.0
 51
156.0408032207055
  0
ARC
  5
F99
330
F8C
100
AcDbEntity
  8
BLOCKS
100
AcDbCircle
 10
-0.2819097243142906
 20
0.0053866683231308
 30
0.0
 40
0.0308152413955858
100
AcDbArc
 50
302.0256981011465
 51
336.0408032207055
  0
ARC
  5
F9A
330
F8C
100
AcDbEntity
  8
BLOCKS
100
AcDbCircle
 10
0.0178577206902401
 20
-1.296980746617659
 30
0.0
 40
1.158539144135418
100
AcDbArc
 50
90.88319203793608
 51
96.38684736367217
  0
CIRCLE
  5
F9B
330
F8C
100
AcDbEntity
  8
BLOCKS
100
AcDbCircle
 10
0.0
 20
-0.0664466666967508
 30
0.0
 40
0.0150018086742356
  0
ARC
  5
F9C
330
F8C
100
AcDbEntity
  8
BLOCKS
100
AcDbCircle
 10
0.0
 20
-0.9848053934868403
 30
0.0
 40
0.8310594370720913
100
AcDbArc
 50
82.46290295280266
 51
97.53709704719733
  0
CIRCLE
  5
F9D
330
F8C
100
AcDbEntity
  8
BLOCKS
100
AcDbCircle
 10
0.0
 20
-0.2047467838092376
 30
0.0
 40
0.0220307947289962
  0
ARC
  5
F9E
330
F8C
100
AcDbEntity
  8
BLOCKS
100
AcDbCircle
 10
-0.0178577206902412
 20
-1.296980746617659
 30
0.0
 40
1.158539144135418
100
AcDbArc
 50
83.61315263632786
 51
89.11680796206391
  0
ARC
  5
F9F
330
F8C
100
AcDbEntity
  8
BLOCKS
100
AcDbCircle
 10
-0.1818655022070153
 20
-0.1417454632949171
 30
0.0
 40
0.0907721013780343
100
AcDbArc
 50
124.3917308734159
 51
166.5873245532573
  0
ARC
  5
FA0
330
F8C
100
AcDbEntity
  8
BLOCKS
100
AcDbCircle
 10
-0.2256604430646585
 20
-0.2614654836217085
 30
0.0
 40
0.0516813340930787
100
AcDbArc
 50
126.0113812412307
 51
172.5696333549324
  0
ARC
  5
FA1
330
F8C
100
AcDbEntity
  8
BLOCKS
100
AcDbCircle
 10
-0.1460265501063988
 20
-0.2924766671038145
 30
0.0
 40
0.1383582144817593
100
AcDbArc
 50
104.6225251402092
 51
152.0539622259641
  0
ARC
  5
FA2
330
F8C
100
AcDbEntity
  8
BLOCKS
100
AcDbCircle
 10
-0.1566387980646934
 20
-0.158520158134944
 30
0.0
 40
0.1764440919655268
100
AcDbArc
 50
133.0801928111626
 51
167.0370385347698
  0
ARC
  5
FA3
330
F8C
100
AcDbEntity
  8
BLOCKS
100
AcDbCircle
 10
-0.1366027824606428
 20
-0.2531038611551395
 30
0.0
 40
0.1420777183602326
100
AcDbArc
 50
188.0664509276903
 51
209.0809358513275
  0
ARC
  5
FA4
330
F8C
100
AcDbEntity
  8
BLOCKS
100
AcDbCircle
 10
-0.1975795757435154
 20
-0.2651276864069439
 30
0.0
 40
0.08
100
AcDbArc
 50
152.0539622259641
 51
187.4468738907669
  0
ARC
  5
FA5
330
F8C
100
AcDbEntity
  8
BLOCKS
100
AcDbCircle
 10
0.1279081658590076
 20
-0.2156163846991382
 30
0.0
 40
0.4092318923347376
100
AcDbArc
 50
166.5873245532573
 51
188.0664509276903
  0
ARC
  5
FA6
330
F8C
100
AcDbEntity
  8
BLOCKS
100
AcDbCircle
 10
-0.0559253630170935
 20
-0.6378238042129261
 30
0.0
 40
0.4952655820498182
100
AcDbArc
 50
96.38684736367217
 51
104.6225251402092
  0
ARC
  5
FA7
330
F8C
100
AcDbEntity
  8
BLOCKS
100
AcDbCircle
 10
-0.066785183507651
 20
-0.4800471982171423
 30
0.0
 40
0.3219021957133211
100
AcDbArc
 50
97.53709704719733
 51
126.0113812412307
  0
ARC
  5
FA8
330
F8C
100
AcDbEntity
  8
BLOCKS
100
AcDbCircle
 10
-0.1205766839727559
 20
-0.2312832429005005
 30
0.0
 40
0.1992770930477736
100
AcDbArc
 50
97.89457602712264
 51
124.3917308734159
  0
ARC
  5
FA9
330
F8C
100
AcDbEntity
  8
BLOCKS
100
AcDbCircle
 10
-0.0175310111996387
 20
-0.9744101189590997
 30
0.0
 40
0.9495143652476269
100
AcDbArc
 50
88.9420802197433
 51
97.89457602712264
  0
ARC
  5
FAA
330
F8C
100
AcDbEntity
  8
BLOCKS
100
AcDbCircle
 10
-0.2253399320506934
 20
-0.0850536351312076
 30
0.0
 40
0.0758599191885889
100
AcDbArc
 50
122.0256981011465
 51
133.0801928111626
  0
ARC
  5
FAB
330
F8C
100
AcDbEntity
  8
BLOCKS
100
AcDbCircle
 10
0.0175310111996376
 20
-0.9744101189590997
 30
0.0
 40
0.9495143652476269
100
AcDbArc
 50
82.10542397287735
 51
91.05791978025669
  0
ARC
  5
FAC
330
F8C
100
AcDbEntity
  8
BLOCKS
100
AcDbCircle
 10
-0.0023899681227397
 20
-0.1784604476121581
 30
0.0
 40
0.295650888926738
100
AcDbArc
 50
209.0809358513275
 51
270.4631698505216
  0
ARC
  5
FAD
330
F8C
100
AcDbEntity
  8
BLOCKS
100
AcDbCircle
 10
0.0023899681227385
 20
-0.1784604476121581
 30
0.0
 40
0.295650888926738
100
AcDbArc
 50
269.5368301494784
 51
330.9190641486725
  0
ARC
  5
FAE
330
F8C
100
AcDbEntity
  8
BLOCKS
100
AcDbCircle
 10
0.0
 20
-0.1945764346554608
 30
0.0
 40
0.3371791787875258
100
AcDbArc
 50
167.0370385347698
 51
12.96296146523024
  0
ARC
  5
FAF
330
F8C
100
AcDbEntity
  8
BLOCKS
100
AcDbCircle
 10
0.0559253630170923
 20
-0.6378238042129261
 30
0.0
 40
0.4952655820498182
100
AcDbArc
 50
75.37747485979074
 51
83.61315263632786
  0
ARC
  5
FB0
330
F8C
100
AcDbEntity
  8
BLOCKS
100
AcDbCircle
 10
0.0667851835076499
 20
-0.4800471982171423
 30
0.0
 40
0.3219021957133211
100
AcDbArc
 50
53.98861875876924
 51
82.46290295278653
  0
LINE
  5
FB1
330
F8C
100
AcDbEntity
  8
BLOCKS
100
AcDbLine
 10
-0.2427836631736173
 20
0.0
 30
0.0
 11
0.2427836631736153
 21
0.0
 31
0.0
  0
ARC
  5
FB2
330
F8C
100
AcDbEntity
  8
BLOCKS
100
AcDbCircle
 10
0.1205766839727548
 20
-0.2312832429005005
 30
0.0
 40
0.1992770930477736
100
AcDbArc
 50
55.6082691265841
 51
82.10542397287735
  0
ENDBLK
  5
FB4
330
F8C
100
AcDbEntity
  8
0
100
AcDbBlockEnd
  0
BLOCK
  5
1035
330
FB8
100
AcDbEntity
  8
0
100
AcDbBlockBegin
  2
114320CT
 70
     0
 10
0.0
 20
0.0
 30
0.0
  3
114320CT
  1

  0
ARC
  5
FB9
330
FB8
100
AcDbEntity
  8
BLOCKS
100
AcDbCircle
 10
0.5006456352619643
 20
0.8212068591437224
 30
0.0
 40
0.0137992167519187
100
AcDbArc
 50
315.0843079372739
 51
16.80038137311079
  0
ARC
  5
FBA
330
FB8
100
AcDbEntity
  8
BLOCKS
100
AcDbCircle
 10
0.5009119625580042
 20
0.8083853474963451
 30
0.0
 40
0.025
100
AcDbArc
 50
104.3186405604271
 51
142.5093253325362
  0
ARC
  5
FBB
330
FB8
100
AcDbEntity
  8
BLOCKS
100
AcDbCircle
 10
0.5142012142032991
 20
0.8293223708059263
 30
0.0
 40
0.008
100
AcDbArc
 50
30.90829295050538
 51
104.3186405604271
  0
LINE
  5
FBC
330
FB8
100
AcDbEntity
  8
BLOCKS
100
AcDbLine
 10
0.4972022486819504
 20
0.8229193773214769
 30
0.0
 11
0.5114466042971015
 21
0.8265551537934367
 31
0.0
  0
ARC
  5
FBD
330
FB8
100
AcDbEntity
  8
BLOCKS
100
AcDbCircle
 10
0.5119412328139084
 20
0.824617283150086
 30
0.0
 40
0.002
100
AcDbArc
 50
16.80038137311079
 51
104.3186405604271
  0
LINE
  5
FBE
330
FB8
100
AcDbEntity
  8
BLOCKS
100
AcDbLine
 10
0.4947291060979138
 20
0.832608730538231
 30
0.0
 11
0.5122227001360694
 21
0.8370738533793304
 31
0.0
  0
ARC
  5
FBF
330
FB8
100
AcDbEntity
  8
BLOCKS
100
AcDbCircle
 10
0.5009119625580042
 20
0.8083853474963451
 30
0.0
 40
0.015
100
AcDbArc
 50
104.3186405604271
 51
142.5093253325362
  0
ARC
  5
FC0
330
FB8
100
AcDbEntity
  8
BLOCKS
100
AcDbCircle
 10
0.5006456352619643
 20
0.8212068591437224
 30
0.0
 40
0.0237992167519187
100
AcDbArc
 50
315.0843079372739
 51
30.90829295050538
  0
ARC
  5
FC1
330
FB8
100
AcDbEntity
  8
BLOCKS
100
AcDbCircle
 10
0.247342058846051
 20
1.073766082653699
 30
0.0
 40
0.3714986201691667
100
AcDbArc
 50
302.1123874224463
 51
315.0843079372739
  0
ARC
  5
FC2
330
FB8
100
AcDbEntity
  8
BLOCKS
100
AcDbCircle
 10
0.247342058846051
 20
1.073766082653699
 30
0.0
 40
0.3814986201691667
100
AcDbArc
 50
302.1123874224463
 51
315.0843079372739
  0
ARC
  5
FC3
330
FB8
100
AcDbEntity
  8
BLOCKS
100
AcDbCircle
 10
0.4034465688619446
 20
0.7374739140789468
 30
0.0
 40
0.001
100
AcDbArc
 50
122.7071361886927
 51
295.535170667516
  0
ARC
  5
FC4
330
FB8
100
AcDbEntity
  8
BLOCKS
100
AcDbCircle
 10
0.3136012646073846
 20
0.6649084743156016
 30
0.0
 40
0.030082917844197
100
AcDbArc
 50
100.9929253212399
 51
142.6048817321192
  0
ARC
  5
FC5
330
FB8
100
AcDbEntity
  8
BLOCKS
100
AcDbCircle
 10
0.2874771860590522
 20
0.6780042263947803
 30
0.0
 40
0.004
100
AcDbArc
 50
90.0
 51
92.60705135301922
  0
LINE
  5
FC6
330
FB8
100
AcDbEntity
  8
BLOCKS
100
AcDbLine
 10
0.2874771860590522
 20
0.6820042263947802
 30
0.0
 11
0.2871588120257673
 21
0.6820042263947802
 31
0.0
  0
ARC
  5
FC7
330
FB8
100
AcDbEntity
  8
BLOCKS
100
AcDbCircle
 10
0.2873179990424091
 20
0.6850000000000001
 30
0.0
 40
0.003
100
AcDbArc
 50
223.4784714133215
 51
322.6048817321192
  0
ARC
  5
FC8
330
FB8
100
AcDbEntity
  8
BLOCKS
100
AcDbCircle
 10
0.2874771860590522
 20
0.6780042263947803
 30
0.0
 40
0.004
100
AcDbArc
 50
0.0
 51
90.0
  0
ARC
  5
FC9
330
FB8
100
AcDbEntity
  8
BLOCKS
100
AcDbCircle
 10
0.2190875265454542
 20
1.024563975800038
 30
0.0
 40
0.3401875730780268
100
AcDbArc
 50
302.7071361886927
 51
322.5093253325363
  0
ARC
  5
FCA
330
FB8
100
AcDbEntity
  8
BLOCKS
100
AcDbCircle
 10
0.2282796785518531
 20
1.104139530986404
 30
0.0
 40
0.417358356728435
100
AcDbArc
 50
280.9929253212399
 51
302.1123874224463
  0
ARC
  5
FCB
330
FB8
100
AcDbEntity
  8
BLOCKS
100
AcDbCircle
 10
0.2282796785518531
 20
1.104139530986404
 30
0.0
 40
0.407358356728435
100
AcDbArc
 50
295.535170667516
 51
302.1123874224463
  0
ARC
  5
FCC
330
FB8
100
AcDbEntity
  8
BLOCKS
100
AcDbCircle
 10
5.817478457225765
 20
0.7466812615824593
 30
0.0
 40
5.688870364704438
100
AcDbArc
 50
179.1820088647469
 51
179.3351902605356
  0
LINE
  5
FCD
330
FB8
100
AcDbEntity
  8
BLOCKS
100
AcDbLine
 10
0.1389685582303662
 20
0.8106652137078498
 30
0.0
 11
0.1309909066357267
 21
0.8106652137078498
 31
0.0
  0
ARC
  5
FCE
330
FB8
100
AcDbEntity
  8
BLOCKS
100
AcDbCircle
 10
0.1309909066357267
 20
0.8126652137078497
 30
0.0
 40
0.002
100
AcDbArc
 50
179.3351902604705
 51
270.0
  0
ARC
  5
FCF
330
FB8
100
AcDbEntity
  8
BLOCKS
100
AcDbCircle
 10
0.131247011896196
 20
0.8319250009349445
 30
0.0
 40
0.008
100
AcDbArc
 50
359.1411287581059
 51
90.0
  0
ARC
  5
FD0
330
FB8
100
AcDbEntity
  8
BLOCKS
100
AcDbCircle
 10
0.1271880461230728
 20
0.8279250009349448
 30
0.0
 40
0.002
100
AcDbArc
 50
359.1820088647469
 51
90.0
  0
LINE
  5
FD1
330
FB8
100
AcDbEntity
  8
BLOCKS
100
AcDbLine
 10
0.2158639752128653
 20
0.68152294122789
 30
0.0
 11
0.2255091730851416
 21
0.6894189847816279
 31
0.0
  0
ARC
  5
FD2
330
FB8
100
AcDbEntity
  8
BLOCKS
100
AcDbCircle
 10
0.0842025988969687
 20
1.692503123762825
 30
0.0
 40
1.024423578765627
100
AcDbArc
 50
278.4938644702622
 51
280.7565515320008
  0
ARC
  5
FD3
330
FB8
100
AcDbEntity
  8
BLOCKS
100
AcDbCircle
 10
0.2413455450768242
 20
0.6700744940377217
 30
0.0
 40
0.025
100
AcDbArc
 50
93.59282466050373
 51
129.3054797579113
  0
ARC
  5
FD4
330
FB8
100
AcDbEntity
  8
BLOCKS
100
AcDbCircle
 10
5.817478457225765
 20
0.7466812615824593
 30
0.0
 40
5.688870364704438
100
AcDbArc
 50
179.5770037012465
 51
180.3581341587151
  0
LINE
  5
FD5
330
FB8
100
AcDbEntity
  8
BLOCKS
100
AcDbLine
 10
0.158124923213752
 20
0.6890979713147669
 30
0.0
 11
0.167342822743916
 21
0.6799292900736499
 31
0.0
  0
ARC
  5
FD6
330
FB8
100
AcDbEntity
  8
BLOCKS
100
AcDbCircle
 10
0.1594689663866393
 20
0.7113147323822484
 30
0.0
 40
0.0307503421339296
100
AcDbArc
 50
180.3581341587151
 51
248.6755842865472
  0
ARC
  5
FD7
330
FB8
100
AcDbEntity
  8
BLOCKS
100
AcDbCircle
 10
0.1998405397509265
 20
1.992101862662756
 30
0.0
 40
1.313019115030896
100
AcDbArc
 50
266.3598526460816
 51
266.3830023969013
  0
ARC
  5
FD8
330
FB8
100
AcDbEntity
  8
BLOCKS
100
AcDbCircle
 10
0.1417409910825222
 20
0.6659020166542519
 30
0.0
 40
0.018
100
AcDbArc
 50
45.15337237179497
 51
68.67558428654723
  0
ARC
  5
FD9
330
FB8
100
AcDbEntity
  8
BLOCKS
100
AcDbCircle
 10
0.1524832317799019
 20
0.6834259947840304
 30
0.0
 40
0.008
100
AcDbArc
 50
45.15337237179497
 51
75.93755895680963
  0
ARC
  5
FDA
330
FB8
100
AcDbEntity
  8
BLOCKS
100
AcDbCircle
 10
0.1594689663866393
 20
0.7113147323822484
 30
0.0
 40
0.0207503421339296
100
AcDbArc
 50
180.3581341587151
 51
255.9375589568097
  0
LINE
  5
FDB
330
FB8
100
AcDbEntity
  8
BLOCKS
100
AcDbLine
 10
0.1387784271947947
 20
0.7906652137078493
 30
0.0
 11
0.1307630702279664
 21
0.7906652137078493
 31
0.0
  0
ARC
  5
FDC
330
FB8
100
AcDbEntity
  8
BLOCKS
100
AcDbCircle
 10
0.1307630702279664
 20
0.7886652137078494
 30
0.0
 40
0.002
100
AcDbArc
 50
90.0
 51
179.5770037012465
  0
LINE
  5
FDD
330
FB8
100
AcDbEntity
  8
BLOCKS
100
AcDbLine
 10
0.2287212151003621
 20
0.6916528696171156
 30
0.0
 11
0.1528366326133562
 21
0.6916528696171156
 31
0.0
  0
ARC
  5
FDE
330
FB8
100
AcDbEntity
  8
BLOCKS
100
AcDbCircle
 10
5.817478457225765
 20
0.7466812615824593
 30
0.0
 40
5.678870364704438
100
AcDbArc
 50
179.1411287581059
 51
180.3581341587151
  0
ARC
  5
FDF
330
FB8
100
AcDbEntity
  8
BLOCKS
100
AcDbCircle
 10
0.108349464062261
 20
0.8279250009349448
 30
0.0
 40
0.002
100
AcDbArc
 50
90.0
 51
186.4513746448958
  0
ARC
  5
FE0
330
FB8
100
AcDbEntity
  8
BLOCKS
100
AcDbCircle
 10
0.0864533922805163
 20
0.8379250009349448
 30
0.0
 40
0.002
100
AcDbArc
 50
90.0
 51
180.0
  0
ARC
  5
FE1
330
FB8
100
AcDbEntity
  8
BLOCKS
100
AcDbCircle
 10
0.0864533922805163
 20
0.8319250009349445
 30
0.0
 40
0.002
100
AcDbArc
 50
180.0
 51
270.0
  0
LINE
  5
FE2
330
FB8
100
AcDbEntity
  8
BLOCKS
100
AcDbLine
 10
0.0844533922805164
 20
0.8379250009349448
 30
0.0
 11
0.0844533922805164
 21
0.8319250009349445
 31
0.0
  0
ARC
  5
FE3
330
FB8
100
AcDbEntity
  8
BLOCKS
100
AcDbCircle
 10
0.0906866129511036
 20
0.8239250009349444
 30
0.0
 40
0.006
100
AcDbArc
 50
6.425913665782234
 51
90.0
  0
LINE
  5
FE4
330
FB8
100
AcDbEntity
  8
BLOCKS
100
AcDbLine
 10
0.0484533922805167
 20
0.8379250009349448
 30
0.0
 11
0.0484533922805167
 21
0.8319250009349445
 31
0.0
  0
ARC
  5
FE5
330
FB8
100
AcDbEntity
  8
BLOCKS
100
AcDbCircle
 10
0.0464533922805157
 20
0.8379250009349448
 30
0.0
 40
0.002
100
AcDbArc
 50
0.0
 51
90.0
  0
ARC
  5
FE6
330
FB8
100
AcDbEntity
  8
BLOCKS
100
AcDbCircle
 10
0.0464533922805163
 20
0.8319250009349445
 30
0.0
 40
0.002
100
AcDbArc
 50
270.0
 51
0.0
  0
LINE
  5
FE7
330
FB8
100
AcDbEntity
  8
BLOCKS
100
AcDbLine
 10
0.0906866129511036
 20
0.8299250009349446
 30
0.0
 11
0.0345754261575075
 21
0.8299250009349446
 31
0.0
  0
ARC
  5
FE8
330
FB8
100
AcDbEntity
  8
BLOCKS
100
AcDbCircle
 10
0.0089187150019416
 20
0.8470221977186424
 30
0.0
 40
0.008
100
AcDbArc
 50
20.526420493529
 51
90.0
  0
LINE
  5
FE9
330
FB8
100
AcDbEntity
  8
BLOCKS
100
AcDbLine
 10
0.0089187150019416
 20
0.8550221977186424
 30
0.0
 11
0.005
 21
0.8550221977186424
 31
0.0
  0
ARC
  5
FEA
330
FB8
100
AcDbEntity
  8
BLOCKS
100
AcDbCircle
 10
0.005
 20
0.8500221977186425
 30
0.0
 40
0.005
100
AcDbArc
 50
90.0
 51
180.0
  0
LINE
  5
FEB
330
FB8
100
AcDbEntity
  8
BLOCKS
100
AcDbLine
 10
0.0164107998053783
 20
0.8498273118514555
 30
0.0
 11
0.0164714168102688
 21
0.8496654119359202
 31
0.0
  0
ARC
  5
FEC
330
FB8
100
AcDbEntity
  8
BLOCKS
100
AcDbCircle
 10
0.0305190758167135
 20
0.8549250009349446
 30
0.0
 40
0.015
100
AcDbArc
 50
200.526420493529
 51
270.0
  0
ARC
  5
FED
330
FB8
100
AcDbEntity
  8
BLOCKS
100
AcDbCircle
 10
0.0345754261575075
 20
0.8239250009349444
 30
0.0
 40
0.006
100
AcDbArc
 50
90.0
 51
171.2548722652081
  0
LINE
  5
FEE
330
FB8
100
AcDbEntity
  8
BLOCKS
100
AcDbLine
 10
0.002898897491408
 20
0.725413554058755
 30
0.0
 11
0.0216442070728516
 21
0.7247814624012108
 31
0.0
  0
LINE
  5
FEF
330
FB8
100
AcDbEntity
  8
BLOCKS
100
AcDbLine
 10
0.0039999999999998
 20
0.6937699792729269
 30
0.0
 11
0.0212322257869016
 21
0.6937699792729269
 31
0.0
  0
ARC
  5
FF0
330
FB8
100
AcDbEntity
  8
BLOCKS
100
AcDbCircle
 10
0.0029999999999995
 20
0.7284118499552194
 30
0.0
 40
0.003
100
AcDbArc
 50
180.0
 51
268.0687186278428
  0
ARC
  5
FF1
330
FB8
100
AcDbEntity
  8
BLOCKS
100
AcDbCircle
 10
0.0039999999999998
 20
0.6977699792729267
 30
0.0
 40
0.004
100
AcDbArc
 50
180.0
 51
270.0
  0
LINE
  5
FF2
330
FB8
100
AcDbEntity
  8
BLOCKS
100
AcDbLine
 10
0.0243771535634369
 20
0.75048827822646
 30
0.0
 11
0.025231699088547
 21
0.697834889283114
 31
0.0
  0
ARC
  5
FF3
330
FB8
100
AcDbEntity
  8
BLOCKS
100
AcDbCircle
 10
0.0217453095814432
 20
0.7277797582976758
 30
0.0
 40
0.003
100
AcDbArc
 50
268.0687186278428
 51
0.9298082190339183
  0
ARC
  5
FF4
330
FB8
100
AcDbEntity
  8
BLOCKS
100
AcDbCircle
 10
0.0212322257869016
 20
0.6977699792729267
 30
0.0
 40
0.004
100
AcDbArc
 50
270.0
 51
0.9298082190339183
  0
ARC
  5
FF5
330
FB8
100
AcDbEntity
  8
BLOCKS
100
AcDbCircle
 10
0.1998405397509265
 20
1.992101862662756
 30
0.0
 40
1.313019115030896
100
AcDbArc
 50
261.4221639693857
 51
266.1131286770398
  0
ARC
  5
FF6
330
FB8
100
AcDbEntity
  8
BLOCKS
100
AcDbCircle
 10
0.4140413692726379
 20
0.7655526388248393
 30
0.0
 40
0.3899293354805917
100
AcDbArc
 50
171.2548722652081
 51
182.0786213382269
  0
LINE
  5
FF7
330
FB8
100
AcDbEntity
  8
BLOCKS
100
AcDbLine
 10
0.0
 20
0.8500221977186425
 30
0.0
 11
0.0
 21
0.6977699792729267
 31
0.0
  0
ARC
  5
FF8
330
FB8
100
AcDbEntity
  8
BLOCKS
100
AcDbCircle
 10
-4.359512809670976
 20
0.3227169985397194
 30
0.0
 40
4.484334998944462
100
AcDbArc
 50
4.664598472997945
 51
6.425913665782234
  0
ARC
  5
FF9
330
FB8
100
AcDbEntity
  8
BLOCKS
100
AcDbCircle
 10
-4.359512809670976
 20
0.3227169985397194
 30
0.0
 40
4.494334998944462
100
AcDbArc
 50
4.664598472997945
 51
6.451374644895894
  0
LINE
  5
FFA
330
FB8
100
AcDbEntity
  8
BLOCKS
100
AcDbLine
 10
0.131247011896196
 20
0.8399250009349447
 30
0.0
 11
0.0305190758167135
 21
0.8399250009349447
 31
0.0
  0
LINE
  5
FFB
330
FB8
100
AcDbEntity
  8
BLOCKS
100
AcDbLine
 10
0.1271880461230728
 20
0.8299250009349446
 30
0.0
 11
0.108349464062261
 21
0.8299250009349446
 31
0.0
  0
ARC
  5
FFC
330
FB8
100
AcDbEntity
  8
BLOCKS
100
AcDbCircle
 10
0.277390733445867
 20
0.675586463392416
 30
0.0
 40
0.0106808360010132
100
AcDbArc
 50
43.4784714133215
 51
100.7565515320008
  0
LINE
  5
FFD
330
FB8
100
AcDbEntity
  8
BLOCKS
100
AcDbLine
 10
0.5142012142032991
 20
0.8373223708059265
 30
0.0
 11
0.1313013840331075
 21
0.8399248161622313
 31
0.0
  0
LINE
  5
FFE
330
FB8
100
AcDbEntity
  8
BLOCKS
100
AcDbLine
 10
0.2814771860590514
 20
0.6670181303029227
 30
0.0
 11
0.2814771860590542
 21
0.6769597707077754
 31
0.0
  0
ARC
  5
FFF
330
FB8
100
AcDbEntity
  8
BLOCKS
100
AcDbCircle
 10
0.2754771860590517
 20
0.6670181303029227
 30
0.0
 40
0.006
100
AcDbArc
 50
332.582220007
 51
0.0
  0
LINE
  5
1000
330
FB8
100
AcDbEntity
  8
BLOCKS
100
AcDbLine
 10
0.2577095256855205
 20
0.6182732130207864
 30
0.0
 11
0.2577095256855199
 21
0.5984725188928389
 31
0.0
  0
LINE
  5
1001
330
FB8
100
AcDbEntity
  8
BLOCKS
100
AcDbLine
 10
0.2602974116955301
 20
0.5935371893071557
 30
0.0
 11
0.2768893000490425
 21
0.5820661389166015
 31
0.0
  0
ARC
  5
1002
330
FB8
100
AcDbEntity
  8
BLOCKS
100
AcDbCircle
 10
0.2637095256855196
 20
0.5984725188928389
 30
0.0
 40
0.006
100
AcDbArc
 50
180.0
 51
235.3413760583903
  0
ARC
  5
1003
330
FB8
100
AcDbEntity
  8
BLOCKS
100
AcDbCircle
 10
0.2166647044908694
 20
0.6489571689018949
 30
0.0
 40
0.003
100
AcDbArc
 50
180.0
 51
270.0
  0
ARC
  5
1004
330
FB8
100
AcDbEntity
  8
BLOCKS
100
AcDbCircle
 10
0.2238509614678242
 20
0.6489571689018949
 30
0.0
 40
0.003
100
AcDbArc
 50
270.0
 51
351.9393282125687
  0
ARC
  5
1005
330
FB8
100
AcDbEntity
  8
BLOCKS
100
AcDbCircle
 10
0.2637095256855207
 20
0.6182732130207864
 30
0.0
 40
0.006
100
AcDbArc
 50
152.5822200069999
 51
180.0
  0
LINE
  5
1006
330
FB8
100
AcDbEntity
  8
BLOCKS
100
AcDbLine
 10
0.2238509614678242
 20
0.6459571689018948
 30
0.0
 11
0.2166647044908694
 21
0.6459571689018948
 31
0.0
  0
LINE
  5
1007
330
FB8
100
AcDbEntity
  8
BLOCKS
100
AcDbLine
 10
0.2136647044908693
 20
0.6768802634493528
 30
0.0
 11
0.2136647044908693
 21
0.6489571689018949
 31
0.0
  0
LINE
  5
1008
330
FB8
100
AcDbEntity
  8
BLOCKS
100
AcDbLine
 10
0.2304590484886171
 20
0.6742228843134825
 30
0.0
 11
0.2268213218879606
 21
0.648536503982408
 31
0.0
  0
ARC
  5
1009
330
FB8
100
AcDbEntity
  8
BLOCKS
100
AcDbCircle
 10
0.1667011313100664
 20
0.6489571689018949
 30
0.0
 40
0.003
100
AcDbArc
 50
270.0
 51
0.0
  0
ARC
  5
100A
330
FB8
100
AcDbEntity
  8
BLOCKS
100
AcDbCircle
 10
0.1596671005324583
 20
0.6489571689018949
 30
0.0
 40
0.003
100
AcDbArc
 50
184.2986442579866
 51
270.0
  0
ARC
  5
100B
330
FB8
100
AcDbEntity
  8
BLOCKS
100
AcDbCircle
 10
0.1677011313100655
 20
0.6693665417816516
 30
0.0
 40
0.002
100
AcDbArc
 50
242.6026328801201
 51
0.0
  0
LINE
  5
100C
330
FB8
100
AcDbEntity
  8
BLOCKS
100
AcDbLine
 10
0.166699533585604
 20
0.6676329954010919
 30
0.0
 11
0.1667808133360137
 21
0.6675908687186598
 31
0.0
  0
LINE
  5
100D
330
FB8
100
AcDbEntity
  8
BLOCKS
100
AcDbLine
 10
0.1393694666695569
 20
0.6671717274193146
 30
0.0
 11
0.1513275308651225
 21
0.6652344483555891
 31
0.0
  0
ARC
  5
100E
330
FB8
100
AcDbEntity
  8
BLOCKS
100
AcDbCircle
 10
0.1484489523640514
 20
0.6474661117476462
 30
0.0
 40
0.018
100
AcDbArc
 50
72.521769004641
 51
80.79768757390622
  0
ARC
  5
100F
330
FB8
100
AcDbEntity
  8
BLOCKS
100
AcDbCircle
 10
0.1749823953520991
 20
0.6836140529680098
 30
0.0
 40
0.018
100
AcDbArc
 50
225.1533723717949
 51
242.6026328800472
  0
LINE
  5
1010
330
FB8
100
AcDbEntity
  8
BLOCKS
100
AcDbLine
 10
0.1538551339568465
 20
0.6646350721292686
 30
0.0
 11
0.1676021615755326
 21
0.6603063925810676
 31
0.0
  0
LINE
  5
1011
330
FB8
100
AcDbEntity
  8
BLOCKS
100
AcDbLine
 10
0.1566755398102447
 20
0.6487323035081478
 30
0.0
 11
0.1564338862563034
 21
0.6519472102944213
 31
0.0
  0
LINE
  5
1012
330
FB8
100
AcDbEntity
  8
BLOCKS
100
AcDbLine
 10
0.1377702563911839
 20
0.6573004293037906
 30
0.0
 11
0.1539220886176008
 21
0.654683734335332
 31
0.0
  0
ARC
  5
1013
330
FB8
100
AcDbEntity
  8
BLOCKS
100
AcDbCircle
 10
0.1534423255340886
 20
0.6517223449006747
 30
0.0
 40
0.003
100
AcDbArc
 50
4.298644257986634
 51
80.79768757390622
  0
LINE
  5
1014
330
FB8
100
AcDbEntity
  8
BLOCKS
100
AcDbLine
 10
0.1596671005324583
 20
0.6459571689018948
 30
0.0
 11
0.1667011313100664
 21
0.6459571689018948
 31
0.0
  0
ARC
  5
1015
330
FB8
100
AcDbEntity
  8
BLOCKS
100
AcDbCircle
 10
0.1667011313100664
 20
0.6574448991841308
 30
0.0
 40
0.003
100
AcDbArc
 50
0.0
 51
72.521769004641
  0
LINE
  5
1016
330
FB8
100
AcDbEntity
  8
BLOCKS
100
AcDbLine
 10
0.1697011313100666
 20
0.6742573135429138
 30
0.0
 11
0.1697011313100666
 21
0.6489571689018949
 31
0.0
  0
LINE
  5
1017
330
FB8
100
AcDbEntity
  8
BLOCKS
100
AcDbLine
 10
0.1693260078931666
 20
0.6766783168664319
 30
0.0
 11
0.2136681039891136
 21
0.6766783168664319
 31
0.0
  0
LINE
  5
1018
330
FB8
100
AcDbEntity
  8
BLOCKS
100
AcDbLine
 10
0.1667011313100664
 20
0.6459571689018948
 30
0.0
 11
0.2166647044908694
 21
0.6459571689018948
 31
0.0
  0
ARC
  5
1019
330
FB8
100
AcDbEntity
  8
BLOCKS
100
AcDbCircle
 10
0.2734771860590524
 20
0.5771308093309188
 30
0.0
 40
0.006
100
AcDbArc
 50
0.0
 51
55.34137605839029
  0
LINE
  5
101A
330
FB8
100
AcDbEntity
  8
BLOCKS
100
AcDbLine
 10
0.2808032212598198
 20
0.664255278689069
 30
0.0
 11
0.2583834904847527
 21
0.6210360646346402
 31
0.0
  0
ARC
  5
101B
330
FB8
100
AcDbEntity
  8
BLOCKS
100
AcDbCircle
 10
0.2874771860590522
 20
0.00400422639478
 30
0.0
 40
0.004
100
AcDbArc
 50
270.0
 51
0.0
  0
LINE
  5
101C
330
FB8
100
AcDbEntity
  8
BLOCKS
100
AcDbLine
 10
0.2146413788713312
 20
0.02400422639478
 30
0.0
 11
0.2674771860590522
 21
0.02400422639478
 31
0.0
  0
LINE
  5
101D
330
FB8
100
AcDbEntity
  8
BLOCKS
100
AcDbLine
 10
0.2083697084495424
 20
0.016970898880291
 30
0.0
 11
0.2087310291145241
 21
0.0190375539092685
 31
0.0
  0
ARC
  5
101E
330
FB8
100
AcDbEntity
  8
BLOCKS
100
AcDbCircle
 10
0.2146413788713312
 20
0.0180042263947797
 30
0.0
 40
0.006
100
AcDbArc
 50
90.0
 51
170.0830074517147
  0
ARC
  5
101F
330
FB8
100
AcDbEntity
  8
BLOCKS
100
AcDbCircle
 10
0.2024593586927347
 20
0.0180042263947797
 30
0.0
 40
0.006
100
AcDbArc
 50
270.0
 51
350.0830074517147
  0
ARC
  5
1020
330
FB8
100
AcDbEntity
  8
BLOCKS
100
AcDbCircle
 10
0.1955888184756356
 20
0.0060042263947798
 30
0.0
 40
0.006
100
AcDbArc
 50
90.0
 51
164.5980293387128
  0
LINE
  5
1021
330
FB8
100
AcDbEntity
  8
BLOCKS
100
AcDbLine
 10
0.1889263172201925
 20
0.0044106907331627
 30
0.0
 11
0.189804300855717
 21
0.007597762056397
 31
0.0
  0
LINE
  5
1022
330
FB8
100
AcDbEntity
  8
BLOCKS
100
AcDbLine
 10
0.1204771860590523
 20
0.0000042263947802
 30
0.0
 11
0.1831417996002733
 21
0.0000042263947802
 31
0.0
  0
ARC
  5
1023
330
FB8
100
AcDbEntity
  8
BLOCKS
100
AcDbCircle
 10
0.1831417996002733
 20
0.0060042263947798
 30
0.0
 40
0.006
100
AcDbArc
 50
270.0
 51
344.5980293387128
  0
ARC
  5
1024
330
FB8
100
AcDbEntity
  8
BLOCKS
100
AcDbCircle
 10
0.1204771860590523
 20
0.00400422639478
 30
0.0
 40
0.004
100
AcDbArc
 50
180.0
 51
270.0
  0
ARC
  5
1025
330
FB8
100
AcDbEntity
  8
BLOCKS
100
AcDbCircle
 10
0.1404771860590523
 20
0.0060042263947798
 30
0.0
 40
0.006
100
AcDbArc
 50
270.0
 51
0.0
  0
LINE
  5
1026
330
FB8
100
AcDbEntity
  8
BLOCKS
100
AcDbLine
 10
0.1955888184756356
 20
0.0120042263947801
 30
0.0
 11
0.2024593586927347
 21
0.0120042263947801
 31
0.0
  0
LINE
  5
1027
330
FB8
100
AcDbEntity
  8
BLOCKS
100
AcDbLine
 10
0.1831417996002733
 20
0.0000042263947802
 30
0.0
 11
0.2874771860590522
 21
0.0000042263947802
 31
0.0
  0
ARC
  5
1028
330
FB8
100
AcDbEntity
  8
BLOCKS
100
AcDbCircle
 10
0.2674771860590522
 20
0.0360042263947798
 30
0.0
 40
0.012
100
AcDbArc
 50
270.0
 51
0.0
  0
LINE
  5
1029
330
FB8
100
AcDbEntity
  8
BLOCKS
100
AcDbLine
 10
0.2794771860590526
 20
0.0360042263947798
 30
0.0
 11
0.2794771860590526
 21
0.5771308093309188
 31
0.0
  0
LINE
  5
102A
330
FB8
100
AcDbEntity
  8
BLOCKS
100
AcDbLine
 10
0.1164771860590525
 20
0.6701984662598233
 30
0.0
 11
0.1164771860590525
 21
0.00400422639478
 31
0.0
  0
LINE
  5
102B
330
FB8
100
AcDbEntity
  8
BLOCKS
100
AcDbLine
 10
0.1464771860590525
 20
0.6558898537893072
 30
0.0
 11
0.1464771860590525
 21
0.0060042263947798
 31
0.0
  0
LINE
  5
102C
330
FB8
100
AcDbEntity
  8
BLOCKS
100
AcDbLine
 10
0.2914771860590525
 20
0.00400422639478
 30
0.0
 11
0.2914771860590525
 21
0.6780042263947803
 31
0.0
  0
ARC
  5
102D
330
FB8
100
AcDbEntity
  8
BLOCKS
100
AcDbCircle
 10
0.1430835171541054
 20
0.6900971050540596
 30
0.0
 40
0.0232242784752816
100
AcDbArc
 50
184.6645984729979
 51
260.7976875739062
  0
ARC
  5
102E
330
FB8
100
AcDbEntity
  8
BLOCKS
100
AcDbCircle
 10
0.1430835171541054
 20
0.6900971050540596
 30
0.0
 40
0.0332242784752816
100
AcDbArc
 50
184.6645984729979
 51
260.7976875739062
  0
ARC
  5
102F
330
FB8
100
AcDbEntity
  8
BLOCKS
100
AcDbCircle
 10
0.1617011313100664
 20
0.6742573135429138
 30
0.0
 40
0.008
100
AcDbArc
 50
0.0
 51
45.15337237179497
  0
LINE
  5
1030
330
FB8
100
AcDbEntity
  8
BLOCKS
100
AcDbLine
 10
0.1544347968086856
 20
0.6786639638484087
 30
0.0
 11
0.1622885896259368
 21
0.6708521057738528
 31
0.0
  0
ARC
  5
1031
330
FB8
100
AcDbEntity
  8
BLOCKS
100
AcDbCircle
 10
0.2865536639546434
 20
0.6769597707077749
 30
0.0
 40
0.0050764778955894
100
AcDbArc
 50
82.66661999833111
 51
180.0
  0
ARC
  5
1032
330
FB8
100
AcDbEntity
  8
BLOCKS
100
AcDbCircle
 10
0.2196647044908695
 20
0.6768802634493528
 30
0.0
 40
0.006
100
AcDbArc
 50
129.3054797579113
 51
180.0
  0
ARC
  5
1033
330
FB8
100
AcDbEntity
  8
BLOCKS
100
AcDbCircle
 10
0.2363997693288911
 20
0.6733815544745097
 30
0.0
 40
0.006
100
AcDbArc
 50
98.49386447026216
 51
171.9393282125686
  0
ARC
  5
1034
330
FB8
100
AcDbEntity
  8
BLOCKS
100
AcDbCircle
 10
0.2190875265454542
 20
1.024563975800038
 30
0.0
 40
0.3301875730780269
100
AcDbArc
 50
273.5928246605038
 51
322.5093253325363
  0
ENDBLK
  5
1036
330
FB8
100
AcDbEntity
  8
0
100
AcDbBlockEnd
  0
BLOCK
  5
1055
330
1038
100
AcDbEntity
  8
0
100
AcDbBlockBegin
  2
114320AL
 70
     0
 10
0.0
 20
0.0
 30
0.0
  3
114320AL
  1

  0
ARC
  5
1039
330
1038
100
AcDbEntity
  8
BLOCKS
100
AcDbCircle
 10
0.5142012142032991
 20
0.8293223708059263
 30
0.0
 40
0.008
100
AcDbArc
 50
30.90829295050538
 51
90.0
  0
ARC
  5
103A
330
1038
100
AcDbEntity
  8
BLOCKS
100
AcDbCircle
 10
0.5006456352619643
 20
0.8212068591437224
 30
0.0
 40
0.0237992167519187
100
AcDbArc
 50
315.0843079372739
 51
30.90829295050538
  0
ARC
  5
103B
330
1038
100
AcDbEntity
  8
BLOCKS
100
AcDbCircle
 10
0.247342058846051
 20
1.073766082653699
 30
0.0
 40
0.3814986201691667
100
AcDbArc
 50
302.1123874224463
 51
315.0843079372739
  0
ARC
  5
103C
330
1038
100
AcDbEntity
  8
BLOCKS
100
AcDbCircle
 10
0.3136012646073846
 20
0.6649084743156023
 30
0.0
 40
0.030082917844197
100
AcDbArc
 50
100.9929253212399
 51
142.6048817321192
  0
ARC
  5
103D
330
1038
100
AcDbEntity
  8
BLOCKS
100
AcDbCircle
 10
0.2873179990424091
 20
0.6849999999999996
 30
0.0
 40
0.003
100
AcDbArc
 50
270.0
 51
322.6048817321192
  0
ARC
  5
103E
330
1038
100
AcDbEntity
  8
BLOCKS
100
AcDbCircle
 10
0.2873179990424091
 20
0.6790000000000004
 30
0.0
 40
0.0030000000000001
100
AcDbArc
 50
0.0
 51
90.0
  0
ARC
  5
103F
330
1038
100
AcDbEntity
  8
BLOCKS
100
AcDbCircle
 10
0.2282796785518531
 20
1.104139530986404
 30
0.0
 40
0.417358356728435
100
AcDbArc
 50
280.9929253212399
 51
302.1123874224463
  0
ARC
  5
1040
330
1038
100
AcDbEntity
  8
BLOCKS
100
AcDbCircle
 10
0.1183179990424094
 20
0.6790000000000004
 30
0.0
 40
0.0029999999999995
100
AcDbArc
 50
90.0
 51
180.0
  0
LINE
  5
1041
330
1038
100
AcDbEntity
  8
BLOCKS
100
AcDbLine
 10
0.0089187150019416
 20
0.8550221977186419
 30
0.0
 11
0.005
 21
0.8550221977186419
 31
0.0
  0
ARC
  5
1042
330
1038
100
AcDbEntity
  8
BLOCKS
100
AcDbCircle
 10
0.005
 20
0.850022197718642
 30
0.0
 40
0.005
100
AcDbArc
 50
90.0
 51
180.0
  0
LINE
  5
1043
330
1038
100
AcDbEntity
  8
BLOCKS
100
AcDbLine
 10
0.0164107998053783
 20
0.8498273118514561
 30
0.0
 11
0.0164714168102688
 21
0.8496654119359202
 31
0.0
  0
ARC
  5
1044
330
1038
100
AcDbEntity
  8
BLOCKS
100
AcDbCircle
 10
0.0305190758167135
 20
0.8549250009349446
 30
0.0
 40
0.015
100
AcDbArc
 50
200.526420493529
 51
270.0
  0
ARC
  5
1045
330
1038
100
AcDbEntity
  8
BLOCKS
100
AcDbCircle
 10
0.0089187150019416
 20
0.8470221977186424
 30
0.0
 40
0.008
100
AcDbArc
 50
20.526420493529
 51
90.0
  0
ARC
  5
1046
330
1038
100
AcDbEntity
  8
BLOCKS
100
AcDbCircle
 10
0.0039999999999998
 20
0.6977699792729272
 30
0.0
 40
0.004
100
AcDbArc
 50
180.0
 51
270.0
  0
LINE
  5
1047
330
1038
100
AcDbEntity
  8
BLOCKS
100
AcDbLine
 10
0.0
 20
0.850022197718642
 30
0.0
 11
0.0
 21
0.6977699792729272
 31
0.0
  0
ARC
  5
1048
330
1038
100
AcDbEntity
  8
BLOCKS
100
AcDbCircle
 10
1.373277390283594
 20
0.8031932315179318
 30
0.0
 40
1.358361755396129
100
AcDbArc
 50
178.557076300685
 51
184.3324409521767
  0
LINE
  5
1049
330
1038
100
AcDbEntity
  8
BLOCKS
100
AcDbLine
 10
0.131247011896196
 20
0.8399250009349447
 30
0.0
 11
0.0305190758167135
 21
0.8399250009349447
 31
0.0
  0
ARC
  5
104A
330
1038
100
AcDbEntity
  8
BLOCKS
100
AcDbCircle
 10
0.1998405397509265
 20
1.992101862662756
 30
0.0
 40
1.313019115030896
100
AcDbArc
 50
261.4221639693857
 51
266.3830023969013
  0
ARC
  5
104B
330
1038
100
AcDbEntity
  8
BLOCKS
100
AcDbCircle
 10
0.1430835171541054
 20
0.6900971050540596
 30
0.0
 40
0.0332242784752816
100
AcDbArc
 50
193.9227351449942
 51
213.3112383471175
  0
ARC
  5
104C
330
1038
100
AcDbEntity
  8
BLOCKS
100
AcDbCircle
 10
0.2039485816864431
 20
1.990869988970898
 30
0.0
 40
1.302524875444055
100
AcDbArc
 50
270.2989464985683
 51
273.8200544078953
  0
LINE
  5
104D
330
1038
100
AcDbEntity
  8
BLOCKS
100
AcDbLine
 10
0.5142012142032979
 20
0.8373223708059271
 30
0.0
 11
0.1313013840331075
 21
0.8399248161622308
 31
0.0
  0
LINE
  5
104E
330
1038
100
AcDbEntity
  8
BLOCKS
100
AcDbLine
 10
0.2873179990424091
 20
0.682
 30
0.0
 11
0.1183179990424094
 21
0.682
 31
0.0
  0
ARC
  5
104F
330
1038
100
AcDbEntity
  8
BLOCKS
100
AcDbCircle
 10
0.2873179990424091
 20
0.0030000000000001
 30
0.0
 40
0.0030000000000001
100
AcDbArc
 50
270.0
 51
0.0
  0
ARC
  5
1050
330
1038
100
AcDbEntity
  8
BLOCKS
100
AcDbCircle
 10
0.11831799904241
 20
0.0030000000000001
 30
0.0
 40
0.0030000000000007
100
AcDbArc
 50
180.0
 51
269.9999999999891
  0
LINE
  5
1051
330
1038
100
AcDbEntity
  8
BLOCKS
100
AcDbLine
 10
0.1183179990424094
 20
0.0
 30
0.0
 11
0.2873179990424091
 21
0.0
 31
0.0
  0
LINE
  5
1052
330
1038
100
AcDbEntity
  8
BLOCKS
100
AcDbLine
 10
0.1453179990424093
 20
0.6802152482820754
 30
0.0
 11
0.1453179990424104
 21
0.0
 31
0.0
  0
LINE
  5
1053
330
1038
100
AcDbEntity
  8
BLOCKS
100
AcDbLine
 10
0.1153179990424093
 20
0.6790000000000004
 30
0.0
 11
0.1153179990424093
 21
0.0030000000000001
 31
0.0
  0
LINE
  5
1054
330
1038
100
AcDbEntity
  8
BLOCKS
100
AcDbLine
 10
0.2903179990424093
 20
0.0030000000000001
 30
0.0
 11
0.2903179990424093
 21
0.6790000000000004
 31
0.0
  0
ENDBLK
  5
1056
330
1038
100
AcDbEntity
  8
0
100
AcDbBlockEnd
  0
BLOCK
  5
1075
330
1058
100
AcDbEntity
  8
0
100
AcDbBlockBegin
  2
114320AF
 70
     0
 10
0.0
 20
0.0
 30
0.0
  3
114320AF
  1

  0
ARC
  5
1059
330
1058
100
AcDbEntity
  8
BLOCKS
100
AcDbCircle
 10
0.3234186334517435
 20
0.8490221977186427
 30
0.0
 40
0.006
100
AcDbArc
 50
4.441668388727758
 51
90.0
  0
ARC
  5
105A
330
1058
100
AcDbEntity
  8
BLOCKS
100
AcDbCircle
 10
0.2137840913092475
 20
0.760401593329089
 30
0.0
 40
0.06
100
AcDbArc
 50
270.5760638351622
 51
289.8568204194422
  0
ARC
  5
105B
330
1058
100
AcDbEntity
  8
BLOCKS
100
AcDbCircle
 10
0.2124542647303278
 20
0.8926627741143994
 30
0.0
 40
0.1922678660198858
100
AcDbArc
 50
260.3688385901493
 51
270.5760638351622
  0
ARC
  5
105C
330
1058
100
AcDbEntity
  8
BLOCKS
100
AcDbCircle
 10
0.18742587036667
 20
0.8333871855135026
 30
0.0
 40
0.1375993071990154
100
AcDbArc
 50
289.8568204194422
 51
342.4069954479725
  0
ARC
  5
105D
330
1058
100
AcDbEntity
  8
BLOCKS
100
AcDbCircle
 10
0.2167644703195799
 20
0.8407375792081699
 30
0.0
 40
0.1129754430572091
100
AcDbArc
 50
299.1956123240212
 51
4.441668388727758
  0
ARC
  5
105E
330
1058
100
AcDbEntity
  8
BLOCKS
100
AcDbCircle
 10
0.1089430342290041
 20
0.6812898226958692
 30
0.0
 40
0.006
100
AcDbArc
 50
97.86161103874359
 51
139.4343243646795
  0
ARC
  5
105F
330
1058
100
AcDbEntity
  8
BLOCKS
100
AcDbCircle
 10
0.0965225169072198
 20
0.6919225931790783
 30
0.0
 40
0.0103500782471937
100
AcDbArc
 50
273.0753185052405
 51
319.4343243646795
  0
ARC
  5
1060
330
1058
100
AcDbEntity
  8
BLOCKS
100
AcDbCircle
 10
0.0846838221994821
 20
0.6790042263947801
 30
0.0
 40
0.0029999999999998
100
AcDbArc
 50
0.0
 51
90.0
  0
ARC
  5
1061
330
1058
100
AcDbEntity
  8
BLOCKS
100
AcDbCircle
 10
0.0001838221994819
 20
2.485069818686993
 30
0.0
 40
1.80608338707808
100
AcDbArc
 50
272.7508024903209
 51
273.0753185052405
  0
ARC
  5
1062
330
1058
100
AcDbEntity
  8
BLOCKS
100
AcDbCircle
 10
0.0001838221994819
 20
2.485069818686993
 30
0.0
 40
1.80608338707808
100
AcDbArc
 50
266.9246814947594
 51
267.2491975096791
  0
ARC
  5
1063
330
1058
100
AcDbEntity
  8
BLOCKS
100
AcDbCircle
 10
-0.108575389830041
 20
0.6812898226958692
 30
0.0
 40
0.006
100
AcDbArc
 50
40.56567563532047
 51
82.13838896125642
  0
ARC
  5
1064
330
1058
100
AcDbEntity
  8
BLOCKS
100
AcDbCircle
 10
-0.096154872508256
 20
0.6919225931790783
 30
0.0
 40
0.0103500782471937
100
AcDbArc
 50
220.5656756353204
 51
266.9246814947594
  0
ARC
  5
1065
330
1058
100
AcDbEntity
  8
BLOCKS
100
AcDbCircle
 10
-0.084316177800518
 20
0.6790042263947801
 30
0.0
 40
0.0030000000000001
100
AcDbArc
 50
90.0
 51
180.0
  0
ARC
  5
1066
330
1058
100
AcDbEntity
  8
BLOCKS
100
AcDbCircle
 10
-0.0025762143918874
 20
1.627249277410462
 30
0.0
 40
0.9436049564803374
100
AcDbArc
 50
264.1652190345835
 51
276.2244191504058
  0
ARC
  5
1067
330
1058
100
AcDbEntity
  8
BLOCKS
100
AcDbCircle
 10
-0.2134164469102835
 20
0.760401593329089
 30
0.0
 40
0.06
100
AcDbArc
 50
250.1431795805578
 51
269.4239361648378
  0
ARC
  5
1068
330
1058
100
AcDbEntity
  8
BLOCKS
100
AcDbCircle
 10
-0.2120866203313645
 20
0.8926627741143994
 30
0.0
 40
0.1922678660198858
100
AcDbArc
 50
269.4239361648378
 51
279.6311614098507
  0
ARC
  5
1069
330
1058
100
AcDbEntity
  8
BLOCKS
100
AcDbCircle
 10
-0.3230509890527802
 20
0.8490221977186427
 30
0.0
 40
0.006
100
AcDbArc
 50
90.0
 51
175.5583316112722
  0
ARC
  5
106A
330
1058
100
AcDbEntity
  8
BLOCKS
100
AcDbCircle
 10
-0.1870582259677067
 20
0.8333871855135026
 30
0.0
 40
0.1375993071990154
100
AcDbArc
 50
197.5930045520275
 51
250.1431795805578
  0
ARC
  5
106B
330
1058
100
AcDbEntity
  8
BLOCKS
100
AcDbCircle
 10
-0.2163968259206169
 20
0.8407375792081699
 30
0.0
 40
0.1129754430572091
100
AcDbArc
 50
175.5583316112722
 51
240.8043876759788
  0
ARC
  5
106C
330
1058
100
AcDbEntity
  8
BLOCKS
100
AcDbCircle
 10
-0.043945008870308
 20
1.149359267928228
 30
0.0
 40
0.4665104143858938
100
AcDbArc
 50
240.8043876759788
 51
262.1383889612564
  0
LINE
  5
106D
330
1058
100
AcDbEntity
  8
BLOCKS
100
AcDbLine
 10
0.0001838221994819
 20
0.8550221977186424
 30
0.0
 11
-0.3230509890527802
 21
0.8550221977186424
 31
0.0
  0
ARC
  5
106E
330
1058
100
AcDbEntity
  8
BLOCKS
100
AcDbCircle
 10
0.0846838221994821
 20
0.0030042263947803
 30
0.0
 40
0.0030000000000001
100
AcDbArc
 50
270.0
 51
0.0
  0
ARC
  5
106F
330
1058
100
AcDbEntity
  8
BLOCKS
100
AcDbCircle
 10
-0.084316177800518
 20
0.0030042263947803
 30
0.0
 40
0.0030000000000001
100
AcDbArc
 50
180.0
 51
270.0
  0
LINE
  5
1070
330
1058
100
AcDbEntity
  8
BLOCKS
100
AcDbLine
 10
-0.084316177800518
 20
0.0000042263947802
 30
0.0
 11
0.0846838221994821
 21
0.0000042263947802
 31
0.0
  0
LINE
  5
1071
330
1058
100
AcDbEntity
  8
BLOCKS
100
AcDbLine
 10
-0.0873161778005181
 20
0.6790042263947801
 30
0.0
 11
-0.0873161778005181
 21
0.0030042263947803
 31
0.0
  0
LINE
  5
1072
330
1058
100
AcDbEntity
  8
BLOCKS
100
AcDbLine
 10
0.087683822199482
 20
0.0030042263947803
 30
0.0
 11
0.087683822199482
 21
0.6790042263947801
 31
0.0
  0
ARC
  5
1073
330
1058
100
AcDbEntity
  8
BLOCKS
100
AcDbCircle
 10
0.0443126532692713
 20
1.149359267928228
 30
0.0
 40
0.4665104143858938
100
AcDbArc
 50
277.8616110387436
 51
299.1956123240212
  0
LINE
  5
1074
330
1058
100
AcDbEntity
  8
BLOCKS
100
AcDbLine
 10
0.0001838221994819
 20
0.8550221977186424
 30
0.0
 11
0.3234186334517435
 21
0.8550221977186424
 31
0.0
  0
ENDBLK
  5
1076
330
1058
100
AcDbEntity
  8
0
100
AcDbBlockEnd
  0
BLOCK
  5
10D2
330
10B1
100
AcDbEntity
  8
0
100
AcDbBlockBegin
  2
114300PL
 70
     0
 10
0.0
 20
0.0
 30
0.0
  3
114300PL
  1

  0
ARC
  5
10B2
330
10B1
100
AcDbEntity
  8
BLOCKS
100
AcDbCircle
 10
0.2461415781766027
 20
0.0067265738564288
 30
0.0
 40
0.036075163286952
100
AcDbArc
 50
204.4061115845914
 51
224.2413094885496
  0
ARC
  5
10B3
330
10B1
100
AcDbEntity
  8
BLOCKS
100
AcDbCircle
 10
0.2005961472454774
 20
-0.0139396080739198
 30
0.0
 40
0.0139396080739184
100
AcDbArc
 50
24.40611158459143
 51
90.0
  0
ARC
  5
10B4
330
10B1
100
AcDbEntity
  8
BLOCKS
100
AcDbCircle
 10
-0.8395258016163761
 20
-1.050562868614832
 30
0.0
 40
1.479356994451474
100
AcDbArc
 50
43.12541687391149
 51
44.24130948854965
  0
ARC
  5
10B5
330
10B1
100
AcDbEntity
  8
BLOCKS
100
AcDbCircle
 10
-0.0929931153227779
 20
-0.1771232738756504
 30
0.0
 40
0.3271688292422655
100
AcDbArc
 50
355.6573664518808
 51
10.26774217196184
  0
ARC
  5
10B6
330
10B1
100
AcDbEntity
  8
BLOCKS
100
AcDbCircle
 10
0.1474251712053922
 20
-0.1261689280801136
 30
0.0
 40
0.1271083560527737
100
AcDbArc
 50
6.479035815861955
 51
43.12541687391149
  0
ARC
  5
10B7
330
10B1
100
AcDbEntity
  8
BLOCKS
100
AcDbCircle
 10
0.156928091102495
 20
-0.2499746918956708
 30
0.0
 40
0.0676255292079296
100
AcDbArc
 50
338.9955172605256
 51
13.18142344964185
  0
ARC
  5
10B8
330
10B1
100
AcDbEntity
  8
BLOCKS
100
AcDbCircle
 10
0.0775998777721171
 20
-0.2156595639357016
 30
0.0
 40
0.2
100
AcDbArc
 50
307.5633622011103
 51
357.1870780544523
  0
ARC
  5
10B9
330
10B1
100
AcDbEntity
  8
BLOCKS
100
AcDbCircle
 10
-0.4236989724819944
 20
-0.1910286299838054
 30
0.0
 40
0.7019035964938256
100
AcDbArc
 50
357.1870780544523
 51
6.479035815861955
  0
ELLIPSE
  5
10BA
330
10B1
100
AcDbEntity
  8
BLOCKS
100
AcDbEllipse
 10
-0.0018155096126131
 20
-0.1338201317775997
 30
0.0
 11
0.0100519767327669
 21
0.0
 31
0.0
210
0.0
220
0.0
230
1.0
 40
0.083252216548379
 41
0.0
 42
6.283185307179586
  0
ARC
  5
10BB
330
10B1
100
AcDbEntity
  8
BLOCKS
100
AcDbCircle
 10
0.0047637049079356
 20
-0.6762296762513472
 30
0.0
 40
0.5446339816500182
100
AcDbArc
 50
75.87167056676164
 51
106.1385138530223
  0
ARC
  5
10BC
330
10B1
100
AcDbEntity
  8
BLOCKS
100
AcDbCircle
 10
-0.0007304277772931
 20
-0.7311272678269951
 30
0.0
 40
0.7117750479549098
100
AcDbArc
 50
77.96599535508232
 51
101.6367753166894
  0
ARC
  5
10BD
330
10B1
100
AcDbEntity
  8
BLOCKS
100
AcDbCircle
 10
0.0065497311258159
 20
-0.8331725079903264
 30
0.0
 40
0.6899850764641018
100
AcDbArc
 50
80.34437815905716
 51
101.6916256556275
  0
CIRCLE
  5
10BE
330
10B1
100
AcDbEntity
  8
BLOCKS
100
AcDbCircle
 10
-0.0008189325629041
 20
-0.0655815109550144
 30
0.0
 40
0.0149891629897897
  0
CIRCLE
  5
10BF
330
10B1
100
AcDbEntity
  8
BLOCKS
100
AcDbCircle
 10
0.0
 20
-0.18910593635015
 30
0.0
 40
0.0218817830131089
  0
ARC
  5
10C0
330
10B1
100
AcDbEntity
  8
BLOCKS
100
AcDbCircle
 10
-0.2461415781766026
 20
0.0067265738564288
 30
0.0
 40
0.036075163286952
100
AcDbArc
 50
315.7586905114504
 51
335.5938884154086
  0
ARC
  5
10C1
330
10B1
100
AcDbEntity
  8
BLOCKS
100
AcDbCircle
 10
-0.200596147245477
 20
-0.0139396080739198
 30
0.0
 40
0.0139396080739184
100
AcDbArc
 50
90.0
 51
155.5938884154086
  0
ARC
  5
10C2
330
10B1
100
AcDbEntity
  8
BLOCKS
100
AcDbCircle
 10
0.8395258016163761
 20
-1.050562868614832
 30
0.0
 40
1.479356994451474
100
AcDbArc
 50
135.7586905114503
 51
136.8745831260885
  0
ARC
  5
10C3
330
10B1
100
AcDbEntity
  8
BLOCKS
100
AcDbCircle
 10
0.2578969734090717
 20
-0.1934411273689278
 30
0.0
 40
0.4942634844211761
100
AcDbArc
 50
172.4077459124807
 51
180.9802341007221
  0
ARC
  5
10C4
330
10B1
100
AcDbEntity
  8
BLOCKS
100
AcDbCircle
 10
-0.1474251712053919
 20
-0.1261689280801136
 30
0.0
 40
0.1271083560527737
100
AcDbArc
 50
136.8745831260885
 51
173.5209641841382
  0
ARC
  5
10C5
330
10B1
100
AcDbEntity
  8
BLOCKS
100
AcDbCircle
 10
-0.0748414773633184
 20
-0.2130276920541058
 30
0.0
 40
0.2028780071059264
100
AcDbArc
 50
182.5266480426251
 51
232.1700703855125
  0
ARC
  5
10C6
330
10B1
100
AcDbEntity
  8
BLOCKS
100
AcDbCircle
 10
-0.1089795064747824
 20
-0.244999107742463
 30
0.0
 40
0.1119312656427649
100
AcDbArc
 50
208.374245433859
 51
230.5938759720584
  0
ARC
  5
10C7
330
10B1
100
AcDbEntity
  8
BLOCKS
100
AcDbCircle
 10
0.423698972481995
 20
-0.1910286299838054
 30
0.0
 40
0.7019035964938256
100
AcDbArc
 50
173.5209641841382
 51
182.5266480426251
  0
ARC
  5
10C8
330
10B1
100
AcDbEntity
  8
BLOCKS
100
AcDbCircle
 10
-0.1185265708911288
 20
-0.2501556415221728
 30
0.0
 40
0.101080630657145
100
AcDbArc
 50
106.1385138530223
 51
208.374245433859
  0
ARC
  5
10C9
330
10B1
100
AcDbEntity
  8
BLOCKS
100
AcDbCircle
 10
-0.1218862408648934
 20
-0.1428194841997333
 30
0.0
 40
0.1111214212103956
100
AcDbArc
 50
101.6367753166894
 51
172.4077459124807
  0
ARC
  5
10CA
330
10B1
100
AcDbEntity
  8
BLOCKS
100
AcDbCircle
 10
-0.1069808493039673
 20
-0.2845502713287078
 30
0.0
 40
0.1297391025809151
100
AcDbArc
 50
101.6916256556275
 51
141.1523410160728
  0
ARC
  5
10CB
330
10B1
100
AcDbEntity
  8
BLOCKS
100
AcDbCircle
 10
0.0011295031741784
 20
-0.110979413543223
 30
0.0
 40
0.2853823320538219
100
AcDbArc
 50
230.5938759720584
 51
305.1500638353597
  0
LINE
  5
10CC
330
10B1
100
AcDbEntity
  8
BLOCKS
100
AcDbLine
 10
0.2005961472454774
 20
0.0
 30
0.0
 11
-0.2005961472454771
 21
0.0
 31
0.0
  0
ARC
  5
10CD
330
10B1
100
AcDbEntity
  8
BLOCKS
100
AcDbCircle
 10
0.0007287249653612
 20
-0.1157081883309729
 30
0.0
 40
0.3260930276387927
100
AcDbArc
 50
232.1700703855125
 51
307.5633622011103
  0
ARC
  5
10CE
330
10B1
100
AcDbEntity
  8
BLOCKS
100
AcDbCircle
 10
0.0920638369838332
 20
-0.3305506306758377
 30
0.0
 40
0.1801405767822513
100
AcDbArc
 50
54.5923539971759
 51
80.34437815905716
  0
ARC
  5
10CF
330
10B1
100
AcDbEntity
  8
BLOCKS
100
AcDbCircle
 10
0.1092446250224856
 20
-0.2611424386092608
 30
0.0
 40
0.1165993130525776
100
AcDbArc
 50
13.18142344964185
 51
75.87167056676164
  0
ARC
  5
10D0
330
10B1
100
AcDbEntity
  8
BLOCKS
100
AcDbCircle
 10
0.125820337886523
 20
-0.1374853786753965
 30
0.0
 40
0.1047941678231073
100
AcDbArc
 50
10.26774217196184
 51
77.96599535508232
  0
ARC
  5
10D1
330
10B1
100
AcDbEntity
  8
BLOCKS
100
AcDbCircle
 10
0.0775346566621482
 20
-0.21949128066041
 30
0.0
 40
0.1526699634336427
100
AcDbArc
 50
305.1500638353597
 51
338.9955172605256
  0
ENDBLK
  5
10D3
330
10B1
100
AcDbEntity
  8
0
100
AcDbBlockEnd
  0
BLOCK
  5
1142
330
10D5
100
AcDbEntity
  8
0
100
AcDbBlockBegin
  2
114300CT
 70
     0
 10
0.0
 20
0.0
 30
0.0
  3
114300CT
  1

  0
ARC
  5
10D6
330
10D5
100
AcDbEntity
  8
BLOCKS
100
AcDbCircle
 10
0.4338866764541007
 20
0.8157349181340396
 30
0.0
 40
0.008
100
AcDbArc
 50
339.3117485830528
 51
90.0
  0
LINE
  5
10D7
330
10D5
100
AcDbEntity
  8
BLOCKS
100
AcDbLine
 10
0.421879816860178
 20
0.8237349181340396
 30
0.0
 11
0.4338866764541007
 21
0.8237349181340396
 31
0.0
  0
ARC
  5
10D8
330
10D5
100
AcDbEntity
  8
BLOCKS
100
AcDbCircle
 10
0.2851389927034893
 20
0.6780000000000002
 30
0.0
 40
0.004
100
AcDbArc
 50
0.0
 51
90.0
  0
ARC
  5
10D9
330
10D5
100
AcDbEntity
  8
BLOCKS
100
AcDbCircle
 10
0.3209154993570792
 20
0.6742519557206884
 30
0.0
 40
0.02
100
AcDbArc
 50
102.5969765179211
 51
163.4023699592891
  0
ARC
  5
10DA
330
10D5
100
AcDbEntity
  8
BLOCKS
100
AcDbCircle
 10
0.2842154705990805
 20
0.6769555443129951
 30
0.0
 40
0.0050764778955894
100
AcDbArc
 50
82.66661999829882
 51
180.0
  0
ARC
  5
10DB
330
10D5
100
AcDbEntity
  8
BLOCKS
100
AcDbCircle
 10
0.284261025643986
 20
0.6740483225768128
 30
0.0
 40
0.008
100
AcDbArc
 50
33.02710454134078
 51
107.3359828604458
  0
LINE
  5
10DC
330
10D5
100
AcDbEntity
  8
BLOCKS
100
AcDbLine
 10
0.2791389927034885
 20
0.6670139039081431
 30
0.0
 11
0.2791389927034913
 21
0.6769555443129958
 31
0.0
  0
ARC
  5
10DD
330
10D5
100
AcDbEntity
  8
BLOCKS
100
AcDbCircle
 10
0.2731389927034883
 20
0.6670139039081431
 30
0.0
 40
0.006
100
AcDbArc
 50
332.582220007
 51
0.0
  0
ARC
  5
10DE
330
10D5
100
AcDbEntity
  8
BLOCKS
100
AcDbCircle
 10
0.29599880519777
 20
0.6816788226355755
 30
0.0
 40
0.006
100
AcDbArc
 50
213.0271045413408
 51
343.4023699592891
  0
ARC
  5
10DF
330
10D5
100
AcDbEntity
  8
BLOCKS
100
AcDbCircle
 10
0.2851389927034893
 20
0.6780000000000002
 30
0.0
 40
0.004
100
AcDbArc
 50
90.0
 51
92.60705135301922
  0
LINE
  5
10E0
330
10D5
100
AcDbEntity
  8
BLOCKS
100
AcDbLine
 10
0.2851389927034893
 20
0.6820000000000005
 30
0.0
 11
0.2848206186702043
 21
0.6820000000000005
 31
0.0
  0
ARC
  5
10E1
330
10D5
100
AcDbEntity
  8
BLOCKS
100
AcDbCircle
 10
0.2548838007999927
 20
0.8833325259292115
 30
0.0
 40
0.1993412294098423
100
AcDbArc
 50
288.0211673984178
 51
339.3117485830528
  0
ARC
  5
10E2
330
10D5
100
AcDbEntity
  8
BLOCKS
100
AcDbCircle
 10
0.224589661146029
 20
0.8844639376110871
 30
0.0
 40
0.1931679622444205
100
AcDbArc
 50
285.35079535515
 51
337.7461476243858
  0
ARC
  5
10E3
330
10D5
100
AcDbEntity
  8
BLOCKS
100
AcDbCircle
 10
0.421879816860178
 20
0.8037349181340397
 30
0.0
 40
0.02
100
AcDbArc
 50
90.0
 51
157.7461476243858
  0
ARC
  5
10E4
330
10D5
100
AcDbEntity
  8
BLOCKS
100
AcDbCircle
 10
0.122938417567218
 20
0.7861125342894088
 30
0.0
 40
0.002
100
AcDbArc
 50
187.4500264567981
 51
277.4075891477454
  0
ARC
  5
10E5
330
10D5
100
AcDbEntity
  8
BLOCKS
100
AcDbCircle
 10
0.1314018286277456
 20
0.7872128794230104
 30
0.0
 40
0.002
100
AcDbArc
 50
277.4075891477454
 51
7.449892748723168
  0
LINE
  5
10E6
330
10D5
100
AcDbEntity
  8
BLOCKS
100
AcDbLine
 10
0.1316596825234688
 20
0.785229571235043
 30
0.0
 11
0.1231962714629412
 21
0.7841292261014406
 31
0.0
  0
ARC
  5
10E7
330
10D5
100
AcDbEntity
  8
BLOCKS
100
AcDbCircle
 10
0.1195885775052017
 20
0.8001345374084388
 30
0.0
 40
0.012
100
AcDbArc
 50
7.754425672133861
 51
90.0
  0
ARC
  5
10E8
330
10D5
100
AcDbEntity
  8
BLOCKS
100
AcDbCircle
 10
0.0903757035004566
 20
0.793134537408439
 30
0.0
 40
0.008
100
AcDbArc
 50
6.377437688708201
 51
90.0
  0
LINE
  5
10E9
330
10D5
100
AcDbEntity
  8
BLOCKS
100
AcDbLine
 10
0.0839573367392564
 20
0.8121345374084388
 30
0.0
 11
0.0839573367392564
 21
0.801134537408439
 31
0.0
  0
ARC
  5
10EA
330
10D5
100
AcDbEntity
  8
BLOCKS
100
AcDbCircle
 10
0.1182484164144375
 20
0.7985998993751754
 30
0.0
 40
0.001
100
AcDbArc
 50
7.725965726242244
 51
90.0
  0
ARC
  5
10EB
330
10D5
100
AcDbEntity
  8
BLOCKS
100
AcDbCircle
 10
0.1112052607160155
 20
0.7985998993751754
 30
0.0
 40
0.001
100
AcDbArc
 50
90.0
 51
194.7021358555769
  0
ARC
  5
10EC
330
10D5
100
AcDbEntity
  8
BLOCKS
100
AcDbCircle
 10
0.0903757035004566
 20
0.793134537408439
 30
0.0
 40
0.0205346380332638
100
AcDbArc
 50
6.377437688708201
 51
14.70213585557691
  0
LINE
  5
10ED
330
10D5
100
AcDbEntity
  8
BLOCKS
100
AcDbLine
 10
0.1112052607160155
 20
0.799599899375175
 30
0.0
 11
0.1182484164144375
 21
0.799599899375175
 31
0.0
  0
LINE
  5
10EE
330
10D5
100
AcDbEntity
  8
BLOCKS
100
AcDbLine
 10
0.1661429583178148
 20
0.6771912831087475
 30
0.0
 11
0.2195565825649334
 21
0.6771912831087475
 31
0.0
  0
ARC
  5
10EF
330
10D5
100
AcDbEntity
  8
BLOCKS
100
AcDbCircle
 10
0.1601429583178145
 20
0.6771912831087475
 30
0.0
 40
0.006
100
AcDbArc
 50
0.0
 51
59.62423038351211
  0
LINE
  5
10F0
330
10D5
100
AcDbEntity
  8
BLOCKS
100
AcDbLine
 10
0.2269437637286779
 20
0.6837200553677656
 30
0.0
 11
0.2148451182240774
 21
0.6730273026937408
 31
0.0
  0
ARC
  5
10F1
330
10D5
100
AcDbEntity
  8
BLOCKS
100
AcDbCircle
 10
0.2201429583178145
 20
0.667032897774052
 30
0.0
 40
0.008
100
AcDbArc
 50
131.4701687298866
 51
180.0
  0
ARC
  5
10F2
330
10D5
100
AcDbEntity
  8
BLOCKS
100
AcDbCircle
 10
0.2434995140216074
 20
0.6649875399937385
 30
0.0
 40
0.025
100
AcDbArc
 50
100.9957957138277
 51
131.4701687298866
  0
ARC
  5
10F3
330
10D5
100
AcDbEntity
  8
BLOCKS
100
AcDbCircle
 10
1.146289026731395
 20
0.7697956492515516
 30
0.0
 40
1.032274397728367
100
AcDbArc
 50
181.4679745998281
 51
185.8953739697808
  0
ARC
  5
10F4
330
10D5
100
AcDbEntity
  8
BLOCKS
100
AcDbCircle
 10
0.158344588976467
 20
0.7011058478133618
 30
0.0
 40
0.0275346380332638
100
AcDbArc
 50
185.5814503119973
 51
233.0315761293126
  0
ARC
  5
10F5
330
10D5
100
AcDbEntity
  8
BLOCKS
100
AcDbCircle
 10
0.158344588976467
 20
0.7011058478133618
 30
0.0
 40
0.015
100
AcDbArc
 50
185.5814503119973
 51
254.144413126955
  0
ARC
  5
10F6
330
10D5
100
AcDbEntity
  8
BLOCKS
100
AcDbCircle
 10
0.1474160434728333
 20
0.6626277125522165
 30
0.0
 40
0.025
100
AcDbArc
 50
59.62423038351211
 51
74.14441312695498
  0
ARC
  5
10F7
330
10D5
100
AcDbEntity
  8
BLOCKS
100
AcDbCircle
 10
0.125944524145126
 20
0.7623013767525083
 30
0.0
 40
0.002
100
AcDbArc
 50
97.4075891477454
 51
186.9407736260758
  0
ARC
  5
10F8
330
10D5
100
AcDbEntity
  8
BLOCKS
100
AcDbCircle
 10
0.1344082129198807
 20
0.7634017579922966
 30
0.0
 40
0.002
100
AcDbArc
 50
6.942244463357875
 51
97.4075891477454
  0
LINE
  5
10F9
330
10D5
100
AcDbEntity
  8
BLOCKS
100
AcDbLine
 10
0.1341503590241575
 20
0.7653850661802649
 30
0.0
 11
0.1256866702494028
 21
0.764284684940476
 31
0.0
  0
LINE
  5
10FA
330
10D5
100
AcDbEntity
  8
BLOCKS
100
AcDbLine
 10
0.2312273257584161
 20
0.6875058567891245
 30
0.0
 11
0.1520168528773024
 21
0.6875058567891245
 31
0.0
  0
LINE
  5
10FB
330
10D5
100
AcDbEntity
  8
BLOCKS
100
AcDbLine
 10
0.1417859515960009
 20
0.6791065791954038
 30
0.0
 11
0.1613388339243369
 21
0.6643893131880441
 31
0.0
  0
LINE
  5
10FC
330
10D5
100
AcDbEntity
  8
BLOCKS
100
AcDbLine
 10
0.1600577675197269
 20
0.6841959023956452
 30
0.0
 11
0.163176972089069
 21
0.6823676486711702
 31
0.0
  0
ARC
  5
10FD
330
10D5
100
AcDbEntity
  8
BLOCKS
100
AcDbCircle
 10
-2.554522235241623
 20
0.4359936449584842
 30
0.0
 40
2.698255318299709
100
AcDbArc
 50
5.581450311997374
 51
7.725965726242244
  0
ARC
  5
10FE
330
10D5
100
AcDbEntity
  8
BLOCKS
100
AcDbCircle
 10
-0.4946812186143183
 20
0.7277431648581745
 30
0.0
 40
0.6092345902316828
100
AcDbArc
 50
1.467974599828104
 51
6.377437688708201
  0
ARC
  5
10FF
330
10D5
100
AcDbEntity
  8
BLOCKS
100
AcDbCircle
 10
-2.554522235241623
 20
0.4359936449584842
 30
0.0
 40
2.710789956332973
100
AcDbArc
 50
5.581450311997374
 51
7.754425672133861
  0
ARC
  5
1100
330
10D5
100
AcDbEntity
  8
BLOCKS
100
AcDbCircle
 10
-0.4946812186143183
 20
0.7277431648581745
 30
0.0
 40
0.596699952198419
100
AcDbArc
 50
1.467974599828104
 51
6.377437688708201
  0
ARC
  5
1101
330
10D5
100
AcDbEntity
  8
BLOCKS
100
AcDbCircle
 10
0.023234259618302
 20
0.8201345374084388
 30
0.0
 40
0.008
100
AcDbArc
 50
210.322113031427
 51
270.0
  0
ARC
  5
1102
330
10D5
100
AcDbEntity
  8
BLOCKS
100
AcDbCircle
 10
0.0049773696476501
 20
0.8117349181340392
 30
0.0
 40
0.012
100
AcDbArc
 50
30.32211303142704
 51
90.0
  0
LINE
  5
1103
330
10D5
100
AcDbEntity
  8
BLOCKS
100
AcDbLine
 10
0.0163286534879751
 20
0.8160956509315997
 30
0.0
 11
0.0153357788431401
 21
0.8177932478492982
 31
0.0
  0
ARC
  5
1104
330
10D5
100
AcDbEntity
  8
BLOCKS
100
AcDbCircle
 10
0.0029999999516679
 20
0.820734918134039
 30
0.0
 40
0.003
100
AcDbArc
 50
90.0
 51
179.9897152285072
  0
LINE
  5
1105
330
10D5
100
AcDbEntity
  8
BLOCKS
100
AcDbLine
 10
0.0029999999516679
 20
0.8237349181340391
 30
0.0
 11
0.0049773696476501
 21
0.8237349181340391
 31
0.0
  0
ARC
  5
1106
330
10D5
100
AcDbEntity
  8
BLOCKS
100
AcDbCircle
 10
0.0348520944854073
 20
0.7951345374084389
 30
0.0
 40
0.006
100
AcDbArc
 50
90.0
 51
164.6554801865298
  0
LINE
  5
1107
330
10D5
100
AcDbEntity
  8
BLOCKS
100
AcDbLine
 10
0.0479573367392561
 20
0.8121345374084388
 30
0.0
 11
0.0479573367392561
 21
0.801134537408439
 31
0.0
  0
ARC
  5
1108
330
10D5
100
AcDbEntity
  8
BLOCKS
100
AcDbCircle
 10
0.0156333173608152
 20
0.6983930531674139
 30
0.0
 40
0.006
100
AcDbArc
 50
270.0
 51
6.591994201722373
  0
ARC
  5
1109
330
10D5
100
AcDbEntity
  8
BLOCKS
100
AcDbCircle
 10
0.0059780392526233
 20
0.6983930531674139
 30
0.0
 40
0.006
100
AcDbArc
 50
179.9897152285072
 51
270.0
  0
LINE
  5
110A
330
10D5
100
AcDbEntity
  8
BLOCKS
100
AcDbLine
 10
0.0156333173608152
 20
0.6923930531674137
 30
0.0
 11
0.0059780392526233
 21
0.6923930531674137
 31
0.0
  0
LINE
  5
110B
330
10D5
100
AcDbEntity
  8
BLOCKS
100
AcDbLine
 10
0.0343388556392148
 20
0.6923930531674137
 30
0.0
 11
0.0342808162966293
 21
0.6923930531674137
 31
0.0
  0
LINE
  5
110C
330
10D5
100
AcDbEntity
  8
BLOCKS
100
AcDbLine
 10
0.0
 20
0.8207354566434128
 30
0.0
 11
-0.0000219606507125
 21
0.6983941301861615
 31
0.0
  0
ARC
  5
110D
330
10D5
100
AcDbEntity
  8
BLOCKS
100
AcDbCircle
 10
0.2772330644076697
 20
0.7286241351756145
 30
0.0
 40
0.2573407411973412
100
AcDbArc
 50
164.6554801865298
 51
186.5919942017223
  0
ARC
  5
110E
330
10D5
100
AcDbEntity
  8
BLOCKS
100
AcDbCircle
 10
0.0990703587725051
 20
1.228371079951849
 30
0.0
 40
0.5440770212972037
100
AcDbArc
 50
260.0821577010887
 51
270.6225280135328
  0
LINE
  5
110F
330
10D5
100
AcDbEntity
  8
BLOCKS
100
AcDbLine
 10
0.023234259618302
 20
0.8121345374084388
 30
0.0
 11
0.1195885775052017
 21
0.8121345374084388
 31
0.0
  0
LINE
  5
1110
330
10D5
100
AcDbEntity
  8
BLOCKS
100
AcDbLine
 10
0.0348520944854073
 20
0.801134537408439
 30
0.0
 11
0.0903757035004566
 21
0.801134537408439
 31
0.0
  0
LINE
  5
1111
330
10D5
100
AcDbEntity
  8
BLOCKS
100
AcDbLine
 10
0.0049773696476501
 20
0.8237349181340391
 30
0.0
 11
0.421879816860178
 21
0.8237349181340396
 31
0.0
  0
ARC
  5
1112
330
10D5
100
AcDbEntity
  8
BLOCKS
100
AcDbCircle
 10
0.1437865677436918
 20
1.124064277009935
 30
0.0
 40
0.4634312596410382
100
AcDbArc
 50
280.9450215098276
 51
287.3359828604459
  0
ARC
  5
1113
330
10D5
100
AcDbEntity
  8
BLOCKS
100
AcDbCircle
 10
0.1433626077121653
 20
1.180349160600836
 30
0.0
 40
0.5
100
AcDbArc
 50
280.9957957138277
 51
285.35079535515
  0
LINE
  5
1114
330
10D5
100
AcDbEntity
  8
BLOCKS
100
AcDbLine
 10
0.2553713323299576
 20
0.6182689866260063
 30
0.0
 11
0.255371332329957
 21
0.5984682924980592
 31
0.0
  0
ARC
  5
1115
330
10D5
100
AcDbEntity
  8
BLOCKS
100
AcDbCircle
 10
0.2613713323299567
 20
0.5984682924980592
 30
0.0
 40
0.006
100
AcDbArc
 50
180.0
 51
235.3413760583903
  0
ARC
  5
1116
330
10D5
100
AcDbEntity
  8
BLOCKS
100
AcDbCircle
 10
0.2711389927034895
 20
0.5771265829361387
 30
0.0
 40
0.006
100
AcDbArc
 50
0.0
 51
55.34137605839029
  0
LINE
  5
1117
330
10D5
100
AcDbEntity
  8
BLOCKS
100
AcDbLine
 10
0.2579592183399671
 20
0.5935329629123761
 30
0.0
 11
0.2745511066934791
 21
0.5820619125218219
 31
0.0
  0
ARC
  5
1118
330
10D5
100
AcDbEntity
  8
BLOCKS
100
AcDbCircle
 10
0.2613713323299578
 20
0.6182689866260063
 30
0.0
 40
0.006
100
AcDbArc
 50
152.5822200069999
 51
180.0
  0
LINE
  5
1119
330
10D5
100
AcDbEntity
  8
BLOCKS
100
AcDbLine
 10
0.1631429583178146
 20
0.6306863195040672
 30
0.0
 11
0.2151429583178146
 21
0.6306863195040672
 31
0.0
  0
ARC
  5
111A
330
10D5
100
AcDbEntity
  8
BLOCKS
100
AcDbCircle
 10
0.1631429583178146
 20
0.6441514986011009
 30
0.0
 40
0.003
100
AcDbArc
 50
0.0
 51
50.90596978677909
  0
ARC
  5
111B
330
10D5
100
AcDbEntity
  8
BLOCKS
100
AcDbCircle
 10
0.1631429583178146
 20
0.6336863195040673
 30
0.0
 40
0.003
100
AcDbArc
 50
270.0
 51
0.0
  0
LINE
  5
111C
330
10D5
100
AcDbEntity
  8
BLOCKS
100
AcDbLine
 10
0.2253006817255482
 20
0.6614879239924888
 30
0.0
 11
0.2243588813591555
 21
0.6345465751359768
 31
0.0
  0
ARC
  5
111D
330
10D5
100
AcDbEntity
  8
BLOCKS
100
AcDbCircle
 10
0.2151429583178146
 20
0.6336863195040673
 30
0.0
 40
0.003
100
AcDbArc
 50
180.0
 51
270.0
  0
LINE
  5
111E
330
10D5
100
AcDbEntity
  8
BLOCKS
100
AcDbLine
 10
0.2151429583178146
 20
0.6306863195040672
 30
0.0
 11
0.2203613231655095
 21
0.6306863195040672
 31
0.0
  0
ARC
  5
111F
330
10D5
100
AcDbEntity
  8
BLOCKS
100
AcDbCircle
 10
0.2203613231655095
 20
0.6346863195040675
 30
0.0
 40
0.004
100
AcDbArc
 50
270.0
 51
357.9979019632208
  0
ARC
  5
1120
330
10D5
100
AcDbEntity
  8
BLOCKS
100
AcDbCircle
 10
0.0702999713094533
 20
0.2187401411374236
 30
0.0
 40
0.4318074002346458
100
AcDbArc
 50
79.76391289442556
 51
83.15412949388024
  0
ARC
  5
1121
330
10D5
100
AcDbEntity
  8
BLOCKS
100
AcDbCircle
 10
0.1237811624564119
 20
0.6642131780245484
 30
0.0
 40
0.016864489234636
100
AcDbArc
 50
185.8953739697808
 51
263.1541294938803
  0
ARC
  5
1122
330
10D5
100
AcDbEntity
  8
BLOCKS
100
AcDbCircle
 10
0.1456124914987328
 20
0.6358021710519058
 30
0.0
 40
0.0205346380332638
100
AcDbArc
 50
50.90596978677909
 51
79.76391289442556
  0
ARC
  5
1123
330
10D5
100
AcDbEntity
  8
BLOCKS
100
AcDbCircle
 10
0.1456124914987328
 20
0.6358021710519058
 30
0.0
 40
0.008
100
AcDbArc
 50
25.25877101874978
 51
79.76391289442556
  0
ARC
  5
1124
330
10D5
100
AcDbEntity
  8
BLOCKS
100
AcDbCircle
 10
0.1594075845065049
 20
0.6346863195040675
 30
0.0
 40
0.004
100
AcDbArc
 50
205.2587710187498
 51
270.0
  0
LINE
  5
1125
330
10D5
100
AcDbEntity
  8
BLOCKS
100
AcDbLine
 10
0.1528476101736754
 20
0.6392158285859137
 30
0.0
 11
0.1557900251690336
 21
0.6329794907370639
 31
0.0
  0
ARC
  5
1126
330
10D5
100
AcDbEntity
  8
BLOCKS
100
AcDbCircle
 10
0.0702999713094533
 20
0.2187401411374236
 30
0.0
 40
0.4443420382679095
100
AcDbArc
 50
79.76391289442556
 51
83.15412949388024
  0
LINE
  5
1127
330
10D5
100
AcDbEntity
  8
BLOCKS
100
AcDbLine
 10
0.1594075845065049
 20
0.6306863195040672
 30
0.0
 11
0.1631429583178146
 21
0.6306863195040672
 31
0.0
  0
LINE
  5
1128
330
10D5
100
AcDbEntity
  8
BLOCKS
100
AcDbLine
 10
0.1585615304572309
 20
0.6517393523964365
 30
0.0
 11
0.1650347431553445
 21
0.6464798349446074
 31
0.0
  0
ARC
  5
1129
330
10D5
100
AcDbEntity
  8
BLOCKS
100
AcDbCircle
 10
0.2651389927034893
 20
0.0360000000000002
 30
0.0
 40
0.012
100
AcDbArc
 50
270.0
 51
0.0
  0
ARC
  5
112A
330
10D5
100
AcDbEntity
  8
BLOCKS
100
AcDbCircle
 10
0.2851389927034893
 20
0.0040000000000003
 30
0.0
 40
0.004
100
AcDbArc
 50
270.0
 51
0.0
  0
ARC
  5
112B
330
10D5
100
AcDbEntity
  8
BLOCKS
100
AcDbCircle
 10
0.2123031855157683
 20
0.0180000000000001
 30
0.0
 40
0.006
100
AcDbArc
 50
90.0
 51
170.0830074517147
  0
ARC
  5
112C
330
10D5
100
AcDbEntity
  8
BLOCKS
100
AcDbCircle
 10
0.2001211653371718
 20
0.0180000000000001
 30
0.0
 40
0.006
100
AcDbArc
 50
270.0
 51
350.0830074517147
  0
LINE
  5
112D
330
10D5
100
AcDbEntity
  8
BLOCKS
100
AcDbLine
 10
0.1865881238646295
 20
0.0044064643383831
 30
0.0
 11
0.1874661075001535
 21
0.0075935356616174
 31
0.0
  0
ARC
  5
112E
330
10D5
100
AcDbEntity
  8
BLOCKS
100
AcDbCircle
 10
0.1808036062447104
 20
0.0060000000000002
 30
0.0
 40
0.006
100
AcDbArc
 50
270.0
 51
344.5980293387128
  0
LINE
  5
112F
330
10D5
100
AcDbEntity
  8
BLOCKS
100
AcDbLine
 10
0.1932506251200726
 20
0.0119999999999999
 30
0.0
 11
0.2001211653371718
 21
0.0119999999999999
 31
0.0
  0
ARC
  5
1130
330
10D5
100
AcDbEntity
  8
BLOCKS
100
AcDbCircle
 10
0.1932506251200726
 20
0.0060000000000002
 30
0.0
 40
0.006
100
AcDbArc
 50
90.0
 51
164.5980293387128
  0
LINE
  5
1131
330
10D5
100
AcDbEntity
  8
BLOCKS
100
AcDbLine
 10
0.2060315150939795
 20
0.0169666724855114
 30
0.0
 11
0.2063928357589606
 21
0.0190333275144889
 31
0.0
  0
ARC
  5
1132
330
10D5
100
AcDbEntity
  8
BLOCKS
100
AcDbCircle
 10
0.1181389927034894
 20
0.0040000000000003
 30
0.0
 40
0.004
100
AcDbArc
 50
180.0
 51
270.0
  0
ARC
  5
1133
330
10D5
100
AcDbEntity
  8
BLOCKS
100
AcDbCircle
 10
0.1381389927034894
 20
0.0060000000000002
 30
0.0
 40
0.006
100
AcDbArc
 50
270.0
 51
0.0
  0
LINE
  5
1134
330
10D5
100
AcDbEntity
  8
BLOCKS
100
AcDbLine
 10
0.1181389927034894
 20
0.0
 30
0.0
 11
0.1808036062447104
 21
0.0
 31
0.0
  0
LINE
  5
1135
330
10D5
100
AcDbEntity
  8
BLOCKS
100
AcDbLine
 10
0.1808036062447104
 20
0.0
 30
0.0
 11
0.2851389927034893
 21
0.0
 31
0.0
  0
LINE
  5
1136
330
10D5
100
AcDbEntity
  8
BLOCKS
100
AcDbLine
 10
0.2123031855157683
 20
0.0240000000000004
 30
0.0
 11
0.2651389927034893
 21
0.0240000000000004
 31
0.0
  0
LINE
  5
1137
330
10D5
100
AcDbEntity
  8
BLOCKS
100
AcDbLine
 10
0.1141389927034896
 20
0.6503770094941724
 30
0.0
 11
0.1141389927034896
 21
0.0040000000000003
 31
0.0
  0
LINE
  5
1138
330
10D5
100
AcDbEntity
  8
BLOCKS
100
AcDbLine
 10
0.1441389927034896
 20
0.6441874702123335
 30
0.0
 11
0.1441389927034896
 21
0.0060000000000002
 31
0.0
  0
LINE
  5
1139
330
10D5
100
AcDbEntity
  8
BLOCKS
100
AcDbLine
 10
0.2771389927034892
 20
0.0360000000000002
 30
0.0
 11
0.2771389927034892
 21
0.5771265829361387
 31
0.0
  0
LINE
  5
113A
330
10D5
100
AcDbEntity
  8
BLOCKS
100
AcDbLine
 10
0.2891389927034896
 20
0.0040000000000003
 30
0.0
 11
0.2891389927034896
 21
0.6780000000000002
 31
0.0
  0
ARC
  5
113B
330
10D5
100
AcDbEntity
  8
BLOCKS
100
AcDbCircle
 10
1.146289026731395
 20
0.7697956492515516
 30
0.0
 40
1.044809035761631
100
AcDbArc
 50
181.4679745998281
 51
185.8953739697808
  0
ARC
  5
113C
330
10D5
100
AcDbEntity
  8
BLOCKS
100
AcDbCircle
 10
0.1237811624564119
 20
0.6642131780245484
 30
0.0
 40
0.0043298512013723
100
AcDbArc
 50
185.8953739697808
 51
263.1541294938803
  0
LINE
  5
113D
330
10D5
100
AcDbEntity
  8
BLOCKS
100
AcDbLine
 10
0.1661429583178148
 20
0.6336863195040673
 30
0.0
 11
0.1661429583178148
 21
0.6771912831087475
 31
0.0
  0
ARC
  5
113E
330
10D5
100
AcDbEntity
  8
BLOCKS
100
AcDbCircle
 10
0.1631429583178146
 20
0.6667862143484717
 30
0.0
 40
0.003
100
AcDbArc
 50
233.0315761293126
 51
0.0
  0
LINE
  5
113F
330
10D5
100
AcDbEntity
  8
BLOCKS
100
AcDbLine
 10
0.2784650279042569
 20
0.6642510522942894
 30
0.0
 11
0.2560452971291891
 21
0.62103183823986
 31
0.0
  0
ARC
  5
1140
330
10D5
100
AcDbEntity
  8
BLOCKS
100
AcDbCircle
 10
0.2332957981128402
 20
0.6612084352563085
 30
0.0
 40
0.008
100
AcDbArc
 50
100.9450215098276
 51
177.9979019632208
  0
LINE
  5
1141
330
10D5
100
AcDbEntity
  8
BLOCKS
100
AcDbLine
 10
0.2121429583178144
 20
0.6336863195040673
 30
0.0
 11
0.212142958317815
 21
0.667032897774052
 31
0.0
  0
ENDBLK
  5
1143
330
10D5
100
AcDbEntity
  8
0
100
AcDbBlockEnd
  0
BLOCK
  5
115A
330
1145
100
AcDbEntity
  8
0
100
AcDbBlockBegin
  2
114300AL
 70
     0
 10
0.0
 20
0.0
 30
0.0
  3
114300AL
  1

  0
ARC
  5
1146
330
1145
100
AcDbEntity
  8
BLOCKS
100
AcDbCircle
 10
0.4339677544392197
 20
0.8157349181340391
 30
0.0
 40
0.008
100
AcDbArc
 50
339.3117485830528
 51
90.0
  0
LINE
  5
1147
330
1145
100
AcDbEntity
  8
BLOCKS
100
AcDbLine
 10
0.421960894845297
 20
0.8237349181340386
 30
0.0
 11
0.4339677544392197
 21
0.8237349181340386
 31
0.0
  0
ARC
  5
1148
330
1145
100
AcDbEntity
  8
BLOCKS
100
AcDbCircle
 10
0.3209965773421981
 20
0.6742519557206884
 30
0.0
 40
0.02
100
AcDbArc
 50
102.5969765179211
 51
163.4023699592891
  0
ARC
  5
1149
330
1145
100
AcDbEntity
  8
BLOCKS
100
AcDbCircle
 10
0.296079883182889
 20
0.6816788226355749
 30
0.0
 40
0.006
100
AcDbArc
 50
270.0
 51
343.4023699592891
  0
ARC
  5
114A
330
1145
100
AcDbEntity
  8
BLOCKS
100
AcDbCircle
 10
0.2549648787851118
 20
0.8833325259292115
 30
0.0
 40
0.1993412294098423
100
AcDbArc
 50
288.0211673984178
 51
339.3117485830528
  0
ARC
  5
114B
330
1145
100
AcDbEntity
  8
BLOCKS
100
AcDbCircle
 10
1.146370104716515
 20
0.7697956492515511
 30
0.0
 40
1.044809035761631
100
AcDbArc
 50
185.0588159373883
 51
185.8953739697808
  0
ARC
  5
114C
330
1145
100
AcDbEntity
  8
BLOCKS
100
AcDbCircle
 10
0.0030810779367869
 20
0.820734918134039
 30
0.0
 40
0.003
100
AcDbArc
 50
90.0
 51
179.9897152285072
  0
LINE
  5
114D
330
1145
100
AcDbEntity
  8
BLOCKS
100
AcDbLine
 10
0.0030810779367869
 20
0.8237349181340386
 30
0.0
 11
0.0050584476327697
 21
0.8237349181340386
 31
0.0
  0
ARC
  5
114E
330
1145
100
AcDbEntity
  8
BLOCKS
100
AcDbCircle
 10
0.0060591172377423
 20
0.6983930531674134
 30
0.0
 40
0.006
100
AcDbArc
 50
179.9897152285072
 51
264.0952010875032
  0
LINE
  5
114F
330
1145
100
AcDbEntity
  8
BLOCKS
100
AcDbLine
 10
0.000081077985119
 20
0.8207354566434123
 30
0.0
 11
0.0000591173344066
 21
0.6983941301861609
 31
0.0
  0
LINE
  5
1150
330
1145
100
AcDbEntity
  8
BLOCKS
100
AcDbLine
 10
0.0050584476327697
 20
0.8237349181340386
 30
0.0
 11
0.421960894845297
 21
0.8237349181340386
 31
0.0
  0
ARC
  5
1151
330
1145
100
AcDbEntity
  8
BLOCKS
100
AcDbCircle
 10
0.1684290789493434
 20
1.451412181311779
 30
0.0
 40
0.7762902449073229
100
AcDbArc
 50
257.8801943863375
 51
279.4667980755864
  0
ARC
  5
1152
330
1145
100
AcDbEntity
  8
BLOCKS
100
AcDbCircle
 10
0.1834439065603522
 20
1.274957177628569
 30
0.0
 40
0.6097716047774134
100
AcDbArc
 50
264.6371272090086
 51
280.6447093512308
  0
ARC
  5
1153
330
1145
100
AcDbEntity
  8
BLOCKS
100
AcDbCircle
 10
0.123862240441531
 20
0.6642131780245478
 30
0.0
 40
0.016864489234636
100
AcDbArc
 50
185.8953739697808
 51
235.1280732984768
  0
ARC
  5
1154
330
1145
100
AcDbEntity
  8
BLOCKS
100
AcDbCircle
 10
0.2852200706886083
 20
0.0039999999999998
 30
0.0
 40
0.004
100
AcDbArc
 50
270.0
 51
0.0
  0
ARC
  5
1155
330
1145
100
AcDbEntity
  8
BLOCKS
100
AcDbCircle
 10
0.1182200706886084
 20
0.0039999999999998
 30
0.0
 40
0.004
100
AcDbArc
 50
180.0
 51
270.0
  0
LINE
  5
1156
330
1145
100
AcDbEntity
  8
BLOCKS
100
AcDbLine
 10
0.1182200706886084
 20
0.0
 30
0.0
 11
0.1808846842298294
 21
0.0
 31
0.0
  0
LINE
  5
1157
330
1145
100
AcDbEntity
  8
BLOCKS
100
AcDbLine
 10
0.1808846842298294
 20
0.0
 30
0.0
 11
0.2852200706886083
 21
0.0
 31
0.0
  0
LINE
  5
1158
330
1145
100
AcDbEntity
  8
BLOCKS
100
AcDbLine
 10
0.1142200706886086
 20
0.6770169800342553
 30
0.0
 11
0.1142200706886086
 21
0.0039999999999998
 31
0.0
  0
LINE
  5
1159
330
1145
100
AcDbEntity
  8
BLOCKS
100
AcDbLine
 10
0.2892200706886086
 20
0.0039999999999998
 30
0.0
 11
0.2892200706886086
 21
0.6744300649224618
 31
0.0
  0
ENDBLK
  5
115B
330
1145
100
AcDbEntity
  8
0
100
AcDbBlockEnd
  0
BLOCK
  5
1171
330
115D
100
AcDbEntity
  8
0
100
AcDbBlockBegin
  2
114300AF
 70
     0
 10
0.0
 20
0.0
 30
0.0
  3
114300AF
  1

  0
ARC
  5
115E
330
115D
100
AcDbEntity
  8
BLOCKS
100
AcDbCircle
 10
0.2642133454758891
 20
0.8220993854187026
 30
0.0
 40
0.012
100
AcDbArc
 50
12.0903005803133
 51
90.0
  0
ARC
  5
115F
330
115D
100
AcDbEntity
  8
BLOCKS
100
AcDbCircle
 10
0.181354953030054
 20
0.7981411369240817
 30
0.0
 40
0.0965922221472273
100
AcDbArc
 50
288.053548304267
 51
345.2926996787239
  0
ARC
  5
1160
330
115D
100
AcDbEntity
  8
BLOCKS
100
AcDbCircle
 10
0.1683282982642098
 20
0.8015603899071937
 30
0.0
 40
0.1100601479471031
100
AcDbArc
 50
345.2926996787239
 51
12.0903005803133
  0
ARC
  5
1161
330
115D
100
AcDbEntity
  8
BLOCKS
100
AcDbCircle
 10
0.0846838221994821
 20
0.6790042263947801
 30
0.0
 40
0.0029999999999998
100
AcDbArc
 50
0.0
 51
90.0
  0
ARC
  5
1162
330
115D
100
AcDbEntity
  8
BLOCKS
100
AcDbCircle
 10
0.0626128095334238
 20
0.585327121855671
 30
0.0
 40
0.100614893556641
100
AcDbArc
 50
71.73962336121231
 51
85.02255982719178
  0
ARC
  5
1163
330
115D
100
AcDbEntity
  8
BLOCKS
100
AcDbCircle
 10
-0.0622451651344596
 20
0.585327121855671
 30
0.0
 40
0.100614893556641
100
AcDbArc
 50
94.97744017280821
 51
108.2603766387876
  0
ARC
  5
1164
330
115D
100
AcDbEntity
  8
BLOCKS
100
AcDbCircle
 10
-0.084316177800518
 20
0.6790042263947801
 30
0.0
 40
0.0030000000000001
100
AcDbArc
 50
90.0
 51
180.0
  0
ARC
  5
1165
330
115D
100
AcDbEntity
  8
BLOCKS
100
AcDbCircle
 10
0.0001838221994819
 20
-0.0901379654326422
 30
0.0
 40
0.7789588053041781
100
AcDbArc
 50
84.71951311887892
 51
95.28048688112107
  0
ARC
  5
1166
330
115D
100
AcDbEntity
  8
BLOCKS
100
AcDbCircle
 10
-0.2638457010769249
 20
0.8220993854187026
 30
0.0
 40
0.012
100
AcDbArc
 50
90.0
 51
167.9096994196867
  0
ARC
  5
1167
330
115D
100
AcDbEntity
  8
BLOCKS
100
AcDbCircle
 10
-0.1809873086310898
 20
0.7981411369240817
 30
0.0
 40
0.0965922221472273
100
AcDbArc
 50
194.7073003212761
 51
251.946451695733
  0
ARC
  5
1168
330
115D
100
AcDbEntity
  8
BLOCKS
100
AcDbCircle
 10
-0.1679606538652457
 20
0.8015603899071937
 30
0.0
 40
0.1100601479471031
100
AcDbArc
 50
167.9096994196867
 51
194.7073003212761
  0
ARC
  5
1169
330
115D
100
AcDbEntity
  8
BLOCKS
100
AcDbCircle
 10
-0.0273192193438365
 20
1.269583218723004
 30
0.0
 40
0.5924465537367555
100
AcDbArc
 50
251.946451695733
 51
264.2101710463478
  0
ARC
  5
116A
330
115D
100
AcDbEntity
  8
BLOCKS
100
AcDbCircle
 10
0.0846838221994821
 20
0.0030042263947803
 30
0.0
 40
0.0030000000000001
100
AcDbArc
 50
270.0
 51
0.0
  0
ARC
  5
116B
330
115D
100
AcDbEntity
  8
BLOCKS
100
AcDbCircle
 10
-0.084316177800518
 20
0.0030042263947803
 30
0.0
 40
0.0030000000000001
100
AcDbArc
 50
180.0
 51
270.0
  0
LINE
  5
116C
330
115D
100
AcDbEntity
  8
BLOCKS
100
AcDbLine
 10
-0.084316177800518
 20
0.0000042263947802
 30
0.0
 11
0.0846838221994821
 21
0.0000042263947802
 31
0.0
  0
LINE
  5
116D
330
115D
100
AcDbEntity
  8
BLOCKS
100
AcDbLine
 10
-0.0873161778005181
 20
0.6790042263947801
 30
0.0
 11
-0.0873161778005181
 21
0.0030042263947803
 31
0.0
  0
LINE
  5
116E
330
115D
100
AcDbEntity
  8
BLOCKS
100
AcDbLine
 10
0.087683822199482
 20
0.0030042263947803
 30
0.0
 11
0.087683822199482
 21
0.6790042263947801
 31
0.0
  0
ARC
  5
116F
330
115D
100
AcDbEntity
  8
BLOCKS
100
AcDbCircle
 10
0.0276868637428007
 20
1.269583218723004
 30
0.0
 40
0.5924465537367555
100
AcDbArc
 50
275.7898289536523
 51
288.053548304267
  0
LINE
  5
1170
330
115D
100
AcDbEntity
  8
BLOCKS
100
AcDbLine
 10
-0.2638457010769249
 20
0.8340993854187024
 30
0.0
 11
0.2642133454758891
 21
0.8340993854187024
 31
0.0
  0
ENDBLK
  5
1172
330
115D
100
AcDbEntity
  8
0
100
AcDbBlockEnd
  0
ENDSEC
  0
SECTION
  2
ENTITIES
  0
INSERT
  5
10D4
330
1F
100
AcDbEntity
  8
cotas
100
AcDbBlockReference
  2
114300PL
 10
223.0581466524836
 20
150.3114605056829
 30
0.0
  0
INSERT
  5
1144
330
1F
100
AcDbEntity
  8
cotas
100
AcDbBlockReference
  2
114300CT
 10
223.5984932025906
 20
149.7567292881833
 30
0.0
  0
INSERT
  5
115C
330
1F
100
AcDbEntity
  8
cotas
100
AcDbBlockReference
  2
114300AL
 10
224.2486777955547
 20
149.7567292881833
 30
0.0
  0
INSERT
  5
1173
330
1F
100
AcDbEntity
  8
cotas
100
AcDbBlockReference
  2
114300AF
 10
225.2309457501857
 20
149.7567292881833
 30
0.0
  0
ENDSEC
  0
SECTION
  2
OBJECTS
  0
DICTIONARY
  5
C
330
0
100
AcDbDictionary
281
     1
  3
ACAD_COLOR
350
BA9
  3
ACAD_GROUP
350
D
  3
ACAD_LAYOUT
350
1A
  3
ACAD_MATERIAL
350
BA8
  3
ACAD_MLEADERSTYLE
350
11C3
  3
ACAD_MLINESTYLE
350
17
  3
ACAD_PLOTSETTINGS
350
19
  3
ACAD_PLOTSTYLENAME
350
E
  3
ACAD_SCALELIST
350
11B1
  3
ACAD_TABLESTYLE
350
BAA
  3
ACAD_VISUALSTYLE
350
119D
  3
ACDB_RECOMPOSE_DATA
350
11F2
  3
AcDbVariableDictionary
350
3D
  3
ASE_INDEX_DICTIONARY
350
B91
  3
DWGPROPS
350
11F3
  0
DICTIONARY
  5
11CB
330
10
100
AcDbDictionary
280
     1
281
     1
  3
ADSK_XREC_LAYER_RECONCILED
360
11CC
  0
DICTIONARY
  5
11CD
330
2F
100
AcDbDictionary
280
     1
281
     1
  3
ADSK_XREC_LAYER_RECONCILED
360
11CE
  0
DICTIONARY
  5
11CF
330
30
100
AcDbDictionary
280
     1
281
     1
  3
ADSK_XREC_LAYER_RECONCILED
360
11D0
  0
DICTIONARY
  5
11D1
330
31
100
AcDbDictionary
280
     1
281
     1
  3
ADSK_XREC_LAYER_RECONCILED
360
11D2
  0
DICTIONARY
  5
11D3
330
32
100
AcDbDictionary
280
     1
281
     1
  3
ADSK_XREC_LAYER_RECONCILED
360
11D4
  0
DICTIONARY
  5
11D5
330
33
100
AcDbDictionary
280
     1
281
     1
  3
ADSK_XREC_LAYER_RECONCILED
360
11D6
  0
DICTIONARY
  5
11D7
330
34
100
AcDbDictionary
280
     1
281
     1
  3
ADSK_XREC_LAYER_RECONCILED
360
11D8
  0
DICTIONARY
  5
11D9
330
35
100
AcDbDictionary
280
     1
281
     1
  3
ADSK_XREC_LAYER_RECONCILED
360
11DA
  0
DICTIONARY
  5
11DB
330
36
100
AcDbDictionary
280
     1
281
     1
  3
ADSK_XREC_LAYER_RECONCILED
360
11DC
  0
DICTIONARY
  5
11DD
330
37
100
AcDbDictionary
280
     1
281
     1
  3
ADSK_XREC_LAYER_RECONCILED
360
11DE
  0
DICTIONARY
  5
11DF
330
5D6
100
AcDbDictionary
280
     1
281
     1
  3
ADSK_XREC_LAYER_RECONCILED
360
11E0
  0
DICTIONARY
  5
11E1
330
8AF
100
AcDbDictionary
280
     1
281
     1
  3
ADSK_XREC_LAYER_RECONCILED
360
11E2
  0
DICTIONARY
  5
11E3
330
8F8
100
AcDbDictionary
280
     1
281
     1
  3
ADSK_XREC_LAYER_RECONCILED
360
11E4
  0
DICTIONARY
  5
11E5
330
91D
100
AcDbDictionary
280
     1
281
     1
  3
ADSK_XREC_LAYER_RECONCILED
360
11E6
  0
DICTIONARY
  5
11E7
330
BA5
100
AcDbDictionary
280
     1
281
     1
  3
ADSK_XREC_LAYER_RECONCILED
360
11E8
  0
DICTIONARY
  5
11E9
330
F89
100
AcDbDictionary
280
     1
281
     1
  3
ADSK_XREC_LAYER_RECONCILED
360
11EA
  0
DICTIONARY
  5
1094
330
1F
100
AcDbDictionary
280
     1
281
     1
  3
ACAD_SORTENTS
360
1095
  0
DICTIONARY
  5
BA9
102
{ACAD_REACTORS
330
C
102
}
330
C
100
AcDbDictionary
281
     1
  0
DICTIONARY
  5
D
102
{ACAD_REACTORS
330
C
102
}
330
C
100
AcDbDictionary
281
     1
  0
DICTIONARY
  5
1A
102
{ACAD_REACTORS
330
C
102
}
330
C
100
AcDbDictionary
281
     1
  3
Layout1
350
1E
  3
Layout2
350
26
  3
Model
350
22
  0
DICTIONARY
  5
BA8
102
{ACAD_REACTORS
330
C
102
}
330
C
100
AcDbDictionary
281
     1
  3
ByBlock
350
118D
  3
ByLayer
350
1185
  3
Global
350
1195
  0
DICTIONARY
  5
11C3
102
{ACAD_REACTORS
330
C
102
}
330
C
100
AcDbDictionary
281
     1
  3
Standard
350
11C4
  0
DICTIONARY
  5
17
102
{ACAD_REACTORS
330
C
102
}
330
C
100
AcDbDictionary
281
     1
  3
Standard
350
18
  0
DICTIONARY
  5
19
102
{ACAD_REACTORS
330
C
102
}
330
C
100
AcDbDictionary
281
     1
  0
ACDBDICTIONARYWDFLT
  5
E
102
{ACAD_REACTORS
330
C
102
}
330
C
100
AcDbDictionary
281
     1
  3
Normal
350
F
100
AcDbDictionaryWithDefault
340
F
  0
DICTIONARY
  5
11B1
102
{ACAD_REACTORS
330
C
102
}
330
C
100
AcDbDictionary
281
     1
  3
A0
350
11B2
  3
A1
350
11B3
  3
A2
350
11B4
  3
A3
350
11B5
  3
A4
350
11B6
  3
A5
350
11B7
  3
A6
350
11B8
  3
A7
350
11B9
  3
A8
350
11BA
  3
A9
350
11BB
  3
B0
350
11BC
  3
B1
350
11BD
  3
B2
350
11BE
  3
B3
350
11BF
  3
B4
350
11C0
  3
B5
350
11C1
  3
B6
350
11C2
  0
DICTIONARY
  5
BAA
102
{ACAD_REACTORS
330
C
102
}
330
C
100
AcDbDictionary
281
     1
  3
Standard
350
BAB
  0
DICTIONARY
  5
119D
102
{ACAD_REACTORS
330
C
102
}
330
C
100
AcDbDictionary
281
     1
  3
2dWireframe
350
11A3
  3
3D Hidden
350
11A5
  3
3dWireframe
350
11A4
  3
Basic
350
11A2
  3
Brighten
350
11A9
  3
ColorChange
350
11AD
  3
Conceptual
350
11A6
  3
Dim
350
11A8
  3
EdgeColorOff
350
11B0
  3
Facepattern
350
11AC
  3
Flat
350
119E
  3
FlatWithEdges
350
119F
  3
Gouraud
350
11A0
  3
GouraudWithEdges
350
11A1
  3
JitterOff
350
11AE
  3
Linepattern
350
11AB
  3
OverhangOff
350
11AF
  3
Realistic
350
11A7
  3
Thicken
350
11AA
  0
XRECORD
  5
11F2
102
{ACAD_REACTORS
330
C
102
}
330
C
100
AcDbXrecord
280
     1
 90
        1
330
BAB
  0
DICTIONARY
  5
3D
102
{ACAD_REACTORS
330
C
102
}
330
C
100
AcDbDictionary
281
     1
  3
CANNOSCALE
350
11EC
  3
CMLEADERSTYLE
350
11EB
  3
CTABLESTYLE
350
BB1
  3
DIMASSOC
350
3F
  3
HIDETEXT
350
3E
  3
INDEXCTL
350
11EE
  3
PROJECTNAME
350
10A8
  3
SORTENTS
350
11ED
  3
XCLIPFRAME
350
11EF
  0
DICTIONARY
  5
B91
102
{ACAD_REACTORS
330
C
102
}
330
C
100
AcDbDictionary
281
     1
  3
ASEBlockHierarchyIndexRecord
350
B92
1001
DCO15
1040
1485069952.593
  0
XRECORD
  5
11F3
102
{ACAD_REACTORS
330
C
102
}
330
C
100
AcDbXrecord
280
     1
  1
DWGPROPS COOKIE
  2

  3

  4

  6

  7

  8
Julio
  9

300
=
301
=
302
=
303
=
304
=
305
=
306
=
307
=
308
=
309
=
 40
0.0057392939814815
 41
2453909.48887044
 42
2456147.738572951
  1

 90
        0
  0
XRECORD
  5
11CC
102
{ACAD_REACTORS
330
11CB
102
}
330
11CB
100
AcDbXrecord
280
     1
290
     1
  0
XRECORD
  5
11CE
102
{ACAD_REACTORS
330
11CD
102
}
330
11CD
100
AcDbXrecord
280
     1
290
     1
  0
XRECORD
  5
11D0
102
{ACAD_REACTORS
330
11CF
102
}
330
11CF
100
AcDbXrecord
280
     1
290
     1
  0
XRECORD
  5
11D2
102
{ACAD_REACTORS
330
11D1
102
}
330
11D1
100
AcDbXrecord
280
     1
290
     1
  0
XRECORD
  5
11D4
102
{ACAD_REACTORS
330
11D3
102
}
330
11D3
100
AcDbXrecord
280
     1
290
     1
  0
XRECORD
  5
11D6
102
{ACAD_REACTORS
330
11D5
102
}
330
11D5
100
AcDbXrecord
280
     1
290
     1
  0
XRECORD
  5
11D8
102
{ACAD_REACTORS
330
11D7
102
}
330
11D7
100
AcDbXrecord
280
     1
290
     1
  0
XRECORD
  5
11DA
102
{ACAD_REACTORS
330
11D9
102
}
330
11D9
100
AcDbXrecord
280
     1
290
     1
  0
XRECORD
  5
11DC
102
{ACAD_REACTORS
330
11DB
102
}
330
11DB
100
AcDbXrecord
280
     1
290
     1
  0
XRECORD
  5
11DE
102
{ACAD_REACTORS
330
11DD
102
}
330
11DD
100
AcDbXrecord
280
     1
290
     1
  0
XRECORD
  5
11E0
102
{ACAD_REACTORS
330
11DF
102
}
330
11DF
100
AcDbXrecord
280
     1
290
     1
  0
XRECORD
  5
11E2
102
{ACAD_REACTORS
330
11E1
102
}
330
11E1
100
AcDbXrecord
280
     1
290
     1
  0
XRECORD
  5
11E4
102
{ACAD_REACTORS
330
11E3
102
}
330
11E3
100
AcDbXrecord
280
     1
290
     1
  0
XRECORD
  5
11E6
102
{ACAD_REACTORS
330
11E5
102
}
330
11E5
100
AcDbXrecord
280
     1
290
     1
  0
XRECORD
  5
11E8
102
{ACAD_REACTORS
330
11E7
102
}
330
11E7
100
AcDbXrecord
280
     1
290
     1
  0
XRECORD
  5
11EA
102
{ACAD_REACTORS
330
11E9
102
}
330
11E9
100
AcDbXrecord
280
     1
290
     1
  0
SORTENTSTABLE
  5
1095
102
{ACAD_REACTORS
330
1094
102
}
330
1094
100
AcDbSortentsTable
330
1F
  0
LAYOUT
  5
1E
102
{ACAD_XDICTIONARY
360
11F4
102
}
102
{ACAD_REACTORS
330
1A
102
}
330
1A
100
AcDbPlotSettings
  1

  2
Ploter HP500
  4

  6

 40
0.0
 41
0.0
 42
0.0
 43
0.0
 44
0.0
 45
0.0
 46
0.0
 47
0.0
 48
0.0
 49
0.0
140
0.0
141
0.0
142
1.0
143
1.0
 70
   688
 72
     0
 73
     0
 74
     5
  7
monochrome.ctb
 75
    16
147
1.0
148
0.0
149
0.0
100
AcDbLayout
  1
Layout1
 70
     1
 71
     1
 10
0.0
 20
0.0
 11
420.0
 21
297.0
 12
0.0
 22
0.0
 32
0.0
 14
1.000000000000000E+20
 24
1.000000000000000E+20
 34
1.000000000000000E+20
 15
-1.000000000000000E+20
 25
-1.000000000000000E+20
 35
-1.000000000000000E+20
146
0.0
 13
0.0
 23
0.0
 33
0.0
 16
1.0
 26
0.0
 36
0.0
 17
0.0
 27
1.0
 37
0.0
 76
     0
330
1B
  0
LAYOUT
  5
26
102
{ACAD_XDICTIONARY
360
11F8
102
}
102
{ACAD_REACTORS
330
1A
102
}
330
1A
100
AcDbPlotSettings
  1

  2
Ploter HP500
  4

  6

 40
0.0
 41
0.0
 42
0.0
 43
0.0
 44
0.0
 45
0.0
 46
0.0
 47
0.0
 48
0.0
 49
0.0
140
0.0
141
0.0
142
1.0
143
1.0
 70
   688
 72
     0
 73
     0
 74
     5
  7
monochrome.ctb
 75
    16
147
1.0
148
0.0
149
0.0
100
AcDbLayout
  1
Layout2
 70
     1
 71
     2
 10
0.0
 20
0.0
 11
12.0
 21
9.0
 12
0.0
 22
0.0
 32
0.0
 14
0.0
 24
0.0
 34
0.0
 15
0.0
 25
0.0
 35
0.0
146
0.0
 13
0.0
 23
0.0
 33
0.0
 16
1.0
 26
0.0
 36
0.0
 17
0.0
 27
1.0
 37
0.0
 76
     0
330
23
  0
LAYOUT
  5
22
102
{ACAD_XDICTIONARY
360
11F6
102
}
102
{ACAD_REACTORS
330
1A
102
}
330
1A
100
AcDbPlotSettings
  1

  2
Ploter HP500
  4
User268
  6

 40
4.995333194732666
 41
16.97565841674804
 42
4.995330810546875
 43
16.97567749023437
 44
209.9733276367187
 45
296.9259948730469
 46
0.0
 47
0.0
 48
0.0
 49
0.0
140
0.0
141
0.0
142
1.0
143
1.0
 70
 11952
 72
     1
 73
     1
 74
     0
  7
sanindusa.ctb
 75
     0
147
1.0
148
-427.5957866592534
149
7.362384574453926
100
AcDbLayout
  1
Model
 70
     1
 71
     0
 10
0.0
 20
0.0
 11
12.0
 21
9.0
 12
0.0
 22
0.0
 32
0.0
 14
0.0
 24
0.0
 34
0.0
 15
0.0
 25
0.0
 35
0.0
146
0.0
 13
0.0
 23
0.0
 33
0.0
 16
1.0
 26
0.0
 36
0.0
 17
0.0
 27
1.0
 37
0.0
 76
     0
330
1F
331
117C
  0
MATERIAL
  5
118D
102
{ACAD_XDICTIONARY
360
118E
102
}
102
{ACAD_REACTORS
330
BA8
102
}
330
BA8
100
AcDbMaterial
  1
ByBlock
 72
     0
 43
0.0008202099737533
 43
0.0
 43
0.0
 43
0.0
 43
0.0
 43
0.0008202099737533
 43
0.0
 43
0.0
 43
0.0
 43
0.0
 43
1.0
 43
0.0
 43
0.0
 43
0.0
 43
0.0
 43
1.0
 77
     0
 47
0.0008202099737533
 47
0.0
 47
0.0
 47
0.0
 47
0.0
 47
0.0008202099737533
 47
0.0
 47
0.0
 47
0.0
 47
0.0
 47
1.0
 47
0.0
 47
0.0
 47
0.0
 47
0.0
 47
1.0
171
     0
 49
0.0008202099737533
 49
0.0
 49
0.0
 49
0.0
 49
0.0
 49
0.0008202099737533
 49
0.0
 49
0.0
 49
0.0
 49
0.0
 49
1.0
 49
0.0
 49
0.0
 49
0.0
 49
0.0
 49
1.0
175
     0
142
0.0008202099737533
142
0.0
142
0.0
142
0.0
142
0.0
142
0.0008202099737533
142
0.0
142
0.0
142
0.0
142
0.0
142
1.0
142
0.0
142
0.0
142
0.0
142
0.0
142
1.0
179
     0
144
0.0008202099737533
144
0.0
144
0.0
144
0.0
144
0.0
144
0.0008202099737533
144
0.0
144
0.0
144
0.0
144
0.0
144
1.0
144
0.0
144
0.0
144
0.0
144
0.0
144
1.0
147
0.0008202099737533
147
0.0
147
0.0
147
0.0
147
0.0
147
0.0008202099737533
147
0.0
147
0.0
147
0.0
147
0.0
147
1.0
147
0.0
147
0.0
147
0.0
147
0.0
147
1.0
  0
MATERIAL
  5
1185
102
{ACAD_XDICTIONARY
360
1186
102
}
102
{ACAD_REACTORS
330
BA8
102
}
330
BA8
100
AcDbMaterial
  1
ByLayer
 72
     0
 43
0.0008202099737533
 43
0.0
 43
0.0
 43
0.0
 43
0.0
 43
0.0008202099737533
 43
0.0
 43
0.0
 43
0.0
 43
0.0
 43
1.0
 43
0.0
 43
0.0
 43
0.0
 43
0.0
 43
1.0
 77
     0
 47
0.0008202099737533
 47
0.0
 47
0.0
 47
0.0
 47
0.0
 47
0.0008202099737533
 47
0.0
 47
0.0
 47
0.0
 47
0.0
 47
1.0
 47
0.0
 47
0.0
 47
0.0
 47
0.0
 47
1.0
171
     0
 49
0.0008202099737533
 49
0.0
 49
0.0
 49
0.0
 49
0.0
 49
0.0008202099737533
 49
0.0
 49
0.0
 49
0.0
 49
0.0
 49
1.0
 49
0.0
 49
0.0
 49
0.0
 49
0.0
 49
1.0
175
     0
142
0.0008202099737533
142
0.0
142
0.0
142
0.0
142
0.0
142
0.0008202099737533
142
0.0
142
0.0
142
0.0
142
0.0
142
1.0
142
0.0
142
0.0
142
0.0
142
0.0
142
1.0
179
     0
144
0.0008202099737533
144
0.0
144
0.0
144
0.0
144
0.0
144
0.0008202099737533
144
0.0
144
0.0
144
0.0
144
0.0
144
1.0
144
0.0
144
0.0
144
0.0
144
0.0
144
1.0
147
0.0008202099737533
147
0.0
147
0.0
147
0.0
147
0.0
147
0.0008202099737533
147
0.0
147
0.0
147
0.0
147
0.0
147
1.0
147
0.0
147
0.0
147
0.0
147
0.0
147
1.0
  0
MATERIAL
  5
1195
102
{ACAD_XDICTIONARY
360
1196
102
}
102
{ACAD_REACTORS
330
BA8
102
}
330
BA8
100
AcDbMaterial
  1
Global
 72
     0
 43
0.0008202099737533
 43
0.0
 43
0.0
 43
0.0
 43
0.0
 43
0.0008202099737533
 43
0.0
 43
0.0
 43
0.0
 43
0.0
 43
1.0
 43
0.0
 43
0.0
 43
0.0
 43
0.0
 43
1.0
 77
     0
 47
0.0008202099737533
 47
0.0
 47
0.0
 47
0.0
 47
0.0
 47
0.0008202099737533
 47
0.0
 47
0.0
 47
0.0
 47
0.0
 47
1.0
 47
0.0
 47
0.0
 47
0.0
 47
0.0
 47
1.0
171
     0
 49
0.0008202099737533
 49
0.0
 49
0.0
 49
0.0
 49
0.0
 49
0.0008202099737533
 49
0.0
 49
0.0
 49
0.0
 49
0.0
 49
1.0
 49
0.0
 49
0.0
 49
0.0
 49
0.0
 49
1.0
175
     0
142
0.0008202099737533
142
0.0
142
0.0
142
0.0
142
0.0
142
0.0008202099737533
142
0.0
142
0.0
142
0.0
142
0.0
142
1.0
142
0.0
142
0.0
142
0.0
142
0.0
142
1.0
179
     0
144
0.0008202099737533
144
0.0
144
0.0
144
0.0
144
0.0
144
0.0008202099737533
144
0.0
144
0.0
144
0.0
144
0.0
144
1.0
144
0.0
144
0.0
144
0.0
144
0.0
144
1.0
147
0.0008202099737533
147
0.0
147
0.0
147
0.0
147
0.0
147
0.0008202099737533
147
0.0
147
0.0
147
0.0
147
0.0
147
1.0
147
0.0
147
0.0
147
0.0
147
0.0
147
1.0
  0
MLEADERSTYLE
  5
11C4
102
{ACAD_REACTORS
330
11C3
102
}
330
11C3
100
AcDbMLeaderStyle
170
     2
171
     1
172
     0
 90
        2
 40
0.0
 41
0.0
173
     1
 91
-1056964608
340
14
 92
       -2
290
     1
 42
2.0
291
     1
 43
0.36
  3
Standard
 44
4.0
300

342
11
174
     1
178
     6
175
     1
176
     0
 93
-1056964608
 45
4.0
292
     0
297
     0
 46
4.0
 94
-1056964608
 47
1.0
 49
1.0
140
1.0
293
     1
141
0.0
294
     1
177
     0
142
1.0
295
     0
296
     0
143
0.125
1001
ACAD_MLEADERVER
1070
     2
  0
MLINESTYLE
  5
18
102
{ACAD_REACTORS
330
17
102
}
330
17
100
AcDbMlineStyle
  2
STANDARD
 70
     0
  3

 62
   256
 51
90.0
 52
90.0
 71
     2
 49
0.5
 62
   256
  6
BYLAYER
 49
-0.5
 62
   256
  6
BYLAYER
  0
ACDBPLACEHOLDER
  5
F
102
{ACAD_REACTORS
330
E
102
}
330
E
  0
SCALE
  5
11B2
102
{ACAD_REACTORS
330
11B1
102
}
330
11B1
100
AcDbScale
 70
     0
300
1:1
140
1.0
141
1.0
290
     1
  0
SCALE
  5
11B3
102
{ACAD_REACTORS
330
11B1
102
}
330
11B1
100
AcDbScale
 70
     0
300
1:2
140
1.0
141
2.0
290
     0
  0
SCALE
  5
11B4
102
{ACAD_REACTORS
330
11B1
102
}
330
11B1
100
AcDbScale
 70
     0
300
1:4
140
1.0
141
4.0
290
     0
  0
SCALE
  5
11B5
102
{ACAD_REACTORS
330
11B1
102
}
330
11B1
100
AcDbScale
 70
     0
300
1:5
140
1.0
141
5.0
290
     0
  0
SCALE
  5
11B6
102
{ACAD_REACTORS
330
11B1
102
}
330
11B1
100
AcDbScale
 70
     0
300
1:8
140
1.0
141
8.0
290
     0
  0
SCALE
  5
11B7
102
{ACAD_REACTORS
330
11B1
102
}
330
11B1
100
AcDbScale
 70
     0
300
1:10
140
1.0
141
10.0
290
     0
  0
SCALE
  5
11B8
102
{ACAD_REACTORS
330
11B1
102
}
330
11B1
100
AcDbScale
 70
     0
300
1:16
140
1.0
141
16.0
290
     0
  0
SCALE
  5
11B9
102
{ACAD_REACTORS
330
11B1
102
}
330
11B1
100
AcDbScale
 70
     0
300
1:20
140
1.0
141
20.0
290
     0
  0
SCALE
  5
11BA
102
{ACAD_REACTORS
330
11B1
102
}
330
11B1
100
AcDbScale
 70
     0
300
1:30
140
1.0
141
30.0
290
     0
  0
SCALE
  5
11BB
102
{ACAD_REACTORS
330
11B1
102
}
330
11B1
100
AcDbScale
 70
     0
300
1:40
140
1.0
141
40.0
290
     0
  0
SCALE
  5
11BC
102
{ACAD_REACTORS
330
11B1
102
}
330
11B1
100
AcDbScale
 70
     0
300
1:50
140
1.0
141
50.0
290
     0
  0
SCALE
  5
11BD
102
{ACAD_REACTORS
330
11B1
102
}
330
11B1
100
AcDbScale
 70
     0
300
1:100
140
1.0
141
100.0
290
     0
  0
SCALE
  5
11BE
102
{ACAD_REACTORS
330
11B1
102
}
330
11B1
100
AcDbScale
 70
     0
300
2:1
140
2.0
141
1.0
290
     0
  0
SCALE
  5
11BF
102
{ACAD_REACTORS
330
11B1
102
}
330
11B1
100
AcDbScale
 70
     0
300
4:1
140
4.0
141
1.0
290
     0
  0
SCALE
  5
11C0
102
{ACAD_REACTORS
330
11B1
102
}
330
11B1
100
AcDbScale
 70
     0
300
8:1
140
8.0
141
1.0
290
     0
  0
SCALE
  5
11C1
102
{ACAD_REACTORS
330
11B1
102
}
330
11B1
100
AcDbScale
 70
     0
300
10:1
140
10.0
141
1.0
290
     0
  0
SCALE
  5
11C2
102
{ACAD_REACTORS
330
11B1
102
}
330
11B1
100
AcDbScale
 70
     0
300
100:1
140
100.0
141
1.0
290
     0
  0
TABLESTYLE
  5
BAB
102
{ACAD_XDICTIONARY
360
11F0
102
}
102
{ACAD_REACTORS
330
BAA
102
}
330
BAA
100
AcDbTableStyle
  3
Standard
 70
     0
 71
     0
 40
1.5
 41
1.5
280
     0
281
     0
  7
Standard
140
4.5
170
     2
 62
     0
 63
     7
283
     0
274
    -2
284
     1
 64
     0
275
    -2
285
     1
 65
     0
276
    -2
286
     1
 66
     0
277
    -2
287
     1
 67
     0
278
    -2
288
     1
 68
     0
279
    -2
289
     1
 69
     0
  7
Standard
140
6.0
170
     5
 62
     0
 63
     7
283
     0
274
    -2
284
     1
 64
     0
275
    -2
285
     1
 65
     0
276
    -2
286
     1
 66
     0
277
    -2
287
     1
 67
     0
278
    -2
288
     1
 68
     0
279
    -2
289
     1
 69
     0
  7
Standard
140
4.5
170
     5
 62
     0
 63
     7
283
     0
274
    -2
284
     1
 64
     0
275
    -2
285
     1
 65
     0
276
    -2
286
     1
 66
     0
277
    -2
287
     1
 67
     0
278
    -2
288
     1
 68
     0
279
    -2
289
     1
 69
     0
  0
VISUALSTYLE
  5
11A3
102
{ACAD_XDICTIONARY
360
1210
102
}
102
{ACAD_REACTORS
330
119D
102
}
330
119D
100
AcDbVisualStyle
  2
2dWireframe
 70
     4
 71
     0
 72
     2
 73
     0
 90
        0
 40
-0.6
 41
-30.0
 62
     5
 63
     7
 74
     1
 91
        4
 64
     7
 65
   257
 75
     1
175
     1
 42
1.0
 92
        0
 66
   257
 43
1.0
 76
     1
 77
     6
 78
     2
 67
     7
 79
     5
170
     0
171
     0
290
     0
174
     0
 93
        1
 44
0.0
173
     0
291
     0
 45
0.0
1001
ACAD
1000
AcDbSavedByObjectVersion
1070
     0
  0
VISUALSTYLE
  5
11A5
102
{ACAD_XDICTIONARY
360
1214
102
}
102
{ACAD_REACTORS
330
119D
102
}
330
119D
100
AcDbVisualStyle
  2
3D Hidden
 70
     6
 71
     1
 72
     2
 73
     2
 90
        0
 40
-0.6
 41
-30.0
 62
     5
 63
     7
 74
     2
 91
        2
 64
     7
 65
   257
 75
     2
175
     1
 42
179.0
 92
        0
 66
   257
 43
1.0
 76
     1
 77
     6
 78
     2
 67
     7
 79
     3
170
     0
171
     0
290
     0
174
     0
 93
        1
 44
0.0
173
     0
291
     0
 45
0.0
1001
ACAD
1000
AcDbSavedByObjectVersion
1070
     0
  0
VISUALSTYLE
  5
11A4
102
{ACAD_XDICTIONARY
360
1212
102
}
102
{ACAD_REACTORS
330
119D
102
}
330
119D
100
AcDbVisualStyle
  2
3dWireframe
 70
     5
 71
     0
 72
     2
 73
     0
 90
        0
 40
-0.6
 41
-30.0
 62
     5
 63
     7
 74
     1
 91
        4
 64
     7
 65
   257
 75
     1
175
     1
 42
1.0
 92
        0
 66
   257
 43
1.0
 76
     1
 77
     6
 78
     2
 67
     7
 79
     5
170
     0
171
     0
290
     0
174
     0
 93
        1
 44
0.0
173
     0
291
     0
 45
0.0
1001
ACAD
1000
AcDbSavedByObjectVersion
1070
     0
  0
VISUALSTYLE
  5
11A2
102
{ACAD_XDICTIONARY
360
120E
102
}
102
{ACAD_REACTORS
330
119D
102
}
330
119D
100
AcDbVisualStyle
  2
Basic
 70
     7
 71
     1
 72
     0
 73
     1
 90
        0
 40
-0.6
 41
-30.0
 62
     5
 63
     7
 74
     0
 91
        4
 64
     7
 65
   257
 75
     1
175
     1
 42
1.0
 92
        8
 66
     7
 43
1.0
 76
     1
 77
     6
 78
     2
 67
     7
 79
     5
170
     0
171
     0
290
     0
174
     0
 93
        1
 44
0.0
173
     0
291
     1
 45
0.0
1001
ACAD
1000
AcDbSavedByObjectVersion
1070
     0
  0
VISUALSTYLE
  5
11A9
102
{ACAD_XDICTIONARY
360
121C
102
}
102
{ACAD_REACTORS
330
119D
102
}
330
119D
100
AcDbVisualStyle
  2
Brighten
 70
    12
 71
     2
 72
     2
 73
     0
 90
        0
 40
-0.6
 41
-30.0
 62
     5
 63
     7
 74
     1
 91
        4
 64
     7
 65
   257
 75
     1
175
     1
 42
1.0
 92
        8
 66
     7
 43
1.0
 76
     1
 77
     6
 78
     2
 67
     7
 79
     5
170
     0
171
     0
290
     0
174
     0
 93
        1
 44
50.0
173
     0
291
     1
 45
0.0
1001
ACAD
1000
AcDbSavedByObjectVersion
1070
     0
  0
VISUALSTYLE
  5
11AD
102
{ACAD_XDICTIONARY
360
1224
102
}
102
{ACAD_REACTORS
330
119D
102
}
330
119D
100
AcDbVisualStyle
  2
ColorChange
 70
    16
 71
     2
 72
     2
 73
     3
 90
        0
 40
-0.6
 41
-30.0
 62
     5
 63
     8
 74
     1
 91
        4
 64
     7
 65
   257
 75
     1
175
     1
 42
1.0
 92
        8
 66
     8
 43
1.0
 76
     1
 77
     6
 78
     2
 67
     7
 79
     5
170
     0
171
     0
290
     0
174
     0
 93
        1
 44
0.0
173
     0
291
     1
 45
0.0
1001
ACAD
1000
AcDbSavedByObjectVersion
1070
     0
  0
VISUALSTYLE
  5
11A6
102
{ACAD_XDICTIONARY
360
1216
102
}
102
{ACAD_REACTORS
330
119D
102
}
330
119D
100
AcDbVisualStyle
  2
Conceptual
 70
     9
 71
     3
 72
     2
 73
     0
 90
        0
 40
-0.6
 41
-30.0
 62
     5
 63
     7
 74
     2
 91
        2
 64
     7
 65
   257
 75
     1
175
     1
 42
179.0
 92
        8
 66
     7
 43
1.0
 76
     1
 77
     6
 78
     2
 67
     7
 79
     3
170
     0
171
     0
290
     0
174
     0
 93
        1
 44
0.0
173
     0
291
     0
 45
0.0
1001
ACAD
1000
AcDbSavedByObjectVersion
1070
     0
  0
VISUALSTYLE
  5
11A8
102
{ACAD_XDICTIONARY
360
121A
102
}
102
{ACAD_REACTORS
330
119D
102
}
330
119D
100
AcDbVisualStyle
  2
Dim
 70
    11
 71
     2
 72
     2
 73
     0
 90
        0
 40
-0.6
 41
-30.0
 62
     5
 63
     7
 74
     1
 91
        4
 64
     7
 65
   257
 75
     1
175
     1
 42
1.0
 92
        8
 66
     7
 43
1.0
 76
     1
 77
     6
 78
     2
 67
     7
 79
     5
170
     0
171
     0
290
     0
174
     0
 93
        1
 44
-50.0
173
     0
291
     1
 45
0.0
1001
ACAD
1000
AcDbSavedByObjectVersion
1070
     0
  0
VISUALSTYLE
  5
11B0
102
{ACAD_XDICTIONARY
360
122A
102
}
102
{ACAD_REACTORS
330
119D
102
}
330
119D
100
AcDbVisualStyle
  2
EdgeColorOff
 70
    22
 71
     2
 72
     2
 73
     0
 90
        0
 40
-0.6
 41
-30.0
 62
     5
 63
     7
 74
     1
 91
        4
 64
     7
 65
   257
 75
     1
175
     1
 42
1.0
 92
        8
 66
     7
 43
1.0
 76
     1
 77
     6
 78
     2
 67
     7
 79
     5
170
     0
171
     0
290
     0
174
     0
 93
        1
 44
0.0
173
     0
291
     1
 45
0.0
1001
ACAD
1000
AcDbSavedByObjectVersion
1070
     0
  0
VISUALSTYLE
  5
11AC
102
{ACAD_XDICTIONARY
360
1222
102
}
102
{ACAD_REACTORS
330
119D
102
}
330
119D
100
AcDbVisualStyle
  2
Facepattern
 70
    15
 71
     2
 72
     2
 73
     0
 90
        0
 40
-0.6
 41
-30.0
 62
     5
 63
     7
 74
     1
 91
        4
 64
     7
 65
   257
 75
     1
175
     1
 42
1.0
 92
        8
 66
     7
 43
1.0
 76
     1
 77
     6
 78
     2
 67
     7
 79
     5
170
     0
171
     0
290
     0
174
     0
 93
        1
 44
0.0
173
     0
291
     1
 45
0.0
1001
ACAD
1000
AcDbSavedByObjectVersion
1070
     0
  0
VISUALSTYLE
  5
119E
102
{ACAD_XDICTIONARY
360
1206
102
}
102
{ACAD_REACTORS
330
119D
102
}
330
119D
100
AcDbVisualStyle
  2
Flat
 70
     0
 71
     2
 72
     1
 73
     1
 90
        2
 40
-0.6
 41
30.0
 62
     5
 63
     7
 74
     0
 91
        4
 64
     7
 65
   257
 75
     1
175
     1
 42
1.0
 92
        8
 66
     7
 43
1.0
 76
     1
 77
     6
 78
     2
 67
     7
 79
     5
170
     0
171
     0
290
     0
174
     0
 93
       13
 44
0.0
173
     0
291
     1
 45
0.0
1001
ACAD
1000
AcDbSavedByObjectVersion
1070
     0
  0
VISUALSTYLE
  5
119F
102
{ACAD_XDICTIONARY
360
1208
102
}
102
{ACAD_REACTORS
330
119D
102
}
330
119D
100
AcDbVisualStyle
  2
FlatWithEdges
 70
     1
 71
     2
 72
     1
 73
     1
 90
        2
 40
-0.6
 41
30.0
 62
     5
 63
     7
 74
     1
 91
        4
 64
     7
 65
   257
 75
     1
175
     1
 42
1.0
 92
        0
 66
   257
 43
1.0
 76
     1
 77
     6
 78
     2
 67
     7
 79
     5
170
     0
171
     0
290
     0
174
     0
 93
       13
 44
0.0
173
     0
291
     1
 45
0.0
1001
ACAD
1000
AcDbSavedByObjectVersion
1070
     0
  0
VISUALSTYLE
  5
11A0
102
{ACAD_XDICTIONARY
360
120A
102
}
102
{ACAD_REACTORS
330
119D
102
}
330
119D
100
AcDbVisualStyle
  2
Gouraud
 70
     2
 71
     2
 72
     2
 73
     1
 90
        2
 40
-0.6
 41
30.0
 62
     5
 63
     7
 74
     0
 91
        4
 64
     7
 65
   257
 75
     1
175
     1
 42
1.0
 92
        0
 66
     7
 43
1.0
 76
     1
 77
     6
 78
     2
 67
     7
 79
     5
170
     0
171
     0
290
     0
174
     0
 93
       13
 44
0.0
173
     0
291
     1
 45
0.0
1001
ACAD
1000
AcDbSavedByObjectVersion
1070
     0
  0
VISUALSTYLE
  5
11A1
102
{ACAD_XDICTIONARY
360
120C
102
}
102
{ACAD_REACTORS
330
119D
102
}
330
119D
100
AcDbVisualStyle
  2
GouraudWithEdges
 70
     3
 71
     2
 72
     2
 73
     1
 90
        2
 40
-0.6
 41
30.0
 62
     5
 63
     7
 74
     1
 91
        4
 64
     7
 65
   257
 75
     1
175
     1
 42
1.0
 92
        0
 66
   257
 43
1.0
 76
     1
 77
     6
 78
     2
 67
     7
 79
     5
170
     0
171
     0
290
     0
174
     0
 93
       13
 44
0.0
173
     0
291
     1
 45
0.0
1001
ACAD
1000
AcDbSavedByObjectVersion
1070
     0
  0
VISUALSTYLE
  5
11AE
102
{ACAD_XDICTIONARY
360
1226
102
}
102
{ACAD_REACTORS
330
119D
102
}
330
119D
100
AcDbVisualStyle
  2
JitterOff
 70
    20
 71
     2
 72
     2
 73
     0
 90
        0
 40
-0.6
 41
-30.0
 62
     5
 63
     7
 74
     1
 91
        4
 64
     7
 65
   257
 75
     1
175
     1
 42
1.0
 92
       10
 66
     7
 43
1.0
 76
     1
 77
     6
 78
     2
 67
     7
 79
     5
170
     0
171
     0
290
     0
174
     0
 93
        1
 44
0.0
173
     0
291
     1
 45
0.0
1001
ACAD
1000
AcDbSavedByObjectVersion
1070
     0
  0
VISUALSTYLE
  5
11AB
102
{ACAD_XDICTIONARY
360
1220
102
}
102
{ACAD_REACTORS
330
119D
102
}
330
119D
100
AcDbVisualStyle
  2
Linepattern
 70
    14
 71
     2
 72
     2
 73
     0
 90
        0
 40
-0.6
 41
-30.0
 62
     5
 63
     7
 74
     1
 91
        4
 64
     7
 65
   257
 75
     7
175
     7
 42
1.0
 92
        8
 66
     7
 43
1.0
 76
     1
 77
     6
 78
     2
 67
     7
 79
     5
170
     0
171
     0
290
     0
174
     0
 93
        1
 44
0.0
173
     0
291
     1
 45
0.0
1001
ACAD
1000
AcDbSavedByObjectVersion
1070
     0
  0
VISUALSTYLE
  5
11AF
102
{ACAD_XDICTIONARY
360
1228
102
}
102
{ACAD_REACTORS
330
119D
102
}
330
119D
100
AcDbVisualStyle
  2
OverhangOff
 70
    21
 71
     2
 72
     2
 73
     0
 90
        0
 40
-0.6
 41
-30.0
 62
     5
 63
     7
 74
     1
 91
        4
 64
     7
 65
   257
 75
     1
175
     1
 42
1.0
 92
        9
 66
     7
 43
1.0
 76
     1
 77
     6
 78
     2
 67
     7
 79
     5
170
     0
171
     0
290
     0
174
     0
 93
        1
 44
0.0
173
     0
291
     1
 45
0.0
1001
ACAD
1000
AcDbSavedByObjectVersion
1070
     0
  0
VISUALSTYLE
  5
11A7
102
{ACAD_XDICTIONARY
360
1218
102
}
102
{ACAD_REACTORS
330
119D
102
}
330
119D
100
AcDbVisualStyle
  2
Realistic
 70
     8
 71
     2
 72
     2
 73
     0
 90
        0
 40
-0.6
 41
-30.0
 62
     5
 63
     7
 74
     1
 91
        0
 64
     7
 65
   257
 75
     1
175
     1
 42
1.0
 92
        8
 66
     8
 43
1.0
 76
     1
 77
     6
 78
     2
 67
     7
 79
     5
170
     0
171
     0
290
     0
174
     0
 93
       13
 44
0.0
173
     0
291
     0
 45
0.0
1001
ACAD
1000
AcDbSavedByObjectVersion
1070
     0
  0
VISUALSTYLE
  5
11AA
102
{ACAD_XDICTIONARY
360
121E
102
}
102
{ACAD_REACTORS
330
119D
102
}
330
119D
100
AcDbVisualStyle
  2
Thicken
 70
    13
 71
     2
 72
     2
 73
     0
 90
        0
 40
-0.6
 41
-30.0
 62
     5
 63
     7
 74
     1
 91
        4
 64
     7
 65
   257
 75
     1
175
     1
 42
1.0
 92
       12
 66
     7
 43
1.0
 76
     1
 77
     6
 78
     2
 67
     7
 79
     5
170
     0
171
     0
290
     0
174
     0
 93
        1
 44
0.0
173
     0
291
     1
 45
0.0
1001
ACAD
1000
AcDbSavedByObjectVersion
1070
     0
  0
DICTIONARYVAR
  5
11EC
102
{ACAD_REACTORS
330
3D
102
}
330
3D
100
DictionaryVariables
280
     0
  1
1:1
  0
DICTIONARYVAR
  5
11EB
102
{ACAD_REACTORS
330
3D
102
}
330
3D
100
DictionaryVariables
280
     0
  1
STANDARD
  0
DICTIONARYVAR
  5
BB1
102
{ACAD_REACTORS
330
3D
102
}
330
3D
100
DictionaryVariables
280
     0
  1
STANDARD
  0
DICTIONARYVAR
  5
3F
102
{ACAD_REACTORS
330
3D
102
}
330
3D
100
DictionaryVariables
280
     0
  1
2
  0
DICTIONARYVAR
  5
3E
102
{ACAD_REACTORS
330
3D
102
}
330
3D
100
DictionaryVariables
280
     0
  1
1
  0
DICTIONARYVAR
  5
11EE
102
{ACAD_REACTORS
330
3D
102
}
330
3D
100
DictionaryVariables
280
     0
  1
0
  0
DICTIONARYVAR
  5
10A8
102
{ACAD_REACTORS
330
3D
102
}
330
3D
100
DictionaryVariables
280
     0
  1

  0
DICTIONARYVAR
  5
11ED
102
{ACAD_REACTORS
330
3D
102
}
330
3D
100
DictionaryVariables
280
     0
  1
127
  0
DICTIONARYVAR
  5
11EF
102
{ACAD_REACTORS
330
3D
102
}
330
3D
100
DictionaryVariables
280
     0
  1
2
  0
XRECORD
  5
B92
102
{ACAD_REACTORS
330
B91
102
}
330
B91
100
AcDbXrecord
280
     1
  0
DICTIONARY
  5
11F4
330
1E
100
AcDbDictionary
280
     1
281
     1
  3
ACAD_XREC_ROUNDTRIP
360
11F5
  0
DICTIONARY
  5
11F8
330
26
100
AcDbDictionary
280
     1
281
     1
  3
ACAD_XREC_ROUNDTRIP
360
11F9
  0
DICTIONARY
  5
11F6
330
22
100
AcDbDictionary
280
     1
281
     1
  3
ACAD_XREC_ROUNDTRIP
360
11F7
  0
DICTIONARY
  5
118E
330
118D
100
AcDbDictionary
280
     1
281
     1
  3
ACAD_XREC_ROUNDTRIP
360
1204
  3
BUMPTILE
360
1190
  3
DIFFUSETILE
360
118F
  3
OPACITYTILE
360
1193
  3
REFLECTIONTILE
360
1192
  3
REFRACTIONTILE
360
1194
  3
SPECULARTILE
360
1191
  0
DICTIONARY
  5
1186
330
1185
100
AcDbDictionary
280
     1
281
     1
  3
ACAD_XREC_ROUNDTRIP
360
1203
  3
BUMPTILE
360
1188
  3
DIFFUSETILE
360
1187
  3
OPACITYTILE
360
118B
  3
REFLECTIONTILE
360
118A
  3
REFRACTIONTILE
360
118C
  3
SPECULARTILE
360
1189
  0
DICTIONARY
  5
1196
330
1195
100
AcDbDictionary
280
     1
281
     1
  3
ACAD_XREC_ROUNDTRIP
360
1205
  3
BUMPTILE
360
1198
  3
DIFFUSETILE
360
1197
  3
OPACITYTILE
360
119B
  3
REFLECTIONTILE
360
119A
  3
REFRACTIONTILE
360
119C
  3
SPECULARTILE
360
1199
  0
DICTIONARY
  5
11F0
330
BAB
100
AcDbDictionary
280
     1
281
     1
  3
ACAD_ROUNDTRIP_2008_TABLESTYLE_CELLSTYLEMAP
360
11F1
  3
ACAD_XREC_ROUNDTRIP
360
11FA
  0
DICTIONARY
  5
1210
330
11A3
100
AcDbDictionary
280
     1
281
     1
  3
ACAD_XREC_ROUNDTRIP
360
1211
  0
DICTIONARY
  5
1214
330
11A5
100
AcDbDictionary
280
     1
281
     1
  3
ACAD_XREC_ROUNDTRIP
360
1215
  0
DICTIONARY
  5
1212
330
11A4
100
AcDbDictionary
280
     1
281
     1
  3
ACAD_XREC_ROUNDTRIP
360
1213
  0
DICTIONARY
  5
120E
330
11A2
100
AcDbDictionary
280
     1
281
     1
  3
ACAD_XREC_ROUNDTRIP
360
120F
  0
DICTIONARY
  5
121C
330
11A9
100
AcDbDictionary
280
     1
281
     1
  3
ACAD_XREC_ROUNDTRIP
360
121D
  0
DICTIONARY
  5
1224
330
11AD
100
AcDbDictionary
280
     1
281
     1
  3
ACAD_XREC_ROUNDTRIP
360
1225
  0
DICTIONARY
  5
1216
330
11A6
100
AcDbDictionary
280
     1
281
     1
  3
ACAD_XREC_ROUNDTRIP
360
1217
  0
DICTIONARY
  5
121A
330
11A8
100
AcDbDictionary
280
     1
281
     1
  3
ACAD_XREC_ROUNDTRIP
360
121B
  0
DICTIONARY
  5
122A
330
11B0
100
AcDbDictionary
280
     1
281
     1
  3
ACAD_XREC_ROUNDTRIP
360
122B
  0
DICTIONARY
  5
1222
330
11AC
100
AcDbDictionary
280
     1
281
     1
  3
ACAD_XREC_ROUNDTRIP
360
1223
  0
DICTIONARY
  5
1206
330
119E
100
AcDbDictionary
280
     1
281
     1
  3
ACAD_XREC_ROUNDTRIP
360
1207
  0
DICTIONARY
  5
1208
330
119F
100
AcDbDictionary
280
     1
281
     1
  3
ACAD_XREC_ROUNDTRIP
360
1209
  0
DICTIONARY
  5
120A
330
11A0
100
AcDbDictionary
280
     1
281
     1
  3
ACAD_XREC_ROUNDTRIP
360
120B
  0
DICTIONARY
  5
120C
330
11A1
100
AcDbDictionary
280
     1
281
     1
  3
ACAD_XREC_ROUNDTRIP
360
120D
  0
DICTIONARY
  5
1226
330
11AE
100
AcDbDictionary
280
     1
281
     1
  3
ACAD_XREC_ROUNDTRIP
360
1227
  0
DICTIONARY
  5
1220
330
11AB
100
AcDbDictionary
280
     1
281
     1
  3
ACAD_XREC_ROUNDTRIP
360
1221
  0
DICTIONARY
  5
1228
330
11AF
100
AcDbDictionary
280
     1
281
     1
  3
ACAD_XREC_ROUNDTRIP
360
1229
  0
DICTIONARY
  5
1218
330
11A7
100
AcDbDictionary
280
     1
281
     1
  3
ACAD_XREC_ROUNDTRIP
360
1219
  0
DICTIONARY
  5
121E
330
11AA
100
AcDbDictionary
280
     1
281
     1
  3
ACAD_XREC_ROUNDTRIP
360
121F
  0
XRECORD
  5
11F5
102
{ACAD_REACTORS
330
11F4
102
}
330
11F4
100
AcDbXrecord
280
     1
102
SHADEPLOT
 70
     0
102
SHADEPLOTRESLEVEL
 70
     2
102
SHADEPLOTCUSTOMDPI
 70
   300
  0
XRECORD
  5
11F9
102
{ACAD_REACTORS
330
11F8
102
}
330
11F8
100
AcDbXrecord
280
     1
102
SHADEPLOT
 70
     0
102
SHADEPLOTRESLEVEL
 70
     2
102
SHADEPLOTCUSTOMDPI
 70
   300
  0
XRECORD
  5
11F7
102
{ACAD_REACTORS
330
11F6
102
}
330
11F6
100
AcDbXrecord
280
     1
102
SHADEPLOT
 70
     0
102
SHADEPLOTRESLEVEL
 70
     2
102
SHADEPLOTCUSTOMDPI
 70
   300
  0
XRECORD
  5
1204
102
{ACAD_REACTORS
330
118E
102
}
330
118E
100
AcDbXrecord
280
     1
102
MATERIAL
148
0.0
149
0.0
149
0.0
 93
        0
 94
      127
282
     0
 72
     0
 77
     0
171
     0
175
     0
179
     0
273
     0
  0
XRECORD
  5
1190
102
{ACAD_REACTORS
330
118E
102
}
330
118E
100
AcDbXrecord
280
     1
270
     1
271
     1
  0
XRECORD
  5
118F
102
{ACAD_REACTORS
330
118E
102
}
330
118E
100
AcDbXrecord
280
     1
270
     1
271
     1
  0
XRECORD
  5
1193
102
{ACAD_REACTORS
330
118E
102
}
330
118E
100
AcDbXrecord
280
     1
270
     1
271
     1
  0
XRECORD
  5
1192
102
{ACAD_REACTORS
330
118E
102
}
330
118E
100
AcDbXrecord
280
     1
270
     1
271
     1
  0
XRECORD
  5
1194
102
{ACAD_REACTORS
330
118E
102
}
330
118E
100
AcDbXrecord
280
     1
270
     1
271
     1
  0
XRECORD
  5
1191
102
{ACAD_REACTORS
330
118E
102
}
330
118E
100
AcDbXrecord
280
     1
270
     1
271
     1
  0
XRECORD
  5
1203
102
{ACAD_REACTORS
330
1186
102
}
330
1186
100
AcDbXrecord
280
     1
102
MATERIAL
148
0.0
149
0.0
149
0.0
 93
        0
 94
      127
282
     0
 72
     0
 77
     0
171
     0
175
     0
179
     0
273
     0
  0
XRECORD
  5
1188
102
{ACAD_REACTORS
330
1186
102
}
330
1186
100
AcDbXrecord
280
     1
270
     1
271
     1
  0
XRECORD
  5
1187
102
{ACAD_REACTORS
330
1186
102
}
330
1186
100
AcDbXrecord
280
     1
270
     1
271
     1
  0
XRECORD
  5
118B
102
{ACAD_REACTORS
330
1186
102
}
330
1186
100
AcDbXrecord
280
     1
270
     1
271
     1
  0
XRECORD
  5
118A
102
{ACAD_REACTORS
330
1186
102
}
330
1186
100
AcDbXrecord
280
     1
270
     1
271
     1
  0
XRECORD
  5
118C
102
{ACAD_REACTORS
330
1186
102
}
330
1186
100
AcDbXrecord
280
     1
270
     1
271
     1
  0
XRECORD
  5
1189
102
{ACAD_REACTORS
330
1186
102
}
330
1186
100
AcDbXrecord
280
     1
270
     1
271
     1
  0
XRECORD
  5
1205
102
{ACAD_REACTORS
330
1196
102
}
330
1196
100
AcDbXrecord
280
     1
102
MATERIAL
148
0.0
149
0.0
149
0.0
 93
        0
 94
      127
282
     0
 72
     0
 77
     0
171
     0
175
     0
179
     0
273
     0
  0
XRECORD
  5
1198
102
{ACAD_REACTORS
330
1196
102
}
330
1196
100
AcDbXrecord
280
     1
270
     1
271
     1
  0
XRECORD
  5
1197
102
{ACAD_REACTORS
330
1196
102
}
330
1196
100
AcDbXrecord
280
     1
270
     1
271
     1
  0
XRECORD
  5
119B
102
{ACAD_REACTORS
330
1196
102
}
330
1196
100
AcDbXrecord
280
     1
270
     1
271
     1
  0
XRECORD
  5
119A
102
{ACAD_REACTORS
330
1196
102
}
330
1196
100
AcDbXrecord
280
     1
270
     1
271
     1
  0
XRECORD
  5
119C
102
{ACAD_REACTORS
330
1196
102
}
330
1196
100
AcDbXrecord
280
     1
270
     1
271
     1
  0
XRECORD
  5
1199
102
{ACAD_REACTORS
330
1196
102
}
330
1196
100
AcDbXrecord
280
     1
270
     1
271
     1
  0
CELLSTYLEMAP
  5
11F1
102
{ACAD_REACTORS
330
11F0
102
}
330
11F0
100
AcDbCellStyleMap
 90
        3
300
CELLSTYLE
  1
TABLEFORMAT_BEGIN
 90
        5
170
     1
 91
        0
 92
    32768
 62
   257
 93
        1
300
CONTENTFORMAT
  1
CONTENTFORMAT_BEGIN
 90
        0
 91
        0
 92
        4
 93
        0
300

 40
0.0
140
1.0
 94
        5
 62
     0
340
11
144
6.0
309
CONTENTFORMAT_END
171
     1
301
MARGIN
  1
CELLMARGIN_BEGIN
 40
1.5
 40
1.5
 40
1.5
 40
1.5
 40
0.18
 40
0.18
309
CELLMARGIN_END
 94
        6
 95
        1
302
GRIDFORMAT
  1
GRIDFORMAT_BEGIN
 90
        0
 91
        1
 62
     0
 92
       -2
340
0
 93
        0
 40
0.045
309
GRIDFORMAT_END
 95
        2
302
GRIDFORMAT
  1
GRIDFORMAT_BEGIN
 90
        0
 91
        1
 62
     0
 92
       -2
340
0
 93
        0
 40
0.045
309
GRIDFORMAT_END
 95
        4
302
GRIDFORMAT
  1
GRIDFORMAT_BEGIN
 90
        0
 91
        1
 62
     0
 92
       -2
340
0
 93
        0
 40
0.045
309
GRIDFORMAT_END
 95
        8
302
GRIDFORMAT
  1
GRIDFORMAT_BEGIN
 90
        0
 91
        1
 62
     0
 92
       -2
340
0
 93
        0
 40
0.045
309
GRIDFORMAT_END
 95
       16
302
GRIDFORMAT
  1
GRIDFORMAT_BEGIN
 90
        0
 91
        1
 62
     0
 92
       -2
340
0
 93
        0
 40
0.045
309
GRIDFORMAT_END
 95
       32
302
GRIDFORMAT
  1
GRIDFORMAT_BEGIN
 90
        0
 91
        1
 62
     0
 92
       -2
340
0
 93
        0
 40
0.045
309
GRIDFORMAT_END
309
TABLEFORMAT_END
  1
CELLSTYLE_BEGIN
 90
        1
 91
        1
300
_TITLE
309
CELLSTYLE_END
300
CELLSTYLE
  1
TABLEFORMAT_BEGIN
 90
        5
170
     1
 91
        0
 92
        0
 62
   257
 93
        1
300
CONTENTFORMAT
  1
CONTENTFORMAT_BEGIN
 90
        0
 91
        0
 92
        4
 93
        0
300

 40
0.0
140
1.0
 94
        5
 62
     0
340
11
144
4.5
309
CONTENTFORMAT_END
171
     1
301
MARGIN
  1
CELLMARGIN_BEGIN
 40
1.5
 40
1.5
 40
1.5
 40
1.5
 40
0.18
 40
0.18
309
CELLMARGIN_END
 94
        6
 95
        1
302
GRIDFORMAT
  1
GRIDFORMAT_BEGIN
 90
        0
 91
        1
 62
     0
 92
       -2
340
0
 93
        0
 40
0.045
309
GRIDFORMAT_END
 95
        2
302
GRIDFORMAT
  1
GRIDFORMAT_BEGIN
 90
        0
 91
        1
 62
     0
 92
       -2
340
0
 93
        0
 40
0.045
309
GRIDFORMAT_END
 95
        4
302
GRIDFORMAT
  1
GRIDFORMAT_BEGIN
 90
        0
 91
        1
 62
     0
 92
       -2
340
0
 93
        0
 40
0.045
309
GRIDFORMAT_END
 95
        8
302
GRIDFORMAT
  1
GRIDFORMAT_BEGIN
 90
        0
 91
        1
 62
     0
 92
       -2
340
0
 93
        0
 40
0.045
309
GRIDFORMAT_END
 95
       16
302
GRIDFORMAT
  1
GRIDFORMAT_BEGIN
 90
        0
 91
        1
 62
     0
 92
       -2
340
0
 93
        0
 40
0.045
309
GRIDFORMAT_END
 95
       32
302
GRIDFORMAT
  1
GRIDFORMAT_BEGIN
 90
        0
 91
        1
 62
     0
 92
       -2
340
0
 93
        0
 40
0.045
309
GRIDFORMAT_END
309
TABLEFORMAT_END
  1
CELLSTYLE_BEGIN
 90
        2
 91
        1
300
_HEADER
309
CELLSTYLE_END
300
CELLSTYLE
  1
TABLEFORMAT_BEGIN
 90
        5
170
     1
 91
        0
 92
        0
 62
   257
 93
        1
300
CONTENTFORMAT
  1
CONTENTFORMAT_BEGIN
 90
        0
 91
        0
 92
        4
 93
        0
300

 40
0.0
140
1.0
 94
        2
 62
     0
340
11
144
4.5
309
CONTENTFORMAT_END
171
     1
301
MARGIN
  1
CELLMARGIN_BEGIN
 40
1.5
 40
1.5
 40
1.5
 40
1.5
 40
0.18
 40
0.18
309
CELLMARGIN_END
 94
        6
 95
        1
302
GRIDFORMAT
  1
GRIDFORMAT_BEGIN
 90
        0
 91
        1
 62
     0
 92
       -2
340
0
 93
        0
 40
0.045
309
GRIDFORMAT_END
 95
        2
302
GRIDFORMAT
  1
GRIDFORMAT_BEGIN
 90
        0
 91
        1
 62
     0
 92
       -2
340
0
 93
        0
 40
0.045
309
GRIDFORMAT_END
 95
        4
302
GRIDFORMAT
  1
GRIDFORMAT_BEGIN
 90
        0
 91
        1
 62
     0
 92
       -2
340
0
 93
        0
 40
0.045
309
GRIDFORMAT_END
 95
        8
302
GRIDFORMAT
  1
GRIDFORMAT_BEGIN
 90
        0
 91
        1
 62
     0
 92
       -2
340
0
 93
        0
 40
0.045
309
GRIDFORMAT_END
 95
       16
302
GRIDFORMAT
  1
GRIDFORMAT_BEGIN
 90
        0
 91
        1
 62
     0
 92
       -2
340
0
 93
        0
 40
0.045
309
GRIDFORMAT_END
 95
       32
302
GRIDFORMAT
  1
GRIDFORMAT_BEGIN
 90
        0
 91
        1
 62
     0
 92
       -2
340
0
 93
        0
 40
0.045
309
GRIDFORMAT_END
309
TABLEFORMAT_END
  1
CELLSTYLE_BEGIN
 90
        3
 91
        2
300
_DATA
309
CELLSTYLE_END
  0
XRECORD
  5
11FA
102
{ACAD_REACTORS
330
11F0
102
}
330
11F0
100
AcDbXrecord
280
     1
102
ACAD_ROUNDTRIP_PRE2007_TABLESTYLE
 90
        4
 91
        0
  1

 92
        4
 93
        0
  2

 94
        4
 95
        0
  3

  0
XRECORD
  5
1211
102
{ACAD_REACTORS
330
1210
102
}
330
1210
100
AcDbXrecord
280
     1
102
RTVSPropertyOp0
 70
     1
102
RTVSPropertyOp1
 70
     1
102
RTVSPropertyOp2
 70
     1
102
RTVSPropertyOp3
 70
     1
102
RTVSPropertyOp4
 70
     1
102
RTVSPropertyOp5
 70
     1
102
RTVSPropertyOp6
 70
     1
102
RTVSPropertyOp7
 70
     1
102
RTVSPropertyOp8
 70
     1
102
RTVSPropertyOp9
 70
     1
102
RTVSPropertyOp10
 70
     1
102
RTVSPropertyOp11
 70
     1
102
RTVSPropertyOp12
 70
     1
102
RTVSPropertyOp13
 70
     1
102
RTVSPropertyOp14
 70
     1
102
RTVSPropertyOp15
 70
     1
102
RTVSPropertyOp16
 70
     1
102
RTVSPropertyOp17
 70
     1
102
RTVSPropertyOp18
 70
     1
102
RTVSPropertyOp19
 70
     1
102
RTVSPropertyOp20
 70
     1
102
RTVSPropertyOp21
 70
     1
102
RTVSPropertyOp22
 70
     1
102
RTVSPropertyOp23
 70
     1
102
RTVSPropertyOp24
 70
     1
102
RTVSPropertyOp25
 70
     1
102
RTVSPropertyOp26
 70
     1
102
RTVSPropertyOp27
 70
     1
  0
XRECORD
  5
1215
102
{ACAD_REACTORS
330
1214
102
}
330
1214
100
AcDbXrecord
280
     1
102
RTVSPropertyOp0
 70
     1
102
RTVSPropertyOp1
 70
     1
102
RTVSPropertyOp2
 70
     1
102
RTVSPropertyOp3
 70
     1
102
RTVSPropertyOp4
 70
     1
102
RTVSPropertyOp5
 70
     1
102
RTVSPropertyOp6
 70
     1
102
RTVSPropertyOp7
 70
     1
102
RTVSPropertyOp8
 70
     1
102
RTVSPropertyOp9
 70
     1
102
RTVSPropertyOp10
 70
     1
102
RTVSPropertyOp11
 70
     1
102
RTVSPropertyOp12
 70
     1
102
RTVSPropertyOp13
 70
     1
102
RTVSPropertyOp14
 70
     1
102
RTVSPropertyOp15
 70
     1
102
RTVSPropertyOp16
 70
     1
102
RTVSPropertyOp17
 70
     1
102
RTVSPropertyOp18
 70
     1
102
RTVSPropertyOp19
 70
     1
102
RTVSPropertyOp20
 70
     1
102
RTVSPropertyOp21
 70
     1
102
RTVSPropertyOp22
 70
     1
102
RTVSPropertyOp23
 70
     1
102
RTVSPropertyOp24
 70
     1
102
RTVSPropertyOp25
 70
     1
102
RTVSPropertyOp26
 70
     1
102
RTVSPropertyOp27
 70
     1
  0
XRECORD
  5
1213
102
{ACAD_REACTORS
330
1212
102
}
330
1212
100
AcDbXrecord
280
     1
102
RTVSPropertyOp0
 70
     1
102
RTVSPropertyOp1
 70
     1
102
RTVSPropertyOp2
 70
     1
102
RTVSPropertyOp3
 70
     1
102
RTVSPropertyOp4
 70
     1
102
RTVSPropertyOp5
 70
     1
102
RTVSPropertyOp6
 70
     1
102
RTVSPropertyOp7
 70
     1
102
RTVSPropertyOp8
 70
     1
102
RTVSPropertyOp9
 70
     1
102
RTVSPropertyOp10
 70
     1
102
RTVSPropertyOp11
 70
     1
102
RTVSPropertyOp12
 70
     1
102
RTVSPropertyOp13
 70
     1
102
RTVSPropertyOp14
 70
     1
102
RTVSPropertyOp15
 70
     1
102
RTVSPropertyOp16
 70
     1
102
RTVSPropertyOp17
 70
     1
102
RTVSPropertyOp18
 70
     1
102
RTVSPropertyOp19
 70
     1
102
RTVSPropertyOp20
 70
     1
102
RTVSPropertyOp21
 70
     1
102
RTVSPropertyOp22
 70
     1
102
RTVSPropertyOp23
 70
     1
102
RTVSPropertyOp24
 70
     1
102
RTVSPropertyOp25
 70
     1
102
RTVSPropertyOp26
 70
     1
102
RTVSPropertyOp27
 70
     1
  0
XRECORD
  5
120F
102
{ACAD_REACTORS
330
120E
102
}
330
120E
100
AcDbXrecord
280
     1
102
RTVSPropertyOp0
 70
     1
102
RTVSPropertyOp1
 70
     1
102
RTVSPropertyOp2
 70
     1
102
RTVSPropertyOp3
 70
     1
102
RTVSPropertyOp4
 70
     1
102
RTVSPropertyOp5
 70
     1
102
RTVSPropertyOp6
 70
     1
102
RTVSPropertyOp7
 70
     1
102
RTVSPropertyOp8
 70
     1
102
RTVSPropertyOp9
 70
     1
102
RTVSPropertyOp10
 70
     1
102
RTVSPropertyOp11
 70
     1
102
RTVSPropertyOp12
 70
     1
102
RTVSPropertyOp13
 70
     1
102
RTVSPropertyOp14
 70
     1
102
RTVSPropertyOp15
 70
     1
102
RTVSPropertyOp16
 70
     1
102
RTVSPropertyOp17
 70
     1
102
RTVSPropertyOp18
 70
     1
102
RTVSPropertyOp19
 70
     1
102
RTVSPropertyOp20
 70
     1
102
RTVSPropertyOp21
 70
     1
102
RTVSPropertyOp22
 70
     1
102
RTVSPropertyOp23
 70
     1
102
RTVSPropertyOp24
 70
     1
102
RTVSPropertyOp25
 70
     1
102
RTVSPropertyOp26
 70
     1
102
RTVSPropertyOp27
 70
     1
  0
XRECORD
  5
121D
102
{ACAD_REACTORS
330
121C
102
}
330
121C
100
AcDbXrecord
280
     1
102
RTVSPropertyOp0
 70
     1
102
RTVSPropertyOp1
 70
     1
102
RTVSPropertyOp2
 70
     1
102
RTVSPropertyOp3
 70
     1
102
RTVSPropertyOp4
 70
     1
102
RTVSPropertyOp5
 70
     1
102
RTVSPropertyOp6
 70
     1
102
RTVSPropertyOp7
 70
     1
102
RTVSPropertyOp8
 70
     1
102
RTVSPropertyOp9
 70
     1
102
RTVSPropertyOp10
 70
     1
102
RTVSPropertyOp11
 70
     1
102
RTVSPropertyOp12
 70
     1
102
RTVSPropertyOp13
 70
     1
102
RTVSPropertyOp14
 70
     1
102
RTVSPropertyOp15
 70
     1
102
RTVSPropertyOp16
 70
     1
102
RTVSPropertyOp17
 70
     1
102
RTVSPropertyOp18
 70
     1
102
RTVSPropertyOp19
 70
     1
102
RTVSPropertyOp20
 70
     1
102
RTVSPropertyOp21
 70
     1
102
RTVSPropertyOp22
 70
     1
102
RTVSPropertyOp23
 70
     1
102
RTVSPropertyOp24
 70
     1
102
RTVSPropertyOp25
 70
     1
102
RTVSPropertyOp26
 70
     1
102
RTVSPropertyOp27
 70
     1
  0
XRECORD
  5
1225
102
{ACAD_REACTORS
330
1224
102
}
330
1224
100
AcDbXrecord
280
     1
102
RTVSPropertyOp0
 70
     1
102
RTVSPropertyOp1
 70
     1
102
RTVSPropertyOp2
 70
     1
102
RTVSPropertyOp3
 70
     1
102
RTVSPropertyOp4
 70
     1
102
RTVSPropertyOp5
 70
     1
102
RTVSPropertyOp6
 70
     1
102
RTVSPropertyOp7
 70
     1
102
RTVSPropertyOp8
 70
     1
102
RTVSPropertyOp9
 70
     1
102
RTVSPropertyOp10
 70
     1
102
RTVSPropertyOp11
 70
     1
102
RTVSPropertyOp12
 70
     1
102
RTVSPropertyOp13
 70
     1
102
RTVSPropertyOp14
 70
     1
102
RTVSPropertyOp15
 70
     1
102
RTVSPropertyOp16
 70
     1
102
RTVSPropertyOp17
 70
     1
102
RTVSPropertyOp18
 70
     1
102
RTVSPropertyOp19
 70
     1
102
RTVSPropertyOp20
 70
     1
102
RTVSPropertyOp21
 70
     1
102
RTVSPropertyOp22
 70
     1
102
RTVSPropertyOp23
 70
     1
102
RTVSPropertyOp24
 70
     1
102
RTVSPropertyOp25
 70
     1
102
RTVSPropertyOp26
 70
     1
102
RTVSPropertyOp27
 70
     1
  0
XRECORD
  5
1217
102
{ACAD_REACTORS
330
1216
102
}
330
1216
100
AcDbXrecord
280
     1
102
RTVSPropertyOp0
 70
     1
102
RTVSPropertyOp1
 70
     1
102
RTVSPropertyOp2
 70
     1
102
RTVSPropertyOp3
 70
     1
102
RTVSPropertyOp4
 70
     1
102
RTVSPropertyOp5
 70
     1
102
RTVSPropertyOp6
 70
     1
102
RTVSPropertyOp7
 70
     1
102
RTVSPropertyOp8
 70
     1
102
RTVSPropertyOp9
 70
     1
102
RTVSPropertyOp10
 70
     1
102
RTVSPropertyOp11
 70
     1
102
RTVSPropertyOp12
 70
     1
102
RTVSPropertyOp13
 70
     1
102
RTVSPropertyOp14
 70
     1
102
RTVSPropertyOp15
 70
     1
102
RTVSPropertyOp16
 70
     1
102
RTVSPropertyOp17
 70
     1
102
RTVSPropertyOp18
 70
     1
102
RTVSPropertyOp19
 70
     1
102
RTVSPropertyOp20
 70
     1
102
RTVSPropertyOp21
 70
     1
102
RTVSPropertyOp22
 70
     1
102
RTVSPropertyOp23
 70
     1
102
RTVSPropertyOp24
 70
     1
102
RTVSPropertyOp25
 70
     1
102
RTVSPropertyOp26
 70
     1
102
RTVSPropertyOp27
 70
     1
  0
XRECORD
  5
121B
102
{ACAD_REACTORS
330
121A
102
}
330
121A
100
AcDbXrecord
280
     1
102
RTVSPropertyOp0
 70
     1
102
RTVSPropertyOp1
 70
     1
102
RTVSPropertyOp2
 70
     1
102
RTVSPropertyOp3
 70
     1
102
RTVSPropertyOp4
 70
     1
102
RTVSPropertyOp5
 70
     1
102
RTVSPropertyOp6
 70
     1
102
RTVSPropertyOp7
 70
     1
102
RTVSPropertyOp8
 70
     1
102
RTVSPropertyOp9
 70
     1
102
RTVSPropertyOp10
 70
     1
102
RTVSPropertyOp11
 70
     1
102
RTVSPropertyOp12
 70
     1
102
RTVSPropertyOp13
 70
     1
102
RTVSPropertyOp14
 70
     1
102
RTVSPropertyOp15
 70
     1
102
RTVSPropertyOp16
 70
     1
102
RTVSPropertyOp17
 70
     1
102
RTVSPropertyOp18
 70
     1
102
RTVSPropertyOp19
 70
     1
102
RTVSPropertyOp20
 70
     1
102
RTVSPropertyOp21
 70
     1
102
RTVSPropertyOp22
 70
     1
102
RTVSPropertyOp23
 70
     1
102
RTVSPropertyOp24
 70
     1
102
RTVSPropertyOp25
 70
     1
102
RTVSPropertyOp26
 70
     1
102
RTVSPropertyOp27
 70
     1
  0
XRECORD
  5
122B
102
{ACAD_REACTORS
330
122A
102
}
330
122A
100
AcDbXrecord
280
     1
102
RTVSPropertyOp0
 70
     0
102
RTVSPropertyOp1
 70
     0
102
RTVSPropertyOp2
 70
     0
102
RTVSPropertyOp3
 70
     0
102
RTVSPropertyOp4
 70
     0
102
RTVSPropertyOp5
 70
     0
102
RTVSPropertyOp6
 70
     0
102
RTVSPropertyOp7
 70
     0
102
RTVSPropertyOp8
 70
     0
102
RTVSPropertyOp9
 70
     0
102
RTVSPropertyOp10
 70
     0
102
RTVSPropertyOp11
 70
     0
102
RTVSPropertyOp12
 70
     0
102
RTVSPropertyOp13
 70
     0
102
RTVSPropertyOp14
 70
     2
102
RTVSPropertyOp15
 70
     0
102
RTVSPropertyOp16
 70
     0
102
RTVSPropertyOp17
 70
     0
102
RTVSPropertyOp18
 70
     0
102
RTVSPropertyOp19
 70
     0
102
RTVSPropertyOp20
 70
     0
102
RTVSPropertyOp21
 70
     0
102
RTVSPropertyOp22
 70
     0
102
RTVSPropertyOp23
 70
     0
102
RTVSPropertyOp24
 70
     0
102
RTVSPropertyOp25
 70
     0
102
RTVSPropertyOp26
 70
     0
102
RTVSPropertyOp27
 70
     0
  0
XRECORD
  5
1223
102
{ACAD_REACTORS
330
1222
102
}
330
1222
100
AcDbXrecord
280
     1
102
RTVSPropertyOp0
 70
     1
102
RTVSPropertyOp1
 70
     1
102
RTVSPropertyOp2
 70
     1
102
RTVSPropertyOp3
 70
     1
102
RTVSPropertyOp4
 70
     1
102
RTVSPropertyOp5
 70
     1
102
RTVSPropertyOp6
 70
     1
102
RTVSPropertyOp7
 70
     1
102
RTVSPropertyOp8
 70
     1
102
RTVSPropertyOp9
 70
     1
102
RTVSPropertyOp10
 70
     1
102
RTVSPropertyOp11
 70
     1
102
RTVSPropertyOp12
 70
     1
102
RTVSPropertyOp13
 70
     1
102
RTVSPropertyOp14
 70
     1
102
RTVSPropertyOp15
 70
     1
102
RTVSPropertyOp16
 70
     1
102
RTVSPropertyOp17
 70
     1
102
RTVSPropertyOp18
 70
     1
102
RTVSPropertyOp19
 70
     1
102
RTVSPropertyOp20
 70
     1
102
RTVSPropertyOp21
 70
     1
102
RTVSPropertyOp22
 70
     1
102
RTVSPropertyOp23
 70
     1
102
RTVSPropertyOp24
 70
     1
102
RTVSPropertyOp25
 70
     1
102
RTVSPropertyOp26
 70
     1
102
RTVSPropertyOp27
 70
     1
  0
XRECORD
  5
1207
102
{ACAD_REACTORS
330
1206
102
}
330
1206
100
AcDbXrecord
280
     1
102
RTVSPropertyOp0
 70
     1
102
RTVSPropertyOp1
 70
     1
102
RTVSPropertyOp2
 70
     1
102
RTVSPropertyOp3
 70
     1
102
RTVSPropertyOp4
 70
     1
102
RTVSPropertyOp5
 70
     1
102
RTVSPropertyOp6
 70
     1
102
RTVSPropertyOp7
 70
     1
102
RTVSPropertyOp8
 70
     1
102
RTVSPropertyOp9
 70
     1
102
RTVSPropertyOp10
 70
     1
102
RTVSPropertyOp11
 70
     1
102
RTVSPropertyOp12
 70
     1
102
RTVSPropertyOp13
 70
     1
102
RTVSPropertyOp14
 70
     1
102
RTVSPropertyOp15
 70
     1
102
RTVSPropertyOp16
 70
     1
102
RTVSPropertyOp17
 70
     1
102
RTVSPropertyOp18
 70
     1
102
RTVSPropertyOp19
 70
     1
102
RTVSPropertyOp20
 70
     1
102
RTVSPropertyOp21
 70
     1
102
RTVSPropertyOp22
 70
     1
102
RTVSPropertyOp23
 70
     1
102
RTVSPropertyOp24
 70
     1
102
RTVSPropertyOp25
 70
     1
102
RTVSPropertyOp26
 70
     1
102
RTVSPropertyOp27
 70
     1
  0
XRECORD
  5
1209
102
{ACAD_REACTORS
330
1208
102
}
330
1208
100
AcDbXrecord
280
     1
102
RTVSPropertyOp0
 70
     1
102
RTVSPropertyOp1
 70
     1
102
RTVSPropertyOp2
 70
     1
102
RTVSPropertyOp3
 70
     1
102
RTVSPropertyOp4
 70
     1
102
RTVSPropertyOp5
 70
     1
102
RTVSPropertyOp6
 70
     1
102
RTVSPropertyOp7
 70
     1
102
RTVSPropertyOp8
 70
     1
102
RTVSPropertyOp9
 70
     1
102
RTVSPropertyOp10
 70
     1
102
RTVSPropertyOp11
 70
     1
102
RTVSPropertyOp12
 70
     1
102
RTVSPropertyOp13
 70
     1
102
RTVSPropertyOp14
 70
     1
102
RTVSPropertyOp15
 70
     1
102
RTVSPropertyOp16
 70
     1
102
RTVSPropertyOp17
 70
     1
102
RTVSPropertyOp18
 70
     1
102
RTVSPropertyOp19
 70
     1
102
RTVSPropertyOp20
 70
     1
102
RTVSPropertyOp21
 70
     1
102
RTVSPropertyOp22
 70
     1
102
RTVSPropertyOp23
 70
     1
102
RTVSPropertyOp24
 70
     1
102
RTVSPropertyOp25
 70
     1
102
RTVSPropertyOp26
 70
     1
102
RTVSPropertyOp27
 70
     1
  0
XRECORD
  5
120B
102
{ACAD_REACTORS
330
120A
102
}
330
120A
100
AcDbXrecord
280
     1
102
RTVSPropertyOp0
 70
     1
102
RTVSPropertyOp1
 70
     1
102
RTVSPropertyOp2
 70
     1
102
RTVSPropertyOp3
 70
     1
102
RTVSPropertyOp4
 70
     1
102
RTVSPropertyOp5
 70
     1
102
RTVSPropertyOp6
 70
     1
102
RTVSPropertyOp7
 70
     1
102
RTVSPropertyOp8
 70
     1
102
RTVSPropertyOp9
 70
     1
102
RTVSPropertyOp10
 70
     1
102
RTVSPropertyOp11
 70
     1
102
RTVSPropertyOp12
 70
     1
102
RTVSPropertyOp13
 70
     1
102
RTVSPropertyOp14
 70
     1
102
RTVSPropertyOp15
 70
     1
102
RTVSPropertyOp16
 70
     1
102
RTVSPropertyOp17
 70
     1
102
RTVSPropertyOp18
 70
     1
102
RTVSPropertyOp19
 70
     1
102
RTVSPropertyOp20
 70
     1
102
RTVSPropertyOp21
 70
     1
102
RTVSPropertyOp22
 70
     1
102
RTVSPropertyOp23
 70
     1
102
RTVSPropertyOp24
 70
     1
102
RTVSPropertyOp25
 70
     1
102
RTVSPropertyOp26
 70
     1
102
RTVSPropertyOp27
 70
     1
  0
XRECORD
  5
120D
102
{ACAD_REACTORS
330
120C
102
}
330
120C
100
AcDbXrecord
280
     1
102
RTVSPropertyOp0
 70
     1
102
RTVSPropertyOp1
 70
     1
102
RTVSPropertyOp2
 70
     1
102
RTVSPropertyOp3
 70
     1
102
RTVSPropertyOp4
 70
     1
102
RTVSPropertyOp5
 70
     1
102
RTVSPropertyOp6
 70
     1
102
RTVSPropertyOp7
 70
     1
102
RTVSPropertyOp8
 70
     1
102
RTVSPropertyOp9
 70
     1
102
RTVSPropertyOp10
 70
     1
102
RTVSPropertyOp11
 70
     1
102
RTVSPropertyOp12
 70
     1
102
RTVSPropertyOp13
 70
     1
102
RTVSPropertyOp14
 70
     1
102
RTVSPropertyOp15
 70
     1
102
RTVSPropertyOp16
 70
     1
102
RTVSPropertyOp17
 70
     1
102
RTVSPropertyOp18
 70
     1
102
RTVSPropertyOp19
 70
     1
102
RTVSPropertyOp20
 70
     1
102
RTVSPropertyOp21
 70
     1
102
RTVSPropertyOp22
 70
     1
102
RTVSPropertyOp23
 70
     1
102
RTVSPropertyOp24
 70
     1
102
RTVSPropertyOp25
 70
     1
102
RTVSPropertyOp26
 70
     1
102
RTVSPropertyOp27
 70
     1
  0
XRECORD
  5
1227
102
{ACAD_REACTORS
330
1226
102
}
330
1226
100
AcDbXrecord
280
     1
102
RTVSPropertyOp0
 70
     0
102
RTVSPropertyOp1
 70
     0
102
RTVSPropertyOp2
 70
     0
102
RTVSPropertyOp3
 70
     0
102
RTVSPropertyOp4
 70
     0
102
RTVSPropertyOp5
 70
     0
102
RTVSPropertyOp6
 70
     0
102
RTVSPropertyOp7
 70
     0
102
RTVSPropertyOp8
 70
     0
102
RTVSPropertyOp9
 70
     0
102
RTVSPropertyOp10
 70
     0
102
RTVSPropertyOp11
 70
     0
102
RTVSPropertyOp12
 70
     0
102
RTVSPropertyOp13
 70
     0
102
RTVSPropertyOp14
 70
     2
102
RTVSPropertyOp15
 70
     0
102
RTVSPropertyOp16
 70
     0
102
RTVSPropertyOp17
 70
     0
102
RTVSPropertyOp18
 70
     0
102
RTVSPropertyOp19
 70
     0
102
RTVSPropertyOp20
 70
     0
102
RTVSPropertyOp21
 70
     0
102
RTVSPropertyOp22
 70
     0
102
RTVSPropertyOp23
 70
     0
102
RTVSPropertyOp24
 70
     0
102
RTVSPropertyOp25
 70
     0
102
RTVSPropertyOp26
 70
     0
102
RTVSPropertyOp27
 70
     0
  0
XRECORD
  5
1221
102
{ACAD_REACTORS
330
1220
102
}
330
1220
100
AcDbXrecord
280
     1
102
RTVSPropertyOp0
 70
     1
102
RTVSPropertyOp1
 70
     1
102
RTVSPropertyOp2
 70
     1
102
RTVSPropertyOp3
 70
     1
102
RTVSPropertyOp4
 70
     1
102
RTVSPropertyOp5
 70
     1
102
RTVSPropertyOp6
 70
     1
102
RTVSPropertyOp7
 70
     1
102
RTVSPropertyOp8
 70
     1
102
RTVSPropertyOp9
 70
     1
102
RTVSPropertyOp10
 70
     1
102
RTVSPropertyOp11
 70
     1
102
RTVSPropertyOp12
 70
     1
102
RTVSPropertyOp13
 70
     1
102
RTVSPropertyOp14
 70
     1
102
RTVSPropertyOp15
 70
     1
102
RTVSPropertyOp16
 70
     1
102
RTVSPropertyOp17
 70
     1
102
RTVSPropertyOp18
 70
     1
102
RTVSPropertyOp19
 70
     1
102
RTVSPropertyOp20
 70
     1
102
RTVSPropertyOp21
 70
     1
102
RTVSPropertyOp22
 70
     1
102
RTVSPropertyOp23
 70
     1
102
RTVSPropertyOp24
 70
     1
102
RTVSPropertyOp25
 70
     1
102
RTVSPropertyOp26
 70
     1
102
RTVSPropertyOp27
 70
     1
  0
XRECORD
  5
1229
102
{ACAD_REACTORS
330
1228
102
}
330
1228
100
AcDbXrecord
280
     1
102
RTVSPropertyOp0
 70
     0
102
RTVSPropertyOp1
 70
     0
102
RTVSPropertyOp2
 70
     0
102
RTVSPropertyOp3
 70
     0
102
RTVSPropertyOp4
 70
     0
102
RTVSPropertyOp5
 70
     0
102
RTVSPropertyOp6
 70
     0
102
RTVSPropertyOp7
 70
     0
102
RTVSPropertyOp8
 70
     0
102
RTVSPropertyOp9
 70
     0
102
RTVSPropertyOp10
 70
     0
102
RTVSPropertyOp11
 70
     0
102
RTVSPropertyOp12
 70
     0
102
RTVSPropertyOp13
 70
     0
102
RTVSPropertyOp14
 70
     2
102
RTVSPropertyOp15
 70
     0
102
RTVSPropertyOp16
 70
     0
102
RTVSPropertyOp17
 70
     0
102
RTVSPropertyOp18
 70
     0
102
RTVSPropertyOp19
 70
     0
102
RTVSPropertyOp20
 70
     0
102
RTVSPropertyOp21
 70
     0
102
RTVSPropertyOp22
 70
     0
102
RTVSPropertyOp23
 70
     0
102
RTVSPropertyOp24
 70
     0
102
RTVSPropertyOp25
 70
     0
102
RTVSPropertyOp26
 70
     0
102
RTVSPropertyOp27
 70
     0
  0
XRECORD
  5
1219
102
{ACAD_REACTORS
330
1218
102
}
330
1218
100
AcDbXrecord
280
     1
102
RTVSPropertyOp0
 70
     1
102
RTVSPropertyOp1
 70
     1
102
RTVSPropertyOp2
 70
     1
102
RTVSPropertyOp3
 70
     1
102
RTVSPropertyOp4
 70
     1
102
RTVSPropertyOp5
 70
     1
102
RTVSPropertyOp6
 70
     1
102
RTVSPropertyOp7
 70
     1
102
RTVSPropertyOp8
 70
     1
102
RTVSPropertyOp9
 70
     1
102
RTVSPropertyOp10
 70
     1
102
RTVSPropertyOp11
 70
     1
102
RTVSPropertyOp12
 70
     1
102
RTVSPropertyOp13
 70
     1
102
RTVSPropertyOp14
 70
     1
102
RTVSPropertyOp15
 70
     1
102
RTVSPropertyOp16
 70
     1
102
RTVSPropertyOp17
 70
     1
102
RTVSPropertyOp18
 70
     1
102
RTVSPropertyOp19
 70
     1
102
RTVSPropertyOp20
 70
     1
102
RTVSPropertyOp21
 70
     1
102
RTVSPropertyOp22
 70
     1
102
RTVSPropertyOp23
 70
     1
102
RTVSPropertyOp24
 70
     1
102
RTVSPropertyOp25
 70
     1
102
RTVSPropertyOp26
 70
     1
102
RTVSPropertyOp27
 70
     1
  0
XRECORD
  5
121F
102
{ACAD_REACTORS
330
121E
102
}
330
121E
100
AcDbXrecord
280
     1
102
RTVSPropertyOp0
 70
     1
102
RTVSPropertyOp1
 70
     1
102
RTVSPropertyOp2
 70
     1
102
RTVSPropertyOp3
 70
     1
102
RTVSPropertyOp4
 70
     1
102
RTVSPropertyOp5
 70
     1
102
RTVSPropertyOp6
 70
     1
102
RTVSPropertyOp7
 70
     1
102
RTVSPropertyOp8
 70
     1
102
RTVSPropertyOp9
 70
     1
102
RTVSPropertyOp10
 70
     1
102
RTVSPropertyOp11
 70
     1
102
RTVSPropertyOp12
 70
     1
102
RTVSPropertyOp13
 70
     1
102
RTVSPropertyOp14
 70
     1
102
RTVSPropertyOp15
 70
     1
102
RTVSPropertyOp16
 70
     1
102
RTVSPropertyOp17
 70
     1
102
RTVSPropertyOp18
 70
     1
102
RTVSPropertyOp19
 70
     1
102
RTVSPropertyOp20
 70
     1
102
RTVSPropertyOp21
 70
     1
102
RTVSPropertyOp22
 70
     1
102
RTVSPropertyOp23
 70
     1
102
RTVSPropertyOp24
 70
     1
102
RTVSPropertyOp25
 70
     1
102
RTVSPropertyOp26
 70
     1
102
RTVSPropertyOp27
 70
     1
  0
ENDSEC
  0
EOF
