  0
SECTION
  2
HEADER
  9
$ACADVER
  1
AC1015
  9
$ACADMAINTVER
 70
    20
  9
$DWGCODEPAGE
  3
ANSI_1252
  9
$INSBASE
 10
0.0
 20
0.0
 30
0.0
  9
$EXTMIN
 10
4246.997985624694
 20
1796.300965780355
 30
0.0
  9
$EXTMAX
 10
4250.272399082493
 20
1796.844410837914
 30
0.0
  9
$LIMMIN
 10
0.0
 20
0.0
  9
$LIMMAX
 10
420.0
 20
297.0
  9
$ORTHOMODE
 70
     1
  9
$REGENMODE
 70
     1
  9
$FILLMODE
 70
     1
  9
$QTEXTMODE
 70
     0
  9
$MIRRTEXT
 70
     1
  9
$LTSCALE
 40
1.0
  9
$ATTMODE
 70
     1
  9
$TEXTSIZE
 40
2.5
  9
$TRACEWID
 40
1.0
  9
$TEXTSTYLE
  7
SANINDUSA
  9
$CLAYER
  8
cotas
  9
$CELTYPE
  6
ByLayer
  9
$CECOLOR
 62
   256
  9
$CELTSCALE
 40
1.0
  9
$DISPSILH
 70
     0
  9
$DIMSCALE
 40
1.0
  9
$DIMASZ
 40
2.0
  9
$DIMEXO
 40
1.0
  9
$DIMDLI
 40
1.0
  9
$DIMRND
 40
0.0
  9
$DIMDLE
 40
0.0
  9
$DIMEXE
 40
1.0
  9
$DIMTP
 40
0.0
  9
$DIMTM
 40
0.0
  9
$DIMTXT
 40
2.0
  9
$DIMCEN
 40
0.0
  9
$DIMTSZ
 40
0.0
  9
$DIMTOL
 70
     0
  9
$DIMLIM
 70
     0
  9
$DIMTIH
 70
     0
  9
$DIMTOH
 70
     0
  9
$DIMSE1
 70
     0
  9
$DIMSE2
 70
     0
  9
$DIMTAD
 70
     1
  9
$DIMZIN
 70
     8
  9
$DIMBLK
  1

  9
$DIMASO
 70
     1
  9
$DIMSHO
 70
     1
  9
$DIMPOST
  1

  9
$DIMAPOST
  1

  9
$DIMALT
 70
     0
  9
$DIMALTD
 70
     3
  9
$DIMALTF
 40
0.03937007874016
  9
$DIMLFAC
 40
1.0
  9
$DIMTOFL
 70
     1
  9
$DIMTVP
 40
0.0
  9
$DIMTIX
 70
     0
  9
$DIMSOXD
 70
     0
  9
$DIMSAH
 70
     0
  9
$DIMBLK1
  1

  9
$DIMBLK2
  1

  9
$DIMSTYLE
  2
SANINDUSA
  9
$DIMCLRD
 70
   256
  9
$DIMCLRE
 70
   256
  9
$DIMCLRT
 70
   256
  9
$DIMTFAC
 40
1.0
  9
$DIMGAP
 40
1.0
  9
$DIMJUST
 70
     0
  9
$DIMSD1
 70
     0
  9
$DIMSD2
 70
     0
  9
$DIMTOLJ
 70
     0
  9
$DIMTZIN
 70
     8
  9
$DIMALTZ
 70
     0
  9
$DIMALTTZ
 70
     0
  9
$DIMUPT
 70
     0
  9
$DIMDEC
 70
     1
  9
$DIMTDEC
 70
     1
  9
$DIMALTU
 70
     2
  9
$DIMALTTD
 70
     3
  9
$DIMTXSTY
  7
SANINDUSA
  9
$DIMAUNIT
 70
     0
  9
$DIMADEC
 70
     1
  9
$DIMALTRND
 40
0.0
  9
$DIMAZIN
 70
     0
  9
$DIMDSEP
 70
    44
  9
$DIMATFIT
 70
     3
  9
$DIMFRAC
 70
     0
  9
$DIMLDRBLK
  1

  9
$DIMLUNIT
 70
     2
  9
$DIMLWD
 70
    -1
  9
$DIMLWE
 70
    -1
  9
$DIMTMOVE
 70
     0
  9
$LUNITS
 70
     2
  9
$LUPREC
 70
     4
  9
$SKETCHINC
 40
1.0
  9
$FILLETRAD
 40
0.0
  9
$AUNITS
 70
     0
  9
$AUPREC
 70
     0
  9
$MENU
  1
.
  9
$ELEVATION
 40
0.0
  9
$PELEVATION
 40
0.0
  9
$THICKNESS
 40
0.0
  9
$LIMCHECK
 70
     0
  9
$CHAMFERA
 40
10.0
  9
$CHAMFERB
 40
10.0
  9
$CHAMFERC
 40
20.0
  9
$CHAMFERD
 40
0.0
  9
$SKPOLY
 70
     0
  9
$TDCREATE
 40
2452537.465454097
  9
$TDUCREATE
 40
2452537.423787430
  9
$TDUPDATE
 40
2456147.432105208
  9
$TDUUPDATE
 40
2456147.390438542
  9
$TDINDWG
 40
0.0139297685
  9
$TDUSRTIMER
 40
0.0139297685
  9
$USRTIMER
 70
     1
  9
$ANGBASE
 50
0.0
  9
$ANGDIR
 70
     0
  9
$PDMODE
 70
     0
  9
$PDSIZE
 40
0.0
  9
$PLINEWID
 40
0.0
  9
$SPLFRAME
 70
     0
  9
$SPLINETYPE
 70
     6
  9
$SPLINESEGS
 70
     8
  9
$HANDSEED
  5
10D2
  9
$SURFTAB1
 70
     6
  9
$SURFTAB2
 70
     6
  9
$SURFTYPE
 70
     6
  9
$SURFU
 70
     6
  9
$SURFV
 70
     6
  9
$UCSBASE
  2

  9
$UCSNAME
  2

  9
$UCSORG
 10
0.0
 20
0.0
 30
0.0
  9
$UCSXDIR
 10
1.0
 20
0.0
 30
0.0
  9
$UCSYDIR
 10
0.0
 20
1.0
 30
0.0
  9
$UCSORTHOREF
  2

  9
$UCSORTHOVIEW
 70
     0
  9
$UCSORGTOP
 10
0.0
 20
0.0
 30
0.0
  9
$UCSORGBOTTOM
 10
0.0
 20
0.0
 30
0.0
  9
$UCSORGLEFT
 10
0.0
 20
0.0
 30
0.0
  9
$UCSORGRIGHT
 10
0.0
 20
0.0
 30
0.0
  9
$UCSORGFRONT
 10
0.0
 20
0.0
 30
0.0
  9
$UCSORGBACK
 10
0.0
 20
0.0
 30
0.0
  9
$PUCSBASE
  2

  9
$PUCSNAME
  2

  9
$PUCSORG
 10
0.0
 20
0.0
 30
0.0
  9
$PUCSXDIR
 10
1.0
 20
0.0
 30
0.0
  9
$PUCSYDIR
 10
0.0
 20
1.0
 30
0.0
  9
$PUCSORTHOREF
  2

  9
$PUCSORTHOVIEW
 70
     0
  9
$PUCSORGTOP
 10
0.0
 20
0.0
 30
0.0
  9
$PUCSORGBOTTOM
 10
0.0
 20
0.0
 30
0.0
  9
$PUCSORGLEFT
 10
0.0
 20
0.0
 30
0.0
  9
$PUCSORGRIGHT
 10
0.0
 20
0.0
 30
0.0
  9
$PUCSORGFRONT
 10
0.0
 20
0.0
 30
0.0
  9
$PUCSORGBACK
 10
0.0
 20
0.0
 30
0.0
  9
$USERI1
 70
     0
  9
$USERI2
 70
     0
  9
$USERI3
 70
     0
  9
$USERI4
 70
     0
  9
$USERI5
 70
     0
  9
$USERR1
 40
0.0
  9
$USERR2
 40
0.0
  9
$USERR3
 40
0.0
  9
$USERR4
 40
0.0
  9
$USERR5
 40
0.0
  9
$WORLDVIEW
 70
     1
  9
$SHADEDGE
 70
     3
  9
$SHADEDIF
 70
    70
  9
$TILEMODE
 70
     1
  9
$MAXACTVP
 70
    64
  9
$PINSBASE
 10
0.0
 20
0.0
 30
0.0
  9
$PLIMCHECK
 70
     0
  9
$PEXTMIN
 10
1.000000000000000E+20
 20
1.000000000000000E+20
 30
1.000000000000000E+20
  9
$PEXTMAX
 10
-1.000000000000000E+20
 20
-1.000000000000000E+20
 30
-1.000000000000000E+20
  9
$PLIMMIN
 10
0.0
 20
0.0
  9
$PLIMMAX
 10
420.0
 20
297.0
  9
$UNITMODE
 70
     0
  9
$VISRETAIN
 70
     1
  9
$PLINEGEN
 70
     0
  9
$PSLTSCALE
 70
     1
  9
$TREEDEPTH
 70
  3020
  9
$CMLSTYLE
  2
Standard
  9
$CMLJUST
 70
     0
  9
$CMLSCALE
 40
20.0
  9
$PROXYGRAPHICS
 70
     1
  9
$MEASUREMENT
 70
     1
  9
$CELWEIGHT
370
    -1
  9
$ENDCAPS
280
     0
  9
$JOINSTYLE
280
     0
  9
$LWDISPLAY
290
     0
  9
$INSUNITS
 70
     4
  9
$HYPERLINKBASE
  1

  9
$STYLESHEET
  1
monochrome.ctb
  9
$XEDIT
290
     1
  9
$CEPSNTYPE
380
     0
  9
$PSTYLEMODE
290
     1
  9
$FINGERPRINTGUID
  2
{B98A73AA-52AA-4C10-B469-C0E7150AC31F}
  9
$VERSIONGUID
  2
{9C6D7A29-6060-4AC4-95B7-63AB623FB733}
  9
$EXTNAMES
290
     1
  9
$PSVPSCALE
 40
0.0
  9
$OLESTARTUP
290
     0
  0
ENDSEC
  0
SECTION
  2
CLASSES
  0
CLASS
  1
ACDBDICTIONARYWDFLT
  2
AcDbDictionaryWithDefault
  3
ObjectDBX Classes
 90
        0
280
     0
281
     0
  0
CLASS
  1
ACDBPLACEHOLDER
  2
AcDbPlaceHolder
  3
ObjectDBX Classes
 90
        0
280
     0
281
     0
  0
CLASS
  1
LAYOUT
  2
AcDbLayout
  3
ObjectDBX Classes
 90
        0
280
     0
281
     0
  0
CLASS
  1
DICTIONARYVAR
  2
AcDbDictionaryVar
  3
ObjectDBX Classes
 90
        0
280
     0
281
     0
  0
CLASS
  1
DIMASSOC
  2
AcDbDimAssoc
  3
"AcDbDimAssoc|Product Desc:     AcDim ARX App For Dimension|Company:          Autodesk, Inc.|WEB Address:      www.autodesk.com"
 90
    32768
280
     0
281
     0
  0
CLASS
  1
TABLESTYLE
  2
AcDbTableStyle
  3
ObjectDBX Classes
 90
     4095
280
     0
281
     0
  0
CLASS
  1
MATERIAL
  2
AcDbMaterial
  3
ObjectDBX Classes
 90
     1153
280
     0
281
     0
  0
CLASS
  1
VISUALSTYLE
  2
AcDbVisualStyle
  3
ObjectDBX Classes
 90
     4095
280
     0
281
     0
  0
CLASS
  1
SCALE
  2
AcDbScale
  3
ObjectDBX Classes
 90
     1153
280
     0
281
     0
  0
CLASS
  1
MLEADERSTYLE
  2
AcDbMLeaderStyle
  3
ACDB_MLEADERSTYLE_CLASS
 90
     4095
280
     0
281
     0
  0
CLASS
  1
CELLSTYLEMAP
  2
AcDbCellStyleMap
  3
ObjectDBX Classes
 90
     1152
280
     0
281
     0
  0
ENDSEC
  0
SECTION
  2
TABLES
  0
TABLE
  2
VPORT
  5
8
330
0
100
AcDbSymbolTable
 70
     1
  0
VPORT
  5
1029
330
8
100
AcDbSymbolTableRecord
100
AcDbViewportTableRecord
  2
*Active
 70
     0
 10
0.0
 20
0.0
 11
1.0
 21
1.0
 12
4248.696776379949
 22
1796.572688309134
 13
0.0
 23
0.0
 14
10.0
 24
10.0
 15
10.0
 25
10.0
 16
0.0
 26
0.0
 36
1.0
 17
0.0
 27
0.0
 37
0.0
 40
2.07237496773692
 41
1.645464025026068
 42
50.0
 43
0.0
 44
0.0
 50
0.0
 51
0.0
 71
     0
 72
   100
 73
     1
 74
     2
 75
     0
 76
     0
 77
     0
 78
     0
281
     0
 65
     1
110
0.0
120
0.0
130
0.0
111
1.0
121
0.0
131
0.0
112
0.0
122
1.0
132
0.0
 79
     0
146
0.0
  0
ENDTAB
  0
TABLE
  2
LTYPE
  5
5
330
0
100
AcDbSymbolTable
 70
     3
  0
LTYPE
  5
14
330
5
100
AcDbSymbolTableRecord
100
AcDbLinetypeTableRecord
  2
ByBlock
 70
     0
  3

 72
    65
 73
     0
 40
0.0
  0
LTYPE
  5
15
330
5
100
AcDbSymbolTableRecord
100
AcDbLinetypeTableRecord
  2
ByLayer
 70
     0
  3

 72
    65
 73
     0
 40
0.0
  0
LTYPE
  5
16
330
5
100
AcDbSymbolTableRecord
100
AcDbLinetypeTableRecord
  2
Continuous
 70
     0
  3
Solid line
 72
    65
 73
     0
 40
0.0
  0
LTYPE
  5
2D
330
5
100
AcDbSymbolTableRecord
100
AcDbLinetypeTableRecord
  2
DASHDOT
 70
     0
  3
Dash dot __ . __ . __ . __ . __ . __ . __ . __
 72
    65
 73
     4
 40
25.4
 49
12.7
 74
     0
 49
-6.349999999999999
 74
     0
 49
0.0
 74
     0
 49
-6.349999999999999
 74
     0
  0
LTYPE
  5
2E
330
5
100
AcDbSymbolTableRecord
100
AcDbLinetypeTableRecord
  2
HIDDEN
 70
     0
  3
Hidden __ __ __ __ __ __ __ __ __ __ __ __ __ _
 72
    65
 73
     2
 40
9.524999999999998
 49
6.349999999999999
 74
     0
 49
-3.174999999999999
 74
     0
  0
ENDTAB
  0
TABLE
  2
LAYER
  5
2
330
0
100
AcDbSymbolTable
 70
    17
  0
LAYER
  5
10
102
{ACAD_XDICTIONARY
360
1078
102
}
330
2
100
AcDbSymbolTableRecord
100
AcDbLayerTableRecord
  2
0
 70
     0
 62
     7
  6
Continuous
370
    -3
390
F
  0
LAYER
  5
2F
102
{ACAD_XDICTIONARY
360
107A
102
}
330
2
100
AcDbSymbolTableRecord
100
AcDbLayerTableRecord
  2
1
 70
     0
 62
     1
  6
Continuous
370
    -3
390
F
  0
LAYER
  5
30
102
{ACAD_XDICTIONARY
360
107C
102
}
330
2
100
AcDbSymbolTableRecord
100
AcDbLayerTableRecord
  2
2
 70
     0
 62
     2
  6
Continuous
370
    -3
390
F
  0
LAYER
  5
31
102
{ACAD_XDICTIONARY
360
107E
102
}
330
2
100
AcDbSymbolTableRecord
100
AcDbLayerTableRecord
  2
3
 70
     0
 62
     3
  6
Continuous
370
    -3
390
F
  0
LAYER
  5
32
102
{ACAD_XDICTIONARY
360
1080
102
}
330
2
100
AcDbSymbolTableRecord
100
AcDbLayerTableRecord
  2
4
 70
     0
 62
     4
  6
Continuous
370
    -3
390
F
  0
LAYER
  5
33
102
{ACAD_XDICTIONARY
360
1082
102
}
330
2
100
AcDbSymbolTableRecord
100
AcDbLayerTableRecord
  2
5
 70
     0
 62
     5
  6
Continuous
370
    -3
390
F
  0
LAYER
  5
34
102
{ACAD_XDICTIONARY
360
1084
102
}
330
2
100
AcDbSymbolTableRecord
100
AcDbLayerTableRecord
  2
6
 70
     0
 62
     6
  6
Continuous
370
    -3
390
F
  0
LAYER
  5
35
102
{ACAD_XDICTIONARY
360
1086
102
}
330
2
100
AcDbSymbolTableRecord
100
AcDbLayerTableRecord
  2
7
 70
     0
 62
     7
  6
Continuous
370
    -3
390
F
  0
LAYER
  5
36
102
{ACAD_XDICTIONARY
360
1088
102
}
330
2
100
AcDbSymbolTableRecord
100
AcDbLayerTableRecord
  2
cen
 70
     0
 62
     7
  6
DASHDOT
370
    -3
390
F
  0
LAYER
  5
37
102
{ACAD_XDICTIONARY
360
108A
102
}
330
2
100
AcDbSymbolTableRecord
100
AcDbLayerTableRecord
  2
hid
 70
     0
 62
     7
  6
HIDDEN
370
    -3
390
F
  0
LAYER
  5
5D6
102
{ACAD_XDICTIONARY
360
108C
102
}
330
2
100
AcDbSymbolTableRecord
100
AcDbLayerTableRecord
  2
hatch
 70
     0
 62
     9
  6
Continuous
370
    -3
390
F
  0
LAYER
  5
8AF
102
{ACAD_XDICTIONARY
360
108E
102
}
330
2
100
AcDbSymbolTableRecord
100
AcDbLayerTableRecord
  2
9
 70
     0
 62
     9
  6
Continuous
370
    -3
390
F
  0
LAYER
  5
8F8
102
{ACAD_XDICTIONARY
360
1090
102
}
330
2
100
AcDbSymbolTableRecord
100
AcDbLayerTableRecord
  2
leg fin
 70
     0
 62
     9
  6
Continuous
370
    -3
390
F
  0
LAYER
  5
91D
102
{ACAD_XDICTIONARY
360
1092
102
}
330
2
100
AcDbSymbolTableRecord
100
AcDbLayerTableRecord
  2
cotas
 70
     0
 62
     1
  6
Continuous
370
    -3
390
F
  0
LAYER
  5
92F
330
2
100
AcDbSymbolTableRecord
100
AcDbLayerTableRecord
  2
Defpoints
 70
     0
 62
     7
  6
Continuous
290
     0
370
    -3
390
F
  0
LAYER
  5
B5B
102
{ACAD_XDICTIONARY
360
1094
102
}
330
2
100
AcDbSymbolTableRecord
100
AcDbLayerTableRecord
  2
indusa
 70
     0
 62
     3
  6
Continuous
370
    -3
390
F
  0
LAYER
  5
FFB
102
{ACAD_XDICTIONARY
360
1096
102
}
330
2
100
AcDbSymbolTableRecord
100
AcDbLayerTableRecord
  2
SANINDUSA
 70
     0
 62
     3
  6
Continuous
370
    -3
390
F
  0
ENDTAB
  0
TABLE
  2
STYLE
  5
3
330
0
100
AcDbSymbolTable
 70
     3
  0
STYLE
  5
11
330
3
100
AcDbSymbolTableRecord
100
AcDbTextStyleTableRecord
  2
Standard
 70
     0
 40
0.0
 41
1.0
 50
0.0
 71
     0
 42
2.5
  3
Avgardn.ttf
  4

1001
ACAD
1000
AvantGarde Bk BT
1071
       34
  0
STYLE
  5
2C
330
3
100
AcDbSymbolTableRecord
100
AcDbTextStyleTableRecord
  2

 70
     1
 40
0.0
 41
1.0
 50
0.0
 71
     0
 42
2.5
  3
ltypeshp.shx
  4

  0
STYLE
  5
91F
330
3
100
AcDbSymbolTableRecord
100
AcDbTextStyleTableRecord
  2
SANINDUSA
 70
     0
 40
0.0
 41
1.0
 50
0.0
 71
     0
 42
2.5
  3
verdana.TTF
  4

1001
ACAD
1000
Verdana
1071
       34
  0
ENDTAB
  0
TABLE
  2
VIEW
  5
6
330
0
100
AcDbSymbolTable
 70
     0
  0
ENDTAB
  0
TABLE
  2
UCS
  5
7
330
0
100
AcDbSymbolTable
 70
     0
  0
ENDTAB
  0
TABLE
  2
APPID
  5
9
330
0
100
AcDbSymbolTable
 70
     4
  0
APPID
  5
12
330
9
100
AcDbSymbolTableRecord
100
AcDbRegAppTableRecord
  2
ACAD
 70
     0
  0
APPID
  5
3A
330
9
100
AcDbSymbolTableRecord
100
AcDbRegAppTableRecord
  2
DCO15
 70
     0
  0
APPID
  5
1007
330
9
100
AcDbSymbolTableRecord
100
AcDbRegAppTableRecord
  2
ACAD_EXEMPT_FROM_CAD_STANDARDS
 70
     0
  0
APPID
  5
10D1
330
9
100
AcDbSymbolTableRecord
100
AcDbRegAppTableRecord
  2
ACAD_MLEADERVER
 70
     0
  0
ENDTAB
  0
TABLE
  2
DIMSTYLE
  5
A
330
0
100
AcDbSymbolTable
 70
     2
100
AcDbDimStyleTable
 71
     1
340
921
  0
DIMSTYLE
105
45
330
A
100
AcDbSymbolTableRecord
100
AcDbDimStyleTableRecord
  2
STANDARD
 70
     0
289
     0
340
11
  0
DIMSTYLE
105
921
330
A
100
AcDbSymbolTableRecord
100
AcDbDimStyleTableRecord
  2
SANINDUSA
 70
     0
 41
2.0
 42
1.0
 43
1.0
 44
1.0
 73
     0
 74
     0
 77
     1
 78
     8
140
2.0
141
0.0
143
0.03937007874016
147
1.0
171
     3
172
     1
176
   256
177
   256
178
   256
179
     1
271
     1
272
     1
274
     3
278
    44
283
     0
284
     8
340
91F
371
    -1
372
    -1
  0
ENDTAB
  0
TABLE
  2
BLOCK_RECORD
  5
1
330
0
100
AcDbSymbolTable
 70
     9
  0
BLOCK_RECORD
  5
1F
330
1
100
AcDbSymbolTableRecord
100
AcDbBlockTableRecord
  2
*Model_Space
340
22
  0
BLOCK_RECORD
  5
1B
330
1
100
AcDbSymbolTableRecord
100
AcDbBlockTableRecord
  2
*Paper_Space
340
1E
  0
BLOCK_RECORD
  5
23
330
1
100
AcDbSymbolTableRecord
100
AcDbBlockTableRecord
  2
*Paper_Space0
340
26
  0
BLOCK_RECORD
  5
919
330
1
100
AcDbSymbolTableRecord
100
AcDbBlockTableRecord
  2
_DotSmall
340
0
  0
BLOCK_RECORD
  5
922
330
1
100
AcDbSymbolTableRecord
100
AcDbBlockTableRecord
  2
base para cotas
340
0
310
2800000020000000200000000100080000000000000400000000000000000000000000000000000000000000000080000080000000808000800000008000800080800000C0C0C000C0DCC000F0CAA6000020400000206000002080000020A0000020C0000020E00000400000004020000040400000406000004080000040A0
310
000040C0000040E00000600000006020000060400000606000006080000060A0000060C0000060E00000800000008020000080400000806000008080000080A0000080C0000080E00000A0000000A0200000A0400000A0600000A0800000A0A00000A0C00000A0E00000C0000000C0200000C0400000C0600000C0800000C0
310
A00000C0C00000C0E00000E0000000E0200000E0400000E0600000E0800000E0A00000E0C00000E0E00040000000400020004000400040006000400080004000A0004000C0004000E00040200000402020004020400040206000402080004020A0004020C0004020E000404000004040200040404000404060004040800040
310
40A0004040C0004040E00040600000406020004060400040606000406080004060A0004060C0004060E00040800000408020004080400040806000408080004080A0004080C0004080E00040A0000040A0200040A0400040A0600040A0800040A0A00040A0C00040A0E00040C0000040C0200040C0400040C0600040C08000
310
40C0A00040C0C00040C0E00040E0000040E0200040E0400040E0600040E0800040E0A00040E0C00040E0E00080000000800020008000400080006000800080008000A0008000C0008000E00080200000802020008020400080206000802080008020A0008020C0008020E00080400000804020008040400080406000804080
310
008040A0008040C0008040E00080600000806020008060400080606000806080008060A0008060C0008060E00080800000808020008080400080806000808080008080A0008080C0008080E00080A0000080A0200080A0400080A0600080A0800080A0A00080A0C00080A0E00080C0000080C0200080C0400080C0600080C0
310
800080C0A00080C0C00080C0E00080E0000080E0200080E0400080E0600080E0800080E0A00080E0C00080E0E000C0000000C0002000C0004000C0006000C0008000C000A000C000C000C000E000C0200000C0202000C0204000C0206000C0208000C020A000C020C000C020E000C0400000C0402000C0404000C0406000C0
310
408000C040A000C040C000C040E000C0600000C0602000C0604000C0606000C0608000C060A000C060C000C060E000C0800000C0802000C0804000C0806000C0808000C080A000C080C000C080E000C0A00000C0A02000C0A04000C0A06000C0A08000C0A0A000C0A0C000C0A0E000C0C00000C0C02000C0C04000C0C06000
310
C0C08000C0C0A000F0FBFF00A4A0A000808080000000FF0000FF000000FFFF00FF000000FF00FF00FFFF0000FFFFFF00A4A4A4A4A4A4A4A4A4A4A4A4A4A4A4A4A4A4A4A4A4A4A4A4A4A4A4A4A4A4A4A4A4A4A4A4A4A4A4A4A4A4A4A4A4A4A4A4A4A4A4A4A4A4A4A4A4A4A4A4A4A4A4A4A4A4A4A4A4A4A4A4A4A4A4A4A4A4A4
310
A4A4A4A4A4A4A4A4A4A4A4A4A4A4A4A4A4A4A4A4A4A4A4A4A4A4A4A4A4A4A4A4A4A4A4A4A4A4A4A4A4A4A4A4A4A4A4A4A4A4A4A4A4A4A4A4A4A4A4A4A4A4A4A4A4A4A4A4A4A4A4A4A4A4A4A4A4A4A4A4A4A4A4A4A4A4A4A4A4A4A4A4A4A4A4A4A4A4A4A4A4A4A4A4A4A4A4A4A4A4A4A4A4A4A4A4A4A4A4A4A4A4A4A4A4A4A4
310
A4A4A4A4A4A4A4A4A4A4A4A4A4A4A4A4A4A4A4A4A4A4A4A4A4A4A4A4A4A4A4A4A4A4A4A4A4A4A4A4A4A4A4A4A4A4A4A4A4A4A4A4A4A4A4A4A4A4A4A4A4A4A4A4A4A4A4A4A4A4A4A4A4A4A4A4A4A4A4A4A4A4A4A4A4A4A4A4A4A4A4A4A4A4A4A4A4A4A4A4A4A4A4A4A4A4A4A4A4A4A4A4A4A4A4A4A4A4A4A4A4A4A4A4A4A4A4
310
A4A4A4A4A4A4A4A4A4A4A4A4A4A4A4A4A4A4A4A4A4A4A4A4A4A4A4A4A4A4A4A4A4A4A4A4A4A4A4A4A4A4A4A4A4A4A4A4A4A4A4A4A4A4A4A4A4A4A4A4A4A4A4A4A4A4A4A4A4A4A4A4A4A4A4A4A4A4A4A4A4A4A4A4A4A4A4A4A4A4A4A4A4A4A4A4A4A4A4A4A4A4A4A4A4A4A4A4A4A4A4A4A4A4A4A4F9F9F9F9F9F9F9F9F9F9F9
310
F9F9F9F9F9F9F9F9F9F9F9F9F9F9F9F9F9F9F9A4A4F9F9F9F9F9F9F9F9F9F9F9F9F9F9F9F9F9F9F9F9F9F9F9F9F9F9F9F9F9F9A4A4F9F9F9F9F9F9F9F9F9F9F9F9F9F9F9F9F9F9F9F9F9F9F9F9F9F9F9F9F9F9A4A4F9A4A4A4A4A4A4A4A4A4A4A4A4A4A4A4A4A4A4A4A4A4A4A4A4A4A4A4A4F9A4A4A4A4A4A4A4A4A4A4A4A4
310
A4A4A4A4A4A4A4A4A4A4A4A4A4A4A4A4A4A4A4A4A4A4A4A4A4A4A4A4A4A4A4A4A4A4A4A4A4A4A4A4A4A4A4A4A4A4A4A4A4A4A4A4A4A4A4A4A4A4A4A4A4A4A4A4A4A4A4A4A4A4A4A4A4A4A4A4A4A4A4A4A4A4A4A4A4A4A4A4A4A4A4A4A4A4A4A4A4A4A4A4A4A4A4A4A4A4A4A4A4A4A4A4A4A4A4A4A4A4A4A4A4A4A4A4A4A4A4
310
A4A4A4A4A4A4A4A4A4A4A4A4A4A4A4A4A4A4A4A4A4A4A4A4A4A4A4A4A4A4A4A4A4A4A4A4A4A4A4A4A4A4A4A4A4A4A4A4A4A4A4A4A4A4A4A4A4A4A4A4A4A4A4A4A4A4A4A4A4A4A4A4A4A4A4A4A4A4A4A4A4A4A4A4A4A4A4A4A4A4A4A4A4A4A4A4A4A4A4A4A4A4A4A4A4A4A4A4A4A4A4A4A4A4A4A4A4A4A4A4A4A4A4A4A4A4A4
310
A4A4A4A4A4A4A4A4A4A4A4A4A4A4A4A4A4A4A4A4A4A4A4A4A4A4A4A4A4A4A4A4A4A4A4A4A4A4A4A4A4A4A4A4A4A4A4A4A4A4A4A4A4A4A4A4A4A4A4A4A4A4A4A4A4A4A4A4A4A4A4A4A4A4A4A4A4A4A4A4A4A4A4A4A4A4A4A4A4A4A4A4A4A4A4A4A4A4A4A4A4A4A4A4A4A4A4A4A4A4A4A4A4A4A4A4A4A4A4A4A4A4A4A4A4A4A4
310
A4A4A4A4A4A4A4A4A4A4A4A4A4A4A4A4A4A4A4A4A4A4A4A4A4A4A4A4A4A4A4A4A4A4A4A4A4A4A4A4A4A4A4A4A4A4A4A4A4A4A4A4A4A4A4A4
1001
ACAD
1000
DesignCenter Data
1002
{
1070
     1
1070
     4
1002
}
  0
BLOCK_RECORD
  5
AA8
330
1
100
AcDbSymbolTableRecord
100
AcDbBlockTableRecord
  2
_CLOSED
340
0
  0
BLOCK_RECORD
  5
B79
330
1
100
AcDbSymbolTableRecord
100
AcDbBlockTableRecord
  2
nota revisoes
340
0
1001
ACAD
1000
DesignCenter Data
1002
{
1070
     1
1070
     4
1002
}
  0
BLOCK_RECORD
  5
B88
330
1
100
AcDbSymbolTableRecord
100
AcDbBlockTableRecord
  2
SW_CENTERMARK6
340
0
  0
BLOCK_RECORD
  5
F05
330
1
100
AcDbSymbolTableRecord
100
AcDbBlockTableRecord
  2
SW_CENTERMARK4
340
0
  0
BLOCK_RECORD
  5
F0C
330
1
100
AcDbSymbolTableRecord
100
AcDbBlockTableRecord
  2
SW_CENTERMARK5
340
0
  0
ENDTAB
  0
ENDSEC
  0
SECTION
  2
BLOCKS
  0
BLOCK
  5
20
330
1F
100
AcDbEntity
  8
0
100
AcDbBlockBegin
  2
*Model_Space
 70
     0
 10
0.0
 20
0.0
 30
0.0
  3
*Model_Space
  1

  0
ENDBLK
  5
21
330
1F
100
AcDbEntity
  8
0
100
AcDbBlockEnd
  0
BLOCK
  5
1C
330
1B
100
AcDbEntity
 67
     1
  8
0
100
AcDbBlockBegin
  2
*Paper_Space
 70
     0
 10
0.0
 20
0.0
 30
0.0
  3
*Paper_Space
  1

  0
ENDBLK
  5
1D
330
1B
100
AcDbEntity
 67
     1
  8
0
100
AcDbBlockEnd
  0
BLOCK
  5
24
330
23
100
AcDbEntity
 67
     1
  8
0
100
AcDbBlockBegin
  2
*Paper_Space0
 70
     0
 10
0.0
 20
0.0
 30
0.0
  3
*Paper_Space0
  1

  0
ENDBLK
  5
25
330
23
100
AcDbEntity
 67
     1
  8
0
100
AcDbBlockEnd
  0
BLOCK
  5
91B
330
919
100
AcDbEntity
  8
0
100
AcDbBlockBegin
  2
_DotSmall
 70
     0
 10
0.0
 20
0.0
 30
0.0
  3
_DotSmall
  1

  0
LWPOLYLINE
  5
91A
330
919
100
AcDbEntity
  8
0
  6
ByBlock
 62
     0
100
AcDbPolyline
 90
        2
 70
     1
 43
0.5
 10
-0.0625
 20
0.0
 42
1.0
 10
0.0625
 20
0.0
 42
1.0
  0
ENDBLK
  5
91C
330
919
100
AcDbEntity
  8
0
100
AcDbBlockEnd
  0
BLOCK
  5
92A
330
922
100
AcDbEntity
  8
0
100
AcDbBlockBegin
  2
base para cotas
 70
     0
 10
0.0
 20
0.0
 30
0.0
  3
base para cotas
  1

  0
LINE
  5
B36
330
922
100
AcDbEntity
  8
cotas
100
AcDbLine
 10
0.0
 20
-30.0
 30
0.0
 11
327.1260136525398
 21
-30.0
 31
0.0
  0
LINE
  5
B37
330
922
100
AcDbEntity
  8
cotas
100
AcDbLine
 10
0.0
 20
-25.0
 30
0.0
 11
327.1260136525398
 21
-25.0
 31
0.0
  0
LINE
  5
B38
330
922
100
AcDbEntity
  8
cotas
100
AcDbLine
 10
0.0
 20
-20.0
 30
0.0
 11
327.1260136525398
 21
-20.0
 31
0.0
  0
LINE
  5
B39
330
922
100
AcDbEntity
  8
cotas
100
AcDbLine
 10
0.0
 20
-15.0
 30
0.0
 11
327.1260136525398
 21
-15.0
 31
0.0
  0
LINE
  5
B3A
330
922
100
AcDbEntity
  8
cotas
100
AcDbLine
 10
0.0
 20
-10.0
 30
0.0
 11
327.1260136525398
 21
-10.0
 31
0.0
  0
LINE
  5
B3B
330
922
100
AcDbEntity
  8
cotas
100
AcDbLine
 10
0.0
 20
0.0
 30
0.0
 11
0.0
 21
-30.0
 31
0.0
  0
LINE
  5
B3C
330
922
100
AcDbEntity
  8
cotas
100
AcDbLine
 10
327.1260136525398
 20
-30.0
 30
0.0
 11
327.1260136525398
 21
0.0
 31
0.0
  0
ENDBLK
  5
92B
330
922
100
AcDbEntity
  8
0
100
AcDbBlockEnd
  0
BLOCK
  5
AAD
330
AA8
100
AcDbEntity
  8
0
100
AcDbBlockBegin
  2
_CLOSED
 70
     0
 10
0.0
 20
0.0
 30
0.0
  3
_CLOSED
  1

  0
LINE
  5
AA9
330
AA8
100
AcDbEntity
  8
0
100
AcDbLine
 10
-1.0
 20
0.166667
 30
0.0
 11
0.0
 21
0.0
 31
0.0
  0
LINE
  5
AAA
330
AA8
100
AcDbEntity
  8
0
100
AcDbLine
 10
0.0
 20
0.0
 30
0.0
 11
-1.0
 21
-0.166667
 31
0.0
  0
LINE
  5
AAB
330
AA8
100
AcDbEntity
  8
0
100
AcDbLine
 10
-1.0
 20
0.166667
 30
0.0
 11
-1.0
 21
-0.166667
 31
0.0
  0
LINE
  5
AAC
330
AA8
100
AcDbEntity
  8
0
100
AcDbLine
 10
0.0
 20
0.0
 30
0.0
 11
-1.0
 21
0.0
 31
0.0
  0
ENDBLK
  5
AAE
330
AA8
100
AcDbEntity
  8
0
100
AcDbBlockEnd
  0
BLOCK
  5
B7C
330
B79
100
AcDbEntity
  8
0
100
AcDbBlockBegin
  2
nota revisoes
 70
     0
 10
0.0
 20
0.0
 30
0.0
  3
nota revisoes
  1

  0
CIRCLE
  5
B7A
330
B79
100
AcDbEntity
  8
4
100
AcDbCircle
 10
0.0
 20
0.0
 30
0.0
 40
13.69426055101189
  0
TEXT
  5
B7B
330
B79
100
AcDbEntity
  8
4
100
AcDbText
 10
-5.496248358154345
 20
-5.354545554066362
 30
0.0
 40
12.0
  1
1
  7
SANINDUSA
 72
     1
 11
-0.249774214433728
 21
-5.354545554066362
 31
0.0
100
AcDbText
  0
ENDBLK
  5
B7D
330
B79
100
AcDbEntity
  8
0
100
AcDbBlockEnd
  0
BLOCK
  5
B8D
330
B88
100
AcDbEntity
  8
0
 62
     0
100
AcDbBlockBegin
  2
SW_CENTERMARK6
 70
     0
 10
0.0
 20
0.0
 30
0.0
  3
SW_CENTERMARK6
  1

  0
LINE
  5
B89
330
B88
100
AcDbEntity
  8
0
  6
Continuous
 62
     7
100
AcDbLine
 10
168.9665465430882
 20
156.149253129151
 30
0.0
 11
168.9665465430882
 21
156.399253129151
 31
0.0
  0
LINE
  5
B8A
330
B88
100
AcDbEntity
  8
0
  6
Continuous
 62
     7
100
AcDbLine
 10
168.9665465430882
 20
156.149253129151
 30
0.0
 11
168.7165465430882
 21
156.149253129151
 31
0.0
  0
LINE
  5
B8B
330
B88
100
AcDbEntity
  8
0
  6
Continuous
 62
     7
100
AcDbLine
 10
168.9665465430882
 20
156.149253129151
 30
0.0
 11
168.9665465430882
 21
155.899253129151
 31
0.0
  0
LINE
  5
B8C
330
B88
100
AcDbEntity
  8
0
  6
Continuous
 62
     7
100
AcDbLine
 10
168.9665465430882
 20
156.149253129151
 30
0.0
 11
169.2165465430882
 21
156.149253129151
 31
0.0
  0
ENDBLK
  5
B8E
330
B88
100
AcDbEntity
  8
0
100
AcDbBlockEnd
  0
BLOCK
  5
F0A
330
F05
100
AcDbEntity
  8
0
 62
     0
100
AcDbBlockBegin
  2
SW_CENTERMARK4
 70
     0
 10
0.0
 20
0.0
 30
0.0
  3
SW_CENTERMARK4
  1

  0
LINE
  5
F06
330
F05
100
AcDbEntity
  8
0
  6
Continuous
 62
     7
100
AcDbLine
 10
163.3550626920481
 20
126.8068867343228
 30
0.0
 11
163.3550626920481
 21
127.0568867343228
 31
0.0
  0
LINE
  5
F07
330
F05
100
AcDbEntity
  8
0
  6
Continuous
 62
     7
100
AcDbLine
 10
163.3550626920481
 20
126.8068867343228
 30
0.0
 11
163.1050626920481
 21
126.8068867343228
 31
0.0
  0
LINE
  5
F08
330
F05
100
AcDbEntity
  8
0
  6
Continuous
 62
     7
100
AcDbLine
 10
163.3550626920481
 20
126.8068867343228
 30
0.0
 11
163.3550626920481
 21
126.5568867343228
 31
0.0
  0
LINE
  5
F09
330
F05
100
AcDbEntity
  8
0
  6
Continuous
 62
     7
100
AcDbLine
 10
163.3550626920481
 20
126.8068867343228
 30
0.0
 11
163.6050626920481
 21
126.8068867343228
 31
0.0
  0
ENDBLK
  5
F0B
330
F05
100
AcDbEntity
  8
0
100
AcDbBlockEnd
  0
BLOCK
  5
F11
330
F0C
100
AcDbEntity
  8
0
 62
     0
100
AcDbBlockBegin
  2
SW_CENTERMARK5
 70
     0
 10
0.0
 20
0.0
 30
0.0
  3
SW_CENTERMARK5
  1

  0
LINE
  5
F0D
330
F0C
100
AcDbEntity
  8
0
  6
Continuous
 62
     7
100
AcDbLine
 10
148.9294955474332
 20
127.9835953183115
 30
0.0
 11
148.9294955474332
 21
128.2335953183115
 31
0.0
  0
LINE
  5
F0E
330
F0C
100
AcDbEntity
  8
0
  6
Continuous
 62
     7
100
AcDbLine
 10
148.9294955474332
 20
127.9835953183115
 30
0.0
 11
148.6794955474332
 21
127.9835953183115
 31
0.0
  0
LINE
  5
F0F
330
F0C
100
AcDbEntity
  8
0
  6
Continuous
 62
     7
100
AcDbLine
 10
148.9294955474332
 20
127.9835953183115
 30
0.0
 11
148.9294955474332
 21
127.7335953183115
 31
0.0
  0
LINE
  5
F10
330
F0C
100
AcDbEntity
  8
0
  6
Continuous
 62
     7
100
AcDbLine
 10
148.9294955474332
 20
127.9835953183115
 30
0.0
 11
149.1794955474332
 21
127.9835953183115
 31
0.0
  0
ENDBLK
  5
F12
330
F0C
100
AcDbEntity
  8
0
100
AcDbBlockEnd
  0
ENDSEC
  0
SECTION
  2
ENTITIES
  0
LWPOLYLINE
  5
D4D
330
1F
100
AcDbEntity
  8
SANINDUSA
100
AcDbPolyline
 90
       37
 70
   128
 43
0.0
 10
4247.400419061263
 20
1796.354211155884
 10
4247.400419121263
 20
1796.354211155771
 10
4247.423441312282
 20
1796.354798904088
 10
4247.446396933701
 20
1796.356644429379
 10
4247.469493754113
 20
1796.359780676942
 10
4247.492384269878
 20
1796.364175862807
 10
4247.507313795421
 20
1796.367759915844
 10
4247.522099461557
 20
1796.371897077309
 10
4247.53683849886
 20
1796.376629558362
 10
4247.551383989343
 20
1796.38192662888
 10
4247.565888337073
 20
1796.387871877869
 10
4247.580136564089
 20
1796.394406692074
 10
4247.59420082417
 20
1796.401587027309
 10
4247.607993415146
 20
1796.409392024758
 10
4247.62220865889
 20
1796.418315308628
 10
4247.636005290398
 20
1796.427942089051
 10
4247.649366581646
 20
1796.438302564533
 10
4247.662207048219
 20
1796.449371328998
 10
4247.670861758985
 20
1796.457553567332
 10
4247.679189176397
 20
1796.466068476216
 10
4247.68724074494
 20
1796.474996561108
 10
4247.694915900722
 20
1796.484250084545
 10
4247.702295598922
 20
1796.493962911081
 10
4247.70923624015
 20
1796.50399381275
 10
4247.715776496002
 20
1796.514447060671
 10
4247.72181197273
 20
1796.525199301081
 10
4247.726191144258
 20
1796.533859884179
 10
4247.730229223225
 20
1796.542684394377
 10
4247.733942698074
 20
1796.551745973341
 10
4247.737281258607
 20
1796.560952024778
 10
4247.740272621092
 20
1796.570418543574
 10
4247.742862236884
 20
1796.580002541167
 10
4247.745064293668
 20
1796.589782236371
 10
4247.746837292184
 20
1796.599648230647
 10
4247.7487276831
 20
1796.615482302314
 10
4247.749435095586
 20
1796.631411000418
 10
4247.749435095891
 20
1796.631411048542
  0
LWPOLYLINE
  5
D4F
330
1F
100
AcDbEntity
  8
SANINDUSA
100
AcDbPolyline
 90
       37
 70
   128
 43
0.0
 10
4247.051403026635
 20
1796.631411048542
 10
4247.051403026941
 20
1796.631411000418
 10
4247.051820112136
 20
1796.619455473034
 10
4247.052909803681
 20
1796.607541419595
 10
4247.054671602839
 20
1796.595614082746
 10
4247.057069176207
 20
1796.58379715607
 10
4247.060867689603
 20
1796.569398179069
 10
4247.065567499916
 20
1796.555267135286
 10
4247.070141865878
 20
1796.54377000889
 10
4247.075296963422
 20
1796.532520725541
 10
4247.08042413069
 20
1796.522598249537
 10
4247.085980619417
 20
1796.512909411359
 10
4247.091988597279
 20
1796.503408494978
 10
4247.1005863473
 20
1796.491183640987
 10
4247.10983082804
 20
1796.479439383977
 10
4247.118863145952
 20
1796.469075342703
 10
4247.128369764398
 20
1796.459144252538
 10
4247.13946247917
 20
1796.448618333341
 10
4247.15105437541
 20
1796.438644090641
 10
4247.16734066045
 20
1796.426115583472
 10
4247.17965599269
 20
1796.417638622912
 10
4247.192401465974
 20
1796.409656407362
 10
4247.205471341736
 20
1796.402216653801
 10
4247.218993183484
 20
1796.395239383066
 10
4247.232787681383
 20
1796.388817668134
 10
4247.246989754125
 20
1796.382888977236
 10
4247.261414786174
 20
1796.37752485375
 10
4247.276112374669
 20
1796.372695160714
 10
4247.29105449099
 20
1796.368409442266
 10
4247.306218326586
 20
1796.364675746232
 10
4247.321511135364
 20
1796.361510700778
 10
4247.337057138444
 20
1796.358886267871
 10
4247.352689381279
 20
1796.356837356724
 10
4247.368537669642
 20
1796.355360892939
 10
4247.384430431475
 20
1796.354484651829
 10
4247.400419001263
 20
1796.354211155771
 10
4247.400419061263
 20
1796.354211155884
  0
LWPOLYLINE
  5
D50
330
1F
100
AcDbEntity
  8
SANINDUSA
100
AcDbPolyline
 90
      108
 70
   128
 43
0.0
 10
4246.998231631106
 20
1796.631362037176
 10
4246.998375580985
 20
1796.624526344854
 10
4246.998792456251
 20
1796.615658082326
 10
4246.999536258657
 20
1796.606354499083
 10
4247.000591168723
 20
1796.597104604896
 10
4247.001957056102
 20
1796.587902822929
 10
4247.00363421424
 20
1796.578745316823
 10
4247.005622838161
 20
1796.569630980125
 10
4247.007924343
 20
1796.560554834703
 10
4247.01054083967
 20
1796.551512009318
 10
4247.013475131399
 20
1796.542497744423
 10
4247.016730708573
 20
1796.533507400116
 10
4247.020312755601
 20
1796.524548966893
 10
4247.02414521954
 20
1796.515811581858
 10
4247.028289336907
 20
1796.507135087093
 10
4247.032753210964
 20
1796.498507583486
 10
4247.037532424223
 20
1796.489945083096
 10
4247.042621213453
 20
1796.481464575776
 10
4247.048012255143
 20
1796.473084147372
 10
4247.053696557316
 20
1796.464822874285
 10
4247.059663375146
 20
1796.45670068529
 10
4247.065900054496
 20
1796.448738253157
 10
4247.072404182434
 20
1796.440936766376
 10
4247.079230257638
 20
1796.433232791749
 10
4247.0863517118
 20
1796.425663445748
 10
4247.093764297904
 20
1796.418237758031
 10
4247.101462647392
 20
1796.410965479369
 10
4247.109440336226
 20
1796.403856867212
 10
4247.117689802407
 20
1796.396922640248
 10
4247.126202273176
 20
1796.390173920651
 10
4247.134967042952
 20
1796.38362259593
 10
4247.143950389482
 20
1796.377291238833
 10
4247.153244754144
 20
1796.371120000004
 10
4247.162741145014
 20
1796.365188774561
 10
4247.172446232387
 20
1796.359494319099
 10
4247.182366775346
 20
1796.354034082968
 10
4247.192510040476
 20
1796.348805932985
 10
4247.202883820103
 20
1796.343808153459
 10
4247.213496455581
 20
1796.339039444902
 10
4247.2243715415
 20
1796.334496900627
 10
4247.235358649162
 20
1796.330249849815
 10
4247.246521820394
 20
1796.32626925754
 10
4247.257891249443
 20
1796.322546183643
 10
4247.269436143993
 20
1796.319094496976
 10
4247.281123710293
 20
1796.315927086806
 10
4247.292919113271
 20
1796.313055760298
 10
4247.304783679038
 20
1796.31049146026
 10
4247.316676048038
 20
1796.308239989255
 10
4247.328744911617
 20
1796.306272190891
 10
4247.340900366663
 20
1796.304609178193
 10
4247.353104436118
 20
1796.303257612924
 10
4247.365360212899
 20
1796.302217246572
 10
4247.377671674758
 20
1796.301488111948
 10
4247.390042851775
 20
1796.301070646678
 10
4247.402477753968
 20
1796.300965780355
 10
4247.41494929087
 20
1796.301177848386
 10
4247.427350798871
 20
1796.301705669101
 10
4247.439721755969
 20
1796.302548835154
 10
4247.452048683919
 20
1796.303706230708
 10
4247.464318333352
 20
1796.305176272182
 10
4247.476517764639
 20
1796.306956930264
 10
4247.488634401899
 20
1796.309045755636
 10
4247.500656081617
 20
1796.311439908556
 10
4247.512571095374
 20
1796.314136191756
 10
4247.524368226272
 20
1796.317131086048
 10
4247.536036778806
 20
1796.320420788028
 10
4247.547566602089
 20
1796.324001249251
 10
4247.558948106436
 20
1796.327868216291
 10
4247.570172273471
 20
1796.332017271072
 10
4247.581230660001
 20
1796.336443870971
 10
4247.592115413964
 20
1796.341143579768
 10
4247.602803311269
 20
1796.346105211043
 10
4247.613279848604
 20
1796.35131999721
 10
4247.623534201066
 20
1796.356780201097
 10
4247.633555897615
 20
1796.362477711958
 10
4247.643335601563
 20
1796.368404480723
 10
4247.652865069036
 20
1796.37455258645
 10
4247.662137095443
 20
1796.380914294987
 10
4247.671145453954
 20
1796.387482110702
 10
4247.679884827884
 20
1796.394248821277
 10
4247.688350738757
 20
1796.401207535741
 10
4247.696539471569
 20
1796.408351716045
 10
4247.70444799869
 20
1796.415675202518
 10
4247.712073903556
 20
1796.423172233651
 10
4247.719415305183
 20
1796.430837460652
 10
4247.726470784331
 20
1796.438665957262
 10
4247.733239311975
 20
1796.446653225288
 10
4247.739715224354
 20
1796.454788716395
 10
4247.745878613883
 20
1796.463043023222
 10
4247.751717624551
 20
1796.471395665617
 10
4247.757234643042
 20
1796.479844079429
 10
4247.762432207656
 20
1796.488386353634
 10
4247.767312780161
 20
1796.497020988704
 10
4247.771878696932
 20
1796.505746880791
 10
4247.776132124508
 20
1796.51456330559
 10
4247.780075018996
 20
1796.523469901393
 10
4247.783709089202
 20
1796.532466651482
 10
4247.78702448389
 20
1796.541522050797
 10
4247.79001387685
 20
1796.55060764888
 10
4247.792681308415
 20
1796.559727411465
 10
4247.795028739537
 20
1796.568880871319
 10
4247.797057817411
 20
1796.578067742228
 10
4247.798769864389
 20
1796.587287927878
 10
4247.80016586028
 20
1796.59654150494
 10
4247.801246426825
 20
1796.605828705552
 10
4247.802011814356
 20
1796.615149899347
 10
4247.802461784007
 20
1796.624502154914
 10
4247.80260491481
 20
1796.631362094501
  0
LWPOLYLINE
  5
D53
330
1F
100
AcDbEntity
  8
SANINDUSA
100
AcDbPolyline
 90
       31
 70
   128
 43
0.0
 10
4247.400541933691
 20
1796.421186772672
 10
4247.416317612255
 20
1796.421423712883
 10
4247.432313151572
 20
1796.42249261512
 10
4247.448528241746
 20
1796.424393800833
 10
4247.46442431903
 20
1796.427013368103
 10
4247.480093559869
 20
1796.430326396792
 10
4247.49553574413
 20
1796.43433233987
 10
4247.509094123776
 20
1796.438488618139
 10
4247.522268145382
 20
1796.443148688393
 10
4247.535057770067
 20
1796.448311909503
 10
4247.547462982786
 20
1796.453977673739
 10
4247.559483790326
 20
1796.460145410108
 10
4247.571120219348
 20
1796.466814586728
 10
4247.582372314498
 20
1796.473984712265
 10
4247.592388449155
 20
1796.481037903614
 10
4247.601925017195
 20
1796.488435167521
 10
4247.610982148823
 20
1796.496176167766
 10
4247.619559982125
 20
1796.504260632036
 10
4247.626366665658
 20
1796.511292590336
 10
4247.632770282478
 20
1796.518509926439
 10
4247.638770940444
 20
1796.525912580404
 10
4247.644368745994
 20
1796.533500530874
 10
4247.649563803111
 20
1796.541273793446
 10
4247.655747177373
 20
1796.551748471102
 10
4247.661111549869
 20
1796.562402665077
 10
4247.66565715259
 20
1796.573236717027
 10
4247.669384188735
 20
1796.58425107351
 10
4247.672412214177
 20
1796.595827363484
 10
4247.674609566618
 20
1796.607506542991
 10
4247.675861397313
 20
1796.619219003642
 10
4247.675881765068
 20
1796.63080825202
  0
LWPOLYLINE
  5
D55
330
1F
100
AcDbEntity
  8
SANINDUSA
100
AcDbPolyline
 90
       31
 70
   128
 43
0.0
 10
4247.124956357455
 20
1796.630808251875
 10
4247.124868210855
 20
1796.62154822607
 10
4247.125588284025
 20
1796.612263498174
 10
4247.127010923667
 20
1796.602805218395
 10
4247.128970475958
 20
1796.593481251001
 10
4247.131462515247
 20
1796.584222360144
 10
4247.134381713866
 20
1796.575392825829
 10
4247.137825640581
 20
1796.566678303187
 10
4247.141794395007
 20
1796.558078548246
 10
4247.146288089177
 20
1796.549593357969
 10
4247.151306846349
 20
1796.541222574619
 10
4247.157870075972
 20
1796.531531857678
 10
4247.165063679683
 20
1796.522130609201
 10
4247.172887862964
 20
1796.513018826173
 10
4247.181342836032
 20
1796.50419659812
 10
4247.188172825214
 20
1796.497700899585
 10
4247.195310067452
 20
1796.491424998248
 10
4247.202754634627
 20
1796.485369024309
 10
4247.21050659576
 20
1796.479533134096
 10
4247.218566016252
 20
1796.473917510328
 10
4247.23174132733
 20
1796.465602502285
 10
4247.245440647732
 20
1796.457970013226
 10
4247.259664041347
 20
1796.451020841724
 10
4247.274411537453
 20
1796.444755860911
 10
4247.289683126565
 20
1796.439176014489
 10
4247.305478756122
 20
1796.434282310331
 10
4247.324050681981
 20
1796.429565241645
 10
4247.342948939431
 20
1796.425847671593
 10
4247.362241598049
 20
1796.423134530198
 10
4247.381508843548
 20
1796.421567570105
 10
4247.400541900966
 20
1796.421189582019
  0
LINE
  5
D56
330
1F
100
AcDbEntity
  8
SANINDUSA
100
AcDbLine
 10
4249.772449680642
 20
1796.727913617339
 30
0.0
 11
4249.730949680643
 21
1796.727913617339
 31
0.0
  0
LINE
  5
D57
330
1F
100
AcDbEntity
  8
SANINDUSA
100
AcDbLine
 10
4249.754443103057
 20
1796.644913617339
 30
0.0
 11
4249.730949680643
 21
1796.644913617339
 31
0.0
  0
LWPOLYLINE
  5
D58
330
1F
100
AcDbEntity
  8
SANINDUSA
100
AcDbPolyline
 90
        3
 70
   128
 43
0.0
 10
4249.748483165383
 20
1796.57876612369
 10
4249.741123656553
 20
1796.57918690163
 10
4249.73082818387
 20
1796.579798966544
  0
LINE
  5
D5D
330
1F
100
AcDbEntity
  8
SANINDUSA
100
AcDbLine
 10
4249.851882745717
 20
1796.567913617339
 30
0.0
 11
4249.730949680643
 21
1796.567913617339
 31
0.0
  0
ARC
  5
D5E
330
1F
100
AcDbEntity
  8
SANINDUSA
100
AcDbCircle
 10
4247.400419061263
 20
1795.699472089757
 30
0.0
 40
0.9787207016462387
100
AcDbArc
 50
73.68161988174477
 51
106.3183801182552
  0
ARC
  5
D60
330
1F
100
AcDbEntity
  8
SANINDUSA
100
AcDbCircle
 10
4247.400413384379
 20
1795.882598456409
 30
0.0
 40
0.8381454616129996
100
AcDbArc
 50
66.30453479579291
 51
113.6952369484035
  0
LINE
  5
D63
330
1F
100
AcDbEntity
  8
SANINDUSA
100
AcDbLine
 10
4247.057860299734
 20
1796.844410837914
 30
0.0
 11
4247.742976060557
 21
1796.844410837914
 31
0.0
  0
LWPOLYLINE
  5
D64
330
1F
100
AcDbEntity
  8
SANINDUSA
100
AcDbPolyline
 90
        6
 70
   128
 43
0.0
 10
4246.997985624694
 20
1796.842410826991
 10
4246.997985961644
 20
1796.763873575839
 10
4246.998001751459
 20
1796.714143865926
 10
4246.998054839754
 20
1796.680382369876
 10
4246.99815414882
 20
1796.650168762125
 10
4246.998255798832
 20
1796.63136546194
  0
LWPOLYLINE
  5
D68
330
1F
100
AcDbEntity
  8
SANINDUSA
100
AcDbPolyline
 90
        9
 70
   128
 43
0.0
 10
4247.05650413308
 20
1796.842315736799
 10
4247.055663208182
 20
1796.83811171599
 10
4247.054575052766
 20
1796.828315306946
 10
4247.053305101559
 20
1796.808485351021
 10
4247.052487866525
 20
1796.788558326473
 10
4247.051893518902
 20
1796.768622707343
 10
4247.051096918116
 20
1796.731465764968
 10
4247.050735053859
 20
1796.694306590764
 10
4247.050853946867
 20
1796.657159196546
  0
LWPOLYLINE
  5
D6A
330
1F
100
AcDbEntity
  8
SANINDUSA
100
AcDbPolyline
 90
        9
 70
   128
 43
0.0
 10
4247.114316151415
 20
1796.6352898479
 10
4247.106053593102
 20
1796.635441518142
 10
4247.098088599244
 20
1796.635672238195
 10
4247.090445573578
 20
1796.635990066573
 10
4247.083081299768
 20
1796.636406475244
 10
4247.076056392961
 20
1796.636927634699
 10
4247.0693310728
 20
1796.637566399387
 10
4247.062961877842
 20
1796.63832708355
 10
4247.056941160487
 20
1796.639219259652
  0
LINE
  5
D6D
330
1F
100
AcDbEntity
  8
SANINDUSA
100
AcDbLine
 10
4247.051254830699
 20
1796.647159732992
 30
0.0
 11
4247.051403385852
 21
1796.631411060397
 31
0.0
  0
ARC
  5
D6F
330
1F
100
AcDbEntity
  8
SANINDUSA
100
AcDbCircle
 10
4247.051403385611
 20
1796.631405619039
 30
0.0
 40
0.0000054413588508
100
AcDbArc
 50
89.99745285303708
 51
93.78263947299359
  0
LWPOLYLINE
  5
D70
330
1F
100
AcDbEntity
  8
SANINDUSA
100
AcDbPolyline
 90
        9
 70
   128
 43
0.0
 10
4247.056941160487
 20
1796.639219259652
 10
4247.057101467441
 20
1796.640916039805
 10
4247.057478538269
 20
1796.642578552851
 10
4247.058064757886
 20
1796.644173223722
 10
4247.058848287366
 20
1796.645667847444
 10
4247.059813303042
 20
1796.647032239538
 10
4247.060940316064
 20
1796.648238845595
 10
4247.062206565984
 20
1796.649263297759
 10
4247.063586480413
 20
1796.650084906836
  0
LWPOLYLINE
  5
D71
330
1F
100
AcDbEntity
  8
SANINDUSA
100
AcDbPolyline
 90
       11
 70
   128
 43
0.0
 10
4247.056941160487
 20
1796.639219259652
 10
4247.056286993055
 20
1796.639391427819
 10
4247.055641170927
 20
1796.639694638748
 10
4247.054999024274
 20
1796.640139460907
 10
4247.054375090662
 20
1796.640724219814
 10
4247.053784357009
 20
1796.641435592419
 10
4247.053220996174
 20
1796.642280402267
 10
4247.052680971114
 20
1796.643272465184
 10
4247.052178496404
 20
1796.644393021428
 10
4247.051691168026
 20
1796.64571350276
 10
4247.051254830699
 20
1796.647159732992
  0
ARC
  5
D72
330
1F
100
AcDbEntity
  8
SANINDUSA
100
AcDbCircle
 10
4247.188639938424
 20
1796.6576753429
 30
0.0
 40
0.1377869582964317
100
AcDbArc
 50
180.214629003948
 51
184.3769488840941
  0
CIRCLE
  5
D75
330
1F
100
AcDbEntity
  8
SANINDUSA
100
AcDbCircle
 10
4247.400419061263
 20
1796.631410837914
 30
0.0
 40
0.0252197048550474
  0
LWPOLYLINE
  5
D76
330
1F
100
AcDbEntity
  8
SANINDUSA
100
AcDbPolyline
 90
       39
 70
   128
 43
0.0
 10
4247.373994416612
 20
1796.650079369123
 10
4247.371189786629
 20
1796.64560650493
 10
4247.369082748932
 20
1796.640615411211
 10
4247.367789531455
 20
1796.635219914207
 10
4247.367407566593
 20
1796.629524786428
 10
4247.367966178425
 20
1796.624015297636
 10
4247.369480075692
 20
1796.618523634404
 10
4247.371812347051
 20
1796.613528891789
 10
4247.375036841877
 20
1796.608863940942
 10
4247.378868627401
 20
1796.604935685376
 10
4247.383433360297
 20
1796.601611708245
 10
4247.38834151619
 20
1796.599177048747
 10
4247.393743772453
 20
1796.597558211103
 10
4247.39919664938
 20
1796.596893911132
 10
4247.404845866617
 20
1796.597171517511
 10
4247.41023486161
 20
1796.598375488247
 10
4247.415492525075
 20
1796.600540836708
 10
4247.419641153304
 20
1796.603091056013
 10
4247.423448336358
 20
1796.606300500929
 10
4247.426263489924
 20
1796.609436577442
 10
4247.428694913421
 20
1796.612963393728
 10
4247.431145193808
 20
1796.617963587244
 10
4247.432764042026
 20
1796.623460903064
 10
4247.433415675072
 20
1796.628966476383
 10
4247.433129269648
 20
1796.634663002444
 10
4247.431940046612
 20
1796.640037300772
 10
4247.429814121121
 20
1796.645284365123
 10
4247.426949771759
 20
1796.64993595492
 10
4247.423250282499
 20
1796.654163987623
 10
4247.419042867938
 20
1796.657600948835
 10
4247.41418779651
 20
1796.660366670192
 10
4247.409093623356
 20
1796.662227950234
 10
4247.403607165282
 20
1796.663240782311
 10
4247.398170279232
 20
1796.663318948229
 10
4247.392641832743
 20
1796.662460470931
 10
4247.387455229458
 20
1796.660725623032
 10
4247.382493856535
 20
1796.658068611252
 10
4247.377957064418
 20
1796.654514545409
 10
4247.373994416612
 20
1796.650079369123
  0
LWPOLYLINE
  5
D77
330
1F
100
AcDbEntity
  8
SANINDUSA
100
AcDbPolyline
 90
       40
 70
   128
 43
0.0
 10
4247.368720780556
 20
1796.654021706808
 10
4247.369108643639
 20
1796.654537567161
 10
4247.373542064191
 20
1796.659428510389
 10
4247.378890527906
 20
1796.663620134968
 10
4247.384669009061
 20
1796.66674080841
 10
4247.391072753891
 20
1796.668904475451
 10
4247.397527119824
 20
1796.669924498459
 10
4247.404250774399
 20
1796.669843874769
 10
4247.410660703699
 20
1796.668674313803
 10
4247.416960948294
 20
1796.666384552137
 10
4247.422628681514
 20
1796.663165168953
 10
4247.427824081138
 20
1796.658926574547
 10
4247.432130738912
 20
1796.65400357233
 10
4247.435653025617
 20
1796.648271032733
 10
4247.43811052363
 20
1796.642172525459
 10
4247.439553175559
 20
1796.635564139115
 10
4247.439860664377
 20
1796.628963961254
 10
4247.439031911662
 20
1796.622215947341
 10
4247.437130062638
 20
1796.615870880713
 10
4247.434099605448
 20
1796.609763835164
 10
4247.431231761408
 20
1796.605659005907
 10
4247.427809549574
 20
1796.601891242865
 10
4247.42337113638
 20
1796.598184310234
 10
4247.418323336854
 20
1796.595106321396
 10
4247.412258014286
 20
1796.592618703849
 10
4247.405673054942
 20
1796.591146323891
 10
4247.399159976523
 20
1796.590813743282
 10
4247.392495708261
 20
1796.591600462997
 10
4247.386253878641
 20
1796.59343420136
 10
4247.380238394526
 20
1796.596366344837
 10
4247.374937627998
 20
1796.600160445808
 10
4247.370212607328
 20
1796.604917146254
 10
4247.366434384249
 20
1796.610272175652
 10
4247.363522387927
 20
1796.616352200031
 10
4247.361709005093
 20
1796.622691344933
 10
4247.360963014299
 20
1796.629434260889
 10
4247.361350326405
 20
1796.636042579104
 10
4247.362888309025
 20
1796.642679713139
 10
4247.365307207821
 20
1796.648511779042
 10
4247.368720780556
 20
1796.654021706808
  0
CIRCLE
  5
D78
330
1F
100
AcDbEntity
  8
SANINDUSA
100
AcDbCircle
 10
4247.400419061263
 20
1796.631410837914
 30
0.0
 40
0.0235000000000001
  0
ARC
  5
D7A
330
1F
100
AcDbEntity
  8
SANINDUSA
100
AcDbCircle
 10
4244.766335954386
 20
1796.684790204006
 30
0.0
 40
2.359238067029715
100
AcDbArc
 50
358.6888953661239
 51
358.8798530904157
  0
ARC
  5
D7E
330
1F
100
AcDbEntity
  8
SANINDUSA
100
AcDbCircle
 10
4247.127291968218
 20
1796.632389834531
 30
0.0
 40
0.0066435818129058
100
AcDbArc
 50
106.3352855800762
 51
109.0534469633704
  0
ARC
  5
D7F
330
1F
100
AcDbEntity
  8
SANINDUSA
100
AcDbCircle
 10
4247.129110669037
 20
1796.60694978541
 30
0.0
 40
0.0319693117478138
100
AcDbArc
 50
97.16510242838714
 51
117.5661556701724
  0
ARC
  5
D82
330
1F
100
AcDbEntity
  8
SANINDUSA
100
AcDbCircle
 10
4247.400416086935
 20
1796.63141374304
 30
0.0
 40
0.0234958467518747
100
AcDbArc
 50
133.0253541646288
 51
140.1260608430104
  0
ARC
  5
D83
330
1F
100
AcDbEntity
  8
SANINDUSA
100
AcDbCircle
 10
4247.400427649544
 20
1796.631419039044
 30
0.0
 40
0.0234881445812985
100
AcDbArc
 50
39.84488844150938
 51
46.97584234844256
  0
ARC
  5
D84
330
1F
100
AcDbEntity
  8
SANINDUSA
100
AcDbCircle
 10
4247.400448626189
 20
1796.671301352085
 30
0.0
 40
0.0458365589829243
100
AcDbArc
 50
76.5657579601854
 51
103.7859752564858
  0
LWPOLYLINE
  5
D86
330
1F
100
AcDbEntity
  8
SANINDUSA
100
AcDbPolyline
 90
       16
 70
   128
 43
0.0
 10
4247.400419061263
 20
1796.709876842356
 10
4247.398023816611
 20
1796.709923896299
 10
4247.395628571959
 20
1796.710069428261
 10
4247.395623442282
 20
1796.710069854001
 10
4247.393427600871
 20
1796.710302798226
 10
4247.391370050394
 20
1796.710630661567
 10
4247.389622824949
 20
1796.711027416244
 10
4247.388136394191
 20
1796.711505855249
 10
4247.387034998736
 20
1796.712027419644
 10
4247.386287388688
 20
1796.712608182351
 10
4247.385956130345
 20
1796.713200338851
 10
4247.386031708128
 20
1796.713821287082
 10
4247.386507692339
 20
1796.714418808137
 10
4247.387397814074
 20
1796.715009575548
 10
4247.388627263808
 20
1796.715542957942
 10
4247.389525969543
 20
1796.715817480748
  0
LWPOLYLINE
  5
D8A
330
1F
100
AcDbEntity
  8
SANINDUSA
100
AcDbPolyline
 90
       15
 70
   128
 43
0.0
 10
4247.41109779856
 20
1796.715883694635
 10
4247.412171339689
 20
1796.715557239781
 10
4247.413441346365
 20
1796.715009028081
 10
4247.414311570888
 20
1796.714435222456
 10
4247.41480677218
 20
1796.71382051244
 10
4247.414885514152
 20
1796.713217015795
 10
4247.414550091483
 20
1796.712607476493
 10
4247.413828742284
 20
1796.712042684287
 10
4247.412700598952
 20
1796.711505416714
 10
4247.411260474493
 20
1796.711039634993
 10
4247.409466551149
 20
1796.710630370682
 10
4247.407469803589
 20
1796.710310607301
 10
4247.405212167921
 20
1796.710069645425
 10
4247.40288471647
 20
1796.709926725415
 10
4247.400419061263
 20
1796.709876842356
  0
LINE
  5
D8C
330
1F
100
AcDbEntity
  8
SANINDUSA
100
AcDbLine
 10
4247.005321282098
 20
1796.844410837914
 30
0.0
 11
4247.055787151674
 21
1796.844410837914
 31
0.0
  0
LWPOLYLINE
  5
D8E
330
1F
100
AcDbEntity
  8
SANINDUSA
100
AcDbPolyline
 90
        9
 70
   128
 43
0.0
 10
4246.997985687706
 20
1796.842408351006
 10
4246.998023692626
 20
1796.84279888608
 10
4246.998137215661
 20
1796.843174484984
 10
4246.998321887253
 20
1796.843520690728
 10
4246.998570599299
 20
1796.843824177676
 10
4246.998873778748
 20
1796.844073264464
 10
4246.999219756069
 20
1796.844258363616
 10
4246.999595214421
 20
1796.844372350571
 10
4246.999985686801
 20
1796.844410837914
  0
LINE
  5
D90
330
1F
100
AcDbEntity
  8
SANINDUSA
100
AcDbLine
 10
4246.999985686801
 20
1796.844410837914
 30
0.0
 11
4247.005321282098
 21
1796.844410837914
 31
0.0
  0
LWPOLYLINE
  5
D92
330
1F
100
AcDbEntity
  8
SANINDUSA
100
AcDbPolyline
 90
        9
 70
   128
 43
0.0
 10
4247.05650413308
 20
1796.842315736799
 10
4247.056504124586
 20
1796.842719058859
 10
4247.05650408444
 20
1796.843109810394
 10
4247.05650401428
 20
1796.843472054938
 10
4247.056503916968
 20
1796.843791018658
 10
4247.056503796471
 20
1796.844053692893
 10
4247.056503657705
 20
1796.8442493647
 10
4247.05650350633
 20
1796.844370053775
 10
4247.056503348518
 20
1796.844410837914
  0
LINE
  5
D96
330
1F
100
AcDbEntity
  8
SANINDUSA
100
AcDbLine
 10
4247.056503348518
 20
1796.844410837914
 30
0.0
 11
4247.057860299734
 21
1796.844410837914
 31
0.0
  0
LINE
  5
D97
330
1F
100
AcDbEntity
  8
SANINDUSA
100
AcDbLine
 10
4247.055787151674
 20
1796.844410837914
 30
0.0
 11
4247.056503348518
 21
1796.844410837914
 31
0.0
  0
CIRCLE
  5
D9A
330
1F
100
AcDbEntity
  8
SANINDUSA
100
AcDbCircle
 10
4247.400418167454
 20
1796.782407974776
 30
0.0
 40
0.0185028631598341
  0
LWPOLYLINE
  5
D9C
330
1F
100
AcDbEntity
  8
SANINDUSA
100
AcDbPolyline
 90
        7
 70
   128
 43
0.0
 10
4247.802581883194
 20
1796.631365461117
 10
4247.80266511653
 20
1796.645934246134
 10
4247.802774138043
 20
1796.676685297455
 10
4247.802831128823
 20
1796.7088115771
 10
4247.802851260253
 20
1796.746600343017
 10
4247.802852210604
 20
1796.79615780252
 10
4247.802852449985
 20
1796.842410826795
  0
LWPOLYLINE
  5
D9F
330
1F
100
AcDbEntity
  8
SANINDUSA
100
AcDbPolyline
 90
        5
 70
   128
 43
0.0
 10
4247.738102233564
 20
1796.658023289397
 10
4247.739847842701
 20
1796.708863781696
 10
4247.74128290034
 20
1796.759753268898
 10
4247.742459348745
 20
1796.810782684756
 10
4247.743169120354
 20
1796.842309690493
  0
LWPOLYLINE
  5
DA0
330
1F
100
AcDbEntity
  8
SANINDUSA
100
AcDbPolyline
 90
        9
 70
   128
 43
0.0
 10
4247.749983617131
 20
1796.657178804071
 10
4247.75013869454
 20
1796.685124097705
 10
4247.750020888335
 20
1796.713080305596
 10
4247.748968534422
 20
1796.76901873025
 10
4247.748374926422
 20
1796.788950338282
 10
4247.747556253835
 20
1796.808875651027
 10
4247.746266055121
 20
1796.82869790007
 10
4247.745141908882
 20
1796.838480475435
 10
4247.744346717827
 20
1796.842312967646
  0
LWPOLYLINE
  5
DA1
330
1F
100
AcDbEntity
  8
SANINDUSA
100
AcDbPolyline
 90
        9
 70
   128
 43
0.0
 10
4247.743888562207
 20
1796.639217879202
 10
4247.737982233693
 20
1796.638341223402
 10
4247.73171157607
 20
1796.637588292039
 10
4247.725094609478
 20
1796.636954090391
 10
4247.718086164771
 20
1796.636428003659
 10
4247.710738145523
 20
1796.63600701101
 10
4247.703001266719
 20
1796.635681092278
 10
4247.694933141185
 20
1796.635445006656
 10
4247.686521971111
 20
1796.6352898479
  0
ARC
  5
DA4
330
1F
100
AcDbEntity
  8
SANINDUSA
100
AcDbCircle
 10
4250.034502173497
 20
1796.68479020412
 30
0.0
 40
2.359238072387874
100
AcDbArc
 50
181.1201469095842
 51
181.3111046338761
  0
ARC
  5
DA7
330
1F
100
AcDbEntity
  8
SANINDUSA
100
AcDbCircle
 10
4247.673535447219
 20
1796.632356273396
 30
0.0
 40
0.006678799665263
100
AcDbArc
 50
70.95372090298764
 51
73.6575465498357
  0
ARC
  5
DA8
330
1F
100
AcDbEntity
  8
SANINDUSA
100
AcDbCircle
 10
4247.671761764819
 20
1796.607059503605
 30
0.0
 40
0.0318561772473214
100
AcDbArc
 50
62.39722827537211
 51
82.87151365654764
  0
LINE
  5
DAD
330
1F
100
AcDbEntity
  8
SANINDUSA
100
AcDbLine
 10
4247.749434736674
 20
1796.631411060397
 30
0.0
 11
4247.749583533026
 21
1796.647188006408
 31
0.0
  0
ARC
  5
DAE
330
1F
100
AcDbEntity
  8
SANINDUSA
100
AcDbCircle
 10
4247.749434737282
 20
1796.631405626905
 30
0.0
 40
0.000005433492128
100
AcDbArc
 50
86.21573944094905
 51
90.00640585575986
  0
LWPOLYLINE
  5
DAF
330
1F
100
AcDbEntity
  8
SANINDUSA
100
AcDbPolyline
 90
        9
 70
   128
 43
0.0
 10
4247.743888562207
 20
1796.639217879202
 10
4247.743728261866
 20
1796.640914669215
 10
4247.743351199652
 20
1796.642577191591
 10
4247.742764990549
 20
1796.644171870752
 10
4247.741981473382
 20
1796.645666501248
 10
4247.741016471723
 20
1796.64703089817
 10
4247.73988947433
 20
1796.648237506748
 10
4247.738623241551
 20
1796.649261958841
 10
4247.737243345675
 20
1796.650083565057
  0
LWPOLYLINE
  5
DB0
330
1F
100
AcDbEntity
  8
SANINDUSA
100
AcDbPolyline
 90
        6
 70
   128
 43
0.0
 10
4247.749583533026
 20
1796.647188006408
 10
4247.748434959026
 20
1796.643881676839
 10
4247.747472612458
 20
1796.642057623491
 10
4247.746357462368
 20
1796.640620665327
 10
4247.745172228003
 20
1796.639683722903
 10
4247.743888562207
 20
1796.639217879202
  0
LWPOLYLINE
  5
DB3
330
1F
100
AcDbEntity
  8
SANINDUSA
100
AcDbPolyline
 90
        3
 70
   128
 43
0.0
 10
4247.749583533026
 20
1796.647188006408
 10
4247.749872459926
 20
1796.652133100019
 10
4247.749983617131
 20
1796.657178804071
  0
LWPOLYLINE
  5
DB4
330
1F
100
AcDbEntity
  8
SANINDUSA
100
AcDbPolyline
 90
        8
 70
   128
 43
0.0
 10
4247.737243345674
 20
1796.650083565057
 10
4247.738235425007
 20
1796.650241356681
 10
4247.738593057898
 20
1796.650474268147
 10
4247.739161230025
 20
1796.651414708458
 10
4247.739261119103
 20
1796.651841411652
 10
4247.739229780283
 20
1796.653982900321
 10
4247.738538470209
 20
1796.656801753667
 10
4247.738102233564
 20
1796.658023289397
  0
LINE
  5
DB6
330
1F
100
AcDbEntity
  8
SANINDUSA
100
AcDbLine
 10
4247.745079207121
 20
1796.844410837914
 30
0.0
 11
4247.795516840429
 21
1796.844410837914
 31
0.0
  0
LWPOLYLINE
  5
DB7
330
1F
100
AcDbEntity
  8
SANINDUSA
100
AcDbPolyline
 90
        9
 70
   128
 43
0.0
 10
4247.744346717827
 20
1796.842312967646
 10
4247.744346750963
 20
1796.842716661781
 10
4247.74434691076
 20
1796.843107861849
 10
4247.744347190688
 20
1796.843470585842
 10
4247.744347579315
 20
1796.843790015108
 10
4247.744348060759
 20
1796.844053099749
 10
4247.744348615355
 20
1796.844249091758
 10
4247.744349220445
 20
1796.844369984117
 10
4247.744349851306
 20
1796.844410837914
  0
LWPOLYLINE
  5
DB9
330
1F
100
AcDbEntity
  8
SANINDUSA
100
AcDbPolyline
 90
        9
 70
   128
 43
0.0
 10
4247.743169120354
 20
1796.842309690493
 10
4247.743167136632
 20
1796.842713824165
 10
4247.743157330959
 20
1796.843105554697
 10
4247.743140104745
 20
1796.843468846082
 10
4247.743116163166
 20
1796.843788826513
 10
4247.743086486301
 20
1796.844052397168
 10
4247.743052289014
 20
1796.844248768435
 10
4247.743014971216
 20
1796.844369901599
 10
4247.742976060557
 20
1796.844410837914
  0
LINE
  5
DBC
330
1F
100
AcDbEntity
  8
SANINDUSA
100
AcDbLine
 10
4247.744349851306
 20
1796.844410837914
 30
0.0
 11
4247.745079207121
 21
1796.844410837914
 31
0.0
  0
LINE
  5
DBD
330
1F
100
AcDbEntity
  8
SANINDUSA
100
AcDbLine
 10
4247.742976060557
 20
1796.844410837914
 30
0.0
 11
4247.744349851306
 21
1796.844410837914
 31
0.0
  0
LWPOLYLINE
  5
DBF
330
1F
100
AcDbEntity
  8
SANINDUSA
100
AcDbPolyline
 90
        9
 70
   128
 43
0.0
 10
4247.800852432244
 20
1796.844410837914
 10
4247.801240213829
 20
1796.844372884744
 10
4247.801613712235
 20
1796.844260285719
 10
4247.801958247924
 20
1796.844077324604
 10
4247.802260713063
 20
1796.84383096214
 10
4247.802509600393
 20
1796.843530571166
 10
4247.802695441013
 20
1796.843187580033
 10
4247.802811164634
 20
1796.84281503781
 10
4247.802852368558
 20
1796.842427117834
  0
LINE
  5
DC1
330
1F
100
AcDbEntity
  8
SANINDUSA
100
AcDbLine
 10
4247.795516840429
 20
1796.844410837914
 30
0.0
 11
4247.80081480211
 21
1796.844410837914
 31
0.0
  0
LWPOLYLINE
  5
DC3
330
1F
100
AcDbEntity
  8
SANINDUSA
100
AcDbPolyline
 90
       17
 70
   128
 43
0.0
 10
4248.958515925274
 20
1796.719142819984
 10
4248.959234899636
 20
1796.719212965532
 10
4248.990960907224
 20
1796.721753612465
 10
4249.022965927099
 20
1796.723799022476
 10
4249.055166791854
 20
1796.725373271819
 10
4249.082519202989
 20
1796.726355138654
 10
4249.109983178731
 20
1796.727025954561
 10
4249.137510207265
 20
1796.727388841278
 10
4249.165051776783
 20
1796.727446920535
 10
4249.192559375475
 20
1796.727203314068
 10
4249.220878079454
 20
1796.726636281889
 10
4249.249143402068
 20
1796.725739056636
 10
4249.277301291226
 20
1796.724500579264
 10
4249.305297694837
 20
1796.722909790728
 10
4249.333078560808
 20
1796.720955631984
 10
4249.362168588157
 20
1796.718478270934
 10
4249.363474963365
 20
1796.718345539019
  0
LWPOLYLINE
  5
DC5
330
1F
100
AcDbEntity
  8
SANINDUSA
100
AcDbPolyline
 90
       28
 70
   128
 43
0.0
 10
4249.513917214886
 20
1796.708831645538
 10
4249.513188742269
 20
1796.708443963529
 10
4249.511230389602
 20
1796.708106280763
 10
4249.508149158915
 20
1796.70782008423
 10
4249.503968567954
 20
1796.70757578595
 10
4249.498742866678
 20
1796.707372384754
 10
4249.49252630505
 20
1796.707208879477
 10
4249.485373133029
 20
1796.707084268952
 10
4249.477153813882
 20
1796.70699458215
 10
4249.468033147066
 20
1796.706938043559
 10
4249.458087588936
 20
1796.706911127541
 10
4249.447393595846
 20
1796.706910308457
 10
4249.436027624152
 20
1796.70693206067
 10
4249.42406613021
 20
1796.70697285854
 10
4249.410991151092
 20
1796.707031683322
 10
4249.397332550741
 20
1796.707103586851
 10
4249.383158272608
 20
1796.707185497556
 10
4249.368536260138
 20
1796.707274343865
 10
4249.350050518456
 20
1796.707387923137
 10
4249.330964260376
 20
1796.707502693415
 10
4249.311371472322
 20
1796.707615115539
 10
4249.291366140719
 20
1796.707721650354
 10
4249.271042251987
 20
1796.707818758701
 10
4249.250493792553
 20
1796.707902901422
 10
4249.227317085825
 20
1796.707977833174
 10
4249.203897118987
 20
1796.708032228216
 10
4249.180338685518
 20
1796.708066516516
 10
4249.1567465789
 20
1796.708081128042
  0
ARC
  5
DC6
330
1F
100
AcDbEntity
  8
SANINDUSA
100
AcDbCircle
 10
4249.158641373511
 20
1793.209338123952
 30
0.0
 40
3.518526813286948
100
AcDbArc
 50
84.44078578776602
 51
89.88204887799341
  0
LWPOLYLINE
  5
DC7
330
1F
100
AcDbEntity
  8
SANINDUSA
100
AcDbPolyline
 90
       69
 70
   128
 43
0.0
 10
4248.76169050239
 20
1796.70481538607
 10
4248.76206484897
 20
1796.704512141748
 10
4248.763030361842
 20
1796.704231123083
 10
4248.765295063903
 20
1796.703884581255
 10
4248.768644214417
 20
1796.703581061834
 10
4248.773041091745
 20
1796.703320366777
 10
4248.77711012644
 20
1796.703148619073
 10
4248.781760940899
 20
1796.703000544394
 10
4248.789179827908
 20
1796.702832370757
 10
4248.79764643953
 20
1796.70270596888
 10
4248.807085050887
 20
1796.702618353165
 10
4248.814726866235
 20
1796.702576259416
 10
4248.822852301239
 20
1796.702551926611
 10
4248.834607416773
 20
1796.702544604365
 10
4248.847156091456
 20
1796.702563756192
 10
4248.860417802504
 20
1796.702605411853
 10
4248.870985072151
 20
1796.702649944569
 10
4248.88191282918
 20
1796.702703658715
 10
4248.89747415929
 20
1796.702789605133
 10
4248.913717153085
 20
1796.702886918269
 10
4248.930486633539
 20
1796.702991420492
 10
4248.94807299016
 20
1796.703101783261
 10
4248.966097309877
 20
1796.703212891676
 10
4248.984862436446
 20
1796.703323769376
 10
4249.003979419319
 20
1796.703429444314
 10
4249.023507652513
 20
1796.703528008527
 10
4249.042059597319
 20
1796.703611632183
 10
4249.060887897777
 20
1796.703685077603
 10
4249.079877626368
 20
1796.703746813321
 10
4249.099265302675
 20
1796.703796741036
 10
4249.118750548535
 20
1796.70383311652
 10
4249.13857317073
 20
1796.703855194588
 10
4249.158426887791
 20
1796.703861771127
 10
4249.178363149407
 20
1796.703852473481
 10
4249.195472255656
 20
1796.703832003887
 10
4249.212531584504
 20
1796.703800472276
 10
4249.23546518168
 20
1796.703741254836
 10
4249.258223518947
 20
1796.703664275111
 10
4249.280720659508
 20
1796.703571087466
 10
4249.297634719535
 20
1796.703490622699
 10
4249.314341739256
 20
1796.703403565909
 10
4249.327974459158
 20
1796.703327554973
 10
4249.341428601069
 20
1796.703248808143
 10
4249.359266591104
 20
1796.703140044835
 10
4249.376708572802
 20
1796.703030965713
 10
4249.3936856058
 20
1796.70292460022
 10
4249.406250412145
 20
1796.702847469932
 10
4249.418497291308
 20
1796.702775334533
 10
4249.428461065008
 20
1796.702720113687
 10
4249.438169966921
 20
1796.70267046681
 10
4249.450838740271
 20
1796.702614104647
 10
4249.46297929207
 20
1796.702572462756
 10
4249.474534192768
 20
1796.702548430539
 10
4249.482901423944
 20
1796.702543832302
 10
4249.490887501242
 20
1796.702552410311
 10
4249.497589716315
 20
1796.702571573657
 10
4249.50396810856
 20
1796.702602526848
 10
4249.51204476261
 20
1796.702665114468
 10
4249.519470309515
 20
1796.702753382532
 10
4249.526202017475
 20
1796.702868973425
 10
4249.530842611537
 20
1796.70297658184
 10
4249.535049821909
 20
1796.703101864797
 10
4249.538791648804
 20
1796.703244323176
 10
4249.542080944435
 20
1796.703405241085
 10
4249.545799996843
 20
1796.703654116439
 10
4249.548644305285
 20
1796.703938579815
 10
4249.550587348925
 20
1796.704258696042
 10
4249.551461504525
 20
1796.704527027072
 10
4249.551802655409
 20
1796.70481538607
  0
ARC
  5
DC9
330
1F
100
AcDbEntity
  8
SANINDUSA
100
AcDbCircle
 10
4249.161494806471
 20
1798.306349580801
 30
0.0
 40
1.740707450849907
100
AcDbArc
 50
271.4325786781544
 51
272.9273667709946
  0
LINE
  5
DCB
330
1F
100
AcDbEntity
  8
SANINDUSA
100
AcDbLine
 10
4249.506868014267
 20
1796.567913617339
 30
0.0
 11
4248.806625143532
 21
1796.567913617339
 31
0.0
  0
ARC
  5
DCC
330
1F
100
AcDbEntity
  8
SANINDUSA
100
AcDbCircle
 10
4249.278917837995
 20
1796.816412288349
 30
0.0
 40
0.5380000000000001
100
AcDbArc
 50
193.0356264632752
 51
206.9858910345392
  0
ARC
  5
DCD
330
1F
100
AcDbEntity
  8
SANINDUSA
100
AcDbCircle
 10
4248.806625143532
 20
1796.575913617339
 30
0.0
 40
0.0080000000000001
100
AcDbArc
 50
206.9858910345392
 51
270.0
  0
LWPOLYLINE
  5
DCE
330
1F
100
AcDbEntity
  8
SANINDUSA
100
AcDbPolyline
 90
       35
 70
   128
 43
0.0
 10
4249.108504823074
 20
1796.566144523329
 10
4249.108420050463
 20
1796.566144561436
 10
4249.108312162643
 20
1796.566144924632
 10
4249.108286757844
 20
1796.566145010155
 10
4249.109043231881
 20
1796.566146654374
 10
4249.109944365211
 20
1796.566147841405
 10
4249.111195980507
 20
1796.566149235168
 10
4249.114563472704
 20
1796.566152468148
 10
4249.116748182849
 20
1796.566154316931
 10
4249.119242539541
 20
1796.566156218531
 10
4249.124838697996
 20
1796.566159846327
 10
4249.128059299247
 20
1796.566161663392
 10
4249.131514001034
 20
1796.566163475923
 10
4249.138706754219
 20
1796.566166874939
 10
4249.142599575758
 20
1796.566168438052
 10
4249.14662445499
 20
1796.566169749065
 10
4249.151629375654
 20
1796.566170832816
 10
4249.156746577679
 20
1796.566171217855
 10
4249.164762637939
 20
1796.566170287086
 10
4249.168799991421
 20
1796.566169166913
 10
4249.172778697989
 20
1796.566167716456
 10
4249.180123387005
 20
1796.566164408223
 10
4249.183651083276
 20
1796.566162620382
 10
4249.187007408657
 20
1796.566160800869
 10
4249.192854479939
 20
1796.566157203897
 10
4249.195475174704
 20
1796.566155318076
 10
4249.197830934107
 20
1796.566153426758
 10
4249.201519081172
 20
1796.566150036697
 10
4249.202936001939
 20
1796.566148551319
 10
4249.204024076598
 20
1796.56614725148
 10
4249.20513526343
 20
1796.56614534967
 10
4249.205144852813
 20
1796.566145243495
 10
4249.205167853062
 20
1796.566144988832
 10
4249.205187477893
 20
1796.566144771543
 10
4249.205014588002
 20
1796.566144577996
  0
LINE
  5
DD0
330
1F
100
AcDbEntity
  8
SANINDUSA
100
AcDbLine
 10
4249.192330247725
 20
1796.530913617339
 30
0.0
 11
4249.121162910074
 21
1796.530913617339
 31
0.0
  0
LINE
  5
DD2
330
1F
100
AcDbEntity
  8
SANINDUSA
100
AcDbLine
 10
4249.117962770339
 20
1796.557017668648
 30
0.0
 11
4249.120166715377
 21
1796.531826461596
 31
0.0
  0
ARC
  5
DD3
330
1F
100
AcDbEntity
  8
SANINDUSA
100
AcDbCircle
 10
4249.121162910074
 20
1796.531913617339
 30
0.0
 40
0.0009999999999999
100
AcDbArc
 50
184.9999999962911
 51
270.0
  0
ARC
  5
DD4
330
1F
100
AcDbEntity
  8
SANINDUSA
100
AcDbCircle
 10
4249.154746716651
 20
1798.382390424016
 30
0.0
 40
1.816811388734449
100
AcDbArc
 50
267.0950825598191
 51
268.5415577774512
  0
ARC
  5
DD5
330
1F
100
AcDbEntity
  8
SANINDUSA
100
AcDbCircle
 10
4249.108042954144
 20
1796.556214759586
 30
0.0
 40
0.0099282415045198
100
AcDbArc
 50
4.612018215043874
 51
86.42892960952426
  0
LINE
  5
DD6
330
1F
100
AcDbEntity
  8
SANINDUSA
100
AcDbLine
 10
4249.193326442424
 20
1796.531826461596
 30
0.0
 11
4249.195529728811
 21
1796.557010140239
 31
0.0
  0
ARC
  5
DD7
330
1F
100
AcDbEntity
  8
SANINDUSA
100
AcDbCircle
 10
4249.192330247725
 20
1796.531913617339
 30
0.0
 40
0.0010000000000001
100
AcDbArc
 50
270.0
 51
355.0000000037089
  0
LINE
  5
DD8
330
1F
100
AcDbEntity
  8
SANINDUSA
100
AcDbLine
 10
4249.195409592662
 20
1796.55702065079
 30
0.0
 11
4249.195415550986
 21
1796.557020679298
 31
0.0
  0
ARC
  5
DD9
330
1F
100
AcDbEntity
  8
SANINDUSA
100
AcDbCircle
 10
4249.205470123609
 20
1796.556165743104
 30
0.0
 40
0.009980044086575
100
AcDbArc
 50
93.74381928039804
 51
175.08863871315
  0
ARC
  5
DDA
330
1F
100
AcDbEntity
  8
SANINDUSA
100
AcDbCircle
 10
4249.084230223346
 20
1795.256304597626
 30
0.0
 40
1.468230141883049
100
AcDbArc
 50
94.91185189477425
 51
98.8745244111619
  0
LWPOLYLINE
  5
DDC
330
1F
100
AcDbEntity
  8
SANINDUSA
100
AcDbPolyline
 90
       29
 70
   128
 43
0.0
 10
4249.1567465789
 20
1796.708081128042
 10
4249.156059419473
 20
1796.708080976361
 10
4249.134791024625
 20
1796.708067464268
 10
4249.113521946593
 20
1796.708037242577
 10
4249.092330759046
 20
1796.707990940859
 10
4249.071296035652
 20
1796.707929188687
 10
4249.050496350081
 20
1796.707852615632
 10
4249.030010276
 20
1796.707761851268
 10
4249.010400721781
 20
1796.707661435971
 10
4248.991094941583
 20
1796.707552748056
 10
4248.972190058604
 20
1796.707439956316
 10
4248.953783196033
 20
1796.707327229544
 10
4248.935971477066
 20
1796.707218736533
 10
4248.918852024895
 20
1796.707118646077
 10
4248.902165617996
 20
1796.707030174527
 10
4248.888532553804
 20
1796.706969608039
 10
4248.875553024332
 20
1796.70692757587
 10
4248.86332189722
 20
1796.706908606865
 10
4248.851934040105
 20
1796.706917229871
 10
4248.841484320627
 20
1796.706957973733
 10
4248.833497768594
 20
1796.707021262017
 10
4248.826236145789
 20
1796.707114379782
 10
4248.819749416422
 20
1796.70723872098
 10
4248.814087544702
 20
1796.707395679562
 10
4248.809300494836
 20
1796.707586649481
 10
4248.805438231036
 20
1796.707813024688
 10
4248.802289038057
 20
1796.7081044804
 10
4248.800313861512
 20
1796.70844327435
 10
4248.799575942913
 20
1796.708831645538
  0
ARC
  5
DDD
330
1F
100
AcDbEntity
  8
SANINDUSA
100
AcDbCircle
 10
4249.155067573246
 20
1793.202983301792
 30
0.0
 40
3.524875506132135
100
AcDbArc
 50
90.00807458096222
 51
95.55272199429245
  0
LWPOLYLINE
  5
DDE
330
1F
100
AcDbEntity
  8
SANINDUSA
100
AcDbPolyline
 90
        3
 70
   128
 43
0.0
 10
4248.807752280662
 20
1796.710813802011
 10
4248.792020465432
 20
1796.709233733767
 10
4248.761427331886
 20
1796.705958480211
  0
ARC
  5
DDF
330
1F
100
AcDbEntity
  8
SANINDUSA
100
AcDbCircle
 10
4248.866112689693
 20
1796.729457976972
 30
0.0
 40
0.1072904957926381
100
AcDbArc
 50
192.6518802453118
 51
193.2782930142943
  0
LINE
  5
DE0
330
1F
100
AcDbEntity
  8
SANINDUSA
100
AcDbLine
 10
4248.754782096871
 20
1796.695062690591
 30
0.0
 11
4248.754515397478
 21
1796.696220440125
 31
0.0
  0
ARC
  5
DE1
330
1F
100
AcDbEntity
  8
SANINDUSA
100
AcDbCircle
 10
4248.762313203285
 20
1796.698007679505
 30
0.0
 40
0.0080000000003242
100
AcDbArc
 50
96.3576248401806
 51
192.9090995880653
  0
ARC
  5
DE4
330
1F
100
AcDbEntity
  8
SANINDUSA
100
AcDbCircle
 10
4249.055740802421
 20
1794.194143313217
 30
0.0
 40
2.528859304897796
100
AcDbArc
 50
95.5327522804184
 51
95.76338150239701
  0
LINE
  5
DE5
330
1F
100
AcDbEntity
  8
SANINDUSA
100
AcDbLine
 10
4248.812831650718
 20
1796.711262679033
 30
0.0
 11
4248.811921489567
 21
1796.711221287108
 31
0.0
  0
LINE
  5
DE6
330
1F
100
AcDbEntity
  8
SANINDUSA
100
AcDbLine
 10
4248.813994809952
 20
1796.711318619841
 30
0.0
 11
4248.812831650718
 21
1796.711262679033
 31
0.0
  0
LWPOLYLINE
  5
DE8
330
1F
100
AcDbEntity
  8
SANINDUSA
100
AcDbPolyline
 90
        3
 70
   128
 43
0.0
 10
4248.799424773152
 20
1796.709185093867
 10
4248.799520945136
 20
1796.70929858446
 10
4248.79964424905
 20
1796.709407601592
  0
LWPOLYLINE
  5
DE9
330
1F
100
AcDbEntity
  8
SANINDUSA
100
AcDbPolyline
 90
        4
 70
   128
 43
0.0
 10
4248.799575942913
 20
1796.708831645538
 10
4248.799496751995
 20
1796.7090167031
 10
4248.799459862375
 20
1796.709102982112
 10
4248.799424773152
 20
1796.709185093867
  0
LWPOLYLINE
  5
DEB
330
1F
100
AcDbEntity
  8
SANINDUSA
100
AcDbPolyline
 90
        4
 70
   128
 43
0.0
 10
4248.79964424905
 20
1796.709407601592
 10
4248.800243596951
 20
1796.709927045883
 10
4248.801529540796
 20
1796.710192821455
 10
4248.801791650826
 20
1796.710219467146
  0
LWPOLYLINE
  5
DEE
330
1F
100
AcDbEntity
  8
SANINDUSA
100
AcDbPolyline
 90
       30
 70
   128
 43
0.0
 10
4249.175186500582
 20
1796.727856736428
 10
4249.175200020213
 20
1796.727856128639
 10
4249.174709756682
 20
1796.727855694808
 10
4249.173706002316
 20
1796.727855482865
 10
4249.172224185223
 20
1796.72785565183
 10
4249.170299905869
 20
1796.727856152541
 10
4249.16799358623
 20
1796.727856861322
 10
4249.165365728448
 20
1796.72785763415
 10
4249.16249492622
 20
1796.727858315178
 10
4249.158691293753
 20
1796.727858828904
 10
4249.155574048184
 20
1796.727858868587
 10
4249.152489850974
 20
1796.727858574483
 10
4249.149527355705
 20
1796.727857993351
 10
4249.146768343429
 20
1796.727857250321
 10
4249.144294599957
 20
1796.727856491315
 10
4249.14217184836
 20
1796.727855870436
 10
4249.140465751803
 20
1796.727855528708
 10
4249.139218589216
 20
1796.727855543944
 10
4249.138472486879
 20
1796.72785596033
 10
4249.138241506522
 20
1796.727856738221
 10
4249.138539507582
 20
1796.727859076449
 10
4249.139350727539
 20
1796.727864146924
 10
4249.140659226697
 20
1796.727871619822
 10
4249.14242110554
 20
1796.727880537336
 10
4249.14459258869
 20
1796.727889936422
 10
4249.147106550505
 20
1796.727898797711
 10
4249.149896188989
 20
1796.727906144138
 10
4249.152878837487
 20
1796.727911246238
 10
4249.1567465789
 20
1796.727913617339
 10
4249.1567465789
 20
1796.727913617339
  0
LINE
  5
DEF
330
1F
100
AcDbEntity
  8
SANINDUSA
100
AcDbLine
 10
4249.1567465789
 20
1796.708081128042
 30
0.0
 11
4249.1567465789
 21
1796.708105978648
 31
0.0
  0
LINE
  5
DF0
330
1F
100
AcDbEntity
  8
SANINDUSA
100
AcDbLine
 10
4249.728949680642
 20
1796.725913617339
 30
0.0
 11
4249.728949680642
 21
1796.646913617339
 31
0.0
  0
ARC
  5
DF1
330
1F
100
AcDbEntity
  8
SANINDUSA
100
AcDbCircle
 10
4249.034575319805
 20
1796.816412288349
 30
0.0
 40
0.537999999999996
100
AcDbArc
 50
333.0141089654607
 51
346.9643735367248
  0
ARC
  5
DF2
330
1F
100
AcDbEntity
  8
SANINDUSA
100
AcDbCircle
 10
4249.506868014267
 20
1796.575913617339
 30
0.0
 40
0.0080000000000001
100
AcDbArc
 50
270.0
 51
333.0141089654607
  0
LINE
  5
DF3
330
1F
100
AcDbEntity
  8
SANINDUSA
100
AcDbLine
 10
4249.728949680642
 20
1796.571887556909
 30
0.0
 11
4249.728949680642
 21
1796.577307758343
 31
0.0
  0
ARC
  5
DF5
330
1F
100
AcDbEntity
  8
SANINDUSA
100
AcDbCircle
 10
4249.730949680643
 20
1796.569913617339
 30
0.0
 40
0.0020000000000002
100
AcDbArc
 50
180.0
 51
270.0
  0
LINE
  5
DF7
330
1F
100
AcDbEntity
  8
SANINDUSA
100
AcDbLine
 10
4249.728949680642
 20
1796.569913617339
 30
0.0
 11
4249.728949680642
 21
1796.571887556909
 31
0.0
  0
LINE
  5
DF9
330
1F
100
AcDbEntity
  8
SANINDUSA
100
AcDbLine
 10
4249.728949680642
 20
1796.591488801966
 30
0.0
 11
4249.728949680642
 21
1796.646913617339
 31
0.0
  0
LINE
  5
DFB
330
1F
100
AcDbEntity
  8
SANINDUSA
100
AcDbLine
 10
4249.728949680642
 20
1796.581795271747
 30
0.0
 11
4249.728949680642
 21
1796.591488801966
 31
0.0
  0
LINE
  5
E01
330
1F
100
AcDbEntity
  8
SANINDUSA
100
AcDbLine
 10
4249.728949680642
 20
1796.577307758343
 30
0.0
 11
4249.728949680642
 21
1796.581795271747
 31
0.0
  0
LWPOLYLINE
  5
E02
330
1F
100
AcDbEntity
  8
SANINDUSA
100
AcDbPolyline
 90
        9
 70
   128
 43
0.0
 10
4249.73082818387
 20
1796.579798966544
 10
4249.730455769745
 20
1796.579857219068
 10
4249.730100900031
 20
1796.579984313956
 10
4249.729776180201
 20
1796.580175736618
 10
4249.729493144761
 20
1796.580424687453
 10
4249.729261847531
 20
1796.580722323374
 10
4249.729090504512
 20
1796.581058071934
 10
4249.728985202053
 20
1796.581420006872
 10
4249.728949680642
 20
1796.581795271747
  0
ARC
  5
E06
330
1F
100
AcDbEntity
  8
SANINDUSA
100
AcDbCircle
 10
4249.730949680643
 20
1796.646913617339
 30
0.0
 40
0.0020000000000002
100
AcDbArc
 50
180.0
 51
270.0
  0
ARC
  5
E07
330
1F
100
AcDbEntity
  8
SANINDUSA
100
AcDbCircle
 10
4249.232931895539
 20
1795.282697853535
 30
0.0
 40
1.441570591192643
100
AcDbArc
 50
81.11164605765125
 51
84.80439777928943
  0
ARC
  5
E08
330
1F
100
AcDbEntity
  8
SANINDUSA
100
AcDbCircle
 10
4249.156746569859
 20
1793.157921345825
 30
0.0
 40
3.569992271867017
100
AcDbArc
 50
83.64237515981939
 51
84.4567107847325
  0
LWPOLYLINE
  5
E09
330
1F
100
AcDbEntity
  8
SANINDUSA
100
AcDbPolyline
 90
        3
 70
   128
 43
0.0
 10
4249.514068630385
 20
1796.709185669065
 10
4249.51399654203
 20
1796.709017021625
 10
4249.513917214886
 20
1796.708831645538
  0
LWPOLYLINE
  5
E0A
330
1F
100
AcDbEntity
  8
SANINDUSA
100
AcDbPolyline
 90
        3
 70
   128
 43
0.0
 10
4249.513852755073
 20
1796.709407529547
 10
4249.513973759245
 20
1796.709298882175
 10
4249.514068630385
 20
1796.709185669065
  0
ARC
  5
E0C
330
1F
100
AcDbEntity
  8
SANINDUSA
100
AcDbCircle
 10
4249.512134589778
 20
1796.708062860254
 30
0.0
 40
0.002181794556494
100
AcDbArc
 50
38.04741877019951
 51
99.70937073861417
  0
LINE
  5
E0F
330
1F
100
AcDbEntity
  8
SANINDUSA
100
AcDbLine
 10
4249.50159992033
 20
1796.711218545309
 30
0.0
 11
4249.500674235465
 21
1796.711259988761
 31
0.0
  0
ARC
  5
E10
330
1F
100
AcDbEntity
  8
SANINDUSA
100
AcDbCircle
 10
4249.247366348842
 20
1794.087805333099
 30
0.0
 40
2.635703244082396
100
AcDbArc
 50
84.24269647384228
 51
84.46478136471311
  0
LINE
  5
E13
330
1F
100
AcDbEntity
  8
SANINDUSA
100
AcDbLine
 10
4249.500674235465
 20
1796.711259988761
 30
0.0
 11
4249.499496637991
 21
1796.711315940058
 31
0.0
  0
LWPOLYLINE
  5
E14
330
1F
100
AcDbEntity
  8
SANINDUSA
100
AcDbPolyline
 90
        4
 70
   128
 43
0.0
 10
4249.551802655409
 20
1796.70481538607
 10
4249.552020124762
 20
1796.705758759442
 10
4249.552065644564
 20
1796.70595751651
 10
4249.552065825914
 20
1796.705958480211
  0
ARC
  5
E15
330
1F
100
AcDbEntity
  8
SANINDUSA
100
AcDbCircle
 10
4249.034575319084
 20
1796.816412288515
 30
0.0
 40
0.5380000007402992
100
AcDbArc
 50
346.9643735367248
 51
347.0909004246329
  0
ARC
  5
E17
330
1F
100
AcDbEntity
  8
SANINDUSA
100
AcDbCircle
 10
4249.551179954515
 20
1796.698007679505
 30
0.0
 40
0.0080000000003242
100
AcDbArc
 50
347.0909004119347
 51
83.64237515981939
  0
ARC
  5
E18
330
1F
100
AcDbEntity
  8
SANINDUSA
100
AcDbCircle
 10
4249.730949680643
 20
1796.725913617339
 30
0.0
 40
0.0020000000000002
100
AcDbArc
 50
90.0
 51
180.0
  0
ARC
  5
E19
330
1F
100
AcDbEntity
  8
SANINDUSA
100
AcDbCircle
 10
4249.748255285567
 20
1796.816420738237
 30
0.0
 40
0.5380244512185694
100
AcDbArc
 50
333.0144251097566
 51
346.8584414605093
  0
ARC
  5
E1A
330
1F
100
AcDbEntity
  8
SANINDUSA
100
AcDbCircle
 10
4249.748268041739
 20
1796.816415960069
 30
0.0
 40
0.5270109503009329
100
AcDbArc
 50
334.5459701801215
 51
346.4929068085583
  0
ARC
  5
E1B
330
1F
100
AcDbEntity
  8
SANINDUSA
100
AcDbCircle
 10
4249.775912035683
 20
1796.893935128744
 30
0.0
 40
0.4825000000000007
100
AcDbArc
 50
323.1758760698511
 51
336.7261167035058
  0
LINE
  5
E1C
330
1F
100
AcDbEntity
  8
SANINDUSA
100
AcDbLine
 10
4249.824017520021
 20
1796.711484484752
 30
0.0
 11
4249.834012598372
 21
1796.640365806876
 31
0.0
  0
ARC
  5
E1E
330
1F
100
AcDbEntity
  8
SANINDUSA
100
AcDbCircle
 10
4248.496398219439
 20
1796.584416207204
 30
0.0
 40
1.441731130231053
100
AcDbArc
 50
0.5169378916538502
 51
4.261897106418521
  0
ARC
  5
E1F
330
1F
100
AcDbEntity
  8
SANINDUSA
100
AcDbCircle
 10
4248.559868839915
 20
1796.592916277177
 30
0.0
 40
1.367134195010268
100
AcDbArc
 50
0.1973174509080582
 51
4.231135324079222
  0
ARC
  5
E20
330
1F
100
AcDbEntity
  8
SANINDUSA
100
AcDbCircle
 10
4249.775902384175
 20
1796.893939052648
 30
0.0
 40
0.4935104374883576
100
AcDbArc
 50
321.9719912696161
 51
336.4692883662998
  0
LINE
  5
E24
330
1F
100
AcDbEntity
  8
SANINDUSA
100
AcDbLine
 10
4249.756440362127
 20
1796.646808945427
 30
0.0
 11
4249.759813659809
 21
1796.711175299591
 31
0.0
  0
LINE
  5
E25
330
1F
100
AcDbEntity
  8
SANINDUSA
100
AcDbLine
 10
4249.739949680643
 20
1796.716913617339
 30
0.0
 11
4249.739949680643
 21
1796.654913617339
 31
0.0
  0
LINE
  5
E26
330
1F
100
AcDbEntity
  8
SANINDUSA
100
AcDbLine
 10
4249.751758439756
 20
1796.716913617339
 30
0.0
 11
4249.74850915744
 21
1796.654913617339
 31
0.0
  0
LINE
  5
E28
330
1F
100
AcDbEntity
  8
SANINDUSA
100
AcDbLine
 10
4249.833392394445
 20
1796.716631752467
 30
0.0
 11
4249.843915279059
 21
1796.641757537886
 31
0.0
  0
ARC
  5
E2A
330
1F
100
AcDbEntity
  8
SANINDUSA
100
AcDbCircle
 10
4248.915598547373
 20
1796.449371955213
 30
0.0
 40
0.9644044638184677
100
AcDbArc
 50
13.63238262029017
 51
15.3553528953971
  0
ARC
  5
E2C
330
1F
100
AcDbEntity
  8
SANINDUSA
100
AcDbCircle
 10
4248.933026997185
 20
1796.45387726877
 30
0.0
 40
0.9574039079100106
100
AcDbArc
 50
13.62608294957594
 51
15.36165256777716
  0
LINE
  5
E2E
330
1F
100
AcDbEntity
  8
SANINDUSA
100
AcDbLine
 10
4250.216543806739
 20
1796.567913617339
 30
0.0
 11
4250.02635215976
 21
1796.567913617339
 31
0.0
  0
LWPOLYLINE
  5
E2F
330
1F
100
AcDbEntity
  8
SANINDUSA
100
AcDbPolyline
 90
        6
 70
   128
 43
0.0
 10
4249.990371520458
 20
1796.566171217855
 10
4250.021501585936
 20
1796.567583415729
 10
4250.052608602092
 20
1796.569701018137
 10
4250.078350198584
 20
1796.571872361272
 10
4250.104065900739
 20
1796.574334339924
 10
4250.155449680334
 20
1796.579913592466
  0
LWPOLYLINE
  5
E30
330
1F
100
AcDbEntity
  8
SANINDUSA
100
AcDbPolyline
 90
       31
 70
   128
 43
0.0
 10
4250.152173745885
 20
1796.598872710571
 10
4250.151936805674
 20
1796.598874302685
 10
4250.150867903436
 20
1796.598831211405
 10
4250.148966717723
 20
1796.598747619456
 10
4250.146347150454
 20
1796.598634809553
 10
4250.143034121765
 20
1796.598496890766
 10
4250.139028178687
 20
1796.598334636344
 10
4250.134871900416
 20
1796.598170072266
 10
4250.130211830163
 20
1796.597988008364
 10
4250.125048609054
 20
1796.597788092539
 10
4250.119382844817
 20
1796.597570478675
 10
4250.113215108449
 20
1796.59733582541
 10
4250.106545931829
 20
1796.597085295024
 10
4250.099375806292
 20
1796.596820552464
 10
4250.092322614943
 20
1796.596564929541
 10
4250.084925351035
 20
1796.596301010016
 10
4250.077184350791
 20
1796.596029121139
 10
4250.06909988652
 20
1796.595749951964
 10
4250.062067928221
 20
1796.595511042294
 10
4250.054850592118
 20
1796.595269100902
 10
4250.047447938153
 20
1796.595024151965
 10
4250.039859987682
 20
1796.594776401282
 10
4250.03208672511
 20
1796.594526236666
 10
4250.021612047455
 20
1796.594194183923
 10
4250.010957853479
 20
1796.59386065435
 10
4250.000123801529
 20
1796.593525104504
 10
4249.989109445047
 20
1796.593187581483
 10
4249.977533155073
 20
1796.592839861152
 10
4249.965853975566
 20
1796.592498980829
 10
4249.954141514915
 20
1796.592159225358
 10
4249.942552266537
 20
1796.591803492524
  0
ARC
  5
E31
330
1F
100
AcDbEntity
  8
SANINDUSA
100
AcDbCircle
 10
4249.888949680642
 20
1798.518913617339
 30
0.0
 40
1.938
100
AcDbArc
 50
272.7688145705438
 51
277.8061428851613
  0
LWPOLYLINE
  5
E32
330
1F
100
AcDbEntity
  8
SANINDUSA
100
AcDbPolyline
 90
       26
 70
   128
 43
0.0
 10
4249.941949223154
 20
1796.597551162977
 10
4249.952263074724
 20
1796.597855468778
 10
4249.962443566112
 20
1796.598131823424
 10
4249.972492465612
 20
1796.598400190452
 10
4249.982413803212
 20
1796.598677129849
 10
4249.992157940606
 20
1796.598960237222
 10
4250.0040504045
 20
1796.599312081101
 10
4250.015605382694
 20
1796.599657226181
 10
4250.026823514096
 20
1796.599995374938
 10
4250.037700809539
 20
1796.600327882569
 10
4250.051448050453
 20
1796.600758325885
 10
4250.064340359559
 20
1796.601173481741
 10
4250.076433360809
 20
1796.601572717823
 10
4250.087772351342
 20
1796.601956162968
 10
4250.098256353443
 20
1796.602320048864
 10
4250.107840079947
 20
1796.602660499448
 10
4250.118233736182
 20
1796.603038928311
 10
4250.127482320722
 20
1796.603383760308
 10
4250.135629372781
 20
1796.603692300169
 10
4250.142693847785
 20
1796.603962307654
 10
4250.148670834791
 20
1796.604194953971
 10
4250.153538136531
 20
1796.604391619264
 10
4250.157342348643
 20
1796.604553901557
 10
4250.16010179229
 20
1796.604678638124
 10
4250.161736512878
 20
1796.604748135237
 10
4250.162076513888
 20
1796.604744341292
  0
LINE
  5
E34
330
1F
100
AcDbEntity
  8
SANINDUSA
100
AcDbLine
 10
4249.848540305126
 20
1796.619024808498
 30
0.0
 11
4249.865546093825
 21
1796.555558341048
 31
0.0
  0
LINE
  5
E35
330
1F
100
AcDbEntity
  8
SANINDUSA
100
AcDbLine
 10
4249.838881046863
 20
1796.616436618047
 30
0.0
 11
4249.855886835563
 21
1796.552970150597
 31
0.0
  0
LINE
  5
E36
330
1F
100
AcDbEntity
  8
SANINDUSA
100
AcDbLine
 10
4249.909964350264
 20
1796.578514338214
 30
0.0
 11
4249.916729975787
 21
1796.572633069674
 31
0.0
  0
ARC
  5
E37
330
1F
100
AcDbEntity
  8
SANINDUSA
100
AcDbCircle
 10
4249.896913218696
 20
1796.586067543746
 30
0.0
 40
0.0200000000000002
100
AcDbArc
 50
194.4938677605928
 51
262.8717810166092
  0
LINE
  5
E38
330
1F
100
AcDbEntity
  8
SANINDUSA
100
AcDbLine
 10
4249.967169385498
 20
1796.572633069674
 30
0.0
 11
4249.976489419534
 21
1796.580734851657
 31
0.0
  0
LINE
  5
E3C
330
1F
100
AcDbEntity
  8
SANINDUSA
100
AcDbLine
 10
4249.965449680643
 20
1796.568859521773
 30
0.0
 11
4249.918449680643
 21
1796.568859521773
 31
0.0
  0
LINE
  5
E40
330
1F
100
AcDbEntity
  8
SANINDUSA
100
AcDbLine
 10
4249.966449680642
 20
1796.530913617339
 30
0.0
 11
4249.917449680642
 21
1796.530913617339
 31
0.0
  0
ARC
  5
E43
330
1F
100
AcDbEntity
  8
SANINDUSA
100
AcDbCircle
 10
4249.875205352088
 20
1796.558146531499
 30
0.0
 40
0.0200000000000001
100
AcDbArc
 50
194.9999999902221
 51
265.9000000204189
  0
ARC
  5
E44
330
1F
100
AcDbEntity
  8
SANINDUSA
100
AcDbCircle
 10
4249.875205352088
 20
1796.558146531499
 30
0.0
 40
0.01
100
AcDbArc
 50
194.9999999902221
 51
265.9000000204189
  0
LINE
  5
E45
330
1F
100
AcDbEntity
  8
SANINDUSA
100
AcDbLine
 10
4249.874490377645
 20
1796.54817212367
 30
0.0
 11
4249.917521178086
 21
1796.545087637541
 31
0.0
  0
LINE
  5
E46
330
1F
100
AcDbEntity
  8
SANINDUSA
100
AcDbLine
 10
4249.917449680642
 20
1796.530913617339
 30
0.0
 11
4249.906055435927
 21
1796.530913617339
 31
0.0
  0
ARC
  5
E47
330
1F
100
AcDbEntity
  8
SANINDUSA
100
AcDbCircle
 10
4249.906055435927
 20
1796.531913617339
 30
0.0
 40
0.0009999999999999
100
AcDbArc
 50
209.2041924182365
 51
270.0
  0
ARC
  5
E48
330
1F
100
AcDbEntity
  8
SANINDUSA
100
AcDbCircle
 10
4249.896453685774
 20
1796.526546458498
 30
0.0
 40
0.0100000000000004
100
AcDbArc
 50
29.20419241823653
 51
85.90000002041891
  0
ARC
  5
E49
330
1F
100
AcDbEntity
  8
SANINDUSA
100
AcDbCircle
 10
4249.917449680642
 20
1796.544090196758
 30
0.0
 40
0.0009999999999999
100
AcDbArc
 50
0.0
 51
85.90000002041891
  0
ARC
  5
E4A
330
1F
100
AcDbEntity
  8
SANINDUSA
100
AcDbCircle
 10
4249.917449680642
 20
1796.531913617339
 30
0.0
 40
0.0009999999999999
100
AcDbArc
 50
270.0
 51
0.0
  0
LINE
  5
E4B
330
1F
100
AcDbEntity
  8
SANINDUSA
100
AcDbLine
 10
4249.918449680643
 20
1796.531913617339
 30
0.0
 11
4249.918449680643
 21
1796.544090196758
 31
0.0
  0
LINE
  5
E4C
330
1F
100
AcDbEntity
  8
SANINDUSA
100
AcDbLine
 10
4249.873775403202
 20
1796.538197715841
 30
0.0
 11
4249.897168660218
 21
1796.536520866327
 31
0.0
  0
LINE
  5
E4F
330
1F
100
AcDbEntity
  8
SANINDUSA
100
AcDbLine
 10
4249.917378183198
 20
1796.555123545377
 30
0.0
 11
4249.903242940536
 21
1796.55613677217
 31
0.0
  0
LINE
  5
E51
330
1F
100
AcDbEntity
  8
SANINDUSA
100
AcDbLine
 10
4249.903242940536
 20
1796.55613677217
 30
0.0
 11
4249.903152459696
 21
1796.557170972912
 31
0.0
  0
ARC
  5
E52
330
1F
100
AcDbEntity
  8
SANINDUSA
100
AcDbCircle
 10
4249.913449680643
 20
1796.568859521773
 30
0.0
 40
0.005
100
AcDbArc
 50
0.0
 51
48.99999999370759
  0
LINE
  5
E53
330
1F
100
AcDbEntity
  8
SANINDUSA
100
AcDbLine
 10
4249.918449680643
 20
1796.55612098616
 30
0.0
 11
4249.918449680643
 21
1796.568859521773
 31
0.0
  0
ARC
  5
E54
330
1F
100
AcDbEntity
  8
SANINDUSA
100
AcDbCircle
 10
4249.917449680642
 20
1796.55612098616
 30
0.0
 40
0.0010000000000003
100
AcDbArc
 50
265.9000000204189
 51
0.0
  0
ARC
  5
E56
330
1F
100
AcDbEntity
  8
SANINDUSA
100
AcDbCircle
 10
4249.893881762301
 20
1796.559646073284
 30
0.0
 40
0.0065827030006695
100
AcDbArc
 50
78.3862078925638
 51
80.23220240985317
  0
ARC
  5
E57
330
1F
100
AcDbEntity
  8
SANINDUSA
100
AcDbCircle
 10
4249.893190512715
 20
1796.556299415485
 30
0.0
 40
0.0100000000000001
100
AcDbArc
 50
4.999999996291116
 51
82.87178101660918
  0
LINE
  5
E58
330
1F
100
AcDbEntity
  8
SANINDUSA
100
AcDbLine
 10
4249.965449680643
 20
1796.568859521773
 30
0.0
 11
4249.965449680643
 21
1796.531913617339
 31
0.0
  0
LINE
  5
E5B
330
1F
100
AcDbEntity
  8
SANINDUSA
100
AcDbLine
 10
4249.980736152425
 20
1796.557048109396
 30
0.0
 11
4249.978529544167
 21
1796.531826461596
 31
0.0
  0
ARC
  5
E5C
330
1F
100
AcDbEntity
  8
SANINDUSA
100
AcDbCircle
 10
4249.966449680642
 20
1796.531913617339
 30
0.0
 40
0.0009999999999999
100
AcDbArc
 50
180.0
 51
270.0
  0
LINE
  5
E61
330
1F
100
AcDbEntity
  8
SANINDUSA
100
AcDbLine
 10
4249.977533349468
 20
1796.530913617339
 30
0.0
 11
4249.966449680642
 21
1796.530913617339
 31
0.0
  0
ARC
  5
E62
330
1F
100
AcDbEntity
  8
SANINDUSA
100
AcDbCircle
 10
4249.977533349468
 20
1796.531913617339
 30
0.0
 40
0.0009999999999999
100
AcDbArc
 50
270.0
 51
355.0000000037089
  0
ARC
  5
E63
330
1F
100
AcDbEntity
  8
SANINDUSA
100
AcDbCircle
 10
4249.970449680642
 20
1796.568859521773
 30
0.0
 40
0.005
100
AcDbArc
 50
131.0000000062924
 51
180.0
  0
ARC
  5
E68
330
1F
100
AcDbEntity
  8
SANINDUSA
100
AcDbCircle
 10
4249.990698099405
 20
1796.556176551968
 30
0.0
 40
0.0100000000000001
100
AcDbArc
 50
91.87149230648239
 51
175.0000000037089
  0
ARC
  5
E69
330
1F
100
AcDbEntity
  8
SANINDUSA
100
AcDbCircle
 10
4249.832032754012
 20
1800.560432336289
 30
0.0
 40
3.980104001020225
100
AcDbArc
 50
271.0264115085727
 51
272.1675392557266
  0
ARC
  5
E6B
330
1F
100
AcDbEntity
  8
SANINDUSA
100
AcDbCircle
 10
4248.723858144373
 20
1800.970260461761
 30
0.0
 40
4.535138778392115
100
AcDbArc
 50
284.8660854947192
 51
285.3843139962082
  0
LWPOLYLINE
  5
E6C
330
1F
100
AcDbEntity
  8
SANINDUSA
100
AcDbPolyline
 90
       12
 70
   128
 43
0.0
 10
4249.934595288586
 20
1796.591564179552
 10
4249.925751683629
 20
1796.589143783933
 10
4249.918004256336
 20
1796.587039474061
 10
4249.911253105746
 20
1796.585217965695
 10
4249.905667054252
 20
1796.583719373045
 10
4249.902667854819
 20
1796.58291795052
 10
4249.900170214599
 20
1796.582252264171
 10
4249.898171747666
 20
1796.581720717626
 10
4249.896679505281
 20
1796.581324472502
 10
4249.895546059965
 20
1796.581023862634
 10
4249.895167727153
 20
1796.580923592624
 10
4249.895167727153
 20
1796.580923592624
  0
LINE
  5
E6D
330
1F
100
AcDbEntity
  8
SANINDUSA
100
AcDbLine
 10
4249.863483676201
 20
1796.679426845045
 30
0.0
 11
4249.887396663803
 21
1796.586921340374
 31
0.0
  0
LINE
  5
E6E
330
1F
100
AcDbEntity
  8
SANINDUSA
100
AcDbLine
 10
4249.852833757444
 20
1796.676673804822
 30
0.0
 11
4249.877549730047
 21
1796.581062016068
 31
0.0
  0
ARC
  5
E70
330
1F
100
AcDbEntity
  8
SANINDUSA
100
AcDbCircle
 10
4250.032066212121
 20
1796.668200427068
 30
0.0
 40
0.1900000000000002
100
AcDbArc
 50
187.9999999999174
 51
194.9999999902221
  0
ARC
  5
E71
330
1F
100
AcDbEntity
  8
SANINDUSA
100
AcDbCircle
 10
4250.032066212121
 20
1796.668200427068
 30
0.0
 40
0.2000000000000003
100
AcDbArc
 50
187.9999999999174
 51
194.9999999902221
  0
LWPOLYLINE
  5
E73
330
1F
100
AcDbEntity
  8
SANINDUSA
100
AcDbPolyline
 90
        7
 70
   128
 43
0.0
 10
4249.754846870422
 20
1796.621413659831
 10
4249.755141034214
 20
1796.626987259609
 10
4249.755397270026
 20
1796.631842227024
 10
4249.75561567604
 20
1796.635980454393
 10
4249.755793649051
 20
1796.639352541033
 10
4249.755855512349
 20
1796.640524698124
 10
4249.756440362127
 20
1796.646808945427
  0
LINE
  5
E7A
330
1F
100
AcDbEntity
  8
SANINDUSA
100
AcDbLine
 10
4249.754846870422
 20
1796.621413659831
 30
0.0
 11
4249.753353854404
 21
1796.581578879725
 31
0.0
  0
ARC
  5
E7D
330
1F
100
AcDbEntity
  8
SANINDUSA
100
AcDbCircle
 10
4249.748825998579
 20
1796.584786204881
 30
0.0
 40
0.0060298351674564
100
AcDbArc
 50
266.7406250584203
 51
309.0015537297196
  0
LWPOLYLINE
  5
E89
330
1F
100
AcDbEntity
  8
SANINDUSA
100
AcDbPolyline
 90
        9
 70
   128
 43
0.0
 10
4249.753353854404
 20
1796.581578879725
 10
4249.753335158847
 20
1796.581367157
 10
4249.753294097916
 20
1796.581158614105
 10
4249.7532311354
 20
1796.580955606565
 10
4249.753146982473
 20
1796.58076042738
 10
4249.753042589651
 20
1796.58057528113
 10
4249.752919136069
 20
1796.580402259069
 10
4249.752778016153
 20
1796.580243315507
 10
4249.752620823876
 20
1796.580100245736
  0
ARC
  5
E97
330
1F
100
AcDbEntity
  8
SANINDUSA
100
AcDbCircle
 10
4249.903403759974
 20
1796.570967242412
 30
0.0
 40
0.01
100
AcDbArc
 50
48.99999999370759
 51
90.42513622567803
  0
ARC
  5
E98
330
1F
100
AcDbEntity
  8
SANINDUSA
100
AcDbCircle
 10
4249.895142059263
 20
1796.588923551446
 30
0.0
 40
0.008
100
AcDbArc
 50
194.4938677605928
 51
270.1838330393348
  0
ARC
  5
E99
330
1F
100
AcDbEntity
  8
SANINDUSA
100
AcDbCircle
 10
4249.888949680642
 20
1798.518913617339
 30
0.0
 40
1.937999999999999
100
AcDbArc
 50
270.1838330393348
 51
270.425136225678
  0
LINE
  5
E9F
330
1F
100
AcDbEntity
  8
SANINDUSA
100
AcDbLine
 10
4249.74850915744
 20
1796.654913617339
 30
0.0
 11
4249.739949680643
 21
1796.654913617339
 31
0.0
  0
ARC
  5
EA9
330
1F
100
AcDbEntity
  8
SANINDUSA
100
AcDbCircle
 10
4249.754443103057
 20
1796.646913617339
 30
0.0
 40
0.0020000000000002
100
AcDbArc
 50
270.0
 51
356.9999999960452
  0
LINE
  5
EAC
330
1F
100
AcDbEntity
  8
SANINDUSA
100
AcDbLine
 10
4249.862265225385
 20
1796.680144743093
 30
0.0
 11
4249.853551655493
 21
1796.677892255638
 31
0.0
  0
ARC
  5
EAD
330
1F
100
AcDbEntity
  8
SANINDUSA
100
AcDbCircle
 10
4249.853801931876
 20
1796.676924081205
 30
0.0
 40
0.0010000000000001
100
AcDbArc
 50
104.4938677447194
 51
194.4938677605928
  0
ARC
  5
EAE
330
1F
100
AcDbEntity
  8
SANINDUSA
100
AcDbCircle
 10
4249.862515501769
 20
1796.679176568661
 30
0.0
 40
0.0010000000000001
100
AcDbArc
 50
14.49386776059282
 51
104.4938677447194
  0
LWPOLYLINE
  5
EAF
330
1F
100
AcDbEntity
  8
SANINDUSA
100
AcDbPolyline
 90
       15
 70
   128
 43
0.0
 10
4249.934691074391
 20
1796.591588575017
 10
4249.935479076834
 20
1796.592400518214
 10
4249.936082747841
 20
1796.593323379597
 10
4249.936752996848
 20
1796.59453805373
 10
4249.937062323938
 20
1796.595157722598
 10
4249.937515560197
 20
1796.596129519659
 10
4249.937762643407
 20
1796.596691224548
 10
4249.937899342022
 20
1796.597011819348
 10
4249.937975304289
 20
1796.597193045663
 10
4249.938017574146
 20
1796.597294851905
 10
4249.938041106036
 20
1796.59735182786
 10
4249.938054208325
 20
1796.597383644715
 10
4249.938061322302
 20
1796.597400947905
 10
4249.93806302908
 20
1796.597405102206
 10
4249.938070670657
 20
1796.59742371575
  0
LWPOLYLINE
  5
EB0
330
1F
100
AcDbEntity
  8
SANINDUSA
100
AcDbPolyline
 90
        9
 70
   128
 43
0.0
 10
4249.934691074391
 20
1796.591588575017
 10
4249.933472969092
 20
1796.591694307612
 10
4249.932281614543
 20
1796.592004683424
 10
4249.931147987989
 20
1796.592511632153
 10
4249.930101565656
 20
1796.593201972269
 10
4249.929169556305
 20
1796.594057753751
 10
4249.92837619377
 20
1796.595056724822
 10
4249.927742106827
 20
1796.596172910533
 10
4249.927283782818
 20
1796.597377288153
  0
LWPOLYLINE
  5
EB1
330
1F
100
AcDbEntity
  8
SANINDUSA
100
AcDbPolyline
 90
        9
 70
   128
 43
0.0
 10
4249.934595288586
 20
1796.591564179552
 10
4249.93332192671
 20
1796.591671509627
 10
4249.932078480921
 20
1796.591995910375
 10
4249.930899253067
 20
1796.592528432836
 10
4249.929816773469
 20
1796.593254386783
 10
4249.92886090354
 20
1796.59415374596
 10
4249.928058012025
 20
1796.595201700538
 10
4249.927430247586
 20
1796.596369341514
 10
4249.926994927808
 20
1796.597624458202
  0
ARC
  5
EB2
330
1F
100
AcDbEntity
  8
SANINDUSA
100
AcDbCircle
 10
4249.888938259775
 20
1798.409001858206
 30
0.0
 40
1.817989098414964
100
AcDbArc
 50
271.4420988216472
 51
271.689945087762
  0
ARC
  5
EB3
330
1F
100
AcDbEntity
  8
SANINDUSA
100
AcDbCircle
 10
4249.935313985178
 20
1796.588942548712
 30
0.0
 40
0.0027183585223256
100
AcDbArc
 50
103.247010769023
 51
105.3304863792482
  0
LWPOLYLINE
  5
EB4
330
1F
100
AcDbEntity
  8
SANINDUSA
100
AcDbPolyline
 90
        8
 70
   128
 43
0.0
 10
4249.938070670657
 20
1796.59742371575
 10
4249.938050277805
 20
1796.59741614436
 10
4249.934854757817
 20
1796.596499051269
 10
4249.933388872711
 20
1796.596266170874
 10
4249.93150378065
 20
1796.59617100384
 10
4249.929811050986
 20
1796.596332862554
 10
4249.928398215212
 20
1796.596740577023
 10
4249.927283782818
 20
1796.597377288153
  0
LINE
  5
EB5
330
1F
100
AcDbEntity
  8
SANINDUSA
100
AcDbLine
 10
4249.927283782818
 20
1796.597377288153
 30
0.0
 11
4249.926994927808
 21
1796.597624458202
 31
0.0
  0
LWPOLYLINE
  5
EB6
330
1F
100
AcDbEntity
  8
SANINDUSA
100
AcDbPolyline
 90
        3
 70
   128
 43
0.0
 10
4249.938070670657
 20
1796.59742371575
 10
4249.939069127085
 20
1796.597452085356
 10
4249.941949223184
 20
1796.597537118915
  0
ARC
  5
EB7
330
1F
100
AcDbEntity
  8
SANINDUSA
100
AcDbCircle
 10
4249.983050009823
 20
1796.573187755855
 30
0.0
 40
0.0100000000000001
100
AcDbArc
 50
92.76881457054384
 51
131.0000000062924
  0
LINE
  5
EB8
330
1F
100
AcDbEntity
  8
SANINDUSA
100
AcDbLine
 10
4250.209872551649
 20
1796.576623718056
 30
0.0
 11
4250.211845343636
 21
1796.571203516622
 31
0.0
  0
ARC
  5
EB9
330
1F
100
AcDbEntity
  8
SANINDUSA
100
AcDbCircle
 10
4250.216543806739
 20
1796.572913617339
 30
0.0
 40
0.0050000000000052
100
AcDbArc
 50
200.000000000605
 51
270.0
  0
LINE
  5
EBA
330
1F
100
AcDbEntity
  8
SANINDUSA
100
AcDbLine
 10
4250.216543806739
 20
1796.567913617339
 30
0.0
 11
4250.220571116009
 21
1796.567913617339
 31
0.0
  0
ARC
  5
EBB
330
1F
100
AcDbEntity
  8
SANINDUSA
100
AcDbCircle
 10
4250.220571116009
 20
1796.575913617339
 30
0.0
 40
0.0080000000000001
100
AcDbArc
 50
270.0
 51
333.0141089654607
  0
LINE
  5
EBD
330
1F
100
AcDbEntity
  8
SANINDUSA
100
AcDbLine
 10
4250.205174088545
 20
1796.579913617339
 30
0.0
 11
4250.155449677454
 21
1796.579913617339
 31
0.0
  0
LINE
  5
EBE
330
1F
100
AcDbEntity
  8
SANINDUSA
100
AcDbLine
 10
4250.164645341147
 20
1796.589913617339
 30
0.0
 11
4250.224122253104
 21
1796.589913617339
 31
0.0
  0
ARC
  5
EBF
330
1F
100
AcDbEntity
  8
SANINDUSA
100
AcDbCircle
 10
4250.150136533496
 20
1796.613732219557
 30
0.0
 40
0.0149985079805873
100
AcDbArc
 50
277.8064827183335
 51
323.180141010464
  0
ARC
  5
EC0
330
1F
100
AcDbEntity
  8
SANINDUSA
100
AcDbCircle
 10
4250.150134890781
 20
1796.613734998925
 30
0.0
 40
0.015001488741874
100
AcDbArc
 50
277.8058409742079
 51
323.1754032216945
  0
LINE
  5
EC1
330
1F
100
AcDbEntity
  8
SANINDUSA
100
AcDbLine
 10
4250.152172316455
 20
1796.598872512572
 30
0.0
 11
4250.152172316455
 21
1796.598872512572
 31
0.0
  0
ARC
  5
EC2
330
1F
100
AcDbEntity
  8
SANINDUSA
100
AcDbCircle
 10
4250.205174088545
 20
1796.574913617339
 30
0.0
 40
0.0050000000000052
100
AcDbArc
 50
20.00000000060502
 51
90.0
  0
LWPOLYLINE
  5
EC3
330
1F
100
AcDbEntity
  8
SANINDUSA
100
AcDbPolyline
 90
       37
 70
   128
 43
0.0
 10
4250.219126632754
 20
1796.703285739059
 10
4250.218561614469
 20
1796.703268279607
 10
4250.216716089179
 20
1796.703235868912
 10
4250.213579841615
 20
1796.70318476306
 10
4250.20918465575
 20
1796.703112358881
 10
4250.205598273779
 20
1796.703053134353
 10
4250.201440413186
 20
1796.702986182889
 10
4250.19671565363
 20
1796.702912723861
 10
4250.190675109826
 20
1796.702823027481
 10
4250.183887839108
 20
1796.702729174905
 10
4250.177180820975
 20
1796.702643722456
 10
4250.169866766518
 20
1796.702558198596
 10
4250.163968493799
 20
1796.702494565593
 10
4250.155056715789
 20
1796.702407941121
 10
4250.145418429505
 20
1796.702327746809
 10
4250.135071247956
 20
1796.702257164352
 10
4250.123989189559
 20
1796.702198741483
 10
4250.115800635906
 20
1796.702167486568
 10
4250.107239932743
 20
1796.702146020512
 10
4250.098333101456
 20
1796.702135852604
 10
4250.089017950545
 20
1796.70213815539
 10
4250.079364508194
 20
1796.702154311824
 10
4250.069302281404
 20
1796.702186640602
 10
4250.058908299712
 20
1796.702237080368
 10
4250.048161217477
 20
1796.70230773534
 10
4250.039494400538
 20
1796.702378297658
 10
4250.030625184685
 20
1796.702463287772
 10
4250.021585406943
 20
1796.702563586893
 10
4250.012322728029
 20
1796.702680395076
 10
4250.002911704787
 20
1796.702813075458
 10
4249.993301451151
 20
1796.702962255012
 10
4249.983572737554
 20
1796.70312648703
 10
4249.97371228791
 20
1796.703307746463
 10
4249.957922799096
 20
1796.703635798036
 10
4249.941949518139
 20
1796.704023612889
 10
4249.941949470015
 20
1796.70402361415
 10
4249.941949470015
 20
1796.70402361415
  0
LWPOLYLINE
  5
EC4
330
1F
100
AcDbEntity
  8
SANINDUSA
100
AcDbPolyline
 90
       56
 70
   128
 43
0.0
 10
4250.227334054195
 20
1796.708078871605
 10
4250.227135885714
 20
1796.708099043475
 10
4250.226800926255
 20
1796.708117693942
 10
4250.226531984975
 20
1796.708123044101
 10
4250.226316879627
 20
1796.708121613377
 10
4250.226171123879
 20
1796.708118315911
 10
4250.226026624509
 20
1796.708115053556
 10
4250.22556186229
 20
1796.708105824883
 10
4250.224758023692
 20
1796.708091099813
 10
4250.223618828351
 20
1796.708071104497
 10
4250.222157291331
 20
1796.708046050699
 10
4250.220377826455
 20
1796.708015956255
 10
4250.218282122715
 20
1796.707980784445
 10
4250.215870911268
 20
1796.707940480607
 10
4250.213150941625
 20
1796.707895286383
 10
4250.210140940537
 20
1796.707846210251
 10
4250.206859214885
 20
1796.707794098962
 10
4250.203303383536
 20
1796.707739424934
 10
4250.199473841277
 20
1796.70768268906
 10
4250.195370557395
 20
1796.707624371036
 10
4250.190993043019
 20
1796.707564931711
 10
4250.186340336353
 20
1796.707504815537
 10
4250.181406658238
 20
1796.707444354469
 10
4250.176253644439
 20
1796.707384823194
 10
4250.17085505939
 20
1796.707326532156
 10
4250.165223671316
 20
1796.707270235681
 10
4250.159372308405
 20
1796.707216640271
 10
4250.153313624599
 20
1796.707166401613
 10
4250.147059959382
 20
1796.70712012378
 10
4250.140623219262
 20
1796.707078359611
 10
4250.134017597638
 20
1796.707041653814
 10
4250.127227509736
 20
1796.707010526032
 10
4250.120276605041
 20
1796.70698569605
 10
4250.113175256203
 20
1796.706967750352
 10
4250.105930816756
 20
1796.706957221766
 10
4250.098550083265
 20
1796.706954605247
 10
4250.091039285797
 20
1796.706960361292
 10
4250.083404078252
 20
1796.706974919509
 10
4250.075649535317
 20
1796.706998682302
 10
4250.06777902387
 20
1796.707032184517
 10
4250.059908472244
 20
1796.707075586348
 10
4250.05192645841
 20
1796.707129545434
 10
4250.043825912392
 20
1796.707194368647
 10
4250.035625905393
 20
1796.707270191455
 10
4250.027345051783
 20
1796.707357108892
 10
4250.019001288884
 20
1796.707455178785
 10
4250.010611725786
 20
1796.707564425389
 10
4250.002192520439
 20
1796.707684843549
 10
4249.99375878564
 20
1796.707816403209
 10
4249.985315671265
 20
1796.707959129304
 10
4249.976821552579
 20
1796.708113866542
 10
4249.968322114558
 20
1796.708280274225
 10
4249.959870668257
 20
1796.708457729804
 10
4249.951509103066
 20
1796.708645681703
 10
4249.943262712291
 20
1796.708841647544
 10
4249.942129876568
 20
1796.708867884998
  0
LWPOLYLINE
  5
EC5
330
1F
100
AcDbEntity
  8
SANINDUSA
100
AcDbPolyline
 90
        3
 70
   128
 43
0.0
 10
4249.926172512148
 20
1796.704370676337
 10
4249.921227418538
 20
1796.705265866216
 10
4249.916181714485
 20
1796.705754918324
  0
LWPOLYLINE
  5
EC6
330
1F
100
AcDbEntity
  8
SANINDUSA
100
AcDbPolyline
 90
        4
 70
   128
 43
0.0
 10
4249.926334603229
 20
1796.709226597702
 10
4249.925752885583
 20
1796.709238001822
 10
4249.921584543769
 20
1796.709331396201
 10
4249.916212368368
 20
1796.709446498875
  0
ARC
  5
EC7
330
1F
100
AcDbEntity
  8
SANINDUSA
100
AcDbCircle
 10
4249.917077832686
 20
1796.693398934438
 30
0.0
 40
0.006211045803842
100
AcDbArc
 50
3.551025458193068
 51
73.99350837141482
  0
ARC
  5
EC8
330
1F
100
AcDbEntity
  8
SANINDUSA
100
AcDbCircle
 10
4249.553087505221
 20
1795.85278164653
 30
0.0
 40
0.9188713537655052
100
AcDbArc
 50
66.24202570899877
 51
70.97529722295931
  0
LWPOLYLINE
  5
EC9
330
1F
100
AcDbEntity
  8
SANINDUSA
100
AcDbPolyline
 90
        3
 70
   128
 43
0.0
 10
4249.845005838523
 20
1796.727459187982
 10
4249.814979072589
 20
1796.727822342188
 10
4249.809455452856
 20
1796.727858897063
  0
LINE
  5
ECA
330
1F
100
AcDbEntity
  8
SANINDUSA
100
AcDbLine
 10
4249.808449680641
 20
1796.726858913723
 30
0.0
 11
4249.808449680641
 21
1796.716858746615
 31
0.0
  0
LINE
  5
ECB
330
1F
100
AcDbEntity
  8
SANINDUSA
100
AcDbLine
 10
4249.773449680642
 20
1796.716913617339
 30
0.0
 11
4249.773449680642
 21
1796.726913617339
 31
0.0
  0
LWPOLYLINE
  5
ECF
330
1F
100
AcDbEntity
  8
SANINDUSA
100
AcDbPolyline
 90
       20
 70
   128
 43
0.0
 10
4249.809443890717
 20
1796.715858763377
 10
4249.809341487247
 20
1796.715858694748
 10
4249.80876620435
 20
1796.715858323516
 10
4249.807661444468
 20
1796.715857677647
 10
4249.806119972233
 20
1796.715856918751
 10
4249.804097426214
 20
1796.715856161277
 10
4249.801763484089
 20
1796.715855599711
 10
4249.799051053241
 20
1796.715855329858
 10
4249.796187650379
 20
1796.715855442085
 10
4249.793091000061
 20
1796.715855960145
 10
4249.790021017754
 20
1796.715856841874
 10
4249.786889395048
 20
1796.715859877442
 10
4249.783957937375
 20
1796.715865591008
 10
4249.78114332831
 20
1796.715873628551
 10
4249.7786817066
 20
1796.715882661462
 10
4249.77650246151
 20
1796.715892185675
 10
4249.774789414036
 20
1796.715900661114
 10
4249.773492145326
 20
1796.715907649692
 10
4249.772719625563
 20
1796.71591204216
 10
4249.772449680642
 20
1796.715913617339
  0
ARC
  5
ED4
330
1F
100
AcDbEntity
  8
SANINDUSA
100
AcDbCircle
 10
4249.764806803692
 20
1796.710913627153
 30
0.0
 40
0.004999995830046
100
AcDbArc
 50
89.99994971364937
 51
177.000048096437
  0
LINE
  5
EDD
330
1F
100
AcDbEntity
  8
SANINDUSA
100
AcDbLine
 10
4249.772449680642
 20
1796.715913617339
 30
0.0
 11
4249.764806477119
 21
1796.715913617339
 31
0.0
  0
ARC
  5
EDF
330
1F
100
AcDbEntity
  8
SANINDUSA
100
AcDbCircle
 10
4249.765209235048
 20
1796.779160905531
 30
0.0
 40
0.0633077510207262
100
AcDbArc
 50
269.6337230352173
 51
270.1661229377346
  0
ARC
  5
EE0
330
1F
100
AcDbEntity
  8
SANINDUSA
100
AcDbCircle
 10
4249.772449680642
 20
1796.716913617339
 30
0.0
 40
0.0009999999999999
100
AcDbArc
 50
270.0
 51
0.0
  0
LINE
  5
EE2
330
1F
100
AcDbEntity
  8
SANINDUSA
100
AcDbLine
 10
4249.751758439756
 20
1796.716913617339
 30
0.0
 11
4249.739949680643
 21
1796.716913617339
 31
0.0
  0
ARC
  5
EE3
330
1F
100
AcDbEntity
  8
SANINDUSA
100
AcDbCircle
 10
4249.819066179677
 20
1796.710788619247
 30
0.0
 40
0.0050000000000002
100
AcDbArc
 50
7.999999999917475
 51
89.49775897991557
  0
ARC
  5
EE4
330
1F
100
AcDbEntity
  8
SANINDUSA
100
AcDbCircle
 10
4249.809449680642
 20
1796.716858746615
 30
0.0
 40
0.0010000000000001
100
AcDbArc
 50
180.0
 51
269.6682598730562
  0
LWPOLYLINE
  5
EE5
330
1F
100
AcDbEntity
  8
SANINDUSA
100
AcDbPolyline
 90
        3
 70
   128
 43
0.0
 10
4249.819110007914
 20
1796.715788427152
 10
4249.809642174351
 20
1796.715857609276
 10
4249.809443890717
 20
1796.715858763377
  0
LWPOLYLINE
  5
EE7
330
1F
100
AcDbEntity
  8
SANINDUSA
100
AcDbPolyline
 90
       20
 70
   128
 43
0.0
 10
4249.772449680642
 20
1796.727913617339
 10
4249.772598240958
 20
1796.727912750121
 10
4249.773238550109
 20
1796.727909084385
 10
4249.774407192012
 20
1796.727902697653
 10
4249.776006016658
 20
1796.727894602292
 10
4249.778081158662
 20
1796.72788521808
 10
4249.780458271474
 20
1796.727876054708
 10
4249.783206007633
 20
1796.727867616972
 10
4249.786093420213
 20
1796.727861295423
 10
4249.789203914246
 20
1796.727857473465
 10
4249.792276822616
 20
1796.72785631078
 10
4249.795400034229
 20
1796.727855694808
 10
4249.798311502484
 20
1796.727855479682
 10
4249.801094850977
 20
1796.72785565183
 10
4249.803516422724
 20
1796.727856141605
 10
4249.805645907071
 20
1796.727856861322
 10
4249.807304561626
 20
1796.727857624459
 10
4249.808540108186
 20
1796.727858315178
 10
4249.80935299677
 20
1796.727858828904
 10
4249.809455452856
 20
1796.727858897063
  0
ARC
  5
EE8
330
1F
100
AcDbEntity
  8
SANINDUSA
100
AcDbCircle
 10
4249.772449680642
 20
1796.726913617339
 30
0.0
 40
0.0010000000000002
100
AcDbArc
 50
0.0
 51
90.0
  0
ARC
  5
EE9
330
1F
100
AcDbEntity
  8
SANINDUSA
100
AcDbCircle
 10
4249.809449680642
 20
1796.726858913723
 30
0.0
 40
0.001
100
AcDbArc
 50
89.66927468417813
 51
180.0
  0
LINE
  5
EEA
330
1F
100
AcDbEntity
  8
SANINDUSA
100
AcDbLine
 10
4249.852617311224
 20
1796.721462520089
 30
0.0
 11
4249.856225661068
 21
1796.707503903586
 31
0.0
  0
LWPOLYLINE
  5
EEB
330
1F
100
AcDbEntity
  8
SANINDUSA
100
AcDbPolyline
 90
       32
 70
   128
 43
0.0
 10
4249.918801980476
 20
1796.699402530092
 10
4249.918799938164
 20
1796.69940342801
 10
4249.912661634006
 20
1796.70205266314
 10
4249.907462303389
 20
1796.704248205016
 10
4249.902286109389
 20
1796.706395756269
 10
4249.896954934375
 20
1796.708573028263
 10
4249.891880212014
 20
1796.710612396443
 10
4249.88706364923
 20
1796.712517624114
 10
4249.882507167181
 20
1796.714292393075
 10
4249.878212909247
 20
1796.715940307084
 10
4249.874183271082
 20
1796.717464886438
 10
4249.870422966863
 20
1796.718868845394
 10
4249.86695025944
 20
1796.720149448186
 10
4249.863745291996
 20
1796.721317147229
 10
4249.860811528864
 20
1796.722373625472
 10
4249.858157785872
 20
1796.723318710981
 10
4249.855792524475
 20
1796.724152476996
 10
4249.85372513367
 20
1796.724874774184
 10
4249.851963175998
 20
1796.725486166134
 10
4249.850496687106
 20
1796.725992777938
 10
4249.849293193773
 20
1796.726406803664
 10
4249.848386438176
 20
1796.726717317795
 10
4249.847774053849
 20
1796.726925875511
 10
4249.847432355685
 20
1796.727041127307
 10
4249.847335270525
 20
1796.727073010154
 10
4249.847230028314
 20
1796.727106233434
 10
4249.847098567383
 20
1796.727145553472
 10
4249.846918133256
 20
1796.727195577324
 10
4249.846670621617
 20
1796.727256894684
 10
4249.846116818379
 20
1796.727364356334
 10
4249.845336422913
 20
1796.727448436746
 10
4249.844995749344
 20
1796.727436352522
  0
ARC
  5
EEC
330
1F
100
AcDbEntity
  8
SANINDUSA
100
AcDbCircle
 10
4249.855257486636
 20
1796.707253627202
 30
0.0
 40
0.0009999999999998
100
AcDbArc
 50
284.4938677447194
 51
14.49386776059282
  0
LINE
  5
EED
330
1F
100
AcDbEntity
  8
SANINDUSA
100
AcDbLine
 10
4249.842539032484
 20
1796.716498135588
 30
0.0
 11
4249.845575742312
 21
1796.704750863363
 31
0.0
  0
ARC
  5
EEE
330
1F
100
AcDbEntity
  8
SANINDUSA
100
AcDbCircle
 10
4249.846543916744
 20
1796.705001139747
 30
0.0
 40
0.0009999999999998
100
AcDbArc
 50
194.4938677605928
 51
284.4938677447194
  0
LINE
  5
EEF
330
1F
100
AcDbEntity
  8
SANINDUSA
100
AcDbLine
 10
4249.842539032484
 20
1796.716498135588
 30
0.0
 11
4249.833392394445
 21
1796.716631752467
 31
0.0
  0
LINE
  5
EF3
330
1F
100
AcDbEntity
  8
SANINDUSA
100
AcDbLine
 10
4249.846794193127
 20
1796.704032965314
 30
0.0
 11
4249.85550776302
 21
1796.70628545277
 31
0.0
  0
LINE
  5
EF4
330
1F
100
AcDbEntity
  8
SANINDUSA
100
AcDbLine
 10
4249.916181714485
 20
1796.705754918324
 30
0.0
 11
4249.902492847819
 21
1796.706309982556
 31
0.0
  0
LWPOLYLINE
  5
EF5
330
1F
100
AcDbEntity
  8
SANINDUSA
100
AcDbPolyline
 90
        6
 70
   128
 43
0.0
 10
4249.916181714485
 20
1796.705754918324
 10
4249.916034080049
 20
1796.704378140769
 10
4249.91589325325
 20
1796.703163335583
 10
4249.91576214515
 20
1796.702135614262
 10
4249.915643465913
 20
1796.701316221054
 10
4249.915547405641
 20
1796.700761185188
  0
LWPOLYLINE
  5
EF6
330
1F
100
AcDbEntity
  8
SANINDUSA
100
AcDbPolyline
 90
        9
 70
   128
 43
0.0
 10
4249.916212464515
 20
1796.709447023751
 10
4249.916213589816
 20
1796.709441889029
 10
4249.916217815711
 20
1796.709324701923
 10
4249.916219060472
 20
1796.709058190118
 10
4249.9162173005
 20
1796.708647406728
 10
4249.916212569163
 20
1796.708100140283
 10
4249.91620495617
 20
1796.707426767056
 10
4249.916194605862
 20
1796.70664005433
 10
4249.916181714485
 20
1796.705754918324
  0
LWPOLYLINE
  5
EF7
330
1F
100
AcDbEntity
  8
SANINDUSA
100
AcDbPolyline
 90
        3
 70
   128
 43
0.0
 10
4249.916211055418
 20
1796.70937465725
 10
4249.908981433343
 20
1796.709509585385
 10
4249.894127899642
 20
1796.709709122865
  0
ARC
  5
EF8
330
1F
100
AcDbEntity
  8
SANINDUSA
100
AcDbCircle
 10
4249.844871915764
 20
1796.719460309018
 30
0.0
 40
0.0080000000000002
100
AcDbArc
 50
14.49386776059282
 51
89.04080407873005
  0
ARC
  5
EF9
330
1F
100
AcDbEntity
  8
SANINDUSA
100
AcDbCircle
 10
4249.917684914369
 20
1796.690205583705
 30
0.0
 40
0.0165133026772
100
AcDbArc
 50
4.702110135308776
 51
59.07033296274047
  0
LWPOLYLINE
  5
EFA
330
1F
100
AcDbEntity
  8
SANINDUSA
100
AcDbPolyline
 90
        9
 70
   128
 43
0.0
 10
4249.934142639355
 20
1796.691559265221
 10
4249.932445849341
 20
1796.691501222082
 10
4249.930783326965
 20
1796.69154599912
 10
4249.929188647804
 20
1796.691692692037
 10
4249.927694017308
 20
1796.691938338288
 10
4249.926329620387
 20
1796.692277976905
 10
4249.925123011808
 20
1796.692704748697
 10
4249.924098559715
 20
1796.693210034763
 10
4249.9232769535
 20
1796.693783630567
  0
LINE
  5
EFB
330
1F
100
AcDbEntity
  8
SANINDUSA
100
AcDbLine
 10
4249.941949458158
 20
1796.704022775307
 30
0.0
 11
4249.926172512148
 21
1796.704370676337
 31
0.0
  0
LINE
  5
EFC
330
1F
100
AcDbEntity
  8
SANINDUSA
100
AcDbLine
 10
4249.942129411163
 20
1796.708861912708
 30
0.0
 11
4249.926333987731
 21
1796.70918897067
 31
0.0
  0
LWPOLYLINE
  5
EFD
330
1F
100
AcDbEntity
  8
SANINDUSA
100
AcDbPolyline
 90
        9
 70
   128
 43
0.0
 10
4249.92633481097
 20
1796.709225991663
 10
4249.926330535234
 20
1796.709212556282
 10
4249.926316148097
 20
1796.709039452194
 10
4249.926298163437
 20
1796.708670692387
 10
4249.926277031697
 20
1796.708115512871
 10
4249.926253282147
 20
1796.707387818743
 10
4249.926227509621
 20
1796.706505835929
 10
4249.92620035962
 20
1796.705491654688
 10
4249.926172512148
 20
1796.704370676337
  0
ARC
  5
EFE
330
1F
100
AcDbEntity
  8
SANINDUSA
100
AcDbCircle
 10
4249.94197919335
 20
1796.704022774684
 30
0.0
 40
0.0000297351899181
100
AcDbArc
 50
178.3819749775152
 51
180.0
  0
LINE
  5
EFF
330
1F
100
AcDbEntity
  8
SANINDUSA
100
AcDbLine
 10
4250.227339143651
 20
1796.708081128042
 30
0.0
 11
4250.265324666337
 21
1796.703861828033
 31
0.0
  0
LINE
  5
F01
330
1F
100
AcDbEntity
  8
SANINDUSA
100
AcDbLine
 10
4250.228375556169
 20
1796.696909662618
 30
0.0
 11
4250.260702402759
 21
1796.693324256929
 31
0.0
  0
LINE
  5
F02
330
1F
100
AcDbEntity
  8
SANINDUSA
100
AcDbLine
 10
4250.219126632754
 20
1796.703285739059
 30
0.0
 11
4250.219149362673
 21
1796.703286441463
 31
0.0
  0
ARC
  5
F03
330
1F
100
AcDbEntity
  8
SANINDUSA
100
AcDbCircle
 10
4250.226498386523
 20
1796.700125415283
 30
0.0
 40
0.0080000148786227
100
AcDbArc
 50
83.96739199721828
 51
156.7260714888392
  0
ARC
  5
F04
330
1F
100
AcDbEntity
  8
SANINDUSA
100
AcDbCircle
 10
4250.264399082492
 20
1796.695915552519
 30
0.0
 40
0.008
100
AcDbArc
 50
346.8587576147493
 51
83.35611487243633
  0
LWPOLYLINE
  5
F8B
330
1F
100
AcDbEntity
  8
SANINDUSA
100
AcDbPolyline
 90
       32
 70
   128
 43
0.0
 10
4248.224940040226
 20
1796.70481538607
 10
4248.24179586752
 20
1796.704413971587
 10
4248.258596101679
 20
1796.704052743925
 10
4248.275240955821
 20
1796.703733489816
 10
4248.292288307262
 20
1796.703446465872
 10
4248.309070477995
 20
1796.703202389911
 10
4248.325493193845
 20
1796.703000544394
 10
4248.338096738581
 20
1796.702870855849
 10
4248.350429819704
 20
1796.702765051665
 10
4248.362575809095
 20
1796.702680968945
 10
4248.37440538989
 20
1796.702618353165
 10
4248.389549201813
 20
1796.702565950694
 10
4248.404088709746
 20
1796.702544559239
 10
4248.417972259399
 20
1796.702550704386
 10
4248.431549170264
 20
1796.702581890846
 10
4248.444413204995
 20
1796.70263420834
 10
4248.456533406518
 20
1796.702703658715
 10
4248.468297204948
 20
1796.702789728083
 10
4248.479254412985
 20
1796.702886544193
 10
4248.489498144246
 20
1796.702991527231
 10
4248.498913199286
 20
1796.703100314284
 10
4248.50773743034
 20
1796.70321302217
 10
4248.515683697045
 20
1796.70332344226
 10
4248.522813104317
 20
1796.703429530026
 10
4248.529053167813
 20
1796.703528008527
 10
4248.53410722341
 20
1796.703611663498
 10
4248.538382647459
 20
1796.70368493169
 10
4248.541902657565
 20
1796.703746875013
 10
4248.544633756298
 20
1796.703796326651
 10
4248.546608929898
 20
1796.703833126213
 10
4248.547766344489
 20
1796.703855170608
 10
4248.548079208762
 20
1796.703861173424
  0
LINE
  5
F8C
330
1F
100
AcDbEntity
  8
SANINDUSA
100
AcDbLine
 10
4248.503208358959
 20
1796.567913617339
 30
0.0
 11
4248.224736376765
 21
1796.567913617339
 31
0.0
  0
LWPOLYLINE
  5
F8E
330
1F
100
AcDbEntity
  8
SANINDUSA
100
AcDbPolyline
 90
       55
 70
   128
 43
0.0
 10
4248.51012556628
 20
1796.708078475566
 10
4248.510043957258
 20
1796.708088620345
 10
4248.509656215907
 20
1796.70811728455
 10
4248.509322581648
 20
1796.70812857687
 10
4248.509019393195
 20
1796.708129587009
 10
4248.508686001403
 20
1796.708123735832
 10
4248.508043700569
 20
1796.708106373712
 10
4248.507286277069
 20
1796.708087995147
 10
4248.506338486535
 20
1796.708070524032
 10
4248.505103594064
 20
1796.708049198315
 10
4248.503337596591
 20
1796.708018755072
 10
4248.501265811897
 20
1796.707983398216
 10
4248.49889095127
 20
1796.707943491139
 10
4248.496215825547
 20
1796.707899389523
 10
4248.493243669201
 20
1796.707851446747
 10
4248.489978003775
 20
1796.707800011204
 10
4248.486422775656
 20
1796.70774542961
 10
4248.482587454666
 20
1796.707688318167
 10
4248.47848390484
 20
1796.707629498152
 10
4248.474130669822
 20
1796.70756980656
 10
4248.469527894491
 20
1796.70750977695
 10
4248.464675191815
 20
1796.707449914534
 10
4248.459571683318
 20
1796.70739070075
 10
4248.454215992608
 20
1796.707332596843
 10
4248.448606242102
 20
1796.707276047247
 10
4248.44273864146
 20
1796.707221562954
 10
4248.436730796602
 20
1796.707170914551
 10
4248.43050543733
 20
1796.707123991331
 10
4248.424071309044
 20
1796.707081485777
 10
4248.417446328178
 20
1796.707044114883
 10
4248.410648145273
 20
1796.707012534935
 10
4248.403693905589
 20
1796.706987339596
 10
4248.396600069095
 20
1796.706969059914
 10
4248.389382263883
 20
1796.706958165843
 10
4248.382048290048
 20
1796.706955080306
 10
4248.374585548257
 20
1796.706960223177
 10
4248.366962630253
 20
1796.706974070729
 10
4248.359199409423
 20
1796.706997095134
 10
4248.351317737846
 20
1796.707029707295
 10
4248.343338709385
 20
1796.70707225767
 10
4248.335282429759
 20
1796.707125038378
 10
4248.327167836294
 20
1796.707188286633
 10
4248.319012561593
 20
1796.707262189268
 10
4248.310832839388
 20
1796.707346888081
 10
4248.302632248587
 20
1796.707442581641
 10
4248.294340420522
 20
1796.70755010066
 10
4248.285925198874
 20
1796.707669972471
 10
4248.27742850655
 20
1796.707801810899
 10
4248.268899469653
 20
1796.707945007106
 10
4248.261352908417
 20
1796.708080973671
 10
4248.253248289809
 20
1796.708241200907
 10
4248.245519739395
 20
1796.708406544755
 10
4248.237275838027
 20
1796.708592155142
 10
4248.228397014169
 20
1796.708797705176
 10
4248.224915789527
 20
1796.708878409436
  0
LINE
  5
F8F
330
1F
100
AcDbEntity
  8
SANINDUSA
100
AcDbLine
 10
4248.011736376764
 20
1796.703970780035
 30
0.0
 11
4248.011736376764
 21
1796.709230638574
 31
0.0
  0
ARC
  5
F92
330
1F
100
AcDbEntity
  8
SANINDUSA
100
AcDbCircle
 10
4248.157992048211
 20
1796.558146531499
 30
0.0
 40
0.0199999999999708
100
AcDbArc
 50
194.9999999902221
 51
265.9000000204189
  0
LINE
  5
F94
330
1F
100
AcDbEntity
  8
SANINDUSA
100
AcDbLine
 10
4248.224736376765
 20
1796.567913617339
 30
0.0
 11
4248.013736376765
 21
1796.567913617339
 31
0.0
  0
LWPOLYLINE
  5
F96
330
1F
100
AcDbEntity
  8
SANINDUSA
100
AcDbPolyline
 90
        4
 70
   128
 43
0.0
 10
4248.013736424922
 20
1796.705958480211
 10
4248.119338246699
 20
1796.705957535662
 10
4248.172139135863
 20
1796.705753693208
 10
4248.224940040226
 20
1796.70481538607
  0
LINE
  5
F98
330
1F
100
AcDbEntity
  8
SANINDUSA
100
AcDbLine
 10
4248.13466944184
 20
1796.567913617339
 30
0.0
 11
4248.013736376765
 21
1796.567913617339
 31
0.0
  0
LINE
  5
F99
330
1F
100
AcDbEntity
  8
SANINDUSA
100
AcDbLine
 10
4248.011736376764
 20
1796.591488801966
 30
0.0
 11
4248.011736376764
 21
1796.645841513661
 31
0.0
  0
LINE
  5
F9A
330
1F
100
AcDbEntity
  8
SANINDUSA
100
AcDbLine
 10
4248.011736376764
 20
1796.573190990875
 30
0.0
 11
4248.011736376764
 21
1796.69666724997
 31
0.0
  0
LINE
  5
F9C
330
1F
100
AcDbEntity
  8
SANINDUSA
100
AcDbLine
 10
4248.011736376764
 20
1796.577307758343
 30
0.0
 11
4248.011736376764
 21
1796.581795271747
 31
0.0
  0
LINE
  5
F9E
330
1F
100
AcDbEntity
  8
SANINDUSA
100
AcDbLine
 10
4248.011736376764
 20
1796.569913617339
 30
0.0
 11
4248.011736376764
 21
1796.571887556909
 31
0.0
  0
LINE
  5
F9F
330
1F
100
AcDbEntity
  8
SANINDUSA
100
AcDbLine
 10
4248.011736376764
 20
1796.571887556909
 30
0.0
 11
4248.011736376764
 21
1796.577307758343
 31
0.0
  0
LINE
  5
FA0
330
1F
100
AcDbEntity
  8
SANINDUSA
100
AcDbLine
 10
4248.011736376764
 20
1796.569913617339
 30
0.0
 11
4248.011736376764
 21
1796.573190990875
 31
0.0
  0
ARC
  5
FA1
330
1F
100
AcDbEntity
  8
SANINDUSA
100
AcDbCircle
 10
4248.013736376765
 20
1796.569913617339
 30
0.0
 40
0.002
100
AcDbArc
 50
180.0
 51
270.0
  0
LINE
  5
FA4
330
1F
100
AcDbEntity
  8
SANINDUSA
100
AcDbLine
 10
4248.011736376764
 20
1796.581795271747
 30
0.0
 11
4248.011736376764
 21
1796.591488801966
 31
0.0
  0
LINE
  5
FA5
330
1F
100
AcDbEntity
  8
SANINDUSA
100
AcDbLine
 10
4248.011736376764
 20
1796.581795270003
 30
0.0
 11
4248.011736376764
 21
1796.581847696359
 31
0.0
  0
LINE
  5
FA6
330
1F
100
AcDbEntity
  8
SANINDUSA
100
AcDbLine
 10
4248.011736376764
 20
1796.581847696359
 30
0.0
 11
4248.011736376764
 21
1796.581913614605
 31
0.0
  0
LINE
  5
FA7
330
1F
100
AcDbEntity
  8
SANINDUSA
100
AcDbLine
 10
4248.011736376764
 20
1796.645841513661
 30
0.0
 11
4248.011736376764
 21
1796.646913617339
 31
0.0
  0
LWPOLYLINE
  5
FA8
330
1F
100
AcDbEntity
  8
SANINDUSA
100
AcDbPolyline
 90
        9
 70
   128
 43
0.0
 10
4248.013736424922
 20
1796.705958480211
 10
4248.013346237448
 20
1796.70592029528
 10
4248.012971043269
 20
1796.705807189281
 10
4248.012625261324
 20
1796.705623508948
 10
4248.012322180229
 20
1796.70537631323
 10
4248.012073447573
 20
1796.705075102008
 10
4248.011888622307
 20
1796.704731451015
 10
4248.011774807378
 20
1796.70435856697
 10
4248.011736376764
 20
1796.703970780035
  0
LINE
  5
FA9
330
1F
100
AcDbEntity
  8
SANINDUSA
100
AcDbLine
 10
4248.011736376764
 20
1796.69666724997
 30
0.0
 11
4248.011736376764
 21
1796.703970780035
 31
0.0
  0
LINE
  5
FAC
330
1F
100
AcDbEntity
  8
SANINDUSA
100
AcDbLine
 10
4248.138673531685
 20
1796.552970150597
 30
0.0
 11
4248.13466944184
 21
1796.567913617339
 31
0.0
  0
LINE
  5
FB0
330
1F
100
AcDbEntity
  8
SANINDUSA
100
AcDbLine
 10
4248.261316240288
 20
1796.531826461596
 30
0.0
 11
4248.263522848547
 21
1796.557048109396
 31
0.0
  0
LINE
  5
FB2
330
1F
100
AcDbEntity
  8
SANINDUSA
100
AcDbLine
 10
4248.260320045591
 20
1796.530913617339
 30
0.0
 11
4248.19944730453
 21
1796.530913617339
 31
0.0
  0
LINE
  5
FB3
330
1F
100
AcDbEntity
  8
SANINDUSA
100
AcDbLine
 10
4248.198322822063
 20
1796.530913617339
 30
0.0
 11
4248.19290734334
 21
1796.530913617339
 31
0.0
  0
LINE
  5
FB6
330
1F
100
AcDbEntity
  8
SANINDUSA
100
AcDbLine
 10
4248.179955356341
 20
1796.536520866327
 30
0.0
 11
4248.156562099324
 21
1796.538197715841
 31
0.0
  0
LINE
  5
FB8
330
1F
100
AcDbEntity
  8
SANINDUSA
100
AcDbLine
 10
4248.19290734334
 20
1796.530913617339
 30
0.0
 11
4248.188842133293
 21
1796.530913617339
 31
0.0
  0
ARC
  5
FBC
330
1F
100
AcDbEntity
  8
SANINDUSA
100
AcDbCircle
 10
4248.188842132088
 20
1796.531913617339
 30
0.0
 40
0.001
100
AcDbArc
 50
212.3011747283103
 51
270.0000690460255
  0
ARC
  5
FBD
330
1F
100
AcDbEntity
  8
SANINDUSA
100
AcDbCircle
 10
4248.179240381896
 20
1796.526546458498
 30
0.0
 40
0.0099999999999999
100
AcDbArc
 50
28.99180579218264
 51
85.9000016400841
  0
LINE
  5
FBE
330
1F
100
AcDbEntity
  8
SANINDUSA
100
AcDbLine
 10
4248.19944730453
 20
1796.530913617339
 30
0.0
 11
4248.198322822063
 21
1796.530913617339
 31
0.0
  0
ARC
  5
FC2
330
1F
100
AcDbEntity
  8
SANINDUSA
100
AcDbCircle
 10
4248.260320045591
 20
1796.531913617339
 30
0.0
 40
0.0010000000000002
100
AcDbArc
 50
270.0
 51
355.0000000037089
  0
ARC
  5
FDA
330
1F
100
AcDbEntity
  8
SANINDUSA
100
AcDbCircle
 10
4248.233900781563
 20
1797.772877900555
 30
0.0
 40
1.207343242035835
100
AcDbArc
 50
271.8633292321846
 51
273.5973860870057
  0
ARC
  5
FDB
330
1F
100
AcDbEntity
  8
SANINDUSA
100
AcDbCircle
 10
4248.273456942157
 20
1796.556239102315
 30
0.0
 40
0.0099348479430796
100
AcDbArc
 50
93.76985733134777
 51
175.3434246788779
  0
LWPOLYLINE
  5
FDD
330
1F
100
AcDbEntity
  8
SANINDUSA
100
AcDbPolyline
 90
       11
 70
   128
 43
0.0
 10
4248.199010329344
 20
1796.709407601592
 10
4248.161740897126
 20
1796.709927045883
 10
4248.124481704045
 20
1796.710192821455
 10
4248.087250312089
 20
1796.710385855879
 10
4248.067286454761
 20
1796.710510491089
 10
4248.047350199004
 20
1796.710669992499
 10
4248.037399145125
 20
1796.710772120579
 10
4248.027485611159
 20
1796.71090308363
 10
4248.022549686083
 20
1796.710985530846
 10
4248.017667854395
 20
1796.711092680089
 10
4248.013736413405
 20
1796.711221287108
  0
ARC
  5
FDE
330
1F
100
AcDbEntity
  8
SANINDUSA
100
AcDbCircle
 10
4247.838608535532
 20
1795.868550489412
 30
0.0
 40
0.9066646964605
100
AcDbArc
 50
68.08668601528026
 51
71.23104525216288
  0
LINE
  5
FE0
330
1F
100
AcDbEntity
  8
SANINDUSA
100
AcDbLine
 10
4248.055214888901
 20
1796.727913263626
 30
0.0
 11
4248.013736798248
 21
1796.727913602388
 31
0.0
  0
LINE
  5
FE3
330
1F
100
AcDbEntity
  8
SANINDUSA
100
AcDbLine
 10
4248.011736376764
 20
1796.70933038019
 30
0.0
 11
4248.011736376764
 21
1796.725877192661
 31
0.0
  0
LINE
  5
FE4
330
1F
100
AcDbEntity
  8
SANINDUSA
100
AcDbLine
 10
4248.011736376764
 20
1796.709264941522
 30
0.0
 11
4248.011736376764
 21
1796.70933038019
 31
0.0
  0
LINE
  5
FE6
330
1F
100
AcDbEntity
  8
SANINDUSA
100
AcDbLine
 10
4248.011736376764
 20
1796.709230638574
 30
0.0
 11
4248.011736376764
 21
1796.709264941522
 31
0.0
  0
LWPOLYLINE
  5
FEA
330
1F
100
AcDbEntity
  8
SANINDUSA
100
AcDbPolyline
 90
        9
 70
   128
 43
0.0
 10
4248.013736413405
 20
1796.711221287108
 10
4248.013346227565
 20
1796.71118304358
 10
4248.012971035288
 20
1796.711069768478
 10
4248.01262525534
 20
1796.710885815002
 10
4248.012322176156
 20
1796.710638252545
 10
4248.012073445173
 20
1796.710336595015
 10
4248.011888621205
 20
1796.709992435211
 10
4248.011774807097
 20
1796.709618999309
 10
4248.011736376764
 20
1796.709230638574
  0
ARC
  5
FEB
330
1F
100
AcDbEntity
  8
SANINDUSA
100
AcDbCircle
 10
4248.013736376765
 20
1796.7259136173
 30
0.0
 40
0.0020000000000001
100
AcDbArc
 50
90.30186650318341
 51
180.0
  0
LWPOLYLINE
  5
FEC
330
1F
100
AcDbEntity
  8
SANINDUSA
100
AcDbPolyline
 90
       20
 70
   128
 43
0.0
 10
4248.092182467551
 20
1796.727858857319
 10
4248.092207741229
 20
1796.727858874108
 10
4248.09174597287
 20
1796.727858574483
 10
4248.090793157901
 20
1796.727858004983
 10
4248.089321851075
 20
1796.727857250321
 10
4248.087455594674
 20
1796.727856500294
 10
4248.085140619596
 20
1796.727855870436
 10
4248.082571315443
 20
1796.727855527929
 10
4248.079673669091
 20
1796.727855543944
 10
4248.076690975351
 20
1796.727855948738
 10
4248.073537349636
 20
1796.727856738221
 10
4248.070478415598
 20
1796.727858938828
 10
4248.067425229717
 20
1796.727864146924
 10
4248.064634115083
 20
1796.727871490879
 10
4248.062024798245
 20
1796.727880537336
 10
4248.059816094298
 20
1796.727889807555
 10
4248.057944673958
 20
1796.727898797711
 10
4248.056567458855
 20
1796.727906068831
 10
4248.055644947026
 20
1796.727911246238
 10
4248.055236376765
 20
1796.727913617339
  0
LINE
  5
FED
330
1F
100
AcDbEntity
  8
SANINDUSA
100
AcDbLine
 10
4248.127869734427
 20
1796.727381776082
 30
0.0
 11
4248.092177085017
 21
1796.727740978044
 31
0.0
  0
ARC
  5
FEE
330
1F
100
AcDbEntity
  8
SANINDUSA
100
AcDbCircle
 10
4248.127857115234
 20
1796.719135697328
 30
0.0
 40
0.0082460884097454
100
AcDbArc
 50
72.54661913450198
 51
89.91231880885576
  0
LINE
  5
FEF
330
1F
100
AcDbEntity
  8
SANINDUSA
100
AcDbLine
 10
4248.224922087294
 20
1796.708831645538
 30
0.0
 11
4248.209155997157
 21
1796.709185093867
 31
0.0
  0
LINE
  5
FF0
330
1F
100
AcDbEntity
  8
SANINDUSA
100
AcDbLine
 10
4248.224916072579
 20
1796.708860357906
 30
0.0
 11
4248.209155997157
 21
1796.709185093867
 31
0.0
  0
LINE
  5
FF1
330
1F
100
AcDbEntity
  8
SANINDUSA
100
AcDbLine
 10
4248.209155997157
 20
1796.709185093867
 30
0.0
 11
4248.209149841517
 21
1796.709225416518
 31
0.0
  0
LWPOLYLINE
  5
FF3
330
1F
100
AcDbEntity
  8
SANINDUSA
100
AcDbPolyline
 90
        3
 70
   128
 43
0.0
 10
4248.209155997157
 20
1796.709185093867
 10
4248.20408332633
 20
1796.70929858446
 10
4248.199010329344
 20
1796.709407601592
  0
LWPOLYLINE
  5
FF5
330
1F
100
AcDbEntity
  8
SANINDUSA
100
AcDbPolyline
 90
        3
 70
   128
 43
0.0
 10
4248.224922087294
 20
1796.708831645538
 10
4248.224920472391
 20
1796.708853786603
 10
4248.22491463248
 20
1796.708826555271
  0
LINE
  5
FF6
330
1F
100
AcDbEntity
  8
SANINDUSA
100
AcDbLine
 10
4248.548075482363
 20
1796.703826098089
 30
0.0
 11
4248.510114268856
 21
1796.708078475566
 31
0.0
  0
ARC
  5
FF7
330
1F
100
AcDbEntity
  8
SANINDUSA
100
AcDbCircle
 10
4248.034173936388
 20
1796.815194987775
 30
0.0
 40
0.5346623075786125
100
AcDbArc
 50
332.9770676283221
 51
346.9089214844635
  0
LINE
  5
FF8
330
1F
100
AcDbEntity
  8
SANINDUSA
100
AcDbLine
 10
4248.499330488658
 20
1796.567913617339
 30
0.0
 11
4248.499334434455
 21
1796.567913618889
 31
0.0
  0
ARC
  5
FF9
330
1F
100
AcDbEntity
  8
SANINDUSA
100
AcDbCircle
 10
4248.503357812115
 20
1796.575913617339
 30
0.0
 40
0.0080000000000002
100
AcDbArc
 50
269.9999934341138
 51
332.8461623981821
  0
ARC
  5
FFA
330
1F
100
AcDbEntity
  8
SANINDUSA
100
AcDbCircle
 10
4248.547200189106
 20
1796.695937297989
 30
0.0
 40
0.0079741087841874
100
AcDbArc
 50
346.5968568714849
 51
83.67011962866639
  0
ENDSEC
  0
SECTION
  2
OBJECTS
  0
DICTIONARY
  5
C
330
0
100
AcDbDictionary
281
     1
  3
ACAD_COLOR
350
FFF
  3
ACAD_GROUP
350
D
  3
ACAD_LAYOUT
350
1A
  3
ACAD_MATERIAL
350
FFE
  3
ACAD_MLEADERSTYLE
350
1071
  3
ACAD_MLINESTYLE
350
17
  3
ACAD_PLOTSETTINGS
350
19
  3
ACAD_PLOTSTYLENAME
350
E
  3
ACAD_SCALELIST
350
105F
  3
ACAD_TABLESTYLE
350
1000
  3
ACAD_VISUALSTYLE
350
104B
  3
ACDB_RECOMPOSE_DATA
350
109F
  3
AcDbVariableDictionary
350
3D
  3
ASE_INDEX_DICTIONARY
350
B7F
  3
DWGPROPS
350
10A0
  0
DICTIONARY
  5
1078
330
10
100
AcDbDictionary
280
     1
281
     1
  3
ADSK_XREC_LAYER_RECONCILED
360
1079
  0
DICTIONARY
  5
107A
330
2F
100
AcDbDictionary
280
     1
281
     1
  3
ADSK_XREC_LAYER_RECONCILED
360
107B
  0
DICTIONARY
  5
107C
330
30
100
AcDbDictionary
280
     1
281
     1
  3
ADSK_XREC_LAYER_RECONCILED
360
107D
  0
DICTIONARY
  5
107E
330
31
100
AcDbDictionary
280
     1
281
     1
  3
ADSK_XREC_LAYER_RECONCILED
360
107F
  0
DICTIONARY
  5
1080
330
32
100
AcDbDictionary
280
     1
281
     1
  3
ADSK_XREC_LAYER_RECONCILED
360
1081
  0
DICTIONARY
  5
1082
330
33
100
AcDbDictionary
280
     1
281
     1
  3
ADSK_XREC_LAYER_RECONCILED
360
1083
  0
DICTIONARY
  5
1084
330
34
100
AcDbDictionary
280
     1
281
     1
  3
ADSK_XREC_LAYER_RECONCILED
360
1085
  0
DICTIONARY
  5
1086
330
35
100
AcDbDictionary
280
     1
281
     1
  3
ADSK_XREC_LAYER_RECONCILED
360
1087
  0
DICTIONARY
  5
1088
330
36
100
AcDbDictionary
280
     1
281
     1
  3
ADSK_XREC_LAYER_RECONCILED
360
1089
  0
DICTIONARY
  5
108A
330
37
100
AcDbDictionary
280
     1
281
     1
  3
ADSK_XREC_LAYER_RECONCILED
360
108B
  0
DICTIONARY
  5
108C
330
5D6
100
AcDbDictionary
280
     1
281
     1
  3
ADSK_XREC_LAYER_RECONCILED
360
108D
  0
DICTIONARY
  5
108E
330
8AF
100
AcDbDictionary
280
     1
281
     1
  3
ADSK_XREC_LAYER_RECONCILED
360
108F
  0
DICTIONARY
  5
1090
330
8F8
100
AcDbDictionary
280
     1
281
     1
  3
ADSK_XREC_LAYER_RECONCILED
360
1091
  0
DICTIONARY
  5
1092
330
91D
100
AcDbDictionary
280
     1
281
     1
  3
ADSK_XREC_LAYER_RECONCILED
360
1093
  0
DICTIONARY
  5
1094
330
B5B
100
AcDbDictionary
280
     1
281
     1
  3
ADSK_XREC_LAYER_RECONCILED
360
1095
  0
DICTIONARY
  5
1096
330
FFB
100
AcDbDictionary
280
     1
281
     1
  3
ADSK_XREC_LAYER_RECONCILED
360
1097
  0
DICTIONARY
  5
FFF
102
{ACAD_REACTORS
330
C
102
}
330
C
100
AcDbDictionary
281
     1
  0
DICTIONARY
  5
D
102
{ACAD_REACTORS
330
C
102
}
330
C
100
AcDbDictionary
281
     1
  0
DICTIONARY
  5
1A
102
{ACAD_REACTORS
330
C
102
}
330
C
100
AcDbDictionary
281
     1
  3
Layout1
350
1E
  3
Layout2
350
26
  3
Model
350
22
  0
DICTIONARY
  5
FFE
102
{ACAD_REACTORS
330
C
102
}
330
C
100
AcDbDictionary
281
     1
  3
ByBlock
350
103B
  3
ByLayer
350
1033
  3
Global
350
1043
  0
DICTIONARY
  5
1071
102
{ACAD_REACTORS
330
C
102
}
330
C
100
AcDbDictionary
281
     1
  3
Standard
350
1072
  0
DICTIONARY
  5
17
102
{ACAD_REACTORS
330
C
102
}
330
C
100
AcDbDictionary
281
     1
  3
Standard
350
18
  0
DICTIONARY
  5
19
102
{ACAD_REACTORS
330
C
102
}
330
C
100
AcDbDictionary
281
     1
  0
ACDBDICTIONARYWDFLT
  5
E
102
{ACAD_REACTORS
330
C
102
}
330
C
100
AcDbDictionary
281
     1
  3
Normal
350
F
100
AcDbDictionaryWithDefault
340
F
  0
DICTIONARY
  5
105F
102
{ACAD_REACTORS
330
C
102
}
330
C
100
AcDbDictionary
281
     1
  3
A0
350
1060
  3
A1
350
1061
  3
A2
350
1062
  3
A3
350
1063
  3
A4
350
1064
  3
A5
350
1065
  3
A6
350
1066
  3
A7
350
1067
  3
A8
350
1068
  3
A9
350
1069
  3
B0
350
106A
  3
B1
350
106B
  3
B2
350
106C
  3
B3
350
106D
  3
B4
350
106E
  3
B5
350
106F
  3
B6
350
1070
  0
DICTIONARY
  5
1000
102
{ACAD_REACTORS
330
C
102
}
330
C
100
AcDbDictionary
281
     1
  3
Standard
350
1001
  0
DICTIONARY
  5
104B
102
{ACAD_REACTORS
330
C
102
}
330
C
100
AcDbDictionary
281
     1
  3
2dWireframe
350
1051
  3
3D Hidden
350
1053
  3
3dWireframe
350
1052
  3
Basic
350
1050
  3
Brighten
350
1057
  3
ColorChange
350
105B
  3
Conceptual
350
1054
  3
Dim
350
1056
  3
EdgeColorOff
350
105E
  3
Facepattern
350
105A
  3
Flat
350
104C
  3
FlatWithEdges
350
104D
  3
Gouraud
350
104E
  3
GouraudWithEdges
350
104F
  3
JitterOff
350
105C
  3
Linepattern
350
1059
  3
OverhangOff
350
105D
  3
Realistic
350
1055
  3
Thicken
350
1058
  0
XRECORD
  5
109F
102
{ACAD_REACTORS
330
C
102
}
330
C
100
AcDbXrecord
280
     1
 90
        1
330
1001
  0
DICTIONARY
  5
3D
102
{ACAD_REACTORS
330
C
102
}
330
C
100
AcDbDictionary
281
     1
  3
CANNOSCALE
350
1099
  3
CMLEADERSTYLE
350
1098
  3
CTABLESTYLE
350
100E
  3
DIMASSOC
350
3F
  3
HIDETEXT
350
3E
  3
INDEXCTL
350
109B
  3
PROJECTNAME
350
1031
  3
SORTENTS
350
109A
  3
XCLIPFRAME
350
109C
  0
DICTIONARY
  5
B7F
102
{ACAD_REACTORS
330
C
102
}
330
C
100
AcDbDictionary
281
     1
  3
ASEBlockHierarchyIndexRecord
350
B80
1001
DCO15
1040
1554702738.843
  0
XRECORD
  5
10A0
102
{ACAD_REACTORS
330
C
102
}
330
C
100
AcDbXrecord
280
     1
  1
DWGPROPS COOKIE
  2

  3

  4

  6

  7

  8
Julio
  9

300
=
301
=
302
=
303
=
304
=
305
=
306
=
307
=
308
=
309
=
 40
0.0139293981481482
 41
2452537.465454097
 42
2456147.432105208
  1

 90
        0
  0
XRECORD
  5
1079
102
{ACAD_REACTORS
330
1078
102
}
330
1078
100
AcDbXrecord
280
     1
290
     1
  0
XRECORD
  5
107B
102
{ACAD_REACTORS
330
107A
102
}
330
107A
100
AcDbXrecord
280
     1
290
     1
  0
XRECORD
  5
107D
102
{ACAD_REACTORS
330
107C
102
}
330
107C
100
AcDbXrecord
280
     1
290
     1
  0
XRECORD
  5
107F
102
{ACAD_REACTORS
330
107E
102
}
330
107E
100
AcDbXrecord
280
     1
290
     1
  0
XRECORD
  5
1081
102
{ACAD_REACTORS
330
1080
102
}
330
1080
100
AcDbXrecord
280
     1
290
     1
  0
XRECORD
  5
1083
102
{ACAD_REACTORS
330
1082
102
}
330
1082
100
AcDbXrecord
280
     1
290
     1
  0
XRECORD
  5
1085
102
{ACAD_REACTORS
330
1084
102
}
330
1084
100
AcDbXrecord
280
     1
290
     1
  0
XRECORD
  5
1087
102
{ACAD_REACTORS
330
1086
102
}
330
1086
100
AcDbXrecord
280
     1
290
     1
  0
XRECORD
  5
1089
102
{ACAD_REACTORS
330
1088
102
}
330
1088
100
AcDbXrecord
280
     1
290
     1
  0
XRECORD
  5
108B
102
{ACAD_REACTORS
330
108A
102
}
330
108A
100
AcDbXrecord
280
     1
290
     1
  0
XRECORD
  5
108D
102
{ACAD_REACTORS
330
108C
102
}
330
108C
100
AcDbXrecord
280
     1
290
     1
  0
XRECORD
  5
108F
102
{ACAD_REACTORS
330
108E
102
}
330
108E
100
AcDbXrecord
280
     1
290
     1
  0
XRECORD
  5
1091
102
{ACAD_REACTORS
330
1090
102
}
330
1090
100
AcDbXrecord
280
     1
290
     1
  0
XRECORD
  5
1093
102
{ACAD_REACTORS
330
1092
102
}
330
1092
100
AcDbXrecord
280
     1
290
     1
  0
XRECORD
  5
1095
102
{ACAD_REACTORS
330
1094
102
}
330
1094
100
AcDbXrecord
280
     1
290
     1
  0
XRECORD
  5
1097
102
{ACAD_REACTORS
330
1096
102
}
330
1096
100
AcDbXrecord
280
     1
290
     1
  0
LAYOUT
  5
1E
102
{ACAD_XDICTIONARY
360
10A1
102
}
102
{ACAD_REACTORS
330
1A
102
}
330
1A
100
AcDbPlotSettings
  1

  2
Ploter HP500
  4

  6

 40
0.0
 41
0.0
 42
0.0
 43
0.0
 44
0.0
 45
0.0
 46
0.0
 47
0.0
 48
0.0
 49
0.0
140
0.0
141
0.0
142
1.0
143
1.0
 70
   688
 72
     0
 73
     0
 74
     5
  7
monochrome.ctb
 75
    16
147
1.0
148
0.0
149
0.0
100
AcDbLayout
  1
Layout1
 70
     1
 71
     1
 10
0.0
 20
0.0
 11
420.0
 21
297.0
 12
0.0
 22
0.0
 32
0.0
 14
1.000000000000000E+20
 24
1.000000000000000E+20
 34
1.000000000000000E+20
 15
-1.000000000000000E+20
 25
-1.000000000000000E+20
 35
-1.000000000000000E+20
146
0.0
 13
0.0
 23
0.0
 33
0.0
 16
1.0
 26
0.0
 36
0.0
 17
0.0
 27
1.0
 37
0.0
 76
     0
330
1B
  0
LAYOUT
  5
26
102
{ACAD_XDICTIONARY
360
10A5
102
}
102
{ACAD_REACTORS
330
1A
102
}
330
1A
100
AcDbPlotSettings
  1

  2
Ploter HP500
  4

  6

 40
0.0
 41
0.0
 42
0.0
 43
0.0
 44
0.0
 45
0.0
 46
0.0
 47
0.0
 48
0.0
 49
0.0
140
0.0
141
0.0
142
1.0
143
1.0
 70
   688
 72
     0
 73
     0
 74
     5
  7
monochrome.ctb
 75
    16
147
1.0
148
0.0
149
0.0
100
AcDbLayout
  1
Layout2
 70
     1
 71
     2
 10
0.0
 20
0.0
 11
12.0
 21
9.0
 12
0.0
 22
0.0
 32
0.0
 14
0.0
 24
0.0
 34
0.0
 15
0.0
 25
0.0
 35
0.0
146
0.0
 13
0.0
 23
0.0
 33
0.0
 16
1.0
 26
0.0
 36
0.0
 17
0.0
 27
1.0
 37
0.0
 76
     0
330
23
  0
LAYOUT
  5
22
102
{ACAD_XDICTIONARY
360
10A3
102
}
102
{ACAD_REACTORS
330
1A
102
}
330
1A
100
AcDbPlotSettings
  1

  2
Ploter HP500
  4
User268
  6

 40
4.995333194732666
 41
16.97565841674804
 42
4.995330810546875
 43
16.97567749023437
 44
209.9733276367187
 45
296.9259948730469
 46
0.0
 47
0.0
 48
0.0
 49
0.0
140
0.0
141
0.0
142
1.0
143
1.0
 70
 11952
 72
     1
 73
     1
 74
     0
  7

 75
     0
147
1.0
148
-427.5957866592534
149
7.362384574453926
100
AcDbLayout
  1
Model
 70
     1
 71
     0
 10
0.0
 20
0.0
 11
12.0
 21
9.0
 12
0.0
 22
0.0
 32
0.0
 14
0.0
 24
0.0
 34
0.0
 15
0.0
 25
0.0
 35
0.0
146
0.0
 13
0.0
 23
0.0
 33
0.0
 16
1.0
 26
0.0
 36
0.0
 17
0.0
 27
1.0
 37
0.0
 76
     0
330
1F
331
1029
  0
MATERIAL
  5
103B
102
{ACAD_XDICTIONARY
360
103C
102
}
102
{ACAD_REACTORS
330
FFE
102
}
330
FFE
100
AcDbMaterial
  1
ByBlock
 72
     0
 43
0.0008202099737533
 43
0.0
 43
0.0
 43
0.0
 43
0.0
 43
0.0008202099737533
 43
0.0
 43
0.0
 43
0.0
 43
0.0
 43
1.0
 43
0.0
 43
0.0
 43
0.0
 43
0.0
 43
1.0
 77
     0
 47
0.0008202099737533
 47
0.0
 47
0.0
 47
0.0
 47
0.0
 47
0.0008202099737533
 47
0.0
 47
0.0
 47
0.0
 47
0.0
 47
1.0
 47
0.0
 47
0.0
 47
0.0
 47
0.0
 47
1.0
171
     0
 49
0.0008202099737533
 49
0.0
 49
0.0
 49
0.0
 49
0.0
 49
0.0008202099737533
 49
0.0
 49
0.0
 49
0.0
 49
0.0
 49
1.0
 49
0.0
 49
0.0
 49
0.0
 49
0.0
 49
1.0
175
     0
142
0.0008202099737533
142
0.0
142
0.0
142
0.0
142
0.0
142
0.0008202099737533
142
0.0
142
0.0
142
0.0
142
0.0
142
1.0
142
0.0
142
0.0
142
0.0
142
0.0
142
1.0
179
     0
144
0.0008202099737533
144
0.0
144
0.0
144
0.0
144
0.0
144
0.0008202099737533
144
0.0
144
0.0
144
0.0
144
0.0
144
1.0
144
0.0
144
0.0
144
0.0
144
0.0
144
1.0
147
0.0008202099737533
147
0.0
147
0.0
147
0.0
147
0.0
147
0.0008202099737533
147
0.0
147
0.0
147
0.0
147
0.0
147
1.0
147
0.0
147
0.0
147
0.0
147
0.0
147
1.0
  0
MATERIAL
  5
1033
102
{ACAD_XDICTIONARY
360
1034
102
}
102
{ACAD_REACTORS
330
FFE
102
}
330
FFE
100
AcDbMaterial
  1
ByLayer
 72
     0
 43
0.0008202099737533
 43
0.0
 43
0.0
 43
0.0
 43
0.0
 43
0.0008202099737533
 43
0.0
 43
0.0
 43
0.0
 43
0.0
 43
1.0
 43
0.0
 43
0.0
 43
0.0
 43
0.0
 43
1.0
 77
     0
 47
0.0008202099737533
 47
0.0
 47
0.0
 47
0.0
 47
0.0
 47
0.0008202099737533
 47
0.0
 47
0.0
 47
0.0
 47
0.0
 47
1.0
 47
0.0
 47
0.0
 47
0.0
 47
0.0
 47
1.0
171
     0
 49
0.0008202099737533
 49
0.0
 49
0.0
 49
0.0
 49
0.0
 49
0.0008202099737533
 49
0.0
 49
0.0
 49
0.0
 49
0.0
 49
1.0
 49
0.0
 49
0.0
 49
0.0
 49
0.0
 49
1.0
175
     0
142
0.0008202099737533
142
0.0
142
0.0
142
0.0
142
0.0
142
0.0008202099737533
142
0.0
142
0.0
142
0.0
142
0.0
142
1.0
142
0.0
142
0.0
142
0.0
142
0.0
142
1.0
179
     0
144
0.0008202099737533
144
0.0
144
0.0
144
0.0
144
0.0
144
0.0008202099737533
144
0.0
144
0.0
144
0.0
144
0.0
144
1.0
144
0.0
144
0.0
144
0.0
144
0.0
144
1.0
147
0.0008202099737533
147
0.0
147
0.0
147
0.0
147
0.0
147
0.0008202099737533
147
0.0
147
0.0
147
0.0
147
0.0
147
1.0
147
0.0
147
0.0
147
0.0
147
0.0
147
1.0
  0
MATERIAL
  5
1043
102
{ACAD_XDICTIONARY
360
1044
102
}
102
{ACAD_REACTORS
330
FFE
102
}
330
FFE
100
AcDbMaterial
  1
Global
 72
     0
 43
0.0008202099737533
 43
0.0
 43
0.0
 43
0.0
 43
0.0
 43
0.0008202099737533
 43
0.0
 43
0.0
 43
0.0
 43
0.0
 43
1.0
 43
0.0
 43
0.0
 43
0.0
 43
0.0
 43
1.0
 77
     0
 47
0.0008202099737533
 47
0.0
 47
0.0
 47
0.0
 47
0.0
 47
0.0008202099737533
 47
0.0
 47
0.0
 47
0.0
 47
0.0
 47
1.0
 47
0.0
 47
0.0
 47
0.0
 47
0.0
 47
1.0
171
     0
 49
0.0008202099737533
 49
0.0
 49
0.0
 49
0.0
 49
0.0
 49
0.0008202099737533
 49
0.0
 49
0.0
 49
0.0
 49
0.0
 49
1.0
 49
0.0
 49
0.0
 49
0.0
 49
0.0
 49
1.0
175
     0
142
0.0008202099737533
142
0.0
142
0.0
142
0.0
142
0.0
142
0.0008202099737533
142
0.0
142
0.0
142
0.0
142
0.0
142
1.0
142
0.0
142
0.0
142
0.0
142
0.0
142
1.0
179
     0
144
0.0008202099737533
144
0.0
144
0.0
144
0.0
144
0.0
144
0.0008202099737533
144
0.0
144
0.0
144
0.0
144
0.0
144
1.0
144
0.0
144
0.0
144
0.0
144
0.0
144
1.0
147
0.0008202099737533
147
0.0
147
0.0
147
0.0
147
0.0
147
0.0008202099737533
147
0.0
147
0.0
147
0.0
147
0.0
147
1.0
147
0.0
147
0.0
147
0.0
147
0.0
147
1.0
  0
MLEADERSTYLE
  5
1072
102
{ACAD_REACTORS
330
1071
102
}
330
1071
100
AcDbMLeaderStyle
170
     2
171
     1
172
     0
 90
        2
 40
0.0
 41
0.0
173
     1
 91
-1056964608
340
14
 92
       -2
290
     1
 42
2.0
291
     1
 43
0.36
  3
Standard
 44
4.0
300

342
11
174
     1
178
     6
175
     1
176
     0
 93
-1056964608
 45
4.0
292
     0
297
     0
 46
4.0
 94
-1056964608
 47
1.0
 49
1.0
140
1.0
293
     1
141
0.0
294
     1
177
     0
142
1.0
295
     0
296
     0
143
0.125
1001
ACAD_MLEADERVER
1070
     2
  0
MLINESTYLE
  5
18
102
{ACAD_REACTORS
330
17
102
}
330
17
100
AcDbMlineStyle
  2
STANDARD
 70
     0
  3

 62
   256
 51
90.0
 52
90.0
 71
     2
 49
0.5
 62
   256
  6
BYLAYER
 49
-0.5
 62
   256
  6
BYLAYER
  0
ACDBPLACEHOLDER
  5
F
102
{ACAD_REACTORS
330
E
102
}
330
E
  0
SCALE
  5
1060
102
{ACAD_REACTORS
330
105F
102
}
330
105F
100
AcDbScale
 70
     0
300
1:1
140
1.0
141
1.0
290
     1
  0
SCALE
  5
1061
102
{ACAD_REACTORS
330
105F
102
}
330
105F
100
AcDbScale
 70
     0
300
1:2
140
1.0
141
2.0
290
     0
  0
SCALE
  5
1062
102
{ACAD_REACTORS
330
105F
102
}
330
105F
100
AcDbScale
 70
     0
300
1:4
140
1.0
141
4.0
290
     0
  0
SCALE
  5
1063
102
{ACAD_REACTORS
330
105F
102
}
330
105F
100
AcDbScale
 70
     0
300
1:5
140
1.0
141
5.0
290
     0
  0
SCALE
  5
1064
102
{ACAD_REACTORS
330
105F
102
}
330
105F
100
AcDbScale
 70
     0
300
1:8
140
1.0
141
8.0
290
     0
  0
SCALE
  5
1065
102
{ACAD_REACTORS
330
105F
102
}
330
105F
100
AcDbScale
 70
     0
300
1:10
140
1.0
141
10.0
290
     0
  0
SCALE
  5
1066
102
{ACAD_REACTORS
330
105F
102
}
330
105F
100
AcDbScale
 70
     0
300
1:16
140
1.0
141
16.0
290
     0
  0
SCALE
  5
1067
102
{ACAD_REACTORS
330
105F
102
}
330
105F
100
AcDbScale
 70
     0
300
1:20
140
1.0
141
20.0
290
     0
  0
SCALE
  5
1068
102
{ACAD_REACTORS
330
105F
102
}
330
105F
100
AcDbScale
 70
     0
300
1:30
140
1.0
141
30.0
290
     0
  0
SCALE
  5
1069
102
{ACAD_REACTORS
330
105F
102
}
330
105F
100
AcDbScale
 70
     0
300
1:40
140
1.0
141
40.0
290
     0
  0
SCALE
  5
106A
102
{ACAD_REACTORS
330
105F
102
}
330
105F
100
AcDbScale
 70
     0
300
1:50
140
1.0
141
50.0
290
     0
  0
SCALE
  5
106B
102
{ACAD_REACTORS
330
105F
102
}
330
105F
100
AcDbScale
 70
     0
300
1:100
140
1.0
141
100.0
290
     0
  0
SCALE
  5
106C
102
{ACAD_REACTORS
330
105F
102
}
330
105F
100
AcDbScale
 70
     0
300
2:1
140
2.0
141
1.0
290
     0
  0
SCALE
  5
106D
102
{ACAD_REACTORS
330
105F
102
}
330
105F
100
AcDbScale
 70
     0
300
4:1
140
4.0
141
1.0
290
     0
  0
SCALE
  5
106E
102
{ACAD_REACTORS
330
105F
102
}
330
105F
100
AcDbScale
 70
     0
300
8:1
140
8.0
141
1.0
290
     0
  0
SCALE
  5
106F
102
{ACAD_REACTORS
330
105F
102
}
330
105F
100
AcDbScale
 70
     0
300
10:1
140
10.0
141
1.0
290
     0
  0
SCALE
  5
1070
102
{ACAD_REACTORS
330
105F
102
}
330
105F
100
AcDbScale
 70
     0
300
100:1
140
100.0
141
1.0
290
     0
  0
TABLESTYLE
  5
1001
102
{ACAD_XDICTIONARY
360
109D
102
}
102
{ACAD_REACTORS
330
1000
102
}
330
1000
100
AcDbTableStyle
  3
Standard
 70
     0
 71
     0
 40
1.5
 41
1.5
280
     0
281
     0
  7
Standard
140
4.5
170
     2
 62
     0
 63
     7
283
     0
274
    -2
284
     1
 64
     0
275
    -2
285
     1
 65
     0
276
    -2
286
     1
 66
     0
277
    -2
287
     1
 67
     0
278
    -2
288
     1
 68
     0
279
    -2
289
     1
 69
     0
  7
Standard
140
6.0
170
     5
 62
     0
 63
     7
283
     0
274
    -2
284
     1
 64
     0
275
    -2
285
     1
 65
     0
276
    -2
286
     1
 66
     0
277
    -2
287
     1
 67
     0
278
    -2
288
     1
 68
     0
279
    -2
289
     1
 69
     0
  7
Standard
140
4.5
170
     5
 62
     0
 63
     7
283
     0
274
    -2
284
     1
 64
     0
275
    -2
285
     1
 65
     0
276
    -2
286
     1
 66
     0
277
    -2
287
     1
 67
     0
278
    -2
288
     1
 68
     0
279
    -2
289
     1
 69
     0
  0
VISUALSTYLE
  5
1051
102
{ACAD_XDICTIONARY
360
10B5
102
}
102
{ACAD_REACTORS
330
104B
102
}
330
104B
100
AcDbVisualStyle
  2
2dWireframe
 70
     4
 71
     0
 72
     2
 73
     0
 90
        0
 40
-0.6
 41
-30.0
 62
     5
 63
     7
 74
     1
 91
        4
 64
     7
 65
   257
 75
     1
175
     1
 42
1.0
 92
        0
 66
   257
 43
1.0
 76
     1
 77
     6
 78
     2
 67
     7
 79
     5
170
     0
171
     0
290
     0
174
     0
 93
        1
 44
0.0
173
     0
291
     0
 45
0.0
1001
ACAD
1000
AcDbSavedByObjectVersion
1070
     0
  0
VISUALSTYLE
  5
1053
102
{ACAD_XDICTIONARY
360
10B9
102
}
102
{ACAD_REACTORS
330
104B
102
}
330
104B
100
AcDbVisualStyle
  2
3D Hidden
 70
     6
 71
     1
 72
     2
 73
     2
 90
        0
 40
-0.6
 41
-30.0
 62
     5
 63
     7
 74
     2
 91
        2
 64
     7
 65
   257
 75
     2
175
     1
 42
179.0
 92
        0
 66
   257
 43
1.0
 76
     1
 77
     6
 78
     2
 67
     7
 79
     3
170
     0
171
     0
290
     0
174
     0
 93
        1
 44
0.0
173
     0
291
     0
 45
0.0
1001
ACAD
1000
AcDbSavedByObjectVersion
1070
     0
  0
VISUALSTYLE
  5
1052
102
{ACAD_XDICTIONARY
360
10B7
102
}
102
{ACAD_REACTORS
330
104B
102
}
330
104B
100
AcDbVisualStyle
  2
3dWireframe
 70
     5
 71
     0
 72
     2
 73
     0
 90
        0
 40
-0.6
 41
-30.0
 62
     5
 63
     7
 74
     1
 91
        4
 64
     7
 65
   257
 75
     1
175
     1
 42
1.0
 92
        0
 66
   257
 43
1.0
 76
     1
 77
     6
 78
     2
 67
     7
 79
     5
170
     0
171
     0
290
     0
174
     0
 93
        1
 44
0.0
173
     0
291
     0
 45
0.0
1001
ACAD
1000
AcDbSavedByObjectVersion
1070
     0
  0
VISUALSTYLE
  5
1050
102
{ACAD_XDICTIONARY
360
10B3
102
}
102
{ACAD_REACTORS
330
104B
102
}
330
104B
100
AcDbVisualStyle
  2
Basic
 70
     7
 71
     1
 72
     0
 73
     1
 90
        0
 40
-0.6
 41
-30.0
 62
     5
 63
     7
 74
     0
 91
        4
 64
     7
 65
   257
 75
     1
175
     1
 42
1.0
 92
        8
 66
     7
 43
1.0
 76
     1
 77
     6
 78
     2
 67
     7
 79
     5
170
     0
171
     0
290
     0
174
     0
 93
        1
 44
0.0
173
     0
291
     1
 45
0.0
1001
ACAD
1000
AcDbSavedByObjectVersion
1070
     0
  0
VISUALSTYLE
  5
1057
102
{ACAD_XDICTIONARY
360
10C1
102
}
102
{ACAD_REACTORS
330
104B
102
}
330
104B
100
AcDbVisualStyle
  2
Brighten
 70
    12
 71
     2
 72
     2
 73
     0
 90
        0
 40
-0.6
 41
-30.0
 62
     5
 63
     7
 74
     1
 91
        4
 64
     7
 65
   257
 75
     1
175
     1
 42
1.0
 92
        8
 66
     7
 43
1.0
 76
     1
 77
     6
 78
     2
 67
     7
 79
     5
170
     0
171
     0
290
     0
174
     0
 93
        1
 44
50.0
173
     0
291
     1
 45
0.0
1001
ACAD
1000
AcDbSavedByObjectVersion
1070
     0
  0
VISUALSTYLE
  5
105B
102
{ACAD_XDICTIONARY
360
10C9
102
}
102
{ACAD_REACTORS
330
104B
102
}
330
104B
100
AcDbVisualStyle
  2
ColorChange
 70
    16
 71
     2
 72
     2
 73
     3
 90
        0
 40
-0.6
 41
-30.0
 62
     5
 63
     8
 74
     1
 91
        4
 64
     7
 65
   257
 75
     1
175
     1
 42
1.0
 92
        8
 66
     8
 43
1.0
 76
     1
 77
     6
 78
     2
 67
     7
 79
     5
170
     0
171
     0
290
     0
174
     0
 93
        1
 44
0.0
173
     0
291
     1
 45
0.0
1001
ACAD
1000
AcDbSavedByObjectVersion
1070
     0
  0
VISUALSTYLE
  5
1054
102
{ACAD_XDICTIONARY
360
10BB
102
}
102
{ACAD_REACTORS
330
104B
102
}
330
104B
100
AcDbVisualStyle
  2
Conceptual
 70
     9
 71
     3
 72
     2
 73
     0
 90
        0
 40
-0.6
 41
-30.0
 62
     5
 63
     7
 74
     2
 91
        2
 64
     7
 65
   257
 75
     1
175
     1
 42
179.0
 92
        8
 66
     7
 43
1.0
 76
     1
 77
     6
 78
     2
 67
     7
 79
     3
170
     0
171
     0
290
     0
174
     0
 93
        1
 44
0.0
173
     0
291
     0
 45
0.0
1001
ACAD
1000
AcDbSavedByObjectVersion
1070
     0
  0
VISUALSTYLE
  5
1056
102
{ACAD_XDICTIONARY
360
10BF
102
}
102
{ACAD_REACTORS
330
104B
102
}
330
104B
100
AcDbVisualStyle
  2
Dim
 70
    11
 71
     2
 72
     2
 73
     0
 90
        0
 40
-0.6
 41
-30.0
 62
     5
 63
     7
 74
     1
 91
        4
 64
     7
 65
   257
 75
     1
175
     1
 42
1.0
 92
        8
 66
     7
 43
1.0
 76
     1
 77
     6
 78
     2
 67
     7
 79
     5
170
     0
171
     0
290
     0
174
     0
 93
        1
 44
-50.0
173
     0
291
     1
 45
0.0
1001
ACAD
1000
AcDbSavedByObjectVersion
1070
     0
  0
VISUALSTYLE
  5
105E
102
{ACAD_XDICTIONARY
360
10CF
102
}
102
{ACAD_REACTORS
330
104B
102
}
330
104B
100
AcDbVisualStyle
  2
EdgeColorOff
 70
    22
 71
     2
 72
     2
 73
     0
 90
        0
 40
-0.6
 41
-30.0
 62
     5
 63
     7
 74
     1
 91
        4
 64
     7
 65
   257
 75
     1
175
     1
 42
1.0
 92
        8
 66
     7
 43
1.0
 76
     1
 77
     6
 78
     2
 67
     7
 79
     5
170
     0
171
     0
290
     0
174
     0
 93
        1
 44
0.0
173
     0
291
     1
 45
0.0
1001
ACAD
1000
AcDbSavedByObjectVersion
1070
     0
  0
VISUALSTYLE
  5
105A
102
{ACAD_XDICTIONARY
360
10C7
102
}
102
{ACAD_REACTORS
330
104B
102
}
330
104B
100
AcDbVisualStyle
  2
Facepattern
 70
    15
 71
     2
 72
     2
 73
     0
 90
        0
 40
-0.6
 41
-30.0
 62
     5
 63
     7
 74
     1
 91
        4
 64
     7
 65
   257
 75
     1
175
     1
 42
1.0
 92
        8
 66
     7
 43
1.0
 76
     1
 77
     6
 78
     2
 67
     7
 79
     5
170
     0
171
     0
290
     0
174
     0
 93
        1
 44
0.0
173
     0
291
     1
 45
0.0
1001
ACAD
1000
AcDbSavedByObjectVersion
1070
     0
  0
VISUALSTYLE
  5
104C
102
{ACAD_XDICTIONARY
360
10AB
102
}
102
{ACAD_REACTORS
330
104B
102
}
330
104B
100
AcDbVisualStyle
  2
Flat
 70
     0
 71
     2
 72
     1
 73
     1
 90
        2
 40
-0.6
 41
30.0
 62
     5
 63
     7
 74
     0
 91
        4
 64
     7
 65
   257
 75
     1
175
     1
 42
1.0
 92
        8
 66
     7
 43
1.0
 76
     1
 77
     6
 78
     2
 67
     7
 79
     5
170
     0
171
     0
290
     0
174
     0
 93
       13
 44
0.0
173
     0
291
     1
 45
0.0
1001
ACAD
1000
AcDbSavedByObjectVersion
1070
     0
  0
VISUALSTYLE
  5
104D
102
{ACAD_XDICTIONARY
360
10AD
102
}
102
{ACAD_REACTORS
330
104B
102
}
330
104B
100
AcDbVisualStyle
  2
FlatWithEdges
 70
     1
 71
     2
 72
     1
 73
     1
 90
        2
 40
-0.6
 41
30.0
 62
     5
 63
     7
 74
     1
 91
        4
 64
     7
 65
   257
 75
     1
175
     1
 42
1.0
 92
        0
 66
   257
 43
1.0
 76
     1
 77
     6
 78
     2
 67
     7
 79
     5
170
     0
171
     0
290
     0
174
     0
 93
       13
 44
0.0
173
     0
291
     1
 45
0.0
1001
ACAD
1000
AcDbSavedByObjectVersion
1070
     0
  0
VISUALSTYLE
  5
104E
102
{ACAD_XDICTIONARY
360
10AF
102
}
102
{ACAD_REACTORS
330
104B
102
}
330
104B
100
AcDbVisualStyle
  2
Gouraud
 70
     2
 71
     2
 72
     2
 73
     1
 90
        2
 40
-0.6
 41
30.0
 62
     5
 63
     7
 74
     0
 91
        4
 64
     7
 65
   257
 75
     1
175
     1
 42
1.0
 92
        0
 66
     7
 43
1.0
 76
     1
 77
     6
 78
     2
 67
     7
 79
     5
170
     0
171
     0
290
     0
174
     0
 93
       13
 44
0.0
173
     0
291
     1
 45
0.0
1001
ACAD
1000
AcDbSavedByObjectVersion
1070
     0
  0
VISUALSTYLE
  5
104F
102
{ACAD_XDICTIONARY
360
10B1
102
}
102
{ACAD_REACTORS
330
104B
102
}
330
104B
100
AcDbVisualStyle
  2
GouraudWithEdges
 70
     3
 71
     2
 72
     2
 73
     1
 90
        2
 40
-0.6
 41
30.0
 62
     5
 63
     7
 74
     1
 91
        4
 64
     7
 65
   257
 75
     1
175
     1
 42
1.0
 92
        0
 66
   257
 43
1.0
 76
     1
 77
     6
 78
     2
 67
     7
 79
     5
170
     0
171
     0
290
     0
174
     0
 93
       13
 44
0.0
173
     0
291
     1
 45
0.0
1001
ACAD
1000
AcDbSavedByObjectVersion
1070
     0
  0
VISUALSTYLE
  5
105C
102
{ACAD_XDICTIONARY
360
10CB
102
}
102
{ACAD_REACTORS
330
104B
102
}
330
104B
100
AcDbVisualStyle
  2
JitterOff
 70
    20
 71
     2
 72
     2
 73
     0
 90
        0
 40
-0.6
 41
-30.0
 62
     5
 63
     7
 74
     1
 91
        4
 64
     7
 65
   257
 75
     1
175
     1
 42
1.0
 92
       10
 66
     7
 43
1.0
 76
     1
 77
     6
 78
     2
 67
     7
 79
     5
170
     0
171
     0
290
     0
174
     0
 93
        1
 44
0.0
173
     0
291
     1
 45
0.0
1001
ACAD
1000
AcDbSavedByObjectVersion
1070
     0
  0
VISUALSTYLE
  5
1059
102
{ACAD_XDICTIONARY
360
10C5
102
}
102
{ACAD_REACTORS
330
104B
102
}
330
104B
100
AcDbVisualStyle
  2
Linepattern
 70
    14
 71
     2
 72
     2
 73
     0
 90
        0
 40
-0.6
 41
-30.0
 62
     5
 63
     7
 74
     1
 91
        4
 64
     7
 65
   257
 75
     7
175
     7
 42
1.0
 92
        8
 66
     7
 43
1.0
 76
     1
 77
     6
 78
     2
 67
     7
 79
     5
170
     0
171
     0
290
     0
174
     0
 93
        1
 44
0.0
173
     0
291
     1
 45
0.0
1001
ACAD
1000
AcDbSavedByObjectVersion
1070
     0
  0
VISUALSTYLE
  5
105D
102
{ACAD_XDICTIONARY
360
10CD
102
}
102
{ACAD_REACTORS
330
104B
102
}
330
104B
100
AcDbVisualStyle
  2
OverhangOff
 70
    21
 71
     2
 72
     2
 73
     0
 90
        0
 40
-0.6
 41
-30.0
 62
     5
 63
     7
 74
     1
 91
        4
 64
     7
 65
   257
 75
     1
175
     1
 42
1.0
 92
        9
 66
     7
 43
1.0
 76
     1
 77
     6
 78
     2
 67
     7
 79
     5
170
     0
171
     0
290
     0
174
     0
 93
        1
 44
0.0
173
     0
291
     1
 45
0.0
1001
ACAD
1000
AcDbSavedByObjectVersion
1070
     0
  0
VISUALSTYLE
  5
1055
102
{ACAD_XDICTIONARY
360
10BD
102
}
102
{ACAD_REACTORS
330
104B
102
}
330
104B
100
AcDbVisualStyle
  2
Realistic
 70
     8
 71
     2
 72
     2
 73
     0
 90
        0
 40
-0.6
 41
-30.0
 62
     5
 63
     7
 74
     1
 91
        0
 64
     7
 65
   257
 75
     1
175
     1
 42
1.0
 92
        8
 66
     8
 43
1.0
 76
     1
 77
     6
 78
     2
 67
     7
 79
     5
170
     0
171
     0
290
     0
174
     0
 93
       13
 44
0.0
173
     0
291
     0
 45
0.0
1001
ACAD
1000
AcDbSavedByObjectVersion
1070
     0
  0
VISUALSTYLE
  5
1058
102
{ACAD_XDICTIONARY
360
10C3
102
}
102
{ACAD_REACTORS
330
104B
102
}
330
104B
100
AcDbVisualStyle
  2
Thicken
 70
    13
 71
     2
 72
     2
 73
     0
 90
        0
 40
-0.6
 41
-30.0
 62
     5
 63
     7
 74
     1
 91
        4
 64
     7
 65
   257
 75
     1
175
     1
 42
1.0
 92
       12
 66
     7
 43
1.0
 76
     1
 77
     6
 78
     2
 67
     7
 79
     5
170
     0
171
     0
290
     0
174
     0
 93
        1
 44
0.0
173
     0
291
     1
 45
0.0
1001
ACAD
1000
AcDbSavedByObjectVersion
1070
     0
  0
DICTIONARYVAR
  5
1099
102
{ACAD_REACTORS
330
3D
102
}
330
3D
100
DictionaryVariables
280
     0
  1
1:1
  0
DICTIONARYVAR
  5
1098
102
{ACAD_REACTORS
330
3D
102
}
330
3D
100
DictionaryVariables
280
     0
  1
STANDARD
  0
DICTIONARYVAR
  5
100E
102
{ACAD_REACTORS
330
3D
102
}
330
3D
100
DictionaryVariables
280
     0
  1
STANDARD
  0
DICTIONARYVAR
  5
3F
102
{ACAD_REACTORS
330
3D
102
}
330
3D
100
DictionaryVariables
280
     0
  1
2
  0
DICTIONARYVAR
  5
3E
102
{ACAD_REACTORS
330
3D
102
}
330
3D
100
DictionaryVariables
280
     0
  1
1
  0
DICTIONARYVAR
  5
109B
102
{ACAD_REACTORS
330
3D
102
}
330
3D
100
DictionaryVariables
280
     0
  1
0
  0
DICTIONARYVAR
  5
1031
102
{ACAD_REACTORS
330
3D
102
}
330
3D
100
DictionaryVariables
280
     0
  1

  0
DICTIONARYVAR
  5
109A
102
{ACAD_REACTORS
330
3D
102
}
330
3D
100
DictionaryVariables
280
     0
  1
127
  0
DICTIONARYVAR
  5
109C
102
{ACAD_REACTORS
330
3D
102
}
330
3D
100
DictionaryVariables
280
     0
  1
2
  0
XRECORD
  5
B80
102
{ACAD_REACTORS
330
B7F
102
}
330
B7F
100
AcDbXrecord
280
     1
330
0
330
0
  0
DICTIONARY
  5
10A1
330
1E
100
AcDbDictionary
280
     1
281
     1
  3
ACAD_XREC_ROUNDTRIP
360
10A2
  0
DICTIONARY
  5
10A5
330
26
100
AcDbDictionary
280
     1
281
     1
  3
ACAD_XREC_ROUNDTRIP
360
10A6
  0
DICTIONARY
  5
10A3
330
22
100
AcDbDictionary
280
     1
281
     1
  3
ACAD_XREC_ROUNDTRIP
360
10A4
  0
DICTIONARY
  5
103C
330
103B
100
AcDbDictionary
280
     1
281
     1
  3
ACAD_XREC_ROUNDTRIP
360
10A9
  3
BUMPTILE
360
103E
  3
DIFFUSETILE
360
103D
  3
OPACITYTILE
360
1041
  3
REFLECTIONTILE
360
1040
  3
REFRACTIONTILE
360
1042
  3
SPECULARTILE
360
103F
  0
DICTIONARY
  5
1034
330
1033
100
AcDbDictionary
280
     1
281
     1
  3
ACAD_XREC_ROUNDTRIP
360
10A8
  3
BUMPTILE
360
1036
  3
DIFFUSETILE
360
1035
  3
OPACITYTILE
360
1039
  3
REFLECTIONTILE
360
1038
  3
REFRACTIONTILE
360
103A
  3
SPECULARTILE
360
1037
  0
DICTIONARY
  5
1044
330
1043
100
AcDbDictionary
280
     1
281
     1
  3
ACAD_XREC_ROUNDTRIP
360
10AA
  3
BUMPTILE
360
1046
  3
DIFFUSETILE
360
1045
  3
OPACITYTILE
360
1049
  3
REFLECTIONTILE
360
1048
  3
REFRACTIONTILE
360
104A
  3
SPECULARTILE
360
1047
  0
DICTIONARY
  5
109D
330
1001
100
AcDbDictionary
280
     1
281
     1
  3
ACAD_ROUNDTRIP_2008_TABLESTYLE_CELLSTYLEMAP
360
109E
  3
ACAD_XREC_ROUNDTRIP
360
10A7
  0
DICTIONARY
  5
10B5
330
1051
100
AcDbDictionary
280
     1
281
     1
  3
ACAD_XREC_ROUNDTRIP
360
10B6
  0
DICTIONARY
  5
10B9
330
1053
100
AcDbDictionary
280
     1
281
     1
  3
ACAD_XREC_ROUNDTRIP
360
10BA
  0
DICTIONARY
  5
10B7
330
1052
100
AcDbDictionary
280
     1
281
     1
  3
ACAD_XREC_ROUNDTRIP
360
10B8
  0
DICTIONARY
  5
10B3
330
1050
100
AcDbDictionary
280
     1
281
     1
  3
ACAD_XREC_ROUNDTRIP
360
10B4
  0
DICTIONARY
  5
10C1
330
1057
100
AcDbDictionary
280
     1
281
     1
  3
ACAD_XREC_ROUNDTRIP
360
10C2
  0
DICTIONARY
  5
10C9
330
105B
100
AcDbDictionary
280
     1
281
     1
  3
ACAD_XREC_ROUNDTRIP
360
10CA
  0
DICTIONARY
  5
10BB
330
1054
100
AcDbDictionary
280
     1
281
     1
  3
ACAD_XREC_ROUNDTRIP
360
10BC
  0
DICTIONARY
  5
10BF
330
1056
100
AcDbDictionary
280
     1
281
     1
  3
ACAD_XREC_ROUNDTRIP
360
10C0
  0
DICTIONARY
  5
10CF
330
105E
100
AcDbDictionary
280
     1
281
     1
  3
ACAD_XREC_ROUNDTRIP
360
10D0
  0
DICTIONARY
  5
10C7
330
105A
100
AcDbDictionary
280
     1
281
     1
  3
ACAD_XREC_ROUNDTRIP
360
10C8
  0
DICTIONARY
  5
10AB
330
104C
100
AcDbDictionary
280
     1
281
     1
  3
ACAD_XREC_ROUNDTRIP
360
10AC
  0
DICTIONARY
  5
10AD
330
104D
100
AcDbDictionary
280
     1
281
     1
  3
ACAD_XREC_ROUNDTRIP
360
10AE
  0
DICTIONARY
  5
10AF
330
104E
100
AcDbDictionary
280
     1
281
     1
  3
ACAD_XREC_ROUNDTRIP
360
10B0
  0
DICTIONARY
  5
10B1
330
104F
100
AcDbDictionary
280
     1
281
     1
  3
ACAD_XREC_ROUNDTRIP
360
10B2
  0
DICTIONARY
  5
10CB
330
105C
100
AcDbDictionary
280
     1
281
     1
  3
ACAD_XREC_ROUNDTRIP
360
10CC
  0
DICTIONARY
  5
10C5
330
1059
100
AcDbDictionary
280
     1
281
     1
  3
ACAD_XREC_ROUNDTRIP
360
10C6
  0
DICTIONARY
  5
10CD
330
105D
100
AcDbDictionary
280
     1
281
     1
  3
ACAD_XREC_ROUNDTRIP
360
10CE
  0
DICTIONARY
  5
10BD
330
1055
100
AcDbDictionary
280
     1
281
     1
  3
ACAD_XREC_ROUNDTRIP
360
10BE
  0
DICTIONARY
  5
10C3
330
1058
100
AcDbDictionary
280
     1
281
     1
  3
ACAD_XREC_ROUNDTRIP
360
10C4
  0
XRECORD
  5
10A2
102
{ACAD_REACTORS
330
10A1
102
}
330
10A1
100
AcDbXrecord
280
     1
102
SHADEPLOT
 70
     0
102
SHADEPLOTRESLEVEL
 70
     2
102
SHADEPLOTCUSTOMDPI
 70
   300
  0
XRECORD
  5
10A6
102
{ACAD_REACTORS
330
10A5
102
}
330
10A5
100
AcDbXrecord
280
     1
102
SHADEPLOT
 70
     0
102
SHADEPLOTRESLEVEL
 70
     2
102
SHADEPLOTCUSTOMDPI
 70
   300
  0
XRECORD
  5
10A4
102
{ACAD_REACTORS
330
10A3
102
}
330
10A3
100
AcDbXrecord
280
     1
102
SHADEPLOT
 70
     0
102
SHADEPLOTRESLEVEL
 70
     2
102
SHADEPLOTCUSTOMDPI
 70
   300
  0
XRECORD
  5
10A9
102
{ACAD_REACTORS
330
103C
102
}
330
103C
100
AcDbXrecord
280
     1
102
MATERIAL
148
0.0
149
0.0
149
0.0
 93
        0
 94
      127
282
     0
 72
     0
 77
     0
171
     0
175
     0
179
     0
273
     0
  0
XRECORD
  5
103E
102
{ACAD_REACTORS
330
103C
102
}
330
103C
100
AcDbXrecord
280
     1
270
     1
271
     1
  0
XRECORD
  5
103D
102
{ACAD_REACTORS
330
103C
102
}
330
103C
100
AcDbXrecord
280
     1
270
     1
271
     1
  0
XRECORD
  5
1041
102
{ACAD_REACTORS
330
103C
102
}
330
103C
100
AcDbXrecord
280
     1
270
     1
271
     1
  0
XRECORD
  5
1040
102
{ACAD_REACTORS
330
103C
102
}
330
103C
100
AcDbXrecord
280
     1
270
     1
271
     1
  0
XRECORD
  5
1042
102
{ACAD_REACTORS
330
103C
102
}
330
103C
100
AcDbXrecord
280
     1
270
     1
271
     1
  0
XRECORD
  5
103F
102
{ACAD_REACTORS
330
103C
102
}
330
103C
100
AcDbXrecord
280
     1
270
     1
271
     1
  0
XRECORD
  5
10A8
102
{ACAD_REACTORS
330
1034
102
}
330
1034
100
AcDbXrecord
280
     1
102
MATERIAL
148
0.0
149
0.0
149
0.0
 93
        0
 94
      127
282
     0
 72
     0
 77
     0
171
     0
175
     0
179
     0
273
     0
  0
XRECORD
  5
1036
102
{ACAD_REACTORS
330
1034
102
}
330
1034
100
AcDbXrecord
280
     1
270
     1
271
     1
  0
XRECORD
  5
1035
102
{ACAD_REACTORS
330
1034
102
}
330
1034
100
AcDbXrecord
280
     1
270
     1
271
     1
  0
XRECORD
  5
1039
102
{ACAD_REACTORS
330
1034
102
}
330
1034
100
AcDbXrecord
280
     1
270
     1
271
     1
  0
XRECORD
  5
1038
102
{ACAD_REACTORS
330
1034
102
}
330
1034
100
AcDbXrecord
280
     1
270
     1
271
     1
  0
XRECORD
  5
103A
102
{ACAD_REACTORS
330
1034
102
}
330
1034
100
AcDbXrecord
280
     1
270
     1
271
     1
  0
XRECORD
  5
1037
102
{ACAD_REACTORS
330
1034
102
}
330
1034
100
AcDbXrecord
280
     1
270
     1
271
     1
  0
XRECORD
  5
10AA
102
{ACAD_REACTORS
330
1044
102
}
330
1044
100
AcDbXrecord
280
     1
102
MATERIAL
148
0.0
149
0.0
149
0.0
 93
        0
 94
      127
282
     0
 72
     0
 77
     0
171
     0
175
     0
179
     0
273
     0
  0
XRECORD
  5
1046
102
{ACAD_REACTORS
330
1044
102
}
330
1044
100
AcDbXrecord
280
     1
270
     1
271
     1
  0
XRECORD
  5
1045
102
{ACAD_REACTORS
330
1044
102
}
330
1044
100
AcDbXrecord
280
     1
270
     1
271
     1
  0
XRECORD
  5
1049
102
{ACAD_REACTORS
330
1044
102
}
330
1044
100
AcDbXrecord
280
     1
270
     1
271
     1
  0
XRECORD
  5
1048
102
{ACAD_REACTORS
330
1044
102
}
330
1044
100
AcDbXrecord
280
     1
270
     1
271
     1
  0
XRECORD
  5
104A
102
{ACAD_REACTORS
330
1044
102
}
330
1044
100
AcDbXrecord
280
     1
270
     1
271
     1
  0
XRECORD
  5
1047
102
{ACAD_REACTORS
330
1044
102
}
330
1044
100
AcDbXrecord
280
     1
270
     1
271
     1
  0
CELLSTYLEMAP
  5
109E
102
{ACAD_REACTORS
330
109D
102
}
330
109D
100
AcDbCellStyleMap
 90
        3
300
CELLSTYLE
  1
TABLEFORMAT_BEGIN
 90
        5
170
     1
 91
        0
 92
    32768
 62
   257
 93
        1
300
CONTENTFORMAT
  1
CONTENTFORMAT_BEGIN
 90
        0
 91
        0
 92
        4
 93
        0
300

 40
0.0
140
1.0
 94
        5
 62
     0
340
11
144
6.0
309
CONTENTFORMAT_END
171
     1
301
MARGIN
  1
CELLMARGIN_BEGIN
 40
1.5
 40
1.5
 40
1.5
 40
1.5
 40
0.18
 40
0.18
309
CELLMARGIN_END
 94
        6
 95
        1
302
GRIDFORMAT
  1
GRIDFORMAT_BEGIN
 90
        0
 91
        1
 62
     0
 92
       -2
340
0
 93
        0
 40
0.045
309
GRIDFORMAT_END
 95
        2
302
GRIDFORMAT
  1
GRIDFORMAT_BEGIN
 90
        0
 91
        1
 62
     0
 92
       -2
340
0
 93
        0
 40
0.045
309
GRIDFORMAT_END
 95
        4
302
GRIDFORMAT
  1
GRIDFORMAT_BEGIN
 90
        0
 91
        1
 62
     0
 92
       -2
340
0
 93
        0
 40
0.045
309
GRIDFORMAT_END
 95
        8
302
GRIDFORMAT
  1
GRIDFORMAT_BEGIN
 90
        0
 91
        1
 62
     0
 92
       -2
340
0
 93
        0
 40
0.045
309
GRIDFORMAT_END
 95
       16
302
GRIDFORMAT
  1
GRIDFORMAT_BEGIN
 90
        0
 91
        1
 62
     0
 92
       -2
340
0
 93
        0
 40
0.045
309
GRIDFORMAT_END
 95
       32
302
GRIDFORMAT
  1
GRIDFORMAT_BEGIN
 90
        0
 91
        1
 62
     0
 92
       -2
340
0
 93
        0
 40
0.045
309
GRIDFORMAT_END
309
TABLEFORMAT_END
  1
CELLSTYLE_BEGIN
 90
        1
 91
        1
300
_TITLE
309
CELLSTYLE_END
300
CELLSTYLE
  1
TABLEFORMAT_BEGIN
 90
        5
170
     1
 91
        0
 92
        0
 62
   257
 93
        1
300
CONTENTFORMAT
  1
CONTENTFORMAT_BEGIN
 90
        0
 91
        0
 92
        4
 93
        0
300

 40
0.0
140
1.0
 94
        5
 62
     0
340
11
144
4.5
309
CONTENTFORMAT_END
171
     1
301
MARGIN
  1
CELLMARGIN_BEGIN
 40
1.5
 40
1.5
 40
1.5
 40
1.5
 40
0.18
 40
0.18
309
CELLMARGIN_END
 94
        6
 95
        1
302
GRIDFORMAT
  1
GRIDFORMAT_BEGIN
 90
        0
 91
        1
 62
     0
 92
       -2
340
0
 93
        0
 40
0.045
309
GRIDFORMAT_END
 95
        2
302
GRIDFORMAT
  1
GRIDFORMAT_BEGIN
 90
        0
 91
        1
 62
     0
 92
       -2
340
0
 93
        0
 40
0.045
309
GRIDFORMAT_END
 95
        4
302
GRIDFORMAT
  1
GRIDFORMAT_BEGIN
 90
        0
 91
        1
 62
     0
 92
       -2
340
0
 93
        0
 40
0.045
309
GRIDFORMAT_END
 95
        8
302
GRIDFORMAT
  1
GRIDFORMAT_BEGIN
 90
        0
 91
        1
 62
     0
 92
       -2
340
0
 93
        0
 40
0.045
309
GRIDFORMAT_END
 95
       16
302
GRIDFORMAT
  1
GRIDFORMAT_BEGIN
 90
        0
 91
        1
 62
     0
 92
       -2
340
0
 93
        0
 40
0.045
309
GRIDFORMAT_END
 95
       32
302
GRIDFORMAT
  1
GRIDFORMAT_BEGIN
 90
        0
 91
        1
 62
     0
 92
       -2
340
0
 93
        0
 40
0.045
309
GRIDFORMAT_END
309
TABLEFORMAT_END
  1
CELLSTYLE_BEGIN
 90
        2
 91
        1
300
_HEADER
309
CELLSTYLE_END
300
CELLSTYLE
  1
TABLEFORMAT_BEGIN
 90
        5
170
     1
 91
        0
 92
        0
 62
   257
 93
        1
300
CONTENTFORMAT
  1
CONTENTFORMAT_BEGIN
 90
        0
 91
        0
 92
        4
 93
        0
300

 40
0.0
140
1.0
 94
        2
 62
     0
340
11
144
4.5
309
CONTENTFORMAT_END
171
     1
301
MARGIN
  1
CELLMARGIN_BEGIN
 40
1.5
 40
1.5
 40
1.5
 40
1.5
 40
0.18
 40
0.18
309
CELLMARGIN_END
 94
        6
 95
        1
302
GRIDFORMAT
  1
GRIDFORMAT_BEGIN
 90
        0
 91
        1
 62
     0
 92
       -2
340
0
 93
        0
 40
0.045
309
GRIDFORMAT_END
 95
        2
302
GRIDFORMAT
  1
GRIDFORMAT_BEGIN
 90
        0
 91
        1
 62
     0
 92
       -2
340
0
 93
        0
 40
0.045
309
GRIDFORMAT_END
 95
        4
302
GRIDFORMAT
  1
GRIDFORMAT_BEGIN
 90
        0
 91
        1
 62
     0
 92
       -2
340
0
 93
        0
 40
0.045
309
GRIDFORMAT_END
 95
        8
302
GRIDFORMAT
  1
GRIDFORMAT_BEGIN
 90
        0
 91
        1
 62
     0
 92
       -2
340
0
 93
        0
 40
0.045
309
GRIDFORMAT_END
 95
       16
302
GRIDFORMAT
  1
GRIDFORMAT_BEGIN
 90
        0
 91
        1
 62
     0
 92
       -2
340
0
 93
        0
 40
0.045
309
GRIDFORMAT_END
 95
       32
302
GRIDFORMAT
  1
GRIDFORMAT_BEGIN
 90
        0
 91
        1
 62
     0
 92
       -2
340
0
 93
        0
 40
0.045
309
GRIDFORMAT_END
309
TABLEFORMAT_END
  1
CELLSTYLE_BEGIN
 90
        3
 91
        2
300
_DATA
309
CELLSTYLE_END
  0
XRECORD
  5
10A7
102
{ACAD_REACTORS
330
109D
102
}
330
109D
100
AcDbXrecord
280
     1
102
ACAD_ROUNDTRIP_PRE2007_TABLESTYLE
 90
        4
 91
        0
  1

 92
        4
 93
        0
  2

 94
        4
 95
        0
  3

  0
XRECORD
  5
10B6
102
{ACAD_REACTORS
330
10B5
102
}
330
10B5
100
AcDbXrecord
280
     1
102
RTVSPropertyOp0
 70
     1
102
RTVSPropertyOp1
 70
     1
102
RTVSPropertyOp2
 70
     1
102
RTVSPropertyOp3
 70
     1
102
RTVSPropertyOp4
 70
     1
102
RTVSPropertyOp5
 70
     1
102
RTVSPropertyOp6
 70
     1
102
RTVSPropertyOp7
 70
     1
102
RTVSPropertyOp8
 70
     1
102
RTVSPropertyOp9
 70
     1
102
RTVSPropertyOp10
 70
     1
102
RTVSPropertyOp11
 70
     1
102
RTVSPropertyOp12
 70
     1
102
RTVSPropertyOp13
 70
     1
102
RTVSPropertyOp14
 70
     1
102
RTVSPropertyOp15
 70
     1
102
RTVSPropertyOp16
 70
     1
102
RTVSPropertyOp17
 70
     1
102
RTVSPropertyOp18
 70
     1
102
RTVSPropertyOp19
 70
     1
102
RTVSPropertyOp20
 70
     1
102
RTVSPropertyOp21
 70
     1
102
RTVSPropertyOp22
 70
     1
102
RTVSPropertyOp23
 70
     1
102
RTVSPropertyOp24
 70
     1
102
RTVSPropertyOp25
 70
     1
102
RTVSPropertyOp26
 70
     1
102
RTVSPropertyOp27
 70
     1
  0
XRECORD
  5
10BA
102
{ACAD_REACTORS
330
10B9
102
}
330
10B9
100
AcDbXrecord
280
     1
102
RTVSPropertyOp0
 70
     1
102
RTVSPropertyOp1
 70
     1
102
RTVSPropertyOp2
 70
     1
102
RTVSPropertyOp3
 70
     1
102
RTVSPropertyOp4
 70
     1
102
RTVSPropertyOp5
 70
     1
102
RTVSPropertyOp6
 70
     1
102
RTVSPropertyOp7
 70
     1
102
RTVSPropertyOp8
 70
     1
102
RTVSPropertyOp9
 70
     1
102
RTVSPropertyOp10
 70
     1
102
RTVSPropertyOp11
 70
     1
102
RTVSPropertyOp12
 70
     1
102
RTVSPropertyOp13
 70
     1
102
RTVSPropertyOp14
 70
     1
102
RTVSPropertyOp15
 70
     1
102
RTVSPropertyOp16
 70
     1
102
RTVSPropertyOp17
 70
     1
102
RTVSPropertyOp18
 70
     1
102
RTVSPropertyOp19
 70
     1
102
RTVSPropertyOp20
 70
     1
102
RTVSPropertyOp21
 70
     1
102
RTVSPropertyOp22
 70
     1
102
RTVSPropertyOp23
 70
     1
102
RTVSPropertyOp24
 70
     1
102
RTVSPropertyOp25
 70
     1
102
RTVSPropertyOp26
 70
     1
102
RTVSPropertyOp27
 70
     1
  0
XRECORD
  5
10B8
102
{ACAD_REACTORS
330
10B7
102
}
330
10B7
100
AcDbXrecord
280
     1
102
RTVSPropertyOp0
 70
     1
102
RTVSPropertyOp1
 70
     1
102
RTVSPropertyOp2
 70
     1
102
RTVSPropertyOp3
 70
     1
102
RTVSPropertyOp4
 70
     1
102
RTVSPropertyOp5
 70
     1
102
RTVSPropertyOp6
 70
     1
102
RTVSPropertyOp7
 70
     1
102
RTVSPropertyOp8
 70
     1
102
RTVSPropertyOp9
 70
     1
102
RTVSPropertyOp10
 70
     1
102
RTVSPropertyOp11
 70
     1
102
RTVSPropertyOp12
 70
     1
102
RTVSPropertyOp13
 70
     1
102
RTVSPropertyOp14
 70
     1
102
RTVSPropertyOp15
 70
     1
102
RTVSPropertyOp16
 70
     1
102
RTVSPropertyOp17
 70
     1
102
RTVSPropertyOp18
 70
     1
102
RTVSPropertyOp19
 70
     1
102
RTVSPropertyOp20
 70
     1
102
RTVSPropertyOp21
 70
     1
102
RTVSPropertyOp22
 70
     1
102
RTVSPropertyOp23
 70
     1
102
RTVSPropertyOp24
 70
     1
102
RTVSPropertyOp25
 70
     1
102
RTVSPropertyOp26
 70
     1
102
RTVSPropertyOp27
 70
     1
  0
XRECORD
  5
10B4
102
{ACAD_REACTORS
330
10B3
102
}
330
10B3
100
AcDbXrecord
280
     1
102
RTVSPropertyOp0
 70
     1
102
RTVSPropertyOp1
 70
     1
102
RTVSPropertyOp2
 70
     1
102
RTVSPropertyOp3
 70
     1
102
RTVSPropertyOp4
 70
     1
102
RTVSPropertyOp5
 70
     1
102
RTVSPropertyOp6
 70
     1
102
RTVSPropertyOp7
 70
     1
102
RTVSPropertyOp8
 70
     1
102
RTVSPropertyOp9
 70
     1
102
RTVSPropertyOp10
 70
     1
102
RTVSPropertyOp11
 70
     1
102
RTVSPropertyOp12
 70
     1
102
RTVSPropertyOp13
 70
     1
102
RTVSPropertyOp14
 70
     1
102
RTVSPropertyOp15
 70
     1
102
RTVSPropertyOp16
 70
     1
102
RTVSPropertyOp17
 70
     1
102
RTVSPropertyOp18
 70
     1
102
RTVSPropertyOp19
 70
     1
102
RTVSPropertyOp20
 70
     1
102
RTVSPropertyOp21
 70
     1
102
RTVSPropertyOp22
 70
     1
102
RTVSPropertyOp23
 70
     1
102
RTVSPropertyOp24
 70
     1
102
RTVSPropertyOp25
 70
     1
102
RTVSPropertyOp26
 70
     1
102
RTVSPropertyOp27
 70
     1
  0
XRECORD
  5
10C2
102
{ACAD_REACTORS
330
10C1
102
}
330
10C1
100
AcDbXrecord
280
     1
102
RTVSPropertyOp0
 70
     1
102
RTVSPropertyOp1
 70
     1
102
RTVSPropertyOp2
 70
     1
102
RTVSPropertyOp3
 70
     1
102
RTVSPropertyOp4
 70
     1
102
RTVSPropertyOp5
 70
     1
102
RTVSPropertyOp6
 70
     1
102
RTVSPropertyOp7
 70
     1
102
RTVSPropertyOp8
 70
     1
102
RTVSPropertyOp9
 70
     1
102
RTVSPropertyOp10
 70
     1
102
RTVSPropertyOp11
 70
     1
102
RTVSPropertyOp12
 70
     1
102
RTVSPropertyOp13
 70
     1
102
RTVSPropertyOp14
 70
     1
102
RTVSPropertyOp15
 70
     1
102
RTVSPropertyOp16
 70
     1
102
RTVSPropertyOp17
 70
     1
102
RTVSPropertyOp18
 70
     1
102
RTVSPropertyOp19
 70
     1
102
RTVSPropertyOp20
 70
     1
102
RTVSPropertyOp21
 70
     1
102
RTVSPropertyOp22
 70
     1
102
RTVSPropertyOp23
 70
     1
102
RTVSPropertyOp24
 70
     1
102
RTVSPropertyOp25
 70
     1
102
RTVSPropertyOp26
 70
     1
102
RTVSPropertyOp27
 70
     1
  0
XRECORD
  5
10CA
102
{ACAD_REACTORS
330
10C9
102
}
330
10C9
100
AcDbXrecord
280
     1
102
RTVSPropertyOp0
 70
     1
102
RTVSPropertyOp1
 70
     1
102
RTVSPropertyOp2
 70
     1
102
RTVSPropertyOp3
 70
     1
102
RTVSPropertyOp4
 70
     1
102
RTVSPropertyOp5
 70
     1
102
RTVSPropertyOp6
 70
     1
102
RTVSPropertyOp7
 70
     1
102
RTVSPropertyOp8
 70
     1
102
RTVSPropertyOp9
 70
     1
102
RTVSPropertyOp10
 70
     1
102
RTVSPropertyOp11
 70
     1
102
RTVSPropertyOp12
 70
     1
102
RTVSPropertyOp13
 70
     1
102
RTVSPropertyOp14
 70
     1
102
RTVSPropertyOp15
 70
     1
102
RTVSPropertyOp16
 70
     1
102
RTVSPropertyOp17
 70
     1
102
RTVSPropertyOp18
 70
     1
102
RTVSPropertyOp19
 70
     1
102
RTVSPropertyOp20
 70
     1
102
RTVSPropertyOp21
 70
     1
102
RTVSPropertyOp22
 70
     1
102
RTVSPropertyOp23
 70
     1
102
RTVSPropertyOp24
 70
     1
102
RTVSPropertyOp25
 70
     1
102
RTVSPropertyOp26
 70
     1
102
RTVSPropertyOp27
 70
     1
  0
XRECORD
  5
10BC
102
{ACAD_REACTORS
330
10BB
102
}
330
10BB
100
AcDbXrecord
280
     1
102
RTVSPropertyOp0
 70
     1
102
RTVSPropertyOp1
 70
     1
102
RTVSPropertyOp2
 70
     1
102
RTVSPropertyOp3
 70
     1
102
RTVSPropertyOp4
 70
     1
102
RTVSPropertyOp5
 70
     1
102
RTVSPropertyOp6
 70
     1
102
RTVSPropertyOp7
 70
     1
102
RTVSPropertyOp8
 70
     1
102
RTVSPropertyOp9
 70
     1
102
RTVSPropertyOp10
 70
     1
102
RTVSPropertyOp11
 70
     1
102
RTVSPropertyOp12
 70
     1
102
RTVSPropertyOp13
 70
     1
102
RTVSPropertyOp14
 70
     1
102
RTVSPropertyOp15
 70
     1
102
RTVSPropertyOp16
 70
     1
102
RTVSPropertyOp17
 70
     1
102
RTVSPropertyOp18
 70
     1
102
RTVSPropertyOp19
 70
     1
102
RTVSPropertyOp20
 70
     1
102
RTVSPropertyOp21
 70
     1
102
RTVSPropertyOp22
 70
     1
102
RTVSPropertyOp23
 70
     1
102
RTVSPropertyOp24
 70
     1
102
RTVSPropertyOp25
 70
     1
102
RTVSPropertyOp26
 70
     1
102
RTVSPropertyOp27
 70
     1
  0
XRECORD
  5
10C0
102
{ACAD_REACTORS
330
10BF
102
}
330
10BF
100
AcDbXrecord
280
     1
102
RTVSPropertyOp0
 70
     1
102
RTVSPropertyOp1
 70
     1
102
RTVSPropertyOp2
 70
     1
102
RTVSPropertyOp3
 70
     1
102
RTVSPropertyOp4
 70
     1
102
RTVSPropertyOp5
 70
     1
102
RTVSPropertyOp6
 70
     1
102
RTVSPropertyOp7
 70
     1
102
RTVSPropertyOp8
 70
     1
102
RTVSPropertyOp9
 70
     1
102
RTVSPropertyOp10
 70
     1
102
RTVSPropertyOp11
 70
     1
102
RTVSPropertyOp12
 70
     1
102
RTVSPropertyOp13
 70
     1
102
RTVSPropertyOp14
 70
     1
102
RTVSPropertyOp15
 70
     1
102
RTVSPropertyOp16
 70
     1
102
RTVSPropertyOp17
 70
     1
102
RTVSPropertyOp18
 70
     1
102
RTVSPropertyOp19
 70
     1
102
RTVSPropertyOp20
 70
     1
102
RTVSPropertyOp21
 70
     1
102
RTVSPropertyOp22
 70
     1
102
RTVSPropertyOp23
 70
     1
102
RTVSPropertyOp24
 70
     1
102
RTVSPropertyOp25
 70
     1
102
RTVSPropertyOp26
 70
     1
102
RTVSPropertyOp27
 70
     1
  0
XRECORD
  5
10D0
102
{ACAD_REACTORS
330
10CF
102
}
330
10CF
100
AcDbXrecord
280
     1
102
RTVSPropertyOp0
 70
     0
102
RTVSPropertyOp1
 70
     0
102
RTVSPropertyOp2
 70
     0
102
RTVSPropertyOp3
 70
     0
102
RTVSPropertyOp4
 70
     0
102
RTVSPropertyOp5
 70
     0
102
RTVSPropertyOp6
 70
     0
102
RTVSPropertyOp7
 70
     0
102
RTVSPropertyOp8
 70
     0
102
RTVSPropertyOp9
 70
     0
102
RTVSPropertyOp10
 70
     0
102
RTVSPropertyOp11
 70
     0
102
RTVSPropertyOp12
 70
     0
102
RTVSPropertyOp13
 70
     0
102
RTVSPropertyOp14
 70
     2
102
RTVSPropertyOp15
 70
     0
102
RTVSPropertyOp16
 70
     0
102
RTVSPropertyOp17
 70
     0
102
RTVSPropertyOp18
 70
     0
102
RTVSPropertyOp19
 70
     0
102
RTVSPropertyOp20
 70
     0
102
RTVSPropertyOp21
 70
     0
102
RTVSPropertyOp22
 70
     0
102
RTVSPropertyOp23
 70
     0
102
RTVSPropertyOp24
 70
     0
102
RTVSPropertyOp25
 70
     0
102
RTVSPropertyOp26
 70
     0
102
RTVSPropertyOp27
 70
     0
  0
XRECORD
  5
10C8
102
{ACAD_REACTORS
330
10C7
102
}
330
10C7
100
AcDbXrecord
280
     1
102
RTVSPropertyOp0
 70
     1
102
RTVSPropertyOp1
 70
     1
102
RTVSPropertyOp2
 70
     1
102
RTVSPropertyOp3
 70
     1
102
RTVSPropertyOp4
 70
     1
102
RTVSPropertyOp5
 70
     1
102
RTVSPropertyOp6
 70
     1
102
RTVSPropertyOp7
 70
     1
102
RTVSPropertyOp8
 70
     1
102
RTVSPropertyOp9
 70
     1
102
RTVSPropertyOp10
 70
     1
102
RTVSPropertyOp11
 70
     1
102
RTVSPropertyOp12
 70
     1
102
RTVSPropertyOp13
 70
     1
102
RTVSPropertyOp14
 70
     1
102
RTVSPropertyOp15
 70
     1
102
RTVSPropertyOp16
 70
     1
102
RTVSPropertyOp17
 70
     1
102
RTVSPropertyOp18
 70
     1
102
RTVSPropertyOp19
 70
     1
102
RTVSPropertyOp20
 70
     1
102
RTVSPropertyOp21
 70
     1
102
RTVSPropertyOp22
 70
     1
102
RTVSPropertyOp23
 70
     1
102
RTVSPropertyOp24
 70
     1
102
RTVSPropertyOp25
 70
     1
102
RTVSPropertyOp26
 70
     1
102
RTVSPropertyOp27
 70
     1
  0
XRECORD
  5
10AC
102
{ACAD_REACTORS
330
10AB
102
}
330
10AB
100
AcDbXrecord
280
     1
102
RTVSPropertyOp0
 70
     1
102
RTVSPropertyOp1
 70
     1
102
RTVSPropertyOp2
 70
     1
102
RTVSPropertyOp3
 70
     1
102
RTVSPropertyOp4
 70
     1
102
RTVSPropertyOp5
 70
     1
102
RTVSPropertyOp6
 70
     1
102
RTVSPropertyOp7
 70
     1
102
RTVSPropertyOp8
 70
     1
102
RTVSPropertyOp9
 70
     1
102
RTVSPropertyOp10
 70
     1
102
RTVSPropertyOp11
 70
     1
102
RTVSPropertyOp12
 70
     1
102
RTVSPropertyOp13
 70
     1
102
RTVSPropertyOp14
 70
     1
102
RTVSPropertyOp15
 70
     1
102
RTVSPropertyOp16
 70
     1
102
RTVSPropertyOp17
 70
     1
102
RTVSPropertyOp18
 70
     1
102
RTVSPropertyOp19
 70
     1
102
RTVSPropertyOp20
 70
     1
102
RTVSPropertyOp21
 70
     1
102
RTVSPropertyOp22
 70
     1
102
RTVSPropertyOp23
 70
     1
102
RTVSPropertyOp24
 70
     1
102
RTVSPropertyOp25
 70
     1
102
RTVSPropertyOp26
 70
     1
102
RTVSPropertyOp27
 70
     1
  0
XRECORD
  5
10AE
102
{ACAD_REACTORS
330
10AD
102
}
330
10AD
100
AcDbXrecord
280
     1
102
RTVSPropertyOp0
 70
     1
102
RTVSPropertyOp1
 70
     1
102
RTVSPropertyOp2
 70
     1
102
RTVSPropertyOp3
 70
     1
102
RTVSPropertyOp4
 70
     1
102
RTVSPropertyOp5
 70
     1
102
RTVSPropertyOp6
 70
     1
102
RTVSPropertyOp7
 70
     1
102
RTVSPropertyOp8
 70
     1
102
RTVSPropertyOp9
 70
     1
102
RTVSPropertyOp10
 70
     1
102
RTVSPropertyOp11
 70
     1
102
RTVSPropertyOp12
 70
     1
102
RTVSPropertyOp13
 70
     1
102
RTVSPropertyOp14
 70
     1
102
RTVSPropertyOp15
 70
     1
102
RTVSPropertyOp16
 70
     1
102
RTVSPropertyOp17
 70
     1
102
RTVSPropertyOp18
 70
     1
102
RTVSPropertyOp19
 70
     1
102
RTVSPropertyOp20
 70
     1
102
RTVSPropertyOp21
 70
     1
102
RTVSPropertyOp22
 70
     1
102
RTVSPropertyOp23
 70
     1
102
RTVSPropertyOp24
 70
     1
102
RTVSPropertyOp25
 70
     1
102
RTVSPropertyOp26
 70
     1
102
RTVSPropertyOp27
 70
     1
  0
XRECORD
  5
10B0
102
{ACAD_REACTORS
330
10AF
102
}
330
10AF
100
AcDbXrecord
280
     1
102
RTVSPropertyOp0
 70
     1
102
RTVSPropertyOp1
 70
     1
102
RTVSPropertyOp2
 70
     1
102
RTVSPropertyOp3
 70
     1
102
RTVSPropertyOp4
 70
     1
102
RTVSPropertyOp5
 70
     1
102
RTVSPropertyOp6
 70
     1
102
RTVSPropertyOp7
 70
     1
102
RTVSPropertyOp8
 70
     1
102
RTVSPropertyOp9
 70
     1
102
RTVSPropertyOp10
 70
     1
102
RTVSPropertyOp11
 70
     1
102
RTVSPropertyOp12
 70
     1
102
RTVSPropertyOp13
 70
     1
102
RTVSPropertyOp14
 70
     1
102
RTVSPropertyOp15
 70
     1
102
RTVSPropertyOp16
 70
     1
102
RTVSPropertyOp17
 70
     1
102
RTVSPropertyOp18
 70
     1
102
RTVSPropertyOp19
 70
     1
102
RTVSPropertyOp20
 70
     1
102
RTVSPropertyOp21
 70
     1
102
RTVSPropertyOp22
 70
     1
102
RTVSPropertyOp23
 70
     1
102
RTVSPropertyOp24
 70
     1
102
RTVSPropertyOp25
 70
     1
102
RTVSPropertyOp26
 70
     1
102
RTVSPropertyOp27
 70
     1
  0
XRECORD
  5
10B2
102
{ACAD_REACTORS
330
10B1
102
}
330
10B1
100
AcDbXrecord
280
     1
102
RTVSPropertyOp0
 70
     1
102
RTVSPropertyOp1
 70
     1
102
RTVSPropertyOp2
 70
     1
102
RTVSPropertyOp3
 70
     1
102
RTVSPropertyOp4
 70
     1
102
RTVSPropertyOp5
 70
     1
102
RTVSPropertyOp6
 70
     1
102
RTVSPropertyOp7
 70
     1
102
RTVSPropertyOp8
 70
     1
102
RTVSPropertyOp9
 70
     1
102
RTVSPropertyOp10
 70
     1
102
RTVSPropertyOp11
 70
     1
102
RTVSPropertyOp12
 70
     1
102
RTVSPropertyOp13
 70
     1
102
RTVSPropertyOp14
 70
     1
102
RTVSPropertyOp15
 70
     1
102
RTVSPropertyOp16
 70
     1
102
RTVSPropertyOp17
 70
     1
102
RTVSPropertyOp18
 70
     1
102
RTVSPropertyOp19
 70
     1
102
RTVSPropertyOp20
 70
     1
102
RTVSPropertyOp21
 70
     1
102
RTVSPropertyOp22
 70
     1
102
RTVSPropertyOp23
 70
     1
102
RTVSPropertyOp24
 70
     1
102
RTVSPropertyOp25
 70
     1
102
RTVSPropertyOp26
 70
     1
102
RTVSPropertyOp27
 70
     1
  0
XRECORD
  5
10CC
102
{ACAD_REACTORS
330
10CB
102
}
330
10CB
100
AcDbXrecord
280
     1
102
RTVSPropertyOp0
 70
     0
102
RTVSPropertyOp1
 70
     0
102
RTVSPropertyOp2
 70
     0
102
RTVSPropertyOp3
 70
     0
102
RTVSPropertyOp4
 70
     0
102
RTVSPropertyOp5
 70
     0
102
RTVSPropertyOp6
 70
     0
102
RTVSPropertyOp7
 70
     0
102
RTVSPropertyOp8
 70
     0
102
RTVSPropertyOp9
 70
     0
102
RTVSPropertyOp10
 70
     0
102
RTVSPropertyOp11
 70
     0
102
RTVSPropertyOp12
 70
     0
102
RTVSPropertyOp13
 70
     0
102
RTVSPropertyOp14
 70
     2
102
RTVSPropertyOp15
 70
     0
102
RTVSPropertyOp16
 70
     0
102
RTVSPropertyOp17
 70
     0
102
RTVSPropertyOp18
 70
     0
102
RTVSPropertyOp19
 70
     0
102
RTVSPropertyOp20
 70
     0
102
RTVSPropertyOp21
 70
     0
102
RTVSPropertyOp22
 70
     0
102
RTVSPropertyOp23
 70
     0
102
RTVSPropertyOp24
 70
     0
102
RTVSPropertyOp25
 70
     0
102
RTVSPropertyOp26
 70
     0
102
RTVSPropertyOp27
 70
     0
  0
XRECORD
  5
10C6
102
{ACAD_REACTORS
330
10C5
102
}
330
10C5
100
AcDbXrecord
280
     1
102
RTVSPropertyOp0
 70
     1
102
RTVSPropertyOp1
 70
     1
102
RTVSPropertyOp2
 70
     1
102
RTVSPropertyOp3
 70
     1
102
RTVSPropertyOp4
 70
     1
102
RTVSPropertyOp5
 70
     1
102
RTVSPropertyOp6
 70
     1
102
RTVSPropertyOp7
 70
     1
102
RTVSPropertyOp8
 70
     1
102
RTVSPropertyOp9
 70
     1
102
RTVSPropertyOp10
 70
     1
102
RTVSPropertyOp11
 70
     1
102
RTVSPropertyOp12
 70
     1
102
RTVSPropertyOp13
 70
     1
102
RTVSPropertyOp14
 70
     1
102
RTVSPropertyOp15
 70
     1
102
RTVSPropertyOp16
 70
     1
102
RTVSPropertyOp17
 70
     1
102
RTVSPropertyOp18
 70
     1
102
RTVSPropertyOp19
 70
     1
102
RTVSPropertyOp20
 70
     1
102
RTVSPropertyOp21
 70
     1
102
RTVSPropertyOp22
 70
     1
102
RTVSPropertyOp23
 70
     1
102
RTVSPropertyOp24
 70
     1
102
RTVSPropertyOp25
 70
     1
102
RTVSPropertyOp26
 70
     1
102
RTVSPropertyOp27
 70
     1
  0
XRECORD
  5
10CE
102
{ACAD_REACTORS
330
10CD
102
}
330
10CD
100
AcDbXrecord
280
     1
102
RTVSPropertyOp0
 70
     0
102
RTVSPropertyOp1
 70
     0
102
RTVSPropertyOp2
 70
     0
102
RTVSPropertyOp3
 70
     0
102
RTVSPropertyOp4
 70
     0
102
RTVSPropertyOp5
 70
     0
102
RTVSPropertyOp6
 70
     0
102
RTVSPropertyOp7
 70
     0
102
RTVSPropertyOp8
 70
     0
102
RTVSPropertyOp9
 70
     0
102
RTVSPropertyOp10
 70
     0
102
RTVSPropertyOp11
 70
     0
102
RTVSPropertyOp12
 70
     0
102
RTVSPropertyOp13
 70
     0
102
RTVSPropertyOp14
 70
     2
102
RTVSPropertyOp15
 70
     0
102
RTVSPropertyOp16
 70
     0
102
RTVSPropertyOp17
 70
     0
102
RTVSPropertyOp18
 70
     0
102
RTVSPropertyOp19
 70
     0
102
RTVSPropertyOp20
 70
     0
102
RTVSPropertyOp21
 70
     0
102
RTVSPropertyOp22
 70
     0
102
RTVSPropertyOp23
 70
     0
102
RTVSPropertyOp24
 70
     0
102
RTVSPropertyOp25
 70
     0
102
RTVSPropertyOp26
 70
     0
102
RTVSPropertyOp27
 70
     0
  0
XRECORD
  5
10BE
102
{ACAD_REACTORS
330
10BD
102
}
330
10BD
100
AcDbXrecord
280
     1
102
RTVSPropertyOp0
 70
     1
102
RTVSPropertyOp1
 70
     1
102
RTVSPropertyOp2
 70
     1
102
RTVSPropertyOp3
 70
     1
102
RTVSPropertyOp4
 70
     1
102
RTVSPropertyOp5
 70
     1
102
RTVSPropertyOp6
 70
     1
102
RTVSPropertyOp7
 70
     1
102
RTVSPropertyOp8
 70
     1
102
RTVSPropertyOp9
 70
     1
102
RTVSPropertyOp10
 70
     1
102
RTVSPropertyOp11
 70
     1
102
RTVSPropertyOp12
 70
     1
102
RTVSPropertyOp13
 70
     1
102
RTVSPropertyOp14
 70
     1
102
RTVSPropertyOp15
 70
     1
102
RTVSPropertyOp16
 70
     1
102
RTVSPropertyOp17
 70
     1
102
RTVSPropertyOp18
 70
     1
102
RTVSPropertyOp19
 70
     1
102
RTVSPropertyOp20
 70
     1
102
RTVSPropertyOp21
 70
     1
102
RTVSPropertyOp22
 70
     1
102
RTVSPropertyOp23
 70
     1
102
RTVSPropertyOp24
 70
     1
102
RTVSPropertyOp25
 70
     1
102
RTVSPropertyOp26
 70
     1
102
RTVSPropertyOp27
 70
     1
  0
XRECORD
  5
10C4
102
{ACAD_REACTORS
330
10C3
102
}
330
10C3
100
AcDbXrecord
280
     1
102
RTVSPropertyOp0
 70
     1
102
RTVSPropertyOp1
 70
     1
102
RTVSPropertyOp2
 70
     1
102
RTVSPropertyOp3
 70
     1
102
RTVSPropertyOp4
 70
     1
102
RTVSPropertyOp5
 70
     1
102
RTVSPropertyOp6
 70
     1
102
RTVSPropertyOp7
 70
     1
102
RTVSPropertyOp8
 70
     1
102
RTVSPropertyOp9
 70
     1
102
RTVSPropertyOp10
 70
     1
102
RTVSPropertyOp11
 70
     1
102
RTVSPropertyOp12
 70
     1
102
RTVSPropertyOp13
 70
     1
102
RTVSPropertyOp14
 70
     1
102
RTVSPropertyOp15
 70
     1
102
RTVSPropertyOp16
 70
     1
102
RTVSPropertyOp17
 70
     1
102
RTVSPropertyOp18
 70
     1
102
RTVSPropertyOp19
 70
     1
102
RTVSPropertyOp20
 70
     1
102
RTVSPropertyOp21
 70
     1
102
RTVSPropertyOp22
 70
     1
102
RTVSPropertyOp23
 70
     1
102
RTVSPropertyOp24
 70
     1
102
RTVSPropertyOp25
 70
     1
102
RTVSPropertyOp26
 70
     1
102
RTVSPropertyOp27
 70
     1
  0
ENDSEC
  0
EOF
