  0
SECTION
  2
HEADER
  9
$ACADVER
  1
AC1015
  9
$ACADMAINTVER
 70
    20
  9
$DWGCODEPAGE
  3
ANSI_1252
  9
$INSBASE
 10
0.0
 20
0.0
 30
0.0
  9
$EXTMIN
 10
1237.0578594543
 20
1425.162083411398
 30
0.0
  9
$EXTMAX
 10
1240.283333390984
 20
1425.698098243901
 30
0.0
  9
$LIMMIN
 10
0.0
 20
0.0
  9
$LIMMAX
 10
420.0
 20
297.0
  9
$ORTHOMODE
 70
     1
  9
$REGENMODE
 70
     1
  9
$FILLMODE
 70
     1
  9
$QTEXTMODE
 70
     0
  9
$MIRRTEXT
 70
     0
  9
$LTSCALE
 40
1.0
  9
$ATTMODE
 70
     1
  9
$TEXTSIZE
 40
2.5
  9
$TRACEWID
 40
1.0
  9
$TEXTSTYLE
  7
Standard
  9
$CLAYER
  8
0
  9
$CELTYPE
  6
ByLayer
  9
$CECOLOR
 62
   256
  9
$CELTSCALE
 40
1.0
  9
$DISPSILH
 70
     0
  9
$DIMSCALE
 40
1.0
  9
$DIMASZ
 40
2.5
  9
$DIMEXO
 40
0.625
  9
$DIMDLI
 40
3.75
  9
$DIMRND
 40
0.0
  9
$DIMDLE
 40
0.0
  9
$DIMEXE
 40
1.25
  9
$DIMTP
 40
0.0
  9
$DIMTM
 40
0.0
  9
$DIMTXT
 40
2.5
  9
$DIMCEN
 40
2.5
  9
$DIMTSZ
 40
0.0
  9
$DIMTOL
 70
     0
  9
$DIMLIM
 70
     0
  9
$DIMTIH
 70
     0
  9
$DIMTOH
 70
     0
  9
$DIMSE1
 70
     0
  9
$DIMSE2
 70
     0
  9
$DIMTAD
 70
     1
  9
$DIMZIN
 70
     8
  9
$DIMBLK
  1

  9
$DIMASO
 70
     1
  9
$DIMSHO
 70
     1
  9
$DIMPOST
  1

  9
$DIMAPOST
  1

  9
$DIMALT
 70
     0
  9
$DIMALTD
 70
     3
  9
$DIMALTF
 40
0.03937007874016
  9
$DIMLFAC
 40
1.0
  9
$DIMTOFL
 70
     1
  9
$DIMTVP
 40
0.0
  9
$DIMTIX
 70
     0
  9
$DIMSOXD
 70
     0
  9
$DIMSAH
 70
     0
  9
$DIMBLK1
  1

  9
$DIMBLK2
  1

  9
$DIMSTYLE
  2
ISO-25
  9
$DIMCLRD
 70
     0
  9
$DIMCLRE
 70
     0
  9
$DIMCLRT
 70
     0
  9
$DIMTFAC
 40
1.0
  9
$DIMGAP
 40
0.625
  9
$DIMJUST
 70
     0
  9
$DIMSD1
 70
     0
  9
$DIMSD2
 70
     0
  9
$DIMTOLJ
 70
     0
  9
$DIMTZIN
 70
     8
  9
$DIMALTZ
 70
     0
  9
$DIMALTTZ
 70
     0
  9
$DIMUPT
 70
     0
  9
$DIMDEC
 70
     2
  9
$DIMTDEC
 70
     2
  9
$DIMALTU
 70
     2
  9
$DIMALTTD
 70
     3
  9
$DIMTXSTY
  7
Standard
  9
$DIMAUNIT
 70
     0
  9
$DIMADEC
 70
     0
  9
$DIMALTRND
 40
0.0
  9
$DIMAZIN
 70
     0
  9
$DIMDSEP
 70
    44
  9
$DIMATFIT
 70
     3
  9
$DIMFRAC
 70
     0
  9
$DIMLDRBLK
  1

  9
$DIMLUNIT
 70
     2
  9
$DIMLWD
 70
    -2
  9
$DIMLWE
 70
    -2
  9
$DIMTMOVE
 70
     0
  9
$LUNITS
 70
     2
  9
$LUPREC
 70
     4
  9
$SKETCHINC
 40
1.0
  9
$FILLETRAD
 40
0.0
  9
$AUNITS
 70
     0
  9
$AUPREC
 70
     0
  9
$MENU
  1
.
  9
$ELEVATION
 40
0.0
  9
$PELEVATION
 40
0.0
  9
$THICKNESS
 40
0.0
  9
$LIMCHECK
 70
     0
  9
$CHAMFERA
 40
0.0
  9
$CHAMFERB
 40
0.0
  9
$CHAMFERC
 40
0.0
  9
$CHAMFERD
 40
0.0
  9
$SKPOLY
 70
     0
  9
$TDCREATE
 40
2453797.488348333
  9
$TDUCREATE
 40
2453797.446681666
  9
$TDUPDATE
 40
2456147.431149629
  9
$TDUUPDATE
 40
2456147.389482963
  9
$TDINDWG
 40
0.0035442014
  9
$TDUSRTIMER
 40
0.0035442014
  9
$USRTIMER
 70
     1
  9
$ANGBASE
 50
0.0
  9
$ANGDIR
 70
     0
  9
$PDMODE
 70
     0
  9
$PDSIZE
 40
0.0
  9
$PLINEWID
 40
0.0
  9
$SPLFRAME
 70
     0
  9
$SPLINETYPE
 70
     6
  9
$SPLINESEGS
 70
     8
  9
$HANDSEED
  5
48A
  9
$SURFTAB1
 70
     6
  9
$SURFTAB2
 70
     6
  9
$SURFTYPE
 70
     6
  9
$SURFU
 70
     6
  9
$SURFV
 70
     6
  9
$UCSBASE
  2

  9
$UCSNAME
  2

  9
$UCSORG
 10
0.0
 20
0.0
 30
0.0
  9
$UCSXDIR
 10
1.0
 20
0.0
 30
0.0
  9
$UCSYDIR
 10
0.0
 20
1.0
 30
0.0
  9
$UCSORTHOREF
  2

  9
$UCSORTHOVIEW
 70
     0
  9
$UCSORGTOP
 10
0.0
 20
0.0
 30
0.0
  9
$UCSORGBOTTOM
 10
0.0
 20
0.0
 30
0.0
  9
$UCSORGLEFT
 10
0.0
 20
0.0
 30
0.0
  9
$UCSORGRIGHT
 10
0.0
 20
0.0
 30
0.0
  9
$UCSORGFRONT
 10
0.0
 20
0.0
 30
0.0
  9
$UCSORGBACK
 10
0.0
 20
0.0
 30
0.0
  9
$PUCSBASE
  2

  9
$PUCSNAME
  2

  9
$PUCSORG
 10
0.0
 20
0.0
 30
0.0
  9
$PUCSXDIR
 10
1.0
 20
0.0
 30
0.0
  9
$PUCSYDIR
 10
0.0
 20
1.0
 30
0.0
  9
$PUCSORTHOREF
  2

  9
$PUCSORTHOVIEW
 70
     0
  9
$PUCSORGTOP
 10
0.0
 20
0.0
 30
0.0
  9
$PUCSORGBOTTOM
 10
0.0
 20
0.0
 30
0.0
  9
$PUCSORGLEFT
 10
0.0
 20
0.0
 30
0.0
  9
$PUCSORGRIGHT
 10
0.0
 20
0.0
 30
0.0
  9
$PUCSORGFRONT
 10
0.0
 20
0.0
 30
0.0
  9
$PUCSORGBACK
 10
0.0
 20
0.0
 30
0.0
  9
$USERI1
 70
     0
  9
$USERI2
 70
     0
  9
$USERI3
 70
     0
  9
$USERI4
 70
     0
  9
$USERI5
 70
     0
  9
$USERR1
 40
0.0
  9
$USERR2
 40
0.0
  9
$USERR3
 40
0.0
  9
$USERR4
 40
0.0
  9
$USERR5
 40
0.0
  9
$WORLDVIEW
 70
     1
  9
$SHADEDGE
 70
     3
  9
$SHADEDIF
 70
    70
  9
$TILEMODE
 70
     1
  9
$MAXACTVP
 70
    64
  9
$PINSBASE
 10
0.0
 20
0.0
 30
0.0
  9
$PLIMCHECK
 70
     0
  9
$PEXTMIN
 10
1.000000000000000E+20
 20
1.000000000000000E+20
 30
1.000000000000000E+20
  9
$PEXTMAX
 10
-1.000000000000000E+20
 20
-1.000000000000000E+20
 30
-1.000000000000000E+20
  9
$PLIMMIN
 10
0.0
 20
0.0
  9
$PLIMMAX
 10
420.0
 20
297.0
  9
$UNITMODE
 70
     0
  9
$VISRETAIN
 70
     1
  9
$PLINEGEN
 70
     0
  9
$PSLTSCALE
 70
     1
  9
$TREEDEPTH
 70
  3020
  9
$CMLSTYLE
  2
Standard
  9
$CMLJUST
 70
     0
  9
$CMLSCALE
 40
20.0
  9
$PROXYGRAPHICS
 70
     1
  9
$MEASUREMENT
 70
     1
  9
$CELWEIGHT
370
    -1
  9
$ENDCAPS
280
     0
  9
$JOINSTYLE
280
     0
  9
$LWDISPLAY
290
     0
  9
$INSUNITS
 70
     4
  9
$HYPERLINKBASE
  1

  9
$STYLESHEET
  1

  9
$XEDIT
290
     1
  9
$CEPSNTYPE
380
     0
  9
$PSTYLEMODE
290
     1
  9
$FINGERPRINTGUID
  2
{A0AA0863-6794-4737-A06E-5FAF1173B77B}
  9
$VERSIONGUID
  2
{A9716E84-2571-4217-8D09-82DBE4A320CC}
  9
$EXTNAMES
290
     1
  9
$PSVPSCALE
 40
0.0
  9
$OLESTARTUP
290
     0
  0
ENDSEC
  0
SECTION
  2
CLASSES
  0
CLASS
  1
ACDBDICTIONARYWDFLT
  2
AcDbDictionaryWithDefault
  3
ObjectDBX Classes
 90
        0
280
     0
281
     0
  0
CLASS
  1
TABLESTYLE
  2
AcDbTableStyle
  3
ObjectDBX Classes
 90
     4095
280
     0
281
     0
  0
CLASS
  1
DICTIONARYVAR
  2
AcDbDictionaryVar
  3
ObjectDBX Classes
 90
        0
280
     0
281
     0
  0
CLASS
  1
ACDBPLACEHOLDER
  2
AcDbPlaceHolder
  3
ObjectDBX Classes
 90
        0
280
     0
281
     0
  0
CLASS
  1
LAYOUT
  2
AcDbLayout
  3
ObjectDBX Classes
 90
        0
280
     0
281
     0
  0
CLASS
  1
MATERIAL
  2
AcDbMaterial
  3
ObjectDBX Classes
 90
     1153
280
     0
281
     0
  0
CLASS
  1
VISUALSTYLE
  2
AcDbVisualStyle
  3
ObjectDBX Classes
 90
     4095
280
     0
281
     0
  0
CLASS
  1
SCALE
  2
AcDbScale
  3
ObjectDBX Classes
 90
     1153
280
     0
281
     0
  0
CLASS
  1
MLEADERSTYLE
  2
AcDbMLeaderStyle
  3
ACDB_MLEADERSTYLE_CLASS
 90
     4095
280
     0
281
     0
  0
CLASS
  1
CELLSTYLEMAP
  2
AcDbCellStyleMap
  3
ObjectDBX Classes
 90
     1152
280
     0
281
     0
  0
ENDSEC
  0
SECTION
  2
TABLES
  0
TABLE
  2
VPORT
  5
8
330
0
100
AcDbSymbolTable
 70
     1
  0
VPORT
  5
3EF
330
8
100
AcDbSymbolTableRecord
100
AcDbViewportTableRecord
  2
*Active
 70
     0
 10
0.0
 20
0.0
 11
1.0
 21
1.0
 12
1238.73128470934
 22
1425.430090827649
 13
0.0
 23
0.0
 14
10.0
 24
10.0
 15
10.0
 25
10.0
 16
0.0
 26
0.0
 36
1.0
 17
0.0
 27
0.0
 37
0.0
 40
2.041431293522719
 41
1.645464025026068
 42
50.0
 43
0.0
 44
0.0
 50
0.0
 51
0.0
 71
     0
 72
  1000
 73
     1
 74
     3
 75
     0
 76
     0
 77
     0
 78
     0
281
     0
 65
     1
110
0.0
120
0.0
130
0.0
111
1.0
121
0.0
131
0.0
112
0.0
122
1.0
132
0.0
 79
     0
146
0.0
  0
ENDTAB
  0
TABLE
  2
LTYPE
  5
5
330
0
100
AcDbSymbolTable
 70
     3
  0
LTYPE
  5
14
330
5
100
AcDbSymbolTableRecord
100
AcDbLinetypeTableRecord
  2
ByBlock
 70
     0
  3

 72
    65
 73
     0
 40
0.0
  0
LTYPE
  5
15
330
5
100
AcDbSymbolTableRecord
100
AcDbLinetypeTableRecord
  2
ByLayer
 70
     0
  3

 72
    65
 73
     0
 40
0.0
  0
LTYPE
  5
16
330
5
100
AcDbSymbolTableRecord
100
AcDbLinetypeTableRecord
  2
Continuous
 70
     0
  3
Solid line
 72
    65
 73
     0
 40
0.0
  0
LTYPE
  5
2F
330
5
100
AcDbSymbolTableRecord
100
AcDbLinetypeTableRecord
  2
DASHDOT
 70
     0
  3
Dash dot __ . __ . __ . __ . __ . __ . __ . __
 72
    65
 73
     4
 40
25.4
 49
12.7
 74
     0
 49
-6.349999999999999
 74
     0
 49
0.0
 74
     0
 49
-6.349999999999999
 74
     0
  0
LTYPE
  5
30
330
5
100
AcDbSymbolTableRecord
100
AcDbLinetypeTableRecord
  2
HIDDEN
 70
     0
  3
Hidden __ __ __ __ __ __ __ __ __ __ __ __ __ _
 72
    65
 73
     2
 40
9.524999999999998
 49
6.349999999999999
 74
     0
 49
-3.174999999999999
 74
     0
  0
ENDTAB
  0
TABLE
  2
LAYER
  5
2
330
0
100
AcDbSymbolTable
 70
     9
  0
LAYER
  5
10
102
{ACAD_XDICTIONARY
360
43E
102
}
330
2
100
AcDbSymbolTableRecord
100
AcDbLayerTableRecord
  2
0
 70
     0
 62
     7
  6
Continuous
370
    -3
390
F
  0
LAYER
  5
31
102
{ACAD_XDICTIONARY
360
440
102
}
330
2
100
AcDbSymbolTableRecord
100
AcDbLayerTableRecord
  2
2
 70
     0
 62
     2
  6
Continuous
370
    -3
390
F
  0
LAYER
  5
32
102
{ACAD_XDICTIONARY
360
442
102
}
330
2
100
AcDbSymbolTableRecord
100
AcDbLayerTableRecord
  2
4
 70
     0
 62
     4
  6
Continuous
370
    -3
390
F
  0
LAYER
  5
33
102
{ACAD_XDICTIONARY
360
444
102
}
330
2
100
AcDbSymbolTableRecord
100
AcDbLayerTableRecord
  2
cen
 70
     0
 62
     7
  6
DASHDOT
370
    -3
390
F
  0
LAYER
  5
34
102
{ACAD_XDICTIONARY
360
446
102
}
330
2
100
AcDbSymbolTableRecord
100
AcDbLayerTableRecord
  2
hid
 70
     0
 62
     7
  6
HIDDEN
370
    -3
390
F
  0
LAYER
  5
35
102
{ACAD_XDICTIONARY
360
448
102
}
330
2
100
AcDbSymbolTableRecord
100
AcDbLayerTableRecord
  2
hatch
 70
     0
 62
     9
  6
Continuous
370
    -3
390
F
  0
LAYER
  5
36
102
{ACAD_XDICTIONARY
360
44A
102
}
330
2
100
AcDbSymbolTableRecord
100
AcDbLayerTableRecord
  2
9
 70
     0
 62
     9
  6
Continuous
370
    -3
390
F
  0
LAYER
  5
37
102
{ACAD_XDICTIONARY
360
44C
102
}
330
2
100
AcDbSymbolTableRecord
100
AcDbLayerTableRecord
  2
indusa
 70
     0
 62
     3
  6
Continuous
370
    -3
390
F
  0
LAYER
  5
38
102
{ACAD_XDICTIONARY
360
44E
102
}
330
2
100
AcDbSymbolTableRecord
100
AcDbLayerTableRecord
  2
SANINDUSA
 70
     0
 62
     3
  6
Continuous
370
    -3
390
F
  0
ENDTAB
  0
TABLE
  2
STYLE
  5
3
330
0
100
AcDbSymbolTable
 70
     2
  0
STYLE
  5
11
330
3
100
AcDbSymbolTableRecord
100
AcDbTextStyleTableRecord
  2
Standard
 70
     0
 40
0.0
 41
1.0
 50
0.0
 71
     0
 42
2.5
  3
txt
  4

  0
STYLE
  5
39
330
3
100
AcDbSymbolTableRecord
100
AcDbTextStyleTableRecord
  2
SANINDUSA
 70
     0
 40
0.0
 41
1.0
 50
0.0
 71
     0
 42
2.5
  3
verdana.TTF
  4

1001
ACAD
1000
Verdana
1071
       34
  0
ENDTAB
  0
TABLE
  2
VIEW
  5
6
330
0
100
AcDbSymbolTable
 70
     0
  0
ENDTAB
  0
TABLE
  2
UCS
  5
7
330
0
100
AcDbSymbolTable
 70
     0
  0
ENDTAB
  0
TABLE
  2
APPID
  5
9
330
0
100
AcDbSymbolTable
 70
     4
  0
APPID
  5
12
330
9
100
AcDbSymbolTableRecord
100
AcDbRegAppTableRecord
  2
ACAD
 70
     0
  0
APPID
  5
3B
330
9
100
AcDbSymbolTableRecord
100
AcDbRegAppTableRecord
  2
DCO15
 70
     0
  0
APPID
  5
3E2
330
9
100
AcDbSymbolTableRecord
100
AcDbRegAppTableRecord
  2
ACAD_EXEMPT_FROM_CAD_STANDARDS
 70
     0
  0
APPID
  5
489
330
9
100
AcDbSymbolTableRecord
100
AcDbRegAppTableRecord
  2
ACAD_MLEADERVER
 70
     0
  0
ENDTAB
  0
TABLE
  2
DIMSTYLE
  5
A
330
0
100
AcDbSymbolTable
 70
     2
100
AcDbDimStyleTable
 71
     1
340
2B
  0
DIMSTYLE
105
2B
330
A
100
AcDbSymbolTableRecord
100
AcDbDimStyleTableRecord
  2
ISO-25
 70
     0
 41
2.5
 42
0.625
 43
3.75
 44
1.25
 73
     0
 74
     0
 77
     1
 78
     8
140
2.5
141
2.5
143
0.03937007874016
147
0.625
171
     3
172
     1
271
     2
272
     2
274
     3
278
    44
283
     0
284
     8
340
11
  0
DIMSTYLE
105
3A
330
A
100
AcDbSymbolTableRecord
100
AcDbDimStyleTableRecord
  2
SANINDUSA
 70
     0
 41
10.0
 42
4.0
 43
4.0
 44
4.0
 73
     0
 74
     0
 77
     1
 78
     8
140
10.0
141
0.0
143
0.03937007874016
147
5.0
171
     3
172
     1
176
   256
177
   256
178
   256
179
     1
271
     1
272
     1
274
     3
278
    44
283
     0
284
     8
340
39
371
    -1
372
    -1
  0
ENDTAB
  0
TABLE
  2
BLOCK_RECORD
  5
1
330
0
100
AcDbSymbolTable
 70
     1
  0
BLOCK_RECORD
  5
23
330
1
100
AcDbSymbolTableRecord
100
AcDbBlockTableRecord
  2
*Model_Space
340
26
  0
BLOCK_RECORD
  5
1F
330
1
100
AcDbSymbolTableRecord
100
AcDbBlockTableRecord
  2
*Paper_Space
340
22
  0
BLOCK_RECORD
  5
27
330
1
100
AcDbSymbolTableRecord
100
AcDbBlockTableRecord
  2
*Paper_Space0
340
2A
  0
ENDTAB
  0
ENDSEC
  0
SECTION
  2
BLOCKS
  0
BLOCK
  5
24
330
23
100
AcDbEntity
  8
0
100
AcDbBlockBegin
  2
*Model_Space
 70
     0
 10
0.0
 20
0.0
 30
0.0
  3
*Model_Space
  1

  0
ENDBLK
  5
25
330
23
100
AcDbEntity
  8
0
100
AcDbBlockEnd
  0
BLOCK
  5
20
330
1F
100
AcDbEntity
 67
     1
  8
0
100
AcDbBlockBegin
  2
*Paper_Space
 70
     0
 10
0.0
 20
0.0
 30
0.0
  3
*Paper_Space
  1

  0
ENDBLK
  5
21
330
1F
100
AcDbEntity
 67
     1
  8
0
100
AcDbBlockEnd
  0
BLOCK
  5
28
330
27
100
AcDbEntity
 67
     1
  8
0
100
AcDbBlockBegin
  2
*Paper_Space0
 70
     0
 10
0.0
 20
0.0
 30
0.0
  3
*Paper_Space0
  1

  0
ENDBLK
  5
29
330
27
100
AcDbEntity
 67
     1
  8
0
100
AcDbBlockEnd
  0
ENDSEC
  0
SECTION
  2
ENTITIES
  0
LINE
  5
20F
330
23
100
AcDbEntity
  8
SANINDUSA
100
AcDbLine
 10
1237.64579642352
 20
1425.542601033739
 30
0.0
 11
1237.705870515916
 21
1425.543128084493
 31
0.0
  0
ARC
  5
213
330
23
100
AcDbEntity
  8
SANINDUSA
 48
0.5
100
AcDbCircle
 10
1237.330995446741
 20
1422.660453040091
 30
0.0
 40
2.915818212467287
100
AcDbArc
 50
82.75913673201355
 51
90.07810852289672
  0
LINE
  5
214
330
23
100
AcDbEntity
  8
SANINDUSA
 48
0.5
100
AcDbLine
 10
1237.130446843374
 20
1425.69609824131
 30
0.0
 11
1237.130427012364
 21
1425.696098239136
 31
0.0
  0
LINE
  5
215
330
23
100
AcDbEntity
  8
SANINDUSA
 48
0.5
100
AcDbLine
 10
1237.13044664491
 20
1425.6980982413
 30
0.0
 11
1237.130426793116
 21
1425.698098239124
 31
0.0
  0
LINE
  5
216
330
23
100
AcDbEntity
  8
SANINDUSA
 48
0.5
100
AcDbLine
 10
1237.130406941322
 20
1425.698098236948
 30
0.0
 11
1237.130426793116
 21
1425.698098239124
 31
0.0
  0
LINE
  5
217
330
23
100
AcDbEntity
  8
SANINDUSA
 48
0.5
100
AcDbLine
 10
1237.130407181355
 20
1425.696098236962
 30
0.0
 11
1237.130427012364
 21
1425.696098239136
 31
0.0
  0
LINE
  5
218
330
23
100
AcDbEntity
  8
SANINDUSA
 48
0.5
100
AcDbLine
 10
1237.130466715314
 20
1425.696098244726
 30
0.0
 11
1237.130387350995
 21
1425.696098234376
 31
0.0
  0
LINE
  5
219
330
23
100
AcDbEntity
  8
SANINDUSA
 48
0.5
100
AcDbLine
 10
1237.130426793117
 20
1425.698098239537
 30
0.0
 11
1237.130387090165
 21
1425.698098234359
 31
0.0
  0
LINE
  5
21A
330
23
100
AcDbEntity
  8
SANINDUSA
 48
0.5
100
AcDbLine
 10
1237.130506418263
 20
1425.698098243901
 30
0.0
 11
1237.130546121215
 21
1425.698098243076
 31
0.0
  0
LINE
  5
21B
330
23
100
AcDbEntity
  8
SANINDUSA
 48
0.5
100
AcDbLine
 10
1237.130466715314
 20
1425.696098244726
 30
0.0
 11
1237.130546079635
 21
1425.696098243076
 31
0.0
  0
LINE
  5
21C
330
23
100
AcDbEntity
  8
SANINDUSA
 48
0.5
100
AcDbLine
 10
1237.130526249274
 20
1425.696098243488
 30
0.0
 11
1237.130506418265
 21
1425.696098243488
 31
0.0
  0
LINE
  5
21D
330
23
100
AcDbEntity
  8
SANINDUSA
 48
0.5
100
AcDbLine
 10
1237.130526270059
 20
1425.698098243488
 30
0.0
 11
1237.130506418265
 21
1425.698098243488
 31
0.0
  0
LINE
  5
21E
330
23
100
AcDbEntity
  8
SANINDUSA
 48
0.5
100
AcDbLine
 10
1237.130486566471
 20
1425.698098243488
 30
0.0
 11
1237.130506418265
 21
1425.698098243488
 31
0.0
  0
LINE
  5
21F
330
23
100
AcDbEntity
  8
SANINDUSA
 48
0.5
100
AcDbLine
 10
1237.130486587255
 20
1425.696098243488
 30
0.0
 11
1237.130506418265
 21
1425.696098243488
 31
0.0
  0
LINE
  5
220
330
23
100
AcDbEntity
  8
SANINDUSA
 48
0.5
100
AcDbLine
 10
1237.130506418268
 20
1425.696098243901
 30
0.0
 11
1237.130466756895
 21
1425.696098243076
 31
0.0
  0
LINE
  5
221
330
23
100
AcDbEntity
  8
SANINDUSA
 48
0.5
100
AcDbLine
 10
1237.130506418283
 20
1425.698098243901
 30
0.0
 11
1237.130466715314
 21
1425.698098243076
 31
0.0
  0
LINE
  5
222
330
23
100
AcDbEntity
  8
SANINDUSA
 48
0.5
100
AcDbLine
 10
1237.130268283707
 20
1425.698098243901
 30
0.0
 11
1237.130307986675
 21
1425.698098243076
 31
0.0
  0
LINE
  5
223
330
23
100
AcDbEntity
  8
SANINDUSA
 48
0.5
100
AcDbLine
 10
1237.130268283722
 20
1425.696098243901
 30
0.0
 11
1237.130307945095
 21
1425.696098243076
 31
0.0
  0
LINE
  5
224
330
23
100
AcDbEntity
  8
SANINDUSA
 48
0.5
100
AcDbLine
 10
1237.130288114735
 20
1425.696098243488
 30
0.0
 11
1237.130268283725
 21
1425.696098243488
 31
0.0
  0
LINE
  5
225
330
23
100
AcDbEntity
  8
SANINDUSA
 48
0.5
100
AcDbLine
 10
1237.130288135519
 20
1425.698098243488
 30
0.0
 11
1237.130268283725
 21
1425.698098243488
 31
0.0
  0
LINE
  5
226
330
23
100
AcDbEntity
  8
SANINDUSA
 48
0.5
100
AcDbLine
 10
1237.130248431931
 20
1425.698098243488
 30
0.0
 11
1237.130268283725
 21
1425.698098243488
 31
0.0
  0
LINE
  5
227
330
23
100
AcDbEntity
  8
SANINDUSA
 48
0.5
100
AcDbLine
 10
1237.130248452715
 20
1425.696098243488
 30
0.0
 11
1237.130268283725
 21
1425.696098243488
 31
0.0
  0
LINE
  5
228
330
23
100
AcDbEntity
  8
SANINDUSA
 48
0.5
100
AcDbLine
 10
1237.130307986675
 20
1425.696098244726
 30
0.0
 11
1237.130228622355
 21
1425.696098243076
 31
0.0
  0
LINE
  5
229
330
23
100
AcDbEntity
  8
SANINDUSA
 48
0.5
100
AcDbLine
 10
1237.130268283726
 20
1425.698098243901
 30
0.0
 11
1237.130228580775
 21
1425.698098243076
 31
0.0
  0
LINE
  5
22A
330
23
100
AcDbEntity
  8
SANINDUSA
 48
0.5
100
AcDbLine
 10
1237.130347908873
 20
1425.698098239537
 30
0.0
 11
1237.130387611824
 21
1425.698098234359
 31
0.0
  0
LINE
  5
22B
330
23
100
AcDbEntity
  8
SANINDUSA
 48
0.5
100
AcDbLine
 10
1237.130307986675
 20
1425.696098244726
 30
0.0
 11
1237.130387350995
 21
1425.696098234376
 31
0.0
  0
LINE
  5
22E
330
23
100
AcDbEntity
  8
SANINDUSA
  6
Continuous
100
AcDbLine
 10
1237.64579642352
 20
1425.542601033739
 30
0.0
 11
1237.638999392129
 21
1425.542689508337
 31
0.0
  0
LINE
  5
22F
330
23
100
AcDbEntity
  8
SANINDUSA
 48
0.5
100
AcDbLine
 10
1237.130367520634
 20
1425.696098236962
 30
0.0
 11
1237.130347689625
 21
1425.696098239136
 31
0.0
  0
LINE
  5
230
330
23
100
AcDbEntity
  8
SANINDUSA
 48
0.5
100
AcDbLine
 10
1237.130367760668
 20
1425.698098236948
 30
0.0
 11
1237.130347908874
 21
1425.698098239124
 31
0.0
  0
LINE
  5
231
330
23
100
AcDbEntity
  8
SANINDUSA
 48
0.5
100
AcDbLine
 10
1237.13032805708
 20
1425.6980982413
 30
0.0
 11
1237.130347908874
 21
1425.698098239124
 31
0.0
  0
LINE
  5
232
330
23
100
AcDbEntity
  8
SANINDUSA
 48
0.5
100
AcDbLine
 10
1237.130327858615
 20
1425.69609824131
 30
0.0
 11
1237.130347689625
 21
1425.696098239136
 31
0.0
  0
LWPOLYLINE
  5
238
330
23
100
AcDbEntity
  8
SANINDUSA
100
AcDbPolyline
 90
       13
 70
   128
 43
0.0
 10
1237.20145289809
 20
1425.490864093749
 10
1237.203694690432
 20
1425.502948441563
 10
1237.205468898193
 20
1425.50880871744
 10
1237.207866765202
 20
1425.514405334804
 10
1237.210888766422
 20
1425.519709412111
 10
1237.214500337318
 20
1425.524669793048
 10
1237.218620829817
 20
1425.529174644673
 10
1237.223181259857
 20
1425.533149354211
 10
1237.228181217862
 20
1425.536616282556
 10
1237.233520290464
 20
1425.539503852368
 10
1237.238785364094
 20
1425.5416489651
 10
1237.244286895993
 20
1425.543249568043
 10
1237.254715792418
 20
1425.545142800621
  0
ARC
  5
23A
330
23
100
AcDbEntity
  8
SANINDUSA
 48
0.5
100
AcDbCircle
 10
1237.43624833385
 20
1423.882082363223
 30
0.0
 40
1.672938756212163
100
AcDbArc
 50
83.03895159297983
 51
96.22949814829304
  0
LWPOLYLINE
  5
23E
330
23
100
AcDbEntity
  8
SANINDUSA
  6
Continuous
100
AcDbPolyline
 90
        6
 70
   128
 43
0.0
 10
1237.705870515916
 20
1425.543128084493
 10
1237.705685925216
 20
1425.545957994885
 10
1237.704311741543
 20
1425.548926989478
 10
1237.7031187379
 20
1425.550268928504
 10
1237.701693475406
 20
1425.5513698022
 10
1237.698270752505
 20
1425.552827122434
  0
LWPOLYLINE
  5
23F
330
23
100
AcDbEntity
  8
SANINDUSA
  6
Continuous
100
AcDbPolyline
 90
        6
 70
   128
 43
0.0
 10
1237.708530390684
 20
1425.553037131806
 10
1237.70831864677
 20
1425.550915073916
 10
1237.707927998917
 20
1425.548830045901
 10
1237.707046329883
 20
1425.54586854458
 10
1237.705877891949
 20
1425.543143137896
 10
1237.705870515916
 20
1425.543128084493
  0
CIRCLE
  5
241
330
23
100
AcDbEntity
  8
SANINDUSA
 48
0.5
100
AcDbCircle
 10
1237.285722310505
 20
1425.636598243076
 30
0.0
 40
0.0175
  0
LINE
  5
242
330
23
100
AcDbEntity
  8
SANINDUSA
 48
0.5
100
AcDbLine
 10
1237.755866593962
 20
1425.698042671943
 30
0.0
 11
1237.130308205924
 21
1425.698098243064
 31
0.0
  0
LWPOLYLINE
  5
243
330
23
100
AcDbEntity
  8
SANINDUSA
100
AcDbPolyline
 90
        4
 70
   128
 43
0.0
 10
1237.712998587283
 20
1425.646363257127
 10
1237.712774387538
 20
1425.641548867843
 10
1237.712074003881
 20
1425.62650937502
 10
1237.711373620224
 20
1425.609490620959
  0
LINE
  5
246
330
23
100
AcDbEntity
  8
SANINDUSA
 48
0.5
100
AcDbLine
 10
1237.757852847829
 20
1425.543303765913
 30
0.0
 11
1237.757866416286
 21
1425.696042494282
 31
0.0
  0
LWPOLYLINE
  5
248
330
23
100
AcDbEntity
  8
SANINDUSA
100
AcDbPolyline
 90
        3
 70
   128
 43
0.0
 10
1237.711373233664
 20
1425.609490620959
 10
1237.7089866544
 20
1425.564261448074
 10
1237.708530390684
 20
1425.553037131806
  0
CIRCLE
  5
24B
330
23
100
AcDbEntity
  8
SANINDUSA
 48
0.5
100
AcDbCircle
 10
1237.285723952212
 20
1425.485195261753
 30
0.0
 40
0.0235000000000037
  0
LWPOLYLINE
  5
24C
330
23
100
AcDbEntity
  8
SANINDUSA
100
AcDbPolyline
 90
        6
 70
   128
 43
0.0
 10
1237.183364024554
 20
1425.536606302802
 10
1237.183027344858
 20
1425.535937637395
 10
1237.180876114965
 20
1425.531110786798
 10
1237.179128200501
 20
1425.526125138462
 10
1237.177762526131
 20
1425.520870214198
 10
1237.176838334319
 20
1425.515521666271
  0
LWPOLYLINE
  5
24D
330
23
100
AcDbEntity
  8
SANINDUSA
100
AcDbPolyline
 90
        5
 70
   128
 43
0.0
 10
1237.194705156348
 20
1425.552154652057
 10
1237.191469593855
 20
1425.548652413872
 10
1237.188492808572
 20
1425.544892611745
 10
1237.185775865387
 20
1425.540860675286
 10
1237.183364024554
 20
1425.536606302802
  0
LWPOLYLINE
  5
24E
330
23
100
AcDbEntity
  8
SANINDUSA
100
AcDbPolyline
 90
        5
 70
   128
 43
0.0
 10
1237.210255520323
 20
1425.563493021214
 10
1237.206025624943
 20
1425.561097334139
 10
1237.201968300285
 20
1425.558365709496
 10
1237.19822919485
 20
1425.555407737556
 10
1237.194705156348
 20
1425.552154652057
  0
LWPOLYLINE
  5
24F
330
23
100
AcDbEntity
  8
SANINDUSA
100
AcDbPolyline
 90
        5
 70
   128
 43
0.0
 10
1237.231341315933
 20
1425.570014965263
 10
1237.225961870345
 20
1425.569085080435
 10
1237.220677280032
 20
1425.567708600488
 10
1237.215374940709
 20
1425.565828949331
 10
1237.210255520323
 20
1425.563493021214
  0
LWPOLYLINE
  5
250
330
23
100
AcDbEntity
  8
SANINDUSA
100
AcDbPolyline
 90
        5
 70
   128
 43
0.0
 10
1237.327020455897
 20
1425.576268543103
 10
1237.321477992525
 20
1425.576341355425
 10
1237.291522697547
 20
1425.575490816755
 10
1237.261384699814
 20
1425.573378723231
 10
1237.231341315933
 20
1425.570014965263
  0
CIRCLE
  5
253
330
23
100
AcDbEntity
  8
SANINDUSA
 48
0.5
100
AcDbCircle
 10
1237.285723952212
 20
1425.485195261753
 30
0.0
 40
0.0413644683651874
  0
ARC
  5
258
330
23
100
AcDbEntity
  8
SANINDUSA
100
AcDbCircle
 10
1238.192021367483
 20
1425.400501916023
 30
0.0
 40
1.021668472472313
100
AcDbArc
 50
173.5174651271495
 51
190.0360916931274
  0
ARC
  5
25A
330
23
100
AcDbEntity
  8
SANINDUSA
100
AcDbCircle
 10
1238.192021367483
 20
1425.400501916023
 30
0.0
 40
0.9946814644488839
100
AcDbArc
 50
174.7877591548501
 51
186.8936736934677
  0
LINE
  5
261
330
23
100
AcDbEntity
  8
SANINDUSA
100
AcDbLine
 10
1237.0578594543
 20
1425.694091793059
 30
0.0
 11
1237.0578594543
 21
1425.164083411398
 31
0.0
  0
LINE
  5
262
330
23
100
AcDbEntity
  8
SANINDUSA
 48
0.5
100
AcDbLine
 10
1237.0578594543
 20
1425.698091793059
 30
0.0
 11
1237.130466496066
 21
1425.698098243064
 31
0.0
  0
LINE
  5
263
330
23
100
AcDbEntity
  8
SANINDUSA
100
AcDbLine
 10
1237.0578594543
 20
1425.468075041997
 30
0.0
 11
1237.0578594543
 21
1425.164083411398
 31
0.0
  0
LINE
  5
264
330
23
100
AcDbEntity
  8
SANINDUSA
100
AcDbLine
 10
1237.059846568359
 20
1425.162083411398
 30
0.0
 11
1237.143340438934
 21
1425.162083411398
 31
0.0
  0
ELLIPSE
  5
265
330
23
100
AcDbEntity
  8
SANINDUSA
100
AcDbEllipse
 10
1237.143340438934
 20
1425.543303765913
 30
0.0
 11
0.6145124064694873
 21
0.0
 31
0.0
210
0.0
220
0.0
230
1.0
 40
0.62036234012838
 41
4.712388980384689
 42
6.283185307179586
  0
SPLINE
  5
26A
330
23
100
AcDbEntity
  8
SANINDUSA
100
AcDbSpline
210
0.0
220
0.0
230
1.0
 70
    24
 71
     3
 72
     8
 73
     4
 74
     0
 42
0.0000000001
 43
0.0000000001
 40
6.409573963661431
 40
6.409573963661431
 40
6.409573963661431
 40
6.409573963661431
 40
6.410782754826703
 40
6.410782754826703
 40
6.410782754826703
 40
6.410782754826703
 10
1237.709846103558
 20
1425.580549268527
 30
0.0
 10
1237.709820484518
 20
1425.580674344755
 30
0.0
 10
1237.709794741741
 20
1425.580799421143
 30
0.0
 10
1237.709768875199
 20
1425.580924497687
 30
0.0
  0
SPLINE
  5
26B
330
23
100
AcDbEntity
  8
SANINDUSA
100
AcDbSpline
210
0.0
220
0.0
230
1.0
 70
     8
 71
     3
 72
    32
 73
    28
 74
     0
 42
0.0000000001
 43
0.0000000001
 40
4.789334109683407
 40
4.789334109683407
 40
4.789334109683407
 40
4.789334109683407
 40
4.790638109815699
 40
4.790638109815699
 40
4.931784021571828
 40
4.931784021571828
 40
5.072929933327957
 40
5.072929933327957
 40
5.214075845084086
 40
5.214075845084086
 40
5.355221756840215
 40
5.355221756840215
 40
5.496367668596344
 40
5.496367668596344
 40
5.637513580352473
 40
5.637513580352473
 40
5.750736624054984
 40
5.750736624054984
 40
5.863959667757494
 40
5.863959667757494
 40
5.977182711460005
 40
5.977182711460005
 40
6.090405755162516
 40
6.090405755162516
 40
6.203628798865026
 40
6.203628798865026
 40
6.283185307179586
 40
6.283185307179586
 40
6.283185307179586
 40
6.283185307179586
 10
1237.185757238694
 20
1425.212354800178
 30
0.0
 10
1237.188489423934
 20
1425.212173128095
 30
0.0
 10
1237.188742480286
 20
1425.212185334249
 30
0.0
 10
1237.216384988195
 20
1425.213529924739
 30
0.0
 10
1237.243607813298
 20
1425.216063212542
 30
0.0
 10
1237.297126940031
 20
1425.223466570096
 30
0.0
 10
1237.323422827203
 20
1425.228336668809
 30
0.0
 10
1237.374512614247
 20
1425.240286026629
 30
0.0
 10
1237.399306044943
 20
1425.247365332424
 30
0.0
 10
1237.446847118271
 20
1425.263541920812
 30
0.0
 10
1237.469594172487
 20
1425.272639244445
 30
0.0
 10
1237.512545927005
 20
1425.292595671356
 30
0.0
 10
1237.532749815652
 20
1425.303454713661
 30
0.0
 10
1237.570186469873
 20
1425.326613164886
 30
0.0
 10
1237.587418101483
 20
1425.338912137517
 30
0.0
 10
1237.615495960753
 20
1425.362032011315
 30
0.0
 10
1237.626931665323
 20
1425.372663036844
 30
0.0
 10
1237.647570243091
 20
1425.394392765475
 30
0.0
 10
1237.656772825599
 20
1425.405490611872
 30
0.0
 10
1237.672903462177
 20
1425.427945391249
 30
0.0
 10
1237.679831789958
 20
1425.439301117004
 30
0.0
 10
1237.691442027706
 20
1425.462099382144
 30
0.0
 10
1237.69612519187
 20
1425.473540944216
 30
0.0
 10
1237.703321382883
 20
1425.496410617544
 30
0.0
 10
1237.705836367416
 20
1425.507839034693
 30
0.0
 10
1237.708334046922
 20
1425.527274225802
 30
0.0
 10
1237.708847238371
 20
1425.53528910486
 30
0.0
 10
1237.708847238371
 20
1425.543303765913
 30
0.0
  0
LINE
  5
26F
330
23
100
AcDbEntity
  8
SANINDUSA
  6
Continuous
100
AcDbLine
 10
1237.204619502866
 20
1425.276295292048
 30
0.0
 11
1237.204531028268
 21
1425.283092323438
 31
0.0
  0
LINE
  5
270
330
23
100
AcDbEntity
  8
SANINDUSA
100
AcDbLine
 10
1237.708847062544
 20
1425.541324504657
 30
0.0
 11
1237.708847062544
 21
1425.561716810033
 31
0.0
  0
LWPOLYLINE
  5
271
330
23
100
AcDbEntity
  8
SANINDUSA
100
AcDbPolyline
 90
        3
 70
   128
 43
0.0
 10
1237.078852299271
 20
1425.206732799994
 10
1237.174883290226
 20
1425.211800006778
 10
1237.185757238694
 20
1425.212354800178
  0
LINE
  5
272
330
23
100
AcDbEntity
  8
SANINDUSA
100
AcDbLine
 10
1237.204619502866
 20
1425.276295292048
 30
0.0
 11
1237.195675007926
 21
1425.214855681951
 31
0.0
  0
LWPOLYLINE
  5
276
330
23
100
AcDbEntity
  8
SANINDUSA
  6
Continuous
100
AcDbPolyline
 90
        6
 70
   128
 43
0.0
 10
1237.195675007926
 20
1425.214855681951
 10
1237.192845097534
 20
1425.215040272651
 10
1237.189876102941
 20
1425.216414456323
 10
1237.188534163915
 20
1425.217607459967
 10
1237.187433290219
 20
1425.21903272246
 10
1237.185986288843
 20
1425.222457291865
  0
LWPOLYLINE
  5
277
330
23
100
AcDbEntity
  8
SANINDUSA
  6
Continuous
100
AcDbPolyline
 90
        6
 70
   128
 43
0.0
 10
1237.185757238694
 20
1425.212354800178
 10
1237.187884510635
 20
1425.212471496476
 10
1237.189973046518
 20
1425.212798198949
 10
1237.192934547839
 20
1425.213679867983
 10
1237.195659954523
 20
1425.214848305917
 10
1237.195675007926
 20
1425.214855681951
  0
SPLINE
  5
278
330
23
100
AcDbEntity
  8
SANINDUSA
100
AcDbSpline
210
0.0
220
0.0
230
1.0
 70
     8
 71
     3
 72
    34
 73
    30
 74
     0
 42
0.0000000001
 43
0.0000000001
 40
4.825845958380594
 40
4.825845958380594
 40
4.825845958380594
 40
4.825845958380594
 40
4.922449296371055
 40
4.922449296371055
 40
5.055342086700224
 40
5.055342086700224
 40
5.188234877029393
 40
5.188234877029393
 40
5.321127667358562
 40
5.321127667358562
 40
5.454020457687732
 40
5.454020457687732
 40
5.561896779474644
 40
5.561896779474644
 40
5.669773101261557
 40
5.669773101261557
 40
5.77764942304847
 40
5.77764942304847
 40
5.885525744835383
 40
5.885525744835383
 40
5.972183956280406
 40
5.972183956280406
 40
6.058842167725429
 40
6.058842167725429
 40
6.145500379170452
 40
6.145500379170452
 40
6.232158590615475
 40
6.232158590615475
 40
6.283185307179586
 40
6.283185307179586
 40
6.283185307179586
 40
6.283185307179586
 10
1237.204531028268
 20
1425.283092323438
 30
0.0
 10
1237.22180456291
 20
1425.284313699201
 30
0.0
 10
1237.23895893348
 20
1425.286050704355
 30
0.0
 10
1237.279189604084
 20
1425.291371800474
 30
0.0
 10
1237.302069398747
 20
1425.295404739396
 30
0.0
 10
1237.346487279886
 20
1425.305243674604
 30
0.0
 10
1237.368024921735
 20
1425.311049835846
 30
0.0
 10
1237.40927514465
 20
1425.324237486321
 30
0.0
 10
1237.428987080182
 20
1425.331619173451
 30
0.0
 10
1237.466144859962
 20
1425.347686913372
 30
0.0
 10
1237.483589696179
 20
1425.356373074765
 30
0.0
 10
1237.512803318727
 20
1425.372975324391
 30
0.0
 10
1237.525022630501
 20
1425.380727714794
 30
0.0
 10
1237.547571992798
 20
1425.396635796777
 30
0.0
 10
1237.557901330504
 20
1425.40479106773
 30
0.0
 10
1237.576584250152
 20
1425.421254156226
 30
0.0
 10
1237.584937096001
 20
1425.429560988995
 30
0.0
 10
1237.599667283542
 20
1425.446070200588
 30
0.0
 10
1237.606044307126
 20
1425.454270829095
 30
0.0
 10
1237.615857438571
 20
1425.468764064577
 30
0.0
 10
1237.619626598128
 20
1425.475114521357
 30
0.0
 10
1237.626061485422
 20
1425.487533826997
 30
0.0
 10
1237.628727999524
 20
1425.493602046875
 30
0.0
 10
1237.633085083326
 20
1425.505447611336
 30
0.0
 10
1237.634776862712
 20
1425.51122487685
 30
0.0
 10
1237.637307265453
 20
1425.522553891592
 30
0.0
 10
1237.638147092156
 20
1425.528106426144
 30
0.0
 10
1237.638867133415
 20
1425.536852799807
 30
0.0
 10
1237.63899940102
 20
1425.540078312425
 30
0.0
 10
1237.63899940102
 20
1425.543303765913
 30
0.0
  0
LINE
  5
27C
330
23
100
AcDbEntity
  8
SANINDUSA
100
AcDbLine
 10
1239.479338016278
 20
1425.618994793638
 30
0.0
 11
1238.873358052577
 21
1425.618994793638
 31
0.0
  0
LINE
  5
27E
330
23
100
AcDbEntity
  8
SANINDUSA
100
AcDbLine
 10
1239.518325673343
 20
1425.614832036084
 30
0.0
 11
1238.873358052577
 21
1425.614832036084
 31
0.0
  0
ARC
  5
280
330
23
100
AcDbEntity
  8
SANINDUSA
100
AcDbCircle
 10
1239.023361307416
 20
1422.620858598905
 30
0.0
 40
3.021480694170133
100
AcDbArc
 50
82.87311061660249
 51
90.0
  0
ARC
  5
281
330
23
100
AcDbEntity
  8
SANINDUSA
100
AcDbCircle
 10
1239.025923195647
 20
1421.221381410805
 30
0.0
 40
4.420957882270534
100
AcDbArc
 50
83.60517707076217
 51
90.072816023205
  0
ARC
  5
282
330
23
100
AcDbEntity
  8
SANINDUSA
100
AcDbCircle
 10
1239.517567052944
 20
1425.608880188044
 30
0.0
 40
0.006
100
AcDbArc
 50
346.7899742156742
 51
82.7362671237933
  0
LINE
  5
283
330
23
100
AcDbEntity
  8
SANINDUSA
 48
0.5
100
AcDbLine
 10
1239.462275570722
 20
1425.478332238334
 30
0.0
 11
1239.466870573365
 21
1425.47833224155
 31
0.0
  0
ARC
  5
284
330
23
100
AcDbEntity
  8
SANINDUSA
100
AcDbCircle
 10
1239.47185677268
 20
1425.483324631259
 30
0.0
 40
0.005
100
AcDbArc
 50
273.1186284130999
 51
331.2236628695305
  0
ARC
  5
285
330
23
100
AcDbEntity
  8
SANINDUSA
  6
Continuous
100
AcDbCircle
 10
1239.001350948186
 20
1425.729948423627
 30
0.0
 40
0.5362231458197014
100
AcDbArc
 50
332.3275496935534
 51
346.8008405785576
  0
LINE
  5
286
330
23
100
AcDbEntity
  8
SANINDUSA
 48
0.5
100
AcDbLine
 10
1239.46197655656
 20
1425.478332036084
 30
0.0
 11
1239.472128789987
 21
1425.478332036084
 31
0.0
  0
LINE
  5
287
330
23
100
AcDbEntity
  8
SANINDUSA
 48
0.5
100
AcDbLine
 10
1239.025923195647
 20
1425.642339293075
 30
0.0
 11
1238.873358052577
 21
1425.642339293075
 31
0.0
  0
LINE
  5
288
330
23
100
AcDbEntity
  8
SANINDUSA
 48
0.5
100
AcDbLine
 10
1239.46197655656
 20
1425.478332036084
 30
0.0
 11
1238.873358052577
 21
1425.478332036084
 31
0.0
  0
LINE
  5
289
330
23
100
AcDbEntity
  8
SANINDUSA
100
AcDbLine
 10
1238.823567052943
 20
1425.614832036084
 30
0.0
 11
1238.873358052569
 21
1425.614832036084
 31
0.0
  0
LINE
  5
28D
330
23
100
AcDbEntity
  8
SANINDUSA
100
AcDbLine
 10
1237.0578594543
 20
1425.428087602228
 30
0.0
 11
1237.0578594543
 21
1425.698091793059
 31
0.0
  0
LINE
  5
28E
330
23
100
AcDbEntity
  8
SANINDUSA
 48
0.5
100
AcDbLine
 10
1238.823567052943
 20
1425.478332036084
 30
0.0
 11
1238.873358052569
 21
1425.478332036084
 31
0.0
  0
LINE
  5
28F
330
23
100
AcDbEntity
  8
SANINDUSA
100
AcDbLine
 10
1238.823567052943
 20
1425.618994793638
 30
0.0
 11
1238.873358052569
 21
1425.618994793638
 31
0.0
  0
LINE
  5
290
330
23
100
AcDbEntity
  8
SANINDUSA
 48
0.5
100
AcDbLine
 10
1238.823567052943
 20
1425.642339293075
 30
0.0
 11
1238.873358052569
 21
1425.642339293075
 31
0.0
  0
LINE
  5
291
330
23
100
AcDbEntity
  8
SANINDUSA
100
AcDbLine
 10
1238.823567052943
 20
1425.478332036084
 30
0.0
 11
1238.823567052943
 21
1425.642339293075
 31
0.0
  0
ARC
  5
293
330
23
100
AcDbEntity
  8
SANINDUSA
100
AcDbCircle
 10
1238.545338881312
 20
1425.640034596626
 30
0.0
 40
0.002
100
AcDbArc
 50
0.0
 51
90.0
  0
ARC
  5
295
330
23
100
AcDbEntity
  8
SANINDUSA
  6
Continuous
100
AcDbCircle
 10
1238.535102386387
 20
1425.730416109663
 30
0.0
 40
0.5378364668121332
100
AcDbArc
 50
193.2100257843258
 51
207.6270678195956
  0
ARC
  5
296
330
23
100
AcDbEntity
  8
SANINDUSA
100
AcDbCircle
 10
1238.063017477766
 20
1425.483332036084
 30
0.0
 40
0.005
100
AcDbArc
 50
207.6270678195956
 51
270.0
  0
ARC
  5
297
330
23
100
AcDbEntity
  8
SANINDUSA
100
AcDbCircle
 10
1238.542338881312
 20
1425.483332036084
 30
0.0
 40
0.005
100
AcDbArc
 50
270.0
 51
0.0
  0
ARC
  5
298
330
23
100
AcDbEntity
  8
SANINDUSA
100
AcDbCircle
 10
1238.017338881312
 20
1425.608880188044
 30
0.0
 40
0.006
100
AcDbArc
 50
97.26373287620667
 51
193.2100257843258
  0
LINE
  5
299
330
23
100
AcDbEntity
  8
SANINDUSA
100
AcDbLine
 10
1238.547338881312
 20
1425.640034596626
 30
0.0
 11
1238.547338881312
 21
1425.567217654509
 31
0.0
  0
LINE
  5
29A
330
23
100
AcDbEntity
  8
SANINDUSA
 48
0.5
100
AcDbLine
 10
1238.547338881312
 20
1425.567217654509
 30
0.0
 11
1238.547338881312
 21
1425.483332036084
 31
0.0
  0
LINE
  5
29B
330
23
100
AcDbEntity
  8
SANINDUSA
 48
0.5
100
AcDbLine
 10
1238.063017477766
 20
1425.478332036084
 30
0.0
 11
1238.432653310429
 21
1425.478332036084
 31
0.0
  0
LINE
  5
29C
330
23
100
AcDbEntity
  8
SANINDUSA
 48
0.5
100
AcDbLine
 10
1238.072929373807
 20
1425.478332036084
 30
0.0
 11
1238.06806419005
 21
1425.478332036084
 31
0.0
  0
LINE
  5
29D
330
23
100
AcDbEntity
  8
SANINDUSA
 48
0.5
100
AcDbLine
 10
1238.432653310429
 20
1425.478332036084
 30
0.0
 11
1238.542338881312
 21
1425.478332036084
 31
0.0
  0
LINE
  5
29E
330
23
100
AcDbEntity
  8
SANINDUSA
100
AcDbLine
 10
1238.545338881312
 20
1425.642034596626
 30
0.0
 11
1238.502333988393
 21
1425.642034596626
 31
0.0
  0
LINE
  5
29F
330
23
100
AcDbEntity
  8
SANINDUSA
100
AcDbLine
 10
1238.51040663872
 20
1425.642034596626
 30
0.0
 11
1238.430966290779
 21
1425.642034596626
 31
0.0
  0
LINE
  5
2A0
330
23
100
AcDbEntity
  8
SANINDUSA
100
AcDbLine
 10
1238.016580260913
 20
1425.614832036084
 30
0.0
 11
1238.547338881312
 21
1425.614832036084
 31
0.0
  0
LINE
  5
2A2
330
23
100
AcDbEntity
  8
SANINDUSA
100
AcDbLine
 10
1238.066568173584
 20
1425.62096471644
 30
0.0
 11
1238.547338881312
 21
1425.62096471644
 31
0.0
  0
ELLIPSE
  5
2A3
330
23
100
AcDbEntity
  8
SANINDUSA
 48
0.5
100
AcDbEllipse
 10
1238.409068606837
 20
1425.642034596626
 30
0.0
 11
0.025846660190251
 21
0.0
 31
0.0
210
0.0
220
0.0
230
1.0
 40
0.9893439771908665
 41
5.314806890605351
 42
6.283185307179586
  0
ARC
  5
2A6
330
23
100
AcDbEntity
  8
SANINDUSA
100
AcDbCircle
 10
1238.434915267027
 20
1422.411747573308
 30
0.0
 40
3.230287023318502
100
AcDbArc
 50
90.0
 51
97.44092980667319
  0
ARC
  5
2A7
330
23
100
AcDbEntity
  8
SANINDUSA
 48
0.5
100
AcDbCircle
 10
1239.767151685476
 20
1425.501446182907
 30
0.0
 40
0.005
100
AcDbArc
 50
270.0
 51
358.1387293614649
  0
ARC
  5
2A8
330
23
100
AcDbEntity
  8
SANINDUSA
 48
0.5
100
AcDbCircle
 10
1240.216626905665
 20
1425.483332036084
 30
0.0
 40
0.005
100
AcDbArc
 50
193.6465795636434
 51
270.0
  0
ARC
  5
2AA
330
23
100
AcDbEntity
  8
SANINDUSA
100
AcDbCircle
 10
1240.221457307531
 20
1425.483332036084
 30
0.0
 40
0.005
100
AcDbArc
 50
270.0
 51
332.4104342868817
  0
ARC
  5
2AB
330
23
100
AcDbEntity
  8
SANINDUSA
100
AcDbCircle
 10
1240.160974830868
 20
1425.477205066752
 30
0.0
 40
0.02
100
AcDbArc
 50
90.00004011183253
 51
95.57423129686126
  0
LINE
  5
2AC
330
23
100
AcDbEntity
  8
SANINDUSA
100
AcDbLine
 10
1239.861950554028
 20
1425.625644339364
 30
0.0
 11
1239.877250366899
 21
1425.504950138996
 31
0.0
  0
ARC
  5
2AD
330
23
100
AcDbEntity
  8
SANINDUSA
100
AcDbCircle
 10
1239.897088849291
 20
1425.507486793556
 30
0.0
 40
0.01
100
AcDbArc
 50
187.2866058529769
 51
268.2336040825349
  0
LINE
  5
2AE
330
23
100
AcDbEntity
  8
SANINDUSA
100
AcDbLine
 10
1239.87060225609
 20
1425.636825743961
 30
0.0
 11
1239.887169608095
 21
1425.506218466275
 31
0.0
  0
ARC
  5
2AF
330
23
100
AcDbEntity
  8
SANINDUSA
100
AcDbCircle
 10
1239.84939789417
 20
1422.411747573308
 30
0.0
 40
3.230287023318502
100
AcDbArc
 50
82.55748070496515
 51
83.23629122464051
  0
ARC
  5
2B0
330
23
100
AcDbEntity
  8
SANINDUSA
  6
Continuous
100
AcDbCircle
 10
1239.74921077481
 20
1425.730107060545
 30
0.0
 40
0.5378364668121332
100
AcDbArc
 50
332.4104342868817
 51
346.8231521523164
  0
ARC
  5
2B1
330
23
100
AcDbEntity
  8
SANINDUSA
100
AcDbCircle
 10
1240.167722109323
 20
1425.477205071475
 30
0.0
 40
0.02
100
AcDbArc
 50
90.00004011183253
 51
94.1719711986591
  0
LINE
  5
2B2
330
23
100
AcDbEntity
  8
SANINDUSA
 48
0.5
100
AcDbLine
 10
1240.21138378739
 20
1425.478332036084
 30
0.0
 11
1240.216248971147
 21
1425.478332036084
 31
0.0
  0
ARC
  5
2B3
330
23
100
AcDbEntity
  8
SANINDUSA
 48
0.5
100
AcDbCircle
 10
1240.204182143158
 20
1425.492205096996
 30
0.0
 40
0.005
100
AcDbArc
 50
13.64657956364342
 51
90.00004011183253
  0
LINE
  5
2B4
330
23
100
AcDbEntity
  8
SANINDUSA
 48
0.5
100
AcDbLine
 10
1240.158331773758
 20
1425.497205064901
 30
0.0
 11
1240.204182139658
 21
1425.497205096996
 31
0.0
  0
LINE
  5
2B5
330
23
100
AcDbEntity
  8
SANINDUSA
 48
0.5
100
AcDbLine
 10
1240.211843041832
 20
1425.481843528179
 30
0.0
 11
1240.209040990742
 21
1425.493384758032
 31
0.0
  0
ARC
  5
2B6
330
23
100
AcDbEntity
  8
SANINDUSA
100
AcDbCircle
 10
1240.18128810183
 20
1425.512205080971
 30
0.0
 40
0.005
100
AcDbArc
 50
143.6514735473565
 51
270.0000401118325
  0
ARC
  5
2B7
330
23
100
AcDbEntity
  8
SANINDUSA
100
AcDbCircle
 10
1240.221256710463
 20
1425.517205108948
 30
0.0
 40
0.01
100
AcDbArc
 50
270.0000401118325
 51
335.7236938859381
  0
LINE
  5
2B8
330
23
100
AcDbEntity
  8
SANINDUSA
 48
0.5
100
AcDbLine
 10
1240.18128810533
 20
1425.507205080971
 30
0.0
 11
1240.221256717463
 21
1425.507205108948
 31
0.0
  0
ARC
  5
2B9
330
23
100
AcDbEntity
  8
SANINDUSA
  6
Continuous
100
AcDbCircle
 10
1239.74921077481
 20
1425.730107060545
 30
0.0
 40
0.5278364668121332
100
AcDbArc
 50
335.7236938859381
 51
345.6760284965017
  0
ARC
  5
2BA
330
23
100
AcDbEntity
  8
SANINDUSA
100
AcDbCircle
 10
1239.775330422588
 20
1421.221072361685
 30
0.0
 40
4.410957882270534
100
AcDbArc
 50
83.73953209130865
 51
84.02023300724202
  0
ARC
  5
2BB
330
23
100
AcDbEntity
  8
SANINDUSA
100
AcDbCircle
 10
1240.234331036508
 20
1425.603056306974
 30
0.0
 40
0.005
100
AcDbArc
 50
84.02023300724202
 51
155.7920086819184
  0
ARC
  5
2BC
330
23
100
AcDbEntity
  8
SANINDUSA
100
AcDbCircle
 10
1240.255793461922
 20
1425.600755013222
 30
0.0
 40
0.005
100
AcDbArc
 50
345.6760284965017
 51
83.73953209130865
  0
ARC
  5
2BD
330
23
100
AcDbEntity
  8
SANINDUSA
  6
Continuous
100
AcDbCircle
 10
1239.780653678294
 20
1425.807023057884
 30
0.0
 40
0.4924189188529301
100
AcDbArc
 50
323.6514735473566
 51
335.7920086819185
  0
ARC
  5
2BE
330
23
100
AcDbEntity
  8
SANINDUSA
100
AcDbCircle
 10
1240.153289340908
 20
1425.516640038686
 30
0.0
 40
0.01
100
AcDbArc
 50
273.0923384283603
 51
322.0718570169282
  0
ARC
  5
2C1
330
23
100
AcDbEntity
  8
SANINDUSA
  6
Continuous
100
AcDbCircle
 10
1239.780653678294
 20
1425.807023057884
 30
0.0
 40
0.4824189188529301
100
AcDbArc
 50
322.0718570169282
 51
336.6697761517263
  0
ARC
  5
2C2
330
23
100
AcDbEntity
  8
SANINDUSA
100
AcDbCircle
 10
1240.229138294653
 20
1425.613594546069
 30
0.0
 40
0.006
100
AcDbArc
 50
83.23629122464051
 51
156.6697761517263
  0
ARC
  5
2C3
330
23
100
AcDbEntity
  8
SANINDUSA
100
AcDbCircle
 10
1239.749333390983
 20
1425.640010477068
 30
0.0
 40
0.002
100
AcDbArc
 50
90.0
 51
180.0
  0
ARC
  5
2C4
330
23
100
AcDbEntity
  8
SANINDUSA
 48
0.5
100
AcDbCircle
 10
1239.752333390983
 20
1425.483332036084
 30
0.0
 40
0.005
100
AcDbArc
 50
180.0
 51
270.0
  0
LINE
  5
2C6
330
23
100
AcDbEntity
  8
SANINDUSA
100
AcDbLine
 10
1239.790333390983
 20
1425.630034596626
 30
0.0
 11
1239.781172400137
 21
1425.630010477068
 31
0.0
  0
ARC
  5
2C7
330
23
100
AcDbEntity
  8
SANINDUSA
100
AcDbCircle
 10
1239.761333390983
 20
1425.628010477068
 30
0.0
 40
0.004
100
AcDbArc
 50
90.0
 51
180.0
  0
ARC
  5
2C8
330
23
100
AcDbEntity
  8
SANINDUSA
 48
0.5
100
AcDbCircle
 10
1239.762259860626
 20
1425.628010477068
 30
0.0
 40
0.004
100
AcDbArc
 50
358.1387293614649
 51
90.0
  0
LINE
  5
2C9
330
23
100
AcDbEntity
  8
SANINDUSA
100
AcDbLine
 10
1239.761333390983
 20
1425.632010477068
 30
0.0
 11
1239.762259860626
 21
1425.632010477068
 31
0.0
  0
LINE
  5
2CA
330
23
100
AcDbEntity
  8
SANINDUSA
 48
0.5
100
AcDbLine
 10
1239.791333390984
 20
1425.641034596626
 30
0.0
 11
1239.791333390984
 21
1425.631034596626
 31
0.0
  0
ARC
  5
2CB
330
23
100
AcDbEntity
  8
SANINDUSA
 48
0.5
100
AcDbCircle
 10
1239.790333390983
 20
1425.641034596626
 30
0.0
 40
0.001
100
AcDbArc
 50
0.0
 51
90.0
  0
ARC
  5
2CC
330
23
100
AcDbEntity
  8
SANINDUSA
 48
0.5
100
AcDbCircle
 10
1239.790333390983
 20
1425.631034596626
 30
0.0
 40
0.001
100
AcDbArc
 50
270.0
 51
0.0
  0
LINE
  5
2CD
330
23
100
AcDbEntity
  8
SANINDUSA
100
AcDbLine
 10
1239.830358143256
 20
1425.630010175724
 30
0.0
 11
1239.836667799096
 21
1425.630010175724
 31
0.0
  0
LINE
  5
2CE
330
23
100
AcDbEntity
  8
SANINDUSA
 48
0.5
100
AcDbLine
 10
1239.82633286524
 20
1425.640986724904
 30
0.0
 11
1239.82633286524
 21
1425.630986724904
 31
0.0
  0
ARC
  5
2CF
330
23
100
AcDbEntity
  8
SANINDUSA
 48
0.5
100
AcDbCircle
 10
1239.82733286524
 20
1425.630986724904
 30
0.0
 40
0.001
100
AcDbArc
 50
180.0
 51
270.0
  0
ARC
  5
2D0
330
23
100
AcDbEntity
  8
SANINDUSA
 48
0.5
100
AcDbCircle
 10
1239.82733286524
 20
1425.640986724904
 30
0.0
 40
0.001
100
AcDbArc
 50
90.0
 51
180.0
  0
LINE
  5
2D3
330
23
100
AcDbEntity
  8
SANINDUSA
100
AcDbLine
 10
1239.790875049729
 20
1425.630010477068
 30
0.0
 11
1239.830333595422
 21
1425.630010477068
 31
0.0
  0
LINE
  5
2D4
330
23
100
AcDbEntity
  8
SANINDUSA
 48
0.5
100
AcDbLine
 10
1239.859456385112
 20
1425.478332036084
 30
0.0
 11
1239.756333390984
 21
1425.478332036084
 31
0.0
  0
ARC
  5
2D5
330
23
100
AcDbEntity
  8
SANINDUSA
 48
0.5
100
AcDbCircle
 10
1239.752333390983
 20
1425.501446182907
 30
0.0
 40
0.005
100
AcDbArc
 50
180.0
 51
270.0
  0
ARC
  5
2D6
330
23
100
AcDbEntity
  8
SANINDUSA
 48
0.5
100
AcDbCircle
 10
1239.752333390983
 20
1425.564232036084
 30
0.0
 40
0.005
100
AcDbArc
 50
180.0
 51
270.0
  0
ARC
  5
2D7
330
23
100
AcDbEntity
  8
SANINDUSA
 48
0.5
100
AcDbCircle
 10
1239.760333390983
 20
1425.572232036084
 30
0.0
 40
0.003
100
AcDbArc
 50
180.0
 51
270.0
  0
LINE
  5
2D8
330
23
100
AcDbEntity
  8
SANINDUSA
 48
0.5
100
AcDbLine
 10
1239.760333390983
 20
1425.569232036084
 30
0.0
 11
1239.761544010443
 21
1425.569232036084
 31
0.0
  0
ARC
  5
2D9
330
23
100
AcDbEntity
  8
SANINDUSA
 48
0.5
100
AcDbCircle
 10
1239.769288259616
 20
1425.564232036084
 30
0.0
 40
0.005
100
AcDbArc
 50
270.0
 51
358.1387293614649
  0
LINE
  5
2DA
330
23
100
AcDbEntity
  8
SANINDUSA
 48
0.5
100
AcDbLine
 10
1239.752333390984
 20
1425.496446182907
 30
0.0
 11
1239.767151685476
 21
1425.496446182907
 31
0.0
  0
LINE
  5
2DB
330
23
100
AcDbEntity
  8
SANINDUSA
 48
0.5
100
AcDbLine
 10
1239.752333390984
 20
1425.559232036084
 30
0.0
 11
1239.769288259616
 21
1425.559232036084
 31
0.0
  0
ARC
  5
2DC
330
23
100
AcDbEntity
  8
SANINDUSA
 48
0.5
100
AcDbCircle
 10
1239.761544010443
 20
1425.572232036084
 30
0.0
 40
0.003
100
AcDbArc
 50
270.0
 51
358.1387293614649
  0
LINE
  5
2DD
330
23
100
AcDbEntity
  8
SANINDUSA
 48
0.5
100
AcDbLine
 10
1239.747333390983
 20
1425.56719353495
 30
0.0
 11
1239.747333390983
 21
1425.483332036084
 31
0.0
  0
LINE
  5
2DE
330
23
100
AcDbEntity
  8
SANINDUSA
 48
0.5
100
AcDbLine
 10
1239.774285621611
 20
1425.567031137012
 30
0.0
 11
1239.776175038142
 21
1425.625172875006
 31
0.0
  0
LINE
  5
2DF
330
23
100
AcDbEntity
  8
SANINDUSA
100
AcDbLine
 10
1239.747333390983
 20
1425.640010477068
 30
0.0
 11
1239.747333390983
 21
1425.56719353495
 31
0.0
  0
LINE
  5
2E0
330
23
100
AcDbEntity
  8
SANINDUSA
100
AcDbLine
 10
1239.757333390983
 20
1425.628010477068
 30
0.0
 11
1239.757333390983
 21
1425.572232036084
 31
0.0
  0
LINE
  5
2E1
330
23
100
AcDbEntity
  8
SANINDUSA
 48
0.5
100
AcDbLine
 10
1239.772149047471
 20
1425.501283784969
 30
0.0
 11
1239.774285621611
 21
1425.567031137012
 31
0.0
  0
LINE
  5
2E2
330
23
100
AcDbEntity
  8
SANINDUSA
 48
0.5
100
AcDbLine
 10
1239.764421814277
 20
1425.571384542665
 30
0.0
 11
1239.766257750222
 21
1425.627880558717
 31
0.0
  0
ARC
  5
2E3
330
23
100
AcDbEntity
  8
SANINDUSA
100
AcDbCircle
 10
1239.864654684402
 20
1425.636034295283
 30
0.0
 40
0.006
100
AcDbArc
 50
7.579868807253192
 51
90.0
  0
ARC
  5
2E5
330
23
100
AcDbEntity
  8
SANINDUSA
100
AcDbCircle
 10
1239.863588007653
 20
1423.408949713016
 30
0.0
 40
2.232504685561516
100
AcDbArc
 50
80.75884009732726
 51
89.90641857108018
  0
ARC
  5
2E6
330
23
100
AcDbEntity
  8
SANINDUSA
100
AcDbCircle
 10
1240.178081220422
 20
1425.477205071475
 30
0.0
 40
0.02
100
AcDbArc
 50
90.00004011183253
 51
94.1719711986591
  0
ARC
  5
2E7
330
23
100
AcDbEntity
  8
SANINDUSA
100
AcDbCircle
 10
1239.859699667443
 20
1422.411160761371
 30
0.0
 40
3.230876319187888
100
AcDbArc
 50
82.5594096052945
 51
89.92895272892967
  0
LINE
  5
2E8
330
23
100
AcDbEntity
  8
SANINDUSA
100
AcDbLine
 10
1239.784265633576
 20
1425.642034596626
 30
0.0
 11
1239.863705981516
 21
1425.642034596626
 31
0.0
  0
LINE
  5
2E9
330
23
100
AcDbEntity
  8
SANINDUSA
100
AcDbLine
 10
1239.749333390983
 20
1425.642034596626
 30
0.0
 11
1239.788338283903
 21
1425.642034596626
 31
0.0
  0
LINE
  5
2EA
330
23
100
AcDbEntity
  8
SANINDUSA
 48
0.5
100
AcDbLine
 10
1239.859456385112
 20
1425.478332036084
 30
0.0
 11
1239.752333390983
 21
1425.478332036084
 31
0.0
  0
LINE
  5
2EB
330
23
100
AcDbEntity
  8
SANINDUSA
 48
0.5
100
AcDbLine
 10
1240.23165479453
 20
1425.478332036084
 30
0.0
 11
1239.994967416672
 21
1425.478332036084
 31
0.0
  0
LINE
  5
2EC
330
23
100
AcDbEntity
  8
SANINDUSA
 48
0.5
100
AcDbLine
 10
1239.747333390983
 20
1425.567217654509
 30
0.0
 11
1239.747333390983
 21
1425.483332036084
 31
0.0
  0
LINE
  5
2ED
330
23
100
AcDbEntity
  8
SANINDUSA
100
AcDbLine
 10
1239.747333390983
 20
1425.640034596626
 30
0.0
 11
1239.747333390983
 21
1425.567217654509
 31
0.0
  0
ARC
  5
2EE
330
23
100
AcDbEntity
  8
SANINDUSA
100
AcDbCircle
 10
1240.277333390984
 20
1425.608880188044
 30
0.0
 40
0.006
100
AcDbArc
 50
346.7899742156742
 51
82.7362671237933
  0
ARC
  5
2EF
330
23
100
AcDbEntity
  8
SANINDUSA
100
AcDbCircle
 10
1239.752333390984
 20
1425.483332036084
 30
0.0
 40
0.005
100
AcDbArc
 50
180.0
 51
270.0
  0
ARC
  5
2F0
330
23
100
AcDbEntity
  8
SANINDUSA
100
AcDbCircle
 10
1240.23165479453
 20
1425.483332036084
 30
0.0
 40
0.005
100
AcDbArc
 50
270.0
 51
332.3729321804044
  0
ARC
  5
2F1
330
23
100
AcDbEntity
  8
SANINDUSA
  6
Continuous
100
AcDbCircle
 10
1239.759569885909
 20
1425.730416109663
 30
0.0
 40
0.5378364668121332
100
AcDbArc
 50
332.3729321804044
 51
346.7899742156742
  0
ARC
  5
2F2
330
23
100
AcDbEntity
  8
SANINDUSA
100
AcDbCircle
 10
1239.749333390983
 20
1425.640034596626
 30
0.0
 40
0.002
100
AcDbArc
 50
90.0
 51
180.0
  0
ARC
  5
2F3
330
23
100
AcDbEntity
  8
SANINDUSA
100
AcDbCircle
 10
1238.431084264643
 20
1423.408949713016
 30
0.0
 40
2.232504685561516
100
AcDbArc
 50
89.90185247284568
 51
97.76858228507478
  0
ARC
  5
2F6
330
23
100
AcDbEntity
  8
SANINDUSA
100
AcDbCircle
 10
1237.0598594543
 20
1425.164083411398
 30
0.0
 40
0.002
100
AcDbArc
 50
180.0
 51
270.0
  0
ARC
  5
2F9
330
23
100
AcDbEntity
  8
SANINDUSA
100
AcDbCircle
 10
1240.267044570194
 20
1425.608870977674
 30
0.0
 40
0.006
100
AcDbArc
 50
346.8231521523164
 51
82.55748070496515
  0
LINE
  5
2FA
330
23
100
AcDbEntity
  8
SANINDUSA
100
AcDbLine
 10
1240.224103903489
 20
1425.616858731359
 30
0.0
 11
1240.225874109363
 21
1425.618628937233
 31
0.0
  0
LWPOLYLINE
  5
317
330
23
100
AcDbEntity
  8
SANINDUSA
100
AcDbPolyline
 90
        7
 70
   128
 43
0.0
 10
1238.942371523171
 20
1425.640370668336
 10
1238.939123000818
 20
1425.638531279211
 10
1238.937055760323
 20
1425.636426062012
 10
1238.936175392551
 20
1425.634029740767
 10
1238.936487488367
 20
1425.631317039503
 10
1238.938059015475
 20
1425.628164156114
 10
1238.945392515588
 20
1425.618994793638
  0
LWPOLYLINE
  5
31B
330
23
100
AcDbEntity
  8
SANINDUSA
100
AcDbPolyline
 90
        5
 70
   128
 43
0.0
 10
1238.986623304518
 20
1425.642339293075
 10
1238.958698900312
 20
1425.641945539553
 10
1238.955373799577
 20
1425.641872128274
 10
1238.952332010813
 20
1425.641775499661
 10
1238.949631691824
 20
1425.641656476481
  0
LWPOLYLINE
  5
322
330
23
100
AcDbEntity
  8
SANINDUSA
100
AcDbPolyline
 90
        6
 70
   128
 43
0.0
 10
1238.949637851232
 20
1425.64165628924
 10
1238.949228838561
 20
1425.641613685822
 10
1238.946854458617
 20
1425.641331881213
 10
1238.944911608672
 20
1425.641033067281
 10
1238.943401705834
 20
1425.640711660342
 10
1238.942371523171
 20
1425.640370668336
  0
LWPOLYLINE
  5
324
330
23
100
AcDbEntity
  8
SANINDUSA
100
AcDbPolyline
 90
        4
 70
   128
 43
0.0
 10
1237.299457014098
 20
1425.569752155593
 10
1237.299760305962
 20
1425.569648149804
 10
1237.30043007456
 20
1425.569255777122
 10
1237.300639378037
 20
1425.568861620348
  0
LWPOLYLINE
  5
325
330
23
100
AcDbEntity
  8
SANINDUSA
100
AcDbPolyline
 90
       16
 70
   128
 43
0.0
 10
1237.29904648715
 20
1425.567942027938
 10
1237.298860025346
 20
1425.567882818973
 10
1237.297493643212
 20
1425.567600690955
 10
1237.295806728213
 20
1425.567361766262
 10
1237.29384058522
 20
1425.567167616743
 10
1237.291669418299
 20
1425.56702360904
 10
1237.289340178118
 20
1425.566929458713
 10
1237.286935539872
 20
1425.566887423031
 10
1237.284508934957
 20
1425.566896667442
 10
1237.28213688274
 20
1425.566957417379
 10
1237.279878364448
 20
1425.567068079068
 10
1237.277795630259
 20
1425.567227808254
 10
1237.275947597898
 20
1425.56743314057
 10
1237.274380096643
 20
1425.567682516321
 10
1237.27314278369
 20
1425.567969327016
 10
1237.273090816318
 20
1425.567988406798
  0
LWPOLYLINE
  5
326
330
23
100
AcDbEntity
  8
SANINDUSA
100
AcDbPolyline
 90
        7
 70
   128
 43
0.0
 10
1237.273090816318
 20
1425.567988406798
 10
1237.272266958098
 20
1425.568290885725
 10
1237.27178253079
 20
1425.568636779299
 10
1237.271753247531
 20
1425.569095411552
 10
1237.272199448296
 20
1425.569467623005
 10
1237.273046997491
 20
1425.569831758584
 10
1237.273112901496
 20
1425.569850172918
  0
LWPOLYLINE
  5
327
330
23
100
AcDbEntity
  8
SANINDUSA
100
AcDbPolyline
 90
       15
 70
   128
 43
0.0
 10
1237.273112901496
 20
1425.569850172918
 10
1237.274278325695
 20
1425.570175805791
 10
1237.275855212695
 20
1425.570488073326
 10
1237.277727088859
 20
1425.570755012615
 10
1237.279846090728
 20
1425.570968835336
 10
1237.282123120499
 20
1425.571118304484
 10
1237.284517362702
 20
1425.57120142404
 10
1237.286930541723
 20
1425.5712138103
 10
1237.289321871658
 20
1425.571157490754
 10
1237.291613624786
 20
1425.571034337471
 10
1237.293752840555
 20
1425.570850290285
 10
1237.295690664312
 20
1425.570609965052
 10
1237.297363172536
 20
1425.570324291859
 10
1237.298738331844
 20
1425.569998608345
 10
1237.299457014098
 20
1425.569752155593
  0
LWPOLYLINE
  5
328
330
23
100
AcDbEntity
  8
SANINDUSA
100
AcDbPolyline
 90
        4
 70
   128
 43
0.0
 10
1237.300639378037
 20
1425.568861620348
 10
1237.300429350472
 20
1425.568522184957
 10
1237.29985745418
 20
1425.568199541903
 10
1237.29904648715
 20
1425.567942027938
  0
ARC
  5
330
330
23
100
AcDbEntity
  8
SANINDUSA
 48
0.5
100
AcDbCircle
 10
1239.781172400137
 20
1425.625010477068
 30
0.0
 40
0.005
100
AcDbArc
 50
90.0
 51
178.1387293614648
  0
ARC
  5
331
330
23
100
AcDbEntity
  8
SANINDUSA
100
AcDbCircle
 10
1239.856990933429
 20
1425.625010175724
 30
0.0
 40
0.005
100
AcDbArc
 50
7.286605852976966
 51
90.0
  0
LINE
  5
334
330
23
100
AcDbEntity
  8
SANINDUSA
100
AcDbLine
 10
1239.01804972761
 20
1425.448362446411
 30
0.0
 11
1239.017003166477
 21
1425.478332036084
 31
0.0
  0
LINE
  5
335
330
23
100
AcDbEntity
  8
SANINDUSA
100
AcDbLine
 10
1239.085084378277
 20
1425.448362446411
 30
0.0
 11
1239.08613093941
 21
1425.478332036084
 31
0.0
  0
LINE
  5
336
330
23
100
AcDbEntity
  8
SANINDUSA
100
AcDbLine
 10
1239.027146439364
 20
1425.447379898818
 30
0.0
 11
1239.075987666523
 21
1425.447372280854
 31
0.0
  0
ARC
  5
337
330
23
100
AcDbEntity
  8
SANINDUSA
 48
0.5
100
AcDbCircle
 10
1239.019049659433
 20
1425.448379898818
 30
0.0
 40
0.001
100
AcDbArc
 50
180.9999999969218
 51
270.0
  0
LINE
  5
338
330
23
100
AcDbEntity
  8
SANINDUSA
 48
0.5
100
AcDbLine
 10
1239.027146439364
 20
1425.447379898818
 30
0.0
 11
1239.019049659433
 21
1425.447379898818
 31
0.0
  0
LINE
  5
339
330
23
100
AcDbEntity
  8
SANINDUSA
 48
0.5
100
AcDbLine
 10
1239.075987750651
 20
1425.447379898818
 30
0.0
 11
1239.084084530582
 21
1425.447379898818
 31
0.0
  0
ARC
  5
33A
330
23
100
AcDbEntity
  8
SANINDUSA
 48
0.5
100
AcDbCircle
 10
1239.084084530582
 20
1425.448379898818
 30
0.0
 40
0.001
100
AcDbArc
 50
270.0
 51
359.0000000030781
  0
ARC
  5
33D
330
23
100
AcDbEntity
  8
SANINDUSA
100
AcDbCircle
 10
1240.000022820098
 20
1425.47983130728
 30
0.0
 40
0.005
100
AcDbArc
 50
130.8625100889431
 51
177.9999999962464
  0
ARC
  5
33E
330
23
100
AcDbEntity
  8
SANINDUSA
 48
0.5
100
AcDbCircle
 10
1239.992918858072
 20
1425.448318337376
 30
0.0
 40
0.001
100
AcDbArc
 50
270.0
 51
359.0000000030781
  0
ARC
  5
33F
330
23
100
AcDbEntity
  8
SANINDUSA
 48
0.5
100
AcDbCircle
 10
1239.927883986923
 20
1425.448318337376
 30
0.0
 40
0.001
100
AcDbArc
 50
180.9999999969218
 51
270.0
  0
LINE
  5
340
330
23
100
AcDbEntity
  8
SANINDUSA
 48
0.5
100
AcDbLine
 10
1239.935980766854
 20
1425.447318337376
 30
0.0
 11
1239.927883986923
 21
1425.447318337376
 31
0.0
  0
LINE
  5
341
330
23
100
AcDbEntity
  8
SANINDUSA
 48
0.5
100
AcDbLine
 10
1239.984822078141
 20
1425.447318337376
 30
0.0
 11
1239.992918858072
 21
1425.447318337376
 31
0.0
  0
LINE
  5
342
330
23
100
AcDbEntity
  8
SANINDUSA
100
AcDbLine
 10
1239.993918705767
 20
1425.44830088497
 30
0.0
 11
1239.995025865963
 21
1425.480005804764
 31
0.0
  0
LINE
  5
343
330
23
100
AcDbEntity
  8
SANINDUSA
100
AcDbLine
 10
1239.935980766854
 20
1425.447318337376
 30
0.0
 11
1239.984821994013
 21
1425.447310719413
 31
0.0
  0
LINE
  5
344
330
23
100
AcDbEntity
  8
SANINDUSA
100
AcDbLine
 10
1239.996751589589
 20
1425.483612715875
 30
0.0
 11
1239.999116985085
 21
1425.485658978192
 31
0.0
  0
ARC
  5
345
330
23
100
AcDbEntity
  8
SANINDUSA
100
AcDbCircle
 10
1239.931880426148
 20
1425.484079613704
 30
0.0
 40
0.0049999999999999
100
AcDbArc
 50
0.1941069744591698
 51
52.84062049148806
  0
LINE
  5
346
330
23
100
AcDbEntity
  8
SANINDUSA
100
AcDbLine
 10
1239.984922363411
 20
1425.447314528394
 30
0.0
 11
1239.935880397455
 21
1425.447314528394
 31
0.0
  0
ARC
  5
347
330
23
100
AcDbEntity
  8
SANINDUSA
100
AcDbCircle
 10
1239.992981632104
 20
1425.448314528394
 30
0.0
 40
0.001
100
AcDbArc
 50
270.0
 51
359.0000000030781
  0
ARC
  5
348
330
23
100
AcDbEntity
  8
SANINDUSA
 48
0.5
100
AcDbCircle
 10
1239.984922363411
 20
1425.448314528394
 30
0.0
 40
0.001
100
AcDbArc
 50
180.0
 51
270.0
  0
ARC
  5
349
330
23
100
AcDbEntity
  8
SANINDUSA
 48
0.5
100
AcDbCircle
 10
1239.927863094719
 20
1425.448314528394
 30
0.0
 40
0.001
100
AcDbArc
 50
180.9999999969218
 51
270.0
  0
ARC
  5
34A
330
23
100
AcDbEntity
  8
SANINDUSA
 48
0.5
100
AcDbCircle
 10
1239.921319561724
 20
1425.479401151567
 30
0.0
 40
0.005
100
AcDbArc
 50
0.9999999969218754
 51
49.73286315161454
  0
LINE
  5
34B
330
23
100
AcDbEntity
  8
SANINDUSA
 48
0.5
100
AcDbLine
 10
1239.92455132287
 20
1425.483216347485
 30
0.0
 11
1239.921627678681
 21
1425.485692896501
 31
0.0
  0
LINE
  5
34C
330
23
100
AcDbEntity
  8
SANINDUSA
 48
0.5
100
AcDbLine
 10
1239.934900597419
 20
1425.48806440548
 30
0.0
 11
1239.927157605904
 21
1425.494623308265
 31
0.0
  0
ARC
  5
34D
330
23
100
AcDbEntity
  8
SANINDUSA
100
AcDbCircle
 10
1239.988922363411
 20
1425.483982990104
 30
0.0
 40
0.005
100
AcDbArc
 50
130.0000000018092
 51
180.0
  0
LINE
  5
34E
330
23
100
AcDbEntity
  8
SANINDUSA
100
AcDbLine
 10
1239.983922363411
 20
1425.448314528394
 30
0.0
 11
1239.983922363411
 21
1425.483982990104
 31
0.0
  0
LINE
  5
34F
330
23
100
AcDbEntity
  8
SANINDUSA
 48
0.5
100
AcDbLine
 10
1239.935880397455
 20
1425.447314528394
 30
0.0
 11
1239.927863094719
 21
1425.447314528394
 31
0.0
  0
LINE
  5
350
330
23
100
AcDbEntity
  8
SANINDUSA
 48
0.5
100
AcDbLine
 10
1239.985708425363
 20
1425.487813212319
 30
0.0
 11
1239.993323289917
 21
1425.494420744404
 31
0.0
  0
LINE
  5
351
330
23
100
AcDbEntity
  8
SANINDUSA
 48
0.5
100
AcDbLine
 10
1239.984922363411
 20
1425.447314528394
 30
0.0
 11
1239.992981632104
 21
1425.447314528394
 31
0.0
  0
LINE
  5
352
330
23
100
AcDbEntity
  8
SANINDUSA
 48
0.5
100
AcDbLine
 10
1239.923879950206
 20
1425.496410175724
 30
0.0
 11
1239.996786831777
 21
1425.496410175724
 31
0.0
  0
ARC
  5
353
330
23
100
AcDbEntity
  8
SANINDUSA
100
AcDbCircle
 10
1239.960355970638
 20
1426.852914275779
 30
0.0
 40
1.356504100243313
100
AcDbArc
 50
269.9990462789748
 51
270.0009537210251
  0
ARC
  5
354
330
23
100
AcDbEntity
  8
SANINDUSA
 48
0.5
100
AcDbCircle
 10
1239.927748739602
 20
1425.448314528394
 30
0.0
 40
0.001
100
AcDbArc
 50
180.0
 51
270.0
  0
LINE
  5
355
330
23
100
AcDbEntity
  8
SANINDUSA
100
AcDbLine
 10
1239.935751851012
 20
1425.447314528394
 30
0.0
 11
1239.927748739602
 21
1425.447314528394
 31
0.0
  0
LINE
  5
356
330
23
100
AcDbEntity
  8
SANINDUSA
 48
0.5
100
AcDbLine
 10
1239.926748739602
 20
1425.448314528394
 30
0.0
 11
1239.926748739602
 21
1425.450670921835
 31
0.0
  0
LINE
  5
357
330
23
100
AcDbEntity
  8
SANINDUSA
 48
0.5
100
AcDbLine
 10
1239.936872964999
 20
1425.484062674707
 30
0.0
 11
1239.936872964999
 21
1425.476214673226
 31
0.0
  0
LINE
  5
35A
330
23
100
AcDbEntity
  8
SANINDUSA
 48
0.5
100
AcDbLine
 10
1239.935901380433
 20
1425.447314528394
 30
0.0
 11
1239.927735189081
 21
1425.447314528394
 31
0.0
  0
LINE
  5
35B
330
23
100
AcDbEntity
  8
SANINDUSA
 48
0.5
100
AcDbLine
 10
1239.926735189081
 20
1425.448314528394
 30
0.0
 11
1239.926735189081
 21
1425.450670921835
 31
0.0
  0
ARC
  5
35C
330
23
100
AcDbEntity
  8
SANINDUSA
 48
0.5
100
AcDbCircle
 10
1239.927735189081
 20
1425.448314528394
 30
0.0
 40
0.001
100
AcDbArc
 50
180.0
 51
270.0
  0
ARC
  5
361
330
23
100
AcDbEntity
  8
SANINDUSA
100
AcDbCircle
 10
1239.935901380433
 20
1425.462012524037
 30
0.0
 40
0.0010000000000008
100
AcDbArc
 50
0.0
 51
79.08171002045842
  0
LINE
  5
364
330
23
100
AcDbEntity
  8
SANINDUSA
100
AcDbLine
 10
1239.936901380433
 20
1425.462012524037
 30
0.0
 11
1239.936901380433
 21
1425.448314528394
 31
0.0
  0
ARC
  5
365
330
23
100
AcDbEntity
  8
SANINDUSA
100
AcDbCircle
 10
1239.935901380433
 20
1425.448314528394
 30
0.0
 40
0.001
100
AcDbArc
 50
270.0
 51
0.0
  0
LINE
  5
366
330
23
100
AcDbEntity
  8
SANINDUSA
 48
0.5
100
AcDbLine
 10
1239.936880397455
 20
1425.474989433236
 30
0.0
 11
1239.926360778298
 21
1425.477083489967
 31
0.0
  0
LINE
  5
367
330
23
100
AcDbEntity
  8
SANINDUSA
 48
0.5
100
AcDbLine
 10
1239.934879614441
 20
1425.48806440548
 30
0.0
 11
1239.9259800532
 21
1425.495603010798
 31
0.0
  0
LINE
  5
36D
330
23
100
AcDbEntity
  8
SANINDUSA
 48
0.5
100
AcDbLine
 10
1239.936859414477
 20
1425.484062674707
 30
0.0
 11
1239.936859414477
 21
1425.474993923738
 31
0.0
  0
ARC
  5
36F
330
23
100
AcDbEntity
  8
SANINDUSA
100
AcDbCircle
 10
1239.93185944317
 20
1425.484079613704
 30
0.0
 40
0.005
100
AcDbArc
 50
359.8058930125134
 51
52.84062049148806
  0
ARC
  5
370
330
23
100
AcDbEntity
  8
SANINDUSA
 48
0.5
100
AcDbCircle
 10
1239.927883986923
 20
1425.448318337376
 30
0.0
 40
0.001
100
AcDbArc
 50
180.9999999969218
 51
270.0
  0
LINE
  5
371
330
23
100
AcDbEntity
  8
SANINDUSA
 48
0.5
100
AcDbLine
 10
1239.935980766854
 20
1425.447318337376
 30
0.0
 11
1239.927883986923
 21
1425.447318337376
 31
0.0
  0
ARC
  5
373
330
23
100
AcDbEntity
  8
SANINDUSA
100
AcDbCircle
 10
1239.921830107836
 20
1425.450151984388
 30
0.0
 40
0.005
100
AcDbArc
 50
0.9999999969218754
 51
80.59579215716949
  0
LINE
  5
375
330
23
100
AcDbEntity
  8
SANINDUSA
100
AcDbLine
 10
1239.935833390984
 20
1425.447314528394
 30
0.0
 11
1239.984833390983
 21
1425.447314528394
 31
0.0
  0
ARC
  5
378
330
23
100
AcDbEntity
  8
SANINDUSA
100
AcDbCircle
 10
1239.960395008117
 20
1427.36809265107
 30
0.0
 40
1.871682475418215
100
AcDbArc
 50
268.05031822775
 51
268.8505553491867
  0
ARC
  5
379
330
23
100
AcDbEntity
  8
SANINDUSA
100
AcDbCircle
 10
1239.922748292054
 20
1425.49178781488
 30
0.0
 40
0.005
100
AcDbArc
 50
49.73286315161454
 51
88.8505553491867
  0
ARC
  5
37A
330
23
100
AcDbEntity
  8
SANINDUSA
100
AcDbCircle
 10
1239.958395008118
 20
1427.368092952414
 30
0.0
 40
1.871682475418215
100
AcDbArc
 50
271.2632005014543
 51
276.0096652664263
  0
ARC
  5
37B
330
23
100
AcDbEntity
  8
SANINDUSA
100
AcDbCircle
 10
1239.960395008117
 20
1427.36809265107
 30
0.0
 40
1.881682475418215
100
AcDbArc
 50
268.05031822775
 51
268.7244438586516
  0
ARC
  5
37C
330
23
100
AcDbEntity
  8
SANINDUSA
100
AcDbCircle
 10
1239.958395008118
 20
1427.368092952414
 30
0.0
 40
1.881682475418215
100
AcDbArc
 50
271.3377863130217
 51
276.0945531097253
  0
ARC
  5
37D
330
23
100
AcDbEntity
  8
SANINDUSA
100
AcDbCircle
 10
1239.897088849291
 20
1425.507486793556
 30
0.0
 40
0.02
100
AcDbArc
 50
187.2866058529769
 51
268.2336040825349
  0
ARC
  5
37E
330
23
100
AcDbEntity
  8
SANINDUSA
100
AcDbCircle
 10
1239.918395917535
 20
1425.481877700583
 30
0.0
 40
0.005
100
AcDbArc
 50
49.73286315161454
 51
88.72444385865156
  0
ARC
  5
380
330
23
100
AcDbEntity
  8
SANINDUSA
100
AcDbCircle
 10
1239.864031125019
 20
1425.617183270163
 30
0.0
 40
0.001
100
AcDbArc
 50
187.2245717462152
 51
278.746170768681
  0
LINE
  5
381
330
23
100
AcDbEntity
  8
SANINDUSA
100
AcDbLine
 10
1239.864183182351
 20
1425.616194898488
 30
0.0
 11
1239.87208373991
 21
1425.617410370083
 31
0.0
  0
ARC
  5
382
330
23
100
AcDbEntity
  8
SANINDUSA
100
AcDbCircle
 10
1239.871931682579
 20
1425.618398741758
 30
0.0
 40
0.001
100
AcDbArc
 50
278.746170768681
 51
7.229280718968598
  0
ARC
  5
383
330
23
100
AcDbEntity
  8
SANINDUSA
100
AcDbCircle
 10
1239.867682373884
 20
1425.588380005331
 30
0.0
 40
0.001
100
AcDbArc
 50
98.74617076868096
 51
187.2245717462152
  0
ARC
  5
384
330
23
100
AcDbEntity
  8
SANINDUSA
100
AcDbCircle
 10
1239.875585290727
 20
1425.589595839892
 30
0.0
 40
0.001
100
AcDbArc
 50
7.229280718968598
 51
98.74617076868096
  0
LINE
  5
385
330
23
100
AcDbEntity
  8
SANINDUSA
100
AcDbLine
 10
1239.867530316553
 20
1425.589368377006
 30
0.0
 11
1239.875433233396
 21
1425.590584211567
 31
0.0
  0
ARC
  5
38B
330
23
100
AcDbEntity
  8
SANINDUSA
100
AcDbCircle
 10
1239.999877115783
 20
1425.486867773696
 30
0.0
 40
0.01
100
AcDbArc
 50
91.26320050145425
 51
130.948666072022
  0
ARC
  5
38C
330
23
100
AcDbEntity
  8
SANINDUSA
100
AcDbCircle
 10
1240.002442731748
 20
1425.48192473057
 30
0.0
 40
0.005
100
AcDbArc
 50
91.33778631302169
 51
130.8625100889431
  0
LINE
  5
38D
330
23
100
AcDbEntity
  8
SANINDUSA
100
AcDbLine
 10
1239.847260388629
 20
1425.559624301855
 30
0.0
 11
1239.841610267156
 21
1425.625172875006
 31
0.0
  0
ARC
  5
38E
330
23
100
AcDbEntity
  8
SANINDUSA
100
AcDbCircle
 10
1239.836612905161
 20
1425.625010477068
 30
0.0
 40
0.005
100
AcDbArc
 50
1.861270638535141
 51
90.0
  0
LINE
  5
38F
330
23
100
AcDbEntity
  8
SANINDUSA
100
AcDbLine
 10
1239.827116208457
 20
1425.630010477068
 30
0.0
 11
1239.836612905161
 21
1425.630010477068
 31
0.0
  0
ARC
  5
390
330
23
100
AcDbEntity
  8
SANINDUSA
100
AcDbCircle
 10
1239.856679887356
 20
1425.625010477068
 30
0.0
 40
0.005
100
AcDbArc
 50
90.0
 51
184.9265740912752
  0
LINE
  5
391
330
23
100
AcDbEntity
  8
SANINDUSA
100
AcDbLine
 10
1239.857332811055
 20
1425.559214299658
 30
0.0
 11
1239.851698359495
 21
1425.624581081946
 31
0.0
  0
LINE
  5
392
330
23
100
AcDbEntity
  8
SANINDUSA
100
AcDbLine
 10
1239.922647099918
 20
1425.455084795814
 30
0.0
 11
1239.875730665864
 21
1425.462855301152
 31
0.0
  0
LINE
  5
393
330
23
100
AcDbEntity
  8
SANINDUSA
100
AcDbLine
 10
1239.857332811055
 20
1425.559214299658
 30
0.0
 11
1239.869110383543
 21
1425.481095699574
 31
0.0
  0
ARC
  5
394
330
23
100
AcDbEntity
  8
SANINDUSA
100
AcDbCircle
 10
1239.897075667239
 20
1425.56391825307
 30
0.0
 40
0.05
100
AcDbArc
 50
184.9265740912752
 51
188.5736431563681
  0
LINE
  5
395
330
23
100
AcDbEntity
  8
SANINDUSA
100
AcDbLine
 10
1239.847634414002
 20
1425.556464228763
 30
0.0
 11
1239.859222132895
 21
1425.479604894712
 31
0.0
  0
ARC
  5
396
330
23
100
AcDbEntity
  8
SANINDUSA
100
AcDbCircle
 10
1239.87899863419
 20
1425.482586504436
 30
0.0
 40
0.01
100
AcDbArc
 50
188.5736431563681
 51
260.5957921571695
  0
ARC
  5
397
330
23
100
AcDbEntity
  8
SANINDUSA
100
AcDbCircle
 10
1239.87899863419
 20
1425.482586504436
 30
0.0
 40
0.02
100
AcDbArc
 50
188.5736431563681
 51
260.5957921571695
  0
LINE
  5
398
330
23
100
AcDbEntity
  8
SANINDUSA
100
AcDbLine
 10
1239.936090789328
 20
1425.462994422337
 30
0.0
 11
1239.877364650027
 21
1425.472720902793
 31
0.0
  0
LINE
  5
39A
330
23
100
AcDbEntity
  8
SANINDUSA
100
AcDbLine
 10
1239.856624993421
 20
1425.630010175724
 30
0.0
 11
1239.856990933429
 21
1425.630010175724
 31
0.0
  0
LINE
  5
39B
330
23
100
AcDbEntity
  8
SANINDUSA
100
AcDbLine
 10
1239.9263188002
 20
1425.479488413599
 30
0.0
 11
1239.926360778298
 21
1425.477083489967
 31
0.0
  0
ARC
  5
3C6
330
23
100
AcDbEntity
  8
SANINDUSA
100
AcDbCircle
 10
1238.415673638106
 20
1425.482586504436
 30
0.0
 40
0.02
100
AcDbArc
 50
279.4042078428305
 51
347.7180006088338
  0
LINE
  5
3C7
330
23
100
AcDbEntity
  8
SANINDUSA
100
AcDbLine
 10
1238.300753566529
 20
1425.44830088497
 30
0.0
 11
1238.299704855623
 21
1425.478332036084
 31
0.0
  0
ARC
  5
3C8
330
23
100
AcDbEntity
  8
SANINDUSA
 48
0.5
100
AcDbCircle
 10
1238.301753414224
 20
1425.448318337376
 30
0.0
 40
0.001
100
AcDbArc
 50
180.9999999969218
 51
270.0
  0
ARC
  5
3C9
330
23
100
AcDbEntity
  8
SANINDUSA
100
AcDbCircle
 10
1238.301690640191
 20
1425.448314528394
 30
0.0
 40
0.001
100
AcDbArc
 50
180.9999999969218
 51
270.0
  0
LINE
  5
3CA
330
23
100
AcDbEntity
  8
SANINDUSA
100
AcDbLine
 10
1238.366809177577
 20
1425.447314528394
 30
0.0
 11
1238.301690640191
 21
1425.447314528394
 31
0.0
  0
ARC
  5
3CB
330
23
100
AcDbEntity
  8
SANINDUSA
 48
0.5
100
AcDbCircle
 10
1238.366788285373
 20
1425.448318337376
 30
0.0
 40
0.001
100
AcDbArc
 50
270.0
 51
359.0000000030781
  0
ARC
  5
3CC
330
23
100
AcDbEntity
  8
SANINDUSA
 48
0.5
100
AcDbCircle
 10
1238.366809177577
 20
1425.448314528394
 30
0.0
 40
0.001
100
AcDbArc
 50
270.0
 51
359.0000000030781
  0
ARC
  5
3CD
330
23
100
AcDbEntity
  8
SANINDUSA
 48
0.5
100
AcDbCircle
 10
1238.366923532694
 20
1425.448314528394
 30
0.0
 40
0.001
100
AcDbArc
 50
270.0
 51
0.0
  0
LINE
  5
3CE
330
23
100
AcDbEntity
  8
SANINDUSA
 48
0.5
100
AcDbLine
 10
1238.367923532694
 20
1425.448314528394
 30
0.0
 11
1238.367923532694
 21
1425.450670921835
 31
0.0
  0
LINE
  5
3CF
330
23
100
AcDbEntity
  8
SANINDUSA
 48
0.5
100
AcDbLine
 10
1238.367937083215
 20
1425.448314528394
 30
0.0
 11
1238.367937083215
 21
1425.450670921835
 31
0.0
  0
ARC
  5
3D0
330
23
100
AcDbEntity
  8
SANINDUSA
 48
0.5
100
AcDbCircle
 10
1238.366937083215
 20
1425.448314528394
 30
0.0
 40
0.001
100
AcDbArc
 50
270.0
 51
0.0
  0
ARC
  5
3D1
330
23
100
AcDbEntity
  8
SANINDUSA
 48
0.5
100
AcDbCircle
 10
1238.366788285373
 20
1425.448318337376
 30
0.0
 40
0.001
100
AcDbArc
 50
270.0
 51
359.0000000030781
  0
LINE
  5
3D2
330
23
100
AcDbEntity
  8
SANINDUSA
100
AcDbLine
 10
1238.367723174096
 20
1425.447696417461
 30
0.0
 11
1238.367715555137
 21
1425.447704036421
 31
0.0
  0
LINE
  5
3D3
330
23
100
AcDbEntity
  8
SANINDUSA
100
AcDbLine
 10
1238.367648577477
 20
1425.447771014081
 30
0.0
 11
1238.367634344016
 21
1425.447785247541
 31
0.0
  0
ARC
  5
3D4
330
23
100
AcDbEntity
  8
SANINDUSA
100
AcDbCircle
 10
1238.372842164459
 20
1425.450151984388
 30
0.0
 40
0.005
100
AcDbArc
 50
99.40420784283052
 51
179.0000000030781
  0
LINE
  5
3D5
330
23
100
AcDbEntity
  8
SANINDUSA
100
AcDbLine
 10
1238.372025172378
 20
1425.455084795814
 30
0.0
 11
1238.418941606431
 21
1425.462855301152
 31
0.0
  0
ARC
  5
3DA
330
23
100
AcDbEntity
  8
SANINDUSA
 48
0.5
100
AcDbCircle
 10
1237.755866416293
 20
1425.696042671951
 30
0.0
 40
0.002
100
AcDbArc
 50
359.9949101614919
 51
89.99491016149196
  0
ENDSEC
  0
SECTION
  2
OBJECTS
  0
DICTIONARY
  5
C
330
0
100
AcDbDictionary
281
     1
  3
ACAD_COLOR
350
1C
  3
ACAD_GROUP
350
D
  3
ACAD_LAYOUT
350
1A
  3
ACAD_MATERIAL
350
1B
  3
ACAD_MLEADERSTYLE
350
439
  3
ACAD_MLINESTYLE
350
17
  3
ACAD_PLOTSETTINGS
350
19
  3
ACAD_PLOTSTYLENAME
350
E
  3
ACAD_SCALELIST
350
427
  3
ACAD_TABLESTYLE
350
1D
  3
ACAD_VISUALSTYLE
350
413
  3
ACDB_RECOMPOSE_DATA
350
457
  3
AcDbVariableDictionary
350
3EC
  3
ASE_INDEX_DICTIONARY
350
3E9
  3
DWGPROPS
350
458
  0
DICTIONARY
  5
43E
330
10
100
AcDbDictionary
280
     1
281
     1
  3
ADSK_XREC_LAYER_RECONCILED
360
43F
  0
DICTIONARY
  5
440
330
31
100
AcDbDictionary
280
     1
281
     1
  3
ADSK_XREC_LAYER_RECONCILED
360
441
  0
DICTIONARY
  5
442
330
32
100
AcDbDictionary
280
     1
281
     1
  3
ADSK_XREC_LAYER_RECONCILED
360
443
  0
DICTIONARY
  5
444
330
33
100
AcDbDictionary
280
     1
281
     1
  3
ADSK_XREC_LAYER_RECONCILED
360
445
  0
DICTIONARY
  5
446
330
34
100
AcDbDictionary
280
     1
281
     1
  3
ADSK_XREC_LAYER_RECONCILED
360
447
  0
DICTIONARY
  5
448
330
35
100
AcDbDictionary
280
     1
281
     1
  3
ADSK_XREC_LAYER_RECONCILED
360
449
  0
DICTIONARY
  5
44A
330
36
100
AcDbDictionary
280
     1
281
     1
  3
ADSK_XREC_LAYER_RECONCILED
360
44B
  0
DICTIONARY
  5
44C
330
37
100
AcDbDictionary
280
     1
281
     1
  3
ADSK_XREC_LAYER_RECONCILED
360
44D
  0
DICTIONARY
  5
44E
330
38
100
AcDbDictionary
280
     1
281
     1
  3
ADSK_XREC_LAYER_RECONCILED
360
44F
  0
DICTIONARY
  5
1C
102
{ACAD_REACTORS
330
C
102
}
330
C
100
AcDbDictionary
281
     1
  0
DICTIONARY
  5
D
102
{ACAD_REACTORS
330
C
102
}
330
C
100
AcDbDictionary
281
     1
  0
DICTIONARY
  5
1A
102
{ACAD_REACTORS
330
C
102
}
330
C
100
AcDbDictionary
281
     1
  3
Layout1
350
22
  3
Layout2
350
2A
  3
Model
350
26
  0
DICTIONARY
  5
1B
102
{ACAD_REACTORS
330
C
102
}
330
C
100
AcDbDictionary
281
     1
  3
ByBlock
350
403
  3
ByLayer
350
3FB
  3
Global
350
40B
  0
DICTIONARY
  5
439
102
{ACAD_REACTORS
330
C
102
}
330
C
100
AcDbDictionary
281
     1
  3
Standard
350
43A
  0
DICTIONARY
  5
17
102
{ACAD_REACTORS
330
C
102
}
330
C
100
AcDbDictionary
281
     1
  3
Standard
350
18
  0
DICTIONARY
  5
19
102
{ACAD_REACTORS
330
C
102
}
330
C
100
AcDbDictionary
281
     1
  0
ACDBDICTIONARYWDFLT
  5
E
102
{ACAD_REACTORS
330
C
102
}
330
C
100
AcDbDictionary
281
     1
  3
Normal
350
F
100
AcDbDictionaryWithDefault
340
F
  0
DICTIONARY
  5
427
102
{ACAD_REACTORS
330
C
102
}
330
C
100
AcDbDictionary
281
     1
  3
A0
350
428
  3
A1
350
429
  3
A2
350
42A
  3
A3
350
42B
  3
A4
350
42C
  3
A5
350
42D
  3
A6
350
42E
  3
A7
350
42F
  3
A8
350
430
  3
A9
350
431
  3
B0
350
432
  3
B1
350
433
  3
B2
350
434
  3
B3
350
435
  3
B4
350
436
  3
B5
350
437
  3
B6
350
438
  0
DICTIONARY
  5
1D
102
{ACAD_REACTORS
330
C
102
}
330
C
100
AcDbDictionary
281
     1
  3
Standard
350
1E
  0
DICTIONARY
  5
413
102
{ACAD_REACTORS
330
C
102
}
330
C
100
AcDbDictionary
281
     1
  3
2dWireframe
350
419
  3
3D Hidden
350
41B
  3
3dWireframe
350
41A
  3
Basic
350
418
  3
Brighten
350
41F
  3
ColorChange
350
423
  3
Conceptual
350
41C
  3
Dim
350
41E
  3
EdgeColorOff
350
426
  3
Facepattern
350
422
  3
Flat
350
414
  3
FlatWithEdges
350
415
  3
Gouraud
350
416
  3
GouraudWithEdges
350
417
  3
JitterOff
350
424
  3
Linepattern
350
421
  3
OverhangOff
350
425
  3
Realistic
350
41D
  3
Thicken
350
420
  0
XRECORD
  5
457
102
{ACAD_REACTORS
330
C
102
}
330
C
100
AcDbXrecord
280
     1
 90
        1
330
1E
  0
DICTIONARY
  5
3EC
102
{ACAD_REACTORS
330
C
102
}
330
C
100
AcDbDictionary
281
     1
  3
CANNOSCALE
350
451
  3
CMLEADERSTYLE
350
450
  3
CTABLESTYLE
350
3ED
  3
DIMASSOC
350
3F8
  3
HIDETEXT
350
3F7
  3
INDEXCTL
350
453
  3
PROJECTNAME
350
3F9
  3
SORTENTS
350
452
  3
XCLIPFRAME
350
454
  0
DICTIONARY
  5
3E9
102
{ACAD_REACTORS
330
C
102
}
330
C
100
AcDbDictionary
281
     1
  3
ASEBlockHierarchyIndexRecord
350
3EA
1001
DCO15
1040
1554702182.937
  0
XRECORD
  5
458
102
{ACAD_REACTORS
330
C
102
}
330
C
100
AcDbXrecord
280
     1
  1
DWGPROPS COOKIE
  2

  3

  4

  6

  7

  8
Julio
  9

300
=
301
=
302
=
303
=
304
=
305
=
306
=
307
=
308
=
309
=
 40
0.0035440162037037
 41
2453797.488348333
 42
2456147.431149629
  1

 90
        0
  0
XRECORD
  5
43F
102
{ACAD_REACTORS
330
43E
102
}
330
43E
100
AcDbXrecord
280
     1
290
     1
  0
XRECORD
  5
441
102
{ACAD_REACTORS
330
440
102
}
330
440
100
AcDbXrecord
280
     1
290
     1
  0
XRECORD
  5
443
102
{ACAD_REACTORS
330
442
102
}
330
442
100
AcDbXrecord
280
     1
290
     1
  0
XRECORD
  5
445
102
{ACAD_REACTORS
330
444
102
}
330
444
100
AcDbXrecord
280
     1
290
     1
  0
XRECORD
  5
447
102
{ACAD_REACTORS
330
446
102
}
330
446
100
AcDbXrecord
280
     1
290
     1
  0
XRECORD
  5
449
102
{ACAD_REACTORS
330
448
102
}
330
448
100
AcDbXrecord
280
     1
290
     1
  0
XRECORD
  5
44B
102
{ACAD_REACTORS
330
44A
102
}
330
44A
100
AcDbXrecord
280
     1
290
     1
  0
XRECORD
  5
44D
102
{ACAD_REACTORS
330
44C
102
}
330
44C
100
AcDbXrecord
280
     1
290
     1
  0
XRECORD
  5
44F
102
{ACAD_REACTORS
330
44E
102
}
330
44E
100
AcDbXrecord
280
     1
290
     1
  0
LAYOUT
  5
22
102
{ACAD_XDICTIONARY
360
45A
102
}
102
{ACAD_REACTORS
330
1A
102
}
330
1A
100
AcDbPlotSettings
  1

  2
HP DesignJet 500PS42+HPGL2 Card
  4

  6

 40
0.0
 41
0.0
 42
0.0
 43
0.0
 44
0.0
 45
0.0
 46
0.0
 47
0.0
 48
0.0
 49
0.0
140
0.0
141
0.0
142
1.0
143
1.0
 70
   688
 72
     0
 73
     0
 74
     5
  7
C:\Documents and Settings\Julio\Application Data\Autodesk\AutoCAD 2006\R16.2\enu\Plot Styles\sanindusa.ctb
 75
    16
147
1.0
148
0.0
149
0.0
100
AcDbLayout
  1
Layout1
 70
     1
 71
     1
 10
0.0
 20
0.0
 11
420.0
 21
297.0
 12
0.0
 22
0.0
 32
0.0
 14
1.000000000000000E+20
 24
1.000000000000000E+20
 34
1.000000000000000E+20
 15
-1.000000000000000E+20
 25
-1.000000000000000E+20
 35
-1.000000000000000E+20
146
0.0
 13
0.0
 23
0.0
 33
0.0
 16
1.0
 26
0.0
 36
0.0
 17
0.0
 27
1.0
 37
0.0
 76
     0
330
1F
  0
LAYOUT
  5
2A
102
{ACAD_XDICTIONARY
360
45E
102
}
102
{ACAD_REACTORS
330
1A
102
}
330
1A
100
AcDbPlotSettings
  1

  2
HP DesignJet 500PS42+HPGL2 Card
  4

  6

 40
0.0
 41
0.0
 42
0.0
 43
0.0
 44
0.0
 45
0.0
 46
0.0
 47
0.0
 48
0.0
 49
0.0
140
0.0
141
0.0
142
1.0
143
1.0
 70
   688
 72
     0
 73
     0
 74
     5
  7
C:\Documents and Settings\Julio\Application Data\Autodesk\AutoCAD 2006\R16.2\enu\Plot Styles\sanindusa.ctb
 75
    16
147
1.0
148
0.0
149
0.0
100
AcDbLayout
  1
Layout2
 70
     1
 71
     2
 10
0.0
 20
0.0
 11
12.0
 21
9.0
 12
0.0
 22
0.0
 32
0.0
 14
0.0
 24
0.0
 34
0.0
 15
0.0
 25
0.0
 35
0.0
146
0.0
 13
0.0
 23
0.0
 33
0.0
 16
1.0
 26
0.0
 36
0.0
 17
0.0
 27
1.0
 37
0.0
 76
     0
330
27
  0
LAYOUT
  5
26
102
{ACAD_XDICTIONARY
360
45C
102
}
102
{ACAD_REACTORS
330
1A
102
}
330
1A
100
AcDbPlotSettings
  1

  2
HP DesignJet 500PS42+HPGL2 Card
  4

  6

 40
0.0
 41
0.0
 42
0.0
 43
0.0
 44
0.0
 45
0.0
 46
0.0
 47
0.0
 48
0.0
 49
0.0
140
0.0
141
0.0
142
1.0
143
1.0
 70
  1712
 72
     0
 73
     0
 74
     0
  7
C:\Documents and Settings\Julio\Application Data\Autodesk\AutoCAD 2006\R16.2\enu\Plot Styles\sanindusa.ctb
 75
     0
147
1.0
148
0.0
149
0.0
100
AcDbLayout
  1
Model
 70
     1
 71
     0
 10
0.0
 20
0.0
 11
12.0
 21
9.0
 12
0.0
 22
0.0
 32
0.0
 14
0.0
 24
0.0
 34
0.0
 15
0.0
 25
0.0
 35
0.0
146
0.0
 13
0.0
 23
0.0
 33
0.0
 16
1.0
 26
0.0
 36
0.0
 17
0.0
 27
1.0
 37
0.0
 76
     0
330
23
331
3EF
  0
MATERIAL
  5
403
102
{ACAD_XDICTIONARY
360
404
102
}
102
{ACAD_REACTORS
330
1B
102
}
330
1B
100
AcDbMaterial
  1
ByBlock
 72
     0
 43
0.0008202099737533
 43
0.0
 43
0.0
 43
0.0
 43
0.0
 43
0.0008202099737533
 43
0.0
 43
0.0
 43
0.0
 43
0.0
 43
1.0
 43
0.0
 43
0.0
 43
0.0
 43
0.0
 43
1.0
 77
     0
 47
0.0008202099737533
 47
0.0
 47
0.0
 47
0.0
 47
0.0
 47
0.0008202099737533
 47
0.0
 47
0.0
 47
0.0
 47
0.0
 47
1.0
 47
0.0
 47
0.0
 47
0.0
 47
0.0
 47
1.0
171
     0
 49
0.0008202099737533
 49
0.0
 49
0.0
 49
0.0
 49
0.0
 49
0.0008202099737533
 49
0.0
 49
0.0
 49
0.0
 49
0.0
 49
1.0
 49
0.0
 49
0.0
 49
0.0
 49
0.0
 49
1.0
175
     0
142
0.0008202099737533
142
0.0
142
0.0
142
0.0
142
0.0
142
0.0008202099737533
142
0.0
142
0.0
142
0.0
142
0.0
142
1.0
142
0.0
142
0.0
142
0.0
142
0.0
142
1.0
179
     0
144
0.0008202099737533
144
0.0
144
0.0
144
0.0
144
0.0
144
0.0008202099737533
144
0.0
144
0.0
144
0.0
144
0.0
144
1.0
144
0.0
144
0.0
144
0.0
144
0.0
144
1.0
147
0.0008202099737533
147
0.0
147
0.0
147
0.0
147
0.0
147
0.0008202099737533
147
0.0
147
0.0
147
0.0
147
0.0
147
1.0
147
0.0
147
0.0
147
0.0
147
0.0
147
1.0
  0
MATERIAL
  5
3FB
102
{ACAD_XDICTIONARY
360
3FC
102
}
102
{ACAD_REACTORS
330
1B
102
}
330
1B
100
AcDbMaterial
  1
ByLayer
 72
     0
 43
0.0008202099737533
 43
0.0
 43
0.0
 43
0.0
 43
0.0
 43
0.0008202099737533
 43
0.0
 43
0.0
 43
0.0
 43
0.0
 43
1.0
 43
0.0
 43
0.0
 43
0.0
 43
0.0
 43
1.0
 77
     0
 47
0.0008202099737533
 47
0.0
 47
0.0
 47
0.0
 47
0.0
 47
0.0008202099737533
 47
0.0
 47
0.0
 47
0.0
 47
0.0
 47
1.0
 47
0.0
 47
0.0
 47
0.0
 47
0.0
 47
1.0
171
     0
 49
0.0008202099737533
 49
0.0
 49
0.0
 49
0.0
 49
0.0
 49
0.0008202099737533
 49
0.0
 49
0.0
 49
0.0
 49
0.0
 49
1.0
 49
0.0
 49
0.0
 49
0.0
 49
0.0
 49
1.0
175
     0
142
0.0008202099737533
142
0.0
142
0.0
142
0.0
142
0.0
142
0.0008202099737533
142
0.0
142
0.0
142
0.0
142
0.0
142
1.0
142
0.0
142
0.0
142
0.0
142
0.0
142
1.0
179
     0
144
0.0008202099737533
144
0.0
144
0.0
144
0.0
144
0.0
144
0.0008202099737533
144
0.0
144
0.0
144
0.0
144
0.0
144
1.0
144
0.0
144
0.0
144
0.0
144
0.0
144
1.0
147
0.0008202099737533
147
0.0
147
0.0
147
0.0
147
0.0
147
0.0008202099737533
147
0.0
147
0.0
147
0.0
147
0.0
147
1.0
147
0.0
147
0.0
147
0.0
147
0.0
147
1.0
  0
MATERIAL
  5
40B
102
{ACAD_XDICTIONARY
360
40C
102
}
102
{ACAD_REACTORS
330
1B
102
}
330
1B
100
AcDbMaterial
  1
Global
 72
     0
 43
0.0008202099737533
 43
0.0
 43
0.0
 43
0.0
 43
0.0
 43
0.0008202099737533
 43
0.0
 43
0.0
 43
0.0
 43
0.0
 43
1.0
 43
0.0
 43
0.0
 43
0.0
 43
0.0
 43
1.0
 77
     0
 47
0.0008202099737533
 47
0.0
 47
0.0
 47
0.0
 47
0.0
 47
0.0008202099737533
 47
0.0
 47
0.0
 47
0.0
 47
0.0
 47
1.0
 47
0.0
 47
0.0
 47
0.0
 47
0.0
 47
1.0
171
     0
 49
0.0008202099737533
 49
0.0
 49
0.0
 49
0.0
 49
0.0
 49
0.0008202099737533
 49
0.0
 49
0.0
 49
0.0
 49
0.0
 49
1.0
 49
0.0
 49
0.0
 49
0.0
 49
0.0
 49
1.0
175
     0
142
0.0008202099737533
142
0.0
142
0.0
142
0.0
142
0.0
142
0.0008202099737533
142
0.0
142
0.0
142
0.0
142
0.0
142
1.0
142
0.0
142
0.0
142
0.0
142
0.0
142
1.0
179
     0
144
0.0008202099737533
144
0.0
144
0.0
144
0.0
144
0.0
144
0.0008202099737533
144
0.0
144
0.0
144
0.0
144
0.0
144
1.0
144
0.0
144
0.0
144
0.0
144
0.0
144
1.0
147
0.0008202099737533
147
0.0
147
0.0
147
0.0
147
0.0
147
0.0008202099737533
147
0.0
147
0.0
147
0.0
147
0.0
147
1.0
147
0.0
147
0.0
147
0.0
147
0.0
147
1.0
  0
MLEADERSTYLE
  5
43A
102
{ACAD_REACTORS
330
439
102
}
330
439
100
AcDbMLeaderStyle
170
     2
171
     1
172
     0
 90
        2
 40
0.0
 41
0.0
173
     1
 91
-1056964608
340
14
 92
       -2
290
     1
 42
2.0
291
     1
 43
0.36
  3
Standard
 44
4.0
300

342
11
174
     1
178
     6
175
     1
176
     0
 93
-1056964608
 45
4.0
292
     0
297
     0
 46
4.0
 94
-1056964608
 47
1.0
 49
1.0
140
1.0
293
     1
141
0.0
294
     1
177
     0
142
1.0
295
     0
296
     0
143
0.125
1001
ACAD_MLEADERVER
1070
     2
  0
MLINESTYLE
  5
18
102
{ACAD_REACTORS
330
17
102
}
330
17
100
AcDbMlineStyle
  2
STANDARD
 70
     0
  3

 62
   256
 51
90.0
 52
90.0
 71
     2
 49
0.5
 62
   256
  6
BYLAYER
 49
-0.5
 62
   256
  6
BYLAYER
  0
ACDBPLACEHOLDER
  5
F
102
{ACAD_REACTORS
330
E
102
}
330
E
  0
SCALE
  5
428
102
{ACAD_REACTORS
330
427
102
}
330
427
100
AcDbScale
 70
     0
300
1:1
140
1.0
141
1.0
290
     1
  0
SCALE
  5
429
102
{ACAD_REACTORS
330
427
102
}
330
427
100
AcDbScale
 70
     0
300
1:2
140
1.0
141
2.0
290
     0
  0
SCALE
  5
42A
102
{ACAD_REACTORS
330
427
102
}
330
427
100
AcDbScale
 70
     0
300
1:4
140
1.0
141
4.0
290
     0
  0
SCALE
  5
42B
102
{ACAD_REACTORS
330
427
102
}
330
427
100
AcDbScale
 70
     0
300
1:5
140
1.0
141
5.0
290
     0
  0
SCALE
  5
42C
102
{ACAD_REACTORS
330
427
102
}
330
427
100
AcDbScale
 70
     0
300
1:8
140
1.0
141
8.0
290
     0
  0
SCALE
  5
42D
102
{ACAD_REACTORS
330
427
102
}
330
427
100
AcDbScale
 70
     0
300
1:10
140
1.0
141
10.0
290
     0
  0
SCALE
  5
42E
102
{ACAD_REACTORS
330
427
102
}
330
427
100
AcDbScale
 70
     0
300
1:16
140
1.0
141
16.0
290
     0
  0
SCALE
  5
42F
102
{ACAD_REACTORS
330
427
102
}
330
427
100
AcDbScale
 70
     0
300
1:20
140
1.0
141
20.0
290
     0
  0
SCALE
  5
430
102
{ACAD_REACTORS
330
427
102
}
330
427
100
AcDbScale
 70
     0
300
1:30
140
1.0
141
30.0
290
     0
  0
SCALE
  5
431
102
{ACAD_REACTORS
330
427
102
}
330
427
100
AcDbScale
 70
     0
300
1:40
140
1.0
141
40.0
290
     0
  0
SCALE
  5
432
102
{ACAD_REACTORS
330
427
102
}
330
427
100
AcDbScale
 70
     0
300
1:50
140
1.0
141
50.0
290
     0
  0
SCALE
  5
433
102
{ACAD_REACTORS
330
427
102
}
330
427
100
AcDbScale
 70
     0
300
1:100
140
1.0
141
100.0
290
     0
  0
SCALE
  5
434
102
{ACAD_REACTORS
330
427
102
}
330
427
100
AcDbScale
 70
     0
300
2:1
140
2.0
141
1.0
290
     0
  0
SCALE
  5
435
102
{ACAD_REACTORS
330
427
102
}
330
427
100
AcDbScale
 70
     0
300
4:1
140
4.0
141
1.0
290
     0
  0
SCALE
  5
436
102
{ACAD_REACTORS
330
427
102
}
330
427
100
AcDbScale
 70
     0
300
8:1
140
8.0
141
1.0
290
     0
  0
SCALE
  5
437
102
{ACAD_REACTORS
330
427
102
}
330
427
100
AcDbScale
 70
     0
300
10:1
140
10.0
141
1.0
290
     0
  0
SCALE
  5
438
102
{ACAD_REACTORS
330
427
102
}
330
427
100
AcDbScale
 70
     0
300
100:1
140
100.0
141
1.0
290
     0
  0
TABLESTYLE
  5
1E
102
{ACAD_XDICTIONARY
360
455
102
}
102
{ACAD_REACTORS
330
1D
102
}
330
1D
100
AcDbTableStyle
  3
Standard
 70
     0
 71
     0
 40
1.5
 41
1.5
280
     0
281
     0
  7
Standard
140
4.5
170
     2
 62
     0
 63
     7
283
     0
274
    -2
284
     1
 64
     0
275
    -2
285
     1
 65
     0
276
    -2
286
     1
 66
     0
277
    -2
287
     1
 67
     0
278
    -2
288
     1
 68
     0
279
    -2
289
     1
 69
     0
  7
Standard
140
6.0
170
     5
 62
     0
 63
     7
283
     0
274
    -2
284
     1
 64
     0
275
    -2
285
     1
 65
     0
276
    -2
286
     1
 66
     0
277
    -2
287
     1
 67
     0
278
    -2
288
     1
 68
     0
279
    -2
289
     1
 69
     0
  7
Standard
140
4.5
170
     5
 62
     0
 63
     7
283
     0
274
    -2
284
     1
 64
     0
275
    -2
285
     1
 65
     0
276
    -2
286
     1
 66
     0
277
    -2
287
     1
 67
     0
278
    -2
288
     1
 68
     0
279
    -2
289
     1
 69
     0
  0
VISUALSTYLE
  5
419
102
{ACAD_XDICTIONARY
360
46D
102
}
102
{ACAD_REACTORS
330
413
102
}
330
413
100
AcDbVisualStyle
  2
2dWireframe
 70
     4
 71
     0
 72
     2
 73
     0
 90
        0
 40
-0.6
 41
-30.0
 62
     5
 63
     7
 74
     1
 91
        4
 64
     7
 65
   257
 75
     1
175
     1
 42
1.0
 92
        0
 66
   257
 43
1.0
 76
     1
 77
     6
 78
     2
 67
     7
 79
     5
170
     0
171
     0
290
     0
174
     0
 93
        1
 44
0.0
173
     0
291
     0
 45
0.0
1001
ACAD
1000
AcDbSavedByObjectVersion
1070
     0
  0
VISUALSTYLE
  5
41B
102
{ACAD_XDICTIONARY
360
471
102
}
102
{ACAD_REACTORS
330
413
102
}
330
413
100
AcDbVisualStyle
  2
3D Hidden
 70
     6
 71
     1
 72
     2
 73
     2
 90
        0
 40
-0.6
 41
-30.0
 62
     5
 63
     7
 74
     2
 91
        2
 64
     7
 65
   257
 75
     2
175
     1
 42
179.0
 92
        0
 66
   257
 43
1.0
 76
     1
 77
     6
 78
     2
 67
     7
 79
     3
170
     0
171
     0
290
     0
174
     0
 93
        1
 44
0.0
173
     0
291
     0
 45
0.0
1001
ACAD
1000
AcDbSavedByObjectVersion
1070
     0
  0
VISUALSTYLE
  5
41A
102
{ACAD_XDICTIONARY
360
46F
102
}
102
{ACAD_REACTORS
330
413
102
}
330
413
100
AcDbVisualStyle
  2
3dWireframe
 70
     5
 71
     0
 72
     2
 73
     0
 90
        0
 40
-0.6
 41
-30.0
 62
     5
 63
     7
 74
     1
 91
        4
 64
     7
 65
   257
 75
     1
175
     1
 42
1.0
 92
        0
 66
   257
 43
1.0
 76
     1
 77
     6
 78
     2
 67
     7
 79
     5
170
     0
171
     0
290
     0
174
     0
 93
        1
 44
0.0
173
     0
291
     0
 45
0.0
1001
ACAD
1000
AcDbSavedByObjectVersion
1070
     0
  0
VISUALSTYLE
  5
418
102
{ACAD_XDICTIONARY
360
46B
102
}
102
{ACAD_REACTORS
330
413
102
}
330
413
100
AcDbVisualStyle
  2
Basic
 70
     7
 71
     1
 72
     0
 73
     1
 90
        0
 40
-0.6
 41
-30.0
 62
     5
 63
     7
 74
     0
 91
        4
 64
     7
 65
   257
 75
     1
175
     1
 42
1.0
 92
        8
 66
     7
 43
1.0
 76
     1
 77
     6
 78
     2
 67
     7
 79
     5
170
     0
171
     0
290
     0
174
     0
 93
        1
 44
0.0
173
     0
291
     1
 45
0.0
1001
ACAD
1000
AcDbSavedByObjectVersion
1070
     0
  0
VISUALSTYLE
  5
41F
102
{ACAD_XDICTIONARY
360
479
102
}
102
{ACAD_REACTORS
330
413
102
}
330
413
100
AcDbVisualStyle
  2
Brighten
 70
    12
 71
     2
 72
     2
 73
     0
 90
        0
 40
-0.6
 41
-30.0
 62
     5
 63
     7
 74
     1
 91
        4
 64
     7
 65
   257
 75
     1
175
     1
 42
1.0
 92
        8
 66
     7
 43
1.0
 76
     1
 77
     6
 78
     2
 67
     7
 79
     5
170
     0
171
     0
290
     0
174
     0
 93
        1
 44
50.0
173
     0
291
     1
 45
0.0
1001
ACAD
1000
AcDbSavedByObjectVersion
1070
     0
  0
VISUALSTYLE
  5
423
102
{ACAD_XDICTIONARY
360
481
102
}
102
{ACAD_REACTORS
330
413
102
}
330
413
100
AcDbVisualStyle
  2
ColorChange
 70
    16
 71
     2
 72
     2
 73
     3
 90
        0
 40
-0.6
 41
-30.0
 62
     5
 63
     8
 74
     1
 91
        4
 64
     7
 65
   257
 75
     1
175
     1
 42
1.0
 92
        8
 66
     8
 43
1.0
 76
     1
 77
     6
 78
     2
 67
     7
 79
     5
170
     0
171
     0
290
     0
174
     0
 93
        1
 44
0.0
173
     0
291
     1
 45
0.0
1001
ACAD
1000
AcDbSavedByObjectVersion
1070
     0
  0
VISUALSTYLE
  5
41C
102
{ACAD_XDICTIONARY
360
473
102
}
102
{ACAD_REACTORS
330
413
102
}
330
413
100
AcDbVisualStyle
  2
Conceptual
 70
     9
 71
     3
 72
     2
 73
     0
 90
        0
 40
-0.6
 41
-30.0
 62
     5
 63
     7
 74
     2
 91
        2
 64
     7
 65
   257
 75
     1
175
     1
 42
179.0
 92
        8
 66
     7
 43
1.0
 76
     1
 77
     6
 78
     2
 67
     7
 79
     3
170
     0
171
     0
290
     0
174
     0
 93
        1
 44
0.0
173
     0
291
     0
 45
0.0
1001
ACAD
1000
AcDbSavedByObjectVersion
1070
     0
  0
VISUALSTYLE
  5
41E
102
{ACAD_XDICTIONARY
360
477
102
}
102
{ACAD_REACTORS
330
413
102
}
330
413
100
AcDbVisualStyle
  2
Dim
 70
    11
 71
     2
 72
     2
 73
     0
 90
        0
 40
-0.6
 41
-30.0
 62
     5
 63
     7
 74
     1
 91
        4
 64
     7
 65
   257
 75
     1
175
     1
 42
1.0
 92
        8
 66
     7
 43
1.0
 76
     1
 77
     6
 78
     2
 67
     7
 79
     5
170
     0
171
     0
290
     0
174
     0
 93
        1
 44
-50.0
173
     0
291
     1
 45
0.0
1001
ACAD
1000
AcDbSavedByObjectVersion
1070
     0
  0
VISUALSTYLE
  5
426
102
{ACAD_XDICTIONARY
360
487
102
}
102
{ACAD_REACTORS
330
413
102
}
330
413
100
AcDbVisualStyle
  2
EdgeColorOff
 70
    22
 71
     2
 72
     2
 73
     0
 90
        0
 40
-0.6
 41
-30.0
 62
     5
 63
     7
 74
     1
 91
        4
 64
     7
 65
   257
 75
     1
175
     1
 42
1.0
 92
        8
 66
     7
 43
1.0
 76
     1
 77
     6
 78
     2
 67
     7
 79
     5
170
     0
171
     0
290
     0
174
     0
 93
        1
 44
0.0
173
     0
291
     1
 45
0.0
1001
ACAD
1000
AcDbSavedByObjectVersion
1070
     0
  0
VISUALSTYLE
  5
422
102
{ACAD_XDICTIONARY
360
47F
102
}
102
{ACAD_REACTORS
330
413
102
}
330
413
100
AcDbVisualStyle
  2
Facepattern
 70
    15
 71
     2
 72
     2
 73
     0
 90
        0
 40
-0.6
 41
-30.0
 62
     5
 63
     7
 74
     1
 91
        4
 64
     7
 65
   257
 75
     1
175
     1
 42
1.0
 92
        8
 66
     7
 43
1.0
 76
     1
 77
     6
 78
     2
 67
     7
 79
     5
170
     0
171
     0
290
     0
174
     0
 93
        1
 44
0.0
173
     0
291
     1
 45
0.0
1001
ACAD
1000
AcDbSavedByObjectVersion
1070
     0
  0
VISUALSTYLE
  5
414
102
{ACAD_XDICTIONARY
360
463
102
}
102
{ACAD_REACTORS
330
413
102
}
330
413
100
AcDbVisualStyle
  2
Flat
 70
     0
 71
     2
 72
     1
 73
     1
 90
        2
 40
-0.6
 41
30.0
 62
     5
 63
     7
 74
     0
 91
        4
 64
     7
 65
   257
 75
     1
175
     1
 42
1.0
 92
        8
 66
     7
 43
1.0
 76
     1
 77
     6
 78
     2
 67
     7
 79
     5
170
     0
171
     0
290
     0
174
     0
 93
       13
 44
0.0
173
     0
291
     1
 45
0.0
1001
ACAD
1000
AcDbSavedByObjectVersion
1070
     0
  0
VISUALSTYLE
  5
415
102
{ACAD_XDICTIONARY
360
465
102
}
102
{ACAD_REACTORS
330
413
102
}
330
413
100
AcDbVisualStyle
  2
FlatWithEdges
 70
     1
 71
     2
 72
     1
 73
     1
 90
        2
 40
-0.6
 41
30.0
 62
     5
 63
     7
 74
     1
 91
        4
 64
     7
 65
   257
 75
     1
175
     1
 42
1.0
 92
        0
 66
   257
 43
1.0
 76
     1
 77
     6
 78
     2
 67
     7
 79
     5
170
     0
171
     0
290
     0
174
     0
 93
       13
 44
0.0
173
     0
291
     1
 45
0.0
1001
ACAD
1000
AcDbSavedByObjectVersion
1070
     0
  0
VISUALSTYLE
  5
416
102
{ACAD_XDICTIONARY
360
467
102
}
102
{ACAD_REACTORS
330
413
102
}
330
413
100
AcDbVisualStyle
  2
Gouraud
 70
     2
 71
     2
 72
     2
 73
     1
 90
        2
 40
-0.6
 41
30.0
 62
     5
 63
     7
 74
     0
 91
        4
 64
     7
 65
   257
 75
     1
175
     1
 42
1.0
 92
        0
 66
     7
 43
1.0
 76
     1
 77
     6
 78
     2
 67
     7
 79
     5
170
     0
171
     0
290
     0
174
     0
 93
       13
 44
0.0
173
     0
291
     1
 45
0.0
1001
ACAD
1000
AcDbSavedByObjectVersion
1070
     0
  0
VISUALSTYLE
  5
417
102
{ACAD_XDICTIONARY
360
469
102
}
102
{ACAD_REACTORS
330
413
102
}
330
413
100
AcDbVisualStyle
  2
GouraudWithEdges
 70
     3
 71
     2
 72
     2
 73
     1
 90
        2
 40
-0.6
 41
30.0
 62
     5
 63
     7
 74
     1
 91
        4
 64
     7
 65
   257
 75
     1
175
     1
 42
1.0
 92
        0
 66
   257
 43
1.0
 76
     1
 77
     6
 78
     2
 67
     7
 79
     5
170
     0
171
     0
290
     0
174
     0
 93
       13
 44
0.0
173
     0
291
     1
 45
0.0
1001
ACAD
1000
AcDbSavedByObjectVersion
1070
     0
  0
VISUALSTYLE
  5
424
102
{ACAD_XDICTIONARY
360
483
102
}
102
{ACAD_REACTORS
330
413
102
}
330
413
100
AcDbVisualStyle
  2
JitterOff
 70
    20
 71
     2
 72
     2
 73
     0
 90
        0
 40
-0.6
 41
-30.0
 62
     5
 63
     7
 74
     1
 91
        4
 64
     7
 65
   257
 75
     1
175
     1
 42
1.0
 92
       10
 66
     7
 43
1.0
 76
     1
 77
     6
 78
     2
 67
     7
 79
     5
170
     0
171
     0
290
     0
174
     0
 93
        1
 44
0.0
173
     0
291
     1
 45
0.0
1001
ACAD
1000
AcDbSavedByObjectVersion
1070
     0
  0
VISUALSTYLE
  5
421
102
{ACAD_XDICTIONARY
360
47D
102
}
102
{ACAD_REACTORS
330
413
102
}
330
413
100
AcDbVisualStyle
  2
Linepattern
 70
    14
 71
     2
 72
     2
 73
     0
 90
        0
 40
-0.6
 41
-30.0
 62
     5
 63
     7
 74
     1
 91
        4
 64
     7
 65
   257
 75
     7
175
     7
 42
1.0
 92
        8
 66
     7
 43
1.0
 76
     1
 77
     6
 78
     2
 67
     7
 79
     5
170
     0
171
     0
290
     0
174
     0
 93
        1
 44
0.0
173
     0
291
     1
 45
0.0
1001
ACAD
1000
AcDbSavedByObjectVersion
1070
     0
  0
VISUALSTYLE
  5
425
102
{ACAD_XDICTIONARY
360
485
102
}
102
{ACAD_REACTORS
330
413
102
}
330
413
100
AcDbVisualStyle
  2
OverhangOff
 70
    21
 71
     2
 72
     2
 73
     0
 90
        0
 40
-0.6
 41
-30.0
 62
     5
 63
     7
 74
     1
 91
        4
 64
     7
 65
   257
 75
     1
175
     1
 42
1.0
 92
        9
 66
     7
 43
1.0
 76
     1
 77
     6
 78
     2
 67
     7
 79
     5
170
     0
171
     0
290
     0
174
     0
 93
        1
 44
0.0
173
     0
291
     1
 45
0.0
1001
ACAD
1000
AcDbSavedByObjectVersion
1070
     0
  0
VISUALSTYLE
  5
41D
102
{ACAD_XDICTIONARY
360
475
102
}
102
{ACAD_REACTORS
330
413
102
}
330
413
100
AcDbVisualStyle
  2
Realistic
 70
     8
 71
     2
 72
     2
 73
     0
 90
        0
 40
-0.6
 41
-30.0
 62
     5
 63
     7
 74
     1
 91
        0
 64
     7
 65
   257
 75
     1
175
     1
 42
1.0
 92
        8
 66
     8
 43
1.0
 76
     1
 77
     6
 78
     2
 67
     7
 79
     5
170
     0
171
     0
290
     0
174
     0
 93
       13
 44
0.0
173
     0
291
     0
 45
0.0
1001
ACAD
1000
AcDbSavedByObjectVersion
1070
     0
  0
VISUALSTYLE
  5
420
102
{ACAD_XDICTIONARY
360
47B
102
}
102
{ACAD_REACTORS
330
413
102
}
330
413
100
AcDbVisualStyle
  2
Thicken
 70
    13
 71
     2
 72
     2
 73
     0
 90
        0
 40
-0.6
 41
-30.0
 62
     5
 63
     7
 74
     1
 91
        4
 64
     7
 65
   257
 75
     1
175
     1
 42
1.0
 92
       12
 66
     7
 43
1.0
 76
     1
 77
     6
 78
     2
 67
     7
 79
     5
170
     0
171
     0
290
     0
174
     0
 93
        1
 44
0.0
173
     0
291
     1
 45
0.0
1001
ACAD
1000
AcDbSavedByObjectVersion
1070
     0
  0
DICTIONARYVAR
  5
451
102
{ACAD_REACTORS
330
3EC
102
}
330
3EC
100
DictionaryVariables
280
     0
  1
1:1
  0
DICTIONARYVAR
  5
450
102
{ACAD_REACTORS
330
3EC
102
}
330
3EC
100
DictionaryVariables
280
     0
  1
STANDARD
  0
DICTIONARYVAR
  5
3ED
102
{ACAD_REACTORS
330
3EC
102
}
330
3EC
100
DictionaryVariables
280
     0
  1
STANDARD
  0
DICTIONARYVAR
  5
3F8
102
{ACAD_REACTORS
330
3EC
102
}
330
3EC
100
DictionaryVariables
280
     0
  1
2
  0
DICTIONARYVAR
  5
3F7
102
{ACAD_REACTORS
330
3EC
102
}
330
3EC
100
DictionaryVariables
280
     0
  1
1
  0
DICTIONARYVAR
  5
453
102
{ACAD_REACTORS
330
3EC
102
}
330
3EC
100
DictionaryVariables
280
     0
  1
0
  0
DICTIONARYVAR
  5
3F9
102
{ACAD_REACTORS
330
3EC
102
}
330
3EC
100
DictionaryVariables
280
     0
  1

  0
DICTIONARYVAR
  5
452
102
{ACAD_REACTORS
330
3EC
102
}
330
3EC
100
DictionaryVariables
280
     0
  1
127
  0
DICTIONARYVAR
  5
454
102
{ACAD_REACTORS
330
3EC
102
}
330
3EC
100
DictionaryVariables
280
     0
  1
2
  0
XRECORD
  5
3EA
102
{ACAD_REACTORS
330
3E9
102
}
330
3E9
100
AcDbXrecord
280
     1
  0
DICTIONARY
  5
45A
330
22
100
AcDbDictionary
280
     1
281
     1
  3
ACAD_XREC_ROUNDTRIP
360
45B
  0
DICTIONARY
  5
45E
330
2A
100
AcDbDictionary
280
     1
281
     1
  3
ACAD_XREC_ROUNDTRIP
360
45F
  0
DICTIONARY
  5
45C
330
26
100
AcDbDictionary
280
     1
281
     1
  3
ACAD_XREC_ROUNDTRIP
360
45D
  0
DICTIONARY
  5
404
330
403
100
AcDbDictionary
280
     1
281
     1
  3
ACAD_XREC_ROUNDTRIP
360
461
  3
BUMPTILE
360
406
  3
DIFFUSETILE
360
405
  3
OPACITYTILE
360
409
  3
REFLECTIONTILE
360
408
  3
REFRACTIONTILE
360
40A
  3
SPECULARTILE
360
407
  0
DICTIONARY
  5
3FC
330
3FB
100
AcDbDictionary
280
     1
281
     1
  3
ACAD_XREC_ROUNDTRIP
360
460
  3
BUMPTILE
360
3FE
  3
DIFFUSETILE
360
3FD
  3
OPACITYTILE
360
401
  3
REFLECTIONTILE
360
400
  3
REFRACTIONTILE
360
402
  3
SPECULARTILE
360
3FF
  0
DICTIONARY
  5
40C
330
40B
100
AcDbDictionary
280
     1
281
     1
  3
ACAD_XREC_ROUNDTRIP
360
462
  3
BUMPTILE
360
40E
  3
DIFFUSETILE
360
40D
  3
OPACITYTILE
360
411
  3
REFLECTIONTILE
360
410
  3
REFRACTIONTILE
360
412
  3
SPECULARTILE
360
40F
  0
DICTIONARY
  5
455
330
1E
100
AcDbDictionary
280
     1
281
     1
  3
ACAD_ROUNDTRIP_2008_TABLESTYLE_CELLSTYLEMAP
360
456
  3
ACAD_XREC_ROUNDTRIP
360
459
  0
DICTIONARY
  5
46D
330
419
100
AcDbDictionary
280
     1
281
     1
  3
ACAD_XREC_ROUNDTRIP
360
46E
  0
DICTIONARY
  5
471
330
41B
100
AcDbDictionary
280
     1
281
     1
  3
ACAD_XREC_ROUNDTRIP
360
472
  0
DICTIONARY
  5
46F
330
41A
100
AcDbDictionary
280
     1
281
     1
  3
ACAD_XREC_ROUNDTRIP
360
470
  0
DICTIONARY
  5
46B
330
418
100
AcDbDictionary
280
     1
281
     1
  3
ACAD_XREC_ROUNDTRIP
360
46C
  0
DICTIONARY
  5
479
330
41F
100
AcDbDictionary
280
     1
281
     1
  3
ACAD_XREC_ROUNDTRIP
360
47A
  0
DICTIONARY
  5
481
330
423
100
AcDbDictionary
280
     1
281
     1
  3
ACAD_XREC_ROUNDTRIP
360
482
  0
DICTIONARY
  5
473
330
41C
100
AcDbDictionary
280
     1
281
     1
  3
ACAD_XREC_ROUNDTRIP
360
474
  0
DICTIONARY
  5
477
330
41E
100
AcDbDictionary
280
     1
281
     1
  3
ACAD_XREC_ROUNDTRIP
360
478
  0
DICTIONARY
  5
487
330
426
100
AcDbDictionary
280
     1
281
     1
  3
ACAD_XREC_ROUNDTRIP
360
488
  0
DICTIONARY
  5
47F
330
422
100
AcDbDictionary
280
     1
281
     1
  3
ACAD_XREC_ROUNDTRIP
360
480
  0
DICTIONARY
  5
463
330
414
100
AcDbDictionary
280
     1
281
     1
  3
ACAD_XREC_ROUNDTRIP
360
464
  0
DICTIONARY
  5
465
330
415
100
AcDbDictionary
280
     1
281
     1
  3
ACAD_XREC_ROUNDTRIP
360
466
  0
DICTIONARY
  5
467
330
416
100
AcDbDictionary
280
     1
281
     1
  3
ACAD_XREC_ROUNDTRIP
360
468
  0
DICTIONARY
  5
469
330
417
100
AcDbDictionary
280
     1
281
     1
  3
ACAD_XREC_ROUNDTRIP
360
46A
  0
DICTIONARY
  5
483
330
424
100
AcDbDictionary
280
     1
281
     1
  3
ACAD_XREC_ROUNDTRIP
360
484
  0
DICTIONARY
  5
47D
330
421
100
AcDbDictionary
280
     1
281
     1
  3
ACAD_XREC_ROUNDTRIP
360
47E
  0
DICTIONARY
  5
485
330
425
100
AcDbDictionary
280
     1
281
     1
  3
ACAD_XREC_ROUNDTRIP
360
486
  0
DICTIONARY
  5
475
330
41D
100
AcDbDictionary
280
     1
281
     1
  3
ACAD_XREC_ROUNDTRIP
360
476
  0
DICTIONARY
  5
47B
330
420
100
AcDbDictionary
280
     1
281
     1
  3
ACAD_XREC_ROUNDTRIP
360
47C
  0
XRECORD
  5
45B
102
{ACAD_REACTORS
330
45A
102
}
330
45A
100
AcDbXrecord
280
     1
102
SHADEPLOT
 70
     0
102
SHADEPLOTRESLEVEL
 70
     2
102
SHADEPLOTCUSTOMDPI
 70
   300
  0
XRECORD
  5
45F
102
{ACAD_REACTORS
330
45E
102
}
330
45E
100
AcDbXrecord
280
     1
102
SHADEPLOT
 70
     0
102
SHADEPLOTRESLEVEL
 70
     2
102
SHADEPLOTCUSTOMDPI
 70
   300
  0
XRECORD
  5
45D
102
{ACAD_REACTORS
330
45C
102
}
330
45C
100
AcDbXrecord
280
     1
102
SHADEPLOT
 70
     0
102
SHADEPLOTRESLEVEL
 70
     2
102
SHADEPLOTCUSTOMDPI
 70
   300
  0
XRECORD
  5
461
102
{ACAD_REACTORS
330
404
102
}
330
404
100
AcDbXrecord
280
     1
102
MATERIAL
148
0.0
149
0.0
149
0.0
 93
        0
 94
      127
282
     0
 72
     0
 77
     0
171
     0
175
     0
179
     0
273
     0
  0
XRECORD
  5
406
102
{ACAD_REACTORS
330
404
102
}
330
404
100
AcDbXrecord
280
     1
270
     1
271
     1
  0
XRECORD
  5
405
102
{ACAD_REACTORS
330
404
102
}
330
404
100
AcDbXrecord
280
     1
270
     1
271
     1
  0
XRECORD
  5
409
102
{ACAD_REACTORS
330
404
102
}
330
404
100
AcDbXrecord
280
     1
270
     1
271
     1
  0
XRECORD
  5
408
102
{ACAD_REACTORS
330
404
102
}
330
404
100
AcDbXrecord
280
     1
270
     1
271
     1
  0
XRECORD
  5
40A
102
{ACAD_REACTORS
330
404
102
}
330
404
100
AcDbXrecord
280
     1
270
     1
271
     1
  0
XRECORD
  5
407
102
{ACAD_REACTORS
330
404
102
}
330
404
100
AcDbXrecord
280
     1
270
     1
271
     1
  0
XRECORD
  5
460
102
{ACAD_REACTORS
330
3FC
102
}
330
3FC
100
AcDbXrecord
280
     1
102
MATERIAL
148
0.0
149
0.0
149
0.0
 93
        0
 94
      127
282
     0
 72
     0
 77
     0
171
     0
175
     0
179
     0
273
     0
  0
XRECORD
  5
3FE
102
{ACAD_REACTORS
330
3FC
102
}
330
3FC
100
AcDbXrecord
280
     1
270
     1
271
     1
  0
XRECORD
  5
3FD
102
{ACAD_REACTORS
330
3FC
102
}
330
3FC
100
AcDbXrecord
280
     1
270
     1
271
     1
  0
XRECORD
  5
401
102
{ACAD_REACTORS
330
3FC
102
}
330
3FC
100
AcDbXrecord
280
     1
270
     1
271
     1
  0
XRECORD
  5
400
102
{ACAD_REACTORS
330
3FC
102
}
330
3FC
100
AcDbXrecord
280
     1
270
     1
271
     1
  0
XRECORD
  5
402
102
{ACAD_REACTORS
330
3FC
102
}
330
3FC
100
AcDbXrecord
280
     1
270
     1
271
     1
  0
XRECORD
  5
3FF
102
{ACAD_REACTORS
330
3FC
102
}
330
3FC
100
AcDbXrecord
280
     1
270
     1
271
     1
  0
XRECORD
  5
462
102
{ACAD_REACTORS
330
40C
102
}
330
40C
100
AcDbXrecord
280
     1
102
MATERIAL
148
0.0
149
0.0
149
0.0
 93
        0
 94
      127
282
     0
 72
     0
 77
     0
171
     0
175
     0
179
     0
273
     0
  0
XRECORD
  5
40E
102
{ACAD_REACTORS
330
40C
102
}
330
40C
100
AcDbXrecord
280
     1
270
     1
271
     1
  0
XRECORD
  5
40D
102
{ACAD_REACTORS
330
40C
102
}
330
40C
100
AcDbXrecord
280
     1
270
     1
271
     1
  0
XRECORD
  5
411
102
{ACAD_REACTORS
330
40C
102
}
330
40C
100
AcDbXrecord
280
     1
270
     1
271
     1
  0
XRECORD
  5
410
102
{ACAD_REACTORS
330
40C
102
}
330
40C
100
AcDbXrecord
280
     1
270
     1
271
     1
  0
XRECORD
  5
412
102
{ACAD_REACTORS
330
40C
102
}
330
40C
100
AcDbXrecord
280
     1
270
     1
271
     1
  0
XRECORD
  5
40F
102
{ACAD_REACTORS
330
40C
102
}
330
40C
100
AcDbXrecord
280
     1
270
     1
271
     1
  0
CELLSTYLEMAP
  5
456
102
{ACAD_REACTORS
330
455
102
}
330
455
100
AcDbCellStyleMap
 90
        3
300
CELLSTYLE
  1
TABLEFORMAT_BEGIN
 90
        5
170
     1
 91
        0
 92
    32768
 62
   257
 93
        1
300
CONTENTFORMAT
  1
CONTENTFORMAT_BEGIN
 90
        0
 91
        0
 92
        4
 93
        0
300

 40
0.0
140
1.0
 94
        5
 62
     0
340
11
144
6.0
309
CONTENTFORMAT_END
171
     1
301
MARGIN
  1
CELLMARGIN_BEGIN
 40
1.5
 40
1.5
 40
1.5
 40
1.5
 40
0.18
 40
0.18
309
CELLMARGIN_END
 94
        6
 95
        1
302
GRIDFORMAT
  1
GRIDFORMAT_BEGIN
 90
        0
 91
        1
 62
     0
 92
       -2
340
0
 93
        0
 40
0.045
309
GRIDFORMAT_END
 95
        2
302
GRIDFORMAT
  1
GRIDFORMAT_BEGIN
 90
        0
 91
        1
 62
     0
 92
       -2
340
0
 93
        0
 40
0.045
309
GRIDFORMAT_END
 95
        4
302
GRIDFORMAT
  1
GRIDFORMAT_BEGIN
 90
        0
 91
        1
 62
     0
 92
       -2
340
0
 93
        0
 40
0.045
309
GRIDFORMAT_END
 95
        8
302
GRIDFORMAT
  1
GRIDFORMAT_BEGIN
 90
        0
 91
        1
 62
     0
 92
       -2
340
0
 93
        0
 40
0.045
309
GRIDFORMAT_END
 95
       16
302
GRIDFORMAT
  1
GRIDFORMAT_BEGIN
 90
        0
 91
        1
 62
     0
 92
       -2
340
0
 93
        0
 40
0.045
309
GRIDFORMAT_END
 95
       32
302
GRIDFORMAT
  1
GRIDFORMAT_BEGIN
 90
        0
 91
        1
 62
     0
 92
       -2
340
0
 93
        0
 40
0.045
309
GRIDFORMAT_END
309
TABLEFORMAT_END
  1
CELLSTYLE_BEGIN
 90
        1
 91
        1
300
_TITLE
309
CELLSTYLE_END
300
CELLSTYLE
  1
TABLEFORMAT_BEGIN
 90
        5
170
     1
 91
        0
 92
        0
 62
   257
 93
        1
300
CONTENTFORMAT
  1
CONTENTFORMAT_BEGIN
 90
        0
 91
        0
 92
        4
 93
        0
300

 40
0.0
140
1.0
 94
        5
 62
     0
340
11
144
4.5
309
CONTENTFORMAT_END
171
     1
301
MARGIN
  1
CELLMARGIN_BEGIN
 40
1.5
 40
1.5
 40
1.5
 40
1.5
 40
0.18
 40
0.18
309
CELLMARGIN_END
 94
        6
 95
        1
302
GRIDFORMAT
  1
GRIDFORMAT_BEGIN
 90
        0
 91
        1
 62
     0
 92
       -2
340
0
 93
        0
 40
0.045
309
GRIDFORMAT_END
 95
        2
302
GRIDFORMAT
  1
GRIDFORMAT_BEGIN
 90
        0
 91
        1
 62
     0
 92
       -2
340
0
 93
        0
 40
0.045
309
GRIDFORMAT_END
 95
        4
302
GRIDFORMAT
  1
GRIDFORMAT_BEGIN
 90
        0
 91
        1
 62
     0
 92
       -2
340
0
 93
        0
 40
0.045
309
GRIDFORMAT_END
 95
        8
302
GRIDFORMAT
  1
GRIDFORMAT_BEGIN
 90
        0
 91
        1
 62
     0
 92
       -2
340
0
 93
        0
 40
0.045
309
GRIDFORMAT_END
 95
       16
302
GRIDFORMAT
  1
GRIDFORMAT_BEGIN
 90
        0
 91
        1
 62
     0
 92
       -2
340
0
 93
        0
 40
0.045
309
GRIDFORMAT_END
 95
       32
302
GRIDFORMAT
  1
GRIDFORMAT_BEGIN
 90
        0
 91
        1
 62
     0
 92
       -2
340
0
 93
        0
 40
0.045
309
GRIDFORMAT_END
309
TABLEFORMAT_END
  1
CELLSTYLE_BEGIN
 90
        2
 91
        1
300
_HEADER
309
CELLSTYLE_END
300
CELLSTYLE
  1
TABLEFORMAT_BEGIN
 90
        5
170
     1
 91
        0
 92
        0
 62
   257
 93
        1
300
CONTENTFORMAT
  1
CONTENTFORMAT_BEGIN
 90
        0
 91
        0
 92
        4
 93
        0
300

 40
0.0
140
1.0
 94
        2
 62
     0
340
11
144
4.5
309
CONTENTFORMAT_END
171
     1
301
MARGIN
  1
CELLMARGIN_BEGIN
 40
1.5
 40
1.5
 40
1.5
 40
1.5
 40
0.18
 40
0.18
309
CELLMARGIN_END
 94
        6
 95
        1
302
GRIDFORMAT
  1
GRIDFORMAT_BEGIN
 90
        0
 91
        1
 62
     0
 92
       -2
340
0
 93
        0
 40
0.045
309
GRIDFORMAT_END
 95
        2
302
GRIDFORMAT
  1
GRIDFORMAT_BEGIN
 90
        0
 91
        1
 62
     0
 92
       -2
340
0
 93
        0
 40
0.045
309
GRIDFORMAT_END
 95
        4
302
GRIDFORMAT
  1
GRIDFORMAT_BEGIN
 90
        0
 91
        1
 62
     0
 92
       -2
340
0
 93
        0
 40
0.045
309
GRIDFORMAT_END
 95
        8
302
GRIDFORMAT
  1
GRIDFORMAT_BEGIN
 90
        0
 91
        1
 62
     0
 92
       -2
340
0
 93
        0
 40
0.045
309
GRIDFORMAT_END
 95
       16
302
GRIDFORMAT
  1
GRIDFORMAT_BEGIN
 90
        0
 91
        1
 62
     0
 92
       -2
340
0
 93
        0
 40
0.045
309
GRIDFORMAT_END
 95
       32
302
GRIDFORMAT
  1
GRIDFORMAT_BEGIN
 90
        0
 91
        1
 62
     0
 92
       -2
340
0
 93
        0
 40
0.045
309
GRIDFORMAT_END
309
TABLEFORMAT_END
  1
CELLSTYLE_BEGIN
 90
        3
 91
        2
300
_DATA
309
CELLSTYLE_END
  0
XRECORD
  5
459
102
{ACAD_REACTORS
330
455
102
}
330
455
100
AcDbXrecord
280
     1
102
ACAD_ROUNDTRIP_PRE2007_TABLESTYLE
 90
        4
 91
        0
  1

 92
        4
 93
        0
  2

 94
        4
 95
        0
  3

  0
XRECORD
  5
46E
102
{ACAD_REACTORS
330
46D
102
}
330
46D
100
AcDbXrecord
280
     1
102
RTVSPropertyOp0
 70
     1
102
RTVSPropertyOp1
 70
     1
102
RTVSPropertyOp2
 70
     1
102
RTVSPropertyOp3
 70
     1
102
RTVSPropertyOp4
 70
     1
102
RTVSPropertyOp5
 70
     1
102
RTVSPropertyOp6
 70
     1
102
RTVSPropertyOp7
 70
     1
102
RTVSPropertyOp8
 70
     1
102
RTVSPropertyOp9
 70
     1
102
RTVSPropertyOp10
 70
     1
102
RTVSPropertyOp11
 70
     1
102
RTVSPropertyOp12
 70
     1
102
RTVSPropertyOp13
 70
     1
102
RTVSPropertyOp14
 70
     1
102
RTVSPropertyOp15
 70
     1
102
RTVSPropertyOp16
 70
     1
102
RTVSPropertyOp17
 70
     1
102
RTVSPropertyOp18
 70
     1
102
RTVSPropertyOp19
 70
     1
102
RTVSPropertyOp20
 70
     1
102
RTVSPropertyOp21
 70
     1
102
RTVSPropertyOp22
 70
     1
102
RTVSPropertyOp23
 70
     1
102
RTVSPropertyOp24
 70
     1
102
RTVSPropertyOp25
 70
     1
102
RTVSPropertyOp26
 70
     1
102
RTVSPropertyOp27
 70
     1
  0
XRECORD
  5
472
102
{ACAD_REACTORS
330
471
102
}
330
471
100
AcDbXrecord
280
     1
102
RTVSPropertyOp0
 70
     1
102
RTVSPropertyOp1
 70
     1
102
RTVSPropertyOp2
 70
     1
102
RTVSPropertyOp3
 70
     1
102
RTVSPropertyOp4
 70
     1
102
RTVSPropertyOp5
 70
     1
102
RTVSPropertyOp6
 70
     1
102
RTVSPropertyOp7
 70
     1
102
RTVSPropertyOp8
 70
     1
102
RTVSPropertyOp9
 70
     1
102
RTVSPropertyOp10
 70
     1
102
RTVSPropertyOp11
 70
     1
102
RTVSPropertyOp12
 70
     1
102
RTVSPropertyOp13
 70
     1
102
RTVSPropertyOp14
 70
     1
102
RTVSPropertyOp15
 70
     1
102
RTVSPropertyOp16
 70
     1
102
RTVSPropertyOp17
 70
     1
102
RTVSPropertyOp18
 70
     1
102
RTVSPropertyOp19
 70
     1
102
RTVSPropertyOp20
 70
     1
102
RTVSPropertyOp21
 70
     1
102
RTVSPropertyOp22
 70
     1
102
RTVSPropertyOp23
 70
     1
102
RTVSPropertyOp24
 70
     1
102
RTVSPropertyOp25
 70
     1
102
RTVSPropertyOp26
 70
     1
102
RTVSPropertyOp27
 70
     1
  0
XRECORD
  5
470
102
{ACAD_REACTORS
330
46F
102
}
330
46F
100
AcDbXrecord
280
     1
102
RTVSPropertyOp0
 70
     1
102
RTVSPropertyOp1
 70
     1
102
RTVSPropertyOp2
 70
     1
102
RTVSPropertyOp3
 70
     1
102
RTVSPropertyOp4
 70
     1
102
RTVSPropertyOp5
 70
     1
102
RTVSPropertyOp6
 70
     1
102
RTVSPropertyOp7
 70
     1
102
RTVSPropertyOp8
 70
     1
102
RTVSPropertyOp9
 70
     1
102
RTVSPropertyOp10
 70
     1
102
RTVSPropertyOp11
 70
     1
102
RTVSPropertyOp12
 70
     1
102
RTVSPropertyOp13
 70
     1
102
RTVSPropertyOp14
 70
     1
102
RTVSPropertyOp15
 70
     1
102
RTVSPropertyOp16
 70
     1
102
RTVSPropertyOp17
 70
     1
102
RTVSPropertyOp18
 70
     1
102
RTVSPropertyOp19
 70
     1
102
RTVSPropertyOp20
 70
     1
102
RTVSPropertyOp21
 70
     1
102
RTVSPropertyOp22
 70
     1
102
RTVSPropertyOp23
 70
     1
102
RTVSPropertyOp24
 70
     1
102
RTVSPropertyOp25
 70
     1
102
RTVSPropertyOp26
 70
     1
102
RTVSPropertyOp27
 70
     1
  0
XRECORD
  5
46C
102
{ACAD_REACTORS
330
46B
102
}
330
46B
100
AcDbXrecord
280
     1
102
RTVSPropertyOp0
 70
     1
102
RTVSPropertyOp1
 70
     1
102
RTVSPropertyOp2
 70
     1
102
RTVSPropertyOp3
 70
     1
102
RTVSPropertyOp4
 70
     1
102
RTVSPropertyOp5
 70
     1
102
RTVSPropertyOp6
 70
     1
102
RTVSPropertyOp7
 70
     1
102
RTVSPropertyOp8
 70
     1
102
RTVSPropertyOp9
 70
     1
102
RTVSPropertyOp10
 70
     1
102
RTVSPropertyOp11
 70
     1
102
RTVSPropertyOp12
 70
     1
102
RTVSPropertyOp13
 70
     1
102
RTVSPropertyOp14
 70
     1
102
RTVSPropertyOp15
 70
     1
102
RTVSPropertyOp16
 70
     1
102
RTVSPropertyOp17
 70
     1
102
RTVSPropertyOp18
 70
     1
102
RTVSPropertyOp19
 70
     1
102
RTVSPropertyOp20
 70
     1
102
RTVSPropertyOp21
 70
     1
102
RTVSPropertyOp22
 70
     1
102
RTVSPropertyOp23
 70
     1
102
RTVSPropertyOp24
 70
     1
102
RTVSPropertyOp25
 70
     1
102
RTVSPropertyOp26
 70
     1
102
RTVSPropertyOp27
 70
     1
  0
XRECORD
  5
47A
102
{ACAD_REACTORS
330
479
102
}
330
479
100
AcDbXrecord
280
     1
102
RTVSPropertyOp0
 70
     1
102
RTVSPropertyOp1
 70
     1
102
RTVSPropertyOp2
 70
     1
102
RTVSPropertyOp3
 70
     1
102
RTVSPropertyOp4
 70
     1
102
RTVSPropertyOp5
 70
     1
102
RTVSPropertyOp6
 70
     1
102
RTVSPropertyOp7
 70
     1
102
RTVSPropertyOp8
 70
     1
102
RTVSPropertyOp9
 70
     1
102
RTVSPropertyOp10
 70
     1
102
RTVSPropertyOp11
 70
     1
102
RTVSPropertyOp12
 70
     1
102
RTVSPropertyOp13
 70
     1
102
RTVSPropertyOp14
 70
     1
102
RTVSPropertyOp15
 70
     1
102
RTVSPropertyOp16
 70
     1
102
RTVSPropertyOp17
 70
     1
102
RTVSPropertyOp18
 70
     1
102
RTVSPropertyOp19
 70
     1
102
RTVSPropertyOp20
 70
     1
102
RTVSPropertyOp21
 70
     1
102
RTVSPropertyOp22
 70
     1
102
RTVSPropertyOp23
 70
     1
102
RTVSPropertyOp24
 70
     1
102
RTVSPropertyOp25
 70
     1
102
RTVSPropertyOp26
 70
     1
102
RTVSPropertyOp27
 70
     1
  0
XRECORD
  5
482
102
{ACAD_REACTORS
330
481
102
}
330
481
100
AcDbXrecord
280
     1
102
RTVSPropertyOp0
 70
     1
102
RTVSPropertyOp1
 70
     1
102
RTVSPropertyOp2
 70
     1
102
RTVSPropertyOp3
 70
     1
102
RTVSPropertyOp4
 70
     1
102
RTVSPropertyOp5
 70
     1
102
RTVSPropertyOp6
 70
     1
102
RTVSPropertyOp7
 70
     1
102
RTVSPropertyOp8
 70
     1
102
RTVSPropertyOp9
 70
     1
102
RTVSPropertyOp10
 70
     1
102
RTVSPropertyOp11
 70
     1
102
RTVSPropertyOp12
 70
     1
102
RTVSPropertyOp13
 70
     1
102
RTVSPropertyOp14
 70
     1
102
RTVSPropertyOp15
 70
     1
102
RTVSPropertyOp16
 70
     1
102
RTVSPropertyOp17
 70
     1
102
RTVSPropertyOp18
 70
     1
102
RTVSPropertyOp19
 70
     1
102
RTVSPropertyOp20
 70
     1
102
RTVSPropertyOp21
 70
     1
102
RTVSPropertyOp22
 70
     1
102
RTVSPropertyOp23
 70
     1
102
RTVSPropertyOp24
 70
     1
102
RTVSPropertyOp25
 70
     1
102
RTVSPropertyOp26
 70
     1
102
RTVSPropertyOp27
 70
     1
  0
XRECORD
  5
474
102
{ACAD_REACTORS
330
473
102
}
330
473
100
AcDbXrecord
280
     1
102
RTVSPropertyOp0
 70
     1
102
RTVSPropertyOp1
 70
     1
102
RTVSPropertyOp2
 70
     1
102
RTVSPropertyOp3
 70
     1
102
RTVSPropertyOp4
 70
     1
102
RTVSPropertyOp5
 70
     1
102
RTVSPropertyOp6
 70
     1
102
RTVSPropertyOp7
 70
     1
102
RTVSPropertyOp8
 70
     1
102
RTVSPropertyOp9
 70
     1
102
RTVSPropertyOp10
 70
     1
102
RTVSPropertyOp11
 70
     1
102
RTVSPropertyOp12
 70
     1
102
RTVSPropertyOp13
 70
     1
102
RTVSPropertyOp14
 70
     1
102
RTVSPropertyOp15
 70
     1
102
RTVSPropertyOp16
 70
     1
102
RTVSPropertyOp17
 70
     1
102
RTVSPropertyOp18
 70
     1
102
RTVSPropertyOp19
 70
     1
102
RTVSPropertyOp20
 70
     1
102
RTVSPropertyOp21
 70
     1
102
RTVSPropertyOp22
 70
     1
102
RTVSPropertyOp23
 70
     1
102
RTVSPropertyOp24
 70
     1
102
RTVSPropertyOp25
 70
     1
102
RTVSPropertyOp26
 70
     1
102
RTVSPropertyOp27
 70
     1
  0
XRECORD
  5
478
102
{ACAD_REACTORS
330
477
102
}
330
477
100
AcDbXrecord
280
     1
102
RTVSPropertyOp0
 70
     1
102
RTVSPropertyOp1
 70
     1
102
RTVSPropertyOp2
 70
     1
102
RTVSPropertyOp3
 70
     1
102
RTVSPropertyOp4
 70
     1
102
RTVSPropertyOp5
 70
     1
102
RTVSPropertyOp6
 70
     1
102
RTVSPropertyOp7
 70
     1
102
RTVSPropertyOp8
 70
     1
102
RTVSPropertyOp9
 70
     1
102
RTVSPropertyOp10
 70
     1
102
RTVSPropertyOp11
 70
     1
102
RTVSPropertyOp12
 70
     1
102
RTVSPropertyOp13
 70
     1
102
RTVSPropertyOp14
 70
     1
102
RTVSPropertyOp15
 70
     1
102
RTVSPropertyOp16
 70
     1
102
RTVSPropertyOp17
 70
     1
102
RTVSPropertyOp18
 70
     1
102
RTVSPropertyOp19
 70
     1
102
RTVSPropertyOp20
 70
     1
102
RTVSPropertyOp21
 70
     1
102
RTVSPropertyOp22
 70
     1
102
RTVSPropertyOp23
 70
     1
102
RTVSPropertyOp24
 70
     1
102
RTVSPropertyOp25
 70
     1
102
RTVSPropertyOp26
 70
     1
102
RTVSPropertyOp27
 70
     1
  0
XRECORD
  5
488
102
{ACAD_REACTORS
330
487
102
}
330
487
100
AcDbXrecord
280
     1
102
RTVSPropertyOp0
 70
     0
102
RTVSPropertyOp1
 70
     0
102
RTVSPropertyOp2
 70
     0
102
RTVSPropertyOp3
 70
     0
102
RTVSPropertyOp4
 70
     0
102
RTVSPropertyOp5
 70
     0
102
RTVSPropertyOp6
 70
     0
102
RTVSPropertyOp7
 70
     0
102
RTVSPropertyOp8
 70
     0
102
RTVSPropertyOp9
 70
     0
102
RTVSPropertyOp10
 70
     0
102
RTVSPropertyOp11
 70
     0
102
RTVSPropertyOp12
 70
     0
102
RTVSPropertyOp13
 70
     0
102
RTVSPropertyOp14
 70
     2
102
RTVSPropertyOp15
 70
     0
102
RTVSPropertyOp16
 70
     0
102
RTVSPropertyOp17
 70
     0
102
RTVSPropertyOp18
 70
     0
102
RTVSPropertyOp19
 70
     0
102
RTVSPropertyOp20
 70
     0
102
RTVSPropertyOp21
 70
     0
102
RTVSPropertyOp22
 70
     0
102
RTVSPropertyOp23
 70
     0
102
RTVSPropertyOp24
 70
     0
102
RTVSPropertyOp25
 70
     0
102
RTVSPropertyOp26
 70
     0
102
RTVSPropertyOp27
 70
     0
  0
XRECORD
  5
480
102
{ACAD_REACTORS
330
47F
102
}
330
47F
100
AcDbXrecord
280
     1
102
RTVSPropertyOp0
 70
     1
102
RTVSPropertyOp1
 70
     1
102
RTVSPropertyOp2
 70
     1
102
RTVSPropertyOp3
 70
     1
102
RTVSPropertyOp4
 70
     1
102
RTVSPropertyOp5
 70
     1
102
RTVSPropertyOp6
 70
     1
102
RTVSPropertyOp7
 70
     1
102
RTVSPropertyOp8
 70
     1
102
RTVSPropertyOp9
 70
     1
102
RTVSPropertyOp10
 70
     1
102
RTVSPropertyOp11
 70
     1
102
RTVSPropertyOp12
 70
     1
102
RTVSPropertyOp13
 70
     1
102
RTVSPropertyOp14
 70
     1
102
RTVSPropertyOp15
 70
     1
102
RTVSPropertyOp16
 70
     1
102
RTVSPropertyOp17
 70
     1
102
RTVSPropertyOp18
 70
     1
102
RTVSPropertyOp19
 70
     1
102
RTVSPropertyOp20
 70
     1
102
RTVSPropertyOp21
 70
     1
102
RTVSPropertyOp22
 70
     1
102
RTVSPropertyOp23
 70
     1
102
RTVSPropertyOp24
 70
     1
102
RTVSPropertyOp25
 70
     1
102
RTVSPropertyOp26
 70
     1
102
RTVSPropertyOp27
 70
     1
  0
XRECORD
  5
464
102
{ACAD_REACTORS
330
463
102
}
330
463
100
AcDbXrecord
280
     1
102
RTVSPropertyOp0
 70
     1
102
RTVSPropertyOp1
 70
     1
102
RTVSPropertyOp2
 70
     1
102
RTVSPropertyOp3
 70
     1
102
RTVSPropertyOp4
 70
     1
102
RTVSPropertyOp5
 70
     1
102
RTVSPropertyOp6
 70
     1
102
RTVSPropertyOp7
 70
     1
102
RTVSPropertyOp8
 70
     1
102
RTVSPropertyOp9
 70
     1
102
RTVSPropertyOp10
 70
     1
102
RTVSPropertyOp11
 70
     1
102
RTVSPropertyOp12
 70
     1
102
RTVSPropertyOp13
 70
     1
102
RTVSPropertyOp14
 70
     1
102
RTVSPropertyOp15
 70
     1
102
RTVSPropertyOp16
 70
     1
102
RTVSPropertyOp17
 70
     1
102
RTVSPropertyOp18
 70
     1
102
RTVSPropertyOp19
 70
     1
102
RTVSPropertyOp20
 70
     1
102
RTVSPropertyOp21
 70
     1
102
RTVSPropertyOp22
 70
     1
102
RTVSPropertyOp23
 70
     1
102
RTVSPropertyOp24
 70
     1
102
RTVSPropertyOp25
 70
     1
102
RTVSPropertyOp26
 70
     1
102
RTVSPropertyOp27
 70
     1
  0
XRECORD
  5
466
102
{ACAD_REACTORS
330
465
102
}
330
465
100
AcDbXrecord
280
     1
102
RTVSPropertyOp0
 70
     1
102
RTVSPropertyOp1
 70
     1
102
RTVSPropertyOp2
 70
     1
102
RTVSPropertyOp3
 70
     1
102
RTVSPropertyOp4
 70
     1
102
RTVSPropertyOp5
 70
     1
102
RTVSPropertyOp6
 70
     1
102
RTVSPropertyOp7
 70
     1
102
RTVSPropertyOp8
 70
     1
102
RTVSPropertyOp9
 70
     1
102
RTVSPropertyOp10
 70
     1
102
RTVSPropertyOp11
 70
     1
102
RTVSPropertyOp12
 70
     1
102
RTVSPropertyOp13
 70
     1
102
RTVSPropertyOp14
 70
     1
102
RTVSPropertyOp15
 70
     1
102
RTVSPropertyOp16
 70
     1
102
RTVSPropertyOp17
 70
     1
102
RTVSPropertyOp18
 70
     1
102
RTVSPropertyOp19
 70
     1
102
RTVSPropertyOp20
 70
     1
102
RTVSPropertyOp21
 70
     1
102
RTVSPropertyOp22
 70
     1
102
RTVSPropertyOp23
 70
     1
102
RTVSPropertyOp24
 70
     1
102
RTVSPropertyOp25
 70
     1
102
RTVSPropertyOp26
 70
     1
102
RTVSPropertyOp27
 70
     1
  0
XRECORD
  5
468
102
{ACAD_REACTORS
330
467
102
}
330
467
100
AcDbXrecord
280
     1
102
RTVSPropertyOp0
 70
     1
102
RTVSPropertyOp1
 70
     1
102
RTVSPropertyOp2
 70
     1
102
RTVSPropertyOp3
 70
     1
102
RTVSPropertyOp4
 70
     1
102
RTVSPropertyOp5
 70
     1
102
RTVSPropertyOp6
 70
     1
102
RTVSPropertyOp7
 70
     1
102
RTVSPropertyOp8
 70
     1
102
RTVSPropertyOp9
 70
     1
102
RTVSPropertyOp10
 70
     1
102
RTVSPropertyOp11
 70
     1
102
RTVSPropertyOp12
 70
     1
102
RTVSPropertyOp13
 70
     1
102
RTVSPropertyOp14
 70
     1
102
RTVSPropertyOp15
 70
     1
102
RTVSPropertyOp16
 70
     1
102
RTVSPropertyOp17
 70
     1
102
RTVSPropertyOp18
 70
     1
102
RTVSPropertyOp19
 70
     1
102
RTVSPropertyOp20
 70
     1
102
RTVSPropertyOp21
 70
     1
102
RTVSPropertyOp22
 70
     1
102
RTVSPropertyOp23
 70
     1
102
RTVSPropertyOp24
 70
     1
102
RTVSPropertyOp25
 70
     1
102
RTVSPropertyOp26
 70
     1
102
RTVSPropertyOp27
 70
     1
  0
XRECORD
  5
46A
102
{ACAD_REACTORS
330
469
102
}
330
469
100
AcDbXrecord
280
     1
102
RTVSPropertyOp0
 70
     1
102
RTVSPropertyOp1
 70
     1
102
RTVSPropertyOp2
 70
     1
102
RTVSPropertyOp3
 70
     1
102
RTVSPropertyOp4
 70
     1
102
RTVSPropertyOp5
 70
     1
102
RTVSPropertyOp6
 70
     1
102
RTVSPropertyOp7
 70
     1
102
RTVSPropertyOp8
 70
     1
102
RTVSPropertyOp9
 70
     1
102
RTVSPropertyOp10
 70
     1
102
RTVSPropertyOp11
 70
     1
102
RTVSPropertyOp12
 70
     1
102
RTVSPropertyOp13
 70
     1
102
RTVSPropertyOp14
 70
     1
102
RTVSPropertyOp15
 70
     1
102
RTVSPropertyOp16
 70
     1
102
RTVSPropertyOp17
 70
     1
102
RTVSPropertyOp18
 70
     1
102
RTVSPropertyOp19
 70
     1
102
RTVSPropertyOp20
 70
     1
102
RTVSPropertyOp21
 70
     1
102
RTVSPropertyOp22
 70
     1
102
RTVSPropertyOp23
 70
     1
102
RTVSPropertyOp24
 70
     1
102
RTVSPropertyOp25
 70
     1
102
RTVSPropertyOp26
 70
     1
102
RTVSPropertyOp27
 70
     1
  0
XRECORD
  5
484
102
{ACAD_REACTORS
330
483
102
}
330
483
100
AcDbXrecord
280
     1
102
RTVSPropertyOp0
 70
     0
102
RTVSPropertyOp1
 70
     0
102
RTVSPropertyOp2
 70
     0
102
RTVSPropertyOp3
 70
     0
102
RTVSPropertyOp4
 70
     0
102
RTVSPropertyOp5
 70
     0
102
RTVSPropertyOp6
 70
     0
102
RTVSPropertyOp7
 70
     0
102
RTVSPropertyOp8
 70
     0
102
RTVSPropertyOp9
 70
     0
102
RTVSPropertyOp10
 70
     0
102
RTVSPropertyOp11
 70
     0
102
RTVSPropertyOp12
 70
     0
102
RTVSPropertyOp13
 70
     0
102
RTVSPropertyOp14
 70
     2
102
RTVSPropertyOp15
 70
     0
102
RTVSPropertyOp16
 70
     0
102
RTVSPropertyOp17
 70
     0
102
RTVSPropertyOp18
 70
     0
102
RTVSPropertyOp19
 70
     0
102
RTVSPropertyOp20
 70
     0
102
RTVSPropertyOp21
 70
     0
102
RTVSPropertyOp22
 70
     0
102
RTVSPropertyOp23
 70
     0
102
RTVSPropertyOp24
 70
     0
102
RTVSPropertyOp25
 70
     0
102
RTVSPropertyOp26
 70
     0
102
RTVSPropertyOp27
 70
     0
  0
XRECORD
  5
47E
102
{ACAD_REACTORS
330
47D
102
}
330
47D
100
AcDbXrecord
280
     1
102
RTVSPropertyOp0
 70
     1
102
RTVSPropertyOp1
 70
     1
102
RTVSPropertyOp2
 70
     1
102
RTVSPropertyOp3
 70
     1
102
RTVSPropertyOp4
 70
     1
102
RTVSPropertyOp5
 70
     1
102
RTVSPropertyOp6
 70
     1
102
RTVSPropertyOp7
 70
     1
102
RTVSPropertyOp8
 70
     1
102
RTVSPropertyOp9
 70
     1
102
RTVSPropertyOp10
 70
     1
102
RTVSPropertyOp11
 70
     1
102
RTVSPropertyOp12
 70
     1
102
RTVSPropertyOp13
 70
     1
102
RTVSPropertyOp14
 70
     1
102
RTVSPropertyOp15
 70
     1
102
RTVSPropertyOp16
 70
     1
102
RTVSPropertyOp17
 70
     1
102
RTVSPropertyOp18
 70
     1
102
RTVSPropertyOp19
 70
     1
102
RTVSPropertyOp20
 70
     1
102
RTVSPropertyOp21
 70
     1
102
RTVSPropertyOp22
 70
     1
102
RTVSPropertyOp23
 70
     1
102
RTVSPropertyOp24
 70
     1
102
RTVSPropertyOp25
 70
     1
102
RTVSPropertyOp26
 70
     1
102
RTVSPropertyOp27
 70
     1
  0
XRECORD
  5
486
102
{ACAD_REACTORS
330
485
102
}
330
485
100
AcDbXrecord
280
     1
102
RTVSPropertyOp0
 70
     0
102
RTVSPropertyOp1
 70
     0
102
RTVSPropertyOp2
 70
     0
102
RTVSPropertyOp3
 70
     0
102
RTVSPropertyOp4
 70
     0
102
RTVSPropertyOp5
 70
     0
102
RTVSPropertyOp6
 70
     0
102
RTVSPropertyOp7
 70
     0
102
RTVSPropertyOp8
 70
     0
102
RTVSPropertyOp9
 70
     0
102
RTVSPropertyOp10
 70
     0
102
RTVSPropertyOp11
 70
     0
102
RTVSPropertyOp12
 70
     0
102
RTVSPropertyOp13
 70
     0
102
RTVSPropertyOp14
 70
     2
102
RTVSPropertyOp15
 70
     0
102
RTVSPropertyOp16
 70
     0
102
RTVSPropertyOp17
 70
     0
102
RTVSPropertyOp18
 70
     0
102
RTVSPropertyOp19
 70
     0
102
RTVSPropertyOp20
 70
     0
102
RTVSPropertyOp21
 70
     0
102
RTVSPropertyOp22
 70
     0
102
RTVSPropertyOp23
 70
     0
102
RTVSPropertyOp24
 70
     0
102
RTVSPropertyOp25
 70
     0
102
RTVSPropertyOp26
 70
     0
102
RTVSPropertyOp27
 70
     0
  0
XRECORD
  5
476
102
{ACAD_REACTORS
330
475
102
}
330
475
100
AcDbXrecord
280
     1
102
RTVSPropertyOp0
 70
     1
102
RTVSPropertyOp1
 70
     1
102
RTVSPropertyOp2
 70
     1
102
RTVSPropertyOp3
 70
     1
102
RTVSPropertyOp4
 70
     1
102
RTVSPropertyOp5
 70
     1
102
RTVSPropertyOp6
 70
     1
102
RTVSPropertyOp7
 70
     1
102
RTVSPropertyOp8
 70
     1
102
RTVSPropertyOp9
 70
     1
102
RTVSPropertyOp10
 70
     1
102
RTVSPropertyOp11
 70
     1
102
RTVSPropertyOp12
 70
     1
102
RTVSPropertyOp13
 70
     1
102
RTVSPropertyOp14
 70
     1
102
RTVSPropertyOp15
 70
     1
102
RTVSPropertyOp16
 70
     1
102
RTVSPropertyOp17
 70
     1
102
RTVSPropertyOp18
 70
     1
102
RTVSPropertyOp19
 70
     1
102
RTVSPropertyOp20
 70
     1
102
RTVSPropertyOp21
 70
     1
102
RTVSPropertyOp22
 70
     1
102
RTVSPropertyOp23
 70
     1
102
RTVSPropertyOp24
 70
     1
102
RTVSPropertyOp25
 70
     1
102
RTVSPropertyOp26
 70
     1
102
RTVSPropertyOp27
 70
     1
  0
XRECORD
  5
47C
102
{ACAD_REACTORS
330
47B
102
}
330
47B
100
AcDbXrecord
280
     1
102
RTVSPropertyOp0
 70
     1
102
RTVSPropertyOp1
 70
     1
102
RTVSPropertyOp2
 70
     1
102
RTVSPropertyOp3
 70
     1
102
RTVSPropertyOp4
 70
     1
102
RTVSPropertyOp5
 70
     1
102
RTVSPropertyOp6
 70
     1
102
RTVSPropertyOp7
 70
     1
102
RTVSPropertyOp8
 70
     1
102
RTVSPropertyOp9
 70
     1
102
RTVSPropertyOp10
 70
     1
102
RTVSPropertyOp11
 70
     1
102
RTVSPropertyOp12
 70
     1
102
RTVSPropertyOp13
 70
     1
102
RTVSPropertyOp14
 70
     1
102
RTVSPropertyOp15
 70
     1
102
RTVSPropertyOp16
 70
     1
102
RTVSPropertyOp17
 70
     1
102
RTVSPropertyOp18
 70
     1
102
RTVSPropertyOp19
 70
     1
102
RTVSPropertyOp20
 70
     1
102
RTVSPropertyOp21
 70
     1
102
RTVSPropertyOp22
 70
     1
102
RTVSPropertyOp23
 70
     1
102
RTVSPropertyOp24
 70
     1
102
RTVSPropertyOp25
 70
     1
102
RTVSPropertyOp26
 70
     1
102
RTVSPropertyOp27
 70
     1
  0
ENDSEC
  0
EOF
