  0
SECTION
  2
HEADER
  9
$ACADVER
  1
AC1015
  9
$ACADMAINTVER
 70
    20
  9
$DWGCODEPAGE
  3
ANSI_1252
  9
$INSBASE
 10
0.0
 20
0.0
 30
0.0
  9
$EXTMIN
 10
677.4621546800313
 20
1040.418628472134
 30
0.0
  9
$EXTMAX
 10
680.1897025818526
 20
1040.914874823406
 30
0.0
  9
$LIMMIN
 10
0.0
 20
0.0
  9
$LIMMAX
 10
420.0
 20
297.0
  9
$ORTHOMODE
 70
     1
  9
$REGENMODE
 70
     1
  9
$FILLMODE
 70
     1
  9
$QTEXTMODE
 70
     0
  9
$MIRRTEXT
 70
     0
  9
$LTSCALE
 40
1.0
  9
$ATTMODE
 70
     1
  9
$TEXTSIZE
 40
2.5
  9
$TRACEWID
 40
1.0
  9
$TEXTSTYLE
  7
Standard
  9
$CLAYER
  8
0
  9
$CELTYPE
  6
ByLayer
  9
$CECOLOR
 62
   256
  9
$CELTSCALE
 40
1.0
  9
$DISPSILH
 70
     0
  9
$DIMSCALE
 40
1.0
  9
$DIMASZ
 40
2.5
  9
$DIMEXO
 40
0.625
  9
$DIMDLI
 40
3.75
  9
$DIMRND
 40
0.0
  9
$DIMDLE
 40
0.0
  9
$DIMEXE
 40
1.25
  9
$DIMTP
 40
0.0
  9
$DIMTM
 40
0.0
  9
$DIMTXT
 40
2.5
  9
$DIMCEN
 40
2.5
  9
$DIMTSZ
 40
0.0
  9
$DIMTOL
 70
     0
  9
$DIMLIM
 70
     0
  9
$DIMTIH
 70
     0
  9
$DIMTOH
 70
     0
  9
$DIMSE1
 70
     0
  9
$DIMSE2
 70
     0
  9
$DIMTAD
 70
     1
  9
$DIMZIN
 70
     8
  9
$DIMBLK
  1

  9
$DIMASO
 70
     1
  9
$DIMSHO
 70
     1
  9
$DIMPOST
  1

  9
$DIMAPOST
  1

  9
$DIMALT
 70
     0
  9
$DIMALTD
 70
     3
  9
$DIMALTF
 40
0.03937007874016
  9
$DIMLFAC
 40
1.0
  9
$DIMTOFL
 70
     1
  9
$DIMTVP
 40
0.0
  9
$DIMTIX
 70
     0
  9
$DIMSOXD
 70
     0
  9
$DIMSAH
 70
     0
  9
$DIMBLK1
  1

  9
$DIMBLK2
  1

  9
$DIMSTYLE
  2
ISO-25
  9
$DIMCLRD
 70
     0
  9
$DIMCLRE
 70
     0
  9
$DIMCLRT
 70
     0
  9
$DIMTFAC
 40
1.0
  9
$DIMGAP
 40
0.625
  9
$DIMJUST
 70
     0
  9
$DIMSD1
 70
     0
  9
$DIMSD2
 70
     0
  9
$DIMTOLJ
 70
     0
  9
$DIMTZIN
 70
     8
  9
$DIMALTZ
 70
     0
  9
$DIMALTTZ
 70
     0
  9
$DIMUPT
 70
     0
  9
$DIMDEC
 70
     2
  9
$DIMTDEC
 70
     2
  9
$DIMALTU
 70
     2
  9
$DIMALTTD
 70
     3
  9
$DIMTXSTY
  7
Standard
  9
$DIMAUNIT
 70
     0
  9
$DIMADEC
 70
     0
  9
$DIMALTRND
 40
0.0
  9
$DIMAZIN
 70
     0
  9
$DIMDSEP
 70
    44
  9
$DIMATFIT
 70
     3
  9
$DIMFRAC
 70
     0
  9
$DIMLDRBLK
  1

  9
$DIMLUNIT
 70
     2
  9
$DIMLWD
 70
    -2
  9
$DIMLWE
 70
    -2
  9
$DIMTMOVE
 70
     0
  9
$LUNITS
 70
     2
  9
$LUPREC
 70
     4
  9
$SKETCHINC
 40
1.0
  9
$FILLETRAD
 40
0.0
  9
$AUNITS
 70
     0
  9
$AUPREC
 70
     0
  9
$MENU
  1
.
  9
$ELEVATION
 40
0.0
  9
$PELEVATION
 40
0.0
  9
$THICKNESS
 40
0.0
  9
$LIMCHECK
 70
     0
  9
$CHAMFERA
 40
0.0
  9
$CHAMFERB
 40
0.0
  9
$CHAMFERC
 40
0.0
  9
$CHAMFERD
 40
0.0
  9
$SKPOLY
 70
     0
  9
$TDCREATE
 40
2453797.484086366
  9
$TDUCREATE
 40
2453797.442419699
  9
$TDUPDATE
 40
2456147.430573091
  9
$TDUUPDATE
 40
2456147.388906424
  9
$TDINDWG
 40
0.0031016667
  9
$TDUSRTIMER
 40
0.0031016667
  9
$USRTIMER
 70
     1
  9
$ANGBASE
 50
0.0
  9
$ANGDIR
 70
     0
  9
$PDMODE
 70
     0
  9
$PDSIZE
 40
0.0
  9
$PLINEWID
 40
0.0
  9
$SPLFRAME
 70
     0
  9
$SPLINETYPE
 70
     6
  9
$SPLINESEGS
 70
     8
  9
$HANDSEED
  5
461
  9
$SURFTAB1
 70
     6
  9
$SURFTAB2
 70
     6
  9
$SURFTYPE
 70
     6
  9
$SURFU
 70
     6
  9
$SURFV
 70
     6
  9
$UCSBASE
  2

  9
$UCSNAME
  2

  9
$UCSORG
 10
0.0
 20
0.0
 30
0.0
  9
$UCSXDIR
 10
1.0
 20
0.0
 30
0.0
  9
$UCSYDIR
 10
0.0
 20
1.0
 30
0.0
  9
$UCSORTHOREF
  2

  9
$UCSORTHOVIEW
 70
     0
  9
$UCSORGTOP
 10
0.0
 20
0.0
 30
0.0
  9
$UCSORGBOTTOM
 10
0.0
 20
0.0
 30
0.0
  9
$UCSORGLEFT
 10
0.0
 20
0.0
 30
0.0
  9
$UCSORGRIGHT
 10
0.0
 20
0.0
 30
0.0
  9
$UCSORGFRONT
 10
0.0
 20
0.0
 30
0.0
  9
$UCSORGBACK
 10
0.0
 20
0.0
 30
0.0
  9
$PUCSBASE
  2

  9
$PUCSNAME
  2

  9
$PUCSORG
 10
0.0
 20
0.0
 30
0.0
  9
$PUCSXDIR
 10
1.0
 20
0.0
 30
0.0
  9
$PUCSYDIR
 10
0.0
 20
1.0
 30
0.0
  9
$PUCSORTHOREF
  2

  9
$PUCSORTHOVIEW
 70
     0
  9
$PUCSORGTOP
 10
0.0
 20
0.0
 30
0.0
  9
$PUCSORGBOTTOM
 10
0.0
 20
0.0
 30
0.0
  9
$PUCSORGLEFT
 10
0.0
 20
0.0
 30
0.0
  9
$PUCSORGRIGHT
 10
0.0
 20
0.0
 30
0.0
  9
$PUCSORGFRONT
 10
0.0
 20
0.0
 30
0.0
  9
$PUCSORGBACK
 10
0.0
 20
0.0
 30
0.0
  9
$USERI1
 70
     0
  9
$USERI2
 70
     0
  9
$USERI3
 70
     0
  9
$USERI4
 70
     0
  9
$USERI5
 70
     0
  9
$USERR1
 40
0.0
  9
$USERR2
 40
0.0
  9
$USERR3
 40
0.0
  9
$USERR4
 40
0.0
  9
$USERR5
 40
0.0
  9
$WORLDVIEW
 70
     1
  9
$SHADEDGE
 70
     3
  9
$SHADEDIF
 70
    70
  9
$TILEMODE
 70
     1
  9
$MAXACTVP
 70
    64
  9
$PINSBASE
 10
0.0
 20
0.0
 30
0.0
  9
$PLIMCHECK
 70
     0
  9
$PEXTMIN
 10
1.000000000000000E+20
 20
1.000000000000000E+20
 30
1.000000000000000E+20
  9
$PEXTMAX
 10
-1.000000000000000E+20
 20
-1.000000000000000E+20
 30
-1.000000000000000E+20
  9
$PLIMMIN
 10
0.0
 20
0.0
  9
$PLIMMAX
 10
420.0
 20
297.0
  9
$UNITMODE
 70
     0
  9
$VISRETAIN
 70
     1
  9
$PLINEGEN
 70
     0
  9
$PSLTSCALE
 70
     1
  9
$TREEDEPTH
 70
  3020
  9
$CMLSTYLE
  2
Standard
  9
$CMLJUST
 70
     0
  9
$CMLSCALE
 40
20.0
  9
$PROXYGRAPHICS
 70
     1
  9
$MEASUREMENT
 70
     1
  9
$CELWEIGHT
370
    -1
  9
$ENDCAPS
280
     0
  9
$JOINSTYLE
280
     0
  9
$LWDISPLAY
290
     0
  9
$INSUNITS
 70
     4
  9
$HYPERLINKBASE
  1

  9
$STYLESHEET
  1

  9
$XEDIT
290
     1
  9
$CEPSNTYPE
380
     0
  9
$PSTYLEMODE
290
     1
  9
$FINGERPRINTGUID
  2
{B2FB8B15-F2AA-412D-8ACB-A2269D28BC12}
  9
$VERSIONGUID
  2
{0D0F106F-C8A9-4B37-ADE6-6A3ECADFADC1}
  9
$EXTNAMES
290
     1
  9
$PSVPSCALE
 40
0.0
  9
$OLESTARTUP
290
     0
  0
ENDSEC
  0
SECTION
  2
CLASSES
  0
CLASS
  1
ACDBDICTIONARYWDFLT
  2
AcDbDictionaryWithDefault
  3
ObjectDBX Classes
 90
        0
280
     0
281
     0
  0
CLASS
  1
TABLESTYLE
  2
AcDbTableStyle
  3
ObjectDBX Classes
 90
     4095
280
     0
281
     0
  0
CLASS
  1
DICTIONARYVAR
  2
AcDbDictionaryVar
  3
ObjectDBX Classes
 90
        0
280
     0
281
     0
  0
CLASS
  1
ACDBPLACEHOLDER
  2
AcDbPlaceHolder
  3
ObjectDBX Classes
 90
        0
280
     0
281
     0
  0
CLASS
  1
LAYOUT
  2
AcDbLayout
  3
ObjectDBX Classes
 90
        0
280
     0
281
     0
  0
CLASS
  1
MATERIAL
  2
AcDbMaterial
  3
ObjectDBX Classes
 90
     1153
280
     0
281
     0
  0
CLASS
  1
VISUALSTYLE
  2
AcDbVisualStyle
  3
ObjectDBX Classes
 90
     4095
280
     0
281
     0
  0
CLASS
  1
SCALE
  2
AcDbScale
  3
ObjectDBX Classes
 90
     1153
280
     0
281
     0
  0
CLASS
  1
MLEADERSTYLE
  2
AcDbMLeaderStyle
  3
ACDB_MLEADERSTYLE_CLASS
 90
     4095
280
     0
281
     0
  0
CLASS
  1
CELLSTYLEMAP
  2
AcDbCellStyleMap
  3
ObjectDBX Classes
 90
     1152
280
     0
281
     0
  0
ENDSEC
  0
SECTION
  2
TABLES
  0
TABLE
  2
VPORT
  5
8
330
0
100
AcDbSymbolTable
 70
     1
  0
VPORT
  5
3C4
330
8
100
AcDbSymbolTableRecord
100
AcDbViewportTableRecord
  2
*Active
 70
     0
 10
0.0
 20
0.0
 11
1.0
 21
1.0
 12
678.8772355688661
 22
1040.66675164777
 13
0.0
 23
0.0
 14
10.0
 24
10.0
 15
10.0
 25
10.0
 16
0.0
 26
0.0
 36
1.0
 17
0.0
 27
0.0
 37
0.0
 40
1.726273940609226
 41
1.645464025026068
 42
50.0
 43
0.0
 44
0.0
 50
0.0
 51
0.0
 71
     0
 72
  1000
 73
     1
 74
     3
 75
     0
 76
     0
 77
     0
 78
     0
281
     0
 65
     1
110
0.0
120
0.0
130
0.0
111
1.0
121
0.0
131
0.0
112
0.0
122
1.0
132
0.0
 79
     0
146
0.0
  0
ENDTAB
  0
TABLE
  2
LTYPE
  5
5
330
0
100
AcDbSymbolTable
 70
     3
  0
LTYPE
  5
14
330
5
100
AcDbSymbolTableRecord
100
AcDbLinetypeTableRecord
  2
ByBlock
 70
     0
  3

 72
    65
 73
     0
 40
0.0
  0
LTYPE
  5
15
330
5
100
AcDbSymbolTableRecord
100
AcDbLinetypeTableRecord
  2
ByLayer
 70
     0
  3

 72
    65
 73
     0
 40
0.0
  0
LTYPE
  5
16
330
5
100
AcDbSymbolTableRecord
100
AcDbLinetypeTableRecord
  2
Continuous
 70
     0
  3
Solid line
 72
    65
 73
     0
 40
0.0
  0
LTYPE
  5
2F
330
5
100
AcDbSymbolTableRecord
100
AcDbLinetypeTableRecord
  2
DASHDOT
 70
     0
  3
Dash dot __ . __ . __ . __ . __ . __ . __ . __
 72
    65
 73
     4
 40
25.4
 49
12.7
 74
     0
 49
-6.349999999999999
 74
     0
 49
0.0
 74
     0
 49
-6.349999999999999
 74
     0
  0
LTYPE
  5
30
330
5
100
AcDbSymbolTableRecord
100
AcDbLinetypeTableRecord
  2
HIDDEN
 70
     0
  3
Hidden __ __ __ __ __ __ __ __ __ __ __ __ __ _
 72
    65
 73
     2
 40
9.524999999999998
 49
6.349999999999999
 74
     0
 49
-3.174999999999999
 74
     0
  0
ENDTAB
  0
TABLE
  2
LAYER
  5
2
330
0
100
AcDbSymbolTable
 70
    10
  0
LAYER
  5
10
102
{ACAD_XDICTIONARY
360
413
102
}
330
2
100
AcDbSymbolTableRecord
100
AcDbLayerTableRecord
  2
0
 70
     0
 62
     7
  6
Continuous
370
    -3
390
F
  0
LAYER
  5
31
102
{ACAD_XDICTIONARY
360
415
102
}
330
2
100
AcDbSymbolTableRecord
100
AcDbLayerTableRecord
  2
2
 70
     0
 62
     2
  6
Continuous
370
    -3
390
F
  0
LAYER
  5
32
102
{ACAD_XDICTIONARY
360
417
102
}
330
2
100
AcDbSymbolTableRecord
100
AcDbLayerTableRecord
  2
4
 70
     0
 62
     4
  6
Continuous
370
    -3
390
F
  0
LAYER
  5
33
102
{ACAD_XDICTIONARY
360
419
102
}
330
2
100
AcDbSymbolTableRecord
100
AcDbLayerTableRecord
  2
cen
 70
     0
 62
     7
  6
DASHDOT
370
    -3
390
F
  0
LAYER
  5
34
102
{ACAD_XDICTIONARY
360
41B
102
}
330
2
100
AcDbSymbolTableRecord
100
AcDbLayerTableRecord
  2
hid
 70
     0
 62
     7
  6
HIDDEN
370
    -3
390
F
  0
LAYER
  5
35
102
{ACAD_XDICTIONARY
360
41D
102
}
330
2
100
AcDbSymbolTableRecord
100
AcDbLayerTableRecord
  2
hatch
 70
     0
 62
     9
  6
Continuous
370
    -3
390
F
  0
LAYER
  5
36
102
{ACAD_XDICTIONARY
360
41F
102
}
330
2
100
AcDbSymbolTableRecord
100
AcDbLayerTableRecord
  2
9
 70
     0
 62
     9
  6
Continuous
370
    -3
390
F
  0
LAYER
  5
37
102
{ACAD_XDICTIONARY
360
421
102
}
330
2
100
AcDbSymbolTableRecord
100
AcDbLayerTableRecord
  2
cotas
 70
     0
 62
     1
  6
Continuous
370
    -3
390
F
  0
LAYER
  5
38
102
{ACAD_XDICTIONARY
360
423
102
}
330
2
100
AcDbSymbolTableRecord
100
AcDbLayerTableRecord
  2
indusa
 70
     0
 62
     3
  6
Continuous
370
    -3
390
F
  0
LAYER
  5
39
102
{ACAD_XDICTIONARY
360
425
102
}
330
2
100
AcDbSymbolTableRecord
100
AcDbLayerTableRecord
  2
SANINDUSA
 70
     0
 62
     3
  6
Continuous
370
    -3
390
F
  0
ENDTAB
  0
TABLE
  2
STYLE
  5
3
330
0
100
AcDbSymbolTable
 70
     2
  0
STYLE
  5
11
330
3
100
AcDbSymbolTableRecord
100
AcDbTextStyleTableRecord
  2
Standard
 70
     0
 40
0.0
 41
1.0
 50
0.0
 71
     0
 42
2.5
  3
txt
  4

  0
STYLE
  5
3A
330
3
100
AcDbSymbolTableRecord
100
AcDbTextStyleTableRecord
  2
SANINDUSA
 70
     0
 40
0.0
 41
1.0
 50
0.0
 71
     0
 42
2.5
  3
verdana.TTF
  4

1001
ACAD
1000
Verdana
1071
       34
  0
ENDTAB
  0
TABLE
  2
VIEW
  5
6
330
0
100
AcDbSymbolTable
 70
     0
  0
ENDTAB
  0
TABLE
  2
UCS
  5
7
330
0
100
AcDbSymbolTable
 70
     0
  0
ENDTAB
  0
TABLE
  2
APPID
  5
9
330
0
100
AcDbSymbolTable
 70
     3
  0
APPID
  5
12
330
9
100
AcDbSymbolTableRecord
100
AcDbRegAppTableRecord
  2
ACAD
 70
     0
  0
APPID
  5
3C
330
9
100
AcDbSymbolTableRecord
100
AcDbRegAppTableRecord
  2
DCO15
 70
     0
  0
APPID
  5
460
330
9
100
AcDbSymbolTableRecord
100
AcDbRegAppTableRecord
  2
ACAD_MLEADERVER
 70
     0
  0
ENDTAB
  0
TABLE
  2
DIMSTYLE
  5
A
330
0
100
AcDbSymbolTable
 70
     2
100
AcDbDimStyleTable
 71
     1
340
2B
  0
DIMSTYLE
105
2B
330
A
100
AcDbSymbolTableRecord
100
AcDbDimStyleTableRecord
  2
ISO-25
 70
     0
 41
2.5
 42
0.625
 43
3.75
 44
1.25
 73
     0
 74
     0
 77
     1
 78
     8
140
2.5
141
2.5
143
0.03937007874016
147
0.625
171
     3
172
     1
271
     2
272
     2
274
     3
278
    44
283
     0
284
     8
340
11
  0
DIMSTYLE
105
3B
330
A
100
AcDbSymbolTableRecord
100
AcDbDimStyleTableRecord
  2
SANINDUSA
 70
     0
 41
10.0
 42
4.0
 43
4.0
 44
4.0
 73
     0
 74
     0
 77
     1
 78
     8
140
10.0
141
0.0
143
0.03937007874016
147
5.0
171
     3
172
     1
176
   256
177
   256
178
   256
179
     1
271
     0
272
     0
274
     3
278
    44
283
     0
284
     8
340
3A
371
    -1
372
    -1
  0
ENDTAB
  0
TABLE
  2
BLOCK_RECORD
  5
1
330
0
100
AcDbSymbolTable
 70
     1
  0
BLOCK_RECORD
  5
23
330
1
100
AcDbSymbolTableRecord
100
AcDbBlockTableRecord
  2
*Model_Space
340
26
  0
BLOCK_RECORD
  5
1F
330
1
100
AcDbSymbolTableRecord
100
AcDbBlockTableRecord
  2
*Paper_Space
340
22
  0
BLOCK_RECORD
  5
27
330
1
100
AcDbSymbolTableRecord
100
AcDbBlockTableRecord
  2
*Paper_Space0
340
2A
  0
ENDTAB
  0
ENDSEC
  0
SECTION
  2
BLOCKS
  0
BLOCK
  5
24
330
23
100
AcDbEntity
  8
0
100
AcDbBlockBegin
  2
*Model_Space
 70
     0
 10
0.0
 20
0.0
 30
0.0
  3
*Model_Space
  1

  0
ENDBLK
  5
25
330
23
100
AcDbEntity
  8
0
100
AcDbBlockEnd
  0
BLOCK
  5
20
330
1F
100
AcDbEntity
 67
     1
  8
0
100
AcDbBlockBegin
  2
*Paper_Space
 70
     0
 10
0.0
 20
0.0
 30
0.0
  3
*Paper_Space
  1

  0
ENDBLK
  5
21
330
1F
100
AcDbEntity
 67
     1
  8
0
100
AcDbBlockEnd
  0
BLOCK
  5
28
330
27
100
AcDbEntity
 67
     1
  8
0
100
AcDbBlockBegin
  2
*Paper_Space0
 70
     0
 10
0.0
 20
0.0
 30
0.0
  3
*Paper_Space0
  1

  0
ENDBLK
  5
29
330
27
100
AcDbEntity
 67
     1
  8
0
100
AcDbBlockEnd
  0
ENDSEC
  0
SECTION
  2
ENTITIES
  0
LINE
  5
1D9
330
23
100
AcDbEntity
  8
SANINDUSA
 48
0.5
100
AcDbLine
 10
678.4644940158358
 20
1040.661580626597
 30
0.0
 11
678.2284577535111
 21
1040.661580626597
 31
0.0
  0
LWPOLYLINE
  5
1DA
330
23
100
AcDbEntity
  8
SANINDUSA
100
AcDbPolyline
 90
       22
 70
   128
 43
0.0
 10
678.6665133982938
 20
1040.802981540456
 10
678.5206462624793
 20
1040.802660703918
 10
678.5096637030599
 20
1040.802608920553
 10
678.4997226039514
 20
1040.802561684555
 10
678.4915386095574
 20
1040.802524663906
 10
678.4842325517429
 20
1040.802492959951
 10
678.477793194665
 20
1040.802466261698
 10
678.4714600397973
 20
1040.802441128733
 10
678.46447635549
 20
1040.802414171225
 10
678.4568620777879
 20
1040.802385724326
 10
678.4474967169138
 20
1040.802352030742
 10
678.4374027690192
 20
1040.802317363392
 10
678.4266122476205
 20
1040.802282292216
 10
678.4151606500268
 20
1040.802247460816
 10
678.4030864201511
 20
1040.802213578152
 10
678.3904315267093
 20
1040.802181424712
 10
678.3772440023474
 20
1040.802151916278
 10
678.3635769578459
 20
1040.802126114606
 10
678.3495437417473
 20
1040.802105195788
 10
678.3353840938172
 20
1040.802090360579
 10
678.3212006374201
 20
1040.802082882915
 10
678.308532958681
 20
1040.802088700605
  0
LINE
  5
1DB
330
23
100
AcDbEntity
  8
SANINDUSA
100
AcDbLine
 10
678.6665133982938
 20
1040.797720727903
 30
0.0
 11
678.1957906637544
 21
1040.797720727903
 31
0.0
  0
LWPOLYLINE
  5
1DD
330
23
100
AcDbEntity
  8
SANINDUSA
100
AcDbPolyline
 90
        7
 70
   128
 43
0.0
 10
678.5195541804918
 20
1040.817731916245
 10
678.4644186692412
 20
1040.81779404046
 10
678.4106605334464
 20
1040.816306951166
 10
678.3563994928783
 20
1040.813854186479
 10
678.3021896548647
 20
1040.810452190758
 10
678.2577880693636
 20
1040.80695891573
 10
678.2134404953142
 20
1040.802836060386
  0
LWPOLYLINE
  5
1DF
330
23
100
AcDbEntity
  8
SANINDUSA
100
AcDbPolyline
 90
       15
 70
   128
 43
0.0
 10
678.2134428384791
 20
1040.802814727378
 10
678.2110175454432
 20
1040.802625039054
 10
678.2087713433393
 20
1040.802339467404
 10
678.2068334523594
 20
1040.802091524137
 10
678.2050687745695
 20
1040.801864654464
 10
678.2033423006931
 20
1040.80164198712
 10
678.2015190147551
 20
1040.801406380804
 10
678.1994639092767
 20
1040.801140409019
 10
678.1970465574505
 20
1040.800826866074
 10
678.1932482206557
 20
1040.800331862879
 10
678.1890096531693
 20
1040.799775204235
 10
678.1845766691311
 20
1040.799187686917
 10
678.1812721381665
 20
1040.798746048151
 10
678.178100027743
 20
1040.798319112625
 10
678.1758293490264
 20
1040.798011483268
  0
ARC
  5
1E0
330
23
100
AcDbEntity
  8
SANINDUSA
100
AcDbCircle
 10
678.5702519559325
 20
1040.867921440593
 30
0.0
 40
0.4068596922883926
100
AcDbArc
 50
190.9079911305943
 51
210.0676820717113
  0
LWPOLYLINE
  5
1E1
330
23
100
AcDbEntity
  8
SANINDUSA
100
AcDbPolyline
 90
       15
 70
   128
 43
0.0
 10
678.1747309175909
 20
1040.797755702538
 10
678.1752690825616
 20
1040.797754388877
 10
678.1762451147399
 20
1040.797750869583
 10
678.1791180057218
 20
1040.797743094459
 10
678.1831686768525
 20
1040.797736030099
 10
678.1883696056536
 20
1040.797729618409
 10
678.194693269646
 20
1040.797723801293
 10
678.2021121463515
 20
1040.797718520654
 10
678.2105987132912
 20
1040.797713718397
 10
678.2201777534732
 20
1040.797705144667
 10
678.2308262625339
 20
1040.797692035824
 10
678.2424885981806
 20
1040.797679540948
 10
678.2551091181211
 20
1040.797672809117
 10
678.2686321800627
 20
1040.79767698941
 10
678.283002141713
 20
1040.797697230906
  0
ARC
  5
1E2
330
23
100
AcDbEntity
  8
SANINDUSA
100
AcDbCircle
 10
678.1766348643961
 20
1040.792065800381
 30
0.0
 40
0.006
100
AcDbArc
 50
97.71540138417899
 51
190.9079911305943
  0
LWPOLYLINE
  5
1E3
330
23
100
AcDbEntity
  8
SANINDUSA
100
AcDbPolyline
 90
       20
 70
   128
 43
0.0
 10
678.3085206866493
 20
1040.802089550887
 10
678.2976850737152
 20
1040.802083045547
 10
678.2867686212128
 20
1040.802088686632
 10
678.2770378405793
 20
1040.802100057051
 10
678.2683980455405
 20
1040.802116154236
 10
678.2608010158634
 20
1040.802136104063
 10
678.2542040388104
 20
1040.802158793205
 10
678.248500775004
 20
1040.802183295026
 10
678.2428460791196
 20
1040.802213068903
 10
678.2381358040423
 20
1040.802243054497
 10
678.2342485994774
 20
1040.802272297023
 10
678.2310662520049
 20
1040.802300043158
 10
678.228187691485
 20
1040.802328611316
 10
678.2254616539793
 20
1040.802359493897
 10
678.2220851495408
 20
1040.80240501822
 10
678.2191171399522
 20
1040.802455523133
 10
678.2166341684018
 20
1040.802511035706
 10
678.2147120481594
 20
1040.802573271733
 10
678.2134210736483
 20
1040.802641221306
 10
678.2121733782168
 20
1040.802715439669
  0
LINE
  5
1E4
330
23
100
AcDbEntity
  8
SANINDUSA
 48
0.5
100
AcDbLine
 10
678.6665133982938
 20
1040.819357737127
 30
0.0
 11
678.5603247643573
 21
1040.819357737127
 31
0.0
  0
LINE
  5
1E5
330
23
100
AcDbEntity
  8
SANINDUSA
 48
0.5
100
AcDbLine
 10
678.6665133982938
 20
1040.661580626597
 30
0.0
 11
678.5307170314848
 21
1040.661580626597
 31
0.0
  0
LWPOLYLINE
  5
1E7
330
23
100
AcDbEntity
  8
SANINDUSA
100
AcDbPolyline
 90
        6
 70
   128
 43
0.0
 10
678.5429680894817
 20
1040.819017537148
 10
678.542156694767
 20
1040.81897493373
 10
678.5368319786875
 20
1040.818693129121
 10
678.5312940858874
 20
1040.818394315189
 10
678.5254968588226
 20
1040.818072908251
 10
678.5195541804918
 20
1040.817731916245
  0
LWPOLYLINE
  5
1ED
330
23
100
AcDbEntity
  8
SANINDUSA
100
AcDbPolyline
 90
        5
 70
   128
 43
0.0
 10
678.5603247643571
 20
1040.819357737127
 10
678.5639380376011
 20
1040.819306787461
 10
678.5672631383361
 20
1040.819233376182
 10
678.5703049271004
 20
1040.819136747569
 10
678.5730052460889
 20
1040.819017724389
  0
LWPOLYLINE
  5
1F0
330
23
100
AcDbEntity
  8
SANINDUSA
100
AcDbPolyline
 90
        5
 70
   128
 43
0.0
 10
678.5603247643571
 20
1040.819357737127
 10
678.5564213184835
 20
1040.819306787461
 10
678.5522303364082
 20
1040.819233376182
 10
678.547725660663
 20
1040.819136747569
 10
678.5429710959093
 20
1040.819017724389
  0
LWPOLYLINE
  5
1F6
330
23
100
AcDbEntity
  8
SANINDUSA
100
AcDbPolyline
 90
        6
 70
   128
 43
0.0
 10
678.5729990866816
 20
1040.819017537148
 10
678.5734080993517
 20
1040.81897493373
 10
678.5757824792959
 20
1040.818693129121
 10
678.5777253292414
 20
1040.818394315189
 10
678.5792352320791
 20
1040.818072908251
 10
678.5802654147419
 20
1040.817731916245
  0
LWPOLYLINE
  5
1F8
330
23
100
AcDbEntity
  8
SANINDUSA
100
AcDbPolyline
 90
        7
 70
   128
 43
0.0
 10
678.5802654147419
 20
1040.817731916245
 10
678.5835139370948
 20
1040.815892527119
 10
678.5855811775899
 20
1040.81378730992
 10
678.5864615453619
 20
1040.811390988675
 10
678.5861494495458
 20
1040.808678287411
 10
678.5845779224382
 20
1040.805525404022
 10
678.5823954089551
 20
1040.802796521916
  0
LINE
  5
1FA
330
23
100
AcDbEntity
  8
SANINDUSA
100
AcDbLine
 10
678.6665133982938
 20
1040.789954536108
 30
0.0
 11
678.6665133982938
 21
1040.661580626597
 31
0.0
  0
LINE
  5
1FC
330
23
100
AcDbEntity
  8
SANINDUSA
100
AcDbLine
 10
678.6665133982938
 20
1040.819378069077
 30
0.0
 11
678.6665133982938
 21
1040.789954536108
 31
0.0
  0
ARC
  5
1FD
330
23
100
AcDbEntity
  8
SANINDUSA
 48
0.5
100
AcDbCircle
 10
679.7139507966694
 20
1038.960605369926
 30
0.0
 40
1.860448497594364
100
AcDbArc
 50
81.81797674167942
 51
87.51240448592808
  0
LINE
  5
1FE
330
23
100
AcDbEntity
  8
SANINDUSA
100
AcDbLine
 10
679.8585459516353
 20
1040.639891201425
 30
0.0
 11
679.8115818197726
 21
1040.650511384244
 31
0.0
  0
LINE
  5
1FF
330
23
100
AcDbEntity
  8
SANINDUSA
 48
0.5
100
AcDbLine
 10
679.8467735493982
 20
1040.634043628392
 30
0.0
 11
679.804327123987
 21
1040.641685633822
 31
0.0
  0
LINE
  5
201
330
23
100
AcDbEntity
  8
SANINDUSA
 48
0.5
100
AcDbLine
 10
680.0601265805092
 20
1040.68390610522
 30
0.0
 11
679.8210540550923
 21
1040.68390610522
 31
0.0
  0
LINE
  5
202
330
23
100
AcDbEntity
  8
SANINDUSA
100
AcDbLine
 10
679.7910823288511
 20
1040.804863609261
 30
0.0
 11
679.7925970834834
 21
1040.79562780952
 31
0.0
  0
LINE
  5
203
330
23
100
AcDbEntity
  8
SANINDUSA
100
AcDbLine
 10
679.7996602168727
 20
1040.814349149445
 30
0.0
 11
679.802695273022
 21
1040.795843729359
 31
0.0
  0
LINE
  5
204
330
23
100
AcDbEntity
  8
SANINDUSA
 48
0.5
100
AcDbLine
 10
679.6429535797767
 20
1040.817378069077
 30
0.0
 11
679.6429535797767
 21
1040.663561719482
 31
0.0
  0
LINE
  5
205
330
23
100
AcDbEntity
  8
SANINDUSA
100
AcDbLine
 10
679.8074338592816
 20
1040.766951502976
 30
0.0
 11
679.8212132391578
 21
1040.682935524164
 31
0.0
  0
LINE
  5
206
330
23
100
AcDbEntity
  8
SANINDUSA
100
AcDbLine
 10
679.7973533455904
 20
1040.766627809521
 30
0.0
 11
679.811345080076
 21
1040.681317056884
 31
0.0
  0
ARC
  5
207
330
23
100
AcDbEntity
  8
SANINDUSA
100
AcDbCircle
 10
679.8887842381269
 20
1040.795321346415
 30
0.0
 40
0.0860905499852956
100
AcDbArc
 50
179.4242145773573
 51
199.2027924199618
  0
ARC
  5
208
330
23
100
AcDbEntity
  8
SANINDUSA
100
AcDbCircle
 10
679.8064470433735
 20
1040.766789656248
 30
0.0
 40
0.001
100
AcDbArc
 50
9.314103191879956
 51
90.0
  0
ARC
  5
209
330
23
100
AcDbEntity
  8
SANINDUSA
100
AcDbCircle
 10
679.8016907812665
 20
1040.795789656248
 30
0.0
 40
0.001
100
AcDbArc
 50
270.0
 51
9.314103191879956
  0
ARC
  5
20A
330
23
100
AcDbEntity
  8
SANINDUSA
100
AcDbCircle
 10
679.7935838993915
 20
1040.795789656248
 30
0.0
 40
0.001
100
AcDbArc
 50
189.3141031918799
 51
270.0
  0
ARC
  5
20B
330
23
100
AcDbEntity
  8
SANINDUSA
100
AcDbCircle
 10
679.7983401614986
 20
1040.766789656248
 30
0.0
 40
0.001
100
AcDbArc
 50
90.0
 51
189.3141031918799
  0
ARC
  5
20C
330
23
100
AcDbEntity
  8
SANINDUSA
100
AcDbCircle
 10
679.8786538467445
 20
1040.794944082383
 30
0.0
 40
0.0860905499852956
100
AcDbArc
 50
179.4242145773573
 51
199.2027924199618
  0
LINE
  5
20D
330
23
100
AcDbEntity
  8
SANINDUSA
100
AcDbLine
 10
679.7935838993915
 20
1040.794789656248
 30
0.0
 11
679.8016907812665
 21
1040.794789656248
 31
0.0
  0
LINE
  5
20E
330
23
100
AcDbEntity
  8
SANINDUSA
100
AcDbLine
 10
679.7983401614986
 20
1040.767789656248
 30
0.0
 11
679.8064470433735
 21
1040.767789656248
 31
0.0
  0
LINE
  5
210
330
23
100
AcDbEntity
  8
SANINDUSA
100
AcDbLine
 10
679.7094535797768
 20
1040.819378069077
 30
0.0
 11
679.7464535797768
 21
1040.819378069077
 31
0.0
  0
LINE
  5
211
330
23
100
AcDbEntity
  8
SANINDUSA
100
AcDbLine
 10
679.6620957154004
 20
1040.807378069077
 30
0.0
 11
679.6664668698694
 21
1040.807378069077
 31
0.0
  0
LINE
  5
212
330
23
100
AcDbEntity
  8
SANINDUSA
 48
0.5
100
AcDbLine
 10
679.6725765751086
 20
1040.819378069077
 30
0.0
 11
679.6449535797768
 21
1040.819378069077
 31
0.0
  0
LINE
  5
213
330
23
100
AcDbEntity
  8
SANINDUSA
 48
0.5
100
AcDbLine
 10
679.7094535797768
 20
1040.819378069077
 30
0.0
 11
679.6449535797768
 21
1040.819378069077
 31
0.0
  0
ARC
  5
214
330
23
100
AcDbEntity
  8
SANINDUSA
 48
0.5
100
AcDbCircle
 10
679.7094535797768
 20
1040.818378069077
 30
0.0
 40
0.001
100
AcDbArc
 50
0.0
 51
90.0
  0
ARC
  5
215
330
23
100
AcDbEntity
  8
SANINDUSA
 48
0.5
100
AcDbCircle
 10
679.7094535797768
 20
1040.808378069077
 30
0.0
 40
0.001
100
AcDbArc
 50
270.0
 51
0.0
  0
LINE
  5
216
330
23
100
AcDbEntity
  8
SANINDUSA
 48
0.5
100
AcDbLine
 10
679.7104535797767
 20
1040.818378069077
 30
0.0
 11
679.7104535797767
 21
1040.808378069077
 31
0.0
  0
LINE
  5
217
330
23
100
AcDbEntity
  8
SANINDUSA
 48
0.5
100
AcDbLine
 10
679.7391995704405
 20
1040.819378069077
 30
0.0
 11
679.7937393214237
 21
1040.819378069077
 31
0.0
  0
LINE
  5
218
330
23
100
AcDbEntity
  8
SANINDUSA
 48
0.5
100
AcDbLine
 10
679.7637465979552
 20
1040.807378069077
 30
0.0
 11
679.7464535797768
 21
1040.807378069077
 31
0.0
  0
ARC
  5
219
330
23
100
AcDbEntity
  8
SANINDUSA
 48
0.5
100
AcDbCircle
 10
679.7464535797768
 20
1040.808378069077
 30
0.0
 40
0.001
100
AcDbArc
 50
180.0
 51
270.0
  0
ARC
  5
21A
330
23
100
AcDbEntity
  8
SANINDUSA
 48
0.5
100
AcDbCircle
 10
679.7464535797768
 20
1040.818378069077
 30
0.0
 40
0.001
100
AcDbArc
 50
90.0
 51
180.0
  0
LINE
  5
21B
330
23
100
AcDbEntity
  8
SANINDUSA
 48
0.5
100
AcDbLine
 10
679.7454535797767
 20
1040.818378069077
 30
0.0
 11
679.7454535797767
 21
1040.808378069077
 31
0.0
  0
ARC
  5
21D
330
23
100
AcDbEntity
  8
SANINDUSA
100
AcDbCircle
 10
679.7937393214237
 20
1040.813378069077
 30
0.0
 40
0.006
100
AcDbArc
 50
9.314103191879956
 51
90.0
  0
ARC
  5
21E
330
23
100
AcDbEntity
  8
SANINDUSA
100
AcDbCircle
 10
679.7881218811267
 20
1040.804378069077
 30
0.0
 40
0.003
100
AcDbArc
 50
9.314103191879956
 51
90.0
  0
LINE
  5
21F
330
23
100
AcDbEntity
  8
SANINDUSA
 48
0.5
100
AcDbLine
 10
679.7881218811267
 20
1040.807378069077
 30
0.0
 11
679.7841309609265
 21
1040.807378069077
 31
0.0
  0
ARC
  5
220
330
23
100
AcDbEntity
  8
SANINDUSA
 48
0.5
100
AcDbCircle
 10
679.8822315215503
 20
1042.282515204831
 30
0.0
 40
1.608755004454528
100
AcDbArc
 50
271.3563374629618
 51
276.5950518819364
  0
LWPOLYLINE
  5
221
330
23
100
AcDbEntity
  8
SANINDUSA
100
AcDbPolyline
 90
       10
 70
   128
 43
0.0
 10
680.0444422001853
 20
1040.787452186676
 10
680.0391383075375
 20
1040.774454965777
 10
680.0342947216705
 20
1040.764061055477
 10
680.0290551326569
 20
1040.753984405712
 10
680.023397836315
 20
1040.7441695672
 10
680.0173876401936
 20
1040.734719541146
 10
680.010075823818
 20
1040.724340946716
 10
680.002356125915
 20
1040.71450356479
 10
679.994166799566
 20
1040.705139838033
 10
679.9799526205614
 20
1040.690582005381
  0
LWPOLYLINE
  5
223
330
23
100
AcDbEntity
  8
SANINDUSA
100
AcDbPolyline
 90
        6
 70
   128
 43
0.0
 10
680.0373294374641
 20
1040.792733877122
 10
680.0394691987893
 20
1040.792202574877
 10
680.0411133759768
 20
1040.791316062818
 10
680.0429716424794
 20
1040.789602775824
 10
680.0444346091083
 20
1040.787465728893
 10
680.0444422001853
 20
1040.787452186676
  0
LINE
  5
224
330
23
100
AcDbEntity
  8
SANINDUSA
 48
0.5
100
AcDbLine
 10
679.978726814988
 20
1040.802116236667
 30
0.0
 11
680.1456687278481
 21
1040.802116236667
 31
0.0
  0
LINE
  5
225
330
23
100
AcDbEntity
  8
SANINDUSA
 48
0.5
100
AcDbLine
 10
679.9183862590481
 20
1040.661580626597
 30
0.0
 11
680.133766694426
 21
1040.661580626597
 31
0.0
  0
ARC
  5
226
330
23
100
AcDbEntity
  8
SANINDUSA
 48
0.5
100
AcDbCircle
 10
679.8818253868752
 20
1042.291947201475
 30
0.0
 40
1.62819398209271
100
AcDbArc
 50
271.4596222693809
 51
276.4169791152198
  0
LWPOLYLINE
  5
227
330
23
100
AcDbEntity
  8
SANINDUSA
100
AcDbPolyline
 90
       10
 70
   128
 43
0.0
 10
679.9681641843668
 20
1040.696668032443
 10
679.985138888259
 20
1040.713941272231
 10
679.9929005295492
 20
1040.722736797649
 10
680.000392550946
 20
1040.732188715412
 10
680.0074946460227
 20
1040.742173950141
 10
680.0132108971164
 20
1040.751076068185
 10
680.0186015582284
 20
1040.760324568213
 10
680.0236859349102
 20
1040.769978816285
 10
680.0283994235974
 20
1040.779946665516
 10
680.0322030580454
 20
1040.78891071935
  0
ARC
  5
228
330
23
100
AcDbEntity
  8
SANINDUSA
 48
0.5
100
AcDbCircle
 10
679.8818253868752
 20
1042.291947201475
 30
0.0
 40
1.618193982092814
100
AcDbArc
 50
268.6371914286032
 51
271.3628085713968
  0
ARC
  5
22B
330
23
100
AcDbEntity
  8
SANINDUSA
 48
0.5
100
AcDbCircle
 10
679.8818253868752
 20
1042.291947201475
 30
0.0
 40
1.628193982092714
100
AcDbArc
 50
268.1918232018075
 51
268.5252915043809
  0
LINE
  5
230
330
23
100
AcDbEntity
  8
SANINDUSA
 48
0.5
100
AcDbLine
 10
679.8581301553602
 20
1040.654101067375
 30
0.0
 11
679.8472420186032
 21
1040.656099220719
 31
0.0
  0
ELLIPSE
  5
23C
330
23
100
AcDbEntity
  8
SANINDUSA
 48
0.5
100
AcDbEllipse
 10
679.9740946765913
 20
1040.693694101785
 30
0.0
 11
-0.0048559154988074
 21
-0.0091403598154421
 31
0.0
210
0.0
220
0.0
230
-1.0
 40
0.6408876771133438
 41
4.712388980384689
 42
7.853981633974482
  0
ARC
  5
23E
330
23
100
AcDbEntity
  8
SANINDUSA
 48
0.5
100
AcDbCircle
 10
679.7139507966702
 20
1038.960605369932
 30
0.0
 40
1.860448497589013
100
AcDbArc
 50
79.99014454117842
 51
81.81797674167942
  0
LWPOLYLINE
  5
23F
330
23
100
AcDbEntity
  8
SANINDUSA
100
AcDbPolyline
 90
        7
 70
   128
 43
0.0
 10
680.0312434465223
 20
1040.793797663864
 10
680.0313570219709
 20
1040.793659893892
 10
680.0317188202873
 20
1040.792955254778
 10
680.0319907796665
 20
1040.792101533354
 10
680.0321650114565
 20
1040.791123493284
 10
680.0322364617628
 20
1040.790049504314
 10
680.0322030580454
 20
1040.78891071935
  0
ARC
  5
240
330
23
100
AcDbEntity
  8
SANINDUSA
  6
Continuous
100
AcDbCircle
 10
679.6973821191754
 20
1040.989992383259
 30
0.0
 40
0.492418918852949
100
AcDbArc
 50
322.8473133312104
 51
335.8786219496712
  0
ARC
  5
241
330
23
100
AcDbEntity
  8
SANINDUSA
  6
Continuous
100
AcDbCircle
 10
679.6973821191754
 20
1040.989992383259
 30
0.0
 40
0.4824189188529301
100
AcDbArc
 50
321.2570549173701
 51
336.585562936607
  0
ARC
  5
242
330
23
100
AcDbEntity
  8
SANINDUSA
  6
Continuous
100
AcDbCircle
 10
679.6659173834276
 20
1040.912984449915
 30
0.0
 40
0.5278364668121332
100
AcDbArc
 50
334.0631323324156
 51
346.2004966135046
  0
ARC
  5
243
330
23
100
AcDbEntity
  8
SANINDUSA
  6
Continuous
100
AcDbCircle
 10
679.6659391618511
 20
1040.91307640793
 30
0.0
 40
0.5378364668121332
100
AcDbArc
 50
332.4321091978658
 51
346.7899341123539
  0
LINE
  5
244
330
23
100
AcDbEntity
  8
SANINDUSA
 48
0.5
100
AcDbLine
 10
680.0938393770122
 20
1040.684580626597
 30
0.0
 11
680.1321830137099
 21
1040.684580626597
 31
0.0
  0
LINE
  5
245
330
23
100
AcDbEntity
  8
SANINDUSA
 48
0.5
100
AcDbLine
 10
680.0749742601071
 20
1040.674580626597
 30
0.0
 11
680.1227478339066
 21
1040.674580626597
 31
0.0
  0
ARC
  5
246
330
23
100
AcDbEntity
  8
SANINDUSA
 48
0.5
100
AcDbCircle
 10
680.133766694426
 20
1040.666580626597
 30
0.0
 40
0.005
100
AcDbArc
 50
193.6465394510669
 51
270.0
  0
ARC
  5
247
330
23
100
AcDbEntity
  8
SANINDUSA
100
AcDbCircle
 10
680.1383862813986
 20
1040.6664908166
 30
0.0
 40
0.0049102515475043
100
AcDbArc
 50
269.7131339959958
 51
331.7414779463261
  0
LINE
  5
248
330
23
100
AcDbEntity
  8
SANINDUSA
 48
0.5
100
AcDbLine
 10
680.133766694426
 20
1040.661580626597
 30
0.0
 11
680.1383616970686
 21
1040.661580626597
 31
0.0
  0
ARC
  5
249
330
23
100
AcDbEntity
  8
SANINDUSA
 48
0.5
100
AcDbCircle
 10
680.1227478339066
 20
1040.669580626597
 30
0.0
 40
0.005
100
AcDbArc
 50
13.64653945106691
 51
90.0
  0
LINE
  5
24A
330
23
100
AcDbEntity
  8
SANINDUSA
 48
0.5
100
AcDbLine
 10
680.1289078460167
 20
1040.665400968961
 30
0.0
 11
680.1276066823159
 21
1040.670760284232
 31
0.0
  0
LINE
  5
24B
330
23
100
AcDbEntity
  8
SANINDUSA
 48
0.5
100
AcDbLine
 10
680.1351025206781
 20
1040.682271130509
 30
0.0
 11
680.1350983227554
 21
1040.682288421178
 31
0.0
  0
ARC
  5
24C
330
23
100
AcDbEntity
  8
SANINDUSA
 48
0.5
100
AcDbCircle
 10
680.1321830137099
 20
1040.681580626596
 30
0.0
 40
0.003
100
AcDbArc
 50
17.96455619099556
 51
90.0
  0
ARC
  5
24E
330
23
100
AcDbEntity
  8
SANINDUSA
 48
0.5
100
AcDbCircle
 10
680.1456687278481
 20
1040.796116236667
 30
0.0
 40
0.0059999999999993
100
AcDbArc
 50
83.56218295885099
 51
158.7673272663391
  0
ARC
  5
250
330
23
100
AcDbEntity
  8
SANINDUSA
100
AcDbCircle
 10
680.1775474254785
 20
1040.787320760513
 30
0.0
 40
0.001
100
AcDbArc
 50
346.2004966135046
 51
82.36364610210319
  0
ARC
  5
251
330
23
100
AcDbEntity
  8
SANINDUSA
100
AcDbCircle
 10
680.1837025818526
 20
1040.791540123884
 30
0.0
 40
0.006
100
AcDbArc
 50
346.7899341123539
 51
82.7362270162007
  0
ARC
  5
252
330
23
100
AcDbEntity
  8
SANINDUSA
100
AcDbCircle
 10
680.151367292732
 20
1040.786711683183
 30
0.0
 40
0.005
100
AcDbArc
 50
82.68911125427463
 51
155.8786219496711
  0
LWPOLYLINE
  5
253
330
23
100
AcDbEntity
  8
SANINDUSA
  6
Continuous
100
AcDbPolyline
 90
        4
 70
   128
 43
0.0
 10
680.1520035582836
 20
1040.791671034567
 10
680.1664318047061
 20
1040.789819946499
 42
-0.0014201105892027
 10
680.1664599655801
 20
1040.789816252239
 10
680.1776803107636
 20
1040.788311891938
  0
ARC
  5
254
330
23
100
AcDbEntity
  8
SANINDUSA
 48
0.5
100
AcDbCircle
 10
679.8394759113413
 20
1038.090883244493
 30
0.0
 40
2.728506121369347
100
AcDbArc
 50
82.7362270162007
 51
83.54248122121274
  0
ARC
  5
255
330
23
100
AcDbEntity
  8
SANINDUSA
 48
0.5
100
AcDbCircle
 10
680.1378904986838
 20
1040.683431198204
 30
0.0
 40
0.003
100
AcDbArc
 50
197.9645561909956
 51
334.0631323324156
  0
ARC
  5
256
330
23
100
AcDbEntity
  8
SANINDUSA
100
AcDbCircle
 10
680.0938393770122
 20
1040.689580626596
 30
0.0
 40
0.005
100
AcDbArc
 50
142.8473133312104
 51
270.0
  0
ARC
  5
257
330
23
100
AcDbEntity
  8
SANINDUSA
 48
0.5
100
AcDbCircle
 10
680.0658507104624
 20
1040.694339661092
 30
0.0
 40
0.01
100
AcDbArc
 50
276.5950518819364
 51
321.2570549173701
  0
ARC
  5
258
330
23
100
AcDbEntity
  8
SANINDUSA
 48
0.5
100
AcDbCircle
 10
680.0749742601072
 20
1040.574580626596
 30
0.0
 40
0.1
100
AcDbArc
 50
90.0
 51
96.41697911521985
  0
ARC
  5
259
330
23
100
AcDbEntity
  8
SANINDUSA
 48
0.5
100
AcDbCircle
 10
679.8310813982396
 20
1040.684553991443
 30
0.0
 40
0.01
100
AcDbArc
 50
189.3141031918799
 51
268.1918232018075
  0
ARC
  5
25A
330
23
100
AcDbEntity
  8
SANINDUSA
 48
0.5
100
AcDbCircle
 10
679.8310813982396
 20
1040.684553991443
 30
0.0
 40
0.02
100
AcDbArc
 50
189.3141031918799
 51
268.1918232018075
  0
LINE
  5
25B
330
23
100
AcDbEntity
  8
SANINDUSA
100
AcDbLine
 10
678.6665133982938
 20
1040.661580626597
 30
0.0
 11
678.2224688498083
 21
1040.661580626597
 31
0.0
  0
ARC
  5
25C
330
23
100
AcDbEntity
  8
SANINDUSA
100
AcDbCircle
 10
678.2224688498083
 20
1040.666580626597
 30
0.0
 40
0.005
100
AcDbArc
 50
210.0676820717113
 51
270.0
  0
ARC
  5
25D
330
23
100
AcDbEntity
  8
SANINDUSA
 48
0.5
100
AcDbCircle
 10
679.8818253868752
 20
1042.291947201475
 30
0.0
 40
1.618193982092714
100
AcDbArc
 50
268.1918232018075
 51
268.6371914286032
  0
LWPOLYLINE
  5
263
330
23
100
AcDbEntity
  8
SANINDUSA
100
AcDbPolyline
 90
       33
 70
   128
 43
0.0
 10
677.5723939197207
 20
1040.528868754212
 10
677.5762333520376
 20
1040.525127271171
 10
677.5839272200499
 20
1040.517849898316
 10
677.5909584562977
 20
1040.511528583585
 10
677.5986683358318
 20
1040.504995612648
 10
677.6067370286096
 20
1040.498527320002
 10
677.6154314624762
 20
1040.491951355329
 10
677.6243021992444
 20
1040.485638173622
 10
677.6333524815871
 20
1040.479585037971
 10
677.6425832367352
 20
1040.473791274025
 10
677.6519969671578
 20
1040.468255306547
 10
677.6616012645559
 20
1040.462976455918
 10
677.6712779597032
 20
1040.458019786335
 10
677.6811189274607
 20
1040.453331692277
 10
677.6911259274596
 20
1040.448912690041
 10
677.7012677763003
 20
1040.44477853728
 10
677.711505561905
 20
1040.440946061125
 10
677.7218042813159
 20
1040.437428179584
 10
677.7321370764539
 20
1040.434228696409
 10
677.7426718392899
 20
1040.431294949115
 10
677.7532798217383
 20
1040.428669832655
 10
677.7639408670692
 20
1040.426358583776
 10
677.7746595271419
 20
1040.424359600899
 10
677.7854389313601
 20
1040.422672156988
 10
677.796280786671
 20
1040.42129597809
 10
677.805810895079
 20
1040.420369769484
 10
677.8158104772327
 20
1040.419677939503
 10
677.8265876265944
 20
1040.419197349526
 10
677.8385270069141
 20
1040.418912331463
 10
677.8523194998689
 20
1040.418798682486
 10
677.8698556234226
 20
1040.418786797075
 10
677.905467413411
 20
1040.418723850756
 10
677.9584011155955
 20
1040.418628472438
  0
LINE
  5
264
330
23
100
AcDbEntity
  8
SANINDUSA
100
AcDbLine
 10
677.9584012841829
 20
1040.914874823406
 30
0.0
 11
677.9584012841829
 21
1040.418628472134
 31
0.0
  0
ARC
  5
267
330
23
100
AcDbEntity
  8
SANINDUSA
100
AcDbCircle
 10
677.8033246086626
 20
1040.759798147885
 30
0.0
 40
0.0626474438116066
100
AcDbArc
 50
7.047566487093089
 51
82.95243351290691
  0
LWPOLYLINE
  5
26B
330
23
100
AcDbEntity
  8
SANINDUSA
100
AcDbPolyline
 90
       31
 70
   128
 43
0.0
 10
677.4621546803342
 20
1040.914874654818
 10
677.4623109608485
 20
1040.827919974369
 10
677.4623427395722
 20
1040.804562148777
 10
677.4625371840578
 20
1040.789750713613
 10
677.4629207414527
 20
1040.777960448843
 10
677.4635124621324
 20
1040.767356955034
 10
677.4643148011509
 20
1040.75761455295
 10
677.4654809096187
 20
1040.747252423606
 10
677.4669045774778
 20
1040.737150087436
 10
677.4687210328917
 20
1040.726442922916
 10
677.4708450970794
 20
1040.715802076462
 10
677.4732775076107
 20
1040.705222511526
 10
677.4760183066327
 20
1040.694703680199
 10
677.479068927138
 20
1040.684241072767
 10
677.48243551203
 20
1040.673822140008
 10
677.4860893382313
 20
1040.663549404129
 10
677.4900398150257
 20
1040.653383110116
 10
677.4942980797182
 20
1040.643294587576
 10
677.4988522258239
 20
1040.633317237884
 10
677.5036861269049
 20
1040.623489019549
 10
677.5087827714396
 20
1040.613844392885
 10
677.5141213072746
 20
1040.604416095458
 10
677.519735915504
 20
1040.595131676835
 10
677.5256421114366
 20
1040.585973092897
 10
677.5318040807876
 20
1040.577000518806
 10
677.5382239677782
 20
1040.568210208761
 10
677.544902333488
 20
1040.559601264508
 10
677.5518411575021
 20
1040.551171369288
 10
677.558158128474
 20
1040.54393129804
 10
677.5649715432232
 20
1040.536556402974
 10
677.5723939197207
 20
1040.528868754212
  0
LWPOLYLINE
  5
26C
330
23
100
AcDbEntity
  8
SANINDUSA
100
AcDbPolyline
 90
        3
 70
   128
 43
0.0
 10
677.5078203481539
 20
1040.861376880287
 10
677.5102029095002
 20
1040.816147495569
 10
677.511047764152
 20
1040.80072147506
  0
LWPOLYLINE
  5
26E
330
23
100
AcDbEntity
  8
SANINDUSA
100
AcDbPolyline
 90
       11
 70
   128
 43
0.0
 10
677.811011030591
 20
1040.821972267373
 10
677.7822796815228
 20
1040.825219439942
 10
677.7534351310033
 20
1040.82732355891
 10
677.72455202087
 20
1040.8282784959
 10
677.6957049929603
 20
1040.828078122538
 10
677.6660975743058
 20
1040.82666102145
 10
677.6365876881727
 20
1040.824022046727
 10
677.6072603441451
 20
1040.820172551556
 10
677.578200551807
 20
1040.815123889125
 10
677.5495772545656
 20
1040.808916304788
 10
677.5212508499437
 20
1040.801533636904
  0
ARC
  5
271
330
23
100
AcDbEntity
  8
SANINDUSA
100
AcDbCircle
 10
677.7044641920323
 20
1040.080486599587
 30
0.0
 40
0.7231913016223615
100
AcDbArc
 50
83.03442929265099
 51
100.0900608144186
  0
LWPOLYLINE
  5
272
330
23
100
AcDbEntity
  8
SANINDUSA
100
AcDbPolyline
 90
       29
 70
   128
 43
0.0
 10
677.8444035485107
 20
1040.467498012028
 10
677.834541524318
 20
1040.467623608027
 10
677.8237873356858
 20
1040.467969233425
 10
677.8143895605857
 20
1040.46848996868
 10
677.8060122933569
 20
1040.469176570283
 10
677.7970478337209
 20
1040.470181827147
 10
677.7882936095381
 20
1040.471412007731
 10
677.7789534447565
 20
1040.472992781177
 10
677.7696941020457
 20
1040.474837297663
 10
677.7604856840774
 20
1040.476950653524
 10
677.7513246910448
 20
1040.479333812063
 10
677.7422071541776
 20
1040.481988361882
 10
677.7331301264015
 20
1040.484917412576
 10
677.7241877092619
 20
1040.488094113936
 10
677.7153278635059
 20
1040.491532920426
 10
677.7065282774278
 20
1040.495243068203
 10
677.6978261694016
 20
1040.499211004517
 10
677.6892610822979
 20
1040.503419472939
 10
677.6808647179271
 20
1040.50785226459
 10
677.6726571127109
 20
1040.512495359587
 10
677.6645688404485
 20
1040.517382280975
 10
677.6565917336158
 20
1040.522522131582
 10
677.6487807354409
 20
1040.527881869799
 10
677.6411275609931
 20
1040.53346665866
 10
677.6336289351908
 20
1040.539278983433
 10
677.6262792121492
 20
1040.545323855876
 10
677.6200848707576
 20
1040.550724144372
 10
677.6136087370103
 20
1040.556702512976
 10
677.6068580568542
 20
1040.563215133035
  0
LWPOLYLINE
  5
275
330
23
100
AcDbEntity
  8
SANINDUSA
100
AcDbPolyline
 90
       29
 70
   128
 43
0.0
 10
677.5110476791901
 20
1040.800723026361
 10
677.5111771471629
 20
1040.790861052239
 10
677.5115269947949
 20
1040.780107000133
 10
677.5120514197217
 20
1040.770709430206
 10
677.5127413103157
 20
1040.762332433194
 10
677.5137500866877
 20
1040.753368368928
 10
677.5149837042208
 20
1040.744614628408
 10
677.5165681446381
 20
1040.735275084982
 10
677.5184162963435
 20
1040.726016467171
 10
677.5205332674093
 20
1040.716808879649
 10
677.5229200225115
 20
1040.707648822987
 10
677.5255781518119
 20
1040.69853232904
 10
677.5285107660616
 20
1040.689456451954
 10
677.5316909781086
 20
1040.680515282725
 10
677.5351332628456
 20
1040.671656787781
 10
677.5388468651908
 20
1040.662858659042
 10
677.5428182177813
 20
1040.65415810956
 10
677.5470300486648
 20
1040.645594675426
 10
677.5514661365159
 20
1040.637200052085
 10
677.5561124535885
 20
1040.628994270453
 10
677.5610025501801
 20
1040.620907917495
 10
677.5661455323268
 20
1040.612932829262
 10
677.5715083368494
 20
1040.605123936005
 10
677.5770961300349
 20
1040.597472954821
 10
677.5829113984362
 20
1040.589976611606
 10
677.5889591560285
 20
1040.582629262441
 10
677.5943618761028
 20
1040.576437041764
 10
677.6003427868758
 20
1040.569963255715
 10
677.6068580568542
 20
1040.563215133035
  0
LWPOLYLINE
  5
27A
330
23
100
AcDbEntity
  8
SANINDUSA
100
AcDbPolyline
 90
        6
 70
   128
 43
0.0
 10
677.5136500233269
 20
1040.791835432142
 10
677.513834924253
 20
1040.794665322281
 10
677.5152094333919
 20
1040.797634166212
 10
677.5164025841378
 20
1040.798975974448
 10
677.5178279673057
 20
1040.800076691894
 10
677.5212508499437
 20
1040.801533636904
  0
ARC
  5
27D
330
23
100
AcDbEntity
  8
SANINDUSA
100
AcDbCircle
 10
677.1183826989418
 20
1040.660883968354
 30
0.0
 40
0.7288315298139107
100
AcDbArc
 50
349.9929872322501
 51
6.954109867608154
  0
LWPOLYLINE
  5
27F
330
23
100
AcDbEntity
  8
SANINDUSA
100
AcDbPolyline
 90
       11
 70
   128
 43
0.0
 10
677.8450600976811
 20
1040.477724389166
 10
677.8524299848062
 20
1040.505997244227
 10
677.858650349902
 20
1040.53467409103
 10
677.8635738017612
 20
1040.562914017153
 10
677.867364758798
 20
1040.591407487138
 10
677.8700125478188
 20
1040.620076446415
 10
677.8715064956299
 20
1040.648842840412
 10
677.8718328403664
 20
1040.678519101302
 10
677.8709360362208
 20
1040.708239071557
 10
677.8688225199099
 20
1040.73792135859
 10
677.8654987281502
 20
1040.767484569814
  0
LWPOLYLINE
  5
281
330
23
100
AcDbEntity
  8
SANINDUSA
100
AcDbPolyline
 90
        3
 70
   128
 43
0.0
 10
677.9050586645142
 20
1040.464294511906
 10
677.8598283539358
 20
1040.466659294671
 10
677.8454253152149
 20
1040.467441968845
  0
LWPOLYLINE
  5
283
330
23
100
AcDbEntity
  8
SANINDUSA
100
AcDbPolyline
 90
        6
 70
   128
 43
0.0
 10
677.8353618929187
 20
1040.47012356255
 10
677.8381917830584
 20
1040.470308463476
 10
677.8411606269894
 20
1040.471682972615
 10
677.8425024352249
 20
1040.472876123361
 10
677.8436031526711
 20
1040.474301506528
 10
677.8450600976811
 20
1040.477724389166
  0
LWPOLYLINE
  5
287
330
23
100
AcDbEntity
  8
SANINDUSA
100
AcDbPolyline
 90
        4
 70
   128
 43
0.0
 10
677.9584012841829
 20
1040.462300723839
 10
677.9349824510282
 20
1040.462895581384
 10
677.9199428960461
 20
1040.463594629013
 10
677.904903341064
 20
1040.464293676643
  0
CIRCLE
  5
28A
330
23
100
AcDbEntity
  8
SANINDUSA
 48
0.5
100
AcDbCircle
 10
677.7893934095494
 20
1040.745866948772
 30
0.0
 40
0.036
  0
LWPOLYLINE
  5
28C
330
23
100
AcDbEntity
  8
SANINDUSA
100
AcDbPolyline
 90
       13
 70
   128
 43
0.0
 10
677.7921676955242
 20
1040.798340173944
 10
677.7988264448719
 20
1040.797105507462
 10
677.8049164103037
 20
1040.795262351396
 10
677.8107362168186
 20
1040.792769471024
 10
677.8162519364529
 20
1040.789627535472
 10
677.8214079476781
 20
1040.785874230206
 10
677.826092720318
 20
1040.781589932049
 10
677.8302270524904
 20
1040.776847207764
 10
677.8338309293137
 20
1040.771650730383
 10
677.8368320567567
 20
1040.76610286931
 10
677.8390645763009
 20
1040.760624652755
 10
677.8407284191438
 20
1040.75490764849
 10
677.8418614638397
 20
1040.748669410266
  0
CIRCLE
  5
290
330
23
100
AcDbEntity
  8
SANINDUSA
 48
0.5
100
AcDbCircle
 10
677.7893934095494
 20
1040.745866948772
 30
0.0
 40
0.0225
  0
LINE
  5
296
330
23
100
AcDbEntity
  8
SANINDUSA
100
AcDbLine
 10
677.9584012841829
 20
1040.914874823406
 30
0.0
 11
677.4621546800313
 21
1040.914874823406
 31
0.0
  0
CIRCLE
  5
29B
330
23
100
AcDbEntity
  8
SANINDUSA
 48
0.5
100
AcDbCircle
 10
677.898297207782
 20
1040.854770747005
 30
0.0
 40
0.0175
  0
LINE
  5
2A9
330
23
100
AcDbEntity
  8
SANINDUSA
  6
Continuous
100
AcDbLine
 10
678.5615067618373
 20
1040.630685046601
 30
0.0
 11
678.5315067618372
 21
1040.630685046601
 31
0.0
  0
LINE
  5
2AF
330
23
100
AcDbEntity
  8
SANINDUSA
  6
Continuous
100
AcDbLine
 10
678.5872764251848
 20
1040.658696316414
 30
0.0
 11
678.5873636532823
 21
1040.661580626597
 31
0.0
  0
LWPOLYLINE
  5
2B3
330
23
100
AcDbEntity
  8
SANINDUSA
  6
Continuous
100
AcDbPolyline
 90
       15
 70
   128
 43
0.0
 10
678.5615067618373
 20
1040.630685046601
 10
678.5644670535482
 20
1040.630887207029
 10
678.5673860725806
 20
1040.631490869775
 10
678.5702231216832
 20
1040.632487618511
 10
678.5729386464382
 20
1040.633863556469
 10
678.5756261591769
 20
1040.635714772043
 10
678.5798627177775
 20
1040.639302857496
 10
678.5816508249889
 20
1040.641565599206
 10
678.5832204846695
 20
1040.644028802804
 10
678.5845538804838
 20
1040.646665789916
 10
678.5856358160497
 20
1040.649447717726
 10
678.5864539391337
 20
1040.652344033796
 10
678.5869988593603
 20
1040.655322928138
 10
678.58725741831
 20
1040.65819510291
 10
678.5872764251848
 20
1040.658696316414
  0
ARC
  5
2B9
330
23
100
AcDbEntity
  8
SANINDUSA
100
AcDbCircle
 10
679.7432020513004
 20
1040.653868684446
 30
0.0
 40
0.0627358468212831
100
AcDbArc
 50
87.88316932247971
 51
169.1994807325169
  0
ARC
  5
2BA
330
23
100
AcDbEntity
  8
SANINDUSA
100
AcDbCircle
 10
679.7287163063274
 20
1040.282185214186
 30
0.0
 40
0.4347013806601779
100
AcDbArc
 50
82.36890569793553
 51
87.78472543104571
  0
ARC
  5
2BC
330
23
100
AcDbEntity
  8
SANINDUSA
100
AcDbCircle
 10
679.6766661075842
 20
1040.666561719482
 30
0.0
 40
0.005
100
AcDbArc
 50
270.0
 51
349.199480732517
  0
LINE
  5
2BD
330
23
100
AcDbEntity
  8
SANINDUSA
 48
0.5
100
AcDbLine
 10
679.6429535797767
 20
1040.74456112696
 30
0.0
 11
679.6429535797767
 21
1040.666012092097
 31
0.0
  0
LINE
  5
2BE
330
23
100
AcDbEntity
  8
SANINDUSA
100
AcDbLine
 10
679.6429535797767
 20
1040.74456112696
 30
0.0
 11
679.6429535797767
 21
1040.817378069077
 31
0.0
  0
LINE
  5
2BF
330
23
100
AcDbEntity
  8
SANINDUSA
100
AcDbLine
 10
679.686419224252
 20
1040.819378069077
 30
0.0
 11
679.6449535797768
 21
1040.819378069077
 31
0.0
  0
LINE
  5
2C0
330
23
100
AcDbEntity
  8
SANINDUSA
100
AcDbLine
 10
679.6649033779917
 20
1040.661561719482
 30
0.0
 11
679.6449535797768
 21
1040.661561719482
 31
0.0
  0
LINE
  5
2C1
330
23
100
AcDbEntity
  8
SANINDUSA
  6
Continuous
100
AcDbLine
 10
679.6429535797767
 20
1040.817378069077
 30
0.0
 11
679.6429535797767
 21
1040.663578069077
 31
0.0
  0
LINE
  5
2C3
330
23
100
AcDbEntity
  8
SANINDUSA
  6
Continuous
100
AcDbLine
 10
679.6429535797767
 20
1040.817378069077
 30
0.0
 11
679.6429535797767
 21
1040.663578069077
 31
0.0
  0
LINE
  5
2C4
330
23
100
AcDbEntity
  8
SANINDUSA
  6
Continuous
100
AcDbLine
 10
679.6856534445464
 20
1040.80258385148
 30
0.0
 11
679.6777186563655
 21
1040.666372286674
 31
0.0
  0
LINE
  5
2C5
330
23
100
AcDbEntity
  8
SANINDUSA
  6
Continuous
100
AcDbLine
 10
679.6570957154004
 20
1040.802378069077
 30
0.0
 11
679.6570957154004
 21
1040.671578069077
 31
0.0
  0
LINE
  5
2C6
330
23
100
AcDbEntity
  8
SANINDUSA
  6
Continuous
100
AcDbLine
 10
679.6770701232318
 20
1040.661578069077
 30
0.0
 11
679.6457820069015
 21
1040.661578069077
 31
0.0
  0
LINE
  5
2C7
330
23
100
AcDbEntity
  8
SANINDUSA
  6
Continuous
100
AcDbLine
 10
679.6638558002582
 20
1040.671578069077
 30
0.0
 11
679.6570957154004
 21
1040.671578069077
 31
0.0
  0
LWPOLYLINE
  5
2C8
330
23
100
AcDbEntity
  8
SANINDUSA
  6
Continuous
100
AcDbPolyline
 90
        9
 70
   128
 43
0.0
 10
679.6706535797767
 20
1040.661578069077
 10
679.671997369936
 20
1040.661669187942
 10
679.6732921822421
 20
1040.661939223475
 10
679.6744908239641
 20
1040.662378333547
 10
679.675549607553
 20
1040.662970513671
 10
679.6764299429455
 20
1040.663694180336
 10
679.6770997440773
 20
1040.664522957668
 10
679.6775345983409
 20
1040.665426638766
 10
679.6777186563655
 20
1040.666372286674
  0
LWPOLYLINE
  5
2C9
330
23
100
AcDbEntity
  8
SANINDUSA
  6
Continuous
100
AcDbPolyline
 90
        9
 70
   128
 43
0.0
 10
679.6856534445464
 20
1040.80258385148
 10
679.6858375025712
 20
1040.803529499388
 10
679.6862723568347
 20
1040.804433180487
 10
679.6869421579664
 20
1040.805261957818
 10
679.687822493359
 20
1040.805985624483
 10
679.688881276948
 20
1040.806577804607
 10
679.6900799186699
 20
1040.807016914679
 10
679.6913747309759
 20
1040.807286950213
 10
679.6927185211352
 20
1040.807378069077
  0
ARC
  5
2CB
330
23
100
AcDbEntity
  8
SANINDUSA
100
AcDbCircle
 10
679.6620957154004
 20
1040.802378069077
 30
0.0
 40
0.005
100
AcDbArc
 50
90.0
 51
180.0
  0
LINE
  5
2CC
330
23
100
AcDbEntity
  8
SANINDUSA
100
AcDbLine
 10
679.7464535797768
 20
1040.807378069077
 30
0.0
 11
679.7494763185231
 21
1040.807378069077
 31
0.0
  0
LINE
  5
2CD
330
23
100
AcDbEntity
  8
SANINDUSA
100
AcDbLine
 10
679.7094018788937
 20
1040.807378069077
 30
0.0
 11
679.7464535797768
 21
1040.807378069077
 31
0.0
  0
ARC
  5
2F4
330
23
100
AcDbEntity
  8
SANINDUSA
100
AcDbCircle
 10
679.6449535797768
 20
1040.817378069077
 30
0.0
 40
0.002
100
AcDbArc
 50
90.0
 51
180.0
  0
ARC
  5
2F5
330
23
100
AcDbEntity
  8
SANINDUSA
100
AcDbCircle
 10
679.6449535797768
 20
1040.663561719482
 30
0.0
 40
0.002
100
AcDbArc
 50
180.0
 51
270.0
  0
LINE
  5
2FA
330
23
100
AcDbEntity
  8
SANINDUSA
100
AcDbLine
 10
679.7995651116329
 20
1040.646419920878
 30
0.0
 11
679.7686523190779
 21
1040.803344454231
 31
0.0
  0
ARC
  5
2FB
330
23
100
AcDbEntity
  8
SANINDUSA
100
AcDbCircle
 10
679.7637465979552
 20
1040.802378069077
 30
0.0
 40
0.005
100
AcDbArc
 50
11.14409007480849
 51
90.0
  0
ARC
  5
2FC
330
23
100
AcDbEntity
  8
SANINDUSA
 48
0.5
100
AcDbCircle
 10
679.8054519769801
 20
1040.647579583063
 30
0.0
 40
0.006
100
AcDbArc
 50
191.1440900748084
 51
259.7938704569977
  0
LINE
  5
2FD
330
23
100
AcDbEntity
  8
SANINDUSA
100
AcDbLine
 10
679.8080739361531
 20
1040.654965250641
 30
0.0
 11
679.7792252398038
 21
1040.801411683923
 31
0.0
  0
ARC
  5
2FE
330
23
100
AcDbEntity
  8
SANINDUSA
100
AcDbCircle
 10
679.7841309609265
 20
1040.802378069077
 30
0.0
 40
0.005
100
AcDbArc
 50
90.0
 51
191.1440900748084
  0
LINE
  5
300
330
23
100
AcDbEntity
  8
SANINDUSA
100
AcDbLine
 10
677.5777640120029
 20
1040.792492725349
 30
0.0
 11
677.5136426489438
 21
1040.791850486353
 31
0.0
  0
LWPOLYLINE
  5
304
330
23
100
AcDbEntity
  8
SANINDUSA
100
AcDbPolyline
 90
       29
 70
   128
 43
0.0
 10
677.584449395972
 20
1040.793650050325
 10
677.5844640471653
 20
1040.792534023817
 10
677.5847631035577
 20
1040.783341256077
 10
677.5851861324966
 20
1040.775760678132
 10
677.5857065945813
 20
1040.769440966909
 10
677.5864783152313
 20
1040.762583397983
 10
677.587425579767
 20
1040.755861616129
 10
677.5886604380961
 20
1040.748582697424
 10
677.5900928664086
 20
1040.741406713846
 10
677.591734557908
 20
1040.734266314806
 10
677.5935878672655
 20
1040.727153553757
 10
677.5956546214526
 20
1040.720065278541
 10
677.5979333626109
 20
1040.713013012918
 10
677.600399969816
 20
1040.706078144388
 10
677.6030765504257
 20
1040.699190139005
 10
677.6059694980577
 20
1040.692336274931
 10
677.6090627428673
 20
1040.685559508347
 10
677.6123372869305
 20
1040.678901752331
 10
677.6157780995277
 20
1040.672390536433
 10
677.6193814353976
 20
1040.666026746181
 10
677.6231798944027
 20
1040.659745545056
 10
677.6271729255862
 20
1040.653553655779
 10
677.631331610921
 20
1040.647498105976
 10
677.6356656701071
 20
1040.641563776594
 10
677.6401804908494
 20
1040.635743813781
 10
677.6448856591062
 20
1040.63002756052
 10
677.648910857286
 20
1040.625414159296
 10
677.6536374160457
 20
1040.620298093982
 10
677.6601280414872
 20
1040.613575496623
  0
LWPOLYLINE
  5
307
330
23
100
AcDbEntity
  8
SANINDUSA
100
AcDbPolyline
 90
       29
 70
   128
 43
0.0
 10
677.837175287788
 20
1040.540922649981
 10
677.8360592613676
 20
1040.540937307836
 10
677.8268664954123
 20
1040.5412364191
 10
677.8192859199922
 20
1040.541659493287
 10
677.8129662118759
 20
1040.542179993094
 10
677.8061086475571
 20
1040.542951754677
 10
677.7993868713574
 20
1040.543899059335
 10
677.7921079600233
 20
1040.545133961112
 10
677.7849319849957
 20
1040.546566432258
 10
677.7777915957553
 20
1040.548208166379
 10
677.7706788457682
 20
1040.550061518192
 10
677.7635905828899
 20
1040.55212831469
 10
677.7565383308681
 20
1040.554407097943
 10
677.7496034770617
 20
1040.556873746542
 10
677.742715487655
 20
1040.559550368266
 10
677.735861640849
 20
1040.562443356809
 10
677.7290848927293
 20
1040.565536642069
 10
677.7224271562593
 20
1040.568811225873
 10
677.7159159608994
 20
1040.572252077335
 10
677.7095521921552
 20
1040.575855451191
 10
677.7032710137038
 20
1040.579653947688
 10
677.6970791482612
 20
1040.583647015831
 10
677.6910236232819
 20
1040.587805737311
 10
677.6850893197703
 20
1040.59213983192
 10
677.6792693839066
 20
1040.596654687401
 10
677.6735531587306
 20
1040.601359889778
 10
677.6689397815337
 20
1040.605385115496
 10
677.6638237444323
 20
1040.610111704793
 10
677.6601280414872
 20
1040.613575496623
  0
LINE
  5
30B
330
23
100
AcDbEntity
  8
SANINDUSA
100
AcDbLine
 10
677.8360191861264
 20
1040.534237551226
 30
0.0
 11
677.8353769471306
 21
1040.470116188167
 31
0.0
  0
LINE
  5
30C
330
23
100
AcDbEntity
  8
SANINDUSA
100
AcDbLine
 10
679.9052467025339
 20
1040.625609302465
 30
0.0
 11
679.9052467025339
 21
1040.661277764175
 31
0.0
  0
LINE
  5
30D
330
23
100
AcDbEntity
  8
SANINDUSA
100
AcDbLine
 10
679.9153434142884
 20
1040.625591850059
 30
0.0
 11
679.9164685629429
 21
1040.657811891911
 31
0.0
  0
ARC
  5
30E
330
23
100
AcDbEntity
  8
SANINDUSA
100
AcDbCircle
 10
679.9062467025339
 20
1040.625609302465
 30
0.0
 40
0.001
100
AcDbArc
 50
180.0
 51
270.0
  0
LINE
  5
30F
330
23
100
AcDbEntity
  8
SANINDUSA
 48
0.5
100
AcDbLine
 10
679.9062467025339
 20
1040.624609302465
 30
0.0
 11
679.9143434824652
 21
1040.624609302465
 31
0.0
  0
ARC
  5
310
330
23
100
AcDbEntity
  8
SANINDUSA
100
AcDbCircle
 10
679.9143434824652
 20
1040.625609302465
 30
0.0
 40
0.001
100
AcDbArc
 50
269.9999819438129
 51
359.0000000031918
  0
LINE
  5
311
330
23
100
AcDbEntity
  8
SANINDUSA
 48
0.5
100
AcDbLine
 10
679.9070327644856
 20
1040.66510798639
 30
0.0
 11
679.9146096469258
 21
1040.671682560825
 31
0.0
  0
ARC
  5
312
330
23
100
AcDbEntity
  8
SANINDUSA
100
AcDbCircle
 10
679.9102467025339
 20
1040.661277764175
 30
0.0
 40
0.005
100
AcDbArc
 50
130.0000000018092
 51
180.0
  0
LINE
  5
313
330
23
100
AcDbEntity
  8
SANINDUSA
100
AcDbLine
 10
679.9202579063415
 20
1040.66315112515
 30
0.0
 11
679.9182515790296
 21
1040.661467616643
 31
0.0
  0
ARC
  5
314
330
23
100
AcDbEntity
  8
SANINDUSA
100
AcDbCircle
 10
679.921465517078
 20
1040.657637394427
 30
0.0
 40
0.005
100
AcDbArc
 50
130.0000000018092
 51
177.9999999962464
  0
ARC
  5
315
330
23
100
AcDbEntity
  8
SANINDUSA
 48
0.5
100
AcDbCircle
 10
679.9212806408172
 20
1040.664231258569
 30
0.0
 40
0.01
100
AcDbArc
 50
91.38227636242426
 51
130.9486660671021
  0
ARC
  5
316
330
23
100
AcDbEntity
  8
SANINDUSA
 48
0.5
100
AcDbCircle
 10
679.923426853607
 20
1040.659283151185
 30
0.0
 40
0.005
100
AcDbArc
 50
91.45962226938094
 51
130.0000000018092
  0
LINE
  5
317
330
23
100
AcDbEntity
  8
SANINDUSA
100
AcDbLine
 10
679.9102950924996
 20
1040.624609302465
 30
0.0
 11
679.8493072912849
 21
1040.624609302465
 31
0.0
  0
LINE
  5
318
330
23
100
AcDbEntity
  8
SANINDUSA
 48
0.5
100
AcDbLine
 10
679.8566180092645
 20
1040.66510798639
 30
0.0
 11
679.8490411268243
 21
1040.671682560825
 31
0.0
  0
LINE
  5
319
330
23
100
AcDbEntity
  8
SANINDUSA
 48
0.5
100
AcDbLine
 10
679.8574040712162
 20
1040.624609302465
 30
0.0
 11
679.8493072912849
 21
1040.624609302465
 31
0.0
  0
ARC
  5
31A
330
23
100
AcDbEntity
  8
SANINDUSA
100
AcDbCircle
 10
679.8534040712162
 20
1040.661277764175
 30
0.0
 40
0.005
100
AcDbArc
 50
0.0
 51
49.99999999819078
  0
ARC
  5
31B
330
23
100
AcDbEntity
  8
SANINDUSA
100
AcDbCircle
 10
679.8574040712162
 20
1040.625609302465
 30
0.0
 40
0.001
100
AcDbArc
 50
270.0
 51
0.0
  0
LINE
  5
31C
330
23
100
AcDbEntity
  8
SANINDUSA
100
AcDbLine
 10
679.8584040712162
 20
1040.625609302465
 30
0.0
 11
679.8584040712162
 21
1040.639923285399
 31
0.0
  0
ARC
  5
31D
330
23
100
AcDbEntity
  8
SANINDUSA
 48
0.5
100
AcDbCircle
 10
679.8402239201432
 20
1040.659283151185
 30
0.0
 40
0.005
100
AcDbArc
 50
49.99999999819078
 51
88.54037773061907
  0
LINE
  5
31E
330
23
100
AcDbEntity
  8
SANINDUSA
100
AcDbLine
 10
679.8433928674087
 20
1040.66315112515
 30
0.0
 11
679.8453991947205
 21
1040.661467616643
 31
0.0
  0
LINE
  5
31F
330
23
100
AcDbEntity
  8
SANINDUSA
100
AcDbLine
 10
679.8483073594617
 20
1040.625591850059
 30
0.0
 11
679.8481045255353
 21
1040.63140025375
 31
0.0
  0
ARC
  5
320
330
23
100
AcDbEntity
  8
SANINDUSA
100
AcDbCircle
 10
679.8493072912849
 20
1040.625609302465
 30
0.0
 40
0.001
100
AcDbArc
 50
180.9999999968082
 51
270.000018056187
  0
ARC
  5
321
330
23
100
AcDbEntity
  8
SANINDUSA
100
AcDbCircle
 10
679.8421852566721
 20
1040.657637394427
 30
0.0
 40
0.005
100
AcDbArc
 50
2.000000003753602
 51
49.99999999819078
  0
ARC
  5
322
330
23
100
AcDbEntity
  8
SANINDUSA
100
AcDbCircle
 10
679.8451063530543
 20
1040.63129555526
 30
0.0
 40
0.003
100
AcDbArc
 50
2.000000003753602
 51
79.79387045699773
  0
ARC
  5
323
330
23
100
AcDbEntity
  8
SANINDUSA
 48
0.5
100
AcDbCircle
 10
679.8423700365945
 20
1040.664231342163
 30
0.0
 40
0.01
100
AcDbArc
 50
49.05133393289787
 51
88.61143919196585
  0
LINE
  5
324
330
23
100
AcDbEntity
  8
SANINDUSA
100
AcDbLine
 10
679.8472420186032
 20
1040.656099220719
 30
0.0
 11
679.8471822108072
 21
1040.657811891911
 31
0.0
  0
LINE
  5
326
330
23
100
AcDbEntity
  8
SANINDUSA
100
AcDbLine
 10
679.8584040712162
 20
1040.65406155431
 30
0.0
 11
679.8584040712162
 21
1040.661277764175
 31
0.0
  0
ARC
  5
327
330
23
100
AcDbEntity
  8
SANINDUSA
100
AcDbCircle
 10
679.8139608015003
 20
1040.656124912826
 30
0.0
 40
0.006
100
AcDbArc
 50
191.1440900748084
 51
257.2577937611836
  0
LINE
  5
328
330
23
100
AcDbEntity
  8
SANINDUSA
100
AcDbLine
 10
678.4976055236604
 20
1040.624609302465
 30
0.0
 11
678.4650883314323
 21
1040.624609302465
 31
0.0
  0
LINE
  5
329
330
23
100
AcDbEntity
  8
SANINDUSA
100
AcDbLine
 10
678.4640881983269
 20
1040.625595659041
 30
0.0
 11
678.4629630496723
 21
1040.657815700892
 31
0.0
  0
ARC
  5
32A
330
23
100
AcDbEntity
  8
SANINDUSA
100
AcDbCircle
 10
678.4579660955373
 20
1040.657641203409
 30
0.0
 40
0.005
100
AcDbArc
 50
2.000000003753602
 51
49.99999999819078
  0
LINE
  5
32B
330
23
100
AcDbEntity
  8
SANINDUSA
100
AcDbLine
 10
678.4610498929348
 20
1040.661580626597
 30
0.0
 11
678.4611800335857
 21
1040.661471425625
 31
0.0
  0
ARC
  5
32C
330
23
100
AcDbEntity
  8
SANINDUSA
100
AcDbCircle
 10
678.4650883314323
 20
1040.625609302465
 30
0.0
 40
0.001
100
AcDbArc
 50
182.0000000037536
 51
270.0
  0
LINE
  5
32D
330
23
100
AcDbEntity
  8
SANINDUSA
100
AcDbLine
 10
678.4976055236604
 20
1040.624609302465
 30
0.0
 11
678.5301227158884
 21
1040.624609302465
 31
0.0
  0
ARC
  5
32E
330
23
100
AcDbEntity
  8
SANINDUSA
100
AcDbCircle
 10
678.5301227158884
 20
1040.625609302465
 30
0.0
 40
0.001
100
AcDbArc
 50
270.0
 51
357.9999999962464
  0
LINE
  5
32F
330
23
100
AcDbEntity
  8
SANINDUSA
100
AcDbLine
 10
678.5311228489938
 20
1040.625595659041
 30
0.0
 11
678.5313019829548
 21
1040.63072538452
 31
0.0
  0
LINE
  5
350
330
23
100
AcDbEntity
  8
SANINDUSA
100
AcDbLine
 10
679.6927185211352
 20
1040.807378069077
 30
0.0
 11
679.7094018788937
 21
1040.807378069077
 31
0.0
  0
LINE
  5
353
330
23
100
AcDbEntity
  8
SANINDUSA
  6
Continuous
100
AcDbLine
 10
679.6714584077506
 20
1040.802087294973
 30
0.0
 11
679.6638558002582
 21
1040.671578069077
 31
0.0
  0
ARC
  5
354
330
23
100
AcDbEntity
  8
SANINDUSA
100
AcDbCircle
 10
679.6664668698694
 20
1040.802378069077
 30
0.0
 40
0.005
100
AcDbArc
 50
356.6660931997609
 51
90.0
  0
LINE
  5
370
330
23
100
AcDbEntity
  8
SANINDUSA
 48
0.5
100
AcDbLine
 10
679.1029880173915
 20
1040.661580626597
 30
0.0
 11
679.3390242797162
 21
1040.661580626597
 31
0.0
  0
LWPOLYLINE
  5
371
330
23
100
AcDbEntity
  8
SANINDUSA
100
AcDbPolyline
 90
       22
 70
   128
 43
0.0
 10
678.9009686349335
 20
1040.802981540456
 10
679.0468357707481
 20
1040.802660703918
 10
679.0578183301675
 20
1040.802608920553
 10
679.0677594292759
 20
1040.802561684555
 10
679.0759434236699
 20
1040.802524663906
 10
679.0832494814845
 20
1040.802492959951
 10
679.0896888385623
 20
1040.802466261698
 10
679.0960219934301
 20
1040.802441128733
 10
679.1030056777374
 20
1040.802414171225
 10
679.1106199554394
 20
1040.802385724326
 10
679.1199853163135
 20
1040.802352030742
 10
679.1300792642082
 20
1040.802317363392
 10
679.1408697856068
 20
1040.802282292216
 10
679.1523213832006
 20
1040.802247460816
 10
679.1643956130762
 20
1040.802213578152
 10
679.177050506518
 20
1040.802181424712
 10
679.1902380308799
 20
1040.802151916278
 10
679.2039050753815
 20
1040.802126114606
 10
679.2179382914801
 20
1040.802105195788
 10
679.2320979394101
 20
1040.802090360579
 10
679.2462813958072
 20
1040.802082882915
 10
679.2589490745464
 20
1040.802088700605
  0
LINE
  5
372
330
23
100
AcDbEntity
  8
SANINDUSA
100
AcDbLine
 10
678.9009686349335
 20
1040.797720727903
 30
0.0
 11
679.3928526101076
 21
1040.797720727903
 31
0.0
  0
LWPOLYLINE
  5
374
330
23
100
AcDbEntity
  8
SANINDUSA
100
AcDbPolyline
 90
        7
 70
   128
 43
0.0
 10
679.0479278527356
 20
1040.817731916245
 10
679.1030633639861
 20
1040.81779404046
 10
679.1568214997809
 20
1040.816306951166
 10
679.211082540349
 20
1040.813854186479
 10
679.2652923783626
 20
1040.810452190758
 10
679.3096939638637
 20
1040.80695891573
 10
679.3540415379132
 20
1040.802836060386
  0
LWPOLYLINE
  5
376
330
23
100
AcDbEntity
  8
SANINDUSA
100
AcDbPolyline
 90
       15
 70
   128
 43
0.0
 10
679.3540391947482
 20
1040.802814727378
 10
679.3564644877841
 20
1040.802625039054
 10
679.3587106898881
 20
1040.802339467404
 10
679.3606485808679
 20
1040.802091524137
 10
679.3624132586578
 20
1040.801864654464
 10
679.3641397325343
 20
1040.80164198712
 10
679.3659630184722
 20
1040.801406380804
 10
679.3680181239507
 20
1040.801140409019
 10
679.3704354757768
 20
1040.800826866074
 10
679.3742338125716
 20
1040.800331862879
 10
679.378472380058
 20
1040.799775204235
 10
679.3829053640963
 20
1040.799187686917
 10
679.3862098950609
 20
1040.798746048151
 10
679.3893820054844
 20
1040.798319112625
 10
679.3916526842009
 20
1040.798011483268
  0
ARC
  5
377
330
23
100
AcDbEntity
  8
SANINDUSA
100
AcDbCircle
 10
678.9972300772948
 20
1040.867921440593
 30
0.0
 40
0.4068596922883926
100
AcDbArc
 50
329.9323179282887
 51
349.0920088694057
  0
ARC
  5
379
330
23
100
AcDbEntity
  8
SANINDUSA
100
AcDbCircle
 10
679.3908471688312
 20
1040.792065800381
 30
0.0
 40
0.006
100
AcDbArc
 50
349.0920088694057
 51
82.284598615821
  0
LWPOLYLINE
  5
37A
330
23
100
AcDbEntity
  8
SANINDUSA
100
AcDbPolyline
 90
       20
 70
   128
 43
0.0
 10
679.258961346578
 20
1040.802089550887
 10
679.2697969595121
 20
1040.802083045547
 10
679.2807134120145
 20
1040.802088686632
 10
679.2904441926481
 20
1040.802100057051
 10
679.2990839876869
 20
1040.802116154236
 10
679.3066810173639
 20
1040.802136104063
 10
679.3132779944169
 20
1040.802158793205
 10
679.3189812582234
 20
1040.802183295026
 10
679.3246359541077
 20
1040.802213068903
 10
679.329346229185
 20
1040.802243054497
 10
679.33323343375
 20
1040.802272297023
 10
679.3364157812225
 20
1040.802300043158
 10
679.3392943417424
 20
1040.802328611316
 10
679.342020379248
 20
1040.802359493897
 10
679.3453968836866
 20
1040.80240501822
 10
679.3483648932752
 20
1040.802455523133
 10
679.3508478648255
 20
1040.802511035706
 10
679.3527699850679
 20
1040.802573271733
 10
679.354060959579
 20
1040.802641221306
 10
679.3553086550105
 20
1040.802715439669
  0
LINE
  5
37B
330
23
100
AcDbEntity
  8
SANINDUSA
 48
0.5
100
AcDbLine
 10
678.9009686349335
 20
1040.819357737127
 30
0.0
 11
679.0071572688701
 21
1040.819357737127
 31
0.0
  0
LINE
  5
37C
330
23
100
AcDbEntity
  8
SANINDUSA
 48
0.5
100
AcDbLine
 10
678.9009686349335
 20
1040.661580626597
 30
0.0
 11
679.0367650017425
 21
1040.661580626597
 31
0.0
  0
LWPOLYLINE
  5
37E
330
23
100
AcDbEntity
  8
SANINDUSA
100
AcDbPolyline
 90
        6
 70
   128
 43
0.0
 10
679.0245139437456
 20
1040.819017537148
 10
679.0253253384603
 20
1040.81897493373
 10
679.0306500545399
 20
1040.818693129121
 10
679.0361879473399
 20
1040.818394315189
 10
679.0419851744047
 20
1040.818072908251
 10
679.0479278527356
 20
1040.817731916245
  0
LWPOLYLINE
  5
384
330
23
100
AcDbEntity
  8
SANINDUSA
100
AcDbPolyline
 90
        5
 70
   128
 43
0.0
 10
679.0071572688702
 20
1040.819357737127
 10
679.0035439956263
 20
1040.819306787461
 10
679.0002188948912
 20
1040.819233376182
 10
678.9971771061269
 20
1040.819136747569
 10
678.9944767871384
 20
1040.819017724389
  0
LWPOLYLINE
  5
387
330
23
100
AcDbEntity
  8
SANINDUSA
100
AcDbPolyline
 90
        5
 70
   128
 43
0.0
 10
679.0071572688702
 20
1040.819357737127
 10
679.0110607147438
 20
1040.819306787461
 10
679.0152516968191
 20
1040.819233376182
 10
679.0197563725643
 20
1040.819136747569
 10
679.0245109373181
 20
1040.819017724389
  0
LWPOLYLINE
  5
38D
330
23
100
AcDbEntity
  8
SANINDUSA
100
AcDbPolyline
 90
        6
 70
   128
 43
0.0
 10
678.9944829465457
 20
1040.819017537148
 10
678.9940739338756
 20
1040.81897493373
 10
678.9916995539314
 20
1040.818693129121
 10
678.9897567039859
 20
1040.818394315189
 10
678.9882468011483
 20
1040.818072908251
 10
678.9872166184855
 20
1040.817731916245
  0
LWPOLYLINE
  5
38F
330
23
100
AcDbEntity
  8
SANINDUSA
100
AcDbPolyline
 90
        7
 70
   128
 43
0.0
 10
678.9872166184855
 20
1040.817731916245
 10
678.9839680961326
 20
1040.815892527119
 10
678.9819008556374
 20
1040.81378730992
 10
678.9810204878654
 20
1040.811390988675
 10
678.9813325836815
 20
1040.808678287411
 10
678.9829041107891
 20
1040.805525404022
 10
678.9850866242723
 20
1040.802796521916
  0
LINE
  5
391
330
23
100
AcDbEntity
  8
SANINDUSA
100
AcDbLine
 10
678.9009686349335
 20
1040.789954536108
 30
0.0
 11
678.9009686349335
 21
1040.661580626597
 31
0.0
  0
LINE
  5
393
330
23
100
AcDbEntity
  8
SANINDUSA
100
AcDbLine
 10
678.9009686349335
 20
1040.819378069077
 30
0.0
 11
678.9009686349335
 21
1040.789954536108
 31
0.0
  0
LINE
  5
394
330
23
100
AcDbEntity
  8
SANINDUSA
100
AcDbLine
 10
678.9009686349335
 20
1040.661580626597
 30
0.0
 11
679.345013183419
 21
1040.661580626597
 31
0.0
  0
ARC
  5
395
330
23
100
AcDbEntity
  8
SANINDUSA
100
AcDbCircle
 10
679.345013183419
 20
1040.666580626597
 30
0.0
 40
0.005
100
AcDbArc
 50
270.0
 51
329.9323179282887
  0
LINE
  5
3A0
330
23
100
AcDbEntity
  8
SANINDUSA
  6
Continuous
100
AcDbLine
 10
679.0059752713901
 20
1040.630685046601
 30
0.0
 11
679.0359752713901
 21
1040.630685046601
 31
0.0
  0
LINE
  5
3A6
330
23
100
AcDbEntity
  8
SANINDUSA
  6
Continuous
100
AcDbLine
 10
678.9802056080425
 20
1040.658696316414
 30
0.0
 11
678.980118379945
 21
1040.661580626597
 31
0.0
  0
LWPOLYLINE
  5
3AA
330
23
100
AcDbEntity
  8
SANINDUSA
  6
Continuous
100
AcDbPolyline
 90
       15
 70
   128
 43
0.0
 10
679.0059752713901
 20
1040.630685046601
 10
679.0030149796791
 20
1040.630887207029
 10
679.0000959606468
 20
1040.631490869775
 10
678.9972589115441
 20
1040.632487618511
 10
678.9945433867892
 20
1040.633863556469
 10
678.9918558740504
 20
1040.635714772043
 10
678.9876193154499
 20
1040.639302857496
 10
678.9858312082384
 20
1040.641565599206
 10
678.9842615485579
 20
1040.644028802804
 10
678.9829281527436
 20
1040.646665789916
 10
678.9818462171776
 20
1040.649447717726
 10
678.9810280940937
 20
1040.652344033796
 10
678.980483173867
 20
1040.655322928138
 10
678.9802246149173
 20
1040.65819510291
 10
678.9802056080425
 20
1040.658696316414
  0
LINE
  5
3B0
330
23
100
AcDbEntity
  8
SANINDUSA
100
AcDbLine
 10
679.069876509567
 20
1040.624609302465
 30
0.0
 11
679.1023937017951
 21
1040.624609302465
 31
0.0
  0
LINE
  5
3B1
330
23
100
AcDbEntity
  8
SANINDUSA
100
AcDbLine
 10
679.1033938349005
 20
1040.625595659041
 30
0.0
 11
679.104518983555
 21
1040.657815700892
 31
0.0
  0
ARC
  5
3B2
330
23
100
AcDbEntity
  8
SANINDUSA
100
AcDbCircle
 10
679.1095159376901
 20
1040.657641203409
 30
0.0
 40
0.005
100
AcDbArc
 50
130.0000000018092
 51
177.9999999962464
  0
LINE
  5
3B3
330
23
100
AcDbEntity
  8
SANINDUSA
100
AcDbLine
 10
679.1064321402926
 20
1040.661580626597
 30
0.0
 11
679.1063019996417
 21
1040.661471425625
 31
0.0
  0
ARC
  5
3B4
330
23
100
AcDbEntity
  8
SANINDUSA
100
AcDbCircle
 10
679.1023937017951
 20
1040.625609302465
 30
0.0
 40
0.001
100
AcDbArc
 50
270.0
 51
357.9999999962464
  0
LINE
  5
3B5
330
23
100
AcDbEntity
  8
SANINDUSA
100
AcDbLine
 10
679.069876509567
 20
1040.624609302465
 30
0.0
 11
679.037359317339
 21
1040.624609302465
 31
0.0
  0
ARC
  5
3B6
330
23
100
AcDbEntity
  8
SANINDUSA
100
AcDbCircle
 10
679.037359317339
 20
1040.625609302465
 30
0.0
 40
0.001
100
AcDbArc
 50
182.0000000037536
 51
270.0
  0
LINE
  5
3B7
330
23
100
AcDbEntity
  8
SANINDUSA
100
AcDbLine
 10
679.0363591842336
 20
1040.625595659041
 30
0.0
 11
679.0361800502725
 21
1040.63072538452
 31
0.0
  0
ENDSEC
  0
SECTION
  2
OBJECTS
  0
DICTIONARY
  5
C
330
0
100
AcDbDictionary
281
     1
  3
ACAD_COLOR
350
1C
  3
ACAD_GROUP
350
D
  3
ACAD_LAYOUT
350
1A
  3
ACAD_MATERIAL
350
1B
  3
ACAD_MLEADERSTYLE
350
40E
  3
ACAD_MLINESTYLE
350
17
  3
ACAD_PLOTSETTINGS
350
19
  3
ACAD_PLOTSTYLENAME
350
E
  3
ACAD_SCALELIST
350
3FC
  3
ACAD_TABLESTYLE
350
1D
  3
ACAD_VISUALSTYLE
350
3E8
  3
ACDB_RECOMPOSE_DATA
350
42E
  3
AcDbVariableDictionary
350
3C2
  3
ASE_INDEX_DICTIONARY
350
3BF
  3
DWGPROPS
350
42F
  0
DICTIONARY
  5
413
330
10
100
AcDbDictionary
280
     1
281
     1
  3
ADSK_XREC_LAYER_RECONCILED
360
414
  0
DICTIONARY
  5
415
330
31
100
AcDbDictionary
280
     1
281
     1
  3
ADSK_XREC_LAYER_RECONCILED
360
416
  0
DICTIONARY
  5
417
330
32
100
AcDbDictionary
280
     1
281
     1
  3
ADSK_XREC_LAYER_RECONCILED
360
418
  0
DICTIONARY
  5
419
330
33
100
AcDbDictionary
280
     1
281
     1
  3
ADSK_XREC_LAYER_RECONCILED
360
41A
  0
DICTIONARY
  5
41B
330
34
100
AcDbDictionary
280
     1
281
     1
  3
ADSK_XREC_LAYER_RECONCILED
360
41C
  0
DICTIONARY
  5
41D
330
35
100
AcDbDictionary
280
     1
281
     1
  3
ADSK_XREC_LAYER_RECONCILED
360
41E
  0
DICTIONARY
  5
41F
330
36
100
AcDbDictionary
280
     1
281
     1
  3
ADSK_XREC_LAYER_RECONCILED
360
420
  0
DICTIONARY
  5
421
330
37
100
AcDbDictionary
280
     1
281
     1
  3
ADSK_XREC_LAYER_RECONCILED
360
422
  0
DICTIONARY
  5
423
330
38
100
AcDbDictionary
280
     1
281
     1
  3
ADSK_XREC_LAYER_RECONCILED
360
424
  0
DICTIONARY
  5
425
330
39
100
AcDbDictionary
280
     1
281
     1
  3
ADSK_XREC_LAYER_RECONCILED
360
426
  0
DICTIONARY
  5
1C
102
{ACAD_REACTORS
330
C
102
}
330
C
100
AcDbDictionary
281
     1
  0
DICTIONARY
  5
D
102
{ACAD_REACTORS
330
C
102
}
330
C
100
AcDbDictionary
281
     1
  0
DICTIONARY
  5
1A
102
{ACAD_REACTORS
330
C
102
}
330
C
100
AcDbDictionary
281
     1
  3
Layout1
350
22
  3
Layout2
350
2A
  3
Model
350
26
  0
DICTIONARY
  5
1B
102
{ACAD_REACTORS
330
C
102
}
330
C
100
AcDbDictionary
281
     1
  3
ByBlock
350
3D8
  3
ByLayer
350
3D0
  3
Global
350
3E0
  0
DICTIONARY
  5
40E
102
{ACAD_REACTORS
330
C
102
}
330
C
100
AcDbDictionary
281
     1
  3
Standard
350
40F
  0
DICTIONARY
  5
17
102
{ACAD_REACTORS
330
C
102
}
330
C
100
AcDbDictionary
281
     1
  3
Standard
350
18
  0
DICTIONARY
  5
19
102
{ACAD_REACTORS
330
C
102
}
330
C
100
AcDbDictionary
281
     1
  0
ACDBDICTIONARYWDFLT
  5
E
102
{ACAD_REACTORS
330
C
102
}
330
C
100
AcDbDictionary
281
     1
  3
Normal
350
F
100
AcDbDictionaryWithDefault
340
F
  0
DICTIONARY
  5
3FC
102
{ACAD_REACTORS
330
C
102
}
330
C
100
AcDbDictionary
281
     1
  3
A0
350
3FD
  3
A1
350
3FE
  3
A2
350
3FF
  3
A3
350
400
  3
A4
350
401
  3
A5
350
402
  3
A6
350
403
  3
A7
350
404
  3
A8
350
405
  3
A9
350
406
  3
B0
350
407
  3
B1
350
408
  3
B2
350
409
  3
B3
350
40A
  3
B4
350
40B
  3
B5
350
40C
  3
B6
350
40D
  0
DICTIONARY
  5
1D
102
{ACAD_REACTORS
330
C
102
}
330
C
100
AcDbDictionary
281
     1
  3
Standard
350
1E
  0
DICTIONARY
  5
3E8
102
{ACAD_REACTORS
330
C
102
}
330
C
100
AcDbDictionary
281
     1
  3
2dWireframe
350
3EE
  3
3D Hidden
350
3F0
  3
3dWireframe
350
3EF
  3
Basic
350
3ED
  3
Brighten
350
3F4
  3
ColorChange
350
3F8
  3
Conceptual
350
3F1
  3
Dim
350
3F3
  3
EdgeColorOff
350
3FB
  3
Facepattern
350
3F7
  3
Flat
350
3E9
  3
FlatWithEdges
350
3EA
  3
Gouraud
350
3EB
  3
GouraudWithEdges
350
3EC
  3
JitterOff
350
3F9
  3
Linepattern
350
3F6
  3
OverhangOff
350
3FA
  3
Realistic
350
3F2
  3
Thicken
350
3F5
  0
XRECORD
  5
42E
102
{ACAD_REACTORS
330
C
102
}
330
C
100
AcDbXrecord
280
     1
 90
        1
330
1E
  0
DICTIONARY
  5
3C2
102
{ACAD_REACTORS
330
C
102
}
330
C
100
AcDbDictionary
281
     1
  3
CANNOSCALE
350
428
  3
CMLEADERSTYLE
350
427
  3
CTABLESTYLE
350
3C3
  3
DIMASSOC
350
3CD
  3
HIDETEXT
350
3CC
  3
INDEXCTL
350
42A
  3
PROJECTNAME
350
3CE
  3
SORTENTS
350
429
  3
XCLIPFRAME
350
42B
  0
DICTIONARY
  5
3BF
102
{ACAD_REACTORS
330
C
102
}
330
C
100
AcDbDictionary
281
     1
  3
ASEBlockHierarchyIndexRecord
350
3C0
1001
DCO15
1040
1554701775.765
  0
XRECORD
  5
42F
102
{ACAD_REACTORS
330
C
102
}
330
C
100
AcDbXrecord
280
     1
  1
DWGPROPS COOKIE
  2

  3

  4

  6

  7

  8
Julio
  9

300
=
301
=
302
=
303
=
304
=
305
=
306
=
307
=
308
=
309
=
 40
0.0031014930555556
 41
2453797.484086366
 42
2456147.430573091
  1

 90
        0
  0
XRECORD
  5
414
102
{ACAD_REACTORS
330
413
102
}
330
413
100
AcDbXrecord
280
     1
290
     1
  0
XRECORD
  5
416
102
{ACAD_REACTORS
330
415
102
}
330
415
100
AcDbXrecord
280
     1
290
     1
  0
XRECORD
  5
418
102
{ACAD_REACTORS
330
417
102
}
330
417
100
AcDbXrecord
280
     1
290
     1
  0
XRECORD
  5
41A
102
{ACAD_REACTORS
330
419
102
}
330
419
100
AcDbXrecord
280
     1
290
     1
  0
XRECORD
  5
41C
102
{ACAD_REACTORS
330
41B
102
}
330
41B
100
AcDbXrecord
280
     1
290
     1
  0
XRECORD
  5
41E
102
{ACAD_REACTORS
330
41D
102
}
330
41D
100
AcDbXrecord
280
     1
290
     1
  0
XRECORD
  5
420
102
{ACAD_REACTORS
330
41F
102
}
330
41F
100
AcDbXrecord
280
     1
290
     1
  0
XRECORD
  5
422
102
{ACAD_REACTORS
330
421
102
}
330
421
100
AcDbXrecord
280
     1
290
     1
  0
XRECORD
  5
424
102
{ACAD_REACTORS
330
423
102
}
330
423
100
AcDbXrecord
280
     1
290
     1
  0
XRECORD
  5
426
102
{ACAD_REACTORS
330
425
102
}
330
425
100
AcDbXrecord
280
     1
290
     1
  0
LAYOUT
  5
22
102
{ACAD_XDICTIONARY
360
431
102
}
102
{ACAD_REACTORS
330
1A
102
}
330
1A
100
AcDbPlotSettings
  1

  2
HP DesignJet 500PS42+HPGL2 Card
  4

  6

 40
0.0
 41
0.0
 42
0.0
 43
0.0
 44
0.0
 45
0.0
 46
0.0
 47
0.0
 48
0.0
 49
0.0
140
0.0
141
0.0
142
1.0
143
1.0
 70
   688
 72
     0
 73
     0
 74
     5
  7
C:\Documents and Settings\Julio\Application Data\Autodesk\AutoCAD 2006\R16.2\enu\Plot Styles\sanindusa.ctb
 75
    16
147
1.0
148
0.0
149
0.0
100
AcDbLayout
  1
Layout1
 70
     1
 71
     1
 10
0.0
 20
0.0
 11
420.0
 21
297.0
 12
0.0
 22
0.0
 32
0.0
 14
1.000000000000000E+20
 24
1.000000000000000E+20
 34
1.000000000000000E+20
 15
-1.000000000000000E+20
 25
-1.000000000000000E+20
 35
-1.000000000000000E+20
146
0.0
 13
0.0
 23
0.0
 33
0.0
 16
1.0
 26
0.0
 36
0.0
 17
0.0
 27
1.0
 37
0.0
 76
     0
330
1F
  0
LAYOUT
  5
2A
102
{ACAD_XDICTIONARY
360
435
102
}
102
{ACAD_REACTORS
330
1A
102
}
330
1A
100
AcDbPlotSettings
  1

  2
HP DesignJet 500PS42+HPGL2 Card
  4

  6

 40
0.0
 41
0.0
 42
0.0
 43
0.0
 44
0.0
 45
0.0
 46
0.0
 47
0.0
 48
0.0
 49
0.0
140
0.0
141
0.0
142
1.0
143
1.0
 70
   688
 72
     0
 73
     0
 74
     5
  7
C:\Documents and Settings\Julio\Application Data\Autodesk\AutoCAD 2006\R16.2\enu\Plot Styles\sanindusa.ctb
 75
    16
147
1.0
148
0.0
149
0.0
100
AcDbLayout
  1
Layout2
 70
     1
 71
     2
 10
0.0
 20
0.0
 11
12.0
 21
9.0
 12
0.0
 22
0.0
 32
0.0
 14
0.0
 24
0.0
 34
0.0
 15
0.0
 25
0.0
 35
0.0
146
0.0
 13
0.0
 23
0.0
 33
0.0
 16
1.0
 26
0.0
 36
0.0
 17
0.0
 27
1.0
 37
0.0
 76
     0
330
27
  0
LAYOUT
  5
26
102
{ACAD_XDICTIONARY
360
433
102
}
102
{ACAD_REACTORS
330
1A
102
}
330
1A
100
AcDbPlotSettings
  1

  2
HP DesignJet 500PS42+HPGL2 Card
  4

  6

 40
0.0
 41
0.0
 42
0.0
 43
0.0
 44
0.0
 45
0.0
 46
0.0
 47
0.0
 48
0.0
 49
0.0
140
0.0
141
0.0
142
1.0
143
1.0
 70
  1712
 72
     0
 73
     0
 74
     0
  7
C:\Documents and Settings\Julio\Application Data\Autodesk\AutoCAD 2006\R16.2\enu\Plot Styles\sanindusa.ctb
 75
     0
147
1.0
148
0.0
149
0.0
100
AcDbLayout
  1
Model
 70
     1
 71
     0
 10
0.0
 20
0.0
 11
12.0
 21
9.0
 12
0.0
 22
0.0
 32
0.0
 14
0.0
 24
0.0
 34
0.0
 15
0.0
 25
0.0
 35
0.0
146
0.0
 13
0.0
 23
0.0
 33
0.0
 16
1.0
 26
0.0
 36
0.0
 17
0.0
 27
1.0
 37
0.0
 76
     0
330
23
331
3C4
  0
MATERIAL
  5
3D8
102
{ACAD_XDICTIONARY
360
3D9
102
}
102
{ACAD_REACTORS
330
1B
102
}
330
1B
100
AcDbMaterial
  1
ByBlock
 72
     0
 43
0.0008202099737533
 43
0.0
 43
0.0
 43
0.0
 43
0.0
 43
0.0008202099737533
 43
0.0
 43
0.0
 43
0.0
 43
0.0
 43
1.0
 43
0.0
 43
0.0
 43
0.0
 43
0.0
 43
1.0
 77
     0
 47
0.0008202099737533
 47
0.0
 47
0.0
 47
0.0
 47
0.0
 47
0.0008202099737533
 47
0.0
 47
0.0
 47
0.0
 47
0.0
 47
1.0
 47
0.0
 47
0.0
 47
0.0
 47
0.0
 47
1.0
171
     0
 49
0.0008202099737533
 49
0.0
 49
0.0
 49
0.0
 49
0.0
 49
0.0008202099737533
 49
0.0
 49
0.0
 49
0.0
 49
0.0
 49
1.0
 49
0.0
 49
0.0
 49
0.0
 49
0.0
 49
1.0
175
     0
142
0.0008202099737533
142
0.0
142
0.0
142
0.0
142
0.0
142
0.0008202099737533
142
0.0
142
0.0
142
0.0
142
0.0
142
1.0
142
0.0
142
0.0
142
0.0
142
0.0
142
1.0
179
     0
144
0.0008202099737533
144
0.0
144
0.0
144
0.0
144
0.0
144
0.0008202099737533
144
0.0
144
0.0
144
0.0
144
0.0
144
1.0
144
0.0
144
0.0
144
0.0
144
0.0
144
1.0
147
0.0008202099737533
147
0.0
147
0.0
147
0.0
147
0.0
147
0.0008202099737533
147
0.0
147
0.0
147
0.0
147
0.0
147
1.0
147
0.0
147
0.0
147
0.0
147
0.0
147
1.0
  0
MATERIAL
  5
3D0
102
{ACAD_XDICTIONARY
360
3D1
102
}
102
{ACAD_REACTORS
330
1B
102
}
330
1B
100
AcDbMaterial
  1
ByLayer
 72
     0
 43
0.0008202099737533
 43
0.0
 43
0.0
 43
0.0
 43
0.0
 43
0.0008202099737533
 43
0.0
 43
0.0
 43
0.0
 43
0.0
 43
1.0
 43
0.0
 43
0.0
 43
0.0
 43
0.0
 43
1.0
 77
     0
 47
0.0008202099737533
 47
0.0
 47
0.0
 47
0.0
 47
0.0
 47
0.0008202099737533
 47
0.0
 47
0.0
 47
0.0
 47
0.0
 47
1.0
 47
0.0
 47
0.0
 47
0.0
 47
0.0
 47
1.0
171
     0
 49
0.0008202099737533
 49
0.0
 49
0.0
 49
0.0
 49
0.0
 49
0.0008202099737533
 49
0.0
 49
0.0
 49
0.0
 49
0.0
 49
1.0
 49
0.0
 49
0.0
 49
0.0
 49
0.0
 49
1.0
175
     0
142
0.0008202099737533
142
0.0
142
0.0
142
0.0
142
0.0
142
0.0008202099737533
142
0.0
142
0.0
142
0.0
142
0.0
142
1.0
142
0.0
142
0.0
142
0.0
142
0.0
142
1.0
179
     0
144
0.0008202099737533
144
0.0
144
0.0
144
0.0
144
0.0
144
0.0008202099737533
144
0.0
144
0.0
144
0.0
144
0.0
144
1.0
144
0.0
144
0.0
144
0.0
144
0.0
144
1.0
147
0.0008202099737533
147
0.0
147
0.0
147
0.0
147
0.0
147
0.0008202099737533
147
0.0
147
0.0
147
0.0
147
0.0
147
1.0
147
0.0
147
0.0
147
0.0
147
0.0
147
1.0
  0
MATERIAL
  5
3E0
102
{ACAD_XDICTIONARY
360
3E1
102
}
102
{ACAD_REACTORS
330
1B
102
}
330
1B
100
AcDbMaterial
  1
Global
 72
     0
 43
0.0008202099737533
 43
0.0
 43
0.0
 43
0.0
 43
0.0
 43
0.0008202099737533
 43
0.0
 43
0.0
 43
0.0
 43
0.0
 43
1.0
 43
0.0
 43
0.0
 43
0.0
 43
0.0
 43
1.0
 77
     0
 47
0.0008202099737533
 47
0.0
 47
0.0
 47
0.0
 47
0.0
 47
0.0008202099737533
 47
0.0
 47
0.0
 47
0.0
 47
0.0
 47
1.0
 47
0.0
 47
0.0
 47
0.0
 47
0.0
 47
1.0
171
     0
 49
0.0008202099737533
 49
0.0
 49
0.0
 49
0.0
 49
0.0
 49
0.0008202099737533
 49
0.0
 49
0.0
 49
0.0
 49
0.0
 49
1.0
 49
0.0
 49
0.0
 49
0.0
 49
0.0
 49
1.0
175
     0
142
0.0008202099737533
142
0.0
142
0.0
142
0.0
142
0.0
142
0.0008202099737533
142
0.0
142
0.0
142
0.0
142
0.0
142
1.0
142
0.0
142
0.0
142
0.0
142
0.0
142
1.0
179
     0
144
0.0008202099737533
144
0.0
144
0.0
144
0.0
144
0.0
144
0.0008202099737533
144
0.0
144
0.0
144
0.0
144
0.0
144
1.0
144
0.0
144
0.0
144
0.0
144
0.0
144
1.0
147
0.0008202099737533
147
0.0
147
0.0
147
0.0
147
0.0
147
0.0008202099737533
147
0.0
147
0.0
147
0.0
147
0.0
147
1.0
147
0.0
147
0.0
147
0.0
147
0.0
147
1.0
  0
MLEADERSTYLE
  5
40F
102
{ACAD_REACTORS
330
40E
102
}
330
40E
100
AcDbMLeaderStyle
170
     2
171
     1
172
     0
 90
        2
 40
0.0
 41
0.0
173
     1
 91
-1056964608
340
14
 92
       -2
290
     1
 42
2.0
291
     1
 43
0.36
  3
Standard
 44
4.0
300

342
11
174
     1
178
     6
175
     1
176
     0
 93
-1056964608
 45
4.0
292
     0
297
     0
 46
4.0
 94
-1056964608
 47
1.0
 49
1.0
140
1.0
293
     1
141
0.0
294
     1
177
     0
142
1.0
295
     0
296
     0
143
0.125
1001
ACAD_MLEADERVER
1070
     2
  0
MLINESTYLE
  5
18
102
{ACAD_REACTORS
330
17
102
}
330
17
100
AcDbMlineStyle
  2
STANDARD
 70
     0
  3

 62
   256
 51
90.0
 52
90.0
 71
     2
 49
0.5
 62
   256
  6
BYLAYER
 49
-0.5
 62
   256
  6
BYLAYER
  0
ACDBPLACEHOLDER
  5
F
102
{ACAD_REACTORS
330
E
102
}
330
E
  0
SCALE
  5
3FD
102
{ACAD_REACTORS
330
3FC
102
}
330
3FC
100
AcDbScale
 70
     0
300
1:1
140
1.0
141
1.0
290
     1
  0
SCALE
  5
3FE
102
{ACAD_REACTORS
330
3FC
102
}
330
3FC
100
AcDbScale
 70
     0
300
1:2
140
1.0
141
2.0
290
     0
  0
SCALE
  5
3FF
102
{ACAD_REACTORS
330
3FC
102
}
330
3FC
100
AcDbScale
 70
     0
300
1:4
140
1.0
141
4.0
290
     0
  0
SCALE
  5
400
102
{ACAD_REACTORS
330
3FC
102
}
330
3FC
100
AcDbScale
 70
     0
300
1:5
140
1.0
141
5.0
290
     0
  0
SCALE
  5
401
102
{ACAD_REACTORS
330
3FC
102
}
330
3FC
100
AcDbScale
 70
     0
300
1:8
140
1.0
141
8.0
290
     0
  0
SCALE
  5
402
102
{ACAD_REACTORS
330
3FC
102
}
330
3FC
100
AcDbScale
 70
     0
300
1:10
140
1.0
141
10.0
290
     0
  0
SCALE
  5
403
102
{ACAD_REACTORS
330
3FC
102
}
330
3FC
100
AcDbScale
 70
     0
300
1:16
140
1.0
141
16.0
290
     0
  0
SCALE
  5
404
102
{ACAD_REACTORS
330
3FC
102
}
330
3FC
100
AcDbScale
 70
     0
300
1:20
140
1.0
141
20.0
290
     0
  0
SCALE
  5
405
102
{ACAD_REACTORS
330
3FC
102
}
330
3FC
100
AcDbScale
 70
     0
300
1:30
140
1.0
141
30.0
290
     0
  0
SCALE
  5
406
102
{ACAD_REACTORS
330
3FC
102
}
330
3FC
100
AcDbScale
 70
     0
300
1:40
140
1.0
141
40.0
290
     0
  0
SCALE
  5
407
102
{ACAD_REACTORS
330
3FC
102
}
330
3FC
100
AcDbScale
 70
     0
300
1:50
140
1.0
141
50.0
290
     0
  0
SCALE
  5
408
102
{ACAD_REACTORS
330
3FC
102
}
330
3FC
100
AcDbScale
 70
     0
300
1:100
140
1.0
141
100.0
290
     0
  0
SCALE
  5
409
102
{ACAD_REACTORS
330
3FC
102
}
330
3FC
100
AcDbScale
 70
     0
300
2:1
140
2.0
141
1.0
290
     0
  0
SCALE
  5
40A
102
{ACAD_REACTORS
330
3FC
102
}
330
3FC
100
AcDbScale
 70
     0
300
4:1
140
4.0
141
1.0
290
     0
  0
SCALE
  5
40B
102
{ACAD_REACTORS
330
3FC
102
}
330
3FC
100
AcDbScale
 70
     0
300
8:1
140
8.0
141
1.0
290
     0
  0
SCALE
  5
40C
102
{ACAD_REACTORS
330
3FC
102
}
330
3FC
100
AcDbScale
 70
     0
300
10:1
140
10.0
141
1.0
290
     0
  0
SCALE
  5
40D
102
{ACAD_REACTORS
330
3FC
102
}
330
3FC
100
AcDbScale
 70
     0
300
100:1
140
100.0
141
1.0
290
     0
  0
TABLESTYLE
  5
1E
102
{ACAD_XDICTIONARY
360
42C
102
}
102
{ACAD_REACTORS
330
1D
102
}
330
1D
100
AcDbTableStyle
  3
Standard
 70
     0
 71
     0
 40
1.5
 41
1.5
280
     0
281
     0
  7
Standard
140
4.5
170
     2
 62
     0
 63
     7
283
     0
274
    -2
284
     1
 64
     0
275
    -2
285
     1
 65
     0
276
    -2
286
     1
 66
     0
277
    -2
287
     1
 67
     0
278
    -2
288
     1
 68
     0
279
    -2
289
     1
 69
     0
  7
Standard
140
6.0
170
     5
 62
     0
 63
     7
283
     0
274
    -2
284
     1
 64
     0
275
    -2
285
     1
 65
     0
276
    -2
286
     1
 66
     0
277
    -2
287
     1
 67
     0
278
    -2
288
     1
 68
     0
279
    -2
289
     1
 69
     0
  7
Standard
140
4.5
170
     5
 62
     0
 63
     7
283
     0
274
    -2
284
     1
 64
     0
275
    -2
285
     1
 65
     0
276
    -2
286
     1
 66
     0
277
    -2
287
     1
 67
     0
278
    -2
288
     1
 68
     0
279
    -2
289
     1
 69
     0
  0
VISUALSTYLE
  5
3EE
102
{ACAD_XDICTIONARY
360
444
102
}
102
{ACAD_REACTORS
330
3E8
102
}
330
3E8
100
AcDbVisualStyle
  2
2dWireframe
 70
     4
 71
     0
 72
     2
 73
     0
 90
        0
 40
-0.6
 41
-30.0
 62
     5
 63
     7
 74
     1
 91
        4
 64
     7
 65
   257
 75
     1
175
     1
 42
1.0
 92
        0
 66
   257
 43
1.0
 76
     1
 77
     6
 78
     2
 67
     7
 79
     5
170
     0
171
     0
290
     0
174
     0
 93
        1
 44
0.0
173
     0
291
     0
 45
0.0
1001
ACAD
1000
AcDbSavedByObjectVersion
1070
     0
  0
VISUALSTYLE
  5
3F0
102
{ACAD_XDICTIONARY
360
448
102
}
102
{ACAD_REACTORS
330
3E8
102
}
330
3E8
100
AcDbVisualStyle
  2
3D Hidden
 70
     6
 71
     1
 72
     2
 73
     2
 90
        0
 40
-0.6
 41
-30.0
 62
     5
 63
     7
 74
     2
 91
        2
 64
     7
 65
   257
 75
     2
175
     1
 42
179.0
 92
        0
 66
   257
 43
1.0
 76
     1
 77
     6
 78
     2
 67
     7
 79
     3
170
     0
171
     0
290
     0
174
     0
 93
        1
 44
0.0
173
     0
291
     0
 45
0.0
1001
ACAD
1000
AcDbSavedByObjectVersion
1070
     0
  0
VISUALSTYLE
  5
3EF
102
{ACAD_XDICTIONARY
360
446
102
}
102
{ACAD_REACTORS
330
3E8
102
}
330
3E8
100
AcDbVisualStyle
  2
3dWireframe
 70
     5
 71
     0
 72
     2
 73
     0
 90
        0
 40
-0.6
 41
-30.0
 62
     5
 63
     7
 74
     1
 91
        4
 64
     7
 65
   257
 75
     1
175
     1
 42
1.0
 92
        0
 66
   257
 43
1.0
 76
     1
 77
     6
 78
     2
 67
     7
 79
     5
170
     0
171
     0
290
     0
174
     0
 93
        1
 44
0.0
173
     0
291
     0
 45
0.0
1001
ACAD
1000
AcDbSavedByObjectVersion
1070
     0
  0
VISUALSTYLE
  5
3ED
102
{ACAD_XDICTIONARY
360
442
102
}
102
{ACAD_REACTORS
330
3E8
102
}
330
3E8
100
AcDbVisualStyle
  2
Basic
 70
     7
 71
     1
 72
     0
 73
     1
 90
        0
 40
-0.6
 41
-30.0
 62
     5
 63
     7
 74
     0
 91
        4
 64
     7
 65
   257
 75
     1
175
     1
 42
1.0
 92
        8
 66
     7
 43
1.0
 76
     1
 77
     6
 78
     2
 67
     7
 79
     5
170
     0
171
     0
290
     0
174
     0
 93
        1
 44
0.0
173
     0
291
     1
 45
0.0
1001
ACAD
1000
AcDbSavedByObjectVersion
1070
     0
  0
VISUALSTYLE
  5
3F4
102
{ACAD_XDICTIONARY
360
450
102
}
102
{ACAD_REACTORS
330
3E8
102
}
330
3E8
100
AcDbVisualStyle
  2
Brighten
 70
    12
 71
     2
 72
     2
 73
     0
 90
        0
 40
-0.6
 41
-30.0
 62
     5
 63
     7
 74
     1
 91
        4
 64
     7
 65
   257
 75
     1
175
     1
 42
1.0
 92
        8
 66
     7
 43
1.0
 76
     1
 77
     6
 78
     2
 67
     7
 79
     5
170
     0
171
     0
290
     0
174
     0
 93
        1
 44
50.0
173
     0
291
     1
 45
0.0
1001
ACAD
1000
AcDbSavedByObjectVersion
1070
     0
  0
VISUALSTYLE
  5
3F8
102
{ACAD_XDICTIONARY
360
458
102
}
102
{ACAD_REACTORS
330
3E8
102
}
330
3E8
100
AcDbVisualStyle
  2
ColorChange
 70
    16
 71
     2
 72
     2
 73
     3
 90
        0
 40
-0.6
 41
-30.0
 62
     5
 63
     8
 74
     1
 91
        4
 64
     7
 65
   257
 75
     1
175
     1
 42
1.0
 92
        8
 66
     8
 43
1.0
 76
     1
 77
     6
 78
     2
 67
     7
 79
     5
170
     0
171
     0
290
     0
174
     0
 93
        1
 44
0.0
173
     0
291
     1
 45
0.0
1001
ACAD
1000
AcDbSavedByObjectVersion
1070
     0
  0
VISUALSTYLE
  5
3F1
102
{ACAD_XDICTIONARY
360
44A
102
}
102
{ACAD_REACTORS
330
3E8
102
}
330
3E8
100
AcDbVisualStyle
  2
Conceptual
 70
     9
 71
     3
 72
     2
 73
     0
 90
        0
 40
-0.6
 41
-30.0
 62
     5
 63
     7
 74
     2
 91
        2
 64
     7
 65
   257
 75
     1
175
     1
 42
179.0
 92
        8
 66
     7
 43
1.0
 76
     1
 77
     6
 78
     2
 67
     7
 79
     3
170
     0
171
     0
290
     0
174
     0
 93
        1
 44
0.0
173
     0
291
     0
 45
0.0
1001
ACAD
1000
AcDbSavedByObjectVersion
1070
     0
  0
VISUALSTYLE
  5
3F3
102
{ACAD_XDICTIONARY
360
44E
102
}
102
{ACAD_REACTORS
330
3E8
102
}
330
3E8
100
AcDbVisualStyle
  2
Dim
 70
    11
 71
     2
 72
     2
 73
     0
 90
        0
 40
-0.6
 41
-30.0
 62
     5
 63
     7
 74
     1
 91
        4
 64
     7
 65
   257
 75
     1
175
     1
 42
1.0
 92
        8
 66
     7
 43
1.0
 76
     1
 77
     6
 78
     2
 67
     7
 79
     5
170
     0
171
     0
290
     0
174
     0
 93
        1
 44
-50.0
173
     0
291
     1
 45
0.0
1001
ACAD
1000
AcDbSavedByObjectVersion
1070
     0
  0
VISUALSTYLE
  5
3FB
102
{ACAD_XDICTIONARY
360
45E
102
}
102
{ACAD_REACTORS
330
3E8
102
}
330
3E8
100
AcDbVisualStyle
  2
EdgeColorOff
 70
    22
 71
     2
 72
     2
 73
     0
 90
        0
 40
-0.6
 41
-30.0
 62
     5
 63
     7
 74
     1
 91
        4
 64
     7
 65
   257
 75
     1
175
     1
 42
1.0
 92
        8
 66
     7
 43
1.0
 76
     1
 77
     6
 78
     2
 67
     7
 79
     5
170
     0
171
     0
290
     0
174
     0
 93
        1
 44
0.0
173
     0
291
     1
 45
0.0
1001
ACAD
1000
AcDbSavedByObjectVersion
1070
     0
  0
VISUALSTYLE
  5
3F7
102
{ACAD_XDICTIONARY
360
456
102
}
102
{ACAD_REACTORS
330
3E8
102
}
330
3E8
100
AcDbVisualStyle
  2
Facepattern
 70
    15
 71
     2
 72
     2
 73
     0
 90
        0
 40
-0.6
 41
-30.0
 62
     5
 63
     7
 74
     1
 91
        4
 64
     7
 65
   257
 75
     1
175
     1
 42
1.0
 92
        8
 66
     7
 43
1.0
 76
     1
 77
     6
 78
     2
 67
     7
 79
     5
170
     0
171
     0
290
     0
174
     0
 93
        1
 44
0.0
173
     0
291
     1
 45
0.0
1001
ACAD
1000
AcDbSavedByObjectVersion
1070
     0
  0
VISUALSTYLE
  5
3E9
102
{ACAD_XDICTIONARY
360
43A
102
}
102
{ACAD_REACTORS
330
3E8
102
}
330
3E8
100
AcDbVisualStyle
  2
Flat
 70
     0
 71
     2
 72
     1
 73
     1
 90
        2
 40
-0.6
 41
30.0
 62
     5
 63
     7
 74
     0
 91
        4
 64
     7
 65
   257
 75
     1
175
     1
 42
1.0
 92
        8
 66
     7
 43
1.0
 76
     1
 77
     6
 78
     2
 67
     7
 79
     5
170
     0
171
     0
290
     0
174
     0
 93
       13
 44
0.0
173
     0
291
     1
 45
0.0
1001
ACAD
1000
AcDbSavedByObjectVersion
1070
     0
  0
VISUALSTYLE
  5
3EA
102
{ACAD_XDICTIONARY
360
43C
102
}
102
{ACAD_REACTORS
330
3E8
102
}
330
3E8
100
AcDbVisualStyle
  2
FlatWithEdges
 70
     1
 71
     2
 72
     1
 73
     1
 90
        2
 40
-0.6
 41
30.0
 62
     5
 63
     7
 74
     1
 91
        4
 64
     7
 65
   257
 75
     1
175
     1
 42
1.0
 92
        0
 66
   257
 43
1.0
 76
     1
 77
     6
 78
     2
 67
     7
 79
     5
170
     0
171
     0
290
     0
174
     0
 93
       13
 44
0.0
173
     0
291
     1
 45
0.0
1001
ACAD
1000
AcDbSavedByObjectVersion
1070
     0
  0
VISUALSTYLE
  5
3EB
102
{ACAD_XDICTIONARY
360
43E
102
}
102
{ACAD_REACTORS
330
3E8
102
}
330
3E8
100
AcDbVisualStyle
  2
Gouraud
 70
     2
 71
     2
 72
     2
 73
     1
 90
        2
 40
-0.6
 41
30.0
 62
     5
 63
     7
 74
     0
 91
        4
 64
     7
 65
   257
 75
     1
175
     1
 42
1.0
 92
        0
 66
     7
 43
1.0
 76
     1
 77
     6
 78
     2
 67
     7
 79
     5
170
     0
171
     0
290
     0
174
     0
 93
       13
 44
0.0
173
     0
291
     1
 45
0.0
1001
ACAD
1000
AcDbSavedByObjectVersion
1070
     0
  0
VISUALSTYLE
  5
3EC
102
{ACAD_XDICTIONARY
360
440
102
}
102
{ACAD_REACTORS
330
3E8
102
}
330
3E8
100
AcDbVisualStyle
  2
GouraudWithEdges
 70
     3
 71
     2
 72
     2
 73
     1
 90
        2
 40
-0.6
 41
30.0
 62
     5
 63
     7
 74
     1
 91
        4
 64
     7
 65
   257
 75
     1
175
     1
 42
1.0
 92
        0
 66
   257
 43
1.0
 76
     1
 77
     6
 78
     2
 67
     7
 79
     5
170
     0
171
     0
290
     0
174
     0
 93
       13
 44
0.0
173
     0
291
     1
 45
0.0
1001
ACAD
1000
AcDbSavedByObjectVersion
1070
     0
  0
VISUALSTYLE
  5
3F9
102
{ACAD_XDICTIONARY
360
45A
102
}
102
{ACAD_REACTORS
330
3E8
102
}
330
3E8
100
AcDbVisualStyle
  2
JitterOff
 70
    20
 71
     2
 72
     2
 73
     0
 90
        0
 40
-0.6
 41
-30.0
 62
     5
 63
     7
 74
     1
 91
        4
 64
     7
 65
   257
 75
     1
175
     1
 42
1.0
 92
       10
 66
     7
 43
1.0
 76
     1
 77
     6
 78
     2
 67
     7
 79
     5
170
     0
171
     0
290
     0
174
     0
 93
        1
 44
0.0
173
     0
291
     1
 45
0.0
1001
ACAD
1000
AcDbSavedByObjectVersion
1070
     0
  0
VISUALSTYLE
  5
3F6
102
{ACAD_XDICTIONARY
360
454
102
}
102
{ACAD_REACTORS
330
3E8
102
}
330
3E8
100
AcDbVisualStyle
  2
Linepattern
 70
    14
 71
     2
 72
     2
 73
     0
 90
        0
 40
-0.6
 41
-30.0
 62
     5
 63
     7
 74
     1
 91
        4
 64
     7
 65
   257
 75
     7
175
     7
 42
1.0
 92
        8
 66
     7
 43
1.0
 76
     1
 77
     6
 78
     2
 67
     7
 79
     5
170
     0
171
     0
290
     0
174
     0
 93
        1
 44
0.0
173
     0
291
     1
 45
0.0
1001
ACAD
1000
AcDbSavedByObjectVersion
1070
     0
  0
VISUALSTYLE
  5
3FA
102
{ACAD_XDICTIONARY
360
45C
102
}
102
{ACAD_REACTORS
330
3E8
102
}
330
3E8
100
AcDbVisualStyle
  2
OverhangOff
 70
    21
 71
     2
 72
     2
 73
     0
 90
        0
 40
-0.6
 41
-30.0
 62
     5
 63
     7
 74
     1
 91
        4
 64
     7
 65
   257
 75
     1
175
     1
 42
1.0
 92
        9
 66
     7
 43
1.0
 76
     1
 77
     6
 78
     2
 67
     7
 79
     5
170
     0
171
     0
290
     0
174
     0
 93
        1
 44
0.0
173
     0
291
     1
 45
0.0
1001
ACAD
1000
AcDbSavedByObjectVersion
1070
     0
  0
VISUALSTYLE
  5
3F2
102
{ACAD_XDICTIONARY
360
44C
102
}
102
{ACAD_REACTORS
330
3E8
102
}
330
3E8
100
AcDbVisualStyle
  2
Realistic
 70
     8
 71
     2
 72
     2
 73
     0
 90
        0
 40
-0.6
 41
-30.0
 62
     5
 63
     7
 74
     1
 91
        0
 64
     7
 65
   257
 75
     1
175
     1
 42
1.0
 92
        8
 66
     8
 43
1.0
 76
     1
 77
     6
 78
     2
 67
     7
 79
     5
170
     0
171
     0
290
     0
174
     0
 93
       13
 44
0.0
173
     0
291
     0
 45
0.0
1001
ACAD
1000
AcDbSavedByObjectVersion
1070
     0
  0
VISUALSTYLE
  5
3F5
102
{ACAD_XDICTIONARY
360
452
102
}
102
{ACAD_REACTORS
330
3E8
102
}
330
3E8
100
AcDbVisualStyle
  2
Thicken
 70
    13
 71
     2
 72
     2
 73
     0
 90
        0
 40
-0.6
 41
-30.0
 62
     5
 63
     7
 74
     1
 91
        4
 64
     7
 65
   257
 75
     1
175
     1
 42
1.0
 92
       12
 66
     7
 43
1.0
 76
     1
 77
     6
 78
     2
 67
     7
 79
     5
170
     0
171
     0
290
     0
174
     0
 93
        1
 44
0.0
173
     0
291
     1
 45
0.0
1001
ACAD
1000
AcDbSavedByObjectVersion
1070
     0
  0
DICTIONARYVAR
  5
428
102
{ACAD_REACTORS
330
3C2
102
}
330
3C2
100
DictionaryVariables
280
     0
  1
1:1
  0
DICTIONARYVAR
  5
427
102
{ACAD_REACTORS
330
3C2
102
}
330
3C2
100
DictionaryVariables
280
     0
  1
STANDARD
  0
DICTIONARYVAR
  5
3C3
102
{ACAD_REACTORS
330
3C2
102
}
330
3C2
100
DictionaryVariables
280
     0
  1
STANDARD
  0
DICTIONARYVAR
  5
3CD
102
{ACAD_REACTORS
330
3C2
102
}
330
3C2
100
DictionaryVariables
280
     0
  1
2
  0
DICTIONARYVAR
  5
3CC
102
{ACAD_REACTORS
330
3C2
102
}
330
3C2
100
DictionaryVariables
280
     0
  1
1
  0
DICTIONARYVAR
  5
42A
102
{ACAD_REACTORS
330
3C2
102
}
330
3C2
100
DictionaryVariables
280
     0
  1
0
  0
DICTIONARYVAR
  5
3CE
102
{ACAD_REACTORS
330
3C2
102
}
330
3C2
100
DictionaryVariables
280
     0
  1

  0
DICTIONARYVAR
  5
429
102
{ACAD_REACTORS
330
3C2
102
}
330
3C2
100
DictionaryVariables
280
     0
  1
127
  0
DICTIONARYVAR
  5
42B
102
{ACAD_REACTORS
330
3C2
102
}
330
3C2
100
DictionaryVariables
280
     0
  1
2
  0
XRECORD
  5
3C0
102
{ACAD_REACTORS
330
3BF
102
}
330
3BF
100
AcDbXrecord
280
     1
  0
DICTIONARY
  5
431
330
22
100
AcDbDictionary
280
     1
281
     1
  3
ACAD_XREC_ROUNDTRIP
360
432
  0
DICTIONARY
  5
435
330
2A
100
AcDbDictionary
280
     1
281
     1
  3
ACAD_XREC_ROUNDTRIP
360
436
  0
DICTIONARY
  5
433
330
26
100
AcDbDictionary
280
     1
281
     1
  3
ACAD_XREC_ROUNDTRIP
360
434
  0
DICTIONARY
  5
3D9
330
3D8
100
AcDbDictionary
280
     1
281
     1
  3
ACAD_XREC_ROUNDTRIP
360
438
  3
BUMPTILE
360
3DB
  3
DIFFUSETILE
360
3DA
  3
OPACITYTILE
360
3DE
  3
REFLECTIONTILE
360
3DD
  3
REFRACTIONTILE
360
3DF
  3
SPECULARTILE
360
3DC
  0
DICTIONARY
  5
3D1
330
3D0
100
AcDbDictionary
280
     1
281
     1
  3
ACAD_XREC_ROUNDTRIP
360
437
  3
BUMPTILE
360
3D3
  3
DIFFUSETILE
360
3D2
  3
OPACITYTILE
360
3D6
  3
REFLECTIONTILE
360
3D5
  3
REFRACTIONTILE
360
3D7
  3
SPECULARTILE
360
3D4
  0
DICTIONARY
  5
3E1
330
3E0
100
AcDbDictionary
280
     1
281
     1
  3
ACAD_XREC_ROUNDTRIP
360
439
  3
BUMPTILE
360
3E3
  3
DIFFUSETILE
360
3E2
  3
OPACITYTILE
360
3E6
  3
REFLECTIONTILE
360
3E5
  3
REFRACTIONTILE
360
3E7
  3
SPECULARTILE
360
3E4
  0
DICTIONARY
  5
42C
330
1E
100
AcDbDictionary
280
     1
281
     1
  3
ACAD_ROUNDTRIP_2008_TABLESTYLE_CELLSTYLEMAP
360
42D
  3
ACAD_XREC_ROUNDTRIP
360
430
  0
DICTIONARY
  5
444
330
3EE
100
AcDbDictionary
280
     1
281
     1
  3
ACAD_XREC_ROUNDTRIP
360
445
  0
DICTIONARY
  5
448
330
3F0
100
AcDbDictionary
280
     1
281
     1
  3
ACAD_XREC_ROUNDTRIP
360
449
  0
DICTIONARY
  5
446
330
3EF
100
AcDbDictionary
280
     1
281
     1
  3
ACAD_XREC_ROUNDTRIP
360
447
  0
DICTIONARY
  5
442
330
3ED
100
AcDbDictionary
280
     1
281
     1
  3
ACAD_XREC_ROUNDTRIP
360
443
  0
DICTIONARY
  5
450
330
3F4
100
AcDbDictionary
280
     1
281
     1
  3
ACAD_XREC_ROUNDTRIP
360
451
  0
DICTIONARY
  5
458
330
3F8
100
AcDbDictionary
280
     1
281
     1
  3
ACAD_XREC_ROUNDTRIP
360
459
  0
DICTIONARY
  5
44A
330
3F1
100
AcDbDictionary
280
     1
281
     1
  3
ACAD_XREC_ROUNDTRIP
360
44B
  0
DICTIONARY
  5
44E
330
3F3
100
AcDbDictionary
280
     1
281
     1
  3
ACAD_XREC_ROUNDTRIP
360
44F
  0
DICTIONARY
  5
45E
330
3FB
100
AcDbDictionary
280
     1
281
     1
  3
ACAD_XREC_ROUNDTRIP
360
45F
  0
DICTIONARY
  5
456
330
3F7
100
AcDbDictionary
280
     1
281
     1
  3
ACAD_XREC_ROUNDTRIP
360
457
  0
DICTIONARY
  5
43A
330
3E9
100
AcDbDictionary
280
     1
281
     1
  3
ACAD_XREC_ROUNDTRIP
360
43B
  0
DICTIONARY
  5
43C
330
3EA
100
AcDbDictionary
280
     1
281
     1
  3
ACAD_XREC_ROUNDTRIP
360
43D
  0
DICTIONARY
  5
43E
330
3EB
100
AcDbDictionary
280
     1
281
     1
  3
ACAD_XREC_ROUNDTRIP
360
43F
  0
DICTIONARY
  5
440
330
3EC
100
AcDbDictionary
280
     1
281
     1
  3
ACAD_XREC_ROUNDTRIP
360
441
  0
DICTIONARY
  5
45A
330
3F9
100
AcDbDictionary
280
     1
281
     1
  3
ACAD_XREC_ROUNDTRIP
360
45B
  0
DICTIONARY
  5
454
330
3F6
100
AcDbDictionary
280
     1
281
     1
  3
ACAD_XREC_ROUNDTRIP
360
455
  0
DICTIONARY
  5
45C
330
3FA
100
AcDbDictionary
280
     1
281
     1
  3
ACAD_XREC_ROUNDTRIP
360
45D
  0
DICTIONARY
  5
44C
330
3F2
100
AcDbDictionary
280
     1
281
     1
  3
ACAD_XREC_ROUNDTRIP
360
44D
  0
DICTIONARY
  5
452
330
3F5
100
AcDbDictionary
280
     1
281
     1
  3
ACAD_XREC_ROUNDTRIP
360
453
  0
XRECORD
  5
432
102
{ACAD_REACTORS
330
431
102
}
330
431
100
AcDbXrecord
280
     1
102
SHADEPLOT
 70
     0
102
SHADEPLOTRESLEVEL
 70
     2
102
SHADEPLOTCUSTOMDPI
 70
   300
  0
XRECORD
  5
436
102
{ACAD_REACTORS
330
435
102
}
330
435
100
AcDbXrecord
280
     1
102
SHADEPLOT
 70
     0
102
SHADEPLOTRESLEVEL
 70
     2
102
SHADEPLOTCUSTOMDPI
 70
   300
  0
XRECORD
  5
434
102
{ACAD_REACTORS
330
433
102
}
330
433
100
AcDbXrecord
280
     1
102
SHADEPLOT
 70
     0
102
SHADEPLOTRESLEVEL
 70
     2
102
SHADEPLOTCUSTOMDPI
 70
   300
  0
XRECORD
  5
438
102
{ACAD_REACTORS
330
3D9
102
}
330
3D9
100
AcDbXrecord
280
     1
102
MATERIAL
148
0.0
149
0.0
149
0.0
 93
        0
 94
      127
282
     0
 72
     0
 77
     0
171
     0
175
     0
179
     0
273
     0
  0
XRECORD
  5
3DB
102
{ACAD_REACTORS
330
3D9
102
}
330
3D9
100
AcDbXrecord
280
     1
270
     1
271
     1
  0
XRECORD
  5
3DA
102
{ACAD_REACTORS
330
3D9
102
}
330
3D9
100
AcDbXrecord
280
     1
270
     1
271
     1
  0
XRECORD
  5
3DE
102
{ACAD_REACTORS
330
3D9
102
}
330
3D9
100
AcDbXrecord
280
     1
270
     1
271
     1
  0
XRECORD
  5
3DD
102
{ACAD_REACTORS
330
3D9
102
}
330
3D9
100
AcDbXrecord
280
     1
270
     1
271
     1
  0
XRECORD
  5
3DF
102
{ACAD_REACTORS
330
3D9
102
}
330
3D9
100
AcDbXrecord
280
     1
270
     1
271
     1
  0
XRECORD
  5
3DC
102
{ACAD_REACTORS
330
3D9
102
}
330
3D9
100
AcDbXrecord
280
     1
270
     1
271
     1
  0
XRECORD
  5
437
102
{ACAD_REACTORS
330
3D1
102
}
330
3D1
100
AcDbXrecord
280
     1
102
MATERIAL
148
0.0
149
0.0
149
0.0
 93
        0
 94
      127
282
     0
 72
     0
 77
     0
171
     0
175
     0
179
     0
273
     0
  0
XRECORD
  5
3D3
102
{ACAD_REACTORS
330
3D1
102
}
330
3D1
100
AcDbXrecord
280
     1
270
     1
271
     1
  0
XRECORD
  5
3D2
102
{ACAD_REACTORS
330
3D1
102
}
330
3D1
100
AcDbXrecord
280
     1
270
     1
271
     1
  0
XRECORD
  5
3D6
102
{ACAD_REACTORS
330
3D1
102
}
330
3D1
100
AcDbXrecord
280
     1
270
     1
271
     1
  0
XRECORD
  5
3D5
102
{ACAD_REACTORS
330
3D1
102
}
330
3D1
100
AcDbXrecord
280
     1
270
     1
271
     1
  0
XRECORD
  5
3D7
102
{ACAD_REACTORS
330
3D1
102
}
330
3D1
100
AcDbXrecord
280
     1
270
     1
271
     1
  0
XRECORD
  5
3D4
102
{ACAD_REACTORS
330
3D1
102
}
330
3D1
100
AcDbXrecord
280
     1
270
     1
271
     1
  0
XRECORD
  5
439
102
{ACAD_REACTORS
330
3E1
102
}
330
3E1
100
AcDbXrecord
280
     1
102
MATERIAL
148
0.0
149
0.0
149
0.0
 93
        0
 94
      127
282
     0
 72
     0
 77
     0
171
     0
175
     0
179
     0
273
     0
  0
XRECORD
  5
3E3
102
{ACAD_REACTORS
330
3E1
102
}
330
3E1
100
AcDbXrecord
280
     1
270
     1
271
     1
  0
XRECORD
  5
3E2
102
{ACAD_REACTORS
330
3E1
102
}
330
3E1
100
AcDbXrecord
280
     1
270
     1
271
     1
  0
XRECORD
  5
3E6
102
{ACAD_REACTORS
330
3E1
102
}
330
3E1
100
AcDbXrecord
280
     1
270
     1
271
     1
  0
XRECORD
  5
3E5
102
{ACAD_REACTORS
330
3E1
102
}
330
3E1
100
AcDbXrecord
280
     1
270
     1
271
     1
  0
XRECORD
  5
3E7
102
{ACAD_REACTORS
330
3E1
102
}
330
3E1
100
AcDbXrecord
280
     1
270
     1
271
     1
  0
XRECORD
  5
3E4
102
{ACAD_REACTORS
330
3E1
102
}
330
3E1
100
AcDbXrecord
280
     1
270
     1
271
     1
  0
CELLSTYLEMAP
  5
42D
102
{ACAD_REACTORS
330
42C
102
}
330
42C
100
AcDbCellStyleMap
 90
        3
300
CELLSTYLE
  1
TABLEFORMAT_BEGIN
 90
        5
170
     1
 91
        0
 92
    32768
 62
   257
 93
        1
300
CONTENTFORMAT
  1
CONTENTFORMAT_BEGIN
 90
        0
 91
        0
 92
        4
 93
        0
300

 40
0.0
140
1.0
 94
        5
 62
     0
340
11
144
6.0
309
CONTENTFORMAT_END
171
     1
301
MARGIN
  1
CELLMARGIN_BEGIN
 40
1.5
 40
1.5
 40
1.5
 40
1.5
 40
0.18
 40
0.18
309
CELLMARGIN_END
 94
        6
 95
        1
302
GRIDFORMAT
  1
GRIDFORMAT_BEGIN
 90
        0
 91
        1
 62
     0
 92
       -2
340
0
 93
        0
 40
0.045
309
GRIDFORMAT_END
 95
        2
302
GRIDFORMAT
  1
GRIDFORMAT_BEGIN
 90
        0
 91
        1
 62
     0
 92
       -2
340
0
 93
        0
 40
0.045
309
GRIDFORMAT_END
 95
        4
302
GRIDFORMAT
  1
GRIDFORMAT_BEGIN
 90
        0
 91
        1
 62
     0
 92
       -2
340
0
 93
        0
 40
0.045
309
GRIDFORMAT_END
 95
        8
302
GRIDFORMAT
  1
GRIDFORMAT_BEGIN
 90
        0
 91
        1
 62
     0
 92
       -2
340
0
 93
        0
 40
0.045
309
GRIDFORMAT_END
 95
       16
302
GRIDFORMAT
  1
GRIDFORMAT_BEGIN
 90
        0
 91
        1
 62
     0
 92
       -2
340
0
 93
        0
 40
0.045
309
GRIDFORMAT_END
 95
       32
302
GRIDFORMAT
  1
GRIDFORMAT_BEGIN
 90
        0
 91
        1
 62
     0
 92
       -2
340
0
 93
        0
 40
0.045
309
GRIDFORMAT_END
309
TABLEFORMAT_END
  1
CELLSTYLE_BEGIN
 90
        1
 91
        1
300
_TITLE
309
CELLSTYLE_END
300
CELLSTYLE
  1
TABLEFORMAT_BEGIN
 90
        5
170
     1
 91
        0
 92
        0
 62
   257
 93
        1
300
CONTENTFORMAT
  1
CONTENTFORMAT_BEGIN
 90
        0
 91
        0
 92
        4
 93
        0
300

 40
0.0
140
1.0
 94
        5
 62
     0
340
11
144
4.5
309
CONTENTFORMAT_END
171
     1
301
MARGIN
  1
CELLMARGIN_BEGIN
 40
1.5
 40
1.5
 40
1.5
 40
1.5
 40
0.18
 40
0.18
309
CELLMARGIN_END
 94
        6
 95
        1
302
GRIDFORMAT
  1
GRIDFORMAT_BEGIN
 90
        0
 91
        1
 62
     0
 92
       -2
340
0
 93
        0
 40
0.045
309
GRIDFORMAT_END
 95
        2
302
GRIDFORMAT
  1
GRIDFORMAT_BEGIN
 90
        0
 91
        1
 62
     0
 92
       -2
340
0
 93
        0
 40
0.045
309
GRIDFORMAT_END
 95
        4
302
GRIDFORMAT
  1
GRIDFORMAT_BEGIN
 90
        0
 91
        1
 62
     0
 92
       -2
340
0
 93
        0
 40
0.045
309
GRIDFORMAT_END
 95
        8
302
GRIDFORMAT
  1
GRIDFORMAT_BEGIN
 90
        0
 91
        1
 62
     0
 92
       -2
340
0
 93
        0
 40
0.045
309
GRIDFORMAT_END
 95
       16
302
GRIDFORMAT
  1
GRIDFORMAT_BEGIN
 90
        0
 91
        1
 62
     0
 92
       -2
340
0
 93
        0
 40
0.045
309
GRIDFORMAT_END
 95
       32
302
GRIDFORMAT
  1
GRIDFORMAT_BEGIN
 90
        0
 91
        1
 62
     0
 92
       -2
340
0
 93
        0
 40
0.045
309
GRIDFORMAT_END
309
TABLEFORMAT_END
  1
CELLSTYLE_BEGIN
 90
        2
 91
        1
300
_HEADER
309
CELLSTYLE_END
300
CELLSTYLE
  1
TABLEFORMAT_BEGIN
 90
        5
170
     1
 91
        0
 92
        0
 62
   257
 93
        1
300
CONTENTFORMAT
  1
CONTENTFORMAT_BEGIN
 90
        0
 91
        0
 92
        4
 93
        0
300

 40
0.0
140
1.0
 94
        2
 62
     0
340
11
144
4.5
309
CONTENTFORMAT_END
171
     1
301
MARGIN
  1
CELLMARGIN_BEGIN
 40
1.5
 40
1.5
 40
1.5
 40
1.5
 40
0.18
 40
0.18
309
CELLMARGIN_END
 94
        6
 95
        1
302
GRIDFORMAT
  1
GRIDFORMAT_BEGIN
 90
        0
 91
        1
 62
     0
 92
       -2
340
0
 93
        0
 40
0.045
309
GRIDFORMAT_END
 95
        2
302
GRIDFORMAT
  1
GRIDFORMAT_BEGIN
 90
        0
 91
        1
 62
     0
 92
       -2
340
0
 93
        0
 40
0.045
309
GRIDFORMAT_END
 95
        4
302
GRIDFORMAT
  1
GRIDFORMAT_BEGIN
 90
        0
 91
        1
 62
     0
 92
       -2
340
0
 93
        0
 40
0.045
309
GRIDFORMAT_END
 95
        8
302
GRIDFORMAT
  1
GRIDFORMAT_BEGIN
 90
        0
 91
        1
 62
     0
 92
       -2
340
0
 93
        0
 40
0.045
309
GRIDFORMAT_END
 95
       16
302
GRIDFORMAT
  1
GRIDFORMAT_BEGIN
 90
        0
 91
        1
 62
     0
 92
       -2
340
0
 93
        0
 40
0.045
309
GRIDFORMAT_END
 95
       32
302
GRIDFORMAT
  1
GRIDFORMAT_BEGIN
 90
        0
 91
        1
 62
     0
 92
       -2
340
0
 93
        0
 40
0.045
309
GRIDFORMAT_END
309
TABLEFORMAT_END
  1
CELLSTYLE_BEGIN
 90
        3
 91
        2
300
_DATA
309
CELLSTYLE_END
  0
XRECORD
  5
430
102
{ACAD_REACTORS
330
42C
102
}
330
42C
100
AcDbXrecord
280
     1
102
ACAD_ROUNDTRIP_PRE2007_TABLESTYLE
 90
        4
 91
        0
  1

 92
        4
 93
        0
  2

 94
        4
 95
        0
  3

  0
XRECORD
  5
445
102
{ACAD_REACTORS
330
444
102
}
330
444
100
AcDbXrecord
280
     1
102
RTVSPropertyOp0
 70
     1
102
RTVSPropertyOp1
 70
     1
102
RTVSPropertyOp2
 70
     1
102
RTVSPropertyOp3
 70
     1
102
RTVSPropertyOp4
 70
     1
102
RTVSPropertyOp5
 70
     1
102
RTVSPropertyOp6
 70
     1
102
RTVSPropertyOp7
 70
     1
102
RTVSPropertyOp8
 70
     1
102
RTVSPropertyOp9
 70
     1
102
RTVSPropertyOp10
 70
     1
102
RTVSPropertyOp11
 70
     1
102
RTVSPropertyOp12
 70
     1
102
RTVSPropertyOp13
 70
     1
102
RTVSPropertyOp14
 70
     1
102
RTVSPropertyOp15
 70
     1
102
RTVSPropertyOp16
 70
     1
102
RTVSPropertyOp17
 70
     1
102
RTVSPropertyOp18
 70
     1
102
RTVSPropertyOp19
 70
     1
102
RTVSPropertyOp20
 70
     1
102
RTVSPropertyOp21
 70
     1
102
RTVSPropertyOp22
 70
     1
102
RTVSPropertyOp23
 70
     1
102
RTVSPropertyOp24
 70
     1
102
RTVSPropertyOp25
 70
     1
102
RTVSPropertyOp26
 70
     1
102
RTVSPropertyOp27
 70
     1
  0
XRECORD
  5
449
102
{ACAD_REACTORS
330
448
102
}
330
448
100
AcDbXrecord
280
     1
102
RTVSPropertyOp0
 70
     1
102
RTVSPropertyOp1
 70
     1
102
RTVSPropertyOp2
 70
     1
102
RTVSPropertyOp3
 70
     1
102
RTVSPropertyOp4
 70
     1
102
RTVSPropertyOp5
 70
     1
102
RTVSPropertyOp6
 70
     1
102
RTVSPropertyOp7
 70
     1
102
RTVSPropertyOp8
 70
     1
102
RTVSPropertyOp9
 70
     1
102
RTVSPropertyOp10
 70
     1
102
RTVSPropertyOp11
 70
     1
102
RTVSPropertyOp12
 70
     1
102
RTVSPropertyOp13
 70
     1
102
RTVSPropertyOp14
 70
     1
102
RTVSPropertyOp15
 70
     1
102
RTVSPropertyOp16
 70
     1
102
RTVSPropertyOp17
 70
     1
102
RTVSPropertyOp18
 70
     1
102
RTVSPropertyOp19
 70
     1
102
RTVSPropertyOp20
 70
     1
102
RTVSPropertyOp21
 70
     1
102
RTVSPropertyOp22
 70
     1
102
RTVSPropertyOp23
 70
     1
102
RTVSPropertyOp24
 70
     1
102
RTVSPropertyOp25
 70
     1
102
RTVSPropertyOp26
 70
     1
102
RTVSPropertyOp27
 70
     1
  0
XRECORD
  5
447
102
{ACAD_REACTORS
330
446
102
}
330
446
100
AcDbXrecord
280
     1
102
RTVSPropertyOp0
 70
     1
102
RTVSPropertyOp1
 70
     1
102
RTVSPropertyOp2
 70
     1
102
RTVSPropertyOp3
 70
     1
102
RTVSPropertyOp4
 70
     1
102
RTVSPropertyOp5
 70
     1
102
RTVSPropertyOp6
 70
     1
102
RTVSPropertyOp7
 70
     1
102
RTVSPropertyOp8
 70
     1
102
RTVSPropertyOp9
 70
     1
102
RTVSPropertyOp10
 70
     1
102
RTVSPropertyOp11
 70
     1
102
RTVSPropertyOp12
 70
     1
102
RTVSPropertyOp13
 70
     1
102
RTVSPropertyOp14
 70
     1
102
RTVSPropertyOp15
 70
     1
102
RTVSPropertyOp16
 70
     1
102
RTVSPropertyOp17
 70
     1
102
RTVSPropertyOp18
 70
     1
102
RTVSPropertyOp19
 70
     1
102
RTVSPropertyOp20
 70
     1
102
RTVSPropertyOp21
 70
     1
102
RTVSPropertyOp22
 70
     1
102
RTVSPropertyOp23
 70
     1
102
RTVSPropertyOp24
 70
     1
102
RTVSPropertyOp25
 70
     1
102
RTVSPropertyOp26
 70
     1
102
RTVSPropertyOp27
 70
     1
  0
XRECORD
  5
443
102
{ACAD_REACTORS
330
442
102
}
330
442
100
AcDbXrecord
280
     1
102
RTVSPropertyOp0
 70
     1
102
RTVSPropertyOp1
 70
     1
102
RTVSPropertyOp2
 70
     1
102
RTVSPropertyOp3
 70
     1
102
RTVSPropertyOp4
 70
     1
102
RTVSPropertyOp5
 70
     1
102
RTVSPropertyOp6
 70
     1
102
RTVSPropertyOp7
 70
     1
102
RTVSPropertyOp8
 70
     1
102
RTVSPropertyOp9
 70
     1
102
RTVSPropertyOp10
 70
     1
102
RTVSPropertyOp11
 70
     1
102
RTVSPropertyOp12
 70
     1
102
RTVSPropertyOp13
 70
     1
102
RTVSPropertyOp14
 70
     1
102
RTVSPropertyOp15
 70
     1
102
RTVSPropertyOp16
 70
     1
102
RTVSPropertyOp17
 70
     1
102
RTVSPropertyOp18
 70
     1
102
RTVSPropertyOp19
 70
     1
102
RTVSPropertyOp20
 70
     1
102
RTVSPropertyOp21
 70
     1
102
RTVSPropertyOp22
 70
     1
102
RTVSPropertyOp23
 70
     1
102
RTVSPropertyOp24
 70
     1
102
RTVSPropertyOp25
 70
     1
102
RTVSPropertyOp26
 70
     1
102
RTVSPropertyOp27
 70
     1
  0
XRECORD
  5
451
102
{ACAD_REACTORS
330
450
102
}
330
450
100
AcDbXrecord
280
     1
102
RTVSPropertyOp0
 70
     1
102
RTVSPropertyOp1
 70
     1
102
RTVSPropertyOp2
 70
     1
102
RTVSPropertyOp3
 70
     1
102
RTVSPropertyOp4
 70
     1
102
RTVSPropertyOp5
 70
     1
102
RTVSPropertyOp6
 70
     1
102
RTVSPropertyOp7
 70
     1
102
RTVSPropertyOp8
 70
     1
102
RTVSPropertyOp9
 70
     1
102
RTVSPropertyOp10
 70
     1
102
RTVSPropertyOp11
 70
     1
102
RTVSPropertyOp12
 70
     1
102
RTVSPropertyOp13
 70
     1
102
RTVSPropertyOp14
 70
     1
102
RTVSPropertyOp15
 70
     1
102
RTVSPropertyOp16
 70
     1
102
RTVSPropertyOp17
 70
     1
102
RTVSPropertyOp18
 70
     1
102
RTVSPropertyOp19
 70
     1
102
RTVSPropertyOp20
 70
     1
102
RTVSPropertyOp21
 70
     1
102
RTVSPropertyOp22
 70
     1
102
RTVSPropertyOp23
 70
     1
102
RTVSPropertyOp24
 70
     1
102
RTVSPropertyOp25
 70
     1
102
RTVSPropertyOp26
 70
     1
102
RTVSPropertyOp27
 70
     1
  0
XRECORD
  5
459
102
{ACAD_REACTORS
330
458
102
}
330
458
100
AcDbXrecord
280
     1
102
RTVSPropertyOp0
 70
     1
102
RTVSPropertyOp1
 70
     1
102
RTVSPropertyOp2
 70
     1
102
RTVSPropertyOp3
 70
     1
102
RTVSPropertyOp4
 70
     1
102
RTVSPropertyOp5
 70
     1
102
RTVSPropertyOp6
 70
     1
102
RTVSPropertyOp7
 70
     1
102
RTVSPropertyOp8
 70
     1
102
RTVSPropertyOp9
 70
     1
102
RTVSPropertyOp10
 70
     1
102
RTVSPropertyOp11
 70
     1
102
RTVSPropertyOp12
 70
     1
102
RTVSPropertyOp13
 70
     1
102
RTVSPropertyOp14
 70
     1
102
RTVSPropertyOp15
 70
     1
102
RTVSPropertyOp16
 70
     1
102
RTVSPropertyOp17
 70
     1
102
RTVSPropertyOp18
 70
     1
102
RTVSPropertyOp19
 70
     1
102
RTVSPropertyOp20
 70
     1
102
RTVSPropertyOp21
 70
     1
102
RTVSPropertyOp22
 70
     1
102
RTVSPropertyOp23
 70
     1
102
RTVSPropertyOp24
 70
     1
102
RTVSPropertyOp25
 70
     1
102
RTVSPropertyOp26
 70
     1
102
RTVSPropertyOp27
 70
     1
  0
XRECORD
  5
44B
102
{ACAD_REACTORS
330
44A
102
}
330
44A
100
AcDbXrecord
280
     1
102
RTVSPropertyOp0
 70
     1
102
RTVSPropertyOp1
 70
     1
102
RTVSPropertyOp2
 70
     1
102
RTVSPropertyOp3
 70
     1
102
RTVSPropertyOp4
 70
     1
102
RTVSPropertyOp5
 70
     1
102
RTVSPropertyOp6
 70
     1
102
RTVSPropertyOp7
 70
     1
102
RTVSPropertyOp8
 70
     1
102
RTVSPropertyOp9
 70
     1
102
RTVSPropertyOp10
 70
     1
102
RTVSPropertyOp11
 70
     1
102
RTVSPropertyOp12
 70
     1
102
RTVSPropertyOp13
 70
     1
102
RTVSPropertyOp14
 70
     1
102
RTVSPropertyOp15
 70
     1
102
RTVSPropertyOp16
 70
     1
102
RTVSPropertyOp17
 70
     1
102
RTVSPropertyOp18
 70
     1
102
RTVSPropertyOp19
 70
     1
102
RTVSPropertyOp20
 70
     1
102
RTVSPropertyOp21
 70
     1
102
RTVSPropertyOp22
 70
     1
102
RTVSPropertyOp23
 70
     1
102
RTVSPropertyOp24
 70
     1
102
RTVSPropertyOp25
 70
     1
102
RTVSPropertyOp26
 70
     1
102
RTVSPropertyOp27
 70
     1
  0
XRECORD
  5
44F
102
{ACAD_REACTORS
330
44E
102
}
330
44E
100
AcDbXrecord
280
     1
102
RTVSPropertyOp0
 70
     1
102
RTVSPropertyOp1
 70
     1
102
RTVSPropertyOp2
 70
     1
102
RTVSPropertyOp3
 70
     1
102
RTVSPropertyOp4
 70
     1
102
RTVSPropertyOp5
 70
     1
102
RTVSPropertyOp6
 70
     1
102
RTVSPropertyOp7
 70
     1
102
RTVSPropertyOp8
 70
     1
102
RTVSPropertyOp9
 70
     1
102
RTVSPropertyOp10
 70
     1
102
RTVSPropertyOp11
 70
     1
102
RTVSPropertyOp12
 70
     1
102
RTVSPropertyOp13
 70
     1
102
RTVSPropertyOp14
 70
     1
102
RTVSPropertyOp15
 70
     1
102
RTVSPropertyOp16
 70
     1
102
RTVSPropertyOp17
 70
     1
102
RTVSPropertyOp18
 70
     1
102
RTVSPropertyOp19
 70
     1
102
RTVSPropertyOp20
 70
     1
102
RTVSPropertyOp21
 70
     1
102
RTVSPropertyOp22
 70
     1
102
RTVSPropertyOp23
 70
     1
102
RTVSPropertyOp24
 70
     1
102
RTVSPropertyOp25
 70
     1
102
RTVSPropertyOp26
 70
     1
102
RTVSPropertyOp27
 70
     1
  0
XRECORD
  5
45F
102
{ACAD_REACTORS
330
45E
102
}
330
45E
100
AcDbXrecord
280
     1
102
RTVSPropertyOp0
 70
     0
102
RTVSPropertyOp1
 70
     0
102
RTVSPropertyOp2
 70
     0
102
RTVSPropertyOp3
 70
     0
102
RTVSPropertyOp4
 70
     0
102
RTVSPropertyOp5
 70
     0
102
RTVSPropertyOp6
 70
     0
102
RTVSPropertyOp7
 70
     0
102
RTVSPropertyOp8
 70
     0
102
RTVSPropertyOp9
 70
     0
102
RTVSPropertyOp10
 70
     0
102
RTVSPropertyOp11
 70
     0
102
RTVSPropertyOp12
 70
     0
102
RTVSPropertyOp13
 70
     0
102
RTVSPropertyOp14
 70
     2
102
RTVSPropertyOp15
 70
     0
102
RTVSPropertyOp16
 70
     0
102
RTVSPropertyOp17
 70
     0
102
RTVSPropertyOp18
 70
     0
102
RTVSPropertyOp19
 70
     0
102
RTVSPropertyOp20
 70
     0
102
RTVSPropertyOp21
 70
     0
102
RTVSPropertyOp22
 70
     0
102
RTVSPropertyOp23
 70
     0
102
RTVSPropertyOp24
 70
     0
102
RTVSPropertyOp25
 70
     0
102
RTVSPropertyOp26
 70
     0
102
RTVSPropertyOp27
 70
     0
  0
XRECORD
  5
457
102
{ACAD_REACTORS
330
456
102
}
330
456
100
AcDbXrecord
280
     1
102
RTVSPropertyOp0
 70
     1
102
RTVSPropertyOp1
 70
     1
102
RTVSPropertyOp2
 70
     1
102
RTVSPropertyOp3
 70
     1
102
RTVSPropertyOp4
 70
     1
102
RTVSPropertyOp5
 70
     1
102
RTVSPropertyOp6
 70
     1
102
RTVSPropertyOp7
 70
     1
102
RTVSPropertyOp8
 70
     1
102
RTVSPropertyOp9
 70
     1
102
RTVSPropertyOp10
 70
     1
102
RTVSPropertyOp11
 70
     1
102
RTVSPropertyOp12
 70
     1
102
RTVSPropertyOp13
 70
     1
102
RTVSPropertyOp14
 70
     1
102
RTVSPropertyOp15
 70
     1
102
RTVSPropertyOp16
 70
     1
102
RTVSPropertyOp17
 70
     1
102
RTVSPropertyOp18
 70
     1
102
RTVSPropertyOp19
 70
     1
102
RTVSPropertyOp20
 70
     1
102
RTVSPropertyOp21
 70
     1
102
RTVSPropertyOp22
 70
     1
102
RTVSPropertyOp23
 70
     1
102
RTVSPropertyOp24
 70
     1
102
RTVSPropertyOp25
 70
     1
102
RTVSPropertyOp26
 70
     1
102
RTVSPropertyOp27
 70
     1
  0
XRECORD
  5
43B
102
{ACAD_REACTORS
330
43A
102
}
330
43A
100
AcDbXrecord
280
     1
102
RTVSPropertyOp0
 70
     1
102
RTVSPropertyOp1
 70
     1
102
RTVSPropertyOp2
 70
     1
102
RTVSPropertyOp3
 70
     1
102
RTVSPropertyOp4
 70
     1
102
RTVSPropertyOp5
 70
     1
102
RTVSPropertyOp6
 70
     1
102
RTVSPropertyOp7
 70
     1
102
RTVSPropertyOp8
 70
     1
102
RTVSPropertyOp9
 70
     1
102
RTVSPropertyOp10
 70
     1
102
RTVSPropertyOp11
 70
     1
102
RTVSPropertyOp12
 70
     1
102
RTVSPropertyOp13
 70
     1
102
RTVSPropertyOp14
 70
     1
102
RTVSPropertyOp15
 70
     1
102
RTVSPropertyOp16
 70
     1
102
RTVSPropertyOp17
 70
     1
102
RTVSPropertyOp18
 70
     1
102
RTVSPropertyOp19
 70
     1
102
RTVSPropertyOp20
 70
     1
102
RTVSPropertyOp21
 70
     1
102
RTVSPropertyOp22
 70
     1
102
RTVSPropertyOp23
 70
     1
102
RTVSPropertyOp24
 70
     1
102
RTVSPropertyOp25
 70
     1
102
RTVSPropertyOp26
 70
     1
102
RTVSPropertyOp27
 70
     1
  0
XRECORD
  5
43D
102
{ACAD_REACTORS
330
43C
102
}
330
43C
100
AcDbXrecord
280
     1
102
RTVSPropertyOp0
 70
     1
102
RTVSPropertyOp1
 70
     1
102
RTVSPropertyOp2
 70
     1
102
RTVSPropertyOp3
 70
     1
102
RTVSPropertyOp4
 70
     1
102
RTVSPropertyOp5
 70
     1
102
RTVSPropertyOp6
 70
     1
102
RTVSPropertyOp7
 70
     1
102
RTVSPropertyOp8
 70
     1
102
RTVSPropertyOp9
 70
     1
102
RTVSPropertyOp10
 70
     1
102
RTVSPropertyOp11
 70
     1
102
RTVSPropertyOp12
 70
     1
102
RTVSPropertyOp13
 70
     1
102
RTVSPropertyOp14
 70
     1
102
RTVSPropertyOp15
 70
     1
102
RTVSPropertyOp16
 70
     1
102
RTVSPropertyOp17
 70
     1
102
RTVSPropertyOp18
 70
     1
102
RTVSPropertyOp19
 70
     1
102
RTVSPropertyOp20
 70
     1
102
RTVSPropertyOp21
 70
     1
102
RTVSPropertyOp22
 70
     1
102
RTVSPropertyOp23
 70
     1
102
RTVSPropertyOp24
 70
     1
102
RTVSPropertyOp25
 70
     1
102
RTVSPropertyOp26
 70
     1
102
RTVSPropertyOp27
 70
     1
  0
XRECORD
  5
43F
102
{ACAD_REACTORS
330
43E
102
}
330
43E
100
AcDbXrecord
280
     1
102
RTVSPropertyOp0
 70
     1
102
RTVSPropertyOp1
 70
     1
102
RTVSPropertyOp2
 70
     1
102
RTVSPropertyOp3
 70
     1
102
RTVSPropertyOp4
 70
     1
102
RTVSPropertyOp5
 70
     1
102
RTVSPropertyOp6
 70
     1
102
RTVSPropertyOp7
 70
     1
102
RTVSPropertyOp8
 70
     1
102
RTVSPropertyOp9
 70
     1
102
RTVSPropertyOp10
 70
     1
102
RTVSPropertyOp11
 70
     1
102
RTVSPropertyOp12
 70
     1
102
RTVSPropertyOp13
 70
     1
102
RTVSPropertyOp14
 70
     1
102
RTVSPropertyOp15
 70
     1
102
RTVSPropertyOp16
 70
     1
102
RTVSPropertyOp17
 70
     1
102
RTVSPropertyOp18
 70
     1
102
RTVSPropertyOp19
 70
     1
102
RTVSPropertyOp20
 70
     1
102
RTVSPropertyOp21
 70
     1
102
RTVSPropertyOp22
 70
     1
102
RTVSPropertyOp23
 70
     1
102
RTVSPropertyOp24
 70
     1
102
RTVSPropertyOp25
 70
     1
102
RTVSPropertyOp26
 70
     1
102
RTVSPropertyOp27
 70
     1
  0
XRECORD
  5
441
102
{ACAD_REACTORS
330
440
102
}
330
440
100
AcDbXrecord
280
     1
102
RTVSPropertyOp0
 70
     1
102
RTVSPropertyOp1
 70
     1
102
RTVSPropertyOp2
 70
     1
102
RTVSPropertyOp3
 70
     1
102
RTVSPropertyOp4
 70
     1
102
RTVSPropertyOp5
 70
     1
102
RTVSPropertyOp6
 70
     1
102
RTVSPropertyOp7
 70
     1
102
RTVSPropertyOp8
 70
     1
102
RTVSPropertyOp9
 70
     1
102
RTVSPropertyOp10
 70
     1
102
RTVSPropertyOp11
 70
     1
102
RTVSPropertyOp12
 70
     1
102
RTVSPropertyOp13
 70
     1
102
RTVSPropertyOp14
 70
     1
102
RTVSPropertyOp15
 70
     1
102
RTVSPropertyOp16
 70
     1
102
RTVSPropertyOp17
 70
     1
102
RTVSPropertyOp18
 70
     1
102
RTVSPropertyOp19
 70
     1
102
RTVSPropertyOp20
 70
     1
102
RTVSPropertyOp21
 70
     1
102
RTVSPropertyOp22
 70
     1
102
RTVSPropertyOp23
 70
     1
102
RTVSPropertyOp24
 70
     1
102
RTVSPropertyOp25
 70
     1
102
RTVSPropertyOp26
 70
     1
102
RTVSPropertyOp27
 70
     1
  0
XRECORD
  5
45B
102
{ACAD_REACTORS
330
45A
102
}
330
45A
100
AcDbXrecord
280
     1
102
RTVSPropertyOp0
 70
     0
102
RTVSPropertyOp1
 70
     0
102
RTVSPropertyOp2
 70
     0
102
RTVSPropertyOp3
 70
     0
102
RTVSPropertyOp4
 70
     0
102
RTVSPropertyOp5
 70
     0
102
RTVSPropertyOp6
 70
     0
102
RTVSPropertyOp7
 70
     0
102
RTVSPropertyOp8
 70
     0
102
RTVSPropertyOp9
 70
     0
102
RTVSPropertyOp10
 70
     0
102
RTVSPropertyOp11
 70
     0
102
RTVSPropertyOp12
 70
     0
102
RTVSPropertyOp13
 70
     0
102
RTVSPropertyOp14
 70
     2
102
RTVSPropertyOp15
 70
     0
102
RTVSPropertyOp16
 70
     0
102
RTVSPropertyOp17
 70
     0
102
RTVSPropertyOp18
 70
     0
102
RTVSPropertyOp19
 70
     0
102
RTVSPropertyOp20
 70
     0
102
RTVSPropertyOp21
 70
     0
102
RTVSPropertyOp22
 70
     0
102
RTVSPropertyOp23
 70
     0
102
RTVSPropertyOp24
 70
     0
102
RTVSPropertyOp25
 70
     0
102
RTVSPropertyOp26
 70
     0
102
RTVSPropertyOp27
 70
     0
  0
XRECORD
  5
455
102
{ACAD_REACTORS
330
454
102
}
330
454
100
AcDbXrecord
280
     1
102
RTVSPropertyOp0
 70
     1
102
RTVSPropertyOp1
 70
     1
102
RTVSPropertyOp2
 70
     1
102
RTVSPropertyOp3
 70
     1
102
RTVSPropertyOp4
 70
     1
102
RTVSPropertyOp5
 70
     1
102
RTVSPropertyOp6
 70
     1
102
RTVSPropertyOp7
 70
     1
102
RTVSPropertyOp8
 70
     1
102
RTVSPropertyOp9
 70
     1
102
RTVSPropertyOp10
 70
     1
102
RTVSPropertyOp11
 70
     1
102
RTVSPropertyOp12
 70
     1
102
RTVSPropertyOp13
 70
     1
102
RTVSPropertyOp14
 70
     1
102
RTVSPropertyOp15
 70
     1
102
RTVSPropertyOp16
 70
     1
102
RTVSPropertyOp17
 70
     1
102
RTVSPropertyOp18
 70
     1
102
RTVSPropertyOp19
 70
     1
102
RTVSPropertyOp20
 70
     1
102
RTVSPropertyOp21
 70
     1
102
RTVSPropertyOp22
 70
     1
102
RTVSPropertyOp23
 70
     1
102
RTVSPropertyOp24
 70
     1
102
RTVSPropertyOp25
 70
     1
102
RTVSPropertyOp26
 70
     1
102
RTVSPropertyOp27
 70
     1
  0
XRECORD
  5
45D
102
{ACAD_REACTORS
330
45C
102
}
330
45C
100
AcDbXrecord
280
     1
102
RTVSPropertyOp0
 70
     0
102
RTVSPropertyOp1
 70
     0
102
RTVSPropertyOp2
 70
     0
102
RTVSPropertyOp3
 70
     0
102
RTVSPropertyOp4
 70
     0
102
RTVSPropertyOp5
 70
     0
102
RTVSPropertyOp6
 70
     0
102
RTVSPropertyOp7
 70
     0
102
RTVSPropertyOp8
 70
     0
102
RTVSPropertyOp9
 70
     0
102
RTVSPropertyOp10
 70
     0
102
RTVSPropertyOp11
 70
     0
102
RTVSPropertyOp12
 70
     0
102
RTVSPropertyOp13
 70
     0
102
RTVSPropertyOp14
 70
     2
102
RTVSPropertyOp15
 70
     0
102
RTVSPropertyOp16
 70
     0
102
RTVSPropertyOp17
 70
     0
102
RTVSPropertyOp18
 70
     0
102
RTVSPropertyOp19
 70
     0
102
RTVSPropertyOp20
 70
     0
102
RTVSPropertyOp21
 70
     0
102
RTVSPropertyOp22
 70
     0
102
RTVSPropertyOp23
 70
     0
102
RTVSPropertyOp24
 70
     0
102
RTVSPropertyOp25
 70
     0
102
RTVSPropertyOp26
 70
     0
102
RTVSPropertyOp27
 70
     0
  0
XRECORD
  5
44D
102
{ACAD_REACTORS
330
44C
102
}
330
44C
100
AcDbXrecord
280
     1
102
RTVSPropertyOp0
 70
     1
102
RTVSPropertyOp1
 70
     1
102
RTVSPropertyOp2
 70
     1
102
RTVSPropertyOp3
 70
     1
102
RTVSPropertyOp4
 70
     1
102
RTVSPropertyOp5
 70
     1
102
RTVSPropertyOp6
 70
     1
102
RTVSPropertyOp7
 70
     1
102
RTVSPropertyOp8
 70
     1
102
RTVSPropertyOp9
 70
     1
102
RTVSPropertyOp10
 70
     1
102
RTVSPropertyOp11
 70
     1
102
RTVSPropertyOp12
 70
     1
102
RTVSPropertyOp13
 70
     1
102
RTVSPropertyOp14
 70
     1
102
RTVSPropertyOp15
 70
     1
102
RTVSPropertyOp16
 70
     1
102
RTVSPropertyOp17
 70
     1
102
RTVSPropertyOp18
 70
     1
102
RTVSPropertyOp19
 70
     1
102
RTVSPropertyOp20
 70
     1
102
RTVSPropertyOp21
 70
     1
102
RTVSPropertyOp22
 70
     1
102
RTVSPropertyOp23
 70
     1
102
RTVSPropertyOp24
 70
     1
102
RTVSPropertyOp25
 70
     1
102
RTVSPropertyOp26
 70
     1
102
RTVSPropertyOp27
 70
     1
  0
XRECORD
  5
453
102
{ACAD_REACTORS
330
452
102
}
330
452
100
AcDbXrecord
280
     1
102
RTVSPropertyOp0
 70
     1
102
RTVSPropertyOp1
 70
     1
102
RTVSPropertyOp2
 70
     1
102
RTVSPropertyOp3
 70
     1
102
RTVSPropertyOp4
 70
     1
102
RTVSPropertyOp5
 70
     1
102
RTVSPropertyOp6
 70
     1
102
RTVSPropertyOp7
 70
     1
102
RTVSPropertyOp8
 70
     1
102
RTVSPropertyOp9
 70
     1
102
RTVSPropertyOp10
 70
     1
102
RTVSPropertyOp11
 70
     1
102
RTVSPropertyOp12
 70
     1
102
RTVSPropertyOp13
 70
     1
102
RTVSPropertyOp14
 70
     1
102
RTVSPropertyOp15
 70
     1
102
RTVSPropertyOp16
 70
     1
102
RTVSPropertyOp17
 70
     1
102
RTVSPropertyOp18
 70
     1
102
RTVSPropertyOp19
 70
     1
102
RTVSPropertyOp20
 70
     1
102
RTVSPropertyOp21
 70
     1
102
RTVSPropertyOp22
 70
     1
102
RTVSPropertyOp23
 70
     1
102
RTVSPropertyOp24
 70
     1
102
RTVSPropertyOp25
 70
     1
102
RTVSPropertyOp26
 70
     1
102
RTVSPropertyOp27
 70
     1
  0
ENDSEC
  0
EOF
