  0
SECTION
  2
HEADER
  9
$ACADVER
  1
AC1015
  9
$ACADMAINTVER
 70
    20
  9
$DWGCODEPAGE
  3
ANSI_1252
  9
$INSBASE
 10
0.0
 20
0.0
 30
0.0
  9
$EXTMIN
 10
146.9653484459833
 20
170.4959499894505
 30
0.0
  9
$EXTMAX
 10
150.3608539907496
 20
171.3491522935718
 30
0.0
  9
$LIMMIN
 10
0.0
 20
0.0
  9
$LIMMAX
 10
0.0
 20
0.0
  9
$ORTHOMODE
 70
     0
  9
$REGENMODE
 70
     1
  9
$FILLMODE
 70
     1
  9
$QTEXTMODE
 70
     0
  9
$MIRRTEXT
 70
     1
  9
$LTSCALE
 40
1.0
  9
$ATTMODE
 70
     1
  9
$TEXTSIZE
 40
0.0
  9
$TRACEWID
 40
0.05
  9
$TEXTSTYLE
  7
STANDARD
  9
$CLAYER
  8
0
  9
$CELTYPE
  6
CONTINUOUS
  9
$CECOLOR
 62
   256
  9
$CELTSCALE
 40
1.0
  9
$DISPSILH
 70
     0
  9
$DIMSCALE
 40
1.0
  9
$DIMASZ
 40
0.0
  9
$DIMEXO
 40
0.0
  9
$DIMDLI
 40
0.38
  9
$DIMRND
 40
0.0
  9
$DIMDLE
 40
0.0
  9
$DIMEXE
 40
0.18
  9
$DIMTP
 40
0.0
  9
$DIMTM
 40
0.0
  9
$DIMTXT
 40
6.349999999999999
  9
$DIMCEN
 40
0.09
  9
$DIMTSZ
 40
0.0
  9
$DIMTOL
 70
     0
  9
$DIMLIM
 70
     0
  9
$DIMTIH
 70
     1
  9
$DIMTOH
 70
     1
  9
$DIMSE1
 70
     0
  9
$DIMSE2
 70
     0
  9
$DIMTAD
 70
     0
  9
$DIMZIN
 70
     0
  9
$DIMBLK
  1

  9
$DIMASO
 70
     1
  9
$DIMSHO
 70
     1
  9
$DIMPOST
  1

  9
$DIMAPOST
  1

  9
$DIMALT
 70
     0
  9
$DIMALTD
 70
     2
  9
$DIMALTF
 40
0.0394
  9
$DIMLFAC
 40
10.0
  9
$DIMTOFL
 70
     0
  9
$DIMTVP
 40
0.0
  9
$DIMTIX
 70
     0
  9
$DIMSOXD
 70
     0
  9
$DIMSAH
 70
     0
  9
$DIMBLK1
  1

  9
$DIMBLK2
  1

  9
$DIMSTYLE
  2
STANDARD
  9
$DIMCLRD
 70
     0
  9
$DIMCLRE
 70
     0
  9
$DIMCLRT
 70
     0
  9
$DIMTFAC
 40
1.0
  9
$DIMGAP
 40
0.0
  9
$DIMJUST
 70
     0
  9
$DIMSD1
 70
     0
  9
$DIMSD2
 70
     0
  9
$DIMTOLJ
 70
     1
  9
$DIMTZIN
 70
     0
  9
$DIMALTZ
 70
     0
  9
$DIMALTTZ
 70
     0
  9
$DIMUPT
 70
     0
  9
$DIMDEC
 70
     4
  9
$DIMTDEC
 70
     4
  9
$DIMALTU
 70
     2
  9
$DIMALTTD
 70
     2
  9
$DIMTXSTY
  7
STANDARD
  9
$DIMAUNIT
 70
     0
  9
$DIMADEC
 70
     0
  9
$DIMALTRND
 40
0.0
  9
$DIMAZIN
 70
     0
  9
$DIMDSEP
 70
    46
  9
$DIMATFIT
 70
     3
  9
$DIMFRAC
 70
     0
  9
$DIMLDRBLK
  1

  9
$DIMLUNIT
 70
     2
  9
$DIMLWD
 70
    -2
  9
$DIMLWE
 70
    -2
  9
$DIMTMOVE
 70
     0
  9
$LUNITS
 70
     2
  9
$LUPREC
 70
     2
  9
$SKETCHINC
 40
0.1
  9
$FILLETRAD
 40
0.0
  9
$AUNITS
 70
     0
  9
$AUPREC
 70
     2
  9
$MENU
  1
acad
  9
$ELEVATION
 40
0.0
  9
$PELEVATION
 40
0.0
  9
$THICKNESS
 40
0.0
  9
$LIMCHECK
 70
     0
  9
$CHAMFERA
 40
0.0
  9
$CHAMFERB
 40
0.0
  9
$CHAMFERC
 40
0.0
  9
$CHAMFERD
 40
0.0
  9
$SKPOLY
 70
     0
  9
$TDCREATE
 40
2444972.041666667
  9
$TDUCREATE
 40
2444972.000000000
  9
$TDUPDATE
 40
2456147.427882303
  9
$TDUUPDATE
 40
2456147.386215637
  9
$TDINDWG
 40
0.0085152662
  9
$TDUSRTIMER
 40
0.0085152662
  9
$USRTIMER
 70
     1
  9
$ANGBASE
 50
0.0
  9
$ANGDIR
 70
     0
  9
$PDMODE
 70
     0
  9
$PDSIZE
 40
-1.0
  9
$PLINEWID
 40
0.0
  9
$SPLFRAME
 70
     0
  9
$SPLINETYPE
 70
     6
  9
$SPLINESEGS
 70
     8
  9
$HANDSEED
  5
D2B
  9
$SURFTAB1
 70
     6
  9
$SURFTAB2
 70
     6
  9
$SURFTYPE
 70
     6
  9
$SURFU
 70
     6
  9
$SURFV
 70
     6
  9
$UCSBASE
  2

  9
$UCSNAME
  2

  9
$UCSORG
 10
0.0
 20
0.0
 30
0.0
  9
$UCSXDIR
 10
1.0
 20
0.0
 30
0.0
  9
$UCSYDIR
 10
0.0
 20
1.0
 30
0.0
  9
$UCSORTHOREF
  2

  9
$UCSORTHOVIEW
 70
     0
  9
$UCSORGTOP
 10
0.0
 20
0.0
 30
0.0
  9
$UCSORGBOTTOM
 10
0.0
 20
0.0
 30
0.0
  9
$UCSORGLEFT
 10
0.0
 20
0.0
 30
0.0
  9
$UCSORGRIGHT
 10
0.0
 20
0.0
 30
0.0
  9
$UCSORGFRONT
 10
0.0
 20
0.0
 30
0.0
  9
$UCSORGBACK
 10
0.0
 20
0.0
 30
0.0
  9
$PUCSBASE
  2

  9
$PUCSNAME
  2

  9
$PUCSORG
 10
0.0
 20
0.0
 30
0.0
  9
$PUCSXDIR
 10
1.0
 20
0.0
 30
0.0
  9
$PUCSYDIR
 10
0.0
 20
1.0
 30
0.0
  9
$PUCSORTHOREF
  2

  9
$PUCSORTHOVIEW
 70
     0
  9
$PUCSORGTOP
 10
0.0
 20
0.0
 30
0.0
  9
$PUCSORGBOTTOM
 10
0.0
 20
0.0
 30
0.0
  9
$PUCSORGLEFT
 10
0.0
 20
0.0
 30
0.0
  9
$PUCSORGRIGHT
 10
0.0
 20
0.0
 30
0.0
  9
$PUCSORGFRONT
 10
0.0
 20
0.0
 30
0.0
  9
$PUCSORGBACK
 10
0.0
 20
0.0
 30
0.0
  9
$USERI1
 70
     0
  9
$USERI2
 70
     0
  9
$USERI3
 70
     0
  9
$USERI4
 70
     0
  9
$USERI5
 70
     0
  9
$USERR1
 40
0.0
  9
$USERR2
 40
0.0
  9
$USERR3
 40
0.0
  9
$USERR4
 40
0.0
  9
$USERR5
 40
0.0
  9
$WORLDVIEW
 70
     1
  9
$SHADEDGE
 70
     3
  9
$SHADEDIF
 70
    70
  9
$TILEMODE
 70
     1
  9
$MAXACTVP
 70
    16
  9
$PINSBASE
 10
0.0
 20
0.0
 30
0.0
  9
$PLIMCHECK
 70
     0
  9
$PEXTMIN
 10
1.000000000000000E+20
 20
1.000000000000000E+20
 30
1.000000000000000E+20
  9
$PEXTMAX
 10
-1.000000000000000E+20
 20
-1.000000000000000E+20
 30
-1.000000000000000E+20
  9
$PLIMMIN
 10
0.0
 20
0.0
  9
$PLIMMAX
 10
12.0
 20
9.0
  9
$UNITMODE
 70
     0
  9
$VISRETAIN
 70
     0
  9
$PLINEGEN
 70
     1
  9
$PSLTSCALE
 70
     1
  9
$TREEDEPTH
 70
  3020
  9
$CMLSTYLE
  2
STANDARD
  9
$CMLJUST
 70
     0
  9
$CMLSCALE
 40
1.0
  9
$PROXYGRAPHICS
 70
     1
  9
$MEASUREMENT
 70
     0
  9
$CELWEIGHT
370
    -1
  9
$ENDCAPS
280
     0
  9
$JOINSTYLE
280
     0
  9
$LWDISPLAY
290
     0
  9
$INSUNITS
 70
     0
  9
$HYPERLINKBASE
  1

  9
$STYLESHEET
  1

  9
$XEDIT
290
     1
  9
$CEPSNTYPE
380
     0
  9
$PSTYLEMODE
290
     1
  9
$FINGERPRINTGUID
  2
{1A5DF76E-893C-4E83-8341-CE1DB2A7500C}
  9
$VERSIONGUID
  2
{9805101C-370F-4425-AAF5-2F5195D5AFBC}
  9
$EXTNAMES
290
     1
  9
$PSVPSCALE
 40
0.0
  9
$OLESTARTUP
290
     0
  0
ENDSEC
  0
SECTION
  2
CLASSES
  0
CLASS
  1
IMAGE
  2
AcDbRasterImage
  3
ISM
 90
    34943
280
     0
281
     1
  0
CLASS
  1
DICTIONARYVAR
  2
AcDbDictionaryVar
  3
ObjectDBX Classes
 90
        0
280
     0
281
     0
  0
CLASS
  1
RASTERVARIABLES
  2
AcDbRasterVariables
  3
ISM
 90
    32768
280
     0
281
     0
  0
CLASS
  1
IMAGEDEF
  2
AcDbRasterImageDef
  3
ISM
 90
    32768
280
     0
281
     0
  0
CLASS
  1
IMAGEDEF_REACTOR
  2
AcDbRasterImageDefReactor
  3
ISM
 90
    32769
280
     0
281
     0
  0
CLASS
  1
IDBUFFER
  2
AcDbIdBuffer
  3
ObjectDBX Classes
 90
    32768
280
     0
281
     0
  0
CLASS
  1
SPATIAL_FILTER
  2
AcDbSpatialFilter
  3
ObjectDBX Classes
 90
    32768
280
     0
281
     0
  0
CLASS
  1
SORTENTSTABLE
  2
AcDbSortentsTable
  3
ObjectDBX Classes
 90
        0
280
     0
281
     0
  0
CLASS
  1
LAYER_INDEX
  2
AcDbLayerIndex
  3
ObjectDBX Classes
 90
    32768
280
     0
281
     0
  0
CLASS
  1
SPATIAL_INDEX
  2
AcDbSpatialIndex
  3
ObjectDBX Classes
 90
    32768
280
     0
281
     0
  0
CLASS
  1
OBJECT_PTR
  2
CAseDLPNTableRecord
  3
ASE-LPNTableRecord
 90
    32769
280
     0
281
     0
  0
CLASS
  1
LAYOUT
  2
AcDbLayout
  3
ObjectDBX Classes
 90
        0
280
     0
281
     0
  0
CLASS
  1
PLOTSETTINGS
  2
AcDbPlotSettings
  3
ObjectDBX Classes
 90
    32768
280
     0
281
     0
  0
CLASS
  1
ACDBDICTIONARYWDFLT
  2
AcDbDictionaryWithDefault
  3
ObjectDBX Classes
 90
        0
280
     0
281
     0
  0
CLASS
  1
ACDBPLACEHOLDER
  2
AcDbPlaceHolder
  3
ObjectDBX Classes
 90
        0
280
     0
281
     0
  0
CLASS
  1
VBA_PROJECT
  2
AcDbVbaProject
  3
acad
 90
    32768
280
     0
281
     0
  0
CLASS
  1
WIPEOUT
  2
AcDbWipeout
  3
"WipeOut|Product Desc: Object Enabler for WipeOut entity^I^I^I^I^I^I|Company: Autodesk, Inc.^I^I^I^I^I^I|WEB Address: www.autodesk.com"
 90
    32895
280
     0
281
     1
  0
CLASS
  1
WIPEOUTVARIABLES
  2
AcDbWipeoutVariables
  3
"WipeOut|Product Desc:     WipeOut Dbx Application|Company:          Autodesk, Inc.|WEB Address:      www.autodesk.com"
 90
    32768
280
     0
281
     0
  0
CLASS
  1
RTEXT
  2
RText
  3
RText|AutoCAD Express Tool|expresstools@autodesk.com
 90
    33791
280
     0
281
     1
  0
CLASS
  1
ARCALIGNEDTEXT
  2
AcDbArcAlignedText
  3
ATEXT|AutoCAD Express Tool|expresstools@autodesk.com
 90
    32768
280
     0
281
     1
  0
CLASS
  1
TABLESTYLE
  2
AcDbTableStyle
  3
ObjectDBX Classes
 90
     4095
280
     0
281
     0
  0
CLASS
  1
MATERIAL
  2
AcDbMaterial
  3
ObjectDBX Classes
 90
     1153
280
     0
281
     0
  0
CLASS
  1
VISUALSTYLE
  2
AcDbVisualStyle
  3
ObjectDBX Classes
 90
     4095
280
     0
281
     0
  0
CLASS
  1
SCALE
  2
AcDbScale
  3
ObjectDBX Classes
 90
     1153
280
     0
281
     0
  0
CLASS
  1
MLEADERSTYLE
  2
AcDbMLeaderStyle
  3
ACDB_MLEADERSTYLE_CLASS
 90
     4095
280
     0
281
     0
  0
CLASS
  1
CELLSTYLEMAP
  2
AcDbCellStyleMap
  3
ObjectDBX Classes
 90
     1152
280
     0
281
     0
  0
ENDSEC
  0
SECTION
  2
TABLES
  0
TABLE
  2
VPORT
  5
7
330
0
100
AcDbSymbolTable
 70
     1
  0
VPORT
  5
C92
330
7
100
AcDbSymbolTableRecord
100
AcDbViewportTableRecord
  2
*Active
 70
     0
 10
0.0
 20
0.0
 11
1.0
 21
1.0
 12
148.7269922385419
 22
170.9225511415112
 13
0.0
 23
0.0
 14
1.0
 24
1.0
 15
0.0
 25
0.0
 16
0.0
 26
0.0
 36
1.0
 17
0.0
 27
0.0
 37
0.0
 40
2.149050132557411
 41
1.645464025026068
 42
50.0
 43
0.0
 44
0.0
 50
0.0
 51
0.0
 71
     0
 72
  2000
 73
     1
 74
     1
 75
     0
 76
     0
 77
     0
 78
     0
281
     0
 65
     1
110
0.0
120
0.0
130
0.0
111
1.0
121
0.0
131
0.0
112
0.0
122
1.0
132
0.0
 79
     0
146
0.0
  0
ENDTAB
  0
TABLE
  2
LTYPE
  5
4
330
0
100
AcDbSymbolTable
 70
     6
  0
LTYPE
  5
11
330
4
100
AcDbSymbolTableRecord
100
AcDbLinetypeTableRecord
  2
BYBLOCK
 70
     0
  3

 72
    65
 73
     0
 40
0.0
  0
LTYPE
  5
12
330
4
100
AcDbSymbolTableRecord
100
AcDbLinetypeTableRecord
  2
BYLAYER
 70
     0
  3

 72
    65
 73
     0
 40
0.0
  0
LTYPE
  5
13
330
4
100
AcDbSymbolTableRecord
100
AcDbLinetypeTableRecord
  2
CONTINUOUS
 70
     0
  3
Solid line
 72
    65
 73
     0
 40
0.0
  0
LTYPE
  5
1D
330
4
100
AcDbSymbolTableRecord
100
AcDbLinetypeTableRecord
  2
HIDDEN
 70
     0
  3
Hidden __ __ __ __ __ __ __ __ __ __ __ __ __ __
 72
    65
 73
     2
 40
1.905
 49
1.27
 74
     0
 49
-0.635
 74
     0
  0
LTYPE
  5
1E
330
4
100
AcDbSymbolTableRecord
100
AcDbLinetypeTableRecord
  2
PHANTOM
 70
     0
  3
Phantom ______  __  __  ______  __  __  ______
 72
    65
 73
     6
 40
12.7
 49
6.349999999999999
 74
     0
 49
-1.27
 74
     0
 49
1.27
 74
     0
 49
-1.27
 74
     0
 49
1.27
 74
     0
 49
-1.27
 74
     0
  0
LTYPE
  5
1F
330
4
100
AcDbSymbolTableRecord
100
AcDbLinetypeTableRecord
  2
CENTER
 70
     0
  3
Center ____ _ ____ _ ____ _ ____ _ ____ _ ____
 72
    65
 73
     4
 40
10.16
 49
6.349999999999999
 74
     0
 49
-1.27
 74
     0
 49
1.27
 74
     0
 49
-1.27
 74
     0
  0
LTYPE
  5
20
330
4
100
AcDbSymbolTableRecord
100
AcDbLinetypeTableRecord
  2
CENTERX2
 70
     0
  3
Center (2x) ________  __  ________  __  _____
 72
    65
 73
     4
 40
20.32
 49
12.7
 74
     0
 49
-2.54
 74
     0
 49
2.54
 74
     0
 49
-2.54
 74
     0
  0
LTYPE
  5
21
330
4
100
AcDbSymbolTableRecord
100
AcDbLinetypeTableRecord
  2
DOT2
 70
     0
  3
Dot (.5x) ........................................
 72
    65
 73
     2
 40
0.635
 49
0.0
 74
     0
 49
-0.635
 74
     0
  0
ENDTAB
  0
TABLE
  2
LAYER
  5
2
330
0
100
AcDbSymbolTable
 70
     4
  0
LAYER
  5
14
102
{ACAD_XDICTIONARY
360
CED
102
}
330
2
100
AcDbSymbolTableRecord
100
AcDbLayerTableRecord
  2
0
 70
     0
 62
     7
  6
CONTINUOUS
370
    -3
390
C59
  0
LAYER
  5
23
330
2
100
AcDbSymbolTableRecord
100
AcDbLayerTableRecord
  2
DEFPOINTS
 70
     0
 62
     7
  6
CONTINUOUS
290
     0
370
    -3
390
C59
  0
LAYER
  5
24
102
{ACAD_XDICTIONARY
360
CEF
102
}
330
2
100
AcDbSymbolTableRecord
100
AcDbLayerTableRecord
  2
FORMAT
 70
     0
 62
     7
  6
CONTINUOUS
370
    -3
390
C59
  0
LAYER
  5
C64
102
{ACAD_XDICTIONARY
360
CF1
102
}
330
2
100
AcDbSymbolTableRecord
100
AcDbLayerTableRecord
  2
sanindusa
 70
     0
 62
     3
  6
CONTINUOUS
370
    -3
390
C59
  0
ENDTAB
  0
TABLE
  2
STYLE
  5
3
330
0
100
AcDbSymbolTable
 70
     2
  0
STYLE
  5
17
330
3
100
AcDbSymbolTableRecord
100
AcDbTextStyleTableRecord
  2
STANDARD
 70
     0
 40
0.0
 41
1.0
 50
0.0
 71
     0
 42
0.0
  3
txt
  4

  0
STYLE
  5
272
330
3
100
AcDbSymbolTableRecord
100
AcDbTextStyleTableRecord
  2
SLDTEXTSTYLE0
 70
     0
 40
0.0
 41
0.75
 50
0.0
 71
     0
 42
0.0
  3
TXT
  4

  0
ENDTAB
  0
TABLE
  2
VIEW
  5
5
330
0
100
AcDbSymbolTable
 70
     0
  0
ENDTAB
  0
TABLE
  2
UCS
  5
6
330
0
100
AcDbSymbolTable
 70
     0
  0
ENDTAB
  0
TABLE
  2
APPID
  5
8
330
0
100
AcDbSymbolTable
 70
     4
  0
APPID
  5
16
330
8
100
AcDbSymbolTableRecord
100
AcDbRegAppTableRecord
  2
ACAD
 70
     0
  0
APPID
  5
C66
330
8
100
AcDbSymbolTableRecord
100
AcDbRegAppTableRecord
  2
ACAD_EXEMPT_FROM_CAD_STANDARDS
 70
     0
  0
APPID
  5
C6E
330
8
100
AcDbSymbolTableRecord
100
AcDbRegAppTableRecord
  2
DCO15
 70
     0
  0
APPID
  5
D2A
330
8
100
AcDbSymbolTableRecord
100
AcDbRegAppTableRecord
  2
ACAD_MLEADERVER
 70
     0
  0
ENDTAB
  0
TABLE
  2
DIMSTYLE
  5
9
330
0
100
AcDbSymbolTable
 70
     1
100
AcDbDimStyleTable
 71
     1
340
18
  0
DIMSTYLE
105
18
330
9
100
AcDbSymbolTableRecord
100
AcDbDimStyleTableRecord
  2
STANDARD
 70
     0
340
17
  0
ENDTAB
  0
TABLE
  2
BLOCK_RECORD
  5
1
330
0
100
AcDbSymbolTable
 70
     0
  0
BLOCK_RECORD
  5
A
102
{ACAD_XDICTIONARY
360
C79
102
}
330
1
100
AcDbSymbolTableRecord
100
AcDbBlockTableRecord
  2
*MODEL_SPACE
340
C60
  0
BLOCK_RECORD
  5
B
330
1
100
AcDbSymbolTableRecord
100
AcDbBlockTableRecord
  2
*PAPER_SPACE
340
C61
  0
ENDTAB
  0
ENDSEC
  0
SECTION
  2
BLOCKS
  0
BLOCK
  5
D
330
A
100
AcDbEntity
  8
0
100
AcDbBlockBegin
  2
*MODEL_SPACE
 70
     0
 10
0.0
 20
0.0
 30
0.0
  3
*MODEL_SPACE
  1

  0
ENDBLK
  5
E
330
A
100
AcDbEntity
  8
0
100
AcDbBlockEnd
  0
BLOCK
  5
F
330
B
100
AcDbEntity
 67
     1
  8
0
100
AcDbBlockBegin
  2
*PAPER_SPACE
 70
     0
 10
0.0
 20
0.0
 30
0.0
  3
*PAPER_SPACE
  1

  0
ENDBLK
  5
10
330
B
100
AcDbEntity
 67
     1
  8
0
100
AcDbBlockEnd
  0
ENDSEC
  0
SECTION
  2
ENTITIES
  0
LINE
  5
92
330
A
100
AcDbEntity
  8
sanindusa
100
AcDbLine
 10
148.043179519954
 20
170.4959499894505
 30
0.0
 11
148.2362822556269
 21
170.4959499894511
 31
0.0
  0
LINE
  5
AA
330
A
100
AcDbEntity
  8
sanindusa
100
AcDbLine
 10
148.0333118159895
 20
171.1906522935714
 30
0.0
 11
148.0392494112217
 21
170.4979328498347
 31
0.0
  0
LINE
  5
AB
330
A
100
AcDbEntity
  8
sanindusa
100
AcDbLine
 10
148.2402123643679
 20
170.4979328498344
 30
0.0
 11
148.2461499596002
 21
171.1906522935714
 31
0.0
  0
LWPOLYLINE
  5
AD
330
A
100
AcDbEntity
  8
sanindusa
100
AcDbPolyline
 90
        9
 70
   128
 43
0.0
 10
148.2402123643679
 20
170.4979328498344
 10
148.2401710337103
 20
170.4975451107477
 10
148.2400552633367
 20
170.4971727621474
 10
148.2398694539783
 20
170.4968299579666
 10
148.2396206687293
 20
170.4965297290788
 10
148.2393183645603
 20
170.4962834879601
 10
148.2389740328345
 20
170.4961005948723
 10
148.2386007624911
 20
170.4959880020545
 10
148.2382127424548
 20
170.495949989451
  0
LINE
  5
B8
330
A
100
AcDbEntity
  8
sanindusa
100
AcDbLine
 10
148.2362822556269
 20
170.4959499894511
 30
0.0
 11
148.2382127424548
 21
170.495949989451
 31
0.0
  0
LWPOLYLINE
  5
B9
330
A
100
AcDbEntity
  8
sanindusa
100
AcDbPolyline
 90
        9
 70
   128
 43
0.0
 10
148.0412490332047
 20
170.4959499894511
 10
148.0408610131982
 20
170.4959880020349
 10
148.0404877428355
 20
170.4961005948392
 10
148.0401434110896
 20
170.49628348792
 10
148.0398411069013
 20
170.496529729038
 10
148.0395923216354
 20
170.4968299579307
 10
148.0394065122639
 20
170.4971727621208
 10
148.039290741882
 20
170.4975451107337
 10
148.0392494112217
 20
170.4979328498347
  0
LINE
  5
C4
330
A
100
AcDbEntity
  8
sanindusa
100
AcDbLine
 10
148.0412490332047
 20
170.4959499894511
 30
0.0
 11
148.043179519954
 21
170.4959499894505
 31
0.0
  0
LWPOLYLINE
  5
C5
330
A
100
AcDbEntity
  8
sanindusa
100
AcDbPolyline
 90
       27
 70
   128
 43
0.0
 10
148.1395212426816
 20
171.3265104881304
 10
148.1216704688228
 20
171.3265000882931
 10
148.1039013710549
 20
171.3264690702477
 10
148.0862138132181
 20
171.3264178089154
 10
148.0686083936449
 20
171.3263468438884
 10
148.0510864908569
 20
171.3262569176827
 10
148.0337046310072
 20
171.326149384638
 10
148.0167592980627
 20
171.3260279333411
 10
147.9975863235208
 20
171.3258723722738
 10
147.979047759028
 20
171.3257059795299
 10
147.9611432165124
 20
171.3255334165232
 10
147.943882773065
 20
171.3253598120689
 10
147.9274682219791
 20
171.3251926897103
 10
147.9120129763991
 20
171.3250389407297
 10
147.8975110164934
 20
171.3249043223447
 10
147.8839901435679
 20
171.3247953020345
 10
147.8716157190122
 20
171.3247191945204
 10
147.8604064907744
 20
171.3246815395393
 10
147.850357500099
 20
171.3246876554559
 10
147.8414796684255
 20
171.3247431395051
 10
147.8348847807698
 20
171.3248334026816
 10
147.8292660243961
 20
171.3249649211974
 10
147.8246117955773
 20
171.3251396723798
 10
147.8209197584446
 20
171.325359702423
 10
147.8181965663111
 20
171.3256271364676
 10
147.8164579660497
 20
171.3259441828549
 10
147.8157304877615
 20
171.3263107980785
  0
LWPOLYLINE
  5
122
330
A
100
AcDbEntity
  8
sanindusa
100
AcDbPolyline
 90
       28
 70
   128
 43
0.0
 10
148.4633119976017
 20
171.3263107980785
 10
148.4625845193135
 20
171.3259441828549
 10
148.4608459190521
 20
171.3256271364676
 10
148.4581227269187
 20
171.325359702423
 10
148.4544306897859
 20
171.3251396723798
 10
148.4497764609671
 20
171.3249649211974
 10
148.4441577045934
 20
171.3248334026816
 10
148.4375628169377
 20
171.3247431395051
 10
148.4286849852638
 20
171.3246876554563
 10
148.4186359945888
 20
171.3246815395393
 10
148.4074267663513
 20
171.3247191945204
 10
148.3950523417952
 20
171.3247953020345
 10
148.3815314688699
 20
171.3249043223447
 10
148.3670295089642
 20
171.3250389407297
 10
148.3538406075343
 20
171.3251697758571
 10
148.3399483092224
 20
171.3253110248331
 10
148.3253769139321
 20
171.3254588189783
 10
148.3103038447733
 20
171.3256078111857
 10
148.2947625495072
 20
171.325754361556
 10
148.2787561158976
 20
171.3258953623975
 10
148.2622831873005
 20
171.3260279333417
 10
148.245337854356
 20
171.326149384638
 10
148.2279559945066
 20
171.3262569176827
 10
148.2104340917183
 20
171.3263468438884
 10
148.1928286721446
 20
171.3264178089154
 10
148.1751411143083
 20
171.3264690702477
 10
148.1573720165405
 20
171.3265000882931
 10
148.1395212426816
 20
171.3265104881304
  0
LWPOLYLINE
  5
17C
330
A
100
AcDbEntity
  8
sanindusa
100
AcDbPolyline
 90
        3
 70
   128
 43
0.0
 10
147.8527613237796
 20
171.3318895978713
 10
147.8529777698224
 20
171.3317047104454
 10
147.8532666723092
 20
171.3314265909758
  0
LINE
  5
181
330
A
100
AcDbEntity
  8
sanindusa
100
AcDbLine
 10
147.8532666722806
 20
171.3314265909724
 30
0.0
 11
147.8535327513136
 21
171.3311553875568
 31
0.0
  0
LINE
  5
182
330
A
100
AcDbEntity
  8
sanindusa
100
AcDbLine
 10
147.8535327513136
 20
171.3311553875568
 30
0.0
 11
147.8535389609917
 21
171.3311486024753
 31
0.0
  0
LWPOLYLINE
  5
183
330
A
100
AcDbEntity
  8
sanindusa
100
AcDbPolyline
 90
       25
 70
   128
 43
0.0
 10
147.8535389609836
 20
171.3311486024844
 10
147.8544867007417
 20
171.3307865964522
 10
147.8566283564222
 20
171.3304777443473
 10
147.8599342136934
 20
171.3302184757035
 10
147.8643877155437
 20
171.3300051373241
 10
147.8699954498648
 20
171.3298352481669
 10
147.8767393040093
 20
171.3297079119671
 10
147.884520891378
 20
171.329621896936
 10
147.8933237725361
 20
171.329573531422
 10
147.9031453119719
 20
171.3295589406745
 10
147.91399524296
 20
171.3295743518022
 10
147.9258668240499
 20
171.3296159642366
 10
147.938570423349
 20
171.3296788163967
 10
147.9520558660476
 20
171.329757880801
 10
147.9663207849145
 20
171.3298489551359
 10
147.9813720906111
 20
171.3299479857186
 10
147.9972234893943
 20
171.3300510900345
 10
148.013661840861
 20
171.3301530578485
 10
148.0305449064082
 20
171.330249601537
 10
148.0478678518181
 20
171.3303372962961
 10
148.0656316488555
 20
171.3304131068699
 10
148.0838427569221
 20
171.3304742134763
 10
148.1023469868393
 20
171.3305185352667
 10
148.1209071020778
 20
171.3305459200641
 10
148.1395212430839
 20
171.3305573830072
  0
LWPOLYLINE
  5
19E
330
A
100
AcDbEntity
  8
sanindusa
100
AcDbPolyline
 90
       25
 70
   128
 43
0.0
 10
148.1395212422794
 20
171.3305573830072
 10
148.1581353832854
 20
171.3305459200641
 10
148.176695498524
 20
171.3305185352667
 10
148.1951997284411
 20
171.3304742134763
 10
148.2134108365073
 20
171.3304131068707
 10
148.2311746335452
 20
171.3303372962961
 10
148.2484975789547
 20
171.330249601537
 10
148.2653806445022
 20
171.3301530578485
 10
148.281818995969
 20
171.3300510900345
 10
148.2976703947518
 20
171.3299479857186
 10
148.3127217004487
 20
171.3298489551359
 10
148.3269866193157
 20
171.329757880801
 10
148.3404720620142
 20
171.3296788163967
 10
148.3531756613133
 20
171.3296159642366
 10
148.3650472424033
 20
171.3295743518022
 10
148.3758971733913
 20
171.3295589406745
 10
148.3857187128271
 20
171.329573531422
 10
148.3945215939852
 20
171.329621896936
 10
148.402303181354
 20
171.3297079119671
 10
148.409047035498
 20
171.3298352481669
 10
148.4146547698202
 20
171.3300051373241
 10
148.4191082716698
 20
171.3302184757035
 10
148.4224141289411
 20
171.3304777443473
 10
148.4245557846219
 20
171.3307865964522
 10
148.4255035243796
 20
171.3311486024844
  0
LINE
  5
1B9
330
A
100
AcDbEntity
  8
sanindusa
100
AcDbLine
 10
148.4255035243716
 20
171.3311486024753
 30
0.0
 11
148.4255097340497
 21
171.3311553875568
 31
0.0
  0
LINE
  5
1BA
330
A
100
AcDbEntity
  8
sanindusa
100
AcDbLine
 10
148.4255097340497
 20
171.3311553875568
 30
0.0
 11
148.4257758130826
 21
171.3314265909724
 31
0.0
  0
LWPOLYLINE
  5
1BB
330
A
100
AcDbEntity
  8
sanindusa
100
AcDbPolyline
 90
        3
 70
   128
 43
0.0
 10
148.4257758130826
 20
171.3314265909724
 10
148.4260647155694
 20
171.331704710442
 10
148.4262811616122
 20
171.3318895978679
  0
ARC
  5
1C0
330
A
100
AcDbEntity
  8
sanindusa
100
AcDbCircle
 10
148.4265911990803
 20
171.3313734849851
 30
0.0
 40
0.0006020761907274
100
AcDbArc
 50
78.9721401103204
 51
120.9939279939915
  0
LINE
  5
1C1
330
A
100
AcDbEntity
  8
sanindusa
100
AcDbLine
 10
148.4267063713268
 20
171.3319644679021
 30
0.0
 11
148.4643157205916
 21
171.3271457777024
 31
0.0
  0
LWPOLYLINE
  5
1C2
330
A
100
AcDbEntity
  8
sanindusa
100
AcDbPolyline
 90
        3
 70
   128
 43
0.0
 10
148.4641794780188
 20
171.3271634337142
 10
148.4641040306654
 20
171.327173710853
 10
148.4640910201498
 20
171.3271692823069
  0
LINE
  5
1C7
330
A
100
AcDbEntity
  8
sanindusa
100
AcDbLine
 10
148.463842038256
 20
171.3270845333356
 30
0.0
 11
148.4633119975475
 21
171.3263107981308
 31
0.0
  0
LINE
  5
1C8
330
A
100
AcDbEntity
  8
sanindusa
100
AcDbLine
 10
147.8157304878147
 20
171.3263107981307
 30
0.0
 11
147.8152004471073
 21
171.3270845333356
 31
0.0
  0
LWPOLYLINE
  5
1C9
330
A
100
AcDbEntity
  8
sanindusa
100
AcDbPolyline
 90
        3
 70
   128
 43
0.0
 10
147.8149514652134
 20
171.3271692823069
 10
147.8149384546978
 20
171.327173710853
 10
147.8148630063557
 20
171.3271634335795
  0
LINE
  5
1CE
330
A
100
AcDbEntity
  8
sanindusa
100
AcDbLine
 10
147.8147267647716
 20
171.3271457777024
 30
0.0
 11
147.8523361146374
 21
171.3319644680152
 31
0.0
  0
ARC
  5
1CF
330
A
100
AcDbEntity
  8
sanindusa
100
AcDbCircle
 10
147.8524863681126
 20
171.3315727888485
 30
0.0
 40
0.0004194860861194
100
AcDbArc
 50
49.04558472312277
 51
110.9883473983911
  0
LINE
  5
1DE
330
A
100
AcDbEntity
  8
sanindusa
100
AcDbLine
 10
148.1395212430981
 20
171.1906522935714
 30
0.0
 11
148.4177585873436
 21
171.1906522935714
 31
0.0
  0
LINE
  5
1E0
330
A
100
AcDbEntity
  8
sanindusa
100
AcDbLine
 10
147.8612838980197
 20
171.1906522935714
 30
0.0
 11
148.1395212430981
 21
171.1906522935714
 31
0.0
  0
ARC
  5
1E2
330
A
100
AcDbEntity
  8
sanindusa
100
AcDbCircle
 10
147.8155361116756
 20
171.3212006151649
 30
0.0
 40
0.0060000000007396
100
AcDbArc
 50
97.7523257074869
 51
193.2026465161946
  0
ARC
  5
1EA
330
A
100
AcDbEntity
  8
sanindusa
100
AcDbCircle
 10
148.4635063736876
 20
171.3212006151648
 30
0.0
 40
0.0060000000007812
100
AcDbArc
 50
346.7973534841773
 51
82.24767429251311
  0
ARC
  5
1F2
330
A
100
AcDbEntity
  8
sanindusa
100
AcDbCircle
 10
147.9455448596196
 20
171.4427125945364
 30
0.0
 40
0.5380237693817917
100
AcDbArc
 50
332.3863515969484
 51
346.7973574515427
  0
ARC
  5
1F4
330
A
100
AcDbEntity
  8
sanindusa
100
AcDbCircle
 10
148.3335010490763
 20
171.4427138682164
 30
0.0
 40
0.5380273931334929
100
AcDbArc
 50
193.2026913365652
 51
207.6135996158857
  0
ARC
  5
1F6
330
A
100
AcDbEntity
  8
sanindusa
100
AcDbCircle
 10
148.4178536001833
 20
171.1956522935718
 30
0.0
 40
0.0050000000003941
100
AcDbArc
 50
269.9999999918578
 51
332.3861771620169
  0
LINE
  5
1F7
330
A
100
AcDbEntity
  8
sanindusa
100
AcDbLine
 10
148.4177585872819
 20
171.1906522935714
 30
0.0
 11
148.4178536018271
 21
171.1906522935714
 31
0.0
  0
ARC
  5
1F8
330
A
100
AcDbEntity
  8
sanindusa
100
AcDbCircle
 10
147.86118888518
 20
171.1956522935719
 30
0.0
 40
0.0050000000004908
100
AcDbArc
 50
207.6138228401809
 51
270.0000000065138
  0
LWPOLYLINE
  5
1FB
330
A
100
AcDbEntity
  8
sanindusa
100
AcDbPolyline
 90
        3
 70
   128
 43
0.0
 10
148.4267063679701
 20
171.3319644434131
 10
148.4262861464901
 20
171.3319999995106
 10
148.4258631661258
 20
171.3320059200132
  0
LWPOLYLINE
  5
200
330
A
100
AcDbEntity
  8
sanindusa
100
AcDbPolyline
 90
        3
 70
   128
 43
0.0
 10
147.8531793192381
 20
171.3320059200132
 10
147.8527563388739
 20
171.3319999995107
 10
147.8523361173942
 20
171.3319644434131
  0
ARC
  5
209
330
A
100
AcDbEntity
  8
sanindusa
100
AcDbCircle
 10
148.1397646591754
 20
168.9548994401747
 30
0.0
 40
2.394252865770682
100
AcDbArc
 50
90.00582508586161
 51
96.84880427457846
  0
ARC
  5
20B
330
A
100
AcDbEntity
  8
sanindusa
100
AcDbCircle
 10
148.1392792331595
 20
168.9549229379163
 30
0.0
 40
2.394229367886608
100
AcDbArc
 50
83.15116210889948
 51
89.99420851870887
  0
ARC
  5
20C
330
A
100
AcDbEntity
  8
sanindusa
100
AcDbCircle
 10
147.8532519058044
 20
171.3400803466447
 30
0.0
 40
0.0080747517126139
100
AcDbArc
 50
269.484654908553
 51
277.1050063175399
  0
ARC
  5
20D
330
A
100
AcDbEntity
  8
sanindusa
100
AcDbCircle
 10
148.4257704011316
 20
171.3397298398865
 30
0.0
 40
0.0077244758572115
100
AcDbArc
 50
262.7219427135647
 51
270.6883947207753
  0
LINE
  5
215
330
A
100
AcDbEntity
  8
sanindusa
100
AcDbLine
 10
148.4640910201498
 20
171.3271692823069
 30
0.0
 11
148.463842038256
 21
171.3270845333356
 31
0.0
  0
LINE
  5
216
330
A
100
AcDbEntity
  8
sanindusa
100
AcDbLine
 10
147.8152004471073
 20
171.3270845333356
 30
0.0
 11
147.8149514652134
 21
171.3271692823069
 31
0.0
  0
LWPOLYLINE
  5
251
330
A
100
AcDbEntity
  8
sanindusa
100
AcDbPolyline
 90
       11
 70
   128
 43
0.0
 10
148.1395212426816
 20
171.3491522935714
 10
148.1631206770883
 20
171.3489605628975
 10
148.1866428039866
 20
171.3483841452854
 10
148.2100584855581
 20
171.3474171932004
 10
148.2333681823698
 20
171.3460466914761
 10
148.2565443650486
 20
171.3442549638239
 10
148.2794643553747
 20
171.3420293804995
 10
148.3021134602933
 20
171.3393474729107
 10
148.324490229556
 20
171.3361796650958
 10
148.3465411829016
 20
171.332500449723
 10
148.361320260212
 20
171.3296258136861
  0
LWPOLYLINE
  5
25E
330
A
100
AcDbEntity
  8
sanindusa
100
AcDbPolyline
 90
       11
 70
   128
 43
0.0
 10
148.1395212426816
 20
171.3491522935714
 10
148.1159218082718
 20
171.3489605628975
 10
148.0923996813702
 20
171.3483841452854
 10
148.0689839997959
 20
171.3474171932004
 10
148.0456743029812
 20
171.3460466914761
 10
148.0224981202993
 20
171.3442549638238
 10
147.9995781299701
 20
171.3420293804993
 10
147.9769290250485
 20
171.3393474729104
 10
147.9545522557829
 20
171.3361796650954
 10
147.9325013024343
 20
171.3325004497223
 10
147.9177222251263
 20
171.329625813686
  0
LWPOLYLINE
  5
275
330
A
100
AcDbEntity
  8
sanindusa
100
AcDbPolyline
 90
       20
 70
   128
 43
0.0
 10
146.9653484459833
 20
171.1619644619627
 10
146.9653539179606
 20
171.1477354060578
 10
146.9653682842547
 20
171.1335632679744
 10
146.9653884258318
 20
171.120673853983
 10
146.9654120866524
 20
171.109066557863
 10
146.9654373581926
 20
171.0987411109004
 10
146.9654572922766
 20
171.0915274849223
 10
146.9654765716713
 20
171.0851052245602
 10
146.9654946356714
 20
171.0794744116616
 10
146.9655110634215
 20
171.0746199307499
 10
146.9655290165771
 20
171.0695594111965
 10
146.9655574835917
 20
171.0619691887818
 10
146.9655930388051
 20
171.0530924857662
 10
146.965636614524
 20
171.0429313644872
 10
146.9656914772693
 20
171.0314794531947
 10
146.9657692656045
 20
171.0187393633427
 10
146.9658689168243
 20
171.0049759165043
 10
146.9659972595881
 20
170.9899711240304
 10
146.9661596982454
 20
170.9737252379336
 10
146.9663476833756
 20
170.9574668466447
  0
LWPOLYLINE
  5
28B
330
A
100
AcDbEntity
  8
sanindusa
100
AcDbPolyline
 90
       20
 70
   128
 43
0.0
 10
147.6242917824412
 20
170.9574668358678
 10
147.6244576266927
 20
170.9716926514706
 10
147.6246034131992
 20
170.9858655505832
 10
147.6247198410991
 20
170.9987575402468
 10
147.6248115878389
 20
171.0103676624963
 10
147.624883072366
 20
171.0206966172902
 10
147.6249279065977
 20
171.0279137394215
 10
147.6249628544622
 20
171.0343417747323
 10
147.6249895921917
 20
171.0399763671891
 10
147.6250112015262
 20
171.04483219912
 10
147.6250329586854
 20
171.0498886309275
 10
147.6250641757511
 20
171.0574745635216
 10
147.6250984716288
 20
171.0663502454301
 10
147.6251346858108
 20
171.0765129465359
 10
147.6251714133886
 20
171.0879621890523
 10
147.6252069654255
 20
171.1006978202929
 10
147.6252387932125
 20
171.1144582360158
 10
147.6252652981552
 20
171.1294599666113
 10
147.6252838469749
 20
171.1457038517679
 10
147.6252908462064
 20
171.1619644606263
  0
LWPOLYLINE
  5
2A1
330
A
100
AcDbEntity
  8
sanindusa
100
AcDbPolyline
 90
        9
 70
   128
 43
0.0
 10
147.6252858799805
 20
171.1619644728038
 10
147.625271073659
 20
171.1621856129928
 10
147.6252257823527
 20
171.162404030051
 10
147.6250365180354
 20
171.1628153273312
 10
147.6246986947322
 20
171.1631693219414
 10
147.62418370903
 20
171.1634501004049
 10
147.6225034513993
 20
171.1637954182451
 10
147.6213041393056
 20
171.1638823635313
 10
147.6198443696919
 20
171.163964662669
  0
LWPOLYLINE
  5
2AC
330
A
100
AcDbEntity
  8
sanindusa
100
AcDbPolyline
 90
        7
 70
   128
 43
0.0
 10
146.9707949786292
 20
171.163964662669
 10
146.9687390679984
 20
171.1638939799967
 10
146.9671351858824
 20
171.1636923226681
 10
146.966459017993
 20
171.1634544235391
 10
146.9658985357539
 20
171.1630803458567
 10
146.9655125457634
 20
171.1625672827211
 10
146.9653534684959
 20
171.1619644728038
  0
LWPOLYLINE
  5
2B6
330
A
100
AcDbEntity
  8
sanindusa
100
AcDbPolyline
 90
       42
 70
   128
 43
0.0
 10
146.9663764056748
 20
170.9574670719317
 10
146.966560581124
 20
170.948851912274
 10
146.9671360392866
 20
170.938180925624
 10
146.9679454629491
 20
170.9286122567195
 10
146.9688935449218
 20
170.9201528230518
 10
146.9698987492666
 20
170.912782926198
 10
146.9708908908141
 20
170.9064858521635
 10
146.9719904551536
 20
170.9002769107
 10
146.9731728941131
 20
170.8942556787597
 10
146.9744818580049
 20
170.8881853967143
 10
146.9759213597332
 20
170.8820670225195
 10
146.9810977420708
 20
170.8633272938799
 10
146.987398532128
 20
170.844793935089
 10
146.9948115437165
 20
170.8265630692895
 10
147.0032591268713
 20
170.8088375908529
 10
147.0126867647235
 20
170.7917063792957
 10
147.0230891878452
 20
170.7751635584896
 10
147.0344619867779
 20
170.7592232215677
 10
147.0468006594159
 20
170.7439130332745
 10
147.0599716460698
 20
170.7294034027081
 10
147.0739410173107
 20
170.7157198065957
 10
147.0887149023968
 20
170.7028593602981
 10
147.1042973350327
 20
170.6908381794127
 10
147.1205035607068
 20
170.6798050452703
 10
147.1372826280447
 20
170.6697838028548
 10
147.1546073067261
 20
170.6607858428636
 10
147.1652586599589
 20
170.655882588894
 10
147.176101461586
 20
170.6513547991343
 10
147.1871366366279
 20
170.6472067140795
 10
147.1982869012359
 20
170.6434688524225
 10
147.2089878918607
 20
170.6402960566321
 10
147.2137786121394
 20
170.6390040588512
 10
147.2184393266592
 20
170.6378220787554
 10
147.2230342520213
 20
170.6367284057406
 10
147.2284819009842
 20
170.6355230185203
 10
147.2350844287397
 20
170.634193348386
 10
147.2428477721001
 20
170.6328118386578
 10
147.2512369630176
 20
170.6315375199236
 10
147.2606708800813
 20
170.6303728147782
 10
147.2711569826135
 20
170.6294083914897
 10
147.2827035275983
 20
170.6287455904756
 10
147.2953196742382
 20
170.6284973425274
  0
LWPOLYLINE
  5
2E2
330
A
100
AcDbEntity
  8
sanindusa
100
AcDbPolyline
 90
       43
 70
   128
 43
0.0
 10
147.2953196742382
 20
170.6284973425274
 10
147.3069633378977
 20
170.6287087649487
 10
147.3175039698659
 20
170.6292651493371
 10
147.3269502266773
 20
170.6300596607458
 10
147.335309873431
 20
170.6309974603467
 10
147.3425897430862
 20
170.6319950304598
 10
147.3487958250966
 20
170.63297948593
 10
147.3549485574885
 20
170.634078348786
 10
147.3609818393868
 20
170.63527576549
 10
147.3670701128096
 20
170.6366056595398
 10
147.3732129997592
 20
170.6380727289021
 10
147.3873536713716
 20
170.641936979962
 10
147.4014587469861
 20
170.6464878836627
 10
147.4152646556552
 20
170.6516440736993
 10
147.428765880919
 20
170.6573910039567
 10
147.4463109352745
 20
170.6659662657003
 10
147.4633106940901
 20
170.6755653495424
 10
147.4797508794103
 20
170.6861805487517
 10
147.4956117860466
 20
170.697810746968
 10
147.5107177189502
 20
170.7103284781637
 10
147.5250134585228
 20
170.7236704161278
 10
147.5385100117049
 20
170.7378354786532
 10
147.5512045160562
 20
170.7528296003854
 10
147.5629796093595
 20
170.7685186363138
 10
147.5737795248186
 20
170.7848108401606
 10
147.5836081447647
 20
170.801696915459
 10
147.5924595671216
 20
170.819171932397
 10
147.5972964026336
 20
170.8299418410855
 10
147.6017533112676
 20
170.8408791689157
 10
147.6058081923517
 20
170.8519246461059
 10
147.6094347505705
 20
170.8629807092868
 10
147.6125113763667
 20
170.8735533806008
 10
147.6137696603973
 20
170.8782945752995
 10
147.6149237883284
 20
170.8829110290683
 10
147.6160044846975
 20
170.8875097670701
 10
147.6172110497304
 20
170.8930270763632
 10
147.6185387611158
 20
170.8996903143147
 10
147.6199192162161
 20
170.9075158765349
 10
147.621196750367
 20
170.9159762107977
 10
147.6223711813477
 20
170.9255056867601
 10
147.623352930343
 20
170.9361257738265
 10
147.6240388808377
 20
170.9478377733143
 10
147.6242585490355
 20
170.9574671647843
  0
LINE
  5
3D4
330
A
100
AcDbEntity
  8
sanindusa
100
AcDbLine
 10
147.6198443696919
 20
171.163964662669
 30
0.0
 11
146.9707949786292
 21
171.163964662669
 31
0.0
  0
ARC
  5
3E6
330
A
100
AcDbEntity
  8
sanindusa
100
AcDbCircle
 10
147.2953196742382
 20
171.1024646626695
 30
0.0
 40
0.017499999999997
100
AcDbArc
 50
89.99999998860088
 51
270.0
  0
ARC
  5
3F5
330
A
100
AcDbEntity
  8
sanindusa
100
AcDbCircle
 10
147.2953196742382
 20
171.1024646626695
 30
0.0
 40
0.0175000000000002
100
AcDbArc
 50
270.0
 51
89.99999999674312
  0
ARC
  5
3F6
330
A
100
AcDbEntity
  8
sanindusa
100
AcDbCircle
 10
147.2956049684584
 20
170.4532233313633
 30
0.0
 40
0.5877781725708546
100
AcDbArc
 50
63.00322064614054
 51
90.02781007588131
  0
ARC
  5
408
330
A
100
AcDbEntity
  8
sanindusa
100
AcDbCircle
 10
147.295034380018
 20
170.4532233313633
 30
0.0
 40
0.5877781725708541
100
AcDbArc
 50
89.9721899241187
 51
116.9967793538594
  0
LWPOLYLINE
  5
41A
330
A
100
AcDbEntity
  8
sanindusa
100
AcDbPolyline
 90
       39
 70
   128
 43
0.0
 10
147.2953196742377
 20
171.0341634642444
 10
147.2930537305842
 20
171.0341878958162
 10
147.2908516670886
 20
171.0342602583445
 10
147.2887773408157
 20
171.0343800397681
 10
147.286887400809
 20
171.034544758177
 10
147.2852382139165
 20
171.0347521952193
 10
147.2838731784885
 20
171.0349978847464
 10
147.2828352267216
 20
171.0352773401677
 10
147.2821492303151
 20
171.0355837514346
 10
147.2818398010701
 20
171.0359099330247
 10
147.2819103067185
 20
171.036246895879
 10
147.2823639813377
 20
171.0365850808718
 10
147.2831826808024
 20
171.0369141213987
 10
147.2843482448509
 20
171.0372232334869
 10
147.2858229551721
 20
171.0375021605804
 10
147.2875694052136
 20
171.0377405789579
 10
147.2895343534528
 20
171.037930335743
 10
147.291664738465
 20
171.0380635139772
 10
147.2938981949507
 20
171.0381359133849
 10
147.2953196742371
 20
171.0381485585643
 10
147.2975856178907
 20
171.0381160461155
 10
147.2997876813863
 20
171.0380207669318
 10
147.3018620076594
 20
171.0378654480434
 10
147.3037519476662
 20
171.0376568560688
 10
147.3054011345589
 20
171.0374019864526
 10
147.3067661699871
 20
171.0371106800055
 10
147.3078041217543
 20
171.0367926809726
 10
147.308490118161
 20
171.0364589057138
 10
147.3087995474063
 20
171.0361199726604
 10
147.3087290417582
 20
171.0357858984395
 10
147.3082753671392
 20
171.0354663326945
 10
147.3074566676748
 20
171.0351691538449
 10
147.3062911036265
 20
171.034901869061
 10
147.3048163933055
 20
171.0346698178118
 10
147.3030699432642
 20
171.034478116057
 10
147.3011049950251
 20
171.0343297164349
 10
147.298974610013
 20
171.0342276657016
 10
147.2967411535274
 20
171.0341729719828
 10
147.2953196742377
 20
171.0341634642444
  0
LWPOLYLINE
  5
444
330
A
100
AcDbEntity
  8
sanindusa
100
AcDbPolyline
 90
        3
 70
   128
 43
0.0
 10
147.5761225362176
 20
171.0666111914206
 10
147.5759196736647
 20
171.0197623631906
 10
147.5753479349562
 20
170.9729278704025
  0
LWPOLYLINE
  5
449
330
A
100
AcDbEntity
  8
sanindusa
100
AcDbPolyline
 90
        9
 70
   128
 43
0.0
 10
147.581661593654
 20
171.1624478409056
 10
147.5808559589394
 20
171.1589391663629
 10
147.5803235716989
 20
171.1552962924407
 10
147.5799017704075
 20
171.1516056111609
 10
147.5795449418261
 20
171.1478867278696
 10
147.5786655924355
 20
171.1360940978326
 10
147.5775740062683
 20
171.1149121999768
 10
147.5767209094616
 20
171.0907781585405
 10
147.5761225362142
 20
171.0666111913665
  0
LWPOLYLINE
  5
454
330
A
100
AcDbEntity
  8
sanindusa
100
AcDbPolyline
 90
        9
 70
   128
 43
0.0
 10
147.0145168122622
 20
171.0666111913665
 10
147.0139184390149
 20
171.0907781585405
 10
147.0130653422081
 20
171.1149121999768
 10
147.0124226036114
 20
171.1284000714128
 10
147.0115812104637
 20
171.1418523954548
 10
147.0105238316961
 20
171.1535682935184
 10
147.0101439861528
 20
171.1565920663891
 10
147.0096701125247
 20
171.1595752434215
 10
147.0089777548225
 20
171.1624478409056
  0
LWPOLYLINE
  5
45F
330
A
100
AcDbEntity
  8
sanindusa
100
AcDbPolyline
 90
        3
 70
   128
 43
0.0
 10
147.0152914135202
 20
170.9729278704025
 10
147.0147196748117
 20
171.0197623631906
 10
147.0145168122589
 20
171.0666111914212
  0
LINE
  5
472
330
A
100
AcDbEntity
  8
sanindusa
100
AcDbLine
 10
147.5753479349562
 20
170.9729278704025
 30
0.0
 11
147.5750840325495
 21
170.9583737326045
 31
0.0
  0
LINE
  5
473
330
A
100
AcDbEntity
  8
sanindusa
100
AcDbLine
 10
147.0155553159269
 20
170.9583737326045
 30
0.0
 11
147.0152914135202
 21
170.9729278704025
 31
0.0
  0
LINE
  5
47F
330
A
100
AcDbEntity
  8
sanindusa
100
AcDbLine
 10
147.0155553159269
 20
170.9583737326045
 30
0.0
 11
147.0155616060529
 21
170.958034040867
 31
0.0
  0
LINE
  5
496
330
A
100
AcDbEntity
  8
sanindusa
100
AcDbLine
 10
147.5750840325495
 20
170.9583737326045
 30
0.0
 11
147.5750777424234
 21
170.958034040867
 31
0.0
  0
LWPOLYLINE
  5
497
330
A
100
AcDbEntity
  8
sanindusa
100
AcDbPolyline
 90
       25
 70
   128
 43
0.0
 10
147.295319674086
 20
170.6780733398064
 10
147.2771290350724
 20
170.6786654370298
 10
147.2589856417077
 20
170.6805033296352
 10
147.2408913955235
 20
170.6835858295331
 10
147.223078689183
 20
170.687863448875
 10
147.2057029859108
 20
170.693273919739
 10
147.1887588198193
 20
170.699800304765
 10
147.1722449332263
 20
170.7074398203872
 10
147.1561649151289
 20
170.7162051121198
 10
147.1406577656099
 20
170.7260312821536
 10
147.1259322491439
 20
170.7367681649281
 10
147.111974781453
 20
170.7483946942143
 10
147.0987793471942
 20
170.760902699495
 10
147.0863483575559
 20
170.7742948621384
 10
147.07473102175
 20
170.7885423459361
 10
147.0641132112188
 20
170.8034100051234
 10
147.0545015296515
 20
170.8188509206959
 10
147.0458862663801
 20
170.8348599121341
 10
147.0382701793349
 20
170.8514381733768
 10
147.0316692657968
 20
170.8685842589702
 10
147.0261803458419
 20
170.8860559353483
 10
147.021821843851
 20
170.9037386118573
 10
147.0185874773572
 20
170.9216269280975
 10
147.016491662621
 20
170.9397236342305
 10
147.0155616060452
 20
170.9580340413085
  0
LWPOLYLINE
  5
4B9
330
A
100
AcDbEntity
  8
sanindusa
100
AcDbPolyline
 90
       25
 70
   128
 43
0.0
 10
147.5750777424312
 20
170.9580340413085
 10
147.5741476858554
 20
170.9397236342305
 10
147.5720518711192
 20
170.9216269280975
 10
147.5688175046255
 20
170.9037386118573
 10
147.5644590026345
 20
170.8860559353483
 10
147.5589700826797
 20
170.8685842589702
 10
147.5523691691416
 20
170.8514381733763
 10
147.5447530820963
 20
170.8348599121341
 10
147.5361378188249
 20
170.8188509206959
 10
147.5265261372577
 20
170.8034100051234
 10
147.5159083267265
 20
170.7885423459361
 10
147.5042909909208
 20
170.7742948621392
 10
147.4918600012823
 20
170.760902699495
 10
147.4786645670234
 20
170.7483946942142
 10
147.4647070993329
 20
170.7367681649281
 10
147.4499815828669
 20
170.7260312821536
 10
147.4344744333476
 20
170.7162051121198
 10
147.4183944152502
 20
170.7074398203872
 10
147.4018805286572
 20
170.699800304765
 10
147.3849363625663
 20
170.693273919739
 10
147.3675606592939
 20
170.687863448875
 10
147.349747952953
 20
170.6835858295331
 10
147.3316537067687
 20
170.6805033296352
 10
147.3135103134037
 20
170.6786654370298
 10
147.2953196743905
 20
170.6780733398064
  0
ARC
  5
4D9
330
A
100
AcDbEntity
  8
sanindusa
100
AcDbCircle
 10
147.0345176378641
 20
170.9785175178938
 30
0.0
 40
0.0159445250950137
100
AcDbArc
 50
198.1404999848006
 51
222.3100472232196
  0
LWPOLYLINE
  5
4DA
330
A
100
AcDbEntity
  8
sanindusa
100
AcDbPolyline
 90
        6
 70
   128
 43
0.0
 10
147.0803849921282
 20
170.9774246218775
 10
147.0671948891686
 20
170.9752364398447
 10
147.0548279270545
 20
170.9731264627596
 10
147.043280442374
 20
170.9711449664108
 10
147.0325598734004
 20
170.9693441352162
 10
147.022726452702
 20
170.9677845851309
  0
LWPOLYLINE
  5
4EB
330
A
100
AcDbEntity
  8
sanindusa
100
AcDbPolyline
 90
        6
 70
   128
 43
0.0
 10
147.5102543563482
 20
170.9774246218775
 10
147.5234444593079
 20
170.9752364398447
 10
147.535811421422
 20
170.9731264627596
 10
147.5473589061024
 20
170.9711449664105
 10
147.558079475076
 20
170.969344135216
 10
147.5679128957744
 20
170.9677845851316
  0
ARC
  5
4F3
330
A
100
AcDbEntity
  8
sanindusa
100
AcDbCircle
 10
147.5561217107085
 20
170.9785175178615
 30
0.0
 40
0.0159445250022023
100
AcDbArc
 50
317.6899526292286
 51
341.8594999873972
  0
LINE
  5
4FE
330
A
100
AcDbEntity
  8
sanindusa
100
AcDbLine
 10
147.0180336313362
 20
170.9802692835185
 30
0.0
 11
147.0179569432522
 21
170.9815106933467
 31
0.0
  0
LWPOLYLINE
  5
4FF
330
A
100
AcDbEntity
  8
sanindusa
100
AcDbPolyline
 90
        3
 70
   128
 43
0.0
 10
147.0193656211922
 20
170.9735532181895
 10
147.0185214606109
 20
170.9767312704788
 10
147.0180336313362
 20
170.9802692835185
  0
LINE
  5
504
330
A
100
AcDbEntity
  8
sanindusa
100
AcDbLine
 10
147.0179569432522
 20
170.9815106933467
 30
0.0
 11
147.0145168122622
 21
171.0666111913665
 31
0.0
  0
LWPOLYLINE
  5
505
330
A
100
AcDbEntity
  8
sanindusa
100
AcDbPolyline
 90
        3
 70
   128
 43
0.0
 10
147.5712737272842
 20
170.9735532181895
 10
147.5721178878655
 20
170.9767312704788
 10
147.5726057171402
 20
170.9802692835185
  0
LINE
  5
50A
330
A
100
AcDbEntity
  8
sanindusa
100
AcDbLine
 10
147.5726057171402
 20
170.9802692835185
 30
0.0
 11
147.5726824052242
 21
170.9815106933467
 31
0.0
  0
LINE
  5
50B
330
A
100
AcDbEntity
  8
sanindusa
100
AcDbLine
 10
147.5761225362142
 20
171.0666111913665
 30
0.0
 11
147.5726824052242
 21
170.9815106933467
 31
0.0
  0
ARC
  5
57C
330
A
100
AcDbEntity
  8
sanindusa
100
AcDbCircle
 10
147.0323201506559
 20
170.9682666259211
 30
0.0
 40
0.0096058011184277
100
AcDbArc
 50
115.2797039918039
 51
182.8764388293418
  0
ARC
  5
57D
330
A
100
AcDbEntity
  8
sanindusa
100
AcDbCircle
 10
147.5583191978205
 20
170.9682666259211
 30
0.0
 40
0.0096058011184505
100
AcDbArc
 50
357.1235611706582
 51
64.72029600819604
  0
ARC
  5
580
330
A
100
AcDbEntity
  8
sanindusa
100
AcDbCircle
 10
147.4933297858894
 20
170.4439221202895
 30
0.0
 40
0.5337708875499813
100
AcDbArc
 50
88.18298629840318
 51
88.91546693244894
  0
ARC
  5
582
330
A
100
AcDbEntity
  8
sanindusa
100
AcDbCircle
 10
147.2953196742382
 20
170.3626044977982
 30
0.0
 40
0.6492513449954659
100
AcDbArc
 50
71.30422345525435
 51
108.6957765447456
  0
LINE
  5
583
330
A
100
AcDbEntity
  8
sanindusa
100
AcDbLine
 10
147.5031494478246
 20
170.9604268062759
 30
0.0
 11
147.5034327570732
 21
170.9775973869695
 31
0.0
  0
LINE
  5
584
330
A
100
AcDbEntity
  8
sanindusa
100
AcDbLine
 10
147.5031360415802
 20
170.9577978970495
 30
0.0
 11
147.5031494478246
 21
170.9604268062759
 31
0.0
  0
LWPOLYLINE
  5
585
330
A
100
AcDbEntity
  8
sanindusa
100
AcDbPolyline
 90
       23
 70
   128
 43
0.0
 10
147.2953196739838
 20
170.7516107002825
 10
147.3087143267379
 20
170.751851123538
 10
147.3220560140008
 20
170.7532172296407
 10
147.3353512150422
 20
170.7555724253796
 10
147.3485545221664
 20
170.758783111226
 10
147.3614584850607
 20
170.7627613693285
 10
147.374033932634
 20
170.7675184002406
 10
147.3886755904342
 20
170.7742910292411
 10
147.4028147235336
 20
170.7822550852929
 10
147.4163403198234
 20
170.7913498566971
 10
147.4290219267651
 20
170.8013845548541
 10
147.4408719679809
 20
170.8123269246926
 10
147.4518920868074
 20
170.8241751945022
 10
147.4620500968423
 20
170.8369256282338
 10
147.4711516659016
 20
170.8503502513077
 10
147.4791552713208
 20
170.8643754926673
 10
147.4860603874518
 20
170.8790016642842
 10
147.4909847085435
 20
170.8916440470806
 10
147.495123620515
 20
170.9045598011058
 10
147.4984740156973
 20
170.9176208867749
 10
147.5010075772375
 20
170.9308325508295
 10
147.502606864857
 20
170.9442165155098
 10
147.5031360415802
 20
170.9577978970495
  0
LWPOLYLINE
  5
59E
330
A
100
AcDbEntity
  8
sanindusa
100
AcDbPolyline
 90
       23
 70
   128
 43
0.0
 10
147.0875033068962
 20
170.9577978970495
 10
147.0880324836194
 20
170.9442165155093
 10
147.0896317712395
 20
170.9308325508294
 10
147.0921653327792
 20
170.9176208867749
 10
147.0955157279614
 20
170.9045598011055
 10
147.0996546399329
 20
170.8916440470806
 10
147.1045789610247
 20
170.8790016642835
 10
147.1114840771552
 20
170.8643754926672
 10
147.1194876825749
 20
170.8503502513073
 10
147.1285892516346
 20
170.8369256282345
 10
147.138747261669
 20
170.8241751945033
 10
147.1497673804958
 20
170.812326924693
 10
147.1616174217114
 20
170.8013845548537
 10
147.174299028653
 20
170.7913498566972
 10
147.1878246249429
 20
170.7822550852926
 10
147.2019637580423
 20
170.7742910292401
 10
147.2166054158423
 20
170.7675184002412
 10
147.2291808634157
 20
170.7627613693282
 10
147.2420848263097
 20
170.7587831112261
 10
147.2552881334342
 20
170.7555724253796
 10
147.2685833344757
 20
170.7532172296407
 10
147.2819250217385
 20
170.7518511235378
 10
147.2953196744926
 20
170.7516107002825
  0
LINE
  5
5B7
330
A
100
AcDbEntity
  8
sanindusa
100
AcDbLine
 10
147.0874899006519
 20
170.9604268062759
 30
0.0
 11
147.0875033068962
 21
170.9577978970495
 31
0.0
  0
LINE
  5
5B8
330
A
100
AcDbEntity
  8
sanindusa
100
AcDbLine
 10
147.0872065914032
 20
170.9775973869695
 30
0.0
 11
147.0874899006519
 21
170.9604268062759
 31
0.0
  0
ARC
  5
5B9
330
A
100
AcDbEntity
  8
sanindusa
100
AcDbCircle
 10
147.2953456446043
 20
170.9534779669272
 30
0.0
 40
0.035908311660625
100
AcDbArc
 50
297.1077963206468
 51
117.1766731651613
  0
ARC
  5
5BA
330
A
100
AcDbEntity
  8
sanindusa
100
AcDbCircle
 10
147.2952937607514
 20
170.9534513683397
 30
0.0
 40
0.0359083239505853
100
AcDbArc
 50
117.0836416789125
 51
297.2008278087084
  0
ARC
  5
5BB
330
A
100
AcDbEntity
  8
sanindusa
100
AcDbCircle
 10
147.0973095625797
 20
170.443922120573
 30
0.0
 40
0.5337708872660591
100
AcDbArc
 50
91.08453306755105
 51
91.81701370322445
  0
ARC
  5
5F9
330
A
100
AcDbEntity
  8
sanindusa
100
AcDbCircle
 10
147.2953196742382
 20
170.9534646626695
 30
0.0
 40
0.0235000000000001
100
AcDbArc
 50
270.0
 51
90.00000002279824
  0
ARC
  5
5FB
330
A
100
AcDbEntity
  8
sanindusa
100
AcDbCircle
 10
147.2953196742382
 20
170.9534646626695
 30
0.0
 40
0.0235000000000001
100
AcDbArc
 50
90.00000002279824
 51
269.9999999902293
  0
LINE
  5
629
330
A
100
AcDbEntity
  8
sanindusa
100
AcDbLine
 10
149.312408950775
 20
170.4979329006785
 30
0.0
 11
149.3183465455715
 21
171.1906522935714
 31
0.0
  0
ARC
  5
62A
330
A
100
AcDbEntity
  8
sanindusa
100
AcDbCircle
 10
149.3104090234201
 20
170.4979499898183
 30
0.0
 40
0.0020000003671878
100
AcDbArc
 50
269.9999865881352
 51
359.5088949117601
  0
LINE
  5
62B
330
A
100
AcDbEntity
  8
sanindusa
100
AcDbLine
 10
149.5355350335475
 20
171.3264862052839
 30
0.0
 11
149.4973831194289
 21
171.3304547273547
 31
0.0
  0
ARC
  5
62C
330
A
100
AcDbEntity
  8
sanindusa
100
AcDbCircle
 10
149.007391954421
 20
171.3471522935439
 30
0.0
 40
0.0020000000278404
100
AcDbArc
 50
90.00000079468065
 51
180.0
  0
LWPOLYLINE
  5
65E
330
A
100
AcDbEntity
  8
sanindusa
100
AcDbPolyline
 90
       31
 70
   128
 43
0.0
 10
149.1620463623185
 20
171.3318618667521
 10
149.1583358272931
 20
171.3336724438033
 10
149.1519553545221
 20
171.3367008984828
 10
149.1461030617788
 20
171.3394065367384
 10
149.1424687328243
 20
171.3410516538104
 10
149.1391443085951
 20
171.3425328894464
 10
149.1361945821983
 20
171.3438281153536
 10
149.1336572126003
 20
171.3449278450995
 10
149.1315484104157
 20
171.3458316915075
 10
149.1298798478311
 20
171.3465402654506
 10
149.1285527347977
 20
171.347099598938
 10
149.1275054377176
 20
171.3475382147595
 10
149.1266849681926
 20
171.3478798812641
 10
149.1259707835261
 20
171.3481754448774
 10
149.1254354544053
 20
171.3483951240429
 10
149.1250331772436
 20
171.3485580777461
 10
149.124726849196
 20
171.3486794852364
 10
149.1244868408031
 20
171.3487712160554
 10
149.1242899585983
 20
171.3488422989143
 10
149.1241183871618
 20
171.3488994020972
 10
149.1239587454281
 20
171.3489472448027
 10
149.123801356992
 20
171.3489889057985
 10
149.1236394894041
 20
171.3490261447444
 10
149.1234686895124
 20
171.3490596832442
 10
149.1232862163894
 20
171.3490894484301
 10
149.1230905695204
 20
171.3491147819564
 10
149.1229875812801
 20
171.349125464934
 10
149.1228811108448
 20
171.3491346157398
 10
149.1227711663785
 20
171.3491420604035
 10
149.1226577792482
 20
171.3491476155859
 10
149.1224208960371
 20
171.3491522935714
  0
LINE
  5
68C
330
A
100
AcDbEntity
  8
sanindusa
100
AcDbLine
 10
149.1053919543931
 20
170.4979499902673
 30
0.0
 11
149.1053919543931
 21
171.1906522935714
 31
0.0
  0
ARC
  5
698
330
A
100
AcDbEntity
  8
sanindusa
100
AcDbCircle
 10
149.1073919543931
 20
170.4979499894511
 30
0.0
 40
0.0020000000000195
100
AcDbArc
 50
180.0
 51
270.0000000113991
  0
LINE
  5
6A4
330
A
100
AcDbEntity
  8
sanindusa
100
AcDbLine
 10
149.1073919543935
 20
170.4959499894511
 30
0.0
 11
149.2179894675651
 21
170.4959499894505
 31
0.0
  0
LINE
  5
6A5
330
A
100
AcDbEntity
  8
sanindusa
100
AcDbLine
 10
149.2179894675651
 20
170.4959499894505
 30
0.0
 11
149.310409022952
 21
170.4959499894511
 31
0.0
  0
LINE
  5
6A7
330
A
100
AcDbEntity
  8
sanindusa
100
AcDbLine
 10
149.1495229090179
 20
170.4959499894511
 30
0.0
 11
149.1083047990126
 21
170.4959499894507
 31
0.0
  0
LWPOLYLINE
  5
6B3
330
A
100
AcDbEntity
  8
sanindusa
100
AcDbPolyline
 90
        4
 70
   128
 43
0.0
 10
149.157813801301
 20
171.3270845333356
 10
149.107641027222
 20
171.327173710853
 10
149.0575166587383
 20
171.32715279596
 10
149.0073919970274
 20
171.3271457777003
  0
LINE
  5
6B9
330
A
100
AcDbEntity
  8
sanindusa
100
AcDbLine
 10
149.2119467295455
 20
171.3263107981307
 30
0.0
 11
149.157813801301
 21
171.3270845333356
 31
0.0
  0
LINE
  5
6D7
330
A
100
AcDbEntity
  8
sanindusa
100
AcDbLine
 10
149.0053919543937
 20
171.3251640568574
 30
0.0
 11
149.0053919543931
 21
171.3202870313254
 31
0.0
  0
LWPOLYLINE
  5
6D8
330
A
100
AcDbEntity
  8
sanindusa
100
AcDbPolyline
 90
        9
 70
   128
 43
0.0
 10
149.0073919872903
 20
171.3319644434157
 10
149.0070018006882
 20
171.3319263723117
 10
149.0066266075237
 20
171.3318136058468
 10
149.0062808266439
 20
171.3316304776885
 10
149.0059777465685
 20
171.3313840255368
 10
149.0057290148053
 20
171.3310837206623
 10
149.0055441902312
 20
171.3307411039206
 10
149.0054303757405
 20
171.3303693422318
 10
149.0053919452768
 20
171.3299827225702
  0
LINE
  5
6EE
330
A
100
AcDbEntity
  8
sanindusa
100
AcDbLine
 10
149.0053919543931
 20
171.3202870313254
 30
0.0
 11
149.0053919543933
 21
171.1942617641064
 31
0.0
  0
LWPOLYLINE
  5
6EF
330
A
100
AcDbEntity
  8
sanindusa
100
AcDbPolyline
 90
       27
 70
   128
 43
0.0
 10
149.5355375618381
 20
171.3265104881304
 10
149.5350328121083
 20
171.3265000882931
 10
149.5335240983731
 20
171.3264690702477
 10
149.5310131195866
 20
171.3264178089154
 10
149.5274925744408
 20
171.3263468438884
 10
149.5229456037349
 20
171.3262569176827
 10
149.5173639474274
 20
171.326149384638
 10
149.5108415567574
 20
171.3260279333411
 10
149.5020871863448
 20
171.3258723722738
 10
149.4921152419375
 20
171.3257059795299
 10
149.4809263975192
 20
171.3255334165232
 10
149.4685071831871
 20
171.3253598120689
 10
149.4549896575528
 20
171.3251926897103
 10
149.4404812498805
 20
171.3250389407297
 10
149.4249881235079
 20
171.3249043223447
 10
149.4085285331641
 20
171.3247953020345
 10
149.3913094360818
 20
171.3247191945204
 10
149.3733873359163
 20
171.3246815395393
 10
149.3547652146706
 20
171.3246876554559
 10
149.3354385746473
 20
171.3247431395051
 10
149.318478075833
 20
171.3248334026816
 10
149.3012843138004
 20
171.3249649211974
 10
149.2838600918392
 20
171.3251396723798
 10
149.2662059955685
 20
171.325359702423
 10
149.2483204595818
 20
171.3256271364676
 10
149.230199706607
 20
171.3259441828549
 10
149.2119467305043
 20
171.3263107980785
  0
ARC
  5
70C
330
A
100
AcDbEntity
  8
sanindusa
100
AcDbCircle
 10
149.5348734912949
 20
171.320547350507
 30
0.0
 40
0.0059999999998174
100
AcDbArc
 50
346.7252112682469
 51
83.64557480084844
  0
ARC
  5
748
330
A
100
AcDbEntity
  8
sanindusa
100
AcDbCircle
 10
149.0170736147939
 20
171.442709946926
 30
0.0
 40
0.5380154246524933
100
AcDbArc
 50
332.3862032527332
 51
346.7251655093733
  0
LWPOLYLINE
  5
749
330
A
100
AcDbEntity
  8
sanindusa
100
AcDbPolyline
 90
        3
 70
   128
 43
0.0
 10
149.1578861404107
 20
171.3318895978713
 10
149.1772407529859
 20
171.3317047104454
 10
149.1965935650367
 20
171.3314265909758
  0
LINE
  5
74E
330
A
100
AcDbEntity
  8
sanindusa
100
AcDbLine
 10
149.1965935650371
 20
171.3314265909724
 30
0.0
 11
149.2111784318782
 21
171.3311553875568
 31
0.0
  0
LINE
  5
74F
330
A
100
AcDbEntity
  8
sanindusa
100
AcDbLine
 10
149.2111784318782
 20
171.3311553875568
 30
0.0
 11
149.2115084660762
 21
171.3311486024753
 31
0.0
  0
LWPOLYLINE
  5
750
330
A
100
AcDbEntity
  8
sanindusa
100
AcDbPolyline
 90
       25
 70
   128
 43
0.0
 10
149.2115084656251
 20
171.3311486024844
 10
149.2302144556546
 20
171.3307865964522
 10
149.2486975713397
 20
171.3304777443473
 10
149.2669633205903
 20
171.3302184757035
 10
149.2850147505762
 20
171.3300051373241
 10
149.302850589683
 20
171.3298352481669
 10
149.3203549585045
 20
171.3297079119671
 10
149.3372806420696
 20
171.329621896936
 10
149.3536252454301
 20
171.329573531422
 10
149.36939025916
 20
171.3295589406745
 10
149.3845701362013
 20
171.3295743518022
 10
149.3991170729097
 20
171.3296159642366
 10
149.4127913446281
 20
171.3296788163967
 10
149.4255634538536
 20
171.329757880801
 10
149.4374361607436
 20
171.3298489551359
 10
149.4484015182529
 20
171.3299479857186
 10
149.458437490053
 20
171.3300510900345
 10
149.4673905423505
 20
171.3301530578485
 10
149.4751940853445
 20
171.330249601537
 10
149.4818606547009
 20
171.3303372962961
 10
149.4873877734834
 20
171.3304131068699
 10
149.4917587771443
 20
171.3304742134763
 10
149.4949103626341
 20
171.3305185352667
 10
149.496789849866
 20
171.3305459200641
 10
149.4973831194289
 20
171.3304547273547
  0
LWPOLYLINE
  5
76C
330
A
100
AcDbEntity
  8
sanindusa
100
AcDbPolyline
 90
        4
 70
   128
 43
0.0
 10
149.007391987631
 20
171.3319644434131
 10
149.0826149122324
 20
171.3319752931
 10
149.1202261839113
 20
171.3319886277136
 10
149.1578861404107
 20
171.3318895978713
  0
LINE
  5
78E
330
A
100
AcDbEntity
  8
sanindusa
100
AcDbLine
 10
149.0053919543932
 20
171.3470464748581
 30
0.0
 11
149.0053919543937
 21
171.3251640568574
 31
0.0
  0
LINE
  5
78F
330
A
100
AcDbEntity
  8
sanindusa
100
AcDbLine
 10
149.0073919513242
 20
171.3491522935714
 30
0.0
 11
149.0493919543931
 21
171.3491522935701
 31
0.0
  0
ARC
  5
790
330
A
100
AcDbEntity
  8
sanindusa
100
AcDbCircle
 10
149.0668919543931
 20
173.1242931829332
 30
0.0
 40
1.775227148024825
100
AcDbArc
 50
269.4351751639644
 51
270.5648248360357
  0
LINE
  5
791
330
A
100
AcDbEntity
  8
sanindusa
100
AcDbLine
 10
149.0843919543932
 20
171.3491522935701
 30
0.0
 11
149.1224208960567
 21
171.3491522935714
 31
0.0
  0
ARC
  5
79F
330
A
100
AcDbEntity
  8
sanindusa
100
AcDbCircle
 10
149.0073919543931
 20
171.1926522935714
 30
0.0
 40
0.0019999999999999
100
AcDbArc
 50
180.0
 51
269.9999999772018
  0
LINE
  5
7A0
330
A
100
AcDbEntity
  8
sanindusa
100
AcDbLine
 10
149.0053919543933
 20
171.1942617641064
 30
0.0
 11
149.0053919543932
 21
171.1926522935705
 31
0.0
  0
LINE
  5
7A2
330
A
100
AcDbEntity
  8
sanindusa
100
AcDbLine
 10
149.0073919543924
 20
171.1906522935714
 30
0.0
 11
149.2111350740511
 21
171.1906522935714
 31
0.0
  0
LINE
  5
7A3
330
A
100
AcDbEntity
  8
sanindusa
100
AcDbLine
 10
149.2111350749215
 20
171.1906522935714
 30
0.0
 11
149.4893743228561
 21
171.1906522935714
 31
0.0
  0
ARC
  5
7A4
330
A
100
AcDbEntity
  8
sanindusa
100
AcDbCircle
 10
149.4893743228561
 20
171.195652293572
 30
0.0
 40
0.0050000000006531
100
AcDbArc
 50
270.0
 51
332.3859951642587
  0
LINE
  5
7C6
330
A
100
AcDbEntity
  8
sanindusa
100
AcDbLine
 10
149.904372453848
 20
171.3371522935744
 30
0.0
 11
149.914721797775
 21
171.3371522935714
 31
0.0
  0
LINE
  5
7C7
330
A
100
AcDbEntity
  8
sanindusa
100
AcDbLine
 10
149.904372453848
 20
171.3491522935714
 30
0.0
 11
149.9424013955704
 21
171.3491522935718
 31
0.0
  0
LINE
  5
7C8
330
A
100
AcDbEntity
  8
sanindusa
100
AcDbLine
 10
149.904372453848
 20
171.3491522935714
 30
0.0
 11
149.904372453848
 21
171.3371522935744
 31
0.0
  0
ARC
  5
7C9
330
A
100
AcDbEntity
  8
sanindusa
100
AcDbCircle
 10
149.914721797775
 20
171.3321522935719
 30
0.0
 40
0.0049999999994364
100
AcDbArc
 50
8.487641817423577
 51
90.0
  0
ARC
  5
7CA
330
A
100
AcDbEntity
  8
sanindusa
100
AcDbCircle
 10
149.942401395492
 20
171.3431522935722
 30
0.0
 40
0.0059999999995432
100
AcDbArc
 50
8.487641815812969
 51
89.99999925254419
  0
LWPOLYLINE
  5
7E2
330
A
100
AcDbEntity
  8
sanindusa
100
AcDbPolyline
 90
       25
 70
   128
 43
0.0
 10
150.3167723502741
 20
171.3305876556402
 10
150.3133815112552
 20
171.3305368967631
 10
150.3100930881212
 20
171.3304910892233
 10
150.3057427009369
 20
171.3304308002525
 10
150.3003684427502
 20
171.3303579533926
 10
150.2939815831611
 20
171.3302749758213
 10
150.2865833540464
 20
171.3301844226947
 10
150.2781629928526
 20
171.3300891762007
 10
150.2687727355223
 20
171.3299927793585
 10
150.2585537046766
 20
171.3298997063273
 10
150.2475275395974
 20
171.3298132410288
 10
150.2357033804319
 20
171.3297366790774
 10
150.2230807599629
 20
171.3296734999252
 10
150.2096525029674
 20
171.3296277061641
 10
150.1955922106151
 20
171.3296036252792
 10
150.1810087995412
 20
171.3296047302201
 10
150.1659098459629
 20
171.3296341606918
 10
150.1502976103561
 20
171.3296950029264
 10
150.1341681605879
 20
171.3297905689637
 10
150.1175630412519
 20
171.3299235405597
 10
150.1007292841586
 20
171.3300941752854
 10
150.0837050593828
 20
171.3303036515889
 10
150.066490800686
 20
171.3305543014298
 10
150.0490831819503
 20
171.3308491907497
 10
150.0314770658715
 20
171.3311913434489
  0
LWPOLYLINE
  5
804
330
A
100
AcDbEntity
  8
sanindusa
100
AcDbPolyline
 90
       19
 70
   128
 43
0.0
 10
150.0098615654547
 20
171.3175171313572
 10
150.0002313746413
 20
171.3226550067332
 10
149.9912588313206
 20
171.3272801391424
 10
149.9830683552541
 20
171.331363999196
 10
149.9756311318686
 20
171.3349568978169
 10
149.9688833940532
 20
171.3381207530634
 10
149.964472160429
 20
171.340139295238
 10
149.9604352140196
 20
171.3419517396879
 10
149.9568600643386
 20
171.3435289890166
 10
149.9538064643657
 20
171.3448551501288
 10
149.9513044744665
 20
171.345927341069
 10
149.9493402578061
 20
171.3467598688797
 10
149.9478425500307
 20
171.3473890866433
 10
149.9467373992536
 20
171.3478500382124
 10
149.9459592873158
 20
171.3481724543166
 10
149.9454503195806
 20
171.3483816700005
 10
149.9451595701482
 20
171.3484992962577
 10
149.9450425151006
 20
171.3485438060988
 10
149.9450482187544
 20
171.3485396845669
  0
LINE
  5
81B
330
A
100
AcDbEntity
  8
sanindusa
100
AcDbLine
 10
150.0311353015827
 20
171.3311765328843
 30
0.0
 11
150.0165537977314
 21
171.3314474376123
 31
0.0
  0
LWPOLYLINE
  5
81C
330
A
100
AcDbEntity
  8
sanindusa
100
AcDbPolyline
 90
        3
 70
   128
 43
0.0
 10
150.0165537978502
 20
171.3314474376103
 10
149.9900751759975
 20
171.3318046344208
 10
149.9820379431655
 20
171.3318617879513
  0
LWPOLYLINE
  5
822
330
A
100
AcDbEntity
  8
sanindusa
100
AcDbPolyline
 90
        5
 70
   128
 43
0.0
 10
150.1323892330395
 20
170.4979329006784
 10
150.1340267018227
 20
170.6889705222371
 10
150.1356641704978
 20
170.8800081437967
 10
150.1370095649888
 20
171.036970522573
 10
150.1383549594128
 20
171.1939329013498
  0
ARC
  5
83E
330
A
100
AcDbEntity
  8
sanindusa
100
AcDbCircle
 10
150.1363550302937
 20
171.1939499869636
 30
0.0
 40
0.002000002487459
100
AcDbArc
 50
359.50897687598
 51
90.00003968680863
  0
ARC
  5
83F
330
A
100
AcDbEntity
  8
sanindusa
100
AcDbCircle
 10
150.1303893049822
 20
170.497949990946
 30
0.0
 40
0.0020000014949258
100
AcDbArc
 50
269.9999172457329
 51
359.5088628823412
  0
ARC
  5
856
330
A
100
AcDbEntity
  8
sanindusa
100
AcDbCircle
 10
150.1105867733711
 20
170.5209499702614
 30
0.0
 40
0.0100000191897669
100
AcDbArc
 50
89.99982981131788
 51
179.5087991166545
  0
ARC
  5
85F
330
A
100
AcDbEntity
  8
sanindusa
100
AcDbCircle
 10
150.0955004793958
 20
170.5109499993956
 30
0.0
 40
0.0050000099445585
100
AcDbArc
 50
269.9997608841688
 51
359.5087950844682
  0
ARC
  5
861
330
A
100
AcDbEntity
  8
sanindusa
100
AcDbCircle
 10
150.1090516773057
 20
171.2059500592694
 30
0.0
 40
0.0200000698183462
100
AcDbArc
 50
269.9999624627374
 51
323.1300023237265
  0
LWPOLYLINE
  5
868
330
A
100
AcDbEntity
  8
sanindusa
100
AcDbPolyline
 90
        5
 70
   128
 43
0.0
 10
150.1253925413846
 20
171.0816540854935
 10
150.1247151789467
 20
171.0026286675202
 10
150.1233035650239
 20
170.8379407995234
 10
150.12199502637
 20
170.6852783568062
 10
150.1207146981805
 20
170.535907133962
  0
ARC
  5
871
330
A
100
AcDbEntity
  8
sanindusa
100
AcDbCircle
 10
150.106771864754
 20
171.1809499854419
 30
0.0
 40
0.005000004009255
100
AcDbArc
 50
89.99981468307316
 51
193.9999707134932
  0
ARC
  5
872
330
A
100
AcDbEntity
  8
sanindusa
100
AcDbCircle
 10
150.1157148772538
 20
170.5359499942559
 30
0.0
 40
0.0050000048048396
100
AcDbArc
 50
269.9998882724574
 51
359.5088507499998
  0
ARC
  5
875
330
A
100
AcDbEntity
  8
sanindusa
100
AcDbCircle
 10
150.1290517205542
 20
171.1909499727735
 30
0.0
 40
0.0050000166776282
100
AcDbArc
 50
89.99998612565715
 51
143.1300067960852
  0
ARC
  5
877
330
A
100
AcDbEntity
  8
sanindusa
100
AcDbCircle
 10
150.0953937155506
 20
171.0819112186799
 30
0.0
 40
0.0299999295157035
100
AcDbArc
 50
359.5089055214647
 51
14.00006481565281
  0
LINE
  5
878
330
A
100
AcDbEntity
  8
sanindusa
100
AcDbLine
 10
150.1005003051543
 20
170.5109071341737
 30
0.0
 11
150.1005871214332
 21
170.5210356999925
 31
0.0
  0
LINE
  5
879
330
A
100
AcDbEntity
  8
sanindusa
100
AcDbLine
 10
150.1157148667914
 20
170.5309499894511
 30
0.0
 11
150.1105867979916
 21
170.5309499894511
 31
0.0
  0
LWPOLYLINE
  5
87A
330
A
100
AcDbEntity
  8
sanindusa
100
AcDbPolyline
 90
        5
 70
   128
 43
0.0
 10
150.1245025089406
 20
171.0891688926894
 10
150.1205055735213
 20
171.1051996473981
 10
150.1163712848685
 20
171.1217812887597
 10
150.1090780802756
 20
171.151032572099
 10
150.10192037555
 20
171.1797403776396
  0
LINE
  5
881
330
A
100
AcDbEntity
  8
sanindusa
100
AcDbLine
 10
150.1067718795564
 20
171.1859499894511
 30
0.0
 11
150.1090516628583
 21
171.1859499894511
 31
0.0
  0
LINE
  5
882
330
A
100
AcDbEntity
  8
sanindusa
100
AcDbLine
 10
150.1363550279629
 20
171.1959499894511
 30
0.0
 11
150.129051945772
 21
171.1959499894511
 31
0.0
  0
LINE
  5
883
330
A
100
AcDbEntity
  8
sanindusa
100
AcDbLine
 10
150.1303893031003
 20
170.4959499894511
 30
0.0
 11
150.0343210656874
 21
170.495949989451
 31
0.0
  0
ARC
  5
884
330
A
100
AcDbEntity
  8
sanindusa
100
AcDbCircle
 10
150.0343210609606
 20
170.497949993446
 30
0.0
 40
0.0020000039950789
100
AcDbArc
 50
180.0
 51
270.0001354116321
  0
LINE
  5
885
330
A
100
AcDbEntity
  8
sanindusa
100
AcDbLine
 10
150.0323210569671
 20
170.5039499894529
 30
0.0
 11
150.0323210569671
 21
170.4979499894511
 31
0.0
  0
ARC
  5
886
330
A
100
AcDbEntity
  8
sanindusa
100
AcDbCircle
 10
150.0343210616446
 20
170.5039499847735
 30
0.0
 40
0.0020000046775733
100
AcDbArc
 50
89.99988417854916
 51
180.0
  0
LINE
  5
887
330
A
100
AcDbEntity
  8
sanindusa
100
AcDbLine
 10
150.0955004566758
 20
170.5059499894511
 30
0.0
 11
150.0343210656876
 21
170.5059499894511
 31
0.0
  0
LINE
  5
8A5
330
A
100
AcDbEntity
  8
sanindusa
100
AcDbLine
 10
149.9695034084728
 20
170.4959499894511
 30
0.0
 11
150.0343210656874
 21
170.495949989451
 31
0.0
  0
LINE
  5
930
330
A
100
AcDbEntity
  8
sanindusa
100
AcDbLine
 10
149.9695034084728
 20
170.4959499894511
 30
0.0
 11
149.9282852984675
 21
170.4959499894507
 31
0.0
  0
LINE
  5
948
330
A
100
AcDbEntity
  8
sanindusa
100
AcDbLine
 10
149.9353724538481
 20
170.5109499894508
 30
0.0
 11
149.9353724538484
 21
171.1809499894511
 31
0.0
  0
ARC
  5
949
330
A
100
AcDbEntity
  8
sanindusa
100
AcDbCircle
 10
149.9303724538479
 20
170.5109499894512
 30
0.0
 40
0.0050000000001182
100
AcDbArc
 50
270.0000000016284
 51
0.0
  0
LINE
  5
956
330
A
100
AcDbEntity
  8
sanindusa
100
AcDbLine
 10
149.9283724538487
 20
170.5059499894513
 30
0.0
 11
149.9303724538481
 21
170.5059499894513
 31
0.0
  0
LINE
  5
958
330
A
100
AcDbEntity
  8
sanindusa
100
AcDbLine
 10
149.925372453848
 20
170.4979499894518
 30
0.0
 11
149.9253724538483
 21
170.5009442202143
 31
0.0
  0
LINE
  5
964
330
A
100
AcDbEntity
  8
sanindusa
100
AcDbLine
 10
149.925372453848
 20
170.5029499894511
 30
0.0
 11
149.9253724538483
 21
170.5009442202143
 31
0.0
  0
ARC
  5
965
330
A
100
AcDbEntity
  8
sanindusa
100
AcDbCircle
 10
149.9283724538484
 20
170.5029499894509
 30
0.0
 40
0.0030000000003636
100
AcDbArc
 50
89.99999999511466
 51
179.9999999967431
  0
ARC
  5
966
330
A
100
AcDbEntity
  8
sanindusa
100
AcDbCircle
 10
149.927372453848
 20
170.4979499894511
 30
0.0
 40
0.002
100
AcDbArc
 50
190.362127532841
 51
270.0
  0
LINE
  5
967
330
A
100
AcDbEntity
  8
sanindusa
100
AcDbLine
 10
149.927372453848
 20
170.4959499894511
 30
0.0
 11
149.9282852984675
 21
170.4959499894507
 31
0.0
  0
LINE
  5
97C
330
A
100
AcDbEntity
  8
sanindusa
100
AcDbLine
 10
149.9353724538486
 20
171.1842387753776
 30
0.0
 11
149.9353724538484
 21
171.1809499894511
 31
0.0
  0
ARC
  5
998
330
A
100
AcDbEntity
  8
sanindusa
100
AcDbCircle
 10
149.9145617361777
 20
171.1824194947012
 30
0.0
 40
0.0208900874132035
100
AcDbArc
 50
4.996116880135931
 51
24.19934035559623
  0
LINE
  5
9A7
330
A
100
AcDbEntity
  8
sanindusa
100
AcDbLine
 10
149.925372453848
 20
170.5029499894511
 30
0.0
 11
149.9253724538478
 21
170.5108814309839
 31
0.0
  0
LINE
  5
9B6
330
A
100
AcDbEntity
  8
sanindusa
100
AcDbLine
 10
149.9253724538478
 20
170.5108814309839
 30
0.0
 11
149.9253724538478
 21
171.1909671290687
 31
0.0
  0
LINE
  5
9C2
330
A
100
AcDbEntity
  8
sanindusa
100
AcDbLine
 10
149.9368597536013
 20
171.1959499894516
 30
0.0
 11
149.9401027035042
 21
171.1959499894517
 31
0.0
  0
LWPOLYLINE
  5
9C3
330
A
100
AcDbEntity
  8
sanindusa
100
AcDbPolyline
 90
        5
 70
   128
 43
0.0
 10
149.9336161036869
 20
171.1909826033369
 10
149.9338690565841
 20
171.1928859822476
 10
149.9345735906803
 20
171.1944970353484
 10
149.9356233246335
 20
171.1955725011789
 10
149.936859753552
 20
171.1959499894511
  0
LINE
  5
9CB
330
A
100
AcDbEntity
  8
sanindusa
100
AcDbLine
 10
149.930546971504
 20
171.1959499894511
 30
0.0
 11
149.9368597536013
 21
171.1959499894516
 31
0.0
  0
LINE
  5
9CD
330
A
100
AcDbEntity
  8
sanindusa
100
AcDbLine
 10
149.928372453848
 20
171.1959499894511
 30
0.0
 11
149.9305469715707
 21
171.1959499894511
 31
0.0
  0
ARC
  5
9CE
330
A
100
AcDbEntity
  8
sanindusa
100
AcDbCircle
 10
149.9283724538493
 20
171.1929499894506
 30
0.0
 40
0.0030000000012788
100
AcDbArc
 50
90.00000002442666
 51
179.9999999918578
  0
LINE
  5
9CF
330
A
100
AcDbEntity
  8
sanindusa
100
AcDbLine
 10
149.9253724538478
 20
171.1909671290687
 30
0.0
 11
149.925372453848
 21
171.1929499894523
 31
0.0
  0
ARC
  5
9D5
330
A
100
AcDbEntity
  8
sanindusa
100
AcDbCircle
 10
150.3167723502741
 20
171.324587643986
 30
0.0
 40
0.0060000116542013
100
AcDbArc
 50
84.24202929752816
 51
156.6489819602643
  0
ARC
  5
9F1
330
A
100
AcDbEntity
  8
sanindusa
100
AcDbCircle
 10
150.2368872588935
 20
171.222605195885
 30
0.0
 40
0.0100050805516977
100
AcDbArc
 50
274.8112281506707
 51
321.2691114170237
  0
LWPOLYLINE
  5
9F2
330
A
100
AcDbEntity
  8
sanindusa
100
AcDbPolyline
 90
       23
 70
   128
 43
0.0
 10
150.237726416235
 20
171.2126353688152
 10
150.2374859929795
 20
171.212659124226
 10
150.2361198868768
 20
171.2126758960352
 10
150.2337646911379
 20
171.2126979666316
 10
150.2305540052915
 20
171.2127370070127
 10
150.2265757471891
 20
171.2127949313285
 10
150.2218187162769
 20
171.2128678882133
 10
150.2150460872764
 20
171.2129699201682
 10
150.2070820312247
 20
171.2130843218898
 10
150.1979872598204
 20
171.2132100370007
 10
150.1879525616634
 20
171.2133447033281
 10
150.1770101918249
 20
171.2134871684328
 10
150.1651619220153
 20
171.213635582322
 10
150.1524114882837
 20
171.2137874674435
 10
150.1389868652098
 20
171.2139373462689
 10
150.1249616238503
 20
171.2140813684648
 10
150.1103354522333
 20
171.214217070009
 10
150.0976930694369
 20
171.2143246175889
 10
150.0847773154117
 20
171.2144280042564
 10
150.0717162297426
 20
171.2145284589593
 10
150.058504565688
 20
171.2146215496805
 10
150.0451206010077
 20
171.2146946726244
 10
150.031539219468
 20
171.2147346825424
  0
ARC
  5
A0C
330
A
100
AcDbEntity
  8
sanindusa
100
AcDbCircle
 10
149.886872453848
 20
173.1242931829007
 30
0.0
 40
1.775227147992298
100
AcDbArc
 50
269.4351751639644
 51
270.5648248360357
  0
ARC
  5
A0D
330
A
100
AcDbEntity
  8
sanindusa
100
AcDbCircle
 10
149.886872453848
 20
173.1001021888908
 30
0.0
 40
1.763036750441322
100
AcDbArc
 50
269.431269594505
 51
270.5687304054951
  0
LINE
  5
A0E
330
A
100
AcDbEntity
  8
sanindusa
100
AcDbLine
 10
149.869372453848
 20
171.3371522935714
 30
0.0
 11
149.869372453848
 21
171.3491522935714
 31
0.0
  0
ARC
  5
A0F
330
A
100
AcDbEntity
  8
sanindusa
100
AcDbCircle
 10
149.3233222739488
 20
171.2175743319013
 30
0.0
 40
0.6369766848962171
100
AcDbArc
 50
7.273231684978164
 51
9.702051953112308
  0
LINE
  5
A10
330
A
100
AcDbEntity
  8
sanindusa
100
AcDbLine
 10
149.9551736522731
 20
171.2982163359136
 30
0.0
 11
149.9452831750578
 21
171.2967403750544
 31
0.0
  0
ARC
  5
A11
330
A
100
AcDbEntity
  8
sanindusa
100
AcDbCircle
 10
149.3035566713962
 20
171.2146247011515
 30
0.0
 40
0.6469589549594793
100
AcDbArc
 50
7.291972199875826
 51
9.683311438133722
  0
LINE
  5
A12
330
A
100
AcDbEntity
  8
sanindusa
100
AcDbLine
 10
149.941298080738
 20
171.3234446635348
 30
0.0
 11
149.9511885579532
 21
171.324920624394
 31
0.0
  0
LINE
  5
A13
330
A
100
AcDbEntity
  8
sanindusa
100
AcDbLine
 10
149.9511885579532
 20
171.324920624394
 30
0.0
 11
149.9483356818207
 21
171.3440378700873
 31
0.0
  0
ARC
  5
A15
330
A
100
AcDbEntity
  8
sanindusa
100
AcDbCircle
 10
148.484042839427
 20
171.4361817860811
 30
0.0
 40
1.533294043136927
100
AcDbArc
 50
352.0244855051537
 51
355.3937809718068
  0
LWPOLYLINE
  5
A16
330
A
100
AcDbEntity
  8
sanindusa
100
AcDbPolyline
 90
       10
 70
   128
 43
0.0
 10
149.9678335076147
 20
171.2133821006277
 10
149.9678335076148
 20
171.2133821006277
 10
149.968386620001
 20
171.2135432262914
 10
149.9700333029655
 20
171.2140227799174
 10
149.972759425949
 20
171.2148162407684
 10
149.9765569696985
 20
171.2159206075009
 10
149.9814238037745
 20
171.2173343317604
 10
149.98736362683
 20
171.2190572912559
 10
149.9943860657793
 20
171.2210908009241
 10
150.002506025877
 20
171.2234373992804
  0
LINE
  5
A22
330
A
100
AcDbEntity
  8
sanindusa
100
AcDbLine
 10
149.9678335076101
 20
171.2133821006605
 30
0.0
 11
149.9551736522731
 21
171.2982163359136
 31
0.0
  0
LINE
  5
A29
330
A
100
AcDbEntity
  8
sanindusa
100
AcDbLine
 10
149.941298080738
 20
171.3234446635348
 30
0.0
 11
149.9392524842541
 21
171.3371522935753
 31
0.0
  0
LINE
  5
A2A
330
A
100
AcDbEntity
  8
sanindusa
100
AcDbLine
 10
149.957943028797
 20
171.2119061505101
 30
0.0
 11
149.9452831750577
 21
171.2967403750544
 31
0.0
  0
LWPOLYLINE
  5
A2B
330
A
100
AcDbEntity
  8
sanindusa
100
AcDbPolyline
 90
        3
 70
   128
 43
0.0
 10
150.1387970301642
 20
171.1963458374721
 10
150.0991077060836
 20
171.1949800605567
 10
150.0833796972676
 20
171.194619466886
  0
ARC
  5
A30
330
A
100
AcDbEntity
  8
sanindusa
100
AcDbCircle
 10
150.0358602006272
 20
173.6101341517738
 30
0.0
 40
2.415982191085999
100
AcDbArc
 50
272.8241760468145
 51
275.0309665235969
  0
ARC
  5
A31
330
A
100
AcDbEntity
  8
sanindusa
100
AcDbCircle
 10
150.2521124786513
 20
171.1536522937592
 30
0.0
 40
0.0499999998121857
100
AcDbArc
 50
89.99999998697246
 51
95.0310771596728
  0
ARC
  5
A32
330
A
100
AcDbEntity
  8
sanindusa
100
AcDbCircle
 10
150.1464541097187
 20
171.1960522935731
 30
0.0
 40
0.0050000000016661
100
AcDbArc
 50
199.75303155464
 51
269.9999999918578
  0
ARC
  5
A33
330
A
100
AcDbEntity
  8
sanindusa
100
AcDbCircle
 10
150.1389248445949
 20
171.1933485614513
 30
0.0
 40
0.0029999999969787
100
AcDbArc
 50
19.75303150469029
 51
92.44182271901809
  0
ARC
  5
A34
330
A
100
AcDbEntity
  8
sanindusa
100
AcDbCircle
 10
150.0835763531824
 20
171.184621394903
 30
0.0
 40
0.0100000000017816
100
AcDbArc
 50
91.12687536876718
 51
174.9999999910147
  0
LINE
  5
A35
330
A
100
AcDbEntity
  8
sanindusa
100
AcDbLine
 10
150.0736144061971
 20
171.1854929523325
 30
0.0
 11
150.070872453848
 21
171.1541522935714
 31
0.0
  0
LINE
  5
A36
330
A
100
AcDbEntity
  8
sanindusa
100
AcDbLine
 10
150.070872453848
 20
171.1541522935714
 30
0.0
 11
150.059372453848
 21
171.1541522935714
 31
0.0
  0
LINE
  5
A37
330
A
100
AcDbEntity
  8
sanindusa
100
AcDbLine
 10
150.059372453848
 20
171.1933556190164
 30
0.0
 11
150.059372453848
 21
171.1541522935714
 31
0.0
  0
LWPOLYLINE
  5
A38
330
A
100
AcDbEntity
  8
sanindusa
100
AcDbPolyline
 90
        3
 70
   128
 43
0.0
 10
150.059372453848
 20
171.1933556190164
 10
150.0595981897731
 20
171.1942786504305
 10
150.06006033579
 20
171.1948650381764
  0
LINE
  5
A3D
330
A
100
AcDbEntity
  8
sanindusa
100
AcDbLine
 10
150.06006033579
 20
171.1948650381764
 30
0.0
 11
150.0704881233252
 21
171.2039297755854
 31
0.0
  0
ARC
  5
A3F
330
A
100
AcDbEntity
  8
sanindusa
100
AcDbCircle
 10
150.035872453844
 20
173.6099416757407
 30
0.0
 40
2.405789382169354
100
AcDbArc
 50
270.8549700005599
 51
274.8129703316958
  0
ARC
  5
A40
330
A
100
AcDbEntity
  8
sanindusa
100
AcDbCircle
 10
149.8682833627985
 20
171.5182107044601
 30
0.0
 40
0.4824999999962296
100
AcDbArc
 50
321.2717331339399
 51
336.6490269590725
  0
LINE
  5
A41
330
A
100
AcDbEntity
  8
sanindusa
100
AcDbLine
 10
150.3173743099694
 20
171.3305573830406
 30
0.0
 11
150.355518061293
 21
171.32651048813
 31
0.0
  0
ARC
  5
A42
330
A
100
AcDbEntity
  8
sanindusa
100
AcDbCircle
 10
150.3548539907497
 20
171.320547350507
 30
0.0
 40
0.0059999999998174
100
AcDbArc
 50
346.7252112682469
 51
83.64557480084844
  0
ARC
  5
A43
330
A
100
AcDbEntity
  8
sanindusa
100
AcDbCircle
 10
149.8370541142487
 20
171.442709946926
 30
0.0
 40
0.538015424652607
100
AcDbArc
 50
332.3862032527332
 51
346.7251655093733
  0
ARC
  5
A44
330
A
100
AcDbEntity
  8
sanindusa
100
AcDbCircle
 10
150.309354822311
 20
171.195652293572
 30
0.0
 40
0.0050000000006531
100
AcDbArc
 50
270.0
 51
332.3859951642587
  0
LINE
  5
A45
330
A
100
AcDbEntity
  8
sanindusa
100
AcDbLine
 10
150.309354822311
 20
171.1906522935714
 30
0.0
 11
150.304890009898
 21
171.1906522935712
 31
0.0
  0
ARC
  5
A46
330
A
100
AcDbEntity
  8
sanindusa
100
AcDbCircle
 10
150.304890009898
 20
171.1956522935718
 30
0.0
 40
0.0050000000005826
100
AcDbArc
 50
195.0000000091279
 51
270.0
  0
LINE
  5
A47
330
A
100
AcDbEntity
  8
sanindusa
100
AcDbLine
 10
150.2985630296478
 20
171.1999463887974
 30
0.0
 11
150.3000603807662
 21
171.1943581983454
 31
0.0
  0
ARC
  5
A48
330
A
100
AcDbEntity
  8
sanindusa
100
AcDbCircle
 10
150.293733400516
 20
171.198652293571
 30
0.0
 40
0.0050000000005829
100
AcDbArc
 50
15.0000000091279
 51
90.0
  0
LINE
  5
A49
330
A
100
AcDbEntity
  8
sanindusa
100
AcDbLine
 10
150.293733400516
 20
171.2036522935715
 30
0.0
 11
150.2521124737497
 21
171.2036522935714
 31
0.0
  0
ARC
  5
A4A
330
A
100
AcDbEntity
  8
sanindusa
100
AcDbCircle
 10
150.155046385415
 20
171.194089931663
 30
0.0
 40
0.0030000000045801
100
AcDbArc
 50
92.82411071251789
 51
165.80071787638
  0
ARC
  5
A4B
330
A
100
AcDbEntity
  8
sanindusa
100
AcDbCircle
 10
150.1472907979778
 20
171.1960522935717
 30
0.0
 40
0.0050000000003619
100
AcDbArc
 50
270.0000000032569
 51
345.8007179336505
  0
LINE
  5
A4C
330
A
100
AcDbEntity
  8
sanindusa
100
AcDbLine
 10
150.1472907979781
 20
171.1910522935714
 30
0.0
 11
150.146454109718
 21
171.1910522935714
 31
0.0
  0
ARC
  5
A4D
330
A
100
AcDbEntity
  8
sanindusa
100
AcDbCircle
 10
149.859097578262
 20
171.3321522935721
 30
0.0
 40
0.0049999999993514
100
AcDbArc
 50
90.0
 51
177.700000018006
  0
LINE
  5
A4E
330
A
100
AcDbEntity
  8
sanindusa
100
AcDbLine
 10
149.8517559670538
 20
171.2739516346084
 30
0.0
 11
149.854101606287
 21
171.3323529525331
 31
0.0
  0
ARC
  5
A4F
330
A
100
AcDbEntity
  8
sanindusa
100
AcDbCircle
 10
149.8467599950781
 20
171.2741522935717
 30
0.0
 40
0.0050000000003357
100
AcDbArc
 50
269.9999999983715
 51
357.6999999919719
  0
LINE
  5
A50
330
A
100
AcDbEntity
  8
sanindusa
100
AcDbLine
 10
149.827372453848
 20
171.2691522935709
 30
0.0
 11
149.846759995078
 21
171.2691522935714
 31
0.0
  0
ARC
  5
A51
330
A
100
AcDbEntity
  8
sanindusa
100
AcDbCircle
 10
149.827372453848
 20
171.271152293571
 30
0.0
 40
0.0020000000000795
100
AcDbArc
 50
180.0
 51
270.0
  0
LINE
  5
A52
330
A
100
AcDbEntity
  8
sanindusa
100
AcDbLine
 10
149.8253724538479
 20
171.2711522937004
 30
0.0
 11
149.825372453848
 21
171.3471522935758
 31
0.0
  0
ARC
  5
A53
330
A
100
AcDbEntity
  8
sanindusa
100
AcDbCircle
 10
149.8273724538479
 20
171.3471522935719
 30
0.0
 40
0.0019999999998618
100
AcDbArc
 50
89.99999999348622
 51
180.0
  0
LINE
  5
A54
330
A
100
AcDbEntity
  8
sanindusa
100
AcDbLine
 10
149.8273724507791
 20
171.3491522935714
 30
0.0
 11
149.869372453848
 21
171.3491522935701
 31
0.0
  0
LINE
  5
A55
330
A
100
AcDbEntity
  8
sanindusa
100
AcDbLine
 10
149.859097578262
 20
171.3371522935714
 30
0.0
 11
149.869372453848
 21
171.3371522935744
 31
0.0
  0
LINE
  5
A56
330
A
100
AcDbEntity
  8
sanindusa
100
AcDbLine
 10
150.011684571906
 20
171.1948650381764
 30
0.0
 11
150.06006033579
 21
171.1948650381764
 31
0.0
  0
LINE
  5
A57
330
A
100
AcDbEntity
  8
sanindusa
100
AcDbLine
 10
150.0012567843708
 20
171.2039297755854
 30
0.0
 11
150.011684571906
 21
171.1948650381764
 31
0.0
  0
ARC
  5
A5E
330
A
100
AcDbEntity
  8
sanindusa
100
AcDbCircle
 10
149.962306721507
 20
171.1826648579264
 30
0.0
 40
0.0100000000000404
100
AcDbArc
 50
188.4876418206448
 51
265.0000000302326
  0
LINE
  5
A5F
330
A
100
AcDbEntity
  8
sanindusa
100
AcDbLine
 10
149.9614351640848
 20
171.172702910945
 30
0.0
 11
150.012372453848
 21
171.1682464755394
 31
0.0
  0
LINE
  5
A60
330
A
100
AcDbEntity
  8
sanindusa
100
AcDbLine
 10
150.012372453848
 20
171.1541522935714
 30
0.0
 11
150.012372453848
 21
171.1682464755394
 31
0.0
  0
LINE
  5
A61
330
A
100
AcDbEntity
  8
sanindusa
100
AcDbLine
 10
150.012372453848
 20
171.1541522935714
 30
0.0
 11
150.000872453848
 21
171.1541522935714
 31
0.0
  0
LINE
  5
A62
330
A
100
AcDbEntity
  8
sanindusa
100
AcDbLine
 10
150.000872453848
 20
171.1541522935714
 30
0.0
 11
150.000791822917
 21
171.1550739093274
 31
0.0
  0
ARC
  5
A63
330
A
100
AcDbEntity
  8
sanindusa
100
AcDbCircle
 10
149.9958108494272
 20
171.1546381306136
 30
0.0
 40
0.0049999999993344
100
AcDbArc
 50
5.000000000732073
 51
84.99999999926792
  0
LINE
  5
A64
330
A
100
AcDbEntity
  8
sanindusa
100
AcDbLine
 10
149.9605636066563
 20
171.1627409639642
 30
0.0
 11
149.996246628141
 21
171.1596191041034
 31
0.0
  0
ARC
  5
A65
330
A
100
AcDbEntity
  8
sanindusa
100
AcDbCircle
 10
149.962306721507
 20
171.1826648579264
 30
0.0
 40
0.02
100
AcDbArc
 50
188.4876418222554
 51
265.0000000122459
  0
LINE
  5
A66
330
A
100
AcDbEntity
  8
sanindusa
100
AcDbLine
 10
149.9196670363821
 20
171.3328902740014
 30
0.0
 11
149.942525767077
 21
171.1797129362074
 31
0.0
  0
LINE
  5
A68
330
A
100
AcDbEntity
  8
sanindusa
100
AcDbLine
 10
149.9291417486628
 20
171.3371522935714
 30
0.0
 11
149.9392524842541
 21
171.3371522935753
 31
0.0
  0
LINE
  5
A69
330
A
100
AcDbEntity
  8
sanindusa
100
AcDbLine
 10
149.9291417486628
 20
171.3371522935714
 30
0.0
 11
149.9524162442919
 21
171.1811888970672
 31
0.0
  0
LINE
  5
A6A
330
A
100
AcDbEntity
  8
sanindusa
100
AcDbLine
 10
150.012372453848
 20
171.178284673915
 30
0.0
 11
149.9986561559484
 21
171.1794846944873
 31
0.0
  0
LINE
  5
A6B
330
A
100
AcDbEntity
  8
sanindusa
100
AcDbLine
 10
149.9986561559484
 20
171.1794846944873
 30
0.0
 11
149.9981305014989
 21
171.1854929523383
 31
0.0
  0
ARC
  5
A6C
330
A
100
AcDbEntity
  8
sanindusa
100
AcDbCircle
 10
149.9881685545048
 20
171.1846213949028
 30
0.0
 40
0.0100000000017701
100
AcDbArc
 50
5.000000012229732
 51
88.8729810463236
  0
ARC
  5
A6D
330
A
100
AcDbEntity
  8
sanindusa
100
AcDbCircle
 10
150.0358725054381
 20
173.6099440709198
 30
0.0
 40
2.415791777895185
100
AcDbArc
 50
268.6092313821872
 51
268.8731880062338
  0
ARC
  5
A6E
330
A
100
AcDbEntity
  8
sanindusa
100
AcDbCircle
 10
149.9777299340366
 20
171.2148647973074
 30
0.0
 40
0.0200068790658586
100
AcDbArc
 50
188.5042059689636
 51
268.5926670772751
  0
ARC
  5
A6F
330
A
100
AcDbEntity
  8
sanindusa
100
AcDbCircle
 10
149.9777239848299
 20
171.2148580614873
 30
0.0
 40
0.0100000000002247
100
AcDbArc
 50
188.4876418222554
 51
268.60923122904
  0
ARC
  5
A70
330
A
100
AcDbEntity
  8
sanindusa
100
AcDbCircle
 10
150.035872453844
 20
173.6099416757407
 30
0.0
 40
2.405789382169354
100
AcDbArc
 50
268.6092312306679
 51
269.1450300271206
  0
ARC
  5
A71
330
A
100
AcDbEntity
  8
sanindusa
100
AcDbCircle
 10
149.9999446666561
 20
171.202420356457
 30
0.0
 40
0.0019999999667929
100
AcDbArc
 50
48.9999996406054
 51
89.14503027303686
  0
LWPOLYLINE
  5
A72
330
A
100
AcDbEntity
  8
sanindusa
100
AcDbPolyline
 90
        3
 70
   128
 43
0.0
 10
150.011684571906
 20
171.1948650381764
 10
150.0122330964657
 20
171.1940891100173
 10
150.012372453848
 20
171.1933556190164
  0
LINE
  5
A77
330
A
100
AcDbEntity
  8
sanindusa
100
AcDbLine
 10
150.012372453848
 20
171.178284673915
 30
0.0
 11
150.012372453848
 21
171.1933556190164
 31
0.0
  0
LINE
  5
A93
330
A
100
AcDbEntity
  8
sanindusa
100
AcDbLine
 10
150.1383270450264
 20
171.1906522935714
 30
0.0
 11
150.304890009898
 21
171.1906522935712
 31
0.0
  0
LINE
  5
AB1
330
A
100
AcDbEntity
  8
sanindusa
100
AcDbLine
 10
149.8517559670538
 20
171.2739516346084
 30
0.0
 11
149.8494810377273
 21
171.2173108396414
 31
0.0
  0
LWPOLYLINE
  5
AB2
330
A
100
AcDbEntity
  8
sanindusa
100
AcDbPolyline
 90
       10
 70
   128
 43
0.0
 10
150.011739729548
 20
171.2148826487164
 10
150.0037169221037
 20
171.2125440290297
 10
149.9967784149855
 20
171.2105173720184
 10
149.9909095188585
 20
171.2088001742904
 10
149.986100753988
 20
171.2073911474484
 10
149.982348492522
 20
171.2062904313499
 10
149.979654860556
 20
171.2054995832094
 10
149.978027797092
 20
171.2050216045419
 10
149.977481273724
 20
171.2048610073551
 10
149.9774812737239
 20
171.204861007355
  0
LINE
  5
ABE
330
A
100
AcDbEntity
  8
sanindusa
100
AcDbLine
 10
150.0289103102416
 20
171.2147422497208
 30
0.0
 11
150.011739729548
 21
171.2148826487164
 31
0.0
  0
LINE
  5
ABF
330
A
100
AcDbEntity
  8
sanindusa
100
AcDbLine
 10
150.031539219468
 20
171.2147346825424
 30
0.0
 11
150.0289103102416
 21
171.2147422497208
 31
0.0
  0
ARC
  5
AC1
330
A
100
AcDbEntity
  8
sanindusa
100
AcDbCircle
 10
150.0124380722817
 20
171.2248970623232
 30
0.0
 40
0.0100387331160384
100
AcDbArc
 50
188.3606230327152
 51
266.011006729904
  0
LINE
  5
ACE
330
A
100
AcDbEntity
  8
sanindusa
100
AcDbLine
 10
150.012372453848
 20
171.1541522935714
 30
0.0
 11
150.059372453848
 21
171.1541522935714
 31
0.0
  0
LINE
  5
ADA
330
A
100
AcDbEntity
  8
sanindusa
100
AcDbLine
 10
149.8253724538479
 20
171.2711522937004
 30
0.0
 11
149.8253724538479
 21
171.2062382574782
 31
0.0
  0
LWPOLYLINE
  5
AEB
330
A
100
AcDbEntity
  8
sanindusa
100
AcDbPolyline
 90
        3
 70
   128
 43
0.0
 10
149.849481037729
 20
171.2173108396864
 10
149.8495956412455
 20
171.2151011094549
 10
149.8501228845069
 20
171.2129015617863
  0
LWPOLYLINE
  5
B08
330
A
100
AcDbEntity
  8
sanindusa
100
AcDbPolyline
 90
        5
 70
   128
 43
0.0
 10
149.8521978107635
 20
171.2036522941926
 10
149.8520223402915
 20
171.2062190306965
 10
149.8514272542006
 20
171.2087199549375
 10
149.8507370069736
 20
171.2109375725714
 10
149.850122884505
 20
171.2129015617864
  0
LINE
  5
B16
330
A
100
AcDbEntity
  8
sanindusa
100
AcDbLine
 10
149.8521978151993
 20
171.2036522935714
 30
0.0
 11
149.8585388749021
 21
171.2036522935714
 31
0.0
  0
LINE
  5
B18
330
A
100
AcDbEntity
  8
sanindusa
100
AcDbLine
 10
149.8273724538482
 20
171.2036522935714
 30
0.0
 11
149.8519456185036
 21
171.2036522935714
 31
0.0
  0
ARC
  5
B19
330
A
100
AcDbEntity
  8
sanindusa
100
AcDbCircle
 10
149.827372453848
 20
171.2056522935714
 30
0.0
 40
0.0020000000000002
100
AcDbArc
 50
180.0
 51
270.0000000065138
  0
LINE
  5
B1A
330
A
100
AcDbEntity
  8
sanindusa
100
AcDbLine
 10
149.8253724538479
 20
171.2062382574871
 30
0.0
 11
149.825372453848
 21
171.2056522935714
 31
0.0
  0
LINE
  5
B1B
330
A
100
AcDbEntity
  8
sanindusa
100
AcDbLine
 10
149.8585388747768
 20
171.2036522935714
 30
0.0
 11
149.9389532848099
 21
171.2036522935714
 31
0.0
  0
ARC
  5
B1D
330
A
100
AcDbEntity
  8
sanindusa
100
AcDbCircle
 10
150.0120908988944
 20
171.2305635784894
 30
0.0
 40
0.0119437105218539
100
AcDbArc
 50
216.6301329844166
 51
269.1441355794827
  0
LINE
  5
B29
330
A
100
AcDbEntity
  8
sanindusa
100
AcDbLine
 10
150.0290236045579
 20
171.2184784452798
 30
0.0
 11
150.03151695785
 21
171.2184727246214
 31
0.0
  0
LINE
  5
B2A
330
A
100
AcDbEntity
  8
sanindusa
100
AcDbLine
 10
150.0290236045579
 20
171.2184784452798
 30
0.0
 11
150.01191249464
 21
171.2186212004624
 31
0.0
  0
ARC
  5
B2C
330
A
100
AcDbEntity
  8
sanindusa
100
AcDbCircle
 10
148.4190695434574
 20
171.4309023726968
 30
0.0
 40
1.60692624697505
100
AcDbArc
 50
352.4088162594153
 51
355.7382242217004
  0
ARC
  5
B36
330
A
100
AcDbEntity
  8
sanindusa
100
AcDbCircle
 10
150.0047845695628
 20
171.303791851855
 30
0.0
 40
0.0184490274101222
100
AcDbArc
 50
24.64889542963638
 51
53.40170322520271
  0
LINE
  5
B47
330
A
100
AcDbEntity
  8
sanindusa
100
AcDbLine
 10
149.825372453848
 20
171.2056522935714
 30
0.0
 11
149.825372453848
 21
171.2004640268947
 31
0.0
  0
ARC
  5
B49
330
A
100
AcDbEntity
  8
sanindusa
100
AcDbCircle
 10
150.0423520206651
 20
171.3623625943379
 30
0.0
 40
0.0549639189222408
100
AcDbArc
 50
237.2467040477736
 51
247.764103205803
  0
LINE
  5
B58
330
A
100
AcDbEntity
  8
sanindusa
100
AcDbLine
 10
149.825372453848
 20
171.2004640268947
 30
0.0
 11
149.8253724538481
 21
171.1948758364325
 31
0.0
  0
LINE
  5
B5A
330
A
100
AcDbEntity
  8
sanindusa
100
AcDbLine
 10
149.835372453848
 20
171.1906522935714
 30
0.0
 11
149.925372453848
 21
171.1906522935714
 31
0.0
  0
LINE
  5
B5C
330
A
100
AcDbEntity
  8
sanindusa
100
AcDbLine
 10
149.827372453848
 20
171.1906522935715
 30
0.0
 11
149.835372453848
 21
171.1906522935714
 31
0.0
  0
ARC
  5
B5D
330
A
100
AcDbEntity
  8
sanindusa
100
AcDbCircle
 10
149.827372453848
 20
171.1926522935714
 30
0.0
 40
0.0020000000000002
100
AcDbArc
 50
180.0
 51
269.9999999886009
  0
LINE
  5
B5E
330
A
100
AcDbEntity
  8
sanindusa
100
AcDbLine
 10
149.8253724538481
 20
171.1948758364325
 30
0.0
 11
149.825372453848
 21
171.1926522935722
 31
0.0
  0
LINE
  5
B67
330
A
100
AcDbEntity
  8
sanindusa
100
AcDbLine
 10
150.009067832999
 20
171.3214218604574
 30
0.0
 11
150.0078264231708
 21
171.321568874573
 31
0.0
  0
LWPOLYLINE
  5
B69
330
A
100
AcDbEntity
  8
sanindusa
100
AcDbPolyline
 90
        3
 70
   128
 43
0.0
 10
150.015783898328
 20
171.3186033804424
 10
150.0126058460387
 20
171.3204050900907
 10
150.009067832999
 20
171.3214218604574
  0
LWPOLYLINE
  5
BCC
330
A
100
AcDbEntity
  8
sanindusa
100
AcDbPolyline
 90
       24
 70
   128
 43
0.0
 10
150.2447258191752
 20
171.2163639179366
 10
150.2444799107034
 20
171.2163766300118
 10
150.2435701181923
 20
171.2163890425028
 10
150.2422641916066
 20
171.2163976012298
 10
150.2405381613741
 20
171.2164094557258
 10
150.2372159676663
 20
171.2164450484826
 10
150.2331028025623
 20
171.2165034480318
 10
150.2281813162757
 20
171.2165788970206
 10
150.2211676005433
 20
171.2166839056949
 10
150.2129237512568
 20
171.2168000025834
 10
150.2035186157511
 20
171.2169266966932
 10
150.193150756041
 20
171.2170625299746
 10
150.1818487982422
 20
171.2172066982242
 10
150.1696134213251
 20
171.2173572152586
 10
150.1564485520408
 20
171.2175114463348
 10
150.1425867480369
 20
171.2176634508346
 10
150.1281017329238
 20
171.2178087720392
 10
150.1130002282286
 20
171.217944608748
 10
150.0999632787689
 20
171.2180525038642
 10
150.0866618465209
 20
171.2181580461306
 10
150.0732195835897
 20
171.2182640569602
 10
150.0595707766478
 20
171.2183640512953
 10
150.0456782418265
 20
171.2184397491589
 10
150.03151695785
 20
171.2184727246214
  0
LWPOLYLINE
  5
C24
330
A
100
AcDbEntity
  8
sanindusa
100
AcDbPolyline
 90
        4
 70
   128
 43
0.0
 10
150.06782296229
 20
171.2044300864914
 10
150.0696890787434
 20
171.2044255257512
 10
150.0709722783163
 20
171.204422239442
 10
150.071655492778
 20
171.2044204398314
  0
LWPOLYLINE
  5
C2A
330
A
100
AcDbEntity
  8
sanindusa
100
AcDbPolyline
 90
       20
 70
   128
 43
0.0
 10
150.0004102104955
 20
171.2044212891989
 10
150.0017038111946
 20
171.2044246363652
 10
150.0034401310335
 20
171.2044289337553
 10
150.0057249362894
 20
171.2044342472947
 10
150.008539561992
 20
171.2044402596787
 10
150.0117966423327
 20
171.2044464825225
 10
150.0154841643157
 20
171.2044525761295
 10
150.019519259279
 20
171.2044580861674
 10
150.0238155778387
 20
171.2044626226996
 10
150.0283552665494
 20
171.2044659253679
 10
150.03298904436
 20
171.2044677166289
 10
150.0376852272693
 20
171.2044679035047
 10
150.0423643605887
 20
171.2044664592217
 10
150.046901291853
 20
171.2044635047651
 10
150.0512848473589
 20
171.204459196917
 10
150.0553773239821
 20
171.2044538859513
 10
150.0591377260956
 20
171.204447908559
 10
150.0625176568339
 20
171.2044416392357
 10
150.0654135272475
 20
171.2044355924762
 10
150.06782296229
 20
171.2044300864914
  0
ARC
  5
C41
330
A
100
AcDbEntity
  8
sanindusa
100
AcDbCircle
 10
150.0074917117215
 20
171.3132324600254
 30
0.0
 40
0.00489638796846
100
AcDbArc
 50
357.8335577107991
 51
61.05299795212236
  0
LINE
  5
C45
330
A
100
AcDbEntity
  8
sanindusa
100
AcDbLine
 10
150.012615289582
 20
171.3161375124784
 30
0.0
 11
150.0098615654547
 21
171.3175171313572
 31
0.0
  0
LINE
  5
C47
330
A
100
AcDbEntity
  8
sanindusa
100
AcDbLine
 10
150.0012851294588
 20
171.3220928100921
 30
0.0
 11
150.0078264231708
 21
171.321568874573
 31
0.0
  0
LWPOLYLINE
  5
C75
330
A
100
AcDbEntity
  8
sanindusa
100
AcDbPolyline
 90
        9
 70
   128
 43
0.0
 10
149.0073919970542
 20
171.3271457531009
 10
149.0070018104521
 20
171.3271076819969
 10
149.0066266172876
 20
171.326994915532
 10
149.0062808364078
 20
171.3268117873736
 10
149.0059777563324
 20
171.326565335222
 10
149.0057290245692
 20
171.3262650303475
 10
149.0055441999951
 20
171.3259224136058
 10
149.0054303855044
 20
171.325550651917
 10
149.0053919550407
 20
171.3251640322554
  0
LINE
  5
C7B
330
A
100
AcDbEntity
  8
sanindusa
100
AcDbLine
 10
149.8419567845511
 20
171.2791522935713
 30
0.0
 11
149.8441096623359
 21
171.3327542704585
 31
0.0
  0
LINE
  5
C7C
330
A
100
AcDbEntity
  8
sanindusa
100
AcDbLine
 10
149.8353724538479
 20
171.2791522935711
 30
0.0
 11
149.8419567845511
 21
171.2791522935713
 31
0.0
  0
LINE
  5
C7D
330
A
100
AcDbEntity
  8
sanindusa
100
AcDbLine
 10
149.8353724538479
 20
171.2791522935711
 30
0.0
 11
149.835372453848
 21
171.3391522935711
 31
0.0
  0
LINE
  5
C7E
330
A
100
AcDbEntity
  8
sanindusa
100
AcDbLine
 10
149.835372453848
 20
171.3391522935711
 30
0.0
 11
149.8458310791006
 21
171.3391522935708
 31
0.0
  0
ARC
  5
C7F
330
A
100
AcDbEntity
  8
sanindusa
100
AcDbCircle
 10
149.859097578262
 20
171.3321522935721
 30
0.0
 40
0.0149999999993514
100
AcDbArc
 50
152.1818607198122
 51
177.700000018006
  0
ARC
  5
C80
330
A
100
AcDbEntity
  8
sanindusa
100
AcDbCircle
 10
149.8370541142487
 20
171.442709946926
 30
0.0
 40
0.5280154246526071
100
AcDbArc
 50
333.0830634667469
 51
346.232391292205
  0
ARC
  5
C81
330
A
100
AcDbEntity
  8
sanindusa
100
AcDbCircle
 10
149.8682833627985
 20
171.5182107044601
 30
0.0
 40
0.4924999999962295
100
AcDbArc
 50
321.8011434088505
 51
336.306206916073
  0
LINE
  5
C82
330
A
100
AcDbEntity
  8
sanindusa
100
AcDbLine
 10
150.319268632519
 20
171.3203002790365
 30
0.0
 11
150.3498991150374
 21
171.3170505110008
 31
0.0
  0
ARC
  5
C83
330
A
100
AcDbEntity
  8
sanindusa
100
AcDbCircle
 10
150.293733400516
 20
171.198652293571
 30
0.0
 40
0.0150000000005829
100
AcDbArc
 50
19.57645606370794
 51
90.0
  0
LINE
  5
C84
330
A
100
AcDbEntity
  8
sanindusa
100
AcDbLine
 10
150.293733400516
 20
171.2136522935716
 30
0.0
 11
150.2553239606086
 21
171.2136522935714
 31
0.0
  0
LWPOLYLINE
  5
C85
330
A
100
AcDbEntity
  8
sanindusa
100
AcDbPolyline
 90
        2
 70
   128
 43
0.0
 10
150.0343210656874
 20
170.505949989451
 10
150.0955004793958
 20
170.505949989451
  0
LWPOLYLINE
  5
C86
330
A
100
AcDbEntity
  8
sanindusa
100
AcDbPolyline
 90
        4
 70
   128
 43
0.0
 10
150.1282600731638
 20
171.1829057168474
 10
150.1277009613332
 20
171.1176761296205
 10
150.118781034382
 20
171.1534518037147
 10
150.1131030510698
 20
171.1762248080555
  0
ARC
  5
C87
330
A
100
AcDbEntity
  8
sanindusa
100
AcDbCircle
 10
150.1090516773057
 20
171.2059500592694
 30
0.0
 40
0.0300000698183462
100
AcDbArc
 50
277.7612496602592
 51
309.8125801186161
  0
LINE
  5
C89
330
A
100
AcDbEntity
  8
sanindusa
100
AcDbLine
 10
150.1104999378276
 20
170.510821423036
 30
0.0
 11
150.1105867541066
 21
170.5209499888549
 31
0.0
  0
LINE
  5
C8A
330
A
100
AcDbEntity
  8
sanindusa
100
AcDbLine
 10
150.1157148667914
 20
170.5209499894511
 30
0.0
 11
150.1105867979916
 21
170.5209499894511
 31
0.0
  0
ARC
  5
C8B
330
A
100
AcDbEntity
  8
sanindusa
100
AcDbCircle
 10
150.0955004793958
 20
170.5109499993956
 30
0.0
 40
0.0150000099445585
100
AcDbArc
 50
269.9997608841688
 51
270.0
  0
ARC
  5
C8C
330
A
100
AcDbEntity
  8
sanindusa
100
AcDbCircle
 10
150.1157148772538
 20
170.5359499942559
 30
0.0
 40
0.0150000048048396
100
AcDbArc
 50
269.9998882724574
 51
297.3252753363929
  0
ARC
  5
C8D
330
A
100
AcDbEntity
  8
sanindusa
100
AcDbCircle
 10
150.0955004793958
 20
170.5109499993956
 30
0.0
 40
0.0150000099445585
100
AcDbArc
 50
340.5287525065613
 51
359.5087950844682
  0
LWPOLYLINE
  5
C8E
330
A
100
AcDbEntity
  8
sanindusa
100
AcDbPolyline
 90
        3
 70
   128
 43
0.0
 10
150.1096426220513
 20
170.5059499894511
 10
150.1224575837466
 20
170.5059499894511
 10
150.1226005021475
 20
170.5226237677094
  0
ENDSEC
  0
SECTION
  2
OBJECTS
  0
DICTIONARY
  5
19
330
0
100
AcDbDictionary
281
     1
  3
ACAD_COLOR
350
C5B
  3
ACAD_GROUP
350
1A
  3
ACAD_LAYOUT
350
C5E
  3
ACAD_MATERIAL
350
C5A
  3
ACAD_MLEADERSTYLE
350
CE9
  3
ACAD_MLINESTYLE
350
1B
  3
ACAD_PLOTSETTINGS
350
C5F
  3
ACAD_PLOTSTYLENAME
350
C58
  3
ACAD_SCALELIST
350
CC7
  3
ACAD_TABLESTYLE
350
C5C
  3
ACAD_VISUALSTYLE
350
CB3
  3
ACDB_RECOMPOSE_DATA
350
CFA
  3
AcDbVariableDictionary
350
C71
  3
ASE_INDEX_DICTIONARY
350
C6D
  3
DWGPROPS
350
CFB
  0
DICTIONARY
  5
CED
330
14
100
AcDbDictionary
280
     1
281
     1
  3
ADSK_XREC_LAYER_RECONCILED
360
CEE
  0
DICTIONARY
  5
CEF
330
24
100
AcDbDictionary
280
     1
281
     1
  3
ADSK_XREC_LAYER_RECONCILED
360
CF0
  0
DICTIONARY
  5
CF1
330
C64
100
AcDbDictionary
280
     1
281
     1
  3
ADSK_XREC_LAYER_RECONCILED
360
CF2
  0
DICTIONARY
  5
C79
330
A
100
AcDbDictionary
280
     1
281
     1
  3
ACAD_SORTENTS
360
C7A
  0
DICTIONARY
  5
C5B
102
{ACAD_REACTORS
330
19
102
}
330
19
100
AcDbDictionary
281
     1
  0
DICTIONARY
  5
1A
102
{ACAD_REACTORS
330
19
102
}
330
19
100
AcDbDictionary
281
     1
  0
DICTIONARY
  5
C5E
102
{ACAD_REACTORS
330
19
102
}
330
19
100
AcDbDictionary
281
     1
  3
Layout1
350
C61
  3
Model
350
C60
  0
DICTIONARY
  5
C5A
102
{ACAD_REACTORS
330
19
102
}
330
19
100
AcDbDictionary
281
     1
  3
ByBlock
350
CA3
  3
ByLayer
350
C9B
  3
Global
350
CAB
  0
DICTIONARY
  5
CE9
102
{ACAD_REACTORS
330
19
102
}
330
19
100
AcDbDictionary
281
     1
  3
Standard
350
CEA
  0
DICTIONARY
  5
1B
102
{ACAD_REACTORS
330
19
102
}
330
19
100
AcDbDictionary
281
     1
  3
STANDARD
350
1C
  0
DICTIONARY
  5
C5F
102
{ACAD_REACTORS
330
19
102
}
330
19
100
AcDbDictionary
281
     1
  0
ACDBDICTIONARYWDFLT
  5
C58
102
{ACAD_REACTORS
330
19
102
}
330
19
100
AcDbDictionary
281
     1
  3
Normal
350
C59
100
AcDbDictionaryWithDefault
340
C59
  0
DICTIONARY
  5
CC7
102
{ACAD_REACTORS
330
19
102
}
330
19
100
AcDbDictionary
281
     1
  3
A0
350
CC8
  3
A1
350
CC9
  3
A2
350
CCA
  3
A3
350
CCB
  3
A4
350
CCC
  3
A5
350
CCD
  3
A6
350
CCE
  3
A7
350
CCF
  3
A8
350
CD0
  3
A9
350
CD1
  3
B0
350
CD2
  3
B1
350
CD3
  3
B2
350
CD4
  3
B3
350
CD5
  3
B4
350
CD6
  3
B5
350
CD7
  3
B6
350
CD8
  3
B7
350
CD9
  3
B8
350
CDA
  3
B9
350
CDB
  3
C0
350
CDC
  3
C1
350
CDD
  3
C2
350
CDE
  3
C3
350
CDF
  3
C4
350
CE0
  3
C5
350
CE1
  3
C6
350
CE2
  3
C7
350
CE3
  3
C8
350
CE4
  3
C9
350
CE5
  3
D0
350
CE6
  3
D1
350
CE7
  3
D2
350
CE8
  0
DICTIONARY
  5
C5C
102
{ACAD_REACTORS
330
19
102
}
330
19
100
AcDbDictionary
281
     1
  3
Standard
350
C5D
  0
DICTIONARY
  5
CB3
102
{ACAD_REACTORS
330
19
102
}
330
19
100
AcDbDictionary
281
     1
  3
2dWireframe
350
CB9
  3
3D Hidden
350
CBB
  3
3dWireframe
350
CBA
  3
Basic
350
CB8
  3
Brighten
350
CBF
  3
ColorChange
350
CC3
  3
Conceptual
350
CBC
  3
Dim
350
CBE
  3
EdgeColorOff
350
CC6
  3
Facepattern
350
CC2
  3
Flat
350
CB4
  3
FlatWithEdges
350
CB5
  3
Gouraud
350
CB6
  3
GouraudWithEdges
350
CB7
  3
JitterOff
350
CC4
  3
Linepattern
350
CC1
  3
OverhangOff
350
CC5
  3
Realistic
350
CBD
  3
Thicken
350
CC0
  0
XRECORD
  5
CFA
102
{ACAD_REACTORS
330
19
102
}
330
19
100
AcDbXrecord
280
     1
 90
        1
330
C5D
  0
DICTIONARY
  5
C71
102
{ACAD_REACTORS
330
19
102
}
330
19
100
AcDbDictionary
281
     1
  3
CANNOSCALE
350
CF4
  3
CMLEADERSTYLE
350
CF3
  3
CTABLESTYLE
350
C72
  3
DIMASSOC
350
C98
  3
INDEXCTL
350
CF6
  3
PROJECTNAME
350
C99
  3
SORTENTS
350
CF5
  3
XCLIPFRAME
350
CF7
  0
DICTIONARY
  5
C6D
102
{ACAD_REACTORS
330
19
102
}
330
19
100
AcDbDictionary
281
     1
  3
ASEBlockHierarchyIndexRecord
350
C6F
1001
DCO15
1040
1554700573.625
  0
XRECORD
  5
CFB
102
{ACAD_REACTORS
330
19
102
}
330
19
100
AcDbXrecord
280
     1
  1
DWGPROPS COOKIE
  2

  3

  4

  6

  7

  8
Julio
  9

300
=
301
=
302
=
303
=
304
=
305
=
306
=
307
=
308
=
309
=
 40
0.0085150810185185
 41
2444972.041666667
 42
2456147.427882303
  1

 90
        0
  0
XRECORD
  5
CEE
102
{ACAD_REACTORS
330
CED
102
}
330
CED
100
AcDbXrecord
280
     1
290
     1
  0
XRECORD
  5
CF0
102
{ACAD_REACTORS
330
CEF
102
}
330
CEF
100
AcDbXrecord
280
     1
290
     1
  0
XRECORD
  5
CF2
102
{ACAD_REACTORS
330
CF1
102
}
330
CF1
100
AcDbXrecord
280
     1
290
     1
  0
SORTENTSTABLE
  5
C7A
102
{ACAD_REACTORS
330
C79
102
}
330
C79
100
AcDbSortentsTable
330
A
331
20B
  5
20B
331
B9
  5
B9
331
A15
  5
A35
331
C84
  5
A60
331
AD
  5
AD
331
1C0
  5
1C0
331
C80
  5
A52
331
A11
  5
A32
331
C7C
  5
A6B
331
584
  5
584
331
A5E
  5
AB1
331
580
  5
580
331
6EE
  5
6EE
331
A56
  5
A77
331
57C
  5
57C
331
AC1
  5
B67
331
B2C
  5
C7E
331
A52
  5
A6D
331
1FB
  5
1FB
331
887
  5
97C
331
1F7
  5
1F7
331
883
  5
964
331
A0D
  5
A2A
331
3F5
  5
3F5
331
81C
  5
81C
331
966
  5
9CF
331
9F1
  5
A16
331
A4E
  5
A66
331
A4A
  5
A61
331
62B
  5
62B
331
A46
  5
A55
331
504
  5
504
331
B18
  5
C45
331
791
  5
791
331
A42
  5
A50
331
AB1
  5
B5A
331
877
  5
884
331
9D5
  5
A15
331
804
  5
804
331
25E
  5
25E
331
17C
  5
17C
331
9CD
  5
A11
331
956
  5
9C3
331
5FB
  5
5FB
331
B67
  5
C87
331
5BB
  5
5BB
331
B08
  5
C2A
331
A36
  5
A46
331
A71
  5
B36
331
A32
  5
A42
331
454
  5
454
331
216
  5
216
331
1CF
  5
1CF
331
7C8
  5
7C8
331
85F
  5
871
331
C4
  5
C4
331
C8B
  5
872
331
5B7
  5
5B7
331
A6D
  5
B1D
331
A2A
  5
A3D
331
A69
  5
B18
331
A65
  5
AEB
331
B47
  5
C80
331
A61
  5
ABF
331
A22
  5
A37
331
749
  5
749
331
444
  5
444
331
83F
  5
861
331
1C7
  5
1C7
331
C87
  5
878
331
B8
  5
B8
331
C83
  5
A5E
331
A10
  5
A31
331
C7F
  5
A65
331
C7B
  5
A68
331
583
  5
583
331
A55
  5
A72
331
7A4
  5
7A4
331
A51
  5
A6C
331
7A0
  5
7A0
331
497
  5
497
331
2A1
  5
2A1
331
886
  5
967
331
408
  5
408
331
882
  5
958
331
A0C
  5
A29
331
1BB
  5
1BB
331
47F
  5
47F
331
1F6
  5
1F6
331
1F2
  5
1F2
331
87A
  5
930
331
81B
  5
81B
331
965
  5
9CE
331
65E
  5
65E
331
A4D
  5
A64
331
50B
  5
50B
331
B1B
  5
C78
331
A49
  5
A5F
331
A45
  5
A54
331
62A
  5
62A
331
A41
  5
A4D
331
790
  5
790
331
275
  5
275
331
473
  5
473
331
1EA
  5
1EA
331
45F
  5
45F
331
183
  5
183
331
872
  5
881
331
1E2
  5
1E2
331
3D4
  5
3D4
331
4FF
  5
4FF
331
A3D
  5
A49
331
6B9
  5
6B9
331
4F3
  5
4F3
331
A35
  5
A45
331
76C
  5
76C
331
B5E
  5
C86
331
5BA
  5
5BA
331
A70
  5
B2C
331
B5A
  5
C83
331
AEB
  5
C24
331
A31
  5
A41
331
1DE
  5
1DE
331
251
  5
251
331
215
  5
215
331
1CE
  5
1CE
331
7C7
  5
7C7
331
C47
  5
C8E
331
949
  5
9C2
331
C8E
  5
856
331
C8A
  5
8A5
331
A6C
  5
B1B
331
4EB
  5
4EB
331
6A5
  5
6A5
331
A68
  5
B16
331
A29
  5
A38
331
750
  5
750
331
59E
  5
59E
331
A64
  5
ADA
331
A60
  5
ABE
331
748
  5
748
331
20D
  5
20D
331
856
  5
868
331
209
  5
209
331
2AC
  5
2AC
331
83E
  5
85F
331
C86
  5
948
331
8A5
  5
998
331
1C2
  5
1C2
331
A13
  5
A34
331
C82
  5
A4E
331
AB
  5
AB
331
C7E
  5
A71
331
998
  5
9F2
331
582
  5
582
331
B36
  5
C7F
331
70C
  5
70C
331
A54
  5
A70
331
7A3
  5
7A3
331
B2A
  5
C7D
331
A50
  5
A6A
331
496
  5
496
331
A0F
  5
A30
331
885
  5
966
331
881
  5
956
331
97C
  5
9F1
331
822
  5
822
331
1BA
  5
1BA
331
19E
  5
19E
331
964
  5
9CD
331
879
  5
887
331
ABF
  5
B5E
331
79F
  5
79F
331
A4C
  5
A63
331
50A
  5
50A
331
A48
  5
A57
331
B1A
  5
C75
331
6D8
  5
6D8
331
629
  5
629
331
B16
  5
C41
331
A44
  5
A53
331
B69
  5
C88
331
A40
  5
A4B
331
875
  5
883
331
472
  5
472
331
182
  5
182
331
871
  5
87A
331
9CF
  5
A13
331
958
  5
9CB
331
7E2
  5
7E2
331
9CB
  5
A10
331
78F
  5
78F
331
4FE
  5
4FE
331
A93
  5
B58
331
5F9
  5
5F9
331
A77
  5
B49
331
A38
  5
A48
331
5B9
  5
5B9
331
B5D
  5
C85
331
A34
  5
A44
331
A30
  5
A40
331
122
  5
122
331
7CA
  5
7CA
331
861
  5
877
331
9C3
  5
A0F
331
7C6
  5
7C6
331
948
  5
9B6
331
1C9
  5
1C9
331
C8D
  5
875
331
930
  5
9A7
331
C89
  5
886
331
C2A
  5
C8B
331
A6F
  5
B2A
331
6A4
  5
6A4
331
A6B
  5
B1A
331
74F
  5
74F
331
ADA
  5
BCC
331
B49
  5
C81
331
ACE
  5
B69
331
A63
  5
ACE
331
4DA
  5
4DA
331
698
  5
698
331
20C
  5
20C
331
9A7
  5
A0C
331
200
  5
200
331
4B9
  5
4B9
331
41A
  5
41A
331
A16
  5
A36
331
C85
  5
83F
331
AA
  5
AA
331
A12
  5
A33
331
1C1
  5
1C1
331
C81
  5
A4C
331
C7D
  5
A6E
331
A5F
  5
AB2
331
585
  5
585
331
6EF
  5
6EF
331
A57
  5
A93
331
57D
  5
57D
331
68C
  5
68C
331
A53
  5
A6F
331
7A2
  5
7A2
331
C24
  5
C8A
331
B29
  5
C7C
331
A0E
  5
A2B
331
884
  5
965
331
1F8
  5
1F8
331
28B
  5
28B
331
1B9
  5
1B9
331
3F6
  5
3F6
331
92
  5
92
331
1F4
  5
1F4
331
967
  5
9D5
331
C75
  5
C8F
331
878
  5
885
331
9F2
  5
A22
331
A4F
  5
A69
331
ABE
  5
B5D
331
A4B
  5
A62
331
B1D
  5
C7B
331
BCC
  5
C89
331
62C
  5
62C
331
6D7
  5
6D7
331
B19
  5
C47
331
A47
  5
A56
331
505
  5
505
331
A43
  5
A51
331
AB2
  5
B5C
331
3E6
  5
3E6
331
181
  5
181
331
1E0
  5
1E0
331
9CE
  5
A12
331
868
  5
879
331
A3F
  5
A4A
331
78E
  5
78E
331
A37
  5
A47
331
6B3
  5
6B3
331
A72
  5
B47
331
5B8
  5
5B8
331
B5C
  5
C84
331
A33
  5
A43
331
B58
  5
C82
331
2E2
  5
2E2
331
2B6
  5
2B6
331
9C2
  5
A0E
331
7C9
  5
7C9
331
1C8
  5
1C8
331
C5
  5
C5
331
C45
  5
C8D
331
9B6
  5
A0D
331
449
  5
449
331
C41
  5
C8C
331
C8C
  5
882
331
A6E
  5
B29
331
6A7
  5
6A7
331
A6A
  5
B19
331
A2B
  5
A3F
331
A66
  5
B08
331
74E
  5
74E
331
A62
  5
AC1
331
4D9
  5
4D9
  0
LAYOUT
  5
C61
102
{ACAD_XDICTIONARY
360
CFF
102
}
102
{ACAD_REACTORS
330
C5E
102
}
330
C5E
100
AcDbPlotSettings
  1

  2
HP DesignJet 500PS42+HPGL2 Card
  4

  6

 40
0.0
 41
0.0
 42
0.0
 43
0.0
 44
0.0
 45
0.0
 46
0.0
 47
0.0
 48
0.0
 49
0.0
140
0.0
141
0.0
142
1.0
143
1.0
 70
   688
 72
     0
 73
     0
 74
     5
  7
C:\Documents and Settings\Julio\Application Data\Autodesk\AutoCAD 2006\R16.2\enu\Plot Styles\sanindusa.ctb
 75
    16
147
1.0
148
0.0
149
0.0
100
AcDbLayout
  1
Layout1
 70
     1
 71
     1
 10
0.0
 20
0.0
 11
12.0
 21
9.0
 12
0.0
 22
0.0
 32
0.0
 14
1.000000000000000E+20
 24
1.000000000000000E+20
 34
1.000000000000000E+20
 15
-1.000000000000000E+20
 25
-1.000000000000000E+20
 35
-1.000000000000000E+20
146
0.0
 13
0.0
 23
0.0
 33
0.0
 16
1.0
 26
0.0
 36
0.0
 17
0.0
 27
1.0
 37
0.0
 76
     0
330
B
  0
LAYOUT
  5
C60
102
{ACAD_XDICTIONARY
360
CFD
102
}
102
{ACAD_REACTORS
330
C5E
102
}
330
C5E
100
AcDbPlotSettings
  1

  2
HP DesignJet 500PS42+HPGL2 Card
  4

  6

 40
0.0
 41
0.0
 42
0.0
 43
0.0
 44
0.0
 45
0.0
 46
0.0
 47
0.0
 48
0.0
 49
0.0
140
0.0
141
0.0
142
1.0
143
1.0
 70
  1712
 72
     0
 73
     0
 74
     0
  7
C:\Documents and Settings\Julio\Application Data\Autodesk\AutoCAD 2006\R16.2\enu\Plot Styles\sanindusa.ctb
 75
     0
147
1.0
148
0.0
149
0.0
100
AcDbLayout
  1
Model
 70
     1
 71
     0
 10
0.0
 20
0.0
 11
12.0
 21
9.0
 12
0.0
 22
0.0
 32
0.0
 14
0.0
 24
0.0
 34
0.0
 15
0.0
 25
0.0
 35
0.0
146
0.0
 13
0.0
 23
0.0
 33
0.0
 16
1.0
 26
0.0
 36
0.0
 17
0.0
 27
1.0
 37
0.0
 76
     0
330
A
331
C92
  0
MATERIAL
  5
CA3
102
{ACAD_XDICTIONARY
360
CA4
102
}
102
{ACAD_REACTORS
330
C5A
102
}
330
C5A
100
AcDbMaterial
  1
ByBlock
 72
     0
 43
0.0208333333333333
 43
0.0
 43
0.0
 43
0.0
 43
0.0
 43
0.0208333333333333
 43
0.0
 43
0.0
 43
0.0
 43
0.0
 43
1.0
 43
0.0
 43
0.0
 43
0.0
 43
0.0
 43
1.0
 77
     0
 47
0.0208333333333333
 47
0.0
 47
0.0
 47
0.0
 47
0.0
 47
0.0208333333333333
 47
0.0
 47
0.0
 47
0.0
 47
0.0
 47
1.0
 47
0.0
 47
0.0
 47
0.0
 47
0.0
 47
1.0
171
     0
 49
0.0208333333333333
 49
0.0
 49
0.0
 49
0.0
 49
0.0
 49
0.0208333333333333
 49
0.0
 49
0.0
 49
0.0
 49
0.0
 49
1.0
 49
0.0
 49
0.0
 49
0.0
 49
0.0
 49
1.0
175
     0
142
0.0208333333333333
142
0.0
142
0.0
142
0.0
142
0.0
142
0.0208333333333333
142
0.0
142
0.0
142
0.0
142
0.0
142
1.0
142
0.0
142
0.0
142
0.0
142
0.0
142
1.0
179
     0
144
0.0208333333333333
144
0.0
144
0.0
144
0.0
144
0.0
144
0.0208333333333333
144
0.0
144
0.0
144
0.0
144
0.0
144
1.0
144
0.0
144
0.0
144
0.0
144
0.0
144
1.0
147
0.0208333333333333
147
0.0
147
0.0
147
0.0
147
0.0
147
0.0208333333333333
147
0.0
147
0.0
147
0.0
147
0.0
147
1.0
147
0.0
147
0.0
147
0.0
147
0.0
147
1.0
  0
MATERIAL
  5
C9B
102
{ACAD_XDICTIONARY
360
C9C
102
}
102
{ACAD_REACTORS
330
C5A
102
}
330
C5A
100
AcDbMaterial
  1
ByLayer
 72
     0
 43
0.0208333333333333
 43
0.0
 43
0.0
 43
0.0
 43
0.0
 43
0.0208333333333333
 43
0.0
 43
0.0
 43
0.0
 43
0.0
 43
1.0
 43
0.0
 43
0.0
 43
0.0
 43
0.0
 43
1.0
 77
     0
 47
0.0208333333333333
 47
0.0
 47
0.0
 47
0.0
 47
0.0
 47
0.0208333333333333
 47
0.0
 47
0.0
 47
0.0
 47
0.0
 47
1.0
 47
0.0
 47
0.0
 47
0.0
 47
0.0
 47
1.0
171
     0
 49
0.0208333333333333
 49
0.0
 49
0.0
 49
0.0
 49
0.0
 49
0.0208333333333333
 49
0.0
 49
0.0
 49
0.0
 49
0.0
 49
1.0
 49
0.0
 49
0.0
 49
0.0
 49
0.0
 49
1.0
175
     0
142
0.0208333333333333
142
0.0
142
0.0
142
0.0
142
0.0
142
0.0208333333333333
142
0.0
142
0.0
142
0.0
142
0.0
142
1.0
142
0.0
142
0.0
142
0.0
142
0.0
142
1.0
179
     0
144
0.0208333333333333
144
0.0
144
0.0
144
0.0
144
0.0
144
0.0208333333333333
144
0.0
144
0.0
144
0.0
144
0.0
144
1.0
144
0.0
144
0.0
144
0.0
144
0.0
144
1.0
147
0.0208333333333333
147
0.0
147
0.0
147
0.0
147
0.0
147
0.0208333333333333
147
0.0
147
0.0
147
0.0
147
0.0
147
1.0
147
0.0
147
0.0
147
0.0
147
0.0
147
1.0
  0
MATERIAL
  5
CAB
102
{ACAD_XDICTIONARY
360
CAC
102
}
102
{ACAD_REACTORS
330
C5A
102
}
330
C5A
100
AcDbMaterial
  1
Global
 72
     0
 43
0.0208333333333333
 43
0.0
 43
0.0
 43
0.0
 43
0.0
 43
0.0208333333333333
 43
0.0
 43
0.0
 43
0.0
 43
0.0
 43
1.0
 43
0.0
 43
0.0
 43
0.0
 43
0.0
 43
1.0
 77
     0
 47
0.0208333333333333
 47
0.0
 47
0.0
 47
0.0
 47
0.0
 47
0.0208333333333333
 47
0.0
 47
0.0
 47
0.0
 47
0.0
 47
1.0
 47
0.0
 47
0.0
 47
0.0
 47
0.0
 47
1.0
171
     0
 49
0.0208333333333333
 49
0.0
 49
0.0
 49
0.0
 49
0.0
 49
0.0208333333333333
 49
0.0
 49
0.0
 49
0.0
 49
0.0
 49
1.0
 49
0.0
 49
0.0
 49
0.0
 49
0.0
 49
1.0
175
     0
142
0.0208333333333333
142
0.0
142
0.0
142
0.0
142
0.0
142
0.0208333333333333
142
0.0
142
0.0
142
0.0
142
0.0
142
1.0
142
0.0
142
0.0
142
0.0
142
0.0
142
1.0
179
     0
144
0.0208333333333333
144
0.0
144
0.0
144
0.0
144
0.0
144
0.0208333333333333
144
0.0
144
0.0
144
0.0
144
0.0
144
1.0
144
0.0
144
0.0
144
0.0
144
0.0
144
1.0
147
0.0208333333333333
147
0.0
147
0.0
147
0.0
147
0.0
147
0.0208333333333333
147
0.0
147
0.0
147
0.0
147
0.0
147
1.0
147
0.0
147
0.0
147
0.0
147
0.0
147
1.0
  0
MLEADERSTYLE
  5
CEA
102
{ACAD_REACTORS
330
CE9
102
}
330
CE9
100
AcDbMLeaderStyle
170
     2
171
     1
172
     0
 90
        2
 40
0.0
 41
0.0
173
     1
 91
-1056964608
340
11
 92
       -2
290
     1
 42
0.09
291
     1
 43
0.36
  3
Standard
 44
0.18
300

342
17
174
     1
178
     6
175
     1
176
     0
 93
-1056964608
 45
0.18
292
     0
297
     0
 46
0.18
 94
-1056964608
 47
1.0
 49
1.0
140
1.0
293
     1
141
0.0
294
     1
177
     0
142
1.0
295
     0
296
     0
143
0.125
1001
ACAD_MLEADERVER
1070
     2
  0
MLINESTYLE
  5
1C
102
{ACAD_REACTORS
330
1B
102
}
330
1B
100
AcDbMlineStyle
  2
STANDARD
 70
     0
  3

 62
     0
 51
90.0
 52
90.0
 71
     2
 49
0.5
 62
   256
  6
BYLAYER
 49
-0.5
 62
   256
  6
BYLAYER
  0
ACDBPLACEHOLDER
  5
C59
102
{ACAD_REACTORS
330
C58
102
}
330
C58
  0
SCALE
  5
CC8
102
{ACAD_REACTORS
330
CC7
102
}
330
CC7
100
AcDbScale
 70
     0
300
1:1
140
1.0
141
1.0
290
     1
  0
SCALE
  5
CC9
102
{ACAD_REACTORS
330
CC7
102
}
330
CC7
100
AcDbScale
 70
     0
300
1:2
140
1.0
141
2.0
290
     0
  0
SCALE
  5
CCA
102
{ACAD_REACTORS
330
CC7
102
}
330
CC7
100
AcDbScale
 70
     0
300
1:4
140
1.0
141
4.0
290
     0
  0
SCALE
  5
CCB
102
{ACAD_REACTORS
330
CC7
102
}
330
CC7
100
AcDbScale
 70
     0
300
1:5
140
1.0
141
5.0
290
     0
  0
SCALE
  5
CCC
102
{ACAD_REACTORS
330
CC7
102
}
330
CC7
100
AcDbScale
 70
     0
300
1:8
140
1.0
141
8.0
290
     0
  0
SCALE
  5
CCD
102
{ACAD_REACTORS
330
CC7
102
}
330
CC7
100
AcDbScale
 70
     0
300
1:10
140
1.0
141
10.0
290
     0
  0
SCALE
  5
CCE
102
{ACAD_REACTORS
330
CC7
102
}
330
CC7
100
AcDbScale
 70
     0
300
1:16
140
1.0
141
16.0
290
     0
  0
SCALE
  5
CCF
102
{ACAD_REACTORS
330
CC7
102
}
330
CC7
100
AcDbScale
 70
     0
300
1:20
140
1.0
141
20.0
290
     0
  0
SCALE
  5
CD0
102
{ACAD_REACTORS
330
CC7
102
}
330
CC7
100
AcDbScale
 70
     0
300
1:30
140
1.0
141
30.0
290
     0
  0
SCALE
  5
CD1
102
{ACAD_REACTORS
330
CC7
102
}
330
CC7
100
AcDbScale
 70
     0
300
1:40
140
1.0
141
40.0
290
     0
  0
SCALE
  5
CD2
102
{ACAD_REACTORS
330
CC7
102
}
330
CC7
100
AcDbScale
 70
     0
300
1:50
140
1.0
141
50.0
290
     0
  0
SCALE
  5
CD3
102
{ACAD_REACTORS
330
CC7
102
}
330
CC7
100
AcDbScale
 70
     0
300
1:100
140
1.0
141
100.0
290
     0
  0
SCALE
  5
CD4
102
{ACAD_REACTORS
330
CC7
102
}
330
CC7
100
AcDbScale
 70
     0
300
2:1
140
2.0
141
1.0
290
     0
  0
SCALE
  5
CD5
102
{ACAD_REACTORS
330
CC7
102
}
330
CC7
100
AcDbScale
 70
     0
300
4:1
140
4.0
141
1.0
290
     0
  0
SCALE
  5
CD6
102
{ACAD_REACTORS
330
CC7
102
}
330
CC7
100
AcDbScale
 70
     0
300
8:1
140
8.0
141
1.0
290
     0
  0
SCALE
  5
CD7
102
{ACAD_REACTORS
330
CC7
102
}
330
CC7
100
AcDbScale
 70
     0
300
10:1
140
10.0
141
1.0
290
     0
  0
SCALE
  5
CD8
102
{ACAD_REACTORS
330
CC7
102
}
330
CC7
100
AcDbScale
 70
     0
300
100:1
140
100.0
141
1.0
290
     0
  0
SCALE
  5
CD9
102
{ACAD_REACTORS
330
CC7
102
}
330
CC7
100
AcDbScale
 70
     0
300
1/128" = 1'-0"
140
0.0078125
141
12.0
290
     0
  0
SCALE
  5
CDA
102
{ACAD_REACTORS
330
CC7
102
}
330
CC7
100
AcDbScale
 70
     0
300
1/64" = 1'-0"
140
0.015625
141
12.0
290
     0
  0
SCALE
  5
CDB
102
{ACAD_REACTORS
330
CC7
102
}
330
CC7
100
AcDbScale
 70
     0
300
1/32" = 1'-0"
140
0.03125
141
12.0
290
     0
  0
SCALE
  5
CDC
102
{ACAD_REACTORS
330
CC7
102
}
330
CC7
100
AcDbScale
 70
     0
300
1/16" = 1'-0"
140
0.0625
141
12.0
290
     0
  0
SCALE
  5
CDD
102
{ACAD_REACTORS
330
CC7
102
}
330
CC7
100
AcDbScale
 70
     0
300
3/32" = 1'-0"
140
0.09375
141
12.0
290
     0
  0
SCALE
  5
CDE
102
{ACAD_REACTORS
330
CC7
102
}
330
CC7
100
AcDbScale
 70
     0
300
1/8" = 1'-0"
140
0.125
141
12.0
290
     0
  0
SCALE
  5
CDF
102
{ACAD_REACTORS
330
CC7
102
}
330
CC7
100
AcDbScale
 70
     0
300
3/16" = 1'-0"
140
0.1875
141
12.0
290
     0
  0
SCALE
  5
CE0
102
{ACAD_REACTORS
330
CC7
102
}
330
CC7
100
AcDbScale
 70
     0
300
1/4" = 1'-0"
140
0.25
141
12.0
290
     0
  0
SCALE
  5
CE1
102
{ACAD_REACTORS
330
CC7
102
}
330
CC7
100
AcDbScale
 70
     0
300
3/8" = 1'-0"
140
0.375
141
12.0
290
     0
  0
SCALE
  5
CE2
102
{ACAD_REACTORS
330
CC7
102
}
330
CC7
100
AcDbScale
 70
     0
300
1/2" = 1'-0"
140
0.5
141
12.0
290
     0
  0
SCALE
  5
CE3
102
{ACAD_REACTORS
330
CC7
102
}
330
CC7
100
AcDbScale
 70
     0
300
3/4" = 1'-0"
140
0.75
141
12.0
290
     0
  0
SCALE
  5
CE4
102
{ACAD_REACTORS
330
CC7
102
}
330
CC7
100
AcDbScale
 70
     0
300
1" = 1'-0"
140
1.0
141
12.0
290
     0
  0
SCALE
  5
CE5
102
{ACAD_REACTORS
330
CC7
102
}
330
CC7
100
AcDbScale
 70
     0
300
1-1/2" = 1'-0"
140
1.5
141
12.0
290
     0
  0
SCALE
  5
CE6
102
{ACAD_REACTORS
330
CC7
102
}
330
CC7
100
AcDbScale
 70
     0
300
3" = 1'-0"
140
3.0
141
12.0
290
     0
  0
SCALE
  5
CE7
102
{ACAD_REACTORS
330
CC7
102
}
330
CC7
100
AcDbScale
 70
     0
300
6" = 1'-0"
140
6.0
141
12.0
290
     0
  0
SCALE
  5
CE8
102
{ACAD_REACTORS
330
CC7
102
}
330
CC7
100
AcDbScale
 70
     0
300
1'-0" = 1'-0"
140
12.0
141
12.0
290
     0
  0
TABLESTYLE
  5
C5D
102
{ACAD_XDICTIONARY
360
CF8
102
}
102
{ACAD_REACTORS
330
C5C
102
}
330
C5C
100
AcDbTableStyle
  3
Standard
 70
     0
 71
     0
 40
0.06
 41
0.06
280
     0
281
     0
  7
STANDARD
140
0.18
170
     2
 62
     0
 63
     7
283
     0
274
    -2
284
     1
 64
     0
275
    -2
285
     1
 65
     0
276
    -2
286
     1
 66
     0
277
    -2
287
     1
 67
     0
278
    -2
288
     1
 68
     0
279
    -2
289
     1
 69
     0
  7
STANDARD
140
0.25
170
     5
 62
     0
 63
     7
283
     0
274
    -2
284
     1
 64
     0
275
    -2
285
     1
 65
     0
276
    -2
286
     1
 66
     0
277
    -2
287
     1
 67
     0
278
    -2
288
     1
 68
     0
279
    -2
289
     1
 69
     0
  7
STANDARD
140
0.18
170
     5
 62
     0
 63
     7
283
     0
274
    -2
284
     1
 64
     0
275
    -2
285
     1
 65
     0
276
    -2
286
     1
 66
     0
277
    -2
287
     1
 67
     0
278
    -2
288
     1
 68
     0
279
    -2
289
     1
 69
     0
  0
VISUALSTYLE
  5
CB9
102
{ACAD_XDICTIONARY
360
D0E
102
}
102
{ACAD_REACTORS
330
CB3
102
}
330
CB3
100
AcDbVisualStyle
  2
2dWireframe
 70
     4
 71
     0
 72
     2
 73
     0
 90
        0
 40
-0.6
 41
-30.0
 62
     5
 63
     7
 74
     1
 91
        4
 64
     7
 65
   257
 75
     1
175
     1
 42
1.0
 92
        0
 66
   257
 43
1.0
 76
     1
 77
     6
 78
     2
 67
     7
 79
     5
170
     0
171
     0
290
     0
174
     0
 93
        1
 44
0.0
173
     0
291
     0
 45
0.0
1001
ACAD
1000
AcDbSavedByObjectVersion
1070
     0
  0
VISUALSTYLE
  5
CBB
102
{ACAD_XDICTIONARY
360
D12
102
}
102
{ACAD_REACTORS
330
CB3
102
}
330
CB3
100
AcDbVisualStyle
  2
3D Hidden
 70
     6
 71
     1
 72
     2
 73
     2
 90
        0
 40
-0.6
 41
-30.0
 62
     5
 63
     7
 74
     2
 91
        2
 64
     7
 65
   257
 75
     2
175
     1
 42
179.0
 92
        0
 66
   257
 43
1.0
 76
     1
 77
     6
 78
     2
 67
     7
 79
     3
170
     0
171
     0
290
     0
174
     0
 93
        1
 44
0.0
173
     0
291
     0
 45
0.0
1001
ACAD
1000
AcDbSavedByObjectVersion
1070
     0
  0
VISUALSTYLE
  5
CBA
102
{ACAD_XDICTIONARY
360
D10
102
}
102
{ACAD_REACTORS
330
CB3
102
}
330
CB3
100
AcDbVisualStyle
  2
3dWireframe
 70
     5
 71
     0
 72
     2
 73
     0
 90
        0
 40
-0.6
 41
-30.0
 62
     5
 63
     7
 74
     1
 91
        4
 64
     7
 65
   257
 75
     1
175
     1
 42
1.0
 92
        0
 66
   257
 43
1.0
 76
     1
 77
     6
 78
     2
 67
     7
 79
     5
170
     0
171
     0
290
     0
174
     0
 93
        1
 44
0.0
173
     0
291
     0
 45
0.0
1001
ACAD
1000
AcDbSavedByObjectVersion
1070
     0
  0
VISUALSTYLE
  5
CB8
102
{ACAD_XDICTIONARY
360
D0C
102
}
102
{ACAD_REACTORS
330
CB3
102
}
330
CB3
100
AcDbVisualStyle
  2
Basic
 70
     7
 71
     1
 72
     0
 73
     1
 90
        0
 40
-0.6
 41
-30.0
 62
     5
 63
     7
 74
     0
 91
        4
 64
     7
 65
   257
 75
     1
175
     1
 42
1.0
 92
        8
 66
     7
 43
1.0
 76
     1
 77
     6
 78
     2
 67
     7
 79
     5
170
     0
171
     0
290
     0
174
     0
 93
        1
 44
0.0
173
     0
291
     1
 45
0.0
1001
ACAD
1000
AcDbSavedByObjectVersion
1070
     0
  0
VISUALSTYLE
  5
CBF
102
{ACAD_XDICTIONARY
360
D1A
102
}
102
{ACAD_REACTORS
330
CB3
102
}
330
CB3
100
AcDbVisualStyle
  2
Brighten
 70
    12
 71
     2
 72
     2
 73
     0
 90
        0
 40
-0.6
 41
-30.0
 62
     5
 63
     7
 74
     1
 91
        4
 64
     7
 65
   257
 75
     1
175
     1
 42
1.0
 92
        8
 66
     7
 43
1.0
 76
     1
 77
     6
 78
     2
 67
     7
 79
     5
170
     0
171
     0
290
     0
174
     0
 93
        1
 44
50.0
173
     0
291
     1
 45
0.0
1001
ACAD
1000
AcDbSavedByObjectVersion
1070
     0
  0
VISUALSTYLE
  5
CC3
102
{ACAD_XDICTIONARY
360
D22
102
}
102
{ACAD_REACTORS
330
CB3
102
}
330
CB3
100
AcDbVisualStyle
  2
ColorChange
 70
    16
 71
     2
 72
     2
 73
     3
 90
        0
 40
-0.6
 41
-30.0
 62
     5
 63
     8
 74
     1
 91
        4
 64
     7
 65
   257
 75
     1
175
     1
 42
1.0
 92
        8
 66
     8
 43
1.0
 76
     1
 77
     6
 78
     2
 67
     7
 79
     5
170
     0
171
     0
290
     0
174
     0
 93
        1
 44
0.0
173
     0
291
     1
 45
0.0
1001
ACAD
1000
AcDbSavedByObjectVersion
1070
     0
  0
VISUALSTYLE
  5
CBC
102
{ACAD_XDICTIONARY
360
D14
102
}
102
{ACAD_REACTORS
330
CB3
102
}
330
CB3
100
AcDbVisualStyle
  2
Conceptual
 70
     9
 71
     3
 72
     2
 73
     0
 90
        0
 40
-0.6
 41
-30.0
 62
     5
 63
     7
 74
     2
 91
        2
 64
     7
 65
   257
 75
     1
175
     1
 42
179.0
 92
        8
 66
     7
 43
1.0
 76
     1
 77
     6
 78
     2
 67
     7
 79
     3
170
     0
171
     0
290
     0
174
     0
 93
        1
 44
0.0
173
     0
291
     0
 45
0.0
1001
ACAD
1000
AcDbSavedByObjectVersion
1070
     0
  0
VISUALSTYLE
  5
CBE
102
{ACAD_XDICTIONARY
360
D18
102
}
102
{ACAD_REACTORS
330
CB3
102
}
330
CB3
100
AcDbVisualStyle
  2
Dim
 70
    11
 71
     2
 72
     2
 73
     0
 90
        0
 40
-0.6
 41
-30.0
 62
     5
 63
     7
 74
     1
 91
        4
 64
     7
 65
   257
 75
     1
175
     1
 42
1.0
 92
        8
 66
     7
 43
1.0
 76
     1
 77
     6
 78
     2
 67
     7
 79
     5
170
     0
171
     0
290
     0
174
     0
 93
        1
 44
-50.0
173
     0
291
     1
 45
0.0
1001
ACAD
1000
AcDbSavedByObjectVersion
1070
     0
  0
VISUALSTYLE
  5
CC6
102
{ACAD_XDICTIONARY
360
D28
102
}
102
{ACAD_REACTORS
330
CB3
102
}
330
CB3
100
AcDbVisualStyle
  2
EdgeColorOff
 70
    22
 71
     2
 72
     2
 73
     0
 90
        0
 40
-0.6
 41
-30.0
 62
     5
 63
     7
 74
     1
 91
        4
 64
     7
 65
   257
 75
     1
175
     1
 42
1.0
 92
        8
 66
     7
 43
1.0
 76
     1
 77
     6
 78
     2
 67
     7
 79
     5
170
     0
171
     0
290
     0
174
     0
 93
        1
 44
0.0
173
     0
291
     1
 45
0.0
1001
ACAD
1000
AcDbSavedByObjectVersion
1070
     0
  0
VISUALSTYLE
  5
CC2
102
{ACAD_XDICTIONARY
360
D20
102
}
102
{ACAD_REACTORS
330
CB3
102
}
330
CB3
100
AcDbVisualStyle
  2
Facepattern
 70
    15
 71
     2
 72
     2
 73
     0
 90
        0
 40
-0.6
 41
-30.0
 62
     5
 63
     7
 74
     1
 91
        4
 64
     7
 65
   257
 75
     1
175
     1
 42
1.0
 92
        8
 66
     7
 43
1.0
 76
     1
 77
     6
 78
     2
 67
     7
 79
     5
170
     0
171
     0
290
     0
174
     0
 93
        1
 44
0.0
173
     0
291
     1
 45
0.0
1001
ACAD
1000
AcDbSavedByObjectVersion
1070
     0
  0
VISUALSTYLE
  5
CB4
102
{ACAD_XDICTIONARY
360
D04
102
}
102
{ACAD_REACTORS
330
CB3
102
}
330
CB3
100
AcDbVisualStyle
  2
Flat
 70
     0
 71
     2
 72
     1
 73
     1
 90
        2
 40
-0.6
 41
30.0
 62
     5
 63
     7
 74
     0
 91
        4
 64
     7
 65
   257
 75
     1
175
     1
 42
1.0
 92
        8
 66
     7
 43
1.0
 76
     1
 77
     6
 78
     2
 67
     7
 79
     5
170
     0
171
     0
290
     0
174
     0
 93
       13
 44
0.0
173
     0
291
     1
 45
0.0
1001
ACAD
1000
AcDbSavedByObjectVersion
1070
     0
  0
VISUALSTYLE
  5
CB5
102
{ACAD_XDICTIONARY
360
D06
102
}
102
{ACAD_REACTORS
330
CB3
102
}
330
CB3
100
AcDbVisualStyle
  2
FlatWithEdges
 70
     1
 71
     2
 72
     1
 73
     1
 90
        2
 40
-0.6
 41
30.0
 62
     5
 63
     7
 74
     1
 91
        4
 64
     7
 65
   257
 75
     1
175
     1
 42
1.0
 92
        0
 66
   257
 43
1.0
 76
     1
 77
     6
 78
     2
 67
     7
 79
     5
170
     0
171
     0
290
     0
174
     0
 93
       13
 44
0.0
173
     0
291
     1
 45
0.0
1001
ACAD
1000
AcDbSavedByObjectVersion
1070
     0
  0
VISUALSTYLE
  5
CB6
102
{ACAD_XDICTIONARY
360
D08
102
}
102
{ACAD_REACTORS
330
CB3
102
}
330
CB3
100
AcDbVisualStyle
  2
Gouraud
 70
     2
 71
     2
 72
     2
 73
     1
 90
        2
 40
-0.6
 41
30.0
 62
     5
 63
     7
 74
     0
 91
        4
 64
     7
 65
   257
 75
     1
175
     1
 42
1.0
 92
        0
 66
     7
 43
1.0
 76
     1
 77
     6
 78
     2
 67
     7
 79
     5
170
     0
171
     0
290
     0
174
     0
 93
       13
 44
0.0
173
     0
291
     1
 45
0.0
1001
ACAD
1000
AcDbSavedByObjectVersion
1070
     0
  0
VISUALSTYLE
  5
CB7
102
{ACAD_XDICTIONARY
360
D0A
102
}
102
{ACAD_REACTORS
330
CB3
102
}
330
CB3
100
AcDbVisualStyle
  2
GouraudWithEdges
 70
     3
 71
     2
 72
     2
 73
     1
 90
        2
 40
-0.6
 41
30.0
 62
     5
 63
     7
 74
     1
 91
        4
 64
     7
 65
   257
 75
     1
175
     1
 42
1.0
 92
        0
 66
   257
 43
1.0
 76
     1
 77
     6
 78
     2
 67
     7
 79
     5
170
     0
171
     0
290
     0
174
     0
 93
       13
 44
0.0
173
     0
291
     1
 45
0.0
1001
ACAD
1000
AcDbSavedByObjectVersion
1070
     0
  0
VISUALSTYLE
  5
CC4
102
{ACAD_XDICTIONARY
360
D24
102
}
102
{ACAD_REACTORS
330
CB3
102
}
330
CB3
100
AcDbVisualStyle
  2
JitterOff
 70
    20
 71
     2
 72
     2
 73
     0
 90
        0
 40
-0.6
 41
-30.0
 62
     5
 63
     7
 74
     1
 91
        4
 64
     7
 65
   257
 75
     1
175
     1
 42
1.0
 92
       10
 66
     7
 43
1.0
 76
     1
 77
     6
 78
     2
 67
     7
 79
     5
170
     0
171
     0
290
     0
174
     0
 93
        1
 44
0.0
173
     0
291
     1
 45
0.0
1001
ACAD
1000
AcDbSavedByObjectVersion
1070
     0
  0
VISUALSTYLE
  5
CC1
102
{ACAD_XDICTIONARY
360
D1E
102
}
102
{ACAD_REACTORS
330
CB3
102
}
330
CB3
100
AcDbVisualStyle
  2
Linepattern
 70
    14
 71
     2
 72
     2
 73
     0
 90
        0
 40
-0.6
 41
-30.0
 62
     5
 63
     7
 74
     1
 91
        4
 64
     7
 65
   257
 75
     7
175
     7
 42
1.0
 92
        8
 66
     7
 43
1.0
 76
     1
 77
     6
 78
     2
 67
     7
 79
     5
170
     0
171
     0
290
     0
174
     0
 93
        1
 44
0.0
173
     0
291
     1
 45
0.0
1001
ACAD
1000
AcDbSavedByObjectVersion
1070
     0
  0
VISUALSTYLE
  5
CC5
102
{ACAD_XDICTIONARY
360
D26
102
}
102
{ACAD_REACTORS
330
CB3
102
}
330
CB3
100
AcDbVisualStyle
  2
OverhangOff
 70
    21
 71
     2
 72
     2
 73
     0
 90
        0
 40
-0.6
 41
-30.0
 62
     5
 63
     7
 74
     1
 91
        4
 64
     7
 65
   257
 75
     1
175
     1
 42
1.0
 92
        9
 66
     7
 43
1.0
 76
     1
 77
     6
 78
     2
 67
     7
 79
     5
170
     0
171
     0
290
     0
174
     0
 93
        1
 44
0.0
173
     0
291
     1
 45
0.0
1001
ACAD
1000
AcDbSavedByObjectVersion
1070
     0
  0
VISUALSTYLE
  5
CBD
102
{ACAD_XDICTIONARY
360
D16
102
}
102
{ACAD_REACTORS
330
CB3
102
}
330
CB3
100
AcDbVisualStyle
  2
Realistic
 70
     8
 71
     2
 72
     2
 73
     0
 90
        0
 40
-0.6
 41
-30.0
 62
     5
 63
     7
 74
     1
 91
        0
 64
     7
 65
   257
 75
     1
175
     1
 42
1.0
 92
        8
 66
     8
 43
1.0
 76
     1
 77
     6
 78
     2
 67
     7
 79
     5
170
     0
171
     0
290
     0
174
     0
 93
       13
 44
0.0
173
     0
291
     0
 45
0.0
1001
ACAD
1000
AcDbSavedByObjectVersion
1070
     0
  0
VISUALSTYLE
  5
CC0
102
{ACAD_XDICTIONARY
360
D1C
102
}
102
{ACAD_REACTORS
330
CB3
102
}
330
CB3
100
AcDbVisualStyle
  2
Thicken
 70
    13
 71
     2
 72
     2
 73
     0
 90
        0
 40
-0.6
 41
-30.0
 62
     5
 63
     7
 74
     1
 91
        4
 64
     7
 65
   257
 75
     1
175
     1
 42
1.0
 92
       12
 66
     7
 43
1.0
 76
     1
 77
     6
 78
     2
 67
     7
 79
     5
170
     0
171
     0
290
     0
174
     0
 93
        1
 44
0.0
173
     0
291
     1
 45
0.0
1001
ACAD
1000
AcDbSavedByObjectVersion
1070
     0
  0
DICTIONARYVAR
  5
CF4
102
{ACAD_REACTORS
330
C71
102
}
330
C71
100
DictionaryVariables
280
     0
  1
1:1
  0
DICTIONARYVAR
  5
CF3
102
{ACAD_REACTORS
330
C71
102
}
330
C71
100
DictionaryVariables
280
     0
  1
STANDARD
  0
DICTIONARYVAR
  5
C72
102
{ACAD_REACTORS
330
C71
102
}
330
C71
100
DictionaryVariables
280
     0
  1
STANDARD
  0
DICTIONARYVAR
  5
C98
102
{ACAD_REACTORS
330
C71
102
}
330
C71
100
DictionaryVariables
280
     0
  1
1
  0
DICTIONARYVAR
  5
CF6
102
{ACAD_REACTORS
330
C71
102
}
330
C71
100
DictionaryVariables
280
     0
  1
0
  0
DICTIONARYVAR
  5
C99
102
{ACAD_REACTORS
330
C71
102
}
330
C71
100
DictionaryVariables
280
     0
  1

  0
DICTIONARYVAR
  5
CF5
102
{ACAD_REACTORS
330
C71
102
}
330
C71
100
DictionaryVariables
280
     0
  1
127
  0
DICTIONARYVAR
  5
CF7
102
{ACAD_REACTORS
330
C71
102
}
330
C71
100
DictionaryVariables
280
     0
  1
2
  0
XRECORD
  5
C6F
102
{ACAD_REACTORS
330
C6D
102
}
330
C6D
100
AcDbXrecord
280
     1
  0
DICTIONARY
  5
CFF
330
C61
100
AcDbDictionary
280
     1
281
     1
  3
ACAD_XREC_ROUNDTRIP
360
D00
  0
DICTIONARY
  5
CFD
330
C60
100
AcDbDictionary
280
     1
281
     1
  3
ACAD_XREC_ROUNDTRIP
360
CFE
  0
DICTIONARY
  5
CA4
330
CA3
100
AcDbDictionary
280
     1
281
     1
  3
ACAD_XREC_ROUNDTRIP
360
D02
  3
BUMPTILE
360
CA6
  3
DIFFUSETILE
360
CA5
  3
OPACITYTILE
360
CA9
  3
REFLECTIONTILE
360
CA8
  3
REFRACTIONTILE
360
CAA
  3
SPECULARTILE
360
CA7
  0
DICTIONARY
  5
C9C
330
C9B
100
AcDbDictionary
280
     1
281
     1
  3
ACAD_XREC_ROUNDTRIP
360
D01
  3
BUMPTILE
360
C9E
  3
DIFFUSETILE
360
C9D
  3
OPACITYTILE
360
CA1
  3
REFLECTIONTILE
360
CA0
  3
REFRACTIONTILE
360
CA2
  3
SPECULARTILE
360
C9F
  0
DICTIONARY
  5
CAC
330
CAB
100
AcDbDictionary
280
     1
281
     1
  3
ACAD_XREC_ROUNDTRIP
360
D03
  3
BUMPTILE
360
CAE
  3
DIFFUSETILE
360
CAD
  3
OPACITYTILE
360
CB1
  3
REFLECTIONTILE
360
CB0
  3
REFRACTIONTILE
360
CB2
  3
SPECULARTILE
360
CAF
  0
DICTIONARY
  5
CF8
330
C5D
100
AcDbDictionary
280
     1
281
     1
  3
ACAD_ROUNDTRIP_2008_TABLESTYLE_CELLSTYLEMAP
360
CF9
  3
ACAD_XREC_ROUNDTRIP
360
CFC
  0
DICTIONARY
  5
D0E
330
CB9
100
AcDbDictionary
280
     1
281
     1
  3
ACAD_XREC_ROUNDTRIP
360
D0F
  0
DICTIONARY
  5
D12
330
CBB
100
AcDbDictionary
280
     1
281
     1
  3
ACAD_XREC_ROUNDTRIP
360
D13
  0
DICTIONARY
  5
D10
330
CBA
100
AcDbDictionary
280
     1
281
     1
  3
ACAD_XREC_ROUNDTRIP
360
D11
  0
DICTIONARY
  5
D0C
330
CB8
100
AcDbDictionary
280
     1
281
     1
  3
ACAD_XREC_ROUNDTRIP
360
D0D
  0
DICTIONARY
  5
D1A
330
CBF
100
AcDbDictionary
280
     1
281
     1
  3
ACAD_XREC_ROUNDTRIP
360
D1B
  0
DICTIONARY
  5
D22
330
CC3
100
AcDbDictionary
280
     1
281
     1
  3
ACAD_XREC_ROUNDTRIP
360
D23
  0
DICTIONARY
  5
D14
330
CBC
100
AcDbDictionary
280
     1
281
     1
  3
ACAD_XREC_ROUNDTRIP
360
D15
  0
DICTIONARY
  5
D18
330
CBE
100
AcDbDictionary
280
     1
281
     1
  3
ACAD_XREC_ROUNDTRIP
360
D19
  0
DICTIONARY
  5
D28
330
CC6
100
AcDbDictionary
280
     1
281
     1
  3
ACAD_XREC_ROUNDTRIP
360
D29
  0
DICTIONARY
  5
D20
330
CC2
100
AcDbDictionary
280
     1
281
     1
  3
ACAD_XREC_ROUNDTRIP
360
D21
  0
DICTIONARY
  5
D04
330
CB4
100
AcDbDictionary
280
     1
281
     1
  3
ACAD_XREC_ROUNDTRIP
360
D05
  0
DICTIONARY
  5
D06
330
CB5
100
AcDbDictionary
280
     1
281
     1
  3
ACAD_XREC_ROUNDTRIP
360
D07
  0
DICTIONARY
  5
D08
330
CB6
100
AcDbDictionary
280
     1
281
     1
  3
ACAD_XREC_ROUNDTRIP
360
D09
  0
DICTIONARY
  5
D0A
330
CB7
100
AcDbDictionary
280
     1
281
     1
  3
ACAD_XREC_ROUNDTRIP
360
D0B
  0
DICTIONARY
  5
D24
330
CC4
100
AcDbDictionary
280
     1
281
     1
  3
ACAD_XREC_ROUNDTRIP
360
D25
  0
DICTIONARY
  5
D1E
330
CC1
100
AcDbDictionary
280
     1
281
     1
  3
ACAD_XREC_ROUNDTRIP
360
D1F
  0
DICTIONARY
  5
D26
330
CC5
100
AcDbDictionary
280
     1
281
     1
  3
ACAD_XREC_ROUNDTRIP
360
D27
  0
DICTIONARY
  5
D16
330
CBD
100
AcDbDictionary
280
     1
281
     1
  3
ACAD_XREC_ROUNDTRIP
360
D17
  0
DICTIONARY
  5
D1C
330
CC0
100
AcDbDictionary
280
     1
281
     1
  3
ACAD_XREC_ROUNDTRIP
360
D1D
  0
XRECORD
  5
D00
102
{ACAD_REACTORS
330
CFF
102
}
330
CFF
100
AcDbXrecord
280
     1
102
SHADEPLOT
 70
     0
102
SHADEPLOTRESLEVEL
 70
     2
102
SHADEPLOTCUSTOMDPI
 70
   300
  0
XRECORD
  5
CFE
102
{ACAD_REACTORS
330
CFD
102
}
330
CFD
100
AcDbXrecord
280
     1
102
SHADEPLOT
 70
     0
102
SHADEPLOTRESLEVEL
 70
     2
102
SHADEPLOTCUSTOMDPI
 70
   300
  0
XRECORD
  5
D02
102
{ACAD_REACTORS
330
CA4
102
}
330
CA4
100
AcDbXrecord
280
     1
102
MATERIAL
148
0.0
149
0.0
149
0.0
 93
        0
 94
      127
282
     0
 72
     0
 77
     0
171
     0
175
     0
179
     0
273
     0
  0
XRECORD
  5
CA6
102
{ACAD_REACTORS
330
CA4
102
}
330
CA4
100
AcDbXrecord
280
     1
270
     1
271
     1
  0
XRECORD
  5
CA5
102
{ACAD_REACTORS
330
CA4
102
}
330
CA4
100
AcDbXrecord
280
     1
270
     1
271
     1
  0
XRECORD
  5
CA9
102
{ACAD_REACTORS
330
CA4
102
}
330
CA4
100
AcDbXrecord
280
     1
270
     1
271
     1
  0
XRECORD
  5
CA8
102
{ACAD_REACTORS
330
CA4
102
}
330
CA4
100
AcDbXrecord
280
     1
270
     1
271
     1
  0
XRECORD
  5
CAA
102
{ACAD_REACTORS
330
CA4
102
}
330
CA4
100
AcDbXrecord
280
     1
270
     1
271
     1
  0
XRECORD
  5
CA7
102
{ACAD_REACTORS
330
CA4
102
}
330
CA4
100
AcDbXrecord
280
     1
270
     1
271
     1
  0
XRECORD
  5
D01
102
{ACAD_REACTORS
330
C9C
102
}
330
C9C
100
AcDbXrecord
280
     1
102
MATERIAL
148
0.0
149
0.0
149
0.0
 93
        0
 94
      127
282
     0
 72
     0
 77
     0
171
     0
175
     0
179
     0
273
     0
  0
XRECORD
  5
C9E
102
{ACAD_REACTORS
330
C9C
102
}
330
C9C
100
AcDbXrecord
280
     1
270
     1
271
     1
  0
XRECORD
  5
C9D
102
{ACAD_REACTORS
330
C9C
102
}
330
C9C
100
AcDbXrecord
280
     1
270
     1
271
     1
  0
XRECORD
  5
CA1
102
{ACAD_REACTORS
330
C9C
102
}
330
C9C
100
AcDbXrecord
280
     1
270
     1
271
     1
  0
XRECORD
  5
CA0
102
{ACAD_REACTORS
330
C9C
102
}
330
C9C
100
AcDbXrecord
280
     1
270
     1
271
     1
  0
XRECORD
  5
CA2
102
{ACAD_REACTORS
330
C9C
102
}
330
C9C
100
AcDbXrecord
280
     1
270
     1
271
     1
  0
XRECORD
  5
C9F
102
{ACAD_REACTORS
330
C9C
102
}
330
C9C
100
AcDbXrecord
280
     1
270
     1
271
     1
  0
XRECORD
  5
D03
102
{ACAD_REACTORS
330
CAC
102
}
330
CAC
100
AcDbXrecord
280
     1
102
MATERIAL
148
0.0
149
0.0
149
0.0
 93
        0
 94
      127
282
     0
 72
     0
 77
     0
171
     0
175
     0
179
     0
273
     0
  0
XRECORD
  5
CAE
102
{ACAD_REACTORS
330
CAC
102
}
330
CAC
100
AcDbXrecord
280
     1
270
     1
271
     1
  0
XRECORD
  5
CAD
102
{ACAD_REACTORS
330
CAC
102
}
330
CAC
100
AcDbXrecord
280
     1
270
     1
271
     1
  0
XRECORD
  5
CB1
102
{ACAD_REACTORS
330
CAC
102
}
330
CAC
100
AcDbXrecord
280
     1
270
     1
271
     1
  0
XRECORD
  5
CB0
102
{ACAD_REACTORS
330
CAC
102
}
330
CAC
100
AcDbXrecord
280
     1
270
     1
271
     1
  0
XRECORD
  5
CB2
102
{ACAD_REACTORS
330
CAC
102
}
330
CAC
100
AcDbXrecord
280
     1
270
     1
271
     1
  0
XRECORD
  5
CAF
102
{ACAD_REACTORS
330
CAC
102
}
330
CAC
100
AcDbXrecord
280
     1
270
     1
271
     1
  0
CELLSTYLEMAP
  5
CF9
102
{ACAD_REACTORS
330
CF8
102
}
330
CF8
100
AcDbCellStyleMap
 90
        3
300
CELLSTYLE
  1
TABLEFORMAT_BEGIN
 90
        5
170
     1
 91
        0
 92
    32768
 62
   257
 93
        1
300
CONTENTFORMAT
  1
CONTENTFORMAT_BEGIN
 90
        0
 91
        0
 92
        4
 93
        0
300

 40
0.0
140
1.0
 94
        5
 62
     0
340
17
144
0.25
309
CONTENTFORMAT_END
171
     0
 94
        6
 95
        1
302
GRIDFORMAT
  1
GRIDFORMAT_BEGIN
 90
        0
 91
        1
 62
     0
 92
       -2
340
0
 93
        0
 40
0.045
309
GRIDFORMAT_END
 95
        2
302
GRIDFORMAT
  1
GRIDFORMAT_BEGIN
 90
        0
 91
        1
 62
     0
 92
       -2
340
0
 93
        0
 40
0.045
309
GRIDFORMAT_END
 95
        4
302
GRIDFORMAT
  1
GRIDFORMAT_BEGIN
 90
        0
 91
        1
 62
     0
 92
       -2
340
0
 93
        0
 40
0.045
309
GRIDFORMAT_END
 95
        8
302
GRIDFORMAT
  1
GRIDFORMAT_BEGIN
 90
        0
 91
        1
 62
     0
 92
       -2
340
0
 93
        0
 40
0.045
309
GRIDFORMAT_END
 95
       16
302
GRIDFORMAT
  1
GRIDFORMAT_BEGIN
 90
        0
 91
        1
 62
     0
 92
       -2
340
0
 93
        0
 40
0.045
309
GRIDFORMAT_END
 95
       32
302
GRIDFORMAT
  1
GRIDFORMAT_BEGIN
 90
        0
 91
        1
 62
     0
 92
       -2
340
0
 93
        0
 40
0.045
309
GRIDFORMAT_END
309
TABLEFORMAT_END
  1
CELLSTYLE_BEGIN
 90
        1
 91
        1
300
_TITLE
309
CELLSTYLE_END
300
CELLSTYLE
  1
TABLEFORMAT_BEGIN
 90
        5
170
     1
 91
        0
 92
        0
 62
   257
 93
        1
300
CONTENTFORMAT
  1
CONTENTFORMAT_BEGIN
 90
        0
 91
        0
 92
        4
 93
        0
300

 40
0.0
140
1.0
 94
        5
 62
     0
340
17
144
0.18
309
CONTENTFORMAT_END
171
     0
 94
        6
 95
        1
302
GRIDFORMAT
  1
GRIDFORMAT_BEGIN
 90
        0
 91
        1
 62
     0
 92
       -2
340
0
 93
        0
 40
0.045
309
GRIDFORMAT_END
 95
        2
302
GRIDFORMAT
  1
GRIDFORMAT_BEGIN
 90
        0
 91
        1
 62
     0
 92
       -2
340
0
 93
        0
 40
0.045
309
GRIDFORMAT_END
 95
        4
302
GRIDFORMAT
  1
GRIDFORMAT_BEGIN
 90
        0
 91
        1
 62
     0
 92
       -2
340
0
 93
        0
 40
0.045
309
GRIDFORMAT_END
 95
        8
302
GRIDFORMAT
  1
GRIDFORMAT_BEGIN
 90
        0
 91
        1
 62
     0
 92
       -2
340
0
 93
        0
 40
0.045
309
GRIDFORMAT_END
 95
       16
302
GRIDFORMAT
  1
GRIDFORMAT_BEGIN
 90
        0
 91
        1
 62
     0
 92
       -2
340
0
 93
        0
 40
0.045
309
GRIDFORMAT_END
 95
       32
302
GRIDFORMAT
  1
GRIDFORMAT_BEGIN
 90
        0
 91
        1
 62
     0
 92
       -2
340
0
 93
        0
 40
0.045
309
GRIDFORMAT_END
309
TABLEFORMAT_END
  1
CELLSTYLE_BEGIN
 90
        2
 91
        1
300
_HEADER
309
CELLSTYLE_END
300
CELLSTYLE
  1
TABLEFORMAT_BEGIN
 90
        5
170
     1
 91
        0
 92
        0
 62
   257
 93
        1
300
CONTENTFORMAT
  1
CONTENTFORMAT_BEGIN
 90
        0
 91
        0
 92
        4
 93
        0
300

 40
0.0
140
1.0
 94
        2
 62
     0
340
17
144
0.18
309
CONTENTFORMAT_END
171
     0
 94
        6
 95
        1
302
GRIDFORMAT
  1
GRIDFORMAT_BEGIN
 90
        0
 91
        1
 62
     0
 92
       -2
340
0
 93
        0
 40
0.045
309
GRIDFORMAT_END
 95
        2
302
GRIDFORMAT
  1
GRIDFORMAT_BEGIN
 90
        0
 91
        1
 62
     0
 92
       -2
340
0
 93
        0
 40
0.045
309
GRIDFORMAT_END
 95
        4
302
GRIDFORMAT
  1
GRIDFORMAT_BEGIN
 90
        0
 91
        1
 62
     0
 92
       -2
340
0
 93
        0
 40
0.045
309
GRIDFORMAT_END
 95
        8
302
GRIDFORMAT
  1
GRIDFORMAT_BEGIN
 90
        0
 91
        1
 62
     0
 92
       -2
340
0
 93
        0
 40
0.045
309
GRIDFORMAT_END
 95
       16
302
GRIDFORMAT
  1
GRIDFORMAT_BEGIN
 90
        0
 91
        1
 62
     0
 92
       -2
340
0
 93
        0
 40
0.045
309
GRIDFORMAT_END
 95
       32
302
GRIDFORMAT
  1
GRIDFORMAT_BEGIN
 90
        0
 91
        1
 62
     0
 92
       -2
340
0
 93
        0
 40
0.045
309
GRIDFORMAT_END
309
TABLEFORMAT_END
  1
CELLSTYLE_BEGIN
 90
        3
 91
        2
300
_DATA
309
CELLSTYLE_END
  0
XRECORD
  5
CFC
102
{ACAD_REACTORS
330
CF8
102
}
330
CF8
100
AcDbXrecord
280
     1
102
ACAD_ROUNDTRIP_PRE2007_TABLESTYLE
 90
        4
 91
        0
  1

 92
        4
 93
        0
  2

 94
        4
 95
        0
  3

  0
XRECORD
  5
D0F
102
{ACAD_REACTORS
330
D0E
102
}
330
D0E
100
AcDbXrecord
280
     1
102
RTVSPropertyOp0
 70
     1
102
RTVSPropertyOp1
 70
     1
102
RTVSPropertyOp2
 70
     1
102
RTVSPropertyOp3
 70
     1
102
RTVSPropertyOp4
 70
     1
102
RTVSPropertyOp5
 70
     1
102
RTVSPropertyOp6
 70
     1
102
RTVSPropertyOp7
 70
     1
102
RTVSPropertyOp8
 70
     1
102
RTVSPropertyOp9
 70
     1
102
RTVSPropertyOp10
 70
     1
102
RTVSPropertyOp11
 70
     1
102
RTVSPropertyOp12
 70
     1
102
RTVSPropertyOp13
 70
     1
102
RTVSPropertyOp14
 70
     1
102
RTVSPropertyOp15
 70
     1
102
RTVSPropertyOp16
 70
     1
102
RTVSPropertyOp17
 70
     1
102
RTVSPropertyOp18
 70
     1
102
RTVSPropertyOp19
 70
     1
102
RTVSPropertyOp20
 70
     1
102
RTVSPropertyOp21
 70
     1
102
RTVSPropertyOp22
 70
     1
102
RTVSPropertyOp23
 70
     1
102
RTVSPropertyOp24
 70
     1
102
RTVSPropertyOp25
 70
     1
102
RTVSPropertyOp26
 70
     1
102
RTVSPropertyOp27
 70
     1
  0
XRECORD
  5
D13
102
{ACAD_REACTORS
330
D12
102
}
330
D12
100
AcDbXrecord
280
     1
102
RTVSPropertyOp0
 70
     1
102
RTVSPropertyOp1
 70
     1
102
RTVSPropertyOp2
 70
     1
102
RTVSPropertyOp3
 70
     1
102
RTVSPropertyOp4
 70
     1
102
RTVSPropertyOp5
 70
     1
102
RTVSPropertyOp6
 70
     1
102
RTVSPropertyOp7
 70
     1
102
RTVSPropertyOp8
 70
     1
102
RTVSPropertyOp9
 70
     1
102
RTVSPropertyOp10
 70
     1
102
RTVSPropertyOp11
 70
     1
102
RTVSPropertyOp12
 70
     1
102
RTVSPropertyOp13
 70
     1
102
RTVSPropertyOp14
 70
     1
102
RTVSPropertyOp15
 70
     1
102
RTVSPropertyOp16
 70
     1
102
RTVSPropertyOp17
 70
     1
102
RTVSPropertyOp18
 70
     1
102
RTVSPropertyOp19
 70
     1
102
RTVSPropertyOp20
 70
     1
102
RTVSPropertyOp21
 70
     1
102
RTVSPropertyOp22
 70
     1
102
RTVSPropertyOp23
 70
     1
102
RTVSPropertyOp24
 70
     1
102
RTVSPropertyOp25
 70
     1
102
RTVSPropertyOp26
 70
     1
102
RTVSPropertyOp27
 70
     1
  0
XRECORD
  5
D11
102
{ACAD_REACTORS
330
D10
102
}
330
D10
100
AcDbXrecord
280
     1
102
RTVSPropertyOp0
 70
     1
102
RTVSPropertyOp1
 70
     1
102
RTVSPropertyOp2
 70
     1
102
RTVSPropertyOp3
 70
     1
102
RTVSPropertyOp4
 70
     1
102
RTVSPropertyOp5
 70
     1
102
RTVSPropertyOp6
 70
     1
102
RTVSPropertyOp7
 70
     1
102
RTVSPropertyOp8
 70
     1
102
RTVSPropertyOp9
 70
     1
102
RTVSPropertyOp10
 70
     1
102
RTVSPropertyOp11
 70
     1
102
RTVSPropertyOp12
 70
     1
102
RTVSPropertyOp13
 70
     1
102
RTVSPropertyOp14
 70
     1
102
RTVSPropertyOp15
 70
     1
102
RTVSPropertyOp16
 70
     1
102
RTVSPropertyOp17
 70
     1
102
RTVSPropertyOp18
 70
     1
102
RTVSPropertyOp19
 70
     1
102
RTVSPropertyOp20
 70
     1
102
RTVSPropertyOp21
 70
     1
102
RTVSPropertyOp22
 70
     1
102
RTVSPropertyOp23
 70
     1
102
RTVSPropertyOp24
 70
     1
102
RTVSPropertyOp25
 70
     1
102
RTVSPropertyOp26
 70
     1
102
RTVSPropertyOp27
 70
     1
  0
XRECORD
  5
D0D
102
{ACAD_REACTORS
330
D0C
102
}
330
D0C
100
AcDbXrecord
280
     1
102
RTVSPropertyOp0
 70
     1
102
RTVSPropertyOp1
 70
     1
102
RTVSPropertyOp2
 70
     1
102
RTVSPropertyOp3
 70
     1
102
RTVSPropertyOp4
 70
     1
102
RTVSPropertyOp5
 70
     1
102
RTVSPropertyOp6
 70
     1
102
RTVSPropertyOp7
 70
     1
102
RTVSPropertyOp8
 70
     1
102
RTVSPropertyOp9
 70
     1
102
RTVSPropertyOp10
 70
     1
102
RTVSPropertyOp11
 70
     1
102
RTVSPropertyOp12
 70
     1
102
RTVSPropertyOp13
 70
     1
102
RTVSPropertyOp14
 70
     1
102
RTVSPropertyOp15
 70
     1
102
RTVSPropertyOp16
 70
     1
102
RTVSPropertyOp17
 70
     1
102
RTVSPropertyOp18
 70
     1
102
RTVSPropertyOp19
 70
     1
102
RTVSPropertyOp20
 70
     1
102
RTVSPropertyOp21
 70
     1
102
RTVSPropertyOp22
 70
     1
102
RTVSPropertyOp23
 70
     1
102
RTVSPropertyOp24
 70
     1
102
RTVSPropertyOp25
 70
     1
102
RTVSPropertyOp26
 70
     1
102
RTVSPropertyOp27
 70
     1
  0
XRECORD
  5
D1B
102
{ACAD_REACTORS
330
D1A
102
}
330
D1A
100
AcDbXrecord
280
     1
102
RTVSPropertyOp0
 70
     1
102
RTVSPropertyOp1
 70
     1
102
RTVSPropertyOp2
 70
     1
102
RTVSPropertyOp3
 70
     1
102
RTVSPropertyOp4
 70
     1
102
RTVSPropertyOp5
 70
     1
102
RTVSPropertyOp6
 70
     1
102
RTVSPropertyOp7
 70
     1
102
RTVSPropertyOp8
 70
     1
102
RTVSPropertyOp9
 70
     1
102
RTVSPropertyOp10
 70
     1
102
RTVSPropertyOp11
 70
     1
102
RTVSPropertyOp12
 70
     1
102
RTVSPropertyOp13
 70
     1
102
RTVSPropertyOp14
 70
     1
102
RTVSPropertyOp15
 70
     1
102
RTVSPropertyOp16
 70
     1
102
RTVSPropertyOp17
 70
     1
102
RTVSPropertyOp18
 70
     1
102
RTVSPropertyOp19
 70
     1
102
RTVSPropertyOp20
 70
     1
102
RTVSPropertyOp21
 70
     1
102
RTVSPropertyOp22
 70
     1
102
RTVSPropertyOp23
 70
     1
102
RTVSPropertyOp24
 70
     1
102
RTVSPropertyOp25
 70
     1
102
RTVSPropertyOp26
 70
     1
102
RTVSPropertyOp27
 70
     1
  0
XRECORD
  5
D23
102
{ACAD_REACTORS
330
D22
102
}
330
D22
100
AcDbXrecord
280
     1
102
RTVSPropertyOp0
 70
     1
102
RTVSPropertyOp1
 70
     1
102
RTVSPropertyOp2
 70
     1
102
RTVSPropertyOp3
 70
     1
102
RTVSPropertyOp4
 70
     1
102
RTVSPropertyOp5
 70
     1
102
RTVSPropertyOp6
 70
     1
102
RTVSPropertyOp7
 70
     1
102
RTVSPropertyOp8
 70
     1
102
RTVSPropertyOp9
 70
     1
102
RTVSPropertyOp10
 70
     1
102
RTVSPropertyOp11
 70
     1
102
RTVSPropertyOp12
 70
     1
102
RTVSPropertyOp13
 70
     1
102
RTVSPropertyOp14
 70
     1
102
RTVSPropertyOp15
 70
     1
102
RTVSPropertyOp16
 70
     1
102
RTVSPropertyOp17
 70
     1
102
RTVSPropertyOp18
 70
     1
102
RTVSPropertyOp19
 70
     1
102
RTVSPropertyOp20
 70
     1
102
RTVSPropertyOp21
 70
     1
102
RTVSPropertyOp22
 70
     1
102
RTVSPropertyOp23
 70
     1
102
RTVSPropertyOp24
 70
     1
102
RTVSPropertyOp25
 70
     1
102
RTVSPropertyOp26
 70
     1
102
RTVSPropertyOp27
 70
     1
  0
XRECORD
  5
D15
102
{ACAD_REACTORS
330
D14
102
}
330
D14
100
AcDbXrecord
280
     1
102
RTVSPropertyOp0
 70
     1
102
RTVSPropertyOp1
 70
     1
102
RTVSPropertyOp2
 70
     1
102
RTVSPropertyOp3
 70
     1
102
RTVSPropertyOp4
 70
     1
102
RTVSPropertyOp5
 70
     1
102
RTVSPropertyOp6
 70
     1
102
RTVSPropertyOp7
 70
     1
102
RTVSPropertyOp8
 70
     1
102
RTVSPropertyOp9
 70
     1
102
RTVSPropertyOp10
 70
     1
102
RTVSPropertyOp11
 70
     1
102
RTVSPropertyOp12
 70
     1
102
RTVSPropertyOp13
 70
     1
102
RTVSPropertyOp14
 70
     1
102
RTVSPropertyOp15
 70
     1
102
RTVSPropertyOp16
 70
     1
102
RTVSPropertyOp17
 70
     1
102
RTVSPropertyOp18
 70
     1
102
RTVSPropertyOp19
 70
     1
102
RTVSPropertyOp20
 70
     1
102
RTVSPropertyOp21
 70
     1
102
RTVSPropertyOp22
 70
     1
102
RTVSPropertyOp23
 70
     1
102
RTVSPropertyOp24
 70
     1
102
RTVSPropertyOp25
 70
     1
102
RTVSPropertyOp26
 70
     1
102
RTVSPropertyOp27
 70
     1
  0
XRECORD
  5
D19
102
{ACAD_REACTORS
330
D18
102
}
330
D18
100
AcDbXrecord
280
     1
102
RTVSPropertyOp0
 70
     1
102
RTVSPropertyOp1
 70
     1
102
RTVSPropertyOp2
 70
     1
102
RTVSPropertyOp3
 70
     1
102
RTVSPropertyOp4
 70
     1
102
RTVSPropertyOp5
 70
     1
102
RTVSPropertyOp6
 70
     1
102
RTVSPropertyOp7
 70
     1
102
RTVSPropertyOp8
 70
     1
102
RTVSPropertyOp9
 70
     1
102
RTVSPropertyOp10
 70
     1
102
RTVSPropertyOp11
 70
     1
102
RTVSPropertyOp12
 70
     1
102
RTVSPropertyOp13
 70
     1
102
RTVSPropertyOp14
 70
     1
102
RTVSPropertyOp15
 70
     1
102
RTVSPropertyOp16
 70
     1
102
RTVSPropertyOp17
 70
     1
102
RTVSPropertyOp18
 70
     1
102
RTVSPropertyOp19
 70
     1
102
RTVSPropertyOp20
 70
     1
102
RTVSPropertyOp21
 70
     1
102
RTVSPropertyOp22
 70
     1
102
RTVSPropertyOp23
 70
     1
102
RTVSPropertyOp24
 70
     1
102
RTVSPropertyOp25
 70
     1
102
RTVSPropertyOp26
 70
     1
102
RTVSPropertyOp27
 70
     1
  0
XRECORD
  5
D29
102
{ACAD_REACTORS
330
D28
102
}
330
D28
100
AcDbXrecord
280
     1
102
RTVSPropertyOp0
 70
     0
102
RTVSPropertyOp1
 70
     0
102
RTVSPropertyOp2
 70
     0
102
RTVSPropertyOp3
 70
     0
102
RTVSPropertyOp4
 70
     0
102
RTVSPropertyOp5
 70
     0
102
RTVSPropertyOp6
 70
     0
102
RTVSPropertyOp7
 70
     0
102
RTVSPropertyOp8
 70
     0
102
RTVSPropertyOp9
 70
     0
102
RTVSPropertyOp10
 70
     0
102
RTVSPropertyOp11
 70
     0
102
RTVSPropertyOp12
 70
     0
102
RTVSPropertyOp13
 70
     0
102
RTVSPropertyOp14
 70
     2
102
RTVSPropertyOp15
 70
     0
102
RTVSPropertyOp16
 70
     0
102
RTVSPropertyOp17
 70
     0
102
RTVSPropertyOp18
 70
     0
102
RTVSPropertyOp19
 70
     0
102
RTVSPropertyOp20
 70
     0
102
RTVSPropertyOp21
 70
     0
102
RTVSPropertyOp22
 70
     0
102
RTVSPropertyOp23
 70
     0
102
RTVSPropertyOp24
 70
     0
102
RTVSPropertyOp25
 70
     0
102
RTVSPropertyOp26
 70
     0
102
RTVSPropertyOp27
 70
     0
  0
XRECORD
  5
D21
102
{ACAD_REACTORS
330
D20
102
}
330
D20
100
AcDbXrecord
280
     1
102
RTVSPropertyOp0
 70
     1
102
RTVSPropertyOp1
 70
     1
102
RTVSPropertyOp2
 70
     1
102
RTVSPropertyOp3
 70
     1
102
RTVSPropertyOp4
 70
     1
102
RTVSPropertyOp5
 70
     1
102
RTVSPropertyOp6
 70
     1
102
RTVSPropertyOp7
 70
     1
102
RTVSPropertyOp8
 70
     1
102
RTVSPropertyOp9
 70
     1
102
RTVSPropertyOp10
 70
     1
102
RTVSPropertyOp11
 70
     1
102
RTVSPropertyOp12
 70
     1
102
RTVSPropertyOp13
 70
     1
102
RTVSPropertyOp14
 70
     1
102
RTVSPropertyOp15
 70
     1
102
RTVSPropertyOp16
 70
     1
102
RTVSPropertyOp17
 70
     1
102
RTVSPropertyOp18
 70
     1
102
RTVSPropertyOp19
 70
     1
102
RTVSPropertyOp20
 70
     1
102
RTVSPropertyOp21
 70
     1
102
RTVSPropertyOp22
 70
     1
102
RTVSPropertyOp23
 70
     1
102
RTVSPropertyOp24
 70
     1
102
RTVSPropertyOp25
 70
     1
102
RTVSPropertyOp26
 70
     1
102
RTVSPropertyOp27
 70
     1
  0
XRECORD
  5
D05
102
{ACAD_REACTORS
330
D04
102
}
330
D04
100
AcDbXrecord
280
     1
102
RTVSPropertyOp0
 70
     1
102
RTVSPropertyOp1
 70
     1
102
RTVSPropertyOp2
 70
     1
102
RTVSPropertyOp3
 70
     1
102
RTVSPropertyOp4
 70
     1
102
RTVSPropertyOp5
 70
     1
102
RTVSPropertyOp6
 70
     1
102
RTVSPropertyOp7
 70
     1
102
RTVSPropertyOp8
 70
     1
102
RTVSPropertyOp9
 70
     1
102
RTVSPropertyOp10
 70
     1
102
RTVSPropertyOp11
 70
     1
102
RTVSPropertyOp12
 70
     1
102
RTVSPropertyOp13
 70
     1
102
RTVSPropertyOp14
 70
     1
102
RTVSPropertyOp15
 70
     1
102
RTVSPropertyOp16
 70
     1
102
RTVSPropertyOp17
 70
     1
102
RTVSPropertyOp18
 70
     1
102
RTVSPropertyOp19
 70
     1
102
RTVSPropertyOp20
 70
     1
102
RTVSPropertyOp21
 70
     1
102
RTVSPropertyOp22
 70
     1
102
RTVSPropertyOp23
 70
     1
102
RTVSPropertyOp24
 70
     1
102
RTVSPropertyOp25
 70
     1
102
RTVSPropertyOp26
 70
     1
102
RTVSPropertyOp27
 70
     1
  0
XRECORD
  5
D07
102
{ACAD_REACTORS
330
D06
102
}
330
D06
100
AcDbXrecord
280
     1
102
RTVSPropertyOp0
 70
     1
102
RTVSPropertyOp1
 70
     1
102
RTVSPropertyOp2
 70
     1
102
RTVSPropertyOp3
 70
     1
102
RTVSPropertyOp4
 70
     1
102
RTVSPropertyOp5
 70
     1
102
RTVSPropertyOp6
 70
     1
102
RTVSPropertyOp7
 70
     1
102
RTVSPropertyOp8
 70
     1
102
RTVSPropertyOp9
 70
     1
102
RTVSPropertyOp10
 70
     1
102
RTVSPropertyOp11
 70
     1
102
RTVSPropertyOp12
 70
     1
102
RTVSPropertyOp13
 70
     1
102
RTVSPropertyOp14
 70
     1
102
RTVSPropertyOp15
 70
     1
102
RTVSPropertyOp16
 70
     1
102
RTVSPropertyOp17
 70
     1
102
RTVSPropertyOp18
 70
     1
102
RTVSPropertyOp19
 70
     1
102
RTVSPropertyOp20
 70
     1
102
RTVSPropertyOp21
 70
     1
102
RTVSPropertyOp22
 70
     1
102
RTVSPropertyOp23
 70
     1
102
RTVSPropertyOp24
 70
     1
102
RTVSPropertyOp25
 70
     1
102
RTVSPropertyOp26
 70
     1
102
RTVSPropertyOp27
 70
     1
  0
XRECORD
  5
D09
102
{ACAD_REACTORS
330
D08
102
}
330
D08
100
AcDbXrecord
280
     1
102
RTVSPropertyOp0
 70
     1
102
RTVSPropertyOp1
 70
     1
102
RTVSPropertyOp2
 70
     1
102
RTVSPropertyOp3
 70
     1
102
RTVSPropertyOp4
 70
     1
102
RTVSPropertyOp5
 70
     1
102
RTVSPropertyOp6
 70
     1
102
RTVSPropertyOp7
 70
     1
102
RTVSPropertyOp8
 70
     1
102
RTVSPropertyOp9
 70
     1
102
RTVSPropertyOp10
 70
     1
102
RTVSPropertyOp11
 70
     1
102
RTVSPropertyOp12
 70
     1
102
RTVSPropertyOp13
 70
     1
102
RTVSPropertyOp14
 70
     1
102
RTVSPropertyOp15
 70
     1
102
RTVSPropertyOp16
 70
     1
102
RTVSPropertyOp17
 70
     1
102
RTVSPropertyOp18
 70
     1
102
RTVSPropertyOp19
 70
     1
102
RTVSPropertyOp20
 70
     1
102
RTVSPropertyOp21
 70
     1
102
RTVSPropertyOp22
 70
     1
102
RTVSPropertyOp23
 70
     1
102
RTVSPropertyOp24
 70
     1
102
RTVSPropertyOp25
 70
     1
102
RTVSPropertyOp26
 70
     1
102
RTVSPropertyOp27
 70
     1
  0
XRECORD
  5
D0B
102
{ACAD_REACTORS
330
D0A
102
}
330
D0A
100
AcDbXrecord
280
     1
102
RTVSPropertyOp0
 70
     1
102
RTVSPropertyOp1
 70
     1
102
RTVSPropertyOp2
 70
     1
102
RTVSPropertyOp3
 70
     1
102
RTVSPropertyOp4
 70
     1
102
RTVSPropertyOp5
 70
     1
102
RTVSPropertyOp6
 70
     1
102
RTVSPropertyOp7
 70
     1
102
RTVSPropertyOp8
 70
     1
102
RTVSPropertyOp9
 70
     1
102
RTVSPropertyOp10
 70
     1
102
RTVSPropertyOp11
 70
     1
102
RTVSPropertyOp12
 70
     1
102
RTVSPropertyOp13
 70
     1
102
RTVSPropertyOp14
 70
     1
102
RTVSPropertyOp15
 70
     1
102
RTVSPropertyOp16
 70
     1
102
RTVSPropertyOp17
 70
     1
102
RTVSPropertyOp18
 70
     1
102
RTVSPropertyOp19
 70
     1
102
RTVSPropertyOp20
 70
     1
102
RTVSPropertyOp21
 70
     1
102
RTVSPropertyOp22
 70
     1
102
RTVSPropertyOp23
 70
     1
102
RTVSPropertyOp24
 70
     1
102
RTVSPropertyOp25
 70
     1
102
RTVSPropertyOp26
 70
     1
102
RTVSPropertyOp27
 70
     1
  0
XRECORD
  5
D25
102
{ACAD_REACTORS
330
D24
102
}
330
D24
100
AcDbXrecord
280
     1
102
RTVSPropertyOp0
 70
     0
102
RTVSPropertyOp1
 70
     0
102
RTVSPropertyOp2
 70
     0
102
RTVSPropertyOp3
 70
     0
102
RTVSPropertyOp4
 70
     0
102
RTVSPropertyOp5
 70
     0
102
RTVSPropertyOp6
 70
     0
102
RTVSPropertyOp7
 70
     0
102
RTVSPropertyOp8
 70
     0
102
RTVSPropertyOp9
 70
     0
102
RTVSPropertyOp10
 70
     0
102
RTVSPropertyOp11
 70
     0
102
RTVSPropertyOp12
 70
     0
102
RTVSPropertyOp13
 70
     0
102
RTVSPropertyOp14
 70
     2
102
RTVSPropertyOp15
 70
     0
102
RTVSPropertyOp16
 70
     0
102
RTVSPropertyOp17
 70
     0
102
RTVSPropertyOp18
 70
     0
102
RTVSPropertyOp19
 70
     0
102
RTVSPropertyOp20
 70
     0
102
RTVSPropertyOp21
 70
     0
102
RTVSPropertyOp22
 70
     0
102
RTVSPropertyOp23
 70
     0
102
RTVSPropertyOp24
 70
     0
102
RTVSPropertyOp25
 70
     0
102
RTVSPropertyOp26
 70
     0
102
RTVSPropertyOp27
 70
     0
  0
XRECORD
  5
D1F
102
{ACAD_REACTORS
330
D1E
102
}
330
D1E
100
AcDbXrecord
280
     1
102
RTVSPropertyOp0
 70
     1
102
RTVSPropertyOp1
 70
     1
102
RTVSPropertyOp2
 70
     1
102
RTVSPropertyOp3
 70
     1
102
RTVSPropertyOp4
 70
     1
102
RTVSPropertyOp5
 70
     1
102
RTVSPropertyOp6
 70
     1
102
RTVSPropertyOp7
 70
     1
102
RTVSPropertyOp8
 70
     1
102
RTVSPropertyOp9
 70
     1
102
RTVSPropertyOp10
 70
     1
102
RTVSPropertyOp11
 70
     1
102
RTVSPropertyOp12
 70
     1
102
RTVSPropertyOp13
 70
     1
102
RTVSPropertyOp14
 70
     1
102
RTVSPropertyOp15
 70
     1
102
RTVSPropertyOp16
 70
     1
102
RTVSPropertyOp17
 70
     1
102
RTVSPropertyOp18
 70
     1
102
RTVSPropertyOp19
 70
     1
102
RTVSPropertyOp20
 70
     1
102
RTVSPropertyOp21
 70
     1
102
RTVSPropertyOp22
 70
     1
102
RTVSPropertyOp23
 70
     1
102
RTVSPropertyOp24
 70
     1
102
RTVSPropertyOp25
 70
     1
102
RTVSPropertyOp26
 70
     1
102
RTVSPropertyOp27
 70
     1
  0
XRECORD
  5
D27
102
{ACAD_REACTORS
330
D26
102
}
330
D26
100
AcDbXrecord
280
     1
102
RTVSPropertyOp0
 70
     0
102
RTVSPropertyOp1
 70
     0
102
RTVSPropertyOp2
 70
     0
102
RTVSPropertyOp3
 70
     0
102
RTVSPropertyOp4
 70
     0
102
RTVSPropertyOp5
 70
     0
102
RTVSPropertyOp6
 70
     0
102
RTVSPropertyOp7
 70
     0
102
RTVSPropertyOp8
 70
     0
102
RTVSPropertyOp9
 70
     0
102
RTVSPropertyOp10
 70
     0
102
RTVSPropertyOp11
 70
     0
102
RTVSPropertyOp12
 70
     0
102
RTVSPropertyOp13
 70
     0
102
RTVSPropertyOp14
 70
     2
102
RTVSPropertyOp15
 70
     0
102
RTVSPropertyOp16
 70
     0
102
RTVSPropertyOp17
 70
     0
102
RTVSPropertyOp18
 70
     0
102
RTVSPropertyOp19
 70
     0
102
RTVSPropertyOp20
 70
     0
102
RTVSPropertyOp21
 70
     0
102
RTVSPropertyOp22
 70
     0
102
RTVSPropertyOp23
 70
     0
102
RTVSPropertyOp24
 70
     0
102
RTVSPropertyOp25
 70
     0
102
RTVSPropertyOp26
 70
     0
102
RTVSPropertyOp27
 70
     0
  0
XRECORD
  5
D17
102
{ACAD_REACTORS
330
D16
102
}
330
D16
100
AcDbXrecord
280
     1
102
RTVSPropertyOp0
 70
     1
102
RTVSPropertyOp1
 70
     1
102
RTVSPropertyOp2
 70
     1
102
RTVSPropertyOp3
 70
     1
102
RTVSPropertyOp4
 70
     1
102
RTVSPropertyOp5
 70
     1
102
RTVSPropertyOp6
 70
     1
102
RTVSPropertyOp7
 70
     1
102
RTVSPropertyOp8
 70
     1
102
RTVSPropertyOp9
 70
     1
102
RTVSPropertyOp10
 70
     1
102
RTVSPropertyOp11
 70
     1
102
RTVSPropertyOp12
 70
     1
102
RTVSPropertyOp13
 70
     1
102
RTVSPropertyOp14
 70
     1
102
RTVSPropertyOp15
 70
     1
102
RTVSPropertyOp16
 70
     1
102
RTVSPropertyOp17
 70
     1
102
RTVSPropertyOp18
 70
     1
102
RTVSPropertyOp19
 70
     1
102
RTVSPropertyOp20
 70
     1
102
RTVSPropertyOp21
 70
     1
102
RTVSPropertyOp22
 70
     1
102
RTVSPropertyOp23
 70
     1
102
RTVSPropertyOp24
 70
     1
102
RTVSPropertyOp25
 70
     1
102
RTVSPropertyOp26
 70
     1
102
RTVSPropertyOp27
 70
     1
  0
XRECORD
  5
D1D
102
{ACAD_REACTORS
330
D1C
102
}
330
D1C
100
AcDbXrecord
280
     1
102
RTVSPropertyOp0
 70
     1
102
RTVSPropertyOp1
 70
     1
102
RTVSPropertyOp2
 70
     1
102
RTVSPropertyOp3
 70
     1
102
RTVSPropertyOp4
 70
     1
102
RTVSPropertyOp5
 70
     1
102
RTVSPropertyOp6
 70
     1
102
RTVSPropertyOp7
 70
     1
102
RTVSPropertyOp8
 70
     1
102
RTVSPropertyOp9
 70
     1
102
RTVSPropertyOp10
 70
     1
102
RTVSPropertyOp11
 70
     1
102
RTVSPropertyOp12
 70
     1
102
RTVSPropertyOp13
 70
     1
102
RTVSPropertyOp14
 70
     1
102
RTVSPropertyOp15
 70
     1
102
RTVSPropertyOp16
 70
     1
102
RTVSPropertyOp17
 70
     1
102
RTVSPropertyOp18
 70
     1
102
RTVSPropertyOp19
 70
     1
102
RTVSPropertyOp20
 70
     1
102
RTVSPropertyOp21
 70
     1
102
RTVSPropertyOp22
 70
     1
102
RTVSPropertyOp23
 70
     1
102
RTVSPropertyOp24
 70
     1
102
RTVSPropertyOp25
 70
     1
102
RTVSPropertyOp26
 70
     1
102
RTVSPropertyOp27
 70
     1
  0
ENDSEC
  0
EOF
