  0
SECTION
  2
HEADER
  9
$ACADVER
  1
AC1015
  9
$ACADMAINTVER
 70
    20
  9
$DWGCODEPAGE
  3
ANSI_1252
  9
$INSBASE
 10
0.0
 20
0.0
 30
0.0
  9
$EXTMIN
 10
16.8590669085247
 20
439.9433400376902
 30
0.0
  9
$EXTMAX
 10
19.90680535925637
 20
440.7762521278121
 30
0.0
  9
$LIMMIN
 10
0.0
 20
0.0
  9
$LIMMAX
 10
420.0
 20
297.0
  9
$ORTHOMODE
 70
     0
  9
$REGENMODE
 70
     1
  9
$FILLMODE
 70
     1
  9
$QTEXTMODE
 70
     0
  9
$MIRRTEXT
 70
     0
  9
$LTSCALE
 40
1.0
  9
$ATTMODE
 70
     1
  9
$TEXTSIZE
 40
2.5
  9
$TRACEWID
 40
1.0
  9
$TEXTSTYLE
  7
Standard
  9
$CLAYER
  8
0
  9
$CELTYPE
  6
ByLayer
  9
$CECOLOR
 62
   256
  9
$CELTSCALE
 40
1.0
  9
$DISPSILH
 70
     0
  9
$DIMSCALE
 40
1.0
  9
$DIMASZ
 40
2.5
  9
$DIMEXO
 40
0.625
  9
$DIMDLI
 40
3.75
  9
$DIMRND
 40
0.0
  9
$DIMDLE
 40
0.0
  9
$DIMEXE
 40
1.25
  9
$DIMTP
 40
0.0
  9
$DIMTM
 40
0.0
  9
$DIMTXT
 40
2.5
  9
$DIMCEN
 40
2.5
  9
$DIMTSZ
 40
0.0
  9
$DIMTOL
 70
     0
  9
$DIMLIM
 70
     0
  9
$DIMTIH
 70
     0
  9
$DIMTOH
 70
     0
  9
$DIMSE1
 70
     0
  9
$DIMSE2
 70
     0
  9
$DIMTAD
 70
     1
  9
$DIMZIN
 70
     8
  9
$DIMBLK
  1

  9
$DIMASO
 70
     1
  9
$DIMSHO
 70
     1
  9
$DIMPOST
  1

  9
$DIMAPOST
  1

  9
$DIMALT
 70
     0
  9
$DIMALTD
 70
     3
  9
$DIMALTF
 40
0.03937007874016
  9
$DIMLFAC
 40
1.0
  9
$DIMTOFL
 70
     1
  9
$DIMTVP
 40
0.0
  9
$DIMTIX
 70
     0
  9
$DIMSOXD
 70
     0
  9
$DIMSAH
 70
     0
  9
$DIMBLK1
  1

  9
$DIMBLK2
  1

  9
$DIMSTYLE
  2
ISO-25
  9
$DIMCLRD
 70
     0
  9
$DIMCLRE
 70
     0
  9
$DIMCLRT
 70
     0
  9
$DIMTFAC
 40
1.0
  9
$DIMGAP
 40
0.625
  9
$DIMJUST
 70
     0
  9
$DIMSD1
 70
     0
  9
$DIMSD2
 70
     0
  9
$DIMTOLJ
 70
     0
  9
$DIMTZIN
 70
     8
  9
$DIMALTZ
 70
     0
  9
$DIMALTTZ
 70
     0
  9
$DIMUPT
 70
     0
  9
$DIMDEC
 70
     2
  9
$DIMTDEC
 70
     2
  9
$DIMALTU
 70
     2
  9
$DIMALTTD
 70
     3
  9
$DIMTXSTY
  7
Standard
  9
$DIMAUNIT
 70
     0
  9
$DIMADEC
 70
     0
  9
$DIMALTRND
 40
0.0
  9
$DIMAZIN
 70
     0
  9
$DIMDSEP
 70
    44
  9
$DIMATFIT
 70
     3
  9
$DIMFRAC
 70
     0
  9
$DIMLDRBLK
  1

  9
$DIMLUNIT
 70
     2
  9
$DIMLWD
 70
    -2
  9
$DIMLWE
 70
    -2
  9
$DIMTMOVE
 70
     0
  9
$LUNITS
 70
     2
  9
$LUPREC
 70
     4
  9
$SKETCHINC
 40
1.0
  9
$FILLETRAD
 40
0.0
  9
$AUNITS
 70
     0
  9
$AUPREC
 70
     0
  9
$MENU
  1
.
  9
$ELEVATION
 40
0.0
  9
$PELEVATION
 40
0.0
  9
$THICKNESS
 40
0.0
  9
$LIMCHECK
 70
     0
  9
$CHAMFERA
 40
0.0
  9
$CHAMFERB
 40
0.0
  9
$CHAMFERC
 40
0.0
  9
$CHAMFERD
 40
0.0
  9
$SKPOLY
 70
     0
  9
$TDCREATE
 40
2453797.449961840
  9
$TDUCREATE
 40
2453797.408295174
  9
$TDUPDATE
 40
2456147.426814768
  9
$TDUUPDATE
 40
2456147.385148102
  9
$TDINDWG
 40
0.0073176968
  9
$TDUSRTIMER
 40
0.0073176968
  9
$USRTIMER
 70
     1
  9
$ANGBASE
 50
0.0
  9
$ANGDIR
 70
     0
  9
$PDMODE
 70
     0
  9
$PDSIZE
 40
0.0
  9
$PLINEWID
 40
0.0
  9
$SPLFRAME
 70
     0
  9
$SPLINETYPE
 70
     6
  9
$SPLINESEGS
 70
     8
  9
$HANDSEED
  5
48B
  9
$SURFTAB1
 70
     6
  9
$SURFTAB2
 70
     6
  9
$SURFTYPE
 70
     6
  9
$SURFU
 70
     6
  9
$SURFV
 70
     6
  9
$UCSBASE
  2

  9
$UCSNAME
  2

  9
$UCSORG
 10
0.0
 20
0.0
 30
0.0
  9
$UCSXDIR
 10
1.0
 20
0.0
 30
0.0
  9
$UCSYDIR
 10
0.0
 20
1.0
 30
0.0
  9
$UCSORTHOREF
  2

  9
$UCSORTHOVIEW
 70
     0
  9
$UCSORGTOP
 10
0.0
 20
0.0
 30
0.0
  9
$UCSORGBOTTOM
 10
0.0
 20
0.0
 30
0.0
  9
$UCSORGLEFT
 10
0.0
 20
0.0
 30
0.0
  9
$UCSORGRIGHT
 10
0.0
 20
0.0
 30
0.0
  9
$UCSORGFRONT
 10
0.0
 20
0.0
 30
0.0
  9
$UCSORGBACK
 10
0.0
 20
0.0
 30
0.0
  9
$PUCSBASE
  2

  9
$PUCSNAME
  2

  9
$PUCSORG
 10
0.0
 20
0.0
 30
0.0
  9
$PUCSXDIR
 10
1.0
 20
0.0
 30
0.0
  9
$PUCSYDIR
 10
0.0
 20
1.0
 30
0.0
  9
$PUCSORTHOREF
  2

  9
$PUCSORTHOVIEW
 70
     0
  9
$PUCSORGTOP
 10
0.0
 20
0.0
 30
0.0
  9
$PUCSORGBOTTOM
 10
0.0
 20
0.0
 30
0.0
  9
$PUCSORGLEFT
 10
0.0
 20
0.0
 30
0.0
  9
$PUCSORGRIGHT
 10
0.0
 20
0.0
 30
0.0
  9
$PUCSORGFRONT
 10
0.0
 20
0.0
 30
0.0
  9
$PUCSORGBACK
 10
0.0
 20
0.0
 30
0.0
  9
$USERI1
 70
     0
  9
$USERI2
 70
     0
  9
$USERI3
 70
     0
  9
$USERI4
 70
     0
  9
$USERI5
 70
     0
  9
$USERR1
 40
0.0
  9
$USERR2
 40
0.0
  9
$USERR3
 40
0.0
  9
$USERR4
 40
0.0
  9
$USERR5
 40
0.0
  9
$WORLDVIEW
 70
     1
  9
$SHADEDGE
 70
     3
  9
$SHADEDIF
 70
    70
  9
$TILEMODE
 70
     1
  9
$MAXACTVP
 70
    64
  9
$PINSBASE
 10
0.0
 20
0.0
 30
0.0
  9
$PLIMCHECK
 70
     0
  9
$PEXTMIN
 10
1.000000000000000E+20
 20
1.000000000000000E+20
 30
1.000000000000000E+20
  9
$PEXTMAX
 10
-1.000000000000000E+20
 20
-1.000000000000000E+20
 30
-1.000000000000000E+20
  9
$PLIMMIN
 10
0.0
 20
0.0
  9
$PLIMMAX
 10
420.0
 20
297.0
  9
$UNITMODE
 70
     0
  9
$VISRETAIN
 70
     1
  9
$PLINEGEN
 70
     0
  9
$PSLTSCALE
 70
     1
  9
$TREEDEPTH
 70
  3020
  9
$CMLSTYLE
  2
Standard
  9
$CMLJUST
 70
     0
  9
$CMLSCALE
 40
20.0
  9
$PROXYGRAPHICS
 70
     1
  9
$MEASUREMENT
 70
     1
  9
$CELWEIGHT
370
    -1
  9
$ENDCAPS
280
     0
  9
$JOINSTYLE
280
     0
  9
$LWDISPLAY
290
     0
  9
$INSUNITS
 70
     4
  9
$HYPERLINKBASE
  1

  9
$STYLESHEET
  1

  9
$XEDIT
290
     1
  9
$CEPSNTYPE
380
     0
  9
$PSTYLEMODE
290
     1
  9
$FINGERPRINTGUID
  2
{F3D28324-539B-49C2-9C55-A16A04DD6D53}
  9
$VERSIONGUID
  2
{58CAA89D-6B64-4A5F-B460-32F039570914}
  9
$EXTNAMES
290
     1
  9
$PSVPSCALE
 40
0.0
  9
$OLESTARTUP
290
     0
  0
ENDSEC
  0
SECTION
  2
CLASSES
  0
CLASS
  1
ACDBDICTIONARYWDFLT
  2
AcDbDictionaryWithDefault
  3
ObjectDBX Classes
 90
        0
280
     0
281
     0
  0
CLASS
  1
TABLESTYLE
  2
AcDbTableStyle
  3
ObjectDBX Classes
 90
     4095
280
     0
281
     0
  0
CLASS
  1
DICTIONARYVAR
  2
AcDbDictionaryVar
  3
ObjectDBX Classes
 90
        0
280
     0
281
     0
  0
CLASS
  1
SORTENTSTABLE
  2
AcDbSortentsTable
  3
ObjectDBX Classes
 90
        0
280
     0
281
     0
  0
CLASS
  1
ACDBPLACEHOLDER
  2
AcDbPlaceHolder
  3
ObjectDBX Classes
 90
        0
280
     0
281
     0
  0
CLASS
  1
LAYOUT
  2
AcDbLayout
  3
ObjectDBX Classes
 90
        0
280
     0
281
     0
  0
CLASS
  1
MATERIAL
  2
AcDbMaterial
  3
ObjectDBX Classes
 90
     1153
280
     0
281
     0
  0
CLASS
  1
VISUALSTYLE
  2
AcDbVisualStyle
  3
ObjectDBX Classes
 90
     4095
280
     0
281
     0
  0
CLASS
  1
SCALE
  2
AcDbScale
  3
ObjectDBX Classes
 90
     1153
280
     0
281
     0
  0
CLASS
  1
MLEADERSTYLE
  2
AcDbMLeaderStyle
  3
ACDB_MLEADERSTYLE_CLASS
 90
     4095
280
     0
281
     0
  0
CLASS
  1
CELLSTYLEMAP
  2
AcDbCellStyleMap
  3
ObjectDBX Classes
 90
     1152
280
     0
281
     0
  0
ENDSEC
  0
SECTION
  2
TABLES
  0
TABLE
  2
VPORT
  5
8
330
0
100
AcDbSymbolTable
 70
     1
  0
VPORT
  5
3FD
330
8
100
AcDbSymbolTableRecord
100
AcDbViewportTableRecord
  2
*Active
 70
     0
 10
0.0
 20
0.0
 11
1.0
 21
1.0
 12
18.44027556735295
 22
440.3597960827512
 13
0.0
 23
0.0
 14
10.0
 24
10.0
 15
10.0
 25
10.0
 16
0.0
 26
0.0
 36
1.0
 17
0.0
 27
0.0
 37
0.0
 40
1.928935175323004
 41
1.645464025026068
 42
50.0
 43
0.0
 44
0.0
 50
0.0
 51
0.0
 71
     0
 72
  1000
 73
     1
 74
     3
 75
     0
 76
     0
 77
     0
 78
     0
281
     0
 65
     1
110
0.0
120
0.0
130
0.0
111
1.0
121
0.0
131
0.0
112
0.0
122
1.0
132
0.0
 79
     0
146
0.0
  0
ENDTAB
  0
TABLE
  2
LTYPE
  5
5
330
0
100
AcDbSymbolTable
 70
     2
  0
LTYPE
  5
14
330
5
100
AcDbSymbolTableRecord
100
AcDbLinetypeTableRecord
  2
ByBlock
 70
     0
  3

 72
    65
 73
     0
 40
0.0
  0
LTYPE
  5
15
330
5
100
AcDbSymbolTableRecord
100
AcDbLinetypeTableRecord
  2
ByLayer
 70
     0
  3

 72
    65
 73
     0
 40
0.0
  0
LTYPE
  5
16
330
5
100
AcDbSymbolTableRecord
100
AcDbLinetypeTableRecord
  2
Continuous
 70
     0
  3
Solid line
 72
    65
 73
     0
 40
0.0
  0
LTYPE
  5
2F
330
5
100
AcDbSymbolTableRecord
100
AcDbLinetypeTableRecord
  2
HIDDEN
 70
     0
  3
Hidden __ __ __ __ __ __ __ __ __ __ __ __ __ __
 72
    65
 73
     2
 40
1.905
 49
1.27
 74
     0
 49
-0.635
 74
     0
  0
ENDTAB
  0
TABLE
  2
LAYER
  5
2
330
0
100
AcDbSymbolTable
 70
     3
  0
LAYER
  5
10
102
{ACAD_XDICTIONARY
360
44B
102
}
330
2
100
AcDbSymbolTableRecord
100
AcDbLayerTableRecord
  2
0
 70
     0
 62
     7
  6
Continuous
370
    -3
390
F
  0
LAYER
  5
30
102
{ACAD_XDICTIONARY
360
44D
102
}
330
2
100
AcDbSymbolTableRecord
100
AcDbLayerTableRecord
  2
FORMAT
 70
     0
 62
     7
  6
Continuous
370
    -3
390
F
  0
LAYER
  5
3D6
102
{ACAD_XDICTIONARY
360
44F
102
}
330
2
100
AcDbSymbolTableRecord
100
AcDbLayerTableRecord
  2
sanindusa
 70
     0
 62
     3
  6
Continuous
370
    -3
390
F
  0
ENDTAB
  0
TABLE
  2
STYLE
  5
3
330
0
100
AcDbSymbolTable
 70
     2
  0
STYLE
  5
11
330
3
100
AcDbSymbolTableRecord
100
AcDbTextStyleTableRecord
  2
Standard
 70
     0
 40
0.0
 41
1.0
 50
0.0
 71
     0
 42
2.5
  3
txt
  4

  0
STYLE
  5
31
330
3
100
AcDbSymbolTableRecord
100
AcDbTextStyleTableRecord
  2
SLDTEXTSTYLE0
 70
     0
 40
0.0
 41
0.75
 50
0.0
 71
     0
 42
0.0
  3
TXT
  4

  0
ENDTAB
  0
TABLE
  2
VIEW
  5
6
330
0
100
AcDbSymbolTable
 70
     0
  0
ENDTAB
  0
TABLE
  2
UCS
  5
7
330
0
100
AcDbSymbolTable
 70
     0
  0
ENDTAB
  0
TABLE
  2
APPID
  5
9
330
0
100
AcDbSymbolTable
 70
     4
  0
APPID
  5
12
330
9
100
AcDbSymbolTableRecord
100
AcDbRegAppTableRecord
  2
ACAD
 70
     0
  0
APPID
  5
33
330
9
100
AcDbSymbolTableRecord
100
AcDbRegAppTableRecord
  2
DCO15
 70
     0
  0
APPID
  5
3D8
330
9
100
AcDbSymbolTableRecord
100
AcDbRegAppTableRecord
  2
ACAD_EXEMPT_FROM_CAD_STANDARDS
 70
     0
  0
APPID
  5
48A
330
9
100
AcDbSymbolTableRecord
100
AcDbRegAppTableRecord
  2
ACAD_MLEADERVER
 70
     0
  0
ENDTAB
  0
TABLE
  2
DIMSTYLE
  5
A
330
0
100
AcDbSymbolTable
 70
     2
100
AcDbDimStyleTable
 71
     1
340
2B
  0
DIMSTYLE
105
2B
330
A
100
AcDbSymbolTableRecord
100
AcDbDimStyleTableRecord
  2
ISO-25
 70
     0
 41
2.5
 42
0.625
 43
3.75
 44
1.25
 73
     0
 74
     0
 77
     1
 78
     8
140
2.5
141
2.5
143
0.03937007874016
147
0.625
171
     3
172
     1
271
     2
272
     2
274
     3
278
    44
283
     0
284
     8
340
11
  0
DIMSTYLE
105
32
330
A
100
AcDbSymbolTableRecord
100
AcDbDimStyleTableRecord
  2
STANDARD
 70
     0
340
11
  0
ENDTAB
  0
TABLE
  2
BLOCK_RECORD
  5
1
330
0
100
AcDbSymbolTable
 70
     1
  0
BLOCK_RECORD
  5
23
102
{ACAD_XDICTIONARY
360
3E8
102
}
330
1
100
AcDbSymbolTableRecord
100
AcDbBlockTableRecord
  2
*Model_Space
340
26
  0
BLOCK_RECORD
  5
1F
330
1
100
AcDbSymbolTableRecord
100
AcDbBlockTableRecord
  2
*Paper_Space
340
22
  0
BLOCK_RECORD
  5
27
330
1
100
AcDbSymbolTableRecord
100
AcDbBlockTableRecord
  2
*Paper_Space0
340
2A
  0
ENDTAB
  0
ENDSEC
  0
SECTION
  2
BLOCKS
  0
BLOCK
  5
24
330
23
100
AcDbEntity
  8
0
100
AcDbBlockBegin
  2
*Model_Space
 70
     0
 10
0.0
 20
0.0
 30
0.0
  3
*Model_Space
  1

  0
ENDBLK
  5
25
330
23
100
AcDbEntity
  8
0
100
AcDbBlockEnd
  0
BLOCK
  5
20
330
1F
100
AcDbEntity
 67
     1
  8
0
100
AcDbBlockBegin
  2
*Paper_Space
 70
     0
 10
0.0
 20
0.0
 30
0.0
  3
*Paper_Space
  1

  0
ENDBLK
  5
21
330
1F
100
AcDbEntity
 67
     1
  8
0
100
AcDbBlockEnd
  0
BLOCK
  5
28
330
27
100
AcDbEntity
 67
     1
  8
0
100
AcDbBlockBegin
  2
*Paper_Space0
 70
     0
 10
0.0
 20
0.0
 30
0.0
  3
*Paper_Space0
  1

  0
ENDBLK
  5
29
330
27
100
AcDbEntity
 67
     1
  8
0
100
AcDbBlockEnd
  0
ENDSEC
  0
SECTION
  2
ENTITIES
  0
ARC
  5
207
330
23
100
AcDbEntity
  8
sanindusa
100
AcDbCircle
 10
18.11558922718389
 20
440.8737599330653
 30
0.0
 40
0.5395813497851635
100
AcDbArc
 50
193.2132762593011
 51
205.7811243236297
  0
ARC
  5
209
330
23
100
AcDbEntity
  8
sanindusa
100
AcDbCircle
 10
17.62469311041897
 20
440.8737601679389
 30
0.0
 40
0.5395820492784904
100
AcDbArc
 50
334.2188838545112
 51
346.7867155610632
  0
ARC
  5
20B
330
23
100
AcDbEntity
  8
sanindusa
100
AcDbCircle
 10
17.59613393521778
 20
440.7517957591444
 30
0.0
 40
0.0059999969703802
100
AcDbArc
 50
97.69554554748289
 51
193.2128921343903
  0
LWPOLYLINE
  5
20C
330
23
100
AcDbEntity
  8
sanindusa
100
AcDbPolyline
 90
       63
 70
   128
 43
0.0
 10
18.14495251995799
 20
440.7577417160912
 10
18.14412636599993
 20
440.7576565630372
 10
18.14403688727197
 20
440.7576426634017
 10
18.14394404231411
 20
440.7576260053156
 10
18.14381838957686
 20
440.7576048799969
 10
18.14313089137841
 20
440.7575872061397
 10
18.14164714472131
 20
440.7575687143145
 10
18.13924631367768
 20
440.7575530030481
 10
18.13594671799957
 20
440.75753932886
 10
18.13176586351122
 20
440.7575274548063
 10
18.12670952685808
 20
440.7575171503356
 10
18.12077433217795
 20
440.7575083663724
 10
18.1139484872555
 20
440.7575010780474
 10
18.10627977485991
 20
440.7574954672053
 10
18.09786621785031
 20
440.7574915330423
 10
18.08872430649342
 20
440.7574889918913
 10
18.07885873850582
 20
440.757488145778
 10
18.06826322094317
 20
440.7574888647763
 10
18.05692384993182
 20
440.7574911409465
 10
18.04497953312831
 20
440.7574947290919
 10
18.03252664524858
 20
440.757499239389
 10
18.01957364858892
 20
440.7575045755164
 10
18.00612076663659
 20
440.7575107193159
 10
17.99216107651714
 20
440.7575176792574
 10
17.97770443219532
 20
440.7575251666393
 10
17.96296284855802
 20
440.7575327520594
 10
17.947999008204
 20
440.7575401635136
 10
17.93281663138159
 20
440.7575471462277
 10
17.91741780253184
 20
440.7575532319083
 10
17.90180191318243
 20
440.7575580072679
 10
17.88596875019925
 20
440.7575611959031
 10
17.87011288851308
 20
440.757562390257
 10
17.85434541259532
 20
440.7575612007825
 10
17.8386655115426
 20
440.7575580548399
 10
17.82307230376426
 20
440.7575533053139
 10
17.80756631553278
 20
440.7575471890321
 10
17.79218336476195
 20
440.7575401145641
 10
17.77714558654768
 20
440.7575326629761
 10
17.76248838212141
 20
440.7575251184601
 10
17.74820873450876
 20
440.7575177233493
 10
17.73430637264201
 20
440.7575107883152
 10
17.72078375468341
 20
440.7575046078102
 10
17.7076888572285
 20
440.7574992132778
 10
17.69520991861077
 20
440.7574946980105
 10
17.68336156157473
 20
440.7574911414577
 10
17.67214519628732
 20
440.7574888808288
 10
17.66156544165222
 20
440.7574881444552
 10
17.65162540972896
 20
440.7574889797784
 10
17.64238452317545
 20
440.757491545171
 10
17.63396874574555
 20
440.7574954913946
 10
17.62637640664402
 20
440.7575010408667
 10
17.61960522066949
 20
440.7575082451979
 10
17.61365873834383
 20
440.7575170029273
 10
17.60854843919235
 20
440.7575273810638
 10
17.60432478849751
 20
440.757539368203
 10
17.60103017713198
 20
440.7575530369483
 10
17.59865177916999
 20
440.757568540391
 10
17.59716979776334
 20
440.7575869046861
 10
17.59647054326414
 20
440.7576045398511
 10
17.59634065658235
 20
440.7576256719272
 10
17.59624759930607
 20
440.7576424181717
 10
17.59615794448265
 20
440.7576563709328
 10
17.59533048101812
 20
440.7577417160937
  0
ARC
  5
20D
330
23
100
AcDbEntity
  8
sanindusa
100
AcDbCircle
 10
18.14414906575729
 20
440.751795759144
 30
0.0
 40
0.0059999969669612
100
AcDbArc
 50
346.7871078322281
 51
82.30445451612494
  0
LINE
  5
20E
330
23
100
AcDbEntity
  8
sanindusa
100
AcDbLine
 10
17.59533048077649
 20
440.7577417178229
 30
0.0
 11
17.64157749224967
 21
440.7634030380028
 31
0.0
  0
LINE
  5
210
330
23
100
AcDbEntity
  8
sanindusa
100
AcDbLine
 10
18.10073389736922
 20
440.7631868019542
 30
0.0
 11
18.14495252019149
 21
440.7577417178199
 31
0.0
  0
ARC
  5
212
330
23
100
AcDbEntity
  8
sanindusa
100
AcDbCircle
 10
17.87347612518179
 20
438.6765892379205
 30
0.0
 40
2.099679247629665
100
AcDbArc
 50
90.54416367198518
 51
96.4430797165982
  0
LWPOLYLINE
  5
215
330
23
100
AcDbEntity
  8
sanindusa
100
AcDbPolyline
 90
       50
 70
   128
 43
0.0
 10
17.63340423083196
 20
440.7624994093844
 10
17.63381796143426
 20
440.7622356721102
 10
17.63429408204073
 20
440.7618807291489
 10
17.63440823899197
 20
440.7617790335375
 10
17.63453480384471
 20
440.7616572869679
 10
17.63489631901564
 20
440.7615229716289
 10
17.63610932451026
 20
440.7614148136069
 10
17.63821739699782
 20
440.7613193018461
 10
17.6412880542709
 20
440.7612334397112
 10
17.64539350414229
 20
440.7611618479601
 10
17.65046986691531
 20
440.7611033762712
 10
17.65739720188277
 20
440.7610511507501
 10
17.66555277009847
 20
440.7610129784822
 10
17.67494910651618
 20
440.7609890181145
 10
17.68542722494913
 20
440.7609792378746
 10
17.69688949881805
 20
440.7609827003805
 10
17.70932528420999
 20
440.7609981552671
 10
17.72274074958539
 20
440.7610243151992
 10
17.73703939857768
 20
440.7610596670076
 10
17.75197663113472
 20
440.7611020116926
 10
17.76753549413917
 20
440.7611494892326
 10
17.78371550297149
 20
440.7611994132283
 10
17.80050194277916
 20
440.7612488878633
 10
17.81757353699168
 20
440.7612935199349
 10
17.83482807181495
 20
440.761330058935
 10
17.85226360541647
 20
440.7613551390215
 10
17.86988105395944
 20
440.7613646152399
 10
17.88765449708634
 20
440.7613554187419
 10
17.90523914397265
 20
440.7613303774643
 10
17.92253833121025
 20
440.7612939515026
 10
17.93955446681342
 20
440.7612495368719
 10
17.95628491293845
 20
440.7612002783023
 10
17.97257885284303
 20
440.7611500352015
 10
17.98817624279761
 20
440.7611023785725
 10
18.00307986489933
 20
440.7610600582996
 10
18.01728870631144
 20
440.7610248599383
 10
18.03077187711145
 20
440.7609984514817
 10
18.0432779497103
 20
440.7609828024638
 10
18.05474366552698
 20
440.760979203213
 10
18.06517409310341
 20
440.7609887288893
 10
18.0745575718638
 20
440.7610123902897
 10
18.082794613169
 20
440.7610506777611
 10
18.08975186182948
 20
440.7611028459355
 10
18.09545884787973
 20
440.7611700983474
 10
18.09988666115773
 20
440.7612541186524
 10
18.10302593856037
 20
440.7613570313178
 10
18.10495301277267
 20
440.7614721009577
 10
18.10570614921376
 20
440.7616142923055
 10
18.10620888514959
 20
440.762057211023
 10
18.10687876161184
 20
440.7624994040383
  0
ARC
  5
218
330
23
100
AcDbEntity
  8
sanindusa
100
AcDbCircle
 10
17.86681253064729
 20
438.676681550996
 30
0.0
 40
2.099586886058511
100
AcDbArc
 50
83.55679613302894
 51
89.45593047058725
  0
LWPOLYLINE
  5
219
330
23
100
AcDbEntity
  8
sanindusa
100
AcDbPolyline
 90
        3
 70
   128
 43
0.0
 10
17.88674653771581
 20
440.7761738042309
 10
17.87014064040714
 20
440.7762520398006
 10
17.85353473893941
 20
440.7761737883546
  0
ARC
  5
21A
330
23
100
AcDbEntity
  8
sanindusa
100
AcDbCircle
 10
17.63421897369631
 20
440.6412520873398
 30
0.0
 40
0.0050000002539311
100
AcDbArc
 50
205.7812699441063
 51
270.0000005864434
  0
ARC
  5
21B
330
23
100
AcDbEntity
  8
sanindusa
100
AcDbCircle
 10
18.10606402727714
 20
440.6412520873375
 30
0.0
 40
0.005000000251637
100
AcDbArc
 50
269.9999993966615
 51
334.2187300706346
  0
LINE
  5
21C
330
23
100
AcDbEntity
  8
sanindusa
100
AcDbLine
 10
17.63421897374774
 20
440.6362520870859
 30
0.0
 11
18.10606402722476
 21
440.6362520870859
 31
0.0
  0
LINE
  5
222
330
23
100
AcDbEntity
  8
sanindusa
100
AcDbLine
 10
17.7743309251249
 20
439.9433400376902
 30
0.0
 11
17.96743366079776
 21
439.9433400376907
 31
0.0
  0
LINE
  5
226
330
23
100
AcDbEntity
  8
sanindusa
100
AcDbLine
 10
17.76447856620089
 20
440.6362520870859
 30
0.0
 11
17.77040081639261
 21
439.9453228980743
 31
0.0
  0
LINE
  5
227
330
23
100
AcDbEntity
  8
sanindusa
100
AcDbLine
 10
17.97136376953873
 20
439.9453228980741
 30
0.0
 11
17.97728601973053
 21
440.6362520870859
 31
0.0
  0
LWPOLYLINE
  5
229
330
23
100
AcDbEntity
  8
sanindusa
100
AcDbPolyline
 90
        9
 70
   128
 43
0.0
 10
17.97136376953873
 20
439.9453228980741
 10
17.97132243888116
 20
439.9449351589874
 10
17.97120666850756
 20
439.9445628103871
 10
17.97102085914918
 20
439.9442200062063
 10
17.97077207390019
 20
439.9439197773184
 10
17.9704697697312
 20
439.9436735361998
 10
17.97012543800538
 20
439.9434906431119
 10
17.96975216766197
 20
439.9433780502942
 10
17.96936414762572
 20
439.9433400376907
  0
LINE
  5
22A
330
23
100
AcDbEntity
  8
sanindusa
100
AcDbLine
 10
17.96743366079776
 20
439.9433400376907
 30
0.0
 11
17.96936414762572
 21
439.9433400376907
 31
0.0
  0
LWPOLYLINE
  5
22B
330
23
100
AcDbEntity
  8
sanindusa
100
AcDbPolyline
 90
        9
 70
   128
 43
0.0
 10
17.7724004383756
 20
439.9433400376907
 10
17.77201241836903
 20
439.9433780502746
 10
17.77163914800641
 20
439.9434906430789
 10
17.77129481626045
 20
439.9436735361597
 10
17.77099251207216
 20
439.9439197772776
 10
17.77074372680629
 20
439.9442200061703
 10
17.77055791743479
 20
439.9445628103605
 10
17.77044214705286
 20
439.9449351589733
 10
17.77040081639261
 20
439.9453228980743
  0
LINE
  5
22C
330
23
100
AcDbEntity
  8
sanindusa
100
AcDbLine
 10
17.7724004383756
 20
439.9433400376907
 30
0.0
 11
17.7743309251249
 21
439.9433400376902
 31
0.0
  0
LWPOLYLINE
  5
230
330
23
100
AcDbEntity
  8
sanindusa
100
AcDbPolyline
 90
        9
 70
   128
 43
0.0
 10
17.8535314410708
 20
440.776173754961
 10
17.82694930854751
 20
440.7756696664858
 10
17.80061388021106
 20
440.7746931387798
 10
17.77452404489358
 20
440.7732040176683
 10
17.74868175597461
 20
440.7711421711049
 10
17.72818957613489
 20
440.7690260181284
 10
17.70786348594062
 20
440.7664389178941
 10
17.6877094304013
 20
440.7633199244225
 10
17.67518556599226
 20
440.7609887974039
  0
LWPOLYLINE
  5
232
330
23
100
AcDbEntity
  8
sanindusa
100
AcDbPolyline
 90
        9
 70
   128
 43
0.0
 10
18.06509866327903
 20
440.7609886600024
 10
18.05286710823779
 20
440.7632692881661
 10
18.03283850549417
 20
440.7663790442812
 10
18.01257484383506
 20
440.7689696786983
 10
17.99208237806781
 20
440.7710967756589
 10
17.96615161652165
 20
440.7731766391484
 10
17.93987470878511
 20
440.7746831532212
 10
17.91335674980177
 20
440.7756688971201
 10
17.88674938878528
 20
440.7761737784658
  0
LWPOLYLINE
  5
23D
330
23
100
AcDbEntity
  8
sanindusa
100
AcDbPolyline
 90
       82
 70
   128
 43
0.0
 10
16.8590669085247
 20
440.580420642417
 10
16.8591219382813
 20
440.5682214204047
 10
16.85920603781931
 20
440.5496221104962
 10
16.85928486275718
 20
440.5322216193175
 10
16.85935838000458
 20
440.5160197719853
 10
16.85942656624963
 20
440.5010164529985
 10
16.85948832240554
 20
440.487450609332
 10
16.85954492391134
 20
440.4750421089627
 10
16.85959653874822
 20
440.4637900581825
 10
16.85964305396118
 20
440.4536961149305
 10
16.85969165725138
 20
440.4431379825188
 10
16.85973855364544
 20
440.4329953028533
 10
16.8597860842894
 20
440.4227760659217
 10
16.859834230774
 20
440.4124786315978
 10
16.85988304958346
 20
440.4021028969303
 10
16.85993268389494
 20
440.3916503954761
 10
16.86006656484859
 20
440.3735605310424
 10
16.86098119619487
 20
440.3551679755247
 10
16.86298667507438
 20
440.3368675285046
 10
16.86621480171423
 20
440.3187273862082
 10
16.87067687455219
 20
440.3007643333553
 10
16.87635482904707
 20
440.2831038210408
 10
16.88315686385327
 20
440.2660013298001
 10
16.89106108221303
 20
440.2494539380663
 10
16.90006078445144
 20
440.2334595307771
 10
16.91015827187416
 20
440.2180216578604
 10
16.92131085974217
 20
440.2032238387199
 10
16.93333797963295
 20
440.189298216343
 10
16.94621817752857
 20
440.1762520524369
 10
16.95994132564903
 20
440.1640839011814
 10
16.97450368630122
 20
440.1527896121028
 10
16.98986306304373
 20
440.1424171259497
 10
17.00576779301234
 20
440.13313813836
 10
17.02217799541874
 20
440.1249615065302
 10
17.03909027467926
 20
440.1178831850524
 10
17.05650584979194
 20
440.1119098916468
 10
17.0743979599284
 20
440.1070662823044
 10
17.09247413730637
 20
440.1034243719002
 10
17.11066496385369
 20
440.1009739752536
 10
17.12897336752687
 20
440.0997099417703
 10
17.14740353168808
 20
440.0996521095595
 10
17.16590857381342
 20
440.1008205812611
 10
17.18418093192651
 20
440.1031821544123
 10
17.20216509563053
 20
440.1067036377061
 10
17.21986427154251
 20
440.1113792136023
 10
17.23727461723185
 20
440.1172217332217
 10
17.25438828221097
 20
440.1242551341789
 10
17.27099895204847
 20
440.1324111261688
 10
17.28692662689807
 20
440.1415852466707
 10
17.30218160972147
 20
440.151755898688
 10
17.31676932038221
 20
440.1629209689262
 10
17.3306806933614
 20
440.1751002881294
 10
17.34375860504151
 20
440.1881941922149
 10
17.35584475379802
 20
440.2020337406414
 10
17.36696049408323
 20
440.2166035196755
 10
17.3771092512447
 20
440.2319042791422
 10
17.38627444870938
 20
440.2479515617335
 10
17.39435161762344
 20
440.2646088404684
 10
17.4012430665635
 20
440.2816581127519
 10
17.40696357568467
 20
440.2990921001676
 10
17.4106979872714
 20
440.313315827188
 10
17.41367665674667
 20
440.3277875799505
 10
17.41585650312218
 20
440.3422784860318
 10
17.41723477930245
 20
440.3564077251046
 10
17.41796231848407
 20
440.3701086699167
 10
17.41811284217061
 20
440.3771114672546
 10
17.41815191214944
 20
440.3839167338911
 10
17.41818387871684
 20
440.3905766206515
 10
17.41821510630343
 20
440.3971268789099
 10
17.41824575524352
 20
440.4036017933126
 10
17.41827920369501
 20
440.4107042780743
 10
17.41832386234273
 20
440.420237132577
 10
17.41837412838159
 20
440.4310267209583
 10
17.41842988944208
 20
440.4430749701709
 10
17.41849115926561
 20
440.4563809979896
 10
17.41855960159649
 20
440.4712560419302
 10
17.41863348426341
 20
440.4874405359637
 10
17.41871310713329
 20
440.5049350846198
 10
17.41879852414316
 20
440.5237411279507
 10
17.41888970251471
 20
440.5438548788596
 10
17.41898660962518
 20
440.5652773867905
 10
17.41905492983854
 20
440.5804206424432
  0
LWPOLYLINE
  5
23E
330
23
100
AcDbEntity
  8
sanindusa
100
AcDbPolyline
 90
        7
 70
   128
 43
0.0
 10
16.86361931300437
 20
440.5823805583374
 10
16.86245982739279
 20
440.5823589253119
 10
16.8608531930201
 20
440.5821562145436
 10
16.86017572562656
 20
440.5819169830998
 10
16.859614627302
 20
440.5815408802119
 10
16.85922926738143
 20
440.5810254427604
 10
16.85907229662954
 20
440.5804207355675
  0
LINE
  5
23F
330
23
100
AcDbEntity
  8
sanindusa
100
AcDbLine
 10
16.86451772093713
 20
440.58242983955
 30
0.0
 11
16.86361931300437
 21
440.5823805583374
 31
0.0
  0
LWPOLYLINE
  5
240
330
23
100
AcDbEntity
  8
sanindusa
100
AcDbPolyline
 90
        9
 70
   128
 43
0.0
 10
17.41904972916397
 20
440.5804207356715
 10
17.41903586836297
 20
440.5806424436816
 10
17.41899139827023
 20
440.5808615651487
 10
17.41880313613281
 20
440.5812745364324
 10
17.41846544274854
 20
440.5816302920962
 10
17.41795041060074
 20
440.581912637554
 10
17.41626716469063
 20
440.5822599445925
 10
17.41506698426064
 20
440.5823473208226
 10
17.4136041221938
 20
440.58242983955
  0
CIRCLE
  5
243
330
23
100
AcDbEntity
  8
sanindusa
100
AcDbCircle
 10
17.13906092168613
 20
440.5229298395503
 30
0.0
 40
0.0175000000000005
  0
LWPOLYLINE
  5
24D
330
23
100
AcDbEntity
  8
sanindusa
100
AcDbPolyline
 90
        3
 70
   128
 43
0.0
 10
17.15545213443714
 20
440.4624796839678
 10
17.1390586934899
 20
440.4627039449188
 10
17.12266524840037
 20
440.4624795619257
  0
LINE
  5
24F
330
23
100
AcDbEntity
  8
sanindusa
100
AcDbLine
 10
17.4136041221938
 20
440.58242983955
 30
0.0
 11
16.86451772093713
 21
440.58242983955
 31
0.0
  0
LINE
  5
252
330
23
100
AcDbEntity
  8
sanindusa
100
AcDbLine
 10
17.36230258780508
 20
440.4263214105723
 30
0.0
 11
17.36222222859914
 21
440.4249216123273
 31
0.0
  0
LWPOLYLINE
  5
255
330
23
100
AcDbEntity
  8
sanindusa
100
AcDbPolyline
 90
       25
 70
   128
 43
0.0
 10
17.37576065307473
 20
440.5734683581037
 10
17.37576040700352
 20
440.5734681223065
 10
17.37575999306862
 20
440.5734677224747
 10
17.37575867142464
 20
440.5734664196087
 10
17.37575416726648
 20
440.5734616818842
 10
17.37573906493516
 20
440.573442653344
 10
17.37569535245819
 20
440.5733600449661
 10
17.37558976957791
 20
440.5730084376059
 10
17.37534155122739
 20
440.5715743459199
 10
17.37503227287596
 20
440.5691774528943
 10
17.37464672779304
 20
440.5658218416881
 10
17.37417570696817
 20
440.5615088963956
 10
17.37361483189339
 20
440.5562389419995
 10
17.37296267047235
 20
440.5500120056974
 10
17.37222028202546
 20
440.5428278255208
 10
17.37126523216789
 20
440.5334453912697
 10
17.37053828000734
 20
440.5261876934549
 10
17.37001860286216
 20
440.5209291905586
 10
17.36950529382606
 20
440.515670964177
 10
17.36899881305707
 20
440.5104129925803
 10
17.36849964625656
 20
440.505155253841
 10
17.36800827802894
 20
440.4998977261959
 10
17.36583429892151
 20
440.475367495298
 10
17.3639043252221
 20
440.4508387041708
 10
17.36230258781803
 20
440.4263214107981
  0
LINE
  5
258
330
23
100
AcDbEntity
  8
sanindusa
100
AcDbLine
 10
16.91589963157203
 20
440.4249216059862
 30
0.0
 11
16.91581931841709
 21
440.4263206494882
 31
0.0
  0
LWPOLYLINE
  5
259
330
23
100
AcDbEntity
  8
sanindusa
100
AcDbPolyline
 90
      170
 70
   128
 43
0.0
 10
16.91581931842179
 20
440.4263206494067
 10
16.91510004750029
 20
440.4380564552937
 10
16.91436634374801
 20
440.448775600638
 10
16.91364718074571
 20
440.4584773564645
 10
16.91296404827535
 20
440.4671609692327
 10
16.91233309898338
 20
440.4748257070941
 10
16.91176669736415
 20
440.4814708891506
 10
16.91127436610238
 20
440.487095391557
 10
16.91086318719245
 20
440.4916984221724
 10
16.91053837076127
 20
440.4952800622448
 10
16.91035374248375
 20
440.497296036449
 10
16.91022095530873
 20
440.4987375207196
 10
16.91014078408369
 20
440.4996045230148
 10
16.91012058350606
 20
440.4998225948671
 10
16.9101154698944
 20
440.4998777736065
 10
16.91011416072549
 20
440.4998918986879
 10
16.91011381811182
 20
440.4998955951571
 10
16.91011369764604
 20
440.4998968948527
 10
16.91011368349009
 20
440.4998970475786
 10
16.91011368186316
 20
440.499897065131
 10
16.91011368023624
 20
440.4998970826834
 10
16.9101136769824
 20
440.4998971177882
 10
16.9101136704747
 20
440.4998971879978
 10
16.91011365745931
 20
440.4998973284169
 10
16.91011363142851
 20
440.4998976092551
 10
16.91011357936683
 20
440.4998981709318
 10
16.9101134752432
 20
440.4998992942848
 10
16.9101132669948
 20
440.4999015409909
 10
16.91011285049348
 20
440.4999060344032
 10
16.91011201747278
 20
440.4999150212277
 10
16.91011035135911
 20
440.4999329948759
 10
16.91010701884279
 20
440.4999689421698
 10
16.91010035265487
 20
440.5000408367477
 10
16.91008701566302
 20
440.5001846258642
 10
16.91006032325413
 20
440.5004722039408
 10
16.91000686495432
 20
440.5010473594769
 10
16.90989965659183
 20
440.5021976681814
 10
16.90968409054823
 20
440.5044982769669
 10
16.90924850304804
 20
440.5090994668299
 10
16.9091449982844
 20
440.5101839549124
 10
16.90903697380885
 20
440.5113123458819
 10
16.90892439538163
 20
440.5124846398406
 10
16.90880722841696
 20
440.5137008369417
 10
16.90861390693577
 20
440.5156991278629
 10
16.90847466553473
 20
440.5171321444185
 10
16.90839010841173
 20
440.5179998870736
 10
16.90836845708241
 20
440.5182217806398
 10
16.90836280042584
 20
440.5182797329697
 10
16.90836082080116
 20
440.5183000121417
 10
16.9083605920193
 20
440.5183023556609
 10
16.90836059030553
 20
440.5183023732153
 10
16.90836058859176
 20
440.5183023907697
 10
16.90836058516422
 20
440.5183024258786
 10
16.90836057830914
 20
440.5183024960962
 10
16.90836056459898
 20
440.5183026365315
 10
16.90836053717865
 20
440.5183029174021
 10
16.90836048233794
 20
440.5183034791433
 10
16.90836037265628
 20
440.5183046026258
 10
16.90836015329207
 20
440.5183068495907
 10
16.90835971456006
 20
440.5183113435206
 10
16.90835883708169
 20
440.5183203313802
 10
16.90835708206754
 20
440.5183383070996
 10
16.9083535718097
 20
440.5183742585389
 10
16.90834655037634
 20
440.5184461614192
 10
16.90833250384335
 20
440.5185899671871
 10
16.90830439614672
 20
440.5188775787537
 10
16.90824812263712
 20
440.5194528021091
 10
16.90813534525396
 20
440.5206032499478
 10
16.90790888278923
 20
440.5229041503421
 10
16.90745243711485
 20
440.527505971657
 10
16.90732972102301
 20
440.5287354317157
 10
16.90720645205942
 20
440.5299672780935
 10
16.90708263311896
 20
440.531201510878
 10
16.906968427477
 20
440.5323372157039
 10
16.90685202693788
 20
440.5334921344246
 10
16.90667905783923
 20
440.5352035572503
 10
16.90655063815878
 20
440.5364705903043
 10
16.90652628069525
 20
440.5367105656281
 10
16.90652627891261
 20
440.5367105831865
 10
16.90652627712998
 20
440.536710600745
 10
16.9065262735647
 20
440.5367106358618
 10
16.90652626643417
 20
440.5367107060956
 10
16.90652625217308
 20
440.5367108465631
 10
16.90652622365089
 20
440.536711127498
 10
16.90652616660647
 20
440.536711689368
 10
16.90652605251745
 20
440.5367128131078
 10
16.90652582433871
 20
440.5367150605876
 10
16.90652536797839
 20
440.536719555547
 10
16.90652445524639
 20
440.536728545466
 10
16.90652262973692
 20
440.5367465253045
 10
16.90651897853626
 20
440.5367824849833
 10
16.9065116754084
 20
440.5368544043477
 10
16.90649706624989
 20
440.5369982431048
 10
16.90646783634825
 20
440.5372859207314
 10
16.90640933062035
 20
440.5378612740311
 10
16.90629213711536
 20
440.5390119586618
 10
16.90605702226615
 20
440.5413132376152
 10
16.90558388270759
 20
440.5459154279125
 10
16.9055449827493
 20
440.5462920819835
 10
16.90545269130644
 20
440.5471846803327
 10
16.90530675872173
 20
440.5485931901243
 10
16.9051067515657
 20
440.5505175549244
 10
16.90498381924623
 20
440.5516966945222
 10
16.90486658169026
 20
440.5528185301868
 10
16.90481798347605
 20
440.5532827679091
 10
16.9047629589842
 20
440.5538078111867
 10
16.9046827446975
 20
440.5545720727678
 10
16.90463309873231
 20
440.5550443884
 10
16.90462728902726
 20
440.5550996244411
 10
16.9046257813505
 20
440.5551139574216
 10
16.90462537685803
 20
440.5551178026584
 10
16.90462522633376
 20
440.5551192335384
 10
16.90462520527269
 20
440.5551194337276
 10
16.90462520342569
 20
440.5551194512823
 10
16.90462520157868
 20
440.5551194688371
 10
16.90462519788466
 20
440.5551195039467
 10
16.90462519049664
 20
440.5551195741657
 10
16.90462517572058
 20
440.5551197146038
 10
16.90462514616844
 20
440.5551199954799
 10
16.90462508706411
 20
440.5551205572323
 10
16.90462496885523
 20
440.555121680737
 10
16.90462473243651
 20
440.5551239277461
 10
16.90462425959533
 20
440.5551284217642
 10
16.90462331389801
 20
440.5551374097982
 10
16.9046214224434
 20
440.5551553858589
 10
16.90461763929416
 20
440.5551913379502
 10
16.90461007203403
 20
440.5552632420127
 10
16.90459493365433
 20
440.5554070496556
 10
16.90456464135463
 20
440.5556946630013
 10
16.90450399344552
 20
440.556269881806
 10
16.90438242001339
 20
440.5574202853361
 10
16.90413793824279
 20
440.5597209327818
 10
16.90385767091574
 20
440.5623317142421
 10
16.90373879111574
 20
440.5634277816623
 10
16.90368446126506
 20
440.5639258787369
 10
16.90366018339862
 20
440.564147818863
 10
16.90364113444519
 20
440.5643216647715
 10
16.90361782403491
 20
440.5645337933316
 10
16.90359947391281
 20
440.5647005082601
 10
16.90356662718659
 20
440.5649983061559
 10
16.90350770676885
 20
440.5655303809276
 10
16.90340146139546
 20
440.5664814199723
 10
16.90320724378941
 20
440.5681824492912
 10
16.90309838791536
 20
440.5691058466493
 10
16.90295725080295
 20
440.5702546417775
 10
16.90291410529312
 20
440.5705915229884
 10
16.90287839096025
 20
440.5708639128083
 10
16.90285054883054
 20
440.5710718647015
 10
16.90283098472412
 20
440.5712154397743
 10
16.90283098245397
 20
440.5712154563027
 10
16.90283097791368
 20
440.5712154893594
 10
16.90283096883316
 20
440.571215555472
 10
16.90283095067231
 20
440.5712156876943
 10
16.90283091435136
 20
440.5712159521274
 10
16.90283084171252
 20
440.5712164809476
 10
16.90283069644703
 20
440.5712175384039
 10
16.90283040596482
 20
440.5712196525795
 10
16.9028298251954
 20
440.5712238779832
 10
16.90282866443598
 20
440.5712323170003
 10
16.9028263460303
 20
440.5712491478676
 10
16.90282172163882
 20
440.5712826208968
 10
16.90281252233213
 20
440.5713488118457
 10
16.90279432089618
 20
440.5714781713052
 10
16.90275870885841
 20
440.5717247918959
 10
16.90269042071259
 20
440.5721696026529
 10
16.90256435689765
 20
440.5728653175477
 10
16.902477697838
 20
440.5732162351349
 10
16.90239909057386
 20
440.5734182099993
 10
16.90237718910137
 20
440.5734518506733
 10
16.90236118325501
 20
440.573470002629
  0
ARC
  5
25B
330
23
100
AcDbEntity
  8
sanindusa
100
AcDbCircle
 10
17.14031156199424
 20
439.8798498742958
 30
0.0
 40
0.5828265028762116
100
AcDbArc
 50
68.07763010235238
 51
88.51141206958471
  0
ARC
  5
25C
330
23
100
AcDbEntity
  8
sanindusa
100
AcDbCircle
 10
17.13757141971535
 20
439.881002444843
 30
0.0
 40
0.5816681450342828
100
AcDbArc
 50
91.46845614438607
 51
111.9429336147639
  0
LWPOLYLINE
  5
25E
330
23
100
AcDbEntity
  8
sanindusa
100
AcDbPolyline
 90
        5
 70
   128
 43
0.0
 10
17.31109035645913
 20
440.4246401035793
 10
17.32389295068441
 20
440.4235641096913
 10
17.33597598615766
 20
440.4224902973175
 10
17.34732084656133
 20
440.421464841229
 10
17.35790984191733
 20
440.4205325182947
  0
ARC
  5
25F
330
23
100
AcDbEntity
  8
sanindusa
100
AcDbCircle
 10
17.13906092168663
 20
439.7741688089815
 30
0.0
 40
0.6728350700758023
100
AcDbArc
 50
75.18620917841905
 51
104.8137908215809
  0
LWPOLYLINE
  5
260
330
23
100
AcDbEntity
  8
sanindusa
100
AcDbPolyline
 90
        5
 70
   128
 43
0.0
 10
16.92021195931781
 20
440.4205325143191
 10
16.93080295086712
 20
440.4214650167491
 10
16.94214695861955
 20
440.4224903964598
 10
16.95423164993332
 20
440.4235643494145
 10
16.96703148648827
 20
440.4246401034164
  0
LWPOLYLINE
  5
261
330
23
100
AcDbEntity
  8
sanindusa
100
AcDbPolyline
 90
       39
 70
   128
 43
0.0
 10
17.13906092181941
 20
440.4605072044302
 10
17.1413268647681
 20
440.4604763068552
 10
17.14352892755826
 20
440.4603857829062
 10
17.14560325312208
 20
440.460238269931
 10
17.1474931925544
 20
440.4600402759363
 10
17.14914237965894
 20
440.4597985392582
 10
17.15050741543725
 20
440.4595224991587
 10
17.15154536791296
 20
440.4592215002274
 10
17.15223136497014
 20
440.4589059581524
 10
17.15254079468322
 20
440.4585859877143
 10
17.1524702896106
 20
440.4582710643915
 10
17.15201661591727
 20
440.4579702899609
 10
17.15119791777523
 20
440.4576910190345
 10
17.15003235516979
 20
440.4574402327607
 10
17.14855764647557
 20
440.4572228195716
 10
17.14681119723187
 20
440.4570434483544
 10
17.14484624953224
 20
440.45690474856
 10
17.14271586470983
 20
440.4568094480985
 10
17.1404824080996
 20
440.456758402549
 10
17.13906092175284
 20
440.4567495307041
 10
17.13679497880126
 20
440.4567723274484
 10
17.13459291600264
 20
440.4568398781649
 10
17.13251859042497
 20
440.4569517659437
 10
17.13062865097388
 20
440.4571057780612
 10
17.12897946384611
 20
440.4572999650458
 10
17.12761442804083
 20
440.4575302755804
 10
17.12657647553509
 20
440.4577926357028
 10
17.12589047844575
 20
440.4580807461918
 10
17.12558104869926
 20
440.4583879336596
 10
17.1256515537382
 20
440.458705752724
 10
17.12610522739852
 20
440.4590251923413
 10
17.12692392550916
 20
440.459336403574
 10
17.12808948808568
 20
440.4596291203962
 10
17.12956419675427
 20
440.4598935251512
 10
17.1313106459764
 20
440.4601197283617
 10
17.13327559365909
 20
440.4602998874745
 10
17.13540597846975
 20
440.4604263923479
 10
17.13763943507366
 20
440.4604951873623
 10
17.13906092181941
 20
440.4605072044302
  0
LWPOLYLINE
  5
262
330
23
100
AcDbEntity
  8
sanindusa
100
AcDbPolyline
 90
       37
 70
   128
 43
0.0
 10
17.37579818281248
 20
440.5734653963892
 10
17.37579365636269
 20
440.5734623602802
 10
17.3757891045864
 20
440.5734574344113
 10
17.37577529721985
 20
440.5734313182144
 10
17.37576126163255
 20
440.5733881940686
 10
17.37561109040919
 20
440.5721040933813
 10
17.37557299937102
 20
440.5716149435223
 10
17.37553484241956
 20
440.5710858035409
 10
17.3754208941664
 20
440.5693475824426
 10
17.37533076161195
 20
440.5678680505221
 10
17.37523981677779
 20
440.5663200048016
 10
17.3750732827127
 20
440.5633982877488
 10
17.374928127216
 20
440.5607944578375
 10
17.37478523968027
 20
440.5581969343631
 10
17.37462977631804
 20
440.5553421837782
 10
17.37450701086028
 20
440.5530707893587
 10
17.37438413275558
 20
440.5507838609103
 10
17.37415108700461
 20
440.5464131258345
 10
17.37390087958143
 20
440.5416745207554
 10
17.37363403837958
 20
440.5365680401032
 10
17.37344022922281
 20
440.5328221415666
 10
17.37317746764857
 20
440.5276931240187
 10
17.37287996415659
 20
440.521812426727
 10
17.37257935825179
 20
440.5157795816046
 10
17.37231390017065
 20
440.5103678844286
 10
17.37205295047455
 20
440.5049606147524
 10
17.37179583649951
 20
440.4995446286732
 10
17.3714474612432
 20
440.492042497309
 10
17.37114073984776
 20
440.4852573889534
 10
17.37085137115906
 20
440.4786775109685
 10
17.37054750301366
 20
440.4715505950057
 10
17.37027210966411
 20
440.4648618103034
 10
17.36999576622251
 20
440.4578890643282
 10
17.36968670303852
 20
440.4497078783122
 10
17.36940550114509
 20
440.441816761468
 10
17.36913583754907
 20
440.4337202088698
 10
17.3688871744243
 20
440.4256180896251
  0
LWPOLYLINE
  5
263
330
23
100
AcDbEntity
  8
sanindusa
100
AcDbPolyline
 90
       17
 70
   128
 43
0.0
 10
16.90923467815253
 20
440.4256172753993
 10
16.90794177609004
 20
440.4625709627135
 10
16.90632552880692
 20
440.4995562715635
 10
16.90448888585361
 20
440.5365498241843
 10
16.90350817320946
 20
440.5550472501182
 10
16.90299817967279
 20
440.5642931646553
 10
16.90272799939944
 20
440.5689130037401
 10
16.9025777007831
 20
440.5712194091064
 10
16.90248854501794
 20
440.572368662961
 10
16.90243209547973
 20
440.5729393910227
 10
16.90239463003086
 20
440.5732204555705
 10
16.9023689482755
 20
440.5733568394412
 10
16.90235126579956
 20
440.5734207167074
 10
16.90233942130884
 20
440.5734487561182
 10
16.90233211258874
 20
440.573459958342
 10
16.90232802356546
 20
440.5734641885426
 10
16.90232365243152
 20
440.5734670537237
  0
LWPOLYLINE
  5
264
330
23
100
AcDbEntity
  8
sanindusa
100
AcDbPolyline
 90
       49
 70
   128
 43
0.0
 10
17.3688871744243
 20
440.4256180896251
 10
17.36878409200071
 20
440.4083042591723
 10
17.36867082257503
 20
440.3909907119734
 10
17.3684750008237
 20
440.373814745422
 10
17.36739433123711
 20
440.3568697739288
 10
17.36518045087072
 20
440.3399434142764
 10
17.36180220344818
 20
440.3232693481685
 10
17.35721501538404
 20
440.3070248318859
 10
17.35143207132021
 20
440.291198097163
 10
17.34445064420336
 20
440.275788056615
 10
17.33627182913243
 20
440.2608388163015
 10
17.32705053105859
 20
440.2466352474724
 10
17.31684590410557
 20
440.2332207325232
 10
17.30566551397746
 20
440.2205896995778
 10
17.29350161268522
 20
440.2087470403298
 10
17.28045633353245
 20
440.1978123435366
 10
17.26674171172966
 20
440.1879476375415
 10
17.25237444235024
 20
440.1791377943632
 10
17.23735323735933
 20
440.1713814953641
 10
17.22168333591674
 20
440.1646997890531
 10
17.20563059836423
 20
440.1592146788977
 10
17.18930980661611
 20
440.1549420629325
 10
17.17272523806712
 20
440.1518725914061
 10
17.15587272237933
 20
440.1500164319391
 10
17.1388470882203
 20
440.1494025115672
 10
17.12196945274442
 20
440.1500380265296
 10
17.10526081478124
 20
440.151893480588
 10
17.08872226495447
 20
440.1549618967256
 10
17.07235301253742
 20
440.1592562151291
 10
17.05623104439309
 20
440.1647794091672
 10
17.04066779190628
 20
440.1714286851027
 10
17.02568890820685
 20
440.1791709071372
 10
17.01129445409783
 20
440.1880053141075
 10
16.99749237434856
 20
440.19794740058
 10
16.98447892393303
 20
440.2088749050028
 10
16.97239083719225
 20
440.2206582066834
 10
16.96122051583998
 20
440.233288223271
 10
16.95097471773368
 20
440.2467730444365
 10
16.94170956756684
 20
440.2610741627244
 10
16.93360254546012
 20
440.2759239526154
 10
16.92665625540502
 20
440.2912786686091
 10
16.92087043428186
 20
440.3071368570668
 10
16.91626225187201
 20
440.3235070731782
 10
16.91290415408238
 20
440.3401698129257
 10
16.910718000211
 20
440.3569680414498
 10
16.90964583837952
 20
440.3738474261819
 10
16.90945089523558
 20
440.3910087802592
 10
16.90933769924991
 20
440.4083125772261
 10
16.9092346731465
 20
440.4256172754879
  0
LWPOLYLINE
  5
267
330
23
100
AcDbEntity
  8
sanindusa
100
AcDbPolyline
 90
        3
 70
   128
 43
0.0
 10
17.36888716937326
 20
440.42561809035
 10
17.3688495173525
 20
440.4249150866303
 10
17.36881183785345
 20
440.424212230227
  0
LWPOLYLINE
  5
268
330
23
100
AcDbEntity
  8
sanindusa
100
AcDbPolyline
 90
        3
 70
   128
 43
0.0
 10
16.90930997451772
 20
440.4242121707506
 10
16.9092723126002
 20
440.4249146497632
 10
16.90923467813427
 20
440.4256172759457
  0
LWPOLYLINE
  5
269
330
23
100
AcDbEntity
  8
sanindusa
100
AcDbPolyline
 90
        7
 70
   128
 43
0.0
 10
16.90930997451013
 20
440.4242121707323
 10
16.90950507365013
 20
440.4220088093118
 10
16.90984333538302
 20
440.4199063108615
 10
16.91031681701363
 20
440.4179380107563
 10
16.91090762029413
 20
440.4161605664007
 10
16.91238736023363
 20
440.4132376184033
 10
16.91414234719313
 20
440.4111488343042
  0
LWPOLYLINE
  5
26B
330
23
100
AcDbEntity
  8
sanindusa
100
AcDbPolyline
 90
        3
 70
   128
 43
0.0
 10
16.96202183222106
 20
440.3738961196392
 10
16.96188582083223
 20
440.3945142054171
 10
16.96147279286313
 20
440.4150959294782
  0
LWPOLYLINE
  5
26C
330
23
100
AcDbEntity
  8
sanindusa
100
AcDbPolyline
 90
       51
 70
   128
 43
0.0
 10
17.31610000267758
 20
440.3738961198211
 10
17.31608501041344
 20
440.3728399682692
 10
17.31606860638239
 20
440.3720104057482
 10
17.31602925351415
 20
440.3705298240485
 10
17.31592696993695
 20
440.367888391988
 10
17.31564258919503
 20
440.3631792771437
 10
17.31481087603311
 20
440.354794176948
 10
17.31228515472063
 20
440.3398948775286
 10
17.30948383647051
 20
440.328741279489
 10
17.30596984497203
 20
440.3178834179885
 10
17.3017576771957
 20
440.3073217134476
 10
17.29578767537615
 20
440.295040193232
 10
17.28881623142138
 20
440.2831892048339
 10
17.28093390832377
 20
440.2719380208888
 10
17.27225255307222
 20
440.261417188103
 10
17.26278330784143
 20
440.251613393725
 10
17.25252655479078
 20
440.2425304404476
 10
17.24156281371691
 20
440.2342452749569
 10
17.2300792063473
 20
440.226889510868
 10
17.21809787216752
 20
440.2204504704974
 10
17.20561322287846
 20
440.2149215208506
 10
17.19265614818177
 20
440.2103358100312
 10
17.17944873248528
 20
440.2067660453931
 10
17.16602477068303
 20
440.2042117000372
 10
17.15238667669234
 20
440.2026781118991
 10
17.13870271646501
 20
440.2021859456822
 10
17.12511336208649
 20
440.202727414536
 10
17.11161623849956
 20
440.2042865454767
 10
17.09820636676424
 20
440.2068739790305
 10
17.08495897877238
 20
440.2104946283652
 10
17.07211703241906
 20
440.2150778143119
 10
17.05970127303579
 20
440.2206085771489
 10
17.0477135944602
 20
440.2270833673159
 10
17.03616259182701
 20
440.2345207925042
 10
17.02525798920419
 20
440.2428042527167
 10
17.01508623600825
 20
440.2518547356575
 10
17.0056463292741
 20
440.2616701894893
 10
16.99694711377325
 20
440.2722579192507
 10
16.98907397428443
 20
440.2835502780292
 10
16.98217530143176
 20
440.2953373778657
 10
16.97623971819106
 20
440.307606392217
 10
16.97203513928514
 20
440.3182030760889
 10
16.96852113940732
 20
440.3291406245592
 10
16.96575974279523
 20
440.3402451128236
 10
16.96403379582581
 20
440.3496172798794
 10
16.96283854115951
 20
440.3590276895108
 10
16.9622211553721
 20
440.3673415363963
 10
16.96207841775744
 20
440.3710096643612
 10
16.96204068233551
 20
440.372625634457
 10
16.96202894650651
 20
440.37333705206
 10
16.96202183222106
 20
440.3738961196392
  0
LWPOLYLINE
  5
26D
330
23
100
AcDbEntity
  8
sanindusa
100
AcDbPolyline
 90
        3
 70
   128
 43
0.0
 10
17.31664905051013
 20
440.4150959294782
 10
17.31623599279238
 20
440.3945119945466
 10
17.31610000267758
 20
440.3738961198211
  0
LWPOLYLINE
  5
26F
330
23
100
AcDbEntity
  8
sanindusa
100
AcDbPolyline
 90
        7
 70
   128
 43
0.0
 10
17.36397949546113
 20
440.4111488343603
 10
17.36573448412813
 20
440.4132376214803
 10
17.36721421950913
 20
440.4161605874536
 10
17.36780501764463
 20
440.4179380437353
 10
17.36827849264457
 20
440.419906354998
 10
17.36861674683163
 20
440.4220088625803
 10
17.36881183787913
 20
440.4242122301513
  0
LWPOLYLINE
  5
272
330
23
100
AcDbEntity
  8
sanindusa
100
AcDbPolyline
 90
        7
 70
   128
 43
0.0
 10
16.91589963157213
 20
440.4249216059863
 10
16.91525692873239
 20
440.4222378360032
 10
16.91460476939861
 20
440.4193698808006
 10
16.91426494537274
 20
440.4177571871567
 10
16.91396679560719
 20
440.4159152170628
 10
16.91384232466569
 20
440.4137090986542
 10
16.91414234707609
 20
440.4111488348254
  0
LWPOLYLINE
  5
273
330
23
100
AcDbEntity
  8
sanindusa
100
AcDbPolyline
 90
        7
 70
   128
 43
0.0
 10
17.36397949556262
 20
440.4111488348121
 10
17.36427951838649
 20
440.4137091010976
 10
17.36415505069709
 20
440.4159152123162
 10
17.36385690941144
 20
440.4177571725226
 10
17.36351709443013
 20
440.4193698626188
 10
17.36286494133015
 20
440.4222378272435
 10
17.36222222859913
 20
440.4249216123273
  0
ARC
  5
276
330
23
100
AcDbEntity
  8
sanindusa
100
AcDbCircle
 10
16.92323301716846
 20
440.4119235802149
 30
0.0
 40
0.0091236252637844
100
AcDbArc
 50
109.3370545430704
 51
184.8712210820006
  0
ARC
  5
277
330
23
100
AcDbEntity
  8
sanindusa
100
AcDbCircle
 10
17.35488884154042
 20
440.4119235804649
 30
0.0
 40
0.0091236092837281
100
AcDbArc
 50
355.1287694256915
 51
70.66329561113575
  0
ARC
  5
278
330
23
100
AcDbEntity
  8
sanindusa
100
AcDbCircle
 10
16.97113395798222
 20
440.4158599252172
 30
0.0
 40
0.0096913260577012
100
AcDbArc
 50
115.0439719743629
 51
184.5214857052246
  0
ARC
  5
279
330
23
100
AcDbEntity
  8
sanindusa
100
AcDbCircle
 10
17.30698788539328
 20
440.415859925216
 30
0.0
 40
0.0096913260576511
100
AcDbArc
 50
355.4785142980382
 51
64.95602803236391
  0
ARC
  5
27C
330
23
100
AcDbEntity
  8
sanindusa
100
AcDbCircle
 10
17.13904575310147
 20
440.3759370686217
 30
0.0
 40
0.0353393006195816
100
AcDbArc
 50
89.91484802871594
 51
270.024592593656
  0
ARC
  5
27D
330
23
100
AcDbEntity
  8
sanindusa
100
AcDbCircle
 10
17.1390764523164
 20
440.3759370523977
 30
0.0
 40
0.035339284553084
100
AcDbArc
 50
269.9748197946898
 51
89.96462082794048
  0
ARC
  5
283
330
23
100
AcDbEntity
  8
sanindusa
100
AcDbCircle
 10
17.13906092168615
 20
440.3759298395502
 30
0.0
 40
0.0235000000000246
100
AcDbArc
 50
89.96973402914319
 51
269.9999998123218
  0
ARC
  5
285
330
23
100
AcDbEntity
  8
sanindusa
100
AcDbCircle
 10
17.13906092168611
 20
440.3759298395502
 30
0.0
 40
0.0235000000000172
100
AcDbArc
 50
269.9999998123218
 51
89.96973402893964
  0
ARC
  5
288
330
23
100
AcDbEntity
  8
sanindusa
100
AcDbCircle
 10
18.51403870529588
 20
440.8724833909228
 30
0.0
 40
0.5356425615759752
100
AcDbArc
 50
334.1671552099807
 51
346.806289373007
  0
ARC
  5
289
330
23
100
AcDbEntity
  8
sanindusa
100
AcDbCircle
 10
19.02971731790933
 20
440.7515949078405
 30
0.0
 40
0.006000000000807
100
AcDbArc
 50
346.7765871338059
 51
84.03215615326818
  0
LWPOLYLINE
  5
28A
330
23
100
AcDbEntity
  8
sanindusa
100
AcDbPolyline
 90
        4
 70
   128
 43
0.0
 10
18.59479955123758
 20
440.7762520867664
 10
18.59365152013101
 20
440.7762520867303
 10
18.57344859685062
 20
440.7762520877612
 10
18.55479995823687
 20
440.7762520961524
  0
LWPOLYLINE
  5
28B
330
23
100
AcDbEntity
  8
sanindusa
100
AcDbPolyline
 90
        5
 70
   128
 43
0.0
 10
18.66658339849613
 20
440.7762519294996
 10
18.66143677509448
 20
440.776251891415
 10
18.64644443160201
 20
440.7762521278121
 10
18.63014943674708
 20
440.7762520800918
 10
18.62979955048348
 20
440.7762520802356
  0
ARC
  5
28C
330
23
100
AcDbEntity
  8
sanindusa
100
AcDbCircle
 10
18.68406288326904
 20
437.4560261908948
 30
0.0
 40
3.319640945036763
100
AcDbArc
 50
84.01249615886433
 51
84.67958938127599
  0
ARC
  5
28D
330
23
100
AcDbEntity
  8
sanindusa
100
AcDbCircle
 10
18.55479955104524
 20
440.7742520879413
 30
0.0
 40
0.0020000000133467
100
AcDbArc
 50
89.99987417501769
 51
180.0
  0
ARC
  5
28E
330
23
100
AcDbEntity
  8
sanindusa
100
AcDbCircle
 10
18.99166519019091
 20
440.6412521389766
 30
0.0
 40
0.005000051890952
100
AcDbArc
 50
269.9995666897795
 51
334.1932450641473
  0
ARC
  5
291
330
23
100
AcDbEntity
  8
sanindusa
100
AcDbCircle
 10
18.57747397946836
 20
440.5369645729193
 30
0.0
 40
0.2557350146555631
100
AcDbArc
 50
61.63940046284414
 51
69.04681856006295
  0
LINE
  5
292
330
23
100
AcDbEntity
  8
sanindusa
100
AcDbLine
 10
18.85981654741377
 20
439.9453229489181
 30
0.0
 11
18.86573879716974
 21
440.6362520870859
 31
0.0
  0
ARC
  5
293
330
23
100
AcDbEntity
  8
sanindusa
100
AcDbCircle
 10
18.85781662005905
 20
439.9453400380578
 30
0.0
 40
0.0020000003670703
100
AcDbArc
 50
269.9999865594339
 51
359.508894822192
  0
LINE
  5
295
330
23
100
AcDbEntity
  8
sanindusa
100
AcDbLine
 10
18.66861814575011
 20
440.7758966468822
 30
0.0
 11
18.66658338656988
 21
440.7762520398007
 31
0.0
  0
LINE
  5
298
330
23
100
AcDbEntity
  8
sanindusa
100
AcDbLine
 10
18.55279955103179
 20
440.7508814827466
 30
0.0
 11
18.55279955103213
 21
440.6399472768889
 31
0.0
  0
LINE
  5
29D
330
23
100
AcDbEntity
  8
sanindusa
100
AcDbLine
 10
18.55279955103221
 20
440.7557597319068
 30
0.0
 11
18.55279955103179
 21
440.7508814827466
 31
0.0
  0
LWPOLYLINE
  5
29E
330
23
100
AcDbEntity
  8
sanindusa
100
AcDbPolyline
 90
        9
 70
   128
 43
0.0
 10
18.55279955103221
 20
440.7557597319068
 10
18.55283803409708
 20
440.7561466654816
 10
18.55295200234542
 20
440.7565187086665
 10
18.55313706992972
 20
440.7568615440994
 10
18.55338611488214
 20
440.7571619784223
 10
18.55368955318962
 20
440.7574084500017
 10
18.55403570761608
 20
440.7575914738555
 10
18.55441125707828
 20
440.7577040066652
 10
18.5548017492819
 20
440.7577417178232
  0
LWPOLYLINE
  5
29F
330
23
100
AcDbEntity
  8
sanindusa
100
AcDbPolyline
 90
       33
 70
   128
 43
0.0
 10
19.03034037850653
 20
440.7575623882854
 10
19.03034113813424
 20
440.757562390257
 10
19.02988276807008
 20
440.7575612007825
 10
19.02852434570091
 20
440.7575580548399
 10
19.02627509505021
 20
440.7575533053139
 10
19.02312991825531
 20
440.7575471890321
 10
19.01907880402265
 20
440.7575401145641
 10
19.0141739724835
 20
440.7575326629761
 10
19.00843807187971
 20
440.7575251184601
 10
19.00187800578212
 20
440.7575177233493
 10
18.99449448064728
 20
440.7575107883152
 10
18.98628194455037
 20
440.7575046078102
 10
18.97725948073259
 20
440.7574992132778
 10
18.96755990749046
 20
440.7574946980105
 10
18.9572070828778
 20
440.7574911414577
 10
18.94619930981828
 20
440.7574888808288
 10
18.93453182480613
 20
440.7574881444552
 10
18.92220144358715
 20
440.7574889797784
 10
18.90926539825733
 20
440.757491545171
 10
18.89590398662726
 20
440.7574954913946
 10
18.88213083870645
 20
440.7575010408667
 10
18.86794679151415
 20
440.7575082451979
 10
18.85334987688345
 20
440.7575170029273
 10
18.8383341307872
 20
440.7575273810638
 10
18.82301554606472
 20
440.757539368203
 10
18.80757381495856
 20
440.7575530369483
 10
18.79201174427993
 20
440.757568540391
 10
18.77633427407959
 20
440.7575869046861
 10
18.76055575427575
 20
440.7576045398511
 10
18.74472477941756
 20
440.7576256719272
 10
18.72889677200513
 20
440.7576424181717
 10
18.71306941672107
 20
440.7576563709328
 10
18.55480174910224
 20
440.7577417160937
  0
LWPOLYLINE
  5
2A1
330
23
100
AcDbEntity
  8
sanindusa
100
AcDbPolyline
 90
       21
 70
   128
 43
0.0
 10
18.59479955103189
 20
440.7762520867144
 10
18.59504087668206
 20
440.776249930261
 10
18.59578600019421
 20
440.7762434552791
 10
18.59697236169607
 20
440.7762337176879
 10
18.59863411215135
 20
440.7762212622208
 10
18.60063180514281
 20
440.7762081260539
 10
18.60302291761693
 20
440.7761950559736
 10
18.60560676552409
 20
440.7761842043742
 10
18.6084577049061
 20
440.7761762047202
 10
18.61133630131248
 20
440.7761723905931
 10
18.61432551103711
 20
440.7761730005307
 10
18.61717428438289
 20
440.7761779503146
 10
18.61996473171775
 20
440.7761869648059
 10
18.62246263356655
 20
440.7761985577231
 10
18.62473986568436
 20
440.7762120474496
 10
18.62660532895196
 20
440.7762251867483
 10
18.62811263814387
 20
440.7762371844918
 10
18.62913524974789
 20
440.7762460292856
 10
18.62970259836654
 20
440.776251182282
 10
18.6297995510319
 20
440.7762520802876
 10
18.62979955048348
 20
440.7762520802825
  0
LWPOLYLINE
  5
2A5
330
23
100
AcDbEntity
  8
sanindusa
100
AcDbPolyline
 90
       28
 70
   128
 43
0.0
 10
18.56176233727279
 20
440.7624994093844
 10
18.64060965250388
 20
440.7622356721102
 10
18.719469550063
 20
440.7618807291489
 10
18.73496275680973
 20
440.7617790335375
 10
18.75045865068819
 20
440.7616572869679
 10
18.76594477481346
 20
440.7615229716289
 10
18.78137535373621
 20
440.7614148136069
 10
18.79674307960343
 20
440.7613193018461
 10
18.81204067697017
 20
440.7612334397112
 10
18.82712983381475
 20
440.7611618479601
 10
18.84180029378401
 20
440.7611033762712
 10
18.85796729768158
 20
440.7610511507501
 10
18.87360020374199
 20
440.7610129784822
 10
18.88868185586335
 20
440.7609890181145
 10
18.90295242224005
 20
440.7609792378746
 10
18.91631372843727
 20
440.7609827003805
 10
18.92877604463675
 20
440.7609981552671
 10
18.94033420457607
 20
440.7610243151992
 10
18.95088354995649
 20
440.7610596670076
 10
18.96025935494144
 20
440.7611020116926
 10
18.96847500153844
 20
440.7611494892326
 10
18.97553201495687
 20
440.7611994132283
 10
18.98140023514668
 20
440.7612488878633
 10
18.98596846876266
 20
440.7612935199349
 10
18.98923338632245
 20
440.761330058935
 10
18.99120855588479
 20
440.7613551390215
 10
18.99188701357218
 20
440.7613646152399
 10
18.99187748539983
 20
440.7613644804401
  0
LINE
  5
2A7
330
23
100
AcDbEntity
  8
sanindusa
100
AcDbLine
 10
18.5527995510319
 20
440.7741034389116
 30
0.0
 11
18.55279955103221
 21
440.7557597319068
 31
0.0
  0
LINE
  5
2A9
330
23
100
AcDbEntity
  8
sanindusa
100
AcDbLine
 10
18.55479955103113
 20
440.6362520870859
 30
0.0
 11
18.99166515238018
 21
440.6362520870859
 31
0.0
  0
ARC
  5
2AA
330
23
100
AcDbEntity
  8
sanindusa
100
AcDbCircle
 10
18.5547995510319
 20
440.6382520870859
 30
0.0
 40
0.0020000000000002
100
AcDbArc
 50
180.0
 51
269.999999978016
  0
LINE
  5
2AB
330
23
100
AcDbEntity
  8
sanindusa
100
AcDbLine
 10
18.55279955103213
 20
440.6399472768889
 30
0.0
 11
18.5527995510319
 21
440.638252087085
 31
0.0
  0
LINE
  5
2B4
330
23
100
AcDbEntity
  8
sanindusa
100
AcDbLine
 10
18.6527995510319
 20
439.945340038507
 30
0.0
 11
18.6527995510319
 21
440.6362520870859
 31
0.0
  0
ARC
  5
2B7
330
23
100
AcDbEntity
  8
sanindusa
100
AcDbCircle
 10
18.6547995510319
 20
439.9453400376907
 30
0.0
 40
0.0020000000000195
100
AcDbArc
 50
180.0
 51
270.000000010992
  0
LINE
  5
2B9
330
23
100
AcDbEntity
  8
sanindusa
100
AcDbLine
 10
18.65479955103228
 20
439.9433400376907
 30
0.0
 11
18.76539706420388
 21
439.9433400376902
 31
0.0
  0
LINE
  5
2BA
330
23
100
AcDbEntity
  8
sanindusa
100
AcDbLine
 10
18.76539706420388
 20
439.9433400376902
 30
0.0
 11
18.85781661959078
 21
439.9433400376907
 31
0.0
  0
LINE
  5
2BB
330
23
100
AcDbEntity
  8
sanindusa
100
AcDbLine
 10
18.6527995510319
 20
439.945340038507
 30
0.0
 11
18.65279955103223
 21
439.948334268454
 31
0.0
  0
LWPOLYLINE
  5
2C0
330
23
100
AcDbEntity
  8
sanindusa
100
AcDbPolyline
 90
       23
 70
   128
 43
0.0
 10
19.86002531074028
 20
440.7613592121326
 10
19.85714468489793
 20
440.7613260990562
 10
19.85314565160269
 20
440.7612855015791
 10
19.8480124987909
 20
440.7612398584153
 10
19.84171773111641
 20
440.761192108403
 10
19.83436447453938
 20
440.7611455584472
 10
19.82598941863416
 20
440.7611027742833
 10
19.81659960164489
 20
440.761065759631
 10
19.80619177636849
 20
440.7610358804411
 10
19.79482182548831
 20
440.7610147927421
 10
19.78268401018553
 20
440.7610039859876
 10
19.76979600414381
 20
440.7610044709059
 10
19.75615563118523
 20
440.7610171133045
 10
19.74175049858017
 20
440.7610428581095
 10
19.72675498493431
 20
440.7610817371337
 10
19.71136676402224
 20
440.7611332257797
 10
19.695597416462
 20
440.7611982368638
 10
19.67939449749683
 20
440.7612786179987
 10
19.66282262574871
 20
440.7613762857414
 10
19.64615386471631
 20
440.7614847543045
 10
19.62947771523472
 20
440.7616146477829
 10
19.61277040373769
 20
440.7617605102491
 10
19.57004252871294
 20
440.7620042412961
  0
ARC
  5
2C6
330
23
100
AcDbEntity
  8
sanindusa
100
AcDbCircle
 10
19.44175295688041
 20
440.5209126257346
 30
0.0
 40
0.2731614592507157
100
AcDbArc
 50
58.79654688294776
 51
68.91174882343283
  0
ARC
  5
2CD
330
23
100
AcDbEntity
  8
sanindusa
100
AcDbCircle
 10
19.86275310578619
 20
440.6412521147347
 30
0.0
 40
0.0050000276489588
100
AcDbArc
 50
269.9999528657063
 51
334.1934463050224
  0
LINE
  5
2CE
330
23
100
AcDbEntity
  8
sanindusa
100
AcDbLine
 10
19.57604801684474
 20
440.7587270329976
 30
0.0
 11
19.58070033247286
 21
440.7584741060429
 31
0.0
  0
ARC
  5
2D0
330
23
100
AcDbEntity
  8
sanindusa
100
AcDbCircle
 10
19.86241813305213
 20
440.7553904636832
 30
0.0
 40
0.0060000360578889
100
AcDbArc
 50
84.67410214059968
 51
156.5212973599487
  0
ARC
  5
2D5
330
23
100
AcDbEntity
  8
sanindusa
100
AcDbCircle
 10
19.85862049429329
 20
440.641252107857
 30
0.0
 40
0.0050000207711872
100
AcDbArc
 50
194.0001856007775
 51
270.0000977402265
  0
LINE
  5
2D6
330
23
100
AcDbEntity
  8
sanindusa
100
AcDbLine
 10
19.43388405545496
 20
440.6362520870861
 30
0.0
 11
19.52388858305186
 21
440.6362520870859
 31
0.0
  0
LINE
  5
2D7
330
23
100
AcDbEntity
  8
sanindusa
100
AcDbLine
 10
19.7368278291897
 20
440.6362520870859
 30
0.0
 11
19.85862050180539
 21
440.6362520870859
 31
0.0
  0
ARC
  5
2DB
330
23
100
AcDbEntity
  8
sanindusa
100
AcDbCircle
 10
19.84756632535907
 20
440.6442520661724
 30
0.0
 40
0.005000020913457
100
AcDbArc
 50
14.00018738326188
 51
90.00010626879481
  0
LWPOLYLINE
  5
2DC
330
23
100
AcDbEntity
  8
sanindusa
100
AcDbPolyline
 90
       26
 70
   128
 43
0.0
 10
19.63242230278104
 20
440.6658210223064
 10
19.6334784543329
 20
440.665819204497
 10
19.63430801685398
 20
440.6658177581408
 10
19.63578859855365
 20
440.6658152002479
 10
19.63843003061411
 20
440.665810709491
 10
19.64313914545839
 20
440.6658029200155
 10
19.6515242456541
 20
440.6657896037211
 10
19.66642354507355
 20
440.6657665531273
 10
19.67757714311314
 20
440.6657499090425
 10
19.6884350046136
 20
440.6657348900366
 10
19.6989967091545
 20
440.665720482612
 10
19.7112782293701
 20
440.6657043017201
 10
19.72312921776825
 20
440.6656901797585
 10
19.73438040171332
 20
440.6656770039253
 10
19.74490123449908
 20
440.6656652767519
 10
19.75470502887709
 20
440.6656543564242
 10
19.76378798215448
 20
440.6656446875828
 10
19.77207314764523
 20
440.6656367221028
 10
19.77942891173411
 20
440.6656293524632
 10
19.78586795210471
 20
440.6656234886902
 10
19.79139690175158
 20
440.6656186741635
 10
19.79591674360844
 20
440.6656143927155
 10
19.79945317711804
 20
440.6656115207887
 10
19.80200665546259
 20
440.6656095392813
 10
19.80357256360728
 20
440.6656082835426
 10
19.80413142554045
 20
440.6656077982789
  0
LWPOLYLINE
  5
2DD
330
23
100
AcDbEntity
  8
sanindusa
100
AcDbPolyline
 90
        3
 70
   128
 43
0.0
 10
19.59122249312386
 20
440.6663174672019
 10
19.61180642805559
 20
440.6657926176429
 10
19.63242230278104
 20
440.6658210223064
  0
ARC
  5
2DE
330
23
100
AcDbEntity
  8
sanindusa
100
AcDbCircle
 10
14.87996854303415
 20
440.9344778585053
 30
0.0
 40
4.718879504469242
100
AcDbArc
 50
356.7422901672502
 51
357.737547975785
  0
ARC
  5
2DF
330
23
100
AcDbEntity
  8
sanindusa
100
AcDbCircle
 10
19.58019505966333
 20
440.7423682646767
 30
0.0
 40
0.0160666740950794
100
AcDbArc
 50
21.24742305611952
 51
83.16848518047557
  0
LWPOLYLINE
  5
2E0
330
23
100
AcDbEntity
  8
sanindusa
100
AcDbPolyline
 90
        3
 70
   128
 43
0.0
 10
19.58070033225219
 20
440.7584741060566
 10
19.58140333597187
 20
440.7583974845262
 10
19.58210619237515
 20
440.7583208690457
  0
ARC
  5
2E1
330
23
100
AcDbEntity
  8
sanindusa
100
AcDbCircle
 10
19.41434718988571
 20
440.9500197073453
 30
0.0
 40
0.4825161989708084
100
AcDbArc
 50
323.8830797394721
 51
336.5212469942964
  0
LWPOLYLINE
  5
2E2
330
23
100
AcDbEntity
  8
sanindusa
100
AcDbPolyline
 90
       25
 70
   128
 43
0.0
 10
19.59087118374886
 20
440.6620553459588
 10
19.6035368567797
 20
440.6616475113181
 10
19.61621330390625
 20
440.6613924557272
 10
19.62889540688966
 20
440.6612898809618
 10
19.64156349676056
 20
440.6612990253165
 10
19.65416730710975
 20
440.6613152652981
 10
19.66670365277486
 20
440.6613330320822
 10
19.67903849582506
 20
440.6613518039893
 10
19.69099157009938
 20
440.6613716373953
 10
19.70256689585086
 20
440.6613920012969
 10
19.7137649537568
 20
440.6614129892708
 10
19.72454294651763
 20
440.6614347327874
 10
19.73469419153786
 20
440.6614561546418
 10
19.74420188777464
 20
440.661477127979
 10
19.75306983425399
 20
440.6614972580281
 10
19.76129142595708
 20
440.6615166317886
 10
19.76874048346234
 20
440.6615350802629
 10
19.77535689470224
 20
440.661551617452
 10
19.78115584974986
 20
440.6615667492939
 10
19.78613348086132
 20
440.6615800953537
 10
19.79025165832111
 20
440.661591012837
 10
19.79345211352486
 20
440.6615999996528
 10
19.79567467184514
 20
440.6616063680128
 10
19.79703954466333
 20
440.6616102622257
 10
19.79752902258615
 20
440.6616116542456
  0
ARC
  5
2E4
330
23
100
AcDbEntity
  8
sanindusa
100
AcDbCircle
 10
19.79605322585795
 20
440.6715022513566
 30
0.0
 40
0.0100000943592969
100
AcDbArc
 50
278.4866103349107
 51
323.8827390587094
  0
LWPOLYLINE
  5
2E5
330
23
100
AcDbEntity
  8
sanindusa
100
AcDbPolyline
 90
        4
 70
   128
 43
0.0
 10
19.59504999203937
 20
440.6496749079853
 10
19.59795687029895
 20
440.6471485940201
 10
19.60098349279113
 20
440.6445183380912
 10
19.60690026198582
 20
440.6393769862249
  0
LWPOLYLINE
  5
2E6
330
23
100
AcDbEntity
  8
sanindusa
100
AcDbPolyline
 90
       20
 70
   128
 43
0.0
 10
19.66571269484935
 20
440.6497244571405
 10
19.66523104299
 20
440.6497234041498
 10
19.66371893558558
 20
440.6497201351252
 10
19.66131376222203
 20
440.6497151445668
 10
19.65794528031368
 20
440.6497085757516
 10
19.65390379826483
 20
440.6497013228899
 10
19.64906812968887
 20
440.6496935674709
 10
19.64384558206929
 20
440.6496863236072
 10
19.6380843750264
 20
440.6496796787422
 10
19.63227068354946
 20
440.6496744080227
 10
19.62623504693195
 20
440.6496704650137
 10
19.62048913741331
 20
440.6496681527603
 10
19.61486254750129
 20
440.6496672698863
 10
19.60982124650096
 20
440.6496676268513
 10
19.60522719766096
 20
440.6496688905276
 10
19.60147064657405
 20
440.6496706007078
 10
19.59843670402375
 20
440.6496724152787
 10
19.59637423135596
 20
440.6496738759006
 10
19.59523342258781
 20
440.649674768535
 10
19.59504999203937
 20
440.6496749079853
  0
LWPOLYLINE
  5
2E7
330
23
100
AcDbEntity
  8
sanindusa
100
AcDbPolyline
 90
        4
 70
   128
 43
0.0
 10
19.6538769041179
 20
440.6394269989863
 10
19.65678367207003
 20
440.6419556872186
 10
19.65980884466347
 20
440.6445876106113
 10
19.66571269484935
 20
440.6497244571405
  0
LWPOLYLINE
  5
2E8
330
23
100
AcDbEntity
  8
sanindusa
100
AcDbPolyline
 90
       20
 70
   128
 43
0.0
 10
19.60690026198582
 20
440.6393769862249
 10
19.607221746188
 20
440.6393764898162
 10
19.60824675139683
 20
440.6393753237726
 10
19.60985515457531
 20
440.6393736699425
 10
19.61210101381918
 20
440.6393717003419
 10
19.61479579343742
 20
440.6393702023499
 10
19.61801706969207
 20
440.6393692155989
 10
19.6214944065208
 20
440.6393691481266
 10
19.62532791734507
 20
440.6393705455821
 10
19.62919576182992
 20
440.6393734935195
 10
19.63320930051797
 20
440.6393781928628
 10
19.63703158467742
 20
440.6393840733553
 10
19.64077265988765
 20
440.6393910945133
 10
19.64411846898364
 20
440.6393986004322
 10
19.64716532161594
 20
440.639406510783
 10
19.6496574324022
 20
440.6394135323041
 10
19.65166654243702
 20
440.6394196572789
 10
19.65302397567029
 20
440.6394240478893
 10
19.65376882181499
 20
440.6394264829654
 10
19.6538769041179
 20
440.6394269989863
  0
ARC
  5
2E9
330
23
100
AcDbEntity
  8
sanindusa
100
AcDbCircle
 10
19.78804765237491
 20
440.5492498616823
 30
0.0
 40
0.1000022254035956
100
AcDbArc
 50
90.00000287338943
 51
97.29477305013181
  0
ARC
  5
2EB
330
23
100
AcDbEntity
  8
sanindusa
100
AcDbCircle
 10
19.42588858306275
 20
440.7742519536957
 30
0.0
 40
0.0020000000108871
100
AcDbArc
 50
89.99986273153462
 51
180.0
  0
LINE
  5
2EC
330
23
100
AcDbEntity
  8
sanindusa
100
AcDbLine
 10
19.53767293161685
 20
440.7762518838031
 30
0.0
 11
19.50087289677879
 21
440.7762519346456
 31
0.0
  0
ARC
  5
2ED
330
23
100
AcDbEntity
  8
sanindusa
100
AcDbCircle
 10
19.48338918653502
 20
442.693708528075
 30
0.0
 40
1.917536301562433
100
AcDbArc
 50
269.4775453045917
 51
270.5224186299803
  0
LINE
  5
2EE
330
23
100
AcDbEntity
  8
sanindusa
100
AcDbLine
 10
19.46590426932493
 20
440.7762519456514
 30
0.0
 11
19.42588858786155
 21
440.7762519536837
 31
0.0
  0
LINE
  5
2EF
330
23
100
AcDbEntity
  8
sanindusa
100
AcDbLine
 10
19.90142916002382
 20
440.757562387305
 30
0.0
 11
19.86297506490476
 21
440.7613645961856
 31
0.0
  0
ARC
  5
2F3
330
23
100
AcDbEntity
  8
sanindusa
100
AcDbCircle
 10
19.45871704546334
 20
440.7612519207333
 30
0.0
 40
0.0050000243321704
100
AcDbArc
 50
90.00026065139236
 51
177.9997241032688
  0
LINE
  5
2F6
330
23
100
AcDbEntity
  8
sanindusa
100
AcDbLine
 10
19.46590426932493
 20
440.7662519447648
 30
0.0
 11
19.45871702282431
 21
440.7662519458985
 31
0.0
  0
ARC
  5
2F7
330
23
100
AcDbEntity
  8
sanindusa
100
AcDbCircle
 10
19.48338942844383
 20
442.6654177395021
 30
0.0
 40
1.899246283842512
100
AcDbArc
 50
269.4725065503423
 51
270.5274424405346
  0
LINE
  5
2F8
330
23
100
AcDbEntity
  8
sanindusa
100
AcDbLine
 10
19.50965274747043
 20
440.7662519423556
 30
0.0
 11
19.50087289677879
 21
440.766251929199
 31
0.0
  0
LINE
  5
2FE
330
23
100
AcDbEntity
  8
sanindusa
100
AcDbLine
 10
19.7230188740208
 20
440.536558926671
 30
0.0
 11
19.70043681636154
 21
440.6271304258793
 31
0.0
  0
LINE
  5
2FF
330
23
100
AcDbEntity
  8
sanindusa
100
AcDbLine
 10
19.60690026198582
 20
440.6130784127742
 30
0.0
 11
19.60690026198582
 21
440.6002520870859
 31
0.0
  0
LINE
  5
303
330
23
100
AcDbEntity
  8
sanindusa
100
AcDbLine
 10
19.60690026198582
 20
440.6393769862249
 30
0.0
 11
19.60690026198582
 21
440.6230845082175
 31
0.0
  0
LINE
  5
304
330
23
100
AcDbEntity
  8
sanindusa
100
AcDbLine
 10
19.6538769041179
 20
440.6002520870859
 30
0.0
 11
19.6538769041179
 21
440.6394269989863
 31
0.0
  0
LINE
  5
305
330
23
100
AcDbEntity
  8
sanindusa
100
AcDbLine
 10
19.60690026198582
 20
440.6002520870859
 30
0.0
 11
19.6538769041179
 21
440.6002520870859
 31
0.0
  0
ARC
  5
308
330
23
100
AcDbEntity
  8
sanindusa
100
AcDbCircle
 10
19.4453303084803
 20
440.7217512973882
 30
0.0
 40
0.0070000059389602
100
AcDbArc
 50
270.0000423299768
 51
358.0000826380058
  0
LINE
  5
309
330
23
100
AcDbEntity
  8
sanindusa
100
AcDbLine
 10
19.45232605063743
 20
440.7215070130972
 30
0.0
 11
19.45037716823318
 21
440.6656983229459
 31
0.0
  0
LWPOLYLINE
  5
30A
330
23
100
AcDbEntity
  8
sanindusa
100
AcDbPolyline
 90
        8
 70
   128
 43
0.0
 10
19.55931495043467
 20
440.6593755084434
 10
19.55979878498956
 20
440.6596177704637
 10
19.5611944678881
 20
440.6603167888137
 10
19.56350326297521
 20
440.6614737287587
 10
19.56673037576421
 20
440.6630920871138
 10
19.57085260248749
 20
440.6651614586388
 10
19.57583963255843
 20
440.667668170349
 10
19.58167831902286
 20
440.6706074555988
  0
ARC
  5
30B
330
23
100
AcDbEntity
  8
sanindusa
100
AcDbCircle
 10
19.59175048239997
 20
440.6722173934514
 30
0.0
 40
0.0102000184050518
100
AcDbArc
 50
189.0813559907813
 51
265.0546446191774
  0
LWPOLYLINE
  5
30C
330
23
100
AcDbEntity
  8
sanindusa
100
AcDbPolyline
 90
        8
 70
   128
 43
0.0
 10
19.56868246973348
 20
440.650781573588
 10
19.56916270610518
 20
440.6510248212644
 10
19.57054762480463
 20
440.6517264906423
 10
19.57283847464642
 20
440.6528877543813
 10
19.57604041055428
 20
440.6545121266521
 10
19.58013039345843
 20
440.6565891682775
 10
19.58507833841524
 20
440.659105166047
 10
19.59087118374886
 20
440.6620553459588
  0
ARC
  5
30D
330
23
100
AcDbEntity
  8
sanindusa
100
AcDbCircle
 10
19.56921762755621
 20
440.6607672401927
 30
0.0
 40
0.0099999965717655
100
AcDbArc
 50
188.0000070399871
 51
266.932305014418
  0
LINE
  5
30E
330
23
100
AcDbEntity
  8
sanindusa
100
AcDbLine
 10
19.46590426932493
 20
440.7762519456514
 30
0.0
 11
19.46590426932493
 21
440.7662519447648
 31
0.0
  0
LINE
  5
30F
330
23
100
AcDbEntity
  8
sanindusa
100
AcDbLine
 10
19.50087289677879
 20
440.766251929199
 30
0.0
 11
19.50087289677879
 21
440.7762519346456
 31
0.0
  0
LINE
  5
310
330
23
100
AcDbEntity
  8
sanindusa
100
AcDbLine
 10
19.5458144760888
 20
440.7554363753505
 30
0.0
 11
19.53591178882962
 21
440.7540446434174
 31
0.0
  0
ARC
  5
311
330
23
100
AcDbEntity
  8
sanindusa
100
AcDbCircle
 10
18.91783182726136
 20
440.6535670376364
 30
0.0
 40
0.6361914563986683
100
AcDbArc
 50
6.785923004936673
 51
9.214076992886303
  0
LINE
  5
312
330
23
100
AcDbEntity
  8
sanindusa
100
AcDbLine
 10
19.53966380091944
 20
440.7273476901952
 30
0.0
 11
19.54956648817874
 21
440.7287394221287
 31
0.0
  0
ARC
  5
313
330
23
100
AcDbEntity
  8
sanindusa
100
AcDbCircle
 10
18.89803303218599
 20
440.6507844984541
 30
0.0
 40
0.6461826101924001
100
AcDbArc
 50
6.8046975801396
 51
9.195302419547736
  0
LWPOLYLINE
  5
315
330
23
100
AcDbEntity
  8
sanindusa
100
AcDbPolyline
 90
        5
 70
   128
 43
0.0
 10
19.58167831902286
 20
440.6706074555988
 10
19.58275431291088
 20
440.6898548134965
 10
19.58382812528467
 20
440.7095487039572
 10
19.58485358137311
 20
440.7296674781234
 10
19.58578590430744
 20
440.7501820828342
  0
LINE
  5
316
330
23
100
AcDbEntity
  8
sanindusa
100
AcDbLine
 10
19.54956648817874
 20
440.7287394221287
 30
0.0
 11
19.55931495047073
 21
440.6593755086931
 31
0.0
  0
LINE
  5
317
330
23
100
AcDbEntity
  8
sanindusa
100
AcDbLine
 10
19.5436149495025
 20
440.7710868202292
 30
0.0
 11
19.54581447608914
 21
440.7554363753503
 31
0.0
  0
LWPOLYLINE
  5
31A
330
23
100
AcDbEntity
  8
sanindusa
100
AcDbPolyline
 90
        4
 70
   128
 43
0.0
 10
19.53419619380931
 20
440.7662517362809
 10
19.53188832888178
 20
440.7662517400932
 10
19.52927015744332
 20
440.7662517981646
 10
19.52409746051572
 20
440.7662519407436
  0
LINE
  5
31B
330
23
100
AcDbEntity
  8
sanindusa
100
AcDbLine
 10
19.52409746051572
 20
440.7662519407436
 30
0.0
 11
19.54415458347031
 21
440.6235380953552
 31
0.0
  0
ARC
  5
31C
330
23
100
AcDbEntity
  8
sanindusa
100
AcDbCircle
 10
19.55405726415786
 20
440.6249298263638
 30
0.0
 40
0.0099999999999998
100
AcDbArc
 50
187.9999999951625
 51
268.0000000001116
  0
LINE
  5
31D
330
23
100
AcDbEntity
  8
sanindusa
100
AcDbLine
 10
19.55370826919086
 20
440.6149359180938
 30
0.0
 11
19.60690026198582
 21
440.6130784127742
 31
0.0
  0
LINE
  5
31E
330
23
100
AcDbEntity
  8
sanindusa
100
AcDbLine
 10
19.59539641942897
 20
440.6002520870859
 30
0.0
 11
19.60690026198582
 21
440.6002520870859
 31
0.0
  0
ARC
  5
31F
330
23
100
AcDbEntity
  8
sanindusa
100
AcDbCircle
 10
19.5906639899558
 20
440.5986352457575
 30
0.0
 40
0.0050010063586829
100
AcDbArc
 50
18.86280615245927
 51
88.00288866782507
  0
LINE
  5
320
330
23
100
AcDbEntity
  8
sanindusa
100
AcDbLine
 10
19.55335927422386
 20
440.6049420098239
 30
0.0
 11
19.59083825273777
 21
440.6036332150539
 31
0.0
  0
ARC
  5
321
330
23
100
AcDbEntity
  8
sanindusa
100
AcDbCircle
 10
19.55405726415786
 20
440.6249298263638
 30
0.0
 40
0.0199999999999998
100
AcDbArc
 50
188.0000000017261
 51
268.0000000001116
  0
LINE
  5
322
330
23
100
AcDbEntity
  8
sanindusa
100
AcDbLine
 10
19.51460409108663
 20
440.7619478087987
 30
0.0
 11
19.53425190278309
 21
440.6221463643443
 31
0.0
  0
ARC
  5
323
330
23
100
AcDbEntity
  8
sanindusa
100
AcDbCircle
 10
19.50965274807805
 20
440.7612519448537
 30
0.0
 40
0.0050000024215928
100
AcDbArc
 50
8.00001915627628
 51
90.000207435471
  0
ARC
  5
324
330
23
100
AcDbEntity
  8
sanindusa
100
AcDbCircle
 10
19.53767332124871
 20
440.7702518775808
 30
0.0
 40
0.0060000062422629
100
AcDbArc
 50
8.000012604805844
 51
90.00428541851874
  0
LINE
  5
325
330
23
100
AcDbEntity
  8
sanindusa
100
AcDbLine
 10
19.53419619380931
 20
440.7662517362809
 30
0.0
 11
19.53591178882962
 21
440.7540446434174
 31
0.0
  0
LINE
  5
326
330
23
100
AcDbEntity
  8
sanindusa
100
AcDbLine
 10
19.44533031345709
 20
440.7147512917665
 30
0.0
 11
19.42588858305186
 21
440.7147512917661
 31
0.0
  0
ARC
  5
327
330
23
100
AcDbEntity
  8
sanindusa
100
AcDbCircle
 10
19.42588858561016
 20
440.7167512943243
 30
0.0
 40
0.0020000025583738
100
AcDbArc
 50
180.0
 51
269.9999267102495
  0
LINE
  5
328
330
23
100
AcDbEntity
  8
sanindusa
100
AcDbLine
 10
19.42388858305186
 20
440.7742519537647
 30
0.0
 11
19.42388858305178
 21
440.7167512964922
 31
0.0
  0
LINE
  5
329
330
23
100
AcDbEntity
  8
sanindusa
100
AcDbLine
 10
19.45372006784103
 20
440.7614264428237
 30
0.0
 11
19.45232605063743
 21
440.7215070130972
 31
0.0
  0
LINE
  5
32A
330
23
100
AcDbEntity
  8
sanindusa
100
AcDbLine
 10
19.72390890376552
 20
440.529044122072
 30
0.0
 11
19.71923107285778
 21
439.9832971821227
 31
0.0
  0
LWPOLYLINE
  5
32F
330
23
100
AcDbEntity
  8
sanindusa
100
AcDbPolyline
 90
        3
 70
   128
 43
0.0
 10
19.72301887439414
 20
440.5365589266037
 10
19.72370178487205
 20
440.5328297000354
 10
19.72390890417738
 20
440.5290441222614
  0
ARC
  5
332
330
23
100
AcDbEntity
  8
sanindusa
100
AcDbCircle
 10
19.70528829441081
 20
440.6283400376912
 30
0.0
 40
0.0049999999998529
100
AcDbArc
 50
89.99999999938934
 51
194.0000277805526
  0
LINE
  5
333
330
23
100
AcDbEntity
  8
sanindusa
100
AcDbLine
 10
19.70756807497586
 20
440.6333400376907
 30
0.0
 11
19.70528829751286
 21
440.6333400376907
 31
0.0
  0
ARC
  5
334
330
23
100
AcDbEntity
  8
sanindusa
100
AcDbCircle
 10
19.70756807497586
 20
440.6533400376911
 30
0.0
 40
0.0200000000004034
100
AcDbArc
 50
270.0
 51
323.1301023317242
  0
ARC
  5
335
330
23
100
AcDbEntity
  8
sanindusa
100
AcDbCircle
 10
19.72756807497586
 20
440.6383400376908
 30
0.0
 40
0.005
100
AcDbArc
 50
99.75018112246146
 51
143.130092521204
  0
ARC
  5
336
330
23
100
AcDbEntity
  8
sanindusa
100
AcDbCircle
 10
19.62958058773591
 20
441.7872010719554
 30
0.0
 40
1.148050354273659
100
AcDbArc
 50
272.3981816464749
 51
274.8538082727953
  0
LWPOLYLINE
  5
337
330
23
100
AcDbEntity
  8
sanindusa
100
AcDbPolyline
 90
        3
 70
   128
 43
0.0
 10
19.66538074255226
 20
440.6002520870859
 10
19.66600879446373
 20
440.6074291735048
 10
19.66807459277753
 20
440.6310365313695
  0
LINE
  5
338
330
23
100
AcDbEntity
  8
sanindusa
100
AcDbLine
 10
19.6538769041179
 20
440.6002520870859
 30
0.0
 11
19.66538074255226
 21
440.6002520870859
 31
0.0
  0
ARC
  5
339
330
23
100
AcDbEntity
  8
sanindusa
100
AcDbCircle
 10
19.62958375534598
 20
441.7871505769296
 30
0.0
 40
1.137999770759147
100
AcDbArc
 50
271.8193181591845
 51
278.4866723290594
  0
LINE
  5
33A
330
23
100
AcDbEntity
  8
sanindusa
100
AcDbLine
 10
19.85862050180539
 20
440.6362520870859
 30
0.0
 11
19.86275310047981
 21
440.6362520870859
 31
0.0
  0
LINE
  5
33B
330
23
100
AcDbEntity
  8
sanindusa
100
AcDbLine
 10
19.85376899900226
 20
440.6400424776079
 30
0.0
 11
19.85241782891248
 21
440.6454616965638
 31
0.0
  0
LWPOLYLINE
  5
33C
330
23
100
AcDbEntity
  8
sanindusa
100
AcDbPolyline
 90
        3
 70
   128
 43
0.0
 10
19.7753499571642
 20
440.6484426722739
 10
19.75149095019273
 20
440.6456418891563
 10
19.72672131187904
 20
440.6432678153093
  0
LINE
  5
33D
330
23
100
AcDbEntity
  8
sanindusa
100
AcDbLine
 10
19.72756807497586
 20
440.6433400376908
 30
0.0
 11
19.73487136680421
 21
440.6433400376908
 31
0.0
  0
ARC
  5
33E
330
23
100
AcDbEntity
  8
sanindusa
100
AcDbCircle
 10
19.7348713667289
 20
440.6413400376908
 30
0.0
 40
0.0020000000000916
100
AcDbArc
 50
359.5089053455835
 51
89.99999999246844
  0
LINE
  5
33F
330
23
100
AcDbEntity
  8
sanindusa
100
AcDbLine
 10
19.73687129372544
 20
440.6413229495895
 30
0.0
 11
19.73090557943374
 21
439.9453229489181
 31
0.0
  0
ARC
  5
340
330
23
100
AcDbEntity
  8
sanindusa
100
AcDbCircle
 10
19.72890565244255
 20
439.9453400376911
 30
0.0
 40
0.0020000000003754
100
AcDbArc
 50
270.0000000323653
 51
359.5089053325564
  0
LINE
  5
341
330
23
100
AcDbEntity
  8
sanindusa
100
AcDbLine
 10
19.63283750010767
 20
439.9433400376906
 30
0.0
 11
19.72890565237377
 21
439.9433400376907
 31
0.0
  0
ARC
  5
342
330
23
100
AcDbEntity
  8
sanindusa
100
AcDbCircle
 10
19.6328375001065
 20
439.9453400376907
 30
0.0
 40
0.0020000000001093
100
AcDbArc
 50
180.0
 51
270.0000000333831
  0
LINE
  5
343
330
23
100
AcDbEntity
  8
sanindusa
100
AcDbLine
 10
19.63083750010639
 20
439.9453400376832
 30
0.0
 11
19.63083750010786
 21
439.9513400376926
 31
0.0
  0
ARC
  5
344
330
23
100
AcDbEntity
  8
sanindusa
100
AcDbCircle
 10
19.63283750010786
 20
439.9513400376908
 30
0.0
 40
0.0020000000000002
100
AcDbArc
 50
90.00000000040712
 51
180.0
  0
LINE
  5
345
330
23
100
AcDbEntity
  8
sanindusa
100
AcDbLine
 10
19.63283750010784
 20
439.9533400376908
 30
0.0
 11
19.69401697070257
 21
439.9533400376908
 31
0.0
  0
ARC
  5
346
330
23
100
AcDbEntity
  8
sanindusa
100
AcDbCircle
 10
19.69401697081146
 20
439.958340037691
 30
0.0
 40
0.0050000000002179
100
AcDbArc
 50
269.9999999993893
 51
359.5089053358131
  0
LINE
  5
347
330
23
100
AcDbEntity
  8
sanindusa
100
AcDbLine
 10
19.69910360343278
 20
439.9684257488211
 30
0.0
 11
19.69901678714629
 21
439.9582971821236
 31
0.0
  0
ARC
  5
348
330
23
100
AcDbEntity
  8
sanindusa
100
AcDbCircle
 10
19.70910323614539
 20
439.9683400376892
 30
0.0
 40
0.0100000000016547
100
AcDbArc
 50
89.99999999531821
 51
179.5089053358131
  0
LINE
  5
349
330
23
100
AcDbEntity
  8
sanindusa
100
AcDbLine
 10
19.70910322942667
 20
439.9783400376907
 30
0.0
 11
19.71423125652086
 21
439.9783400376906
 31
0.0
  0
ARC
  5
34A
330
23
100
AcDbEntity
  8
sanindusa
100
AcDbCircle
 10
19.71423125652086
 20
439.983340037691
 30
0.0
 40
0.0050000000002624
100
AcDbArc
 50
270.0
 51
359.5089053488402
  0
LINE
  5
34B
330
23
100
AcDbEntity
  8
sanindusa
100
AcDbLine
 10
19.84756632855886
 20
440.6492520870858
 30
0.0
 11
19.78804763441999
 21
440.6492520870858
 31
0.0
  0
ARC
  5
34C
330
23
100
AcDbEntity
  8
sanindusa
100
AcDbCircle
 10
19.67803776409751
 20
440.6301636440906
 30
0.0
 40
0.0100013297622529
100
AcDbArc
 50
92.39661380324905
 51
174.9930038352671
  0
ARC
  5
34D
330
23
100
AcDbEntity
  8
sanindusa
100
AcDbCircle
 10
19.90080535903381
 20
440.7515949025619
 30
0.0
 40
0.0060000002225588
100
AcDbArc
 50
346.7766016704269
 51
84.03235472204659
  0
ARC
  5
34E
330
23
100
AcDbEntity
  8
sanindusa
100
AcDbCircle
 10
19.38287739548816
 20
440.873298318738
 30
0.0
 40
0.5380348641514081
100
AcDbArc
 50
334.193685842474
 51
346.7764624067378
  0
ARC
  5
34F
330
23
100
AcDbEntity
  8
sanindusa
100
AcDbCircle
 10
19.62958375534598
 20
441.7871505769296
 30
0.0
 40
1.137999770759147
100
AcDbArc
 50
266.9322890231427
 51
268.2610341875984
  0
LINE
  5
350
330
23
100
AcDbEntity
  8
sanindusa
100
AcDbLine
 10
19.59335703696728
 20
440.6235574480565
 30
0.0
 11
19.60690026198582
 21
440.6230845082175
 31
0.0
  0
ARC
  5
351
330
23
100
AcDbEntity
  8
sanindusa
100
AcDbCircle
 10
19.62958414284297
 20
441.7871589827058
 30
0.0
 40
1.148008177675055
100
AcDbArc
 50
266.9322894373948
 51
267.6818671122587
  0
LWPOLYLINE
  5
352
330
23
100
AcDbEntity
  8
sanindusa
100
AcDbPolyline
 90
        3
 70
   128
 43
0.0
 10
19.59270839430965
 20
440.6309700100687
 10
19.59329587106399
 20
440.6242564379153
 10
19.59335703696728
 20
440.6235574480565
  0
ARC
  5
353
330
23
100
AcDbEntity
  8
sanindusa
100
AcDbCircle
 10
19.56921761815363
 20
440.6607672355096
 30
0.0
 40
0.0199999933018484
100
AcDbArc
 50
188.0000067670269
 51
266.9323041787996
  0
ARC
  5
354
330
23
100
AcDbEntity
  8
sanindusa
100
AcDbCircle
 10
19.58274583695901
 20
440.6300977597981
 30
0.0
 40
0.0100006642737606
100
AcDbArc
 50
5.00366692781932
 51
87.68672959651505
  0
LINE
  5
355
330
23
100
AcDbEntity
  8
sanindusa
100
AcDbLine
 10
19.53966380091944
 20
440.7273476901952
 30
0.0
 11
19.54941226314664
 21
440.6579837772233
 31
0.0
  0
LINE
  5
360
330
23
100
AcDbEntity
  8
sanindusa
100
AcDbLine
 10
19.70528829441086
 20
440.6333400376907
 30
0.0
 11
19.68143333448186
 21
440.6333400376907
 31
0.0
  0
LINE
  5
368
330
23
100
AcDbEntity
  8
sanindusa
100
AcDbLine
 10
19.42388858305178
 20
440.7167512964922
 30
0.0
 11
19.42388858305178
 21
440.6518135118936
 31
0.0
  0
LINE
  5
371
330
23
100
AcDbEntity
  8
sanindusa
100
AcDbLine
 10
19.56801953767663
 20
439.9433400376907
 30
0.0
 11
19.63283750010767
 21
439.9433400376906
 31
0.0
  0
LWPOLYLINE
  5
372
330
23
100
AcDbEntity
  8
sanindusa
100
AcDbPolyline
 90
        7
 70
   128
 43
0.0
 10
19.58578590453661
 20
440.7501820834828
 10
19.58565511251959
 20
440.751181758142
 10
19.58535753471769
 20
440.752126821811
 10
19.58490228234746
 20
440.7529883385959
 10
19.58430329429448
 20
440.7537399306352
 10
19.58357891033353
 20
440.7543585857361
 10
19.58327373646395
 20
440.7545556456551
  0
LINE
  5
390
330
23
100
AcDbEntity
  8
sanindusa
100
AcDbLine
 10
19.56801953767663
 20
439.9433400376907
 30
0.0
 11
19.52680142767134
 21
439.9433400376905
 31
0.0
  0
LINE
  5
392
330
23
100
AcDbEntity
  8
sanindusa
100
AcDbLine
 10
19.5338885830519
 20
439.9583400376904
 30
0.0
 11
19.53388858305147
 21
440.6247315185616
 31
0.0
  0
ARC
  5
393
330
23
100
AcDbEntity
  8
sanindusa
100
AcDbCircle
 10
19.5288885830519
 20
439.9583400376908
 30
0.0
 40
0.0049999999999832
100
AcDbArc
 50
269.9999999995929
 51
0.0
  0
LINE
  5
396
330
23
100
AcDbEntity
  8
sanindusa
100
AcDbLine
 10
19.52688858305251
 20
439.953340037691
 30
0.0
 11
19.52888858305193
 21
439.953340037691
 31
0.0
  0
LINE
  5
398
330
23
100
AcDbEntity
  8
sanindusa
100
AcDbLine
 10
19.5238885830518
 20
439.9453400376914
 30
0.0
 11
19.52388858305219
 21
439.948334268454
 31
0.0
  0
LINE
  5
39A
330
23
100
AcDbEntity
  8
sanindusa
100
AcDbLine
 10
19.52388858305186
 20
439.9503400376907
 30
0.0
 11
19.52388858305219
 21
439.948334268454
 31
0.0
  0
ARC
  5
39B
330
23
100
AcDbEntity
  8
sanindusa
100
AcDbCircle
 10
19.52688858305221
 20
439.9503400376906
 30
0.0
 40
0.0030000000003523
100
AcDbArc
 50
90.00000000610665
 51
179.9999999967431
  0
ARC
  5
39C
330
23
100
AcDbEntity
  8
sanindusa
100
AcDbCircle
 10
19.52588858305189
 20
439.9453400376908
 30
0.0
 40
0.002000000000085
100
AcDbArc
 50
179.9999999837155
 51
269.9999999991858
  0
LINE
  5
39D
330
23
100
AcDbEntity
  8
sanindusa
100
AcDbLine
 10
19.52588858305186
 20
439.9433400376907
 30
0.0
 11
19.52680142767134
 21
439.9433400376905
 31
0.0
  0
LINE
  5
3A6
330
23
100
AcDbEntity
  8
sanindusa
100
AcDbLine
 10
19.52388858305186
 20
439.9503400376907
 30
0.0
 11
19.5238885830516
 21
439.9582714792236
 31
0.0
  0
LINE
  5
3AA
330
23
100
AcDbEntity
  8
sanindusa
100
AcDbLine
 10
19.5238885830516
 20
439.9582714792236
 30
0.0
 11
19.52388858305168
 21
440.6383571773083
 31
0.0
  0
LINE
  5
3AC
330
23
100
AcDbEntity
  8
sanindusa
100
AcDbLine
 10
19.52906310070786
 20
440.6433400376908
 30
0.0
 11
19.53127332624046
 21
440.6433400376908
 31
0.0
  0
LINE
  5
3AE
330
23
100
AcDbEntity
  8
sanindusa
100
AcDbLine
 10
19.52688858305186
 20
440.6433400376908
 30
0.0
 11
19.52906310077456
 21
440.6433400376908
 31
0.0
  0
ARC
  5
3AF
330
23
100
AcDbEntity
  8
sanindusa
100
AcDbCircle
 10
19.52688858305314
 20
440.6403400376903
 30
0.0
 40
0.0030000000012813
100
AcDbArc
 50
90.00000002442666
 51
179.9999999902293
  0
LINE
  5
3B0
330
23
100
AcDbEntity
  8
sanindusa
100
AcDbLine
 10
19.52388858305168
 20
440.6383571773083
 30
0.0
 11
19.52388858305186
 21
440.640340037692
 31
0.0
  0
LWPOLYLINE
  5
3B2
330
23
100
AcDbEntity
  8
sanindusa
100
AcDbPolyline
 90
        5
 70
   128
 43
0.0
 10
19.59122249301941
 20
440.6663174672025
 10
19.58810733495091
 20
440.6667084478932
 10
19.58530159482169
 20
440.667621616926
 10
19.58308493981601
 20
440.6689659525254
 10
19.58167831899178
 20
440.6706074556445
  0
ARC
  5
3B6
330
23
100
AcDbEntity
  8
sanindusa
100
AcDbCircle
 10
19.46615978668811
 20
440.6650332896275
 30
0.0
 40
0.0157966235189144
100
AcDbArc
 50
177.5871510655493
 51
217.3870921485103
  0
LINE
  5
3B8
330
23
100
AcDbEntity
  8
sanindusa
100
AcDbLine
 10
19.45998104573942
 20
440.6553990016818
 30
0.0
 11
19.4572646591616
 21
440.6553657028898
 31
0.0
  0
LWPOLYLINE
  5
3B9
330
23
100
AcDbEntity
  8
sanindusa
100
AcDbPolyline
 90
        3
 70
   128
 43
0.0
 10
19.45726465916396
 20
440.6553657029069
 10
19.45534803620458
 20
440.6553847905073
 10
19.45360855693655
 20
440.6554416305316
  0
LINE
  5
3BC
330
23
100
AcDbEntity
  8
sanindusa
100
AcDbLine
 10
19.45998104573984
 20
440.6553990016836
 30
0.0
 11
19.52957854937525
 21
440.6553990016836
 31
0.0
  0
LINE
  5
3C0
330
23
100
AcDbEntity
  8
sanindusa
100
AcDbLine
 10
19.45536516535092
 20
440.6492520870862
 30
0.0
 11
19.44842192808286
 21
440.6492520870858
 31
0.0
  0
LINE
  5
3C4
330
23
100
AcDbEntity
  8
sanindusa
100
AcDbLine
 10
19.44842192808286
 20
440.6492520870858
 30
0.0
 11
19.42588858305186
 21
440.6492520870858
 31
0.0
  0
ARC
  5
3C5
330
23
100
AcDbEntity
  8
sanindusa
100
AcDbCircle
 10
19.42588858305186
 20
440.6512520870858
 30
0.0
 40
0.0020000000000002
100
AcDbArc
 50
180.0
 51
270.0
  0
LINE
  5
3C6
330
23
100
AcDbEntity
  8
sanindusa
100
AcDbLine
 10
19.42388858305178
 20
440.6518135118306
 30
0.0
 11
19.42388858305186
 21
440.651252087085
 31
0.0
  0
LINE
  5
3C8
330
23
100
AcDbEntity
  8
sanindusa
100
AcDbLine
 10
19.45998104573986
 20
440.6492520870858
 30
0.0
 11
19.45536516535092
 21
440.6492520870862
 31
0.0
  0
LINE
  5
3C9
330
23
100
AcDbEntity
  8
sanindusa
100
AcDbLine
 10
19.53044244188367
 20
440.6492520870858
 30
0.0
 11
19.45998104565108
 21
440.6492520870858
 31
0.0
  0
LWPOLYLINE
  5
3CA
330
23
100
AcDbEntity
  8
sanindusa
100
AcDbPolyline
 90
        6
 70
   128
 43
0.0
 10
19.59516958779001
 20
440.7481907652321
 10
19.59260932150457
 20
440.7494269353716
 10
19.59040321028602
 20
440.7506362303638
 10
19.58856125007958
 20
440.7517372762616
 10
19.58694855998341
 20
440.7527084873114
 10
19.58408059535863
 20
440.7541804384104
  0
LINE
  5
3CC
330
23
100
AcDbEntity
  8
sanindusa
100
AcDbLine
 10
19.42388858305186
 20
440.651252087085
 30
0.0
 11
19.42388858305207
 21
440.645945540222
 31
0.0
  0
LINE
  5
3D0
330
23
100
AcDbEntity
  8
sanindusa
100
AcDbLine
 10
19.42388858305207
 20
440.645945540222
 30
0.0
 11
19.42388858305207
 21
440.6405263213989
 31
0.0
  0
ARC
  5
3D2
330
23
100
AcDbEntity
  8
sanindusa
100
AcDbCircle
 10
19.42588858305186
 20
440.6382520870859
 30
0.0
 40
0.0019999999999995
100
AcDbArc
 50
180.0
 51
270.0
  0
LINE
  5
3D3
330
23
100
AcDbEntity
  8
sanindusa
100
AcDbLine
 10
19.42388858305207
 20
440.6405263213989
 30
0.0
 11
19.42388858305186
 21
440.638252087085
 31
0.0
  0
LINE
  5
3D4
330
23
100
AcDbEntity
  8
sanindusa
100
AcDbLine
 10
19.42588858305186
 20
440.6362520870859
 30
0.0
 11
19.43388405545496
 21
440.6362520870861
 31
0.0
  0
ARC
  5
3DE
330
23
100
AcDbEntity
  8
sanindusa
100
AcDbCircle
 10
18.66821323834989
 20
440.7742499610915
 30
0.0
 40
0.0016957370362544
100
AcDbArc
 50
65.14147946845366
 51
76.18547781725204
  0
ARC
  5
3E7
330
23
100
AcDbEntity
  8
sanindusa
100
AcDbCircle
 10
19.38287739548816
 20
440.873298318738
 30
0.0
 40
0.5280348641514081
100
AcDbArc
 50
334.9895624477682
 51
346.2805738293003
  0
ARC
  5
3EA
330
23
100
AcDbEntity
  8
sanindusa
100
AcDbCircle
 10
19.41434718988571
 20
440.9500197073453
 30
0.0
 40
0.4925161989708085
100
AcDbArc
 50
323.8166111803464
 51
336.1817868538558
  0
LINE
  5
3EB
330
23
100
AcDbEntity
  8
sanindusa
100
AcDbLine
 10
19.89584677232784
 20
440.748065590651
 30
0.0
 11
19.86491644558767
 21
440.7511238751497
 31
0.0
  0
ARC
  5
3EC
330
23
100
AcDbEntity
  8
sanindusa
100
AcDbCircle
 10
19.84756632535907
 20
440.6442520661724
 30
0.0
 40
0.015000020913457
100
AcDbArc
 50
22.75508570276401
 51
90.00010626879481
  0
LINE
  5
3ED
330
23
100
AcDbEntity
  8
sanindusa
100
AcDbLine
 10
19.84756632855886
 20
440.6592520870858
 30
0.0
 11
19.81187253153987
 21
440.6592520870858
 31
0.0
  0
LINE
  5
3EE
330
23
100
AcDbEntity
  8
sanindusa
100
AcDbLine
 10
19.44372615957084
 20
440.7617754377907
 30
0.0
 11
19.44243324790201
 21
440.7247512917664
 31
0.0
  0
LINE
  5
3EF
330
23
100
AcDbEntity
  8
sanindusa
100
AcDbLine
 10
19.44243324790201
 20
440.7247512917664
 30
0.0
 11
19.4338885830518
 21
440.7247512917662
 31
0.0
  0
LINE
  5
3F0
330
23
100
AcDbEntity
  8
sanindusa
100
AcDbLine
 10
19.43388858305185
 20
440.7662519520779
 30
0.0
 11
19.4338885830518
 21
440.7247512917662
 31
0.0
  0
LINE
  5
3F1
330
23
100
AcDbEntity
  8
sanindusa
100
AcDbLine
 10
19.44457489435503
 20
440.7662519499328
 30
0.0
 11
19.43388858305185
 21
440.7662519520779
 31
0.0
  0
ARC
  5
3F2
330
23
100
AcDbEntity
  8
sanindusa
100
AcDbCircle
 10
19.45871704546334
 20
440.7612519207333
 30
0.0
 40
0.0150000243321704
100
AcDbArc
 50
160.5286939259024
 51
177.9997241032688
  0
LINE
  5
3F3
330
23
100
AcDbEntity
  8
sanindusa
100
AcDbLine
 10
19.72621729837427
 20
440.5650663483114
 30
0.0
 11
19.71161948428604
 21
440.6236148617854
 31
0.0
  0
LINE
  5
3F4
330
23
100
AcDbEntity
  8
sanindusa
100
AcDbLine
 10
19.72677640738828
 20
440.6302957332764
 30
0.0
 11
19.72621729837427
 21
440.5650663483114
 31
0.0
  0
ARC
  5
3F5
330
23
100
AcDbEntity
  8
sanindusa
100
AcDbCircle
 10
19.70756807497586
 20
440.6533400376911
 30
0.0
 40
0.0300000000004034
100
AcDbArc
 50
277.7613363488935
 51
309.8125335184066
  0
LINE
  5
3F6
330
23
100
AcDbEntity
  8
sanindusa
100
AcDbLine
 10
19.72111684795365
 20
439.9700137992634
 30
0.0
 11
19.72097392999731
 21
439.9533400376908
 31
0.0
  0
ARC
  5
3F7
330
23
100
AcDbEntity
  8
sanindusa
100
AcDbCircle
 10
19.71423125652086
 20
439.983340037691
 30
0.0
 40
0.0150000000002624
100
AcDbArc
 50
270.0
 51
297.3251409556324
  0
LINE
  5
3F8
330
23
100
AcDbEntity
  8
sanindusa
100
AcDbLine
 10
19.70910323610614
 20
439.9683400376908
 30
0.0
 11
19.70901641981958
 21
439.9582114709859
 31
0.0
  0
LINE
  5
3F9
330
23
100
AcDbEntity
  8
sanindusa
100
AcDbLine
 10
19.70910323610614
 20
439.9683400376908
 30
0.0
 11
19.7142312565207
 21
439.9683400376907
 31
0.0
  0
LINE
  5
3FA
330
23
100
AcDbEntity
  8
sanindusa
100
AcDbLine
 10
19.70815910643533
 20
439.9533400376908
 30
0.0
 11
19.72097392999731
 21
439.9533400376908
 31
0.0
  0
ARC
  5
3FB
330
23
100
AcDbEntity
  8
sanindusa
100
AcDbCircle
 10
19.69401697081146
 20
439.958340037691
 30
0.0
 40
0.0150000000002179
100
AcDbArc
 50
340.52877936485
 51
359.5089053358131
  0
ENDSEC
  0
SECTION
  2
OBJECTS
  0
DICTIONARY
  5
C
330
0
100
AcDbDictionary
281
     1
  3
ACAD_COLOR
350
1C
  3
ACAD_GROUP
350
D
  3
ACAD_LAYOUT
350
1A
  3
ACAD_MATERIAL
350
1B
  3
ACAD_MLEADERSTYLE
350
447
  3
ACAD_MLINESTYLE
350
17
  3
ACAD_PLOTSETTINGS
350
19
  3
ACAD_PLOTSTYLENAME
350
E
  3
ACAD_SCALELIST
350
435
  3
ACAD_TABLESTYLE
350
1D
  3
ACAD_VISUALSTYLE
350
421
  3
ACDB_RECOMPOSE_DATA
350
458
  3
AcDbVariableDictionary
350
3E3
  3
ASE_INDEX_DICTIONARY
350
3E0
  3
DWGPROPS
350
459
  0
DICTIONARY
  5
44B
330
10
100
AcDbDictionary
280
     1
281
     1
  3
ADSK_XREC_LAYER_RECONCILED
360
44C
  0
DICTIONARY
  5
44D
330
30
100
AcDbDictionary
280
     1
281
     1
  3
ADSK_XREC_LAYER_RECONCILED
360
44E
  0
DICTIONARY
  5
44F
330
3D6
100
AcDbDictionary
280
     1
281
     1
  3
ADSK_XREC_LAYER_RECONCILED
360
450
  0
DICTIONARY
  5
3E8
330
23
100
AcDbDictionary
280
     1
281
     1
  3
ACAD_SORTENTS
360
3E9
  0
DICTIONARY
  5
1C
102
{ACAD_REACTORS
330
C
102
}
330
C
100
AcDbDictionary
281
     1
  0
DICTIONARY
  5
D
102
{ACAD_REACTORS
330
C
102
}
330
C
100
AcDbDictionary
281
     1
  0
DICTIONARY
  5
1A
102
{ACAD_REACTORS
330
C
102
}
330
C
100
AcDbDictionary
281
     1
  3
Layout1
350
22
  3
Layout2
350
2A
  3
Model
350
26
  0
DICTIONARY
  5
1B
102
{ACAD_REACTORS
330
C
102
}
330
C
100
AcDbDictionary
281
     1
  3
ByBlock
350
411
  3
ByLayer
350
409
  3
Global
350
419
  0
DICTIONARY
  5
447
102
{ACAD_REACTORS
330
C
102
}
330
C
100
AcDbDictionary
281
     1
  3
Standard
350
448
  0
DICTIONARY
  5
17
102
{ACAD_REACTORS
330
C
102
}
330
C
100
AcDbDictionary
281
     1
  3
Standard
350
18
  0
DICTIONARY
  5
19
102
{ACAD_REACTORS
330
C
102
}
330
C
100
AcDbDictionary
281
     1
  0
ACDBDICTIONARYWDFLT
  5
E
102
{ACAD_REACTORS
330
C
102
}
330
C
100
AcDbDictionary
281
     1
  3
Normal
350
F
100
AcDbDictionaryWithDefault
340
F
  0
DICTIONARY
  5
435
102
{ACAD_REACTORS
330
C
102
}
330
C
100
AcDbDictionary
281
     1
  3
A0
350
436
  3
A1
350
437
  3
A2
350
438
  3
A3
350
439
  3
A4
350
43A
  3
A5
350
43B
  3
A6
350
43C
  3
A7
350
43D
  3
A8
350
43E
  3
A9
350
43F
  3
B0
350
440
  3
B1
350
441
  3
B2
350
442
  3
B3
350
443
  3
B4
350
444
  3
B5
350
445
  3
B6
350
446
  0
DICTIONARY
  5
1D
102
{ACAD_REACTORS
330
C
102
}
330
C
100
AcDbDictionary
281
     1
  3
Standard
350
1E
  0
DICTIONARY
  5
421
102
{ACAD_REACTORS
330
C
102
}
330
C
100
AcDbDictionary
281
     1
  3
2dWireframe
350
427
  3
3D Hidden
350
429
  3
3dWireframe
350
428
  3
Basic
350
426
  3
Brighten
350
42D
  3
ColorChange
350
431
  3
Conceptual
350
42A
  3
Dim
350
42C
  3
EdgeColorOff
350
434
  3
Facepattern
350
430
  3
Flat
350
422
  3
FlatWithEdges
350
423
  3
Gouraud
350
424
  3
GouraudWithEdges
350
425
  3
JitterOff
350
432
  3
Linepattern
350
42F
  3
OverhangOff
350
433
  3
Realistic
350
42B
  3
Thicken
350
42E
  0
XRECORD
  5
458
102
{ACAD_REACTORS
330
C
102
}
330
C
100
AcDbXrecord
280
     1
 90
        1
330
1E
  0
DICTIONARY
  5
3E3
102
{ACAD_REACTORS
330
C
102
}
330
C
100
AcDbDictionary
281
     1
  3
CANNOSCALE
350
452
  3
CMLEADERSTYLE
350
451
  3
CTABLESTYLE
350
3E4
  3
DIMASSOC
350
406
  3
HIDETEXT
350
405
  3
INDEXCTL
350
454
  3
PROJECTNAME
350
407
  3
SORTENTS
350
453
  3
XCLIPFRAME
350
455
  0
DICTIONARY
  5
3E0
102
{ACAD_REACTORS
330
C
102
}
330
C
100
AcDbDictionary
281
     1
  3
ASEBlockHierarchyIndexRecord
350
3E1
1001
DCO15
1040
1554699182.093
  0
XRECORD
  5
459
102
{ACAD_REACTORS
330
C
102
}
330
C
100
AcDbXrecord
280
     1
  1
DWGPROPS COOKIE
  2

  3

  4

  6

  7

  8
Julio
  9

300
=
301
=
302
=
303
=
304
=
305
=
306
=
307
=
308
=
309
=
 40
0.0073175115740741
 41
2453797.44996184
 42
2456147.426814768
  1

 90
        0
  0
XRECORD
  5
44C
102
{ACAD_REACTORS
330
44B
102
}
330
44B
100
AcDbXrecord
280
     1
290
     1
  0
XRECORD
  5
44E
102
{ACAD_REACTORS
330
44D
102
}
330
44D
100
AcDbXrecord
280
     1
290
     1
  0
XRECORD
  5
450
102
{ACAD_REACTORS
330
44F
102
}
330
44F
100
AcDbXrecord
280
     1
290
     1
  0
SORTENTSTABLE
  5
3E9
102
{ACAD_REACTORS
330
3E8
102
}
330
3E8
100
AcDbSortentsTable
330
23
331
3C6
  5
3F2
331
2F6
  5
303
331
27C
  5
27C
331
3F9
  5
371
331
278
  5
278
331
2B7
  5
2B7
331
2EE
  5
2F3
331
329
  5
337
331
23D
  5
23D
331
3F5
  5
33E
331
3B6
  5
3EB
331
3F1
  5
2F6
331
3B2
  5
3EA
331
3ED
  5
392
331
353
  5
3AA
331
26C
  5
26C
331
325
  5
32F
331
2AB
  5
2AB
331
2E6
  5
2E8
331
2A7
  5
2A7
331
321
  5
327
331
2E2
  5
2E5
331
268
  5
268
331
31D
  5
323
331
2DE
  5
2DF
331
264
  5
264
331
260
  5
260
331
229
  5
229
331
3AE
  5
3D4
331
34F
  5
39B
331
34B
  5
390
331
3AA
  5
3D2
331
347
  5
355
331
3A6
  5
3D0
331
29F
  5
29F
331
343
  5
350
331
25C
  5
25C
331
2D6
  5
2D6
331
315
  5
31D
331
258
  5
258
331
311
  5
31A
331
30D
  5
313
331
293
  5
293
331
2CE
  5
2CE
331
309
  5
30F
331
219
  5
219
331
33F
  5
349
331
39A
  5
3C8
331
33B
  5
345
331
396
  5
3C5
331
337
  5
341
331
392
  5
3C0
331
333
  5
33C
331
305
  5
30D
331
28B
  5
28B
331
3C9
  5
3F4
331
2C6
  5
2C6
331
283
  5
283
331
240
  5
240
331
215
  5
215
331
2BA
  5
2BA
331
20D
  5
20D
331
209
  5
209
331
372
  5
3B8
331
3C5
  5
3F1
331
3F8
  5
360
331
277
  5
277
331
2ED
  5
2EF
331
273
  5
273
331
2E9
  5
2EC
331
328
  5
335
331
3F4
  5
34B
331
3B9
  5
3ED
331
3F0
  5
336
331
3EC
  5
2DC
331
352
  5
3A6
331
26F
  5
26F
331
26B
  5
26B
331
2E5
  5
2E7
331
324
  5
32A
331
2AA
  5
2AA
331
267
  5
267
331
2E1
  5
2E2
331
320
  5
326
331
263
  5
263
331
2DD
  5
2DE
331
31C
  5
322
331
230
  5
230
331
22C
  5
22C
331
34E
  5
398
331
34A
  5
372
331
346
  5
353
331
25F
  5
25F
331
29E
  5
29E
331
342
  5
34F
331
25B
  5
25B
331
2D5
  5
2D5
331
310
  5
317
331
30C
  5
312
331
292
  5
292
331
2CD
  5
2CD
331
308
  5
30E
331
21C
  5
21C
331
218
  5
218
331
39D
  5
3CC
331
33E
  5
348
331
3D4
  5
3FA
331
33A
  5
344
331
3D0
  5
3F7
331
336
  5
340
331
24F
  5
24F
331
28E
  5
28E
331
3CC
  5
3F6
331
332
  5
33B
331
3C8
  5
3F3
331
304
  5
30C
331
28A
  5
28A
331
243
  5
243
331
2F8
  5
305
331
2B9
  5
2B9
331
210
  5
210
331
20C
  5
20C
331
371
  5
3B6
331
3C4
  5
3F0
331
3FB
  5
354
331
3C0
  5
3EF
331
276
  5
276
331
32F
  5
33A
331
2EC
  5
2EE
331
272
  5
272
331
2E8
  5
2EB
331
23F
  5
23F
331
3BC
  5
3EE
331
3F7
  5
386
331
3B8
  5
3EC
331
3F3
  5
309
331
3EF
  5
333
331
355
  5
3AE
331
3B0
  5
3E7
331
327
  5
334
331
3EB
  5
2F8
331
351
  5
39D
331
323
  5
329
331
2A9
  5
2A9
331
2E4
  5
2E6
331
31F
  5
325
331
2A5
  5
2A5
331
2E0
  5
2E1
331
2A1
  5
2A1
331
262
  5
262
331
2DC
  5
2DD
331
31B
  5
321
331
22B
  5
22B
331
3E7
  5
39A
331
34D
  5
396
331
3AC
  5
3D3
331
349
  5
36E
331
345
  5
352
331
29D
  5
29D
331
341
  5
34D
331
25E
  5
25E
331
317
  5
31F
331
313
  5
31C
331
2D0
  5
2D0
331
30F
  5
316
331
295
  5
295
331
30B
  5
311
331
252
  5
252
331
291
  5
291
331
227
  5
227
331
21B
  5
21B
331
39C
  5
3CA
331
33D
  5
347
331
398
  5
3C6
331
3D3
  5
3F9
331
339
  5
343
331
335
  5
33F
331
390
  5
3BC
331
28D
  5
28D
331
303
  5
30B
331
289
  5
289
331
2FF
  5
30A
331
285
  5
285
331
2C0
  5
2C0
331
20B
  5
20B
331
27D
  5
27D
331
3FA
  5
34E
331
2F7
  5
304
331
368
  5
3B0
331
2F3
  5
2FE
331
279
  5
279
331
2B4
  5
2B4
331
2EF
  5
2F7
331
2EB
  5
2ED
331
207
  5
207
331
32A
  5
339
331
23E
  5
23E
331
3F6
  5
34A
331
3F2
  5
2FF
331
360
  5
3AF
331
3EE
  5
338
331
354
  5
3AC
331
3EA
  5
2E4
331
350
  5
39C
331
26D
  5
26D
331
2E7
  5
2E9
331
326
  5
332
331
269
  5
269
331
322
  5
328
331
2DF
  5
2E0
331
31E
  5
324
331
261
  5
261
331
2DB
  5
2DB
331
31A
  5
320
331
232
  5
232
331
22A
  5
22A
331
3AF
  5
3DE
331
34C
  5
393
331
348
  5
368
331
3DE
  5
3FB
331
344
  5
351
331
316
  5
31E
331
340
  5
34C
331
2D7
  5
2D7
331
259
  5
259
331
312
  5
31B
331
298
  5
298
331
30E
  5
315
331
255
  5
255
331
226
  5
226
331
30A
  5
310
331
222
  5
222
331
21A
  5
21A
331
33C
  5
346
331
39B
  5
3C9
331
3D2
  5
3F8
331
338
  5
342
331
334
  5
33D
331
393
  5
3C4
331
28C
  5
28C
331
3CA
  5
3F5
331
24D
  5
24D
331
288
  5
288
331
2FE
  5
308
331
2BB
  5
2BB
331
212
  5
212
331
20E
  5
20E
  0
LAYOUT
  5
22
102
{ACAD_XDICTIONARY
360
45B
102
}
102
{ACAD_REACTORS
330
1A
102
}
330
1A
100
AcDbPlotSettings
  1

  2
HP DesignJet 500PS42+HPGL2 Card
  4

  6

 40
0.0
 41
0.0
 42
0.0
 43
0.0
 44
0.0
 45
0.0
 46
0.0
 47
0.0
 48
0.0
 49
0.0
140
0.0
141
0.0
142
1.0
143
1.0
 70
   688
 72
     0
 73
     0
 74
     5
  7
C:\Documents and Settings\Julio\Application Data\Autodesk\AutoCAD 2006\R16.2\enu\Plot Styles\sanindusa.ctb
 75
    16
147
1.0
148
0.0
149
0.0
100
AcDbLayout
  1
Layout1
 70
     1
 71
     1
 10
0.0
 20
0.0
 11
420.0
 21
297.0
 12
0.0
 22
0.0
 32
0.0
 14
1.000000000000000E+20
 24
1.000000000000000E+20
 34
1.000000000000000E+20
 15
-1.000000000000000E+20
 25
-1.000000000000000E+20
 35
-1.000000000000000E+20
146
0.0
 13
0.0
 23
0.0
 33
0.0
 16
1.0
 26
0.0
 36
0.0
 17
0.0
 27
1.0
 37
0.0
 76
     0
330
1F
  0
LAYOUT
  5
2A
102
{ACAD_XDICTIONARY
360
45F
102
}
102
{ACAD_REACTORS
330
1A
102
}
330
1A
100
AcDbPlotSettings
  1

  2
HP DesignJet 500PS42+HPGL2 Card
  4

  6

 40
0.0
 41
0.0
 42
0.0
 43
0.0
 44
0.0
 45
0.0
 46
0.0
 47
0.0
 48
0.0
 49
0.0
140
0.0
141
0.0
142
1.0
143
1.0
 70
   688
 72
     0
 73
     0
 74
     5
  7
C:\Documents and Settings\Julio\Application Data\Autodesk\AutoCAD 2006\R16.2\enu\Plot Styles\sanindusa.ctb
 75
    16
147
1.0
148
0.0
149
0.0
100
AcDbLayout
  1
Layout2
 70
     1
 71
     2
 10
0.0
 20
0.0
 11
12.0
 21
9.0
 12
0.0
 22
0.0
 32
0.0
 14
0.0
 24
0.0
 34
0.0
 15
0.0
 25
0.0
 35
0.0
146
0.0
 13
0.0
 23
0.0
 33
0.0
 16
1.0
 26
0.0
 36
0.0
 17
0.0
 27
1.0
 37
0.0
 76
     0
330
27
  0
LAYOUT
  5
26
102
{ACAD_XDICTIONARY
360
45D
102
}
102
{ACAD_REACTORS
330
1A
102
}
330
1A
100
AcDbPlotSettings
  1

  2
HP DesignJet 500PS42+HPGL2 Card
  4

  6

 40
0.0
 41
0.0
 42
0.0
 43
0.0
 44
0.0
 45
0.0
 46
0.0
 47
0.0
 48
0.0
 49
0.0
140
0.0
141
0.0
142
1.0
143
1.0
 70
  1712
 72
     0
 73
     0
 74
     0
  7
C:\Documents and Settings\Julio\Application Data\Autodesk\AutoCAD 2006\R16.2\enu\Plot Styles\sanindusa.ctb
 75
     0
147
1.0
148
0.0
149
0.0
100
AcDbLayout
  1
Model
 70
     1
 71
     0
 10
0.0
 20
0.0
 11
12.0
 21
9.0
 12
0.0
 22
0.0
 32
0.0
 14
0.0
 24
0.0
 34
0.0
 15
0.0
 25
0.0
 35
0.0
146
0.0
 13
0.0
 23
0.0
 33
0.0
 16
1.0
 26
0.0
 36
0.0
 17
0.0
 27
1.0
 37
0.0
 76
     0
330
23
331
3FD
  0
MATERIAL
  5
411
102
{ACAD_XDICTIONARY
360
412
102
}
102
{ACAD_REACTORS
330
1B
102
}
330
1B
100
AcDbMaterial
  1
ByBlock
 72
     0
 43
0.0008202099737533
 43
0.0
 43
0.0
 43
0.0
 43
0.0
 43
0.0008202099737533
 43
0.0
 43
0.0
 43
0.0
 43
0.0
 43
1.0
 43
0.0
 43
0.0
 43
0.0
 43
0.0
 43
1.0
 77
     0
 47
0.0008202099737533
 47
0.0
 47
0.0
 47
0.0
 47
0.0
 47
0.0008202099737533
 47
0.0
 47
0.0
 47
0.0
 47
0.0
 47
1.0
 47
0.0
 47
0.0
 47
0.0
 47
0.0
 47
1.0
171
     0
 49
0.0008202099737533
 49
0.0
 49
0.0
 49
0.0
 49
0.0
 49
0.0008202099737533
 49
0.0
 49
0.0
 49
0.0
 49
0.0
 49
1.0
 49
0.0
 49
0.0
 49
0.0
 49
0.0
 49
1.0
175
     0
142
0.0008202099737533
142
0.0
142
0.0
142
0.0
142
0.0
142
0.0008202099737533
142
0.0
142
0.0
142
0.0
142
0.0
142
1.0
142
0.0
142
0.0
142
0.0
142
0.0
142
1.0
179
     0
144
0.0008202099737533
144
0.0
144
0.0
144
0.0
144
0.0
144
0.0008202099737533
144
0.0
144
0.0
144
0.0
144
0.0
144
1.0
144
0.0
144
0.0
144
0.0
144
0.0
144
1.0
147
0.0008202099737533
147
0.0
147
0.0
147
0.0
147
0.0
147
0.0008202099737533
147
0.0
147
0.0
147
0.0
147
0.0
147
1.0
147
0.0
147
0.0
147
0.0
147
0.0
147
1.0
  0
MATERIAL
  5
409
102
{ACAD_XDICTIONARY
360
40A
102
}
102
{ACAD_REACTORS
330
1B
102
}
330
1B
100
AcDbMaterial
  1
ByLayer
 72
     0
 43
0.0008202099737533
 43
0.0
 43
0.0
 43
0.0
 43
0.0
 43
0.0008202099737533
 43
0.0
 43
0.0
 43
0.0
 43
0.0
 43
1.0
 43
0.0
 43
0.0
 43
0.0
 43
0.0
 43
1.0
 77
     0
 47
0.0008202099737533
 47
0.0
 47
0.0
 47
0.0
 47
0.0
 47
0.0008202099737533
 47
0.0
 47
0.0
 47
0.0
 47
0.0
 47
1.0
 47
0.0
 47
0.0
 47
0.0
 47
0.0
 47
1.0
171
     0
 49
0.0008202099737533
 49
0.0
 49
0.0
 49
0.0
 49
0.0
 49
0.0008202099737533
 49
0.0
 49
0.0
 49
0.0
 49
0.0
 49
1.0
 49
0.0
 49
0.0
 49
0.0
 49
0.0
 49
1.0
175
     0
142
0.0008202099737533
142
0.0
142
0.0
142
0.0
142
0.0
142
0.0008202099737533
142
0.0
142
0.0
142
0.0
142
0.0
142
1.0
142
0.0
142
0.0
142
0.0
142
0.0
142
1.0
179
     0
144
0.0008202099737533
144
0.0
144
0.0
144
0.0
144
0.0
144
0.0008202099737533
144
0.0
144
0.0
144
0.0
144
0.0
144
1.0
144
0.0
144
0.0
144
0.0
144
0.0
144
1.0
147
0.0008202099737533
147
0.0
147
0.0
147
0.0
147
0.0
147
0.0008202099737533
147
0.0
147
0.0
147
0.0
147
0.0
147
1.0
147
0.0
147
0.0
147
0.0
147
0.0
147
1.0
  0
MATERIAL
  5
419
102
{ACAD_XDICTIONARY
360
41A
102
}
102
{ACAD_REACTORS
330
1B
102
}
330
1B
100
AcDbMaterial
  1
Global
 72
     0
 43
0.0008202099737533
 43
0.0
 43
0.0
 43
0.0
 43
0.0
 43
0.0008202099737533
 43
0.0
 43
0.0
 43
0.0
 43
0.0
 43
1.0
 43
0.0
 43
0.0
 43
0.0
 43
0.0
 43
1.0
 77
     0
 47
0.0008202099737533
 47
0.0
 47
0.0
 47
0.0
 47
0.0
 47
0.0008202099737533
 47
0.0
 47
0.0
 47
0.0
 47
0.0
 47
1.0
 47
0.0
 47
0.0
 47
0.0
 47
0.0
 47
1.0
171
     0
 49
0.0008202099737533
 49
0.0
 49
0.0
 49
0.0
 49
0.0
 49
0.0008202099737533
 49
0.0
 49
0.0
 49
0.0
 49
0.0
 49
1.0
 49
0.0
 49
0.0
 49
0.0
 49
0.0
 49
1.0
175
     0
142
0.0008202099737533
142
0.0
142
0.0
142
0.0
142
0.0
142
0.0008202099737533
142
0.0
142
0.0
142
0.0
142
0.0
142
1.0
142
0.0
142
0.0
142
0.0
142
0.0
142
1.0
179
     0
144
0.0008202099737533
144
0.0
144
0.0
144
0.0
144
0.0
144
0.0008202099737533
144
0.0
144
0.0
144
0.0
144
0.0
144
1.0
144
0.0
144
0.0
144
0.0
144
0.0
144
1.0
147
0.0008202099737533
147
0.0
147
0.0
147
0.0
147
0.0
147
0.0008202099737533
147
0.0
147
0.0
147
0.0
147
0.0
147
1.0
147
0.0
147
0.0
147
0.0
147
0.0
147
1.0
  0
MLEADERSTYLE
  5
448
102
{ACAD_REACTORS
330
447
102
}
330
447
100
AcDbMLeaderStyle
170
     2
171
     1
172
     0
 90
        2
 40
0.0
 41
0.0
173
     1
 91
-1056964608
340
14
 92
       -2
290
     1
 42
2.0
291
     1
 43
0.36
  3
Standard
 44
4.0
300

342
11
174
     1
178
     6
175
     1
176
     0
 93
-1056964608
 45
4.0
292
     0
297
     0
 46
4.0
 94
-1056964608
 47
1.0
 49
1.0
140
1.0
293
     1
141
0.0
294
     1
177
     0
142
1.0
295
     0
296
     0
143
0.125
1001
ACAD_MLEADERVER
1070
     2
  0
MLINESTYLE
  5
18
102
{ACAD_REACTORS
330
17
102
}
330
17
100
AcDbMlineStyle
  2
STANDARD
 70
     0
  3

 62
   256
 51
90.0
 52
90.0
 71
     2
 49
0.5
 62
   256
  6
BYLAYER
 49
-0.5
 62
   256
  6
BYLAYER
  0
ACDBPLACEHOLDER
  5
F
102
{ACAD_REACTORS
330
E
102
}
330
E
  0
SCALE
  5
436
102
{ACAD_REACTORS
330
435
102
}
330
435
100
AcDbScale
 70
     0
300
1:1
140
1.0
141
1.0
290
     1
  0
SCALE
  5
437
102
{ACAD_REACTORS
330
435
102
}
330
435
100
AcDbScale
 70
     0
300
1:2
140
1.0
141
2.0
290
     0
  0
SCALE
  5
438
102
{ACAD_REACTORS
330
435
102
}
330
435
100
AcDbScale
 70
     0
300
1:4
140
1.0
141
4.0
290
     0
  0
SCALE
  5
439
102
{ACAD_REACTORS
330
435
102
}
330
435
100
AcDbScale
 70
     0
300
1:5
140
1.0
141
5.0
290
     0
  0
SCALE
  5
43A
102
{ACAD_REACTORS
330
435
102
}
330
435
100
AcDbScale
 70
     0
300
1:8
140
1.0
141
8.0
290
     0
  0
SCALE
  5
43B
102
{ACAD_REACTORS
330
435
102
}
330
435
100
AcDbScale
 70
     0
300
1:10
140
1.0
141
10.0
290
     0
  0
SCALE
  5
43C
102
{ACAD_REACTORS
330
435
102
}
330
435
100
AcDbScale
 70
     0
300
1:16
140
1.0
141
16.0
290
     0
  0
SCALE
  5
43D
102
{ACAD_REACTORS
330
435
102
}
330
435
100
AcDbScale
 70
     0
300
1:20
140
1.0
141
20.0
290
     0
  0
SCALE
  5
43E
102
{ACAD_REACTORS
330
435
102
}
330
435
100
AcDbScale
 70
     0
300
1:30
140
1.0
141
30.0
290
     0
  0
SCALE
  5
43F
102
{ACAD_REACTORS
330
435
102
}
330
435
100
AcDbScale
 70
     0
300
1:40
140
1.0
141
40.0
290
     0
  0
SCALE
  5
440
102
{ACAD_REACTORS
330
435
102
}
330
435
100
AcDbScale
 70
     0
300
1:50
140
1.0
141
50.0
290
     0
  0
SCALE
  5
441
102
{ACAD_REACTORS
330
435
102
}
330
435
100
AcDbScale
 70
     0
300
1:100
140
1.0
141
100.0
290
     0
  0
SCALE
  5
442
102
{ACAD_REACTORS
330
435
102
}
330
435
100
AcDbScale
 70
     0
300
2:1
140
2.0
141
1.0
290
     0
  0
SCALE
  5
443
102
{ACAD_REACTORS
330
435
102
}
330
435
100
AcDbScale
 70
     0
300
4:1
140
4.0
141
1.0
290
     0
  0
SCALE
  5
444
102
{ACAD_REACTORS
330
435
102
}
330
435
100
AcDbScale
 70
     0
300
8:1
140
8.0
141
1.0
290
     0
  0
SCALE
  5
445
102
{ACAD_REACTORS
330
435
102
}
330
435
100
AcDbScale
 70
     0
300
10:1
140
10.0
141
1.0
290
     0
  0
SCALE
  5
446
102
{ACAD_REACTORS
330
435
102
}
330
435
100
AcDbScale
 70
     0
300
100:1
140
100.0
141
1.0
290
     0
  0
TABLESTYLE
  5
1E
102
{ACAD_XDICTIONARY
360
456
102
}
102
{ACAD_REACTORS
330
1D
102
}
330
1D
100
AcDbTableStyle
  3
Standard
 70
     0
 71
     0
 40
1.5
 41
1.5
280
     0
281
     0
  7
Standard
140
4.5
170
     2
 62
     0
 63
     7
283
     0
274
    -2
284
     1
 64
     0
275
    -2
285
     1
 65
     0
276
    -2
286
     1
 66
     0
277
    -2
287
     1
 67
     0
278
    -2
288
     1
 68
     0
279
    -2
289
     1
 69
     0
  7
Standard
140
6.0
170
     5
 62
     0
 63
     7
283
     0
274
    -2
284
     1
 64
     0
275
    -2
285
     1
 65
     0
276
    -2
286
     1
 66
     0
277
    -2
287
     1
 67
     0
278
    -2
288
     1
 68
     0
279
    -2
289
     1
 69
     0
  7
Standard
140
4.5
170
     5
 62
     0
 63
     7
283
     0
274
    -2
284
     1
 64
     0
275
    -2
285
     1
 65
     0
276
    -2
286
     1
 66
     0
277
    -2
287
     1
 67
     0
278
    -2
288
     1
 68
     0
279
    -2
289
     1
 69
     0
  0
VISUALSTYLE
  5
427
102
{ACAD_XDICTIONARY
360
46E
102
}
102
{ACAD_REACTORS
330
421
102
}
330
421
100
AcDbVisualStyle
  2
2dWireframe
 70
     4
 71
     0
 72
     2
 73
     0
 90
        0
 40
-0.6
 41
-30.0
 62
     5
 63
     7
 74
     1
 91
        4
 64
     7
 65
   257
 75
     1
175
     1
 42
1.0
 92
        0
 66
   257
 43
1.0
 76
     1
 77
     6
 78
     2
 67
     7
 79
     5
170
     0
171
     0
290
     0
174
     0
 93
        1
 44
0.0
173
     0
291
     0
 45
0.0
1001
ACAD
1000
AcDbSavedByObjectVersion
1070
     0
  0
VISUALSTYLE
  5
429
102
{ACAD_XDICTIONARY
360
472
102
}
102
{ACAD_REACTORS
330
421
102
}
330
421
100
AcDbVisualStyle
  2
3D Hidden
 70
     6
 71
     1
 72
     2
 73
     2
 90
        0
 40
-0.6
 41
-30.0
 62
     5
 63
     7
 74
     2
 91
        2
 64
     7
 65
   257
 75
     2
175
     1
 42
179.0
 92
        0
 66
   257
 43
1.0
 76
     1
 77
     6
 78
     2
 67
     7
 79
     3
170
     0
171
     0
290
     0
174
     0
 93
        1
 44
0.0
173
     0
291
     0
 45
0.0
1001
ACAD
1000
AcDbSavedByObjectVersion
1070
     0
  0
VISUALSTYLE
  5
428
102
{ACAD_XDICTIONARY
360
470
102
}
102
{ACAD_REACTORS
330
421
102
}
330
421
100
AcDbVisualStyle
  2
3dWireframe
 70
     5
 71
     0
 72
     2
 73
     0
 90
        0
 40
-0.6
 41
-30.0
 62
     5
 63
     7
 74
     1
 91
        4
 64
     7
 65
   257
 75
     1
175
     1
 42
1.0
 92
        0
 66
   257
 43
1.0
 76
     1
 77
     6
 78
     2
 67
     7
 79
     5
170
     0
171
     0
290
     0
174
     0
 93
        1
 44
0.0
173
     0
291
     0
 45
0.0
1001
ACAD
1000
AcDbSavedByObjectVersion
1070
     0
  0
VISUALSTYLE
  5
426
102
{ACAD_XDICTIONARY
360
46C
102
}
102
{ACAD_REACTORS
330
421
102
}
330
421
100
AcDbVisualStyle
  2
Basic
 70
     7
 71
     1
 72
     0
 73
     1
 90
        0
 40
-0.6
 41
-30.0
 62
     5
 63
     7
 74
     0
 91
        4
 64
     7
 65
   257
 75
     1
175
     1
 42
1.0
 92
        8
 66
     7
 43
1.0
 76
     1
 77
     6
 78
     2
 67
     7
 79
     5
170
     0
171
     0
290
     0
174
     0
 93
        1
 44
0.0
173
     0
291
     1
 45
0.0
1001
ACAD
1000
AcDbSavedByObjectVersion
1070
     0
  0
VISUALSTYLE
  5
42D
102
{ACAD_XDICTIONARY
360
47A
102
}
102
{ACAD_REACTORS
330
421
102
}
330
421
100
AcDbVisualStyle
  2
Brighten
 70
    12
 71
     2
 72
     2
 73
     0
 90
        0
 40
-0.6
 41
-30.0
 62
     5
 63
     7
 74
     1
 91
        4
 64
     7
 65
   257
 75
     1
175
     1
 42
1.0
 92
        8
 66
     7
 43
1.0
 76
     1
 77
     6
 78
     2
 67
     7
 79
     5
170
     0
171
     0
290
     0
174
     0
 93
        1
 44
50.0
173
     0
291
     1
 45
0.0
1001
ACAD
1000
AcDbSavedByObjectVersion
1070
     0
  0
VISUALSTYLE
  5
431
102
{ACAD_XDICTIONARY
360
482
102
}
102
{ACAD_REACTORS
330
421
102
}
330
421
100
AcDbVisualStyle
  2
ColorChange
 70
    16
 71
     2
 72
     2
 73
     3
 90
        0
 40
-0.6
 41
-30.0
 62
     5
 63
     8
 74
     1
 91
        4
 64
     7
 65
   257
 75
     1
175
     1
 42
1.0
 92
        8
 66
     8
 43
1.0
 76
     1
 77
     6
 78
     2
 67
     7
 79
     5
170
     0
171
     0
290
     0
174
     0
 93
        1
 44
0.0
173
     0
291
     1
 45
0.0
1001
ACAD
1000
AcDbSavedByObjectVersion
1070
     0
  0
VISUALSTYLE
  5
42A
102
{ACAD_XDICTIONARY
360
474
102
}
102
{ACAD_REACTORS
330
421
102
}
330
421
100
AcDbVisualStyle
  2
Conceptual
 70
     9
 71
     3
 72
     2
 73
     0
 90
        0
 40
-0.6
 41
-30.0
 62
     5
 63
     7
 74
     2
 91
        2
 64
     7
 65
   257
 75
     1
175
     1
 42
179.0
 92
        8
 66
     7
 43
1.0
 76
     1
 77
     6
 78
     2
 67
     7
 79
     3
170
     0
171
     0
290
     0
174
     0
 93
        1
 44
0.0
173
     0
291
     0
 45
0.0
1001
ACAD
1000
AcDbSavedByObjectVersion
1070
     0
  0
VISUALSTYLE
  5
42C
102
{ACAD_XDICTIONARY
360
478
102
}
102
{ACAD_REACTORS
330
421
102
}
330
421
100
AcDbVisualStyle
  2
Dim
 70
    11
 71
     2
 72
     2
 73
     0
 90
        0
 40
-0.6
 41
-30.0
 62
     5
 63
     7
 74
     1
 91
        4
 64
     7
 65
   257
 75
     1
175
     1
 42
1.0
 92
        8
 66
     7
 43
1.0
 76
     1
 77
     6
 78
     2
 67
     7
 79
     5
170
     0
171
     0
290
     0
174
     0
 93
        1
 44
-50.0
173
     0
291
     1
 45
0.0
1001
ACAD
1000
AcDbSavedByObjectVersion
1070
     0
  0
VISUALSTYLE
  5
434
102
{ACAD_XDICTIONARY
360
488
102
}
102
{ACAD_REACTORS
330
421
102
}
330
421
100
AcDbVisualStyle
  2
EdgeColorOff
 70
    22
 71
     2
 72
     2
 73
     0
 90
        0
 40
-0.6
 41
-30.0
 62
     5
 63
     7
 74
     1
 91
        4
 64
     7
 65
   257
 75
     1
175
     1
 42
1.0
 92
        8
 66
     7
 43
1.0
 76
     1
 77
     6
 78
     2
 67
     7
 79
     5
170
     0
171
     0
290
     0
174
     0
 93
        1
 44
0.0
173
     0
291
     1
 45
0.0
1001
ACAD
1000
AcDbSavedByObjectVersion
1070
     0
  0
VISUALSTYLE
  5
430
102
{ACAD_XDICTIONARY
360
480
102
}
102
{ACAD_REACTORS
330
421
102
}
330
421
100
AcDbVisualStyle
  2
Facepattern
 70
    15
 71
     2
 72
     2
 73
     0
 90
        0
 40
-0.6
 41
-30.0
 62
     5
 63
     7
 74
     1
 91
        4
 64
     7
 65
   257
 75
     1
175
     1
 42
1.0
 92
        8
 66
     7
 43
1.0
 76
     1
 77
     6
 78
     2
 67
     7
 79
     5
170
     0
171
     0
290
     0
174
     0
 93
        1
 44
0.0
173
     0
291
     1
 45
0.0
1001
ACAD
1000
AcDbSavedByObjectVersion
1070
     0
  0
VISUALSTYLE
  5
422
102
{ACAD_XDICTIONARY
360
464
102
}
102
{ACAD_REACTORS
330
421
102
}
330
421
100
AcDbVisualStyle
  2
Flat
 70
     0
 71
     2
 72
     1
 73
     1
 90
        2
 40
-0.6
 41
30.0
 62
     5
 63
     7
 74
     0
 91
        4
 64
     7
 65
   257
 75
     1
175
     1
 42
1.0
 92
        8
 66
     7
 43
1.0
 76
     1
 77
     6
 78
     2
 67
     7
 79
     5
170
     0
171
     0
290
     0
174
     0
 93
       13
 44
0.0
173
     0
291
     1
 45
0.0
1001
ACAD
1000
AcDbSavedByObjectVersion
1070
     0
  0
VISUALSTYLE
  5
423
102
{ACAD_XDICTIONARY
360
466
102
}
102
{ACAD_REACTORS
330
421
102
}
330
421
100
AcDbVisualStyle
  2
FlatWithEdges
 70
     1
 71
     2
 72
     1
 73
     1
 90
        2
 40
-0.6
 41
30.0
 62
     5
 63
     7
 74
     1
 91
        4
 64
     7
 65
   257
 75
     1
175
     1
 42
1.0
 92
        0
 66
   257
 43
1.0
 76
     1
 77
     6
 78
     2
 67
     7
 79
     5
170
     0
171
     0
290
     0
174
     0
 93
       13
 44
0.0
173
     0
291
     1
 45
0.0
1001
ACAD
1000
AcDbSavedByObjectVersion
1070
     0
  0
VISUALSTYLE
  5
424
102
{ACAD_XDICTIONARY
360
468
102
}
102
{ACAD_REACTORS
330
421
102
}
330
421
100
AcDbVisualStyle
  2
Gouraud
 70
     2
 71
     2
 72
     2
 73
     1
 90
        2
 40
-0.6
 41
30.0
 62
     5
 63
     7
 74
     0
 91
        4
 64
     7
 65
   257
 75
     1
175
     1
 42
1.0
 92
        0
 66
     7
 43
1.0
 76
     1
 77
     6
 78
     2
 67
     7
 79
     5
170
     0
171
     0
290
     0
174
     0
 93
       13
 44
0.0
173
     0
291
     1
 45
0.0
1001
ACAD
1000
AcDbSavedByObjectVersion
1070
     0
  0
VISUALSTYLE
  5
425
102
{ACAD_XDICTIONARY
360
46A
102
}
102
{ACAD_REACTORS
330
421
102
}
330
421
100
AcDbVisualStyle
  2
GouraudWithEdges
 70
     3
 71
     2
 72
     2
 73
     1
 90
        2
 40
-0.6
 41
30.0
 62
     5
 63
     7
 74
     1
 91
        4
 64
     7
 65
   257
 75
     1
175
     1
 42
1.0
 92
        0
 66
   257
 43
1.0
 76
     1
 77
     6
 78
     2
 67
     7
 79
     5
170
     0
171
     0
290
     0
174
     0
 93
       13
 44
0.0
173
     0
291
     1
 45
0.0
1001
ACAD
1000
AcDbSavedByObjectVersion
1070
     0
  0
VISUALSTYLE
  5
432
102
{ACAD_XDICTIONARY
360
484
102
}
102
{ACAD_REACTORS
330
421
102
}
330
421
100
AcDbVisualStyle
  2
JitterOff
 70
    20
 71
     2
 72
     2
 73
     0
 90
        0
 40
-0.6
 41
-30.0
 62
     5
 63
     7
 74
     1
 91
        4
 64
     7
 65
   257
 75
     1
175
     1
 42
1.0
 92
       10
 66
     7
 43
1.0
 76
     1
 77
     6
 78
     2
 67
     7
 79
     5
170
     0
171
     0
290
     0
174
     0
 93
        1
 44
0.0
173
     0
291
     1
 45
0.0
1001
ACAD
1000
AcDbSavedByObjectVersion
1070
     0
  0
VISUALSTYLE
  5
42F
102
{ACAD_XDICTIONARY
360
47E
102
}
102
{ACAD_REACTORS
330
421
102
}
330
421
100
AcDbVisualStyle
  2
Linepattern
 70
    14
 71
     2
 72
     2
 73
     0
 90
        0
 40
-0.6
 41
-30.0
 62
     5
 63
     7
 74
     1
 91
        4
 64
     7
 65
   257
 75
     7
175
     7
 42
1.0
 92
        8
 66
     7
 43
1.0
 76
     1
 77
     6
 78
     2
 67
     7
 79
     5
170
     0
171
     0
290
     0
174
     0
 93
        1
 44
0.0
173
     0
291
     1
 45
0.0
1001
ACAD
1000
AcDbSavedByObjectVersion
1070
     0
  0
VISUALSTYLE
  5
433
102
{ACAD_XDICTIONARY
360
486
102
}
102
{ACAD_REACTORS
330
421
102
}
330
421
100
AcDbVisualStyle
  2
OverhangOff
 70
    21
 71
     2
 72
     2
 73
     0
 90
        0
 40
-0.6
 41
-30.0
 62
     5
 63
     7
 74
     1
 91
        4
 64
     7
 65
   257
 75
     1
175
     1
 42
1.0
 92
        9
 66
     7
 43
1.0
 76
     1
 77
     6
 78
     2
 67
     7
 79
     5
170
     0
171
     0
290
     0
174
     0
 93
        1
 44
0.0
173
     0
291
     1
 45
0.0
1001
ACAD
1000
AcDbSavedByObjectVersion
1070
     0
  0
VISUALSTYLE
  5
42B
102
{ACAD_XDICTIONARY
360
476
102
}
102
{ACAD_REACTORS
330
421
102
}
330
421
100
AcDbVisualStyle
  2
Realistic
 70
     8
 71
     2
 72
     2
 73
     0
 90
        0
 40
-0.6
 41
-30.0
 62
     5
 63
     7
 74
     1
 91
        0
 64
     7
 65
   257
 75
     1
175
     1
 42
1.0
 92
        8
 66
     8
 43
1.0
 76
     1
 77
     6
 78
     2
 67
     7
 79
     5
170
     0
171
     0
290
     0
174
     0
 93
       13
 44
0.0
173
     0
291
     0
 45
0.0
1001
ACAD
1000
AcDbSavedByObjectVersion
1070
     0
  0
VISUALSTYLE
  5
42E
102
{ACAD_XDICTIONARY
360
47C
102
}
102
{ACAD_REACTORS
330
421
102
}
330
421
100
AcDbVisualStyle
  2
Thicken
 70
    13
 71
     2
 72
     2
 73
     0
 90
        0
 40
-0.6
 41
-30.0
 62
     5
 63
     7
 74
     1
 91
        4
 64
     7
 65
   257
 75
     1
175
     1
 42
1.0
 92
       12
 66
     7
 43
1.0
 76
     1
 77
     6
 78
     2
 67
     7
 79
     5
170
     0
171
     0
290
     0
174
     0
 93
        1
 44
0.0
173
     0
291
     1
 45
0.0
1001
ACAD
1000
AcDbSavedByObjectVersion
1070
     0
  0
DICTIONARYVAR
  5
452
102
{ACAD_REACTORS
330
3E3
102
}
330
3E3
100
DictionaryVariables
280
     0
  1
1:1
  0
DICTIONARYVAR
  5
451
102
{ACAD_REACTORS
330
3E3
102
}
330
3E3
100
DictionaryVariables
280
     0
  1
STANDARD
  0
DICTIONARYVAR
  5
3E4
102
{ACAD_REACTORS
330
3E3
102
}
330
3E3
100
DictionaryVariables
280
     0
  1
STANDARD
  0
DICTIONARYVAR
  5
406
102
{ACAD_REACTORS
330
3E3
102
}
330
3E3
100
DictionaryVariables
280
     0
  1
2
  0
DICTIONARYVAR
  5
405
102
{ACAD_REACTORS
330
3E3
102
}
330
3E3
100
DictionaryVariables
280
     0
  1
1
  0
DICTIONARYVAR
  5
454
102
{ACAD_REACTORS
330
3E3
102
}
330
3E3
100
DictionaryVariables
280
     0
  1
0
  0
DICTIONARYVAR
  5
407
102
{ACAD_REACTORS
330
3E3
102
}
330
3E3
100
DictionaryVariables
280
     0
  1

  0
DICTIONARYVAR
  5
453
102
{ACAD_REACTORS
330
3E3
102
}
330
3E3
100
DictionaryVariables
280
     0
  1
127
  0
DICTIONARYVAR
  5
455
102
{ACAD_REACTORS
330
3E3
102
}
330
3E3
100
DictionaryVariables
280
     0
  1
2
  0
XRECORD
  5
3E1
102
{ACAD_REACTORS
330
3E0
102
}
330
3E0
100
AcDbXrecord
280
     1
  0
DICTIONARY
  5
45B
330
22
100
AcDbDictionary
280
     1
281
     1
  3
ACAD_XREC_ROUNDTRIP
360
45C
  0
DICTIONARY
  5
45F
330
2A
100
AcDbDictionary
280
     1
281
     1
  3
ACAD_XREC_ROUNDTRIP
360
460
  0
DICTIONARY
  5
45D
330
26
100
AcDbDictionary
280
     1
281
     1
  3
ACAD_XREC_ROUNDTRIP
360
45E
  0
DICTIONARY
  5
412
330
411
100
AcDbDictionary
280
     1
281
     1
  3
ACAD_XREC_ROUNDTRIP
360
462
  3
BUMPTILE
360
414
  3
DIFFUSETILE
360
413
  3
OPACITYTILE
360
417
  3
REFLECTIONTILE
360
416
  3
REFRACTIONTILE
360
418
  3
SPECULARTILE
360
415
  0
DICTIONARY
  5
40A
330
409
100
AcDbDictionary
280
     1
281
     1
  3
ACAD_XREC_ROUNDTRIP
360
461
  3
BUMPTILE
360
40C
  3
DIFFUSETILE
360
40B
  3
OPACITYTILE
360
40F
  3
REFLECTIONTILE
360
40E
  3
REFRACTIONTILE
360
410
  3
SPECULARTILE
360
40D
  0
DICTIONARY
  5
41A
330
419
100
AcDbDictionary
280
     1
281
     1
  3
ACAD_XREC_ROUNDTRIP
360
463
  3
BUMPTILE
360
41C
  3
DIFFUSETILE
360
41B
  3
OPACITYTILE
360
41F
  3
REFLECTIONTILE
360
41E
  3
REFRACTIONTILE
360
420
  3
SPECULARTILE
360
41D
  0
DICTIONARY
  5
456
330
1E
100
AcDbDictionary
280
     1
281
     1
  3
ACAD_ROUNDTRIP_2008_TABLESTYLE_CELLSTYLEMAP
360
457
  3
ACAD_XREC_ROUNDTRIP
360
45A
  0
DICTIONARY
  5
46E
330
427
100
AcDbDictionary
280
     1
281
     1
  3
ACAD_XREC_ROUNDTRIP
360
46F
  0
DICTIONARY
  5
472
330
429
100
AcDbDictionary
280
     1
281
     1
  3
ACAD_XREC_ROUNDTRIP
360
473
  0
DICTIONARY
  5
470
330
428
100
AcDbDictionary
280
     1
281
     1
  3
ACAD_XREC_ROUNDTRIP
360
471
  0
DICTIONARY
  5
46C
330
426
100
AcDbDictionary
280
     1
281
     1
  3
ACAD_XREC_ROUNDTRIP
360
46D
  0
DICTIONARY
  5
47A
330
42D
100
AcDbDictionary
280
     1
281
     1
  3
ACAD_XREC_ROUNDTRIP
360
47B
  0
DICTIONARY
  5
482
330
431
100
AcDbDictionary
280
     1
281
     1
  3
ACAD_XREC_ROUNDTRIP
360
483
  0
DICTIONARY
  5
474
330
42A
100
AcDbDictionary
280
     1
281
     1
  3
ACAD_XREC_ROUNDTRIP
360
475
  0
DICTIONARY
  5
478
330
42C
100
AcDbDictionary
280
     1
281
     1
  3
ACAD_XREC_ROUNDTRIP
360
479
  0
DICTIONARY
  5
488
330
434
100
AcDbDictionary
280
     1
281
     1
  3
ACAD_XREC_ROUNDTRIP
360
489
  0
DICTIONARY
  5
480
330
430
100
AcDbDictionary
280
     1
281
     1
  3
ACAD_XREC_ROUNDTRIP
360
481
  0
DICTIONARY
  5
464
330
422
100
AcDbDictionary
280
     1
281
     1
  3
ACAD_XREC_ROUNDTRIP
360
465
  0
DICTIONARY
  5
466
330
423
100
AcDbDictionary
280
     1
281
     1
  3
ACAD_XREC_ROUNDTRIP
360
467
  0
DICTIONARY
  5
468
330
424
100
AcDbDictionary
280
     1
281
     1
  3
ACAD_XREC_ROUNDTRIP
360
469
  0
DICTIONARY
  5
46A
330
425
100
AcDbDictionary
280
     1
281
     1
  3
ACAD_XREC_ROUNDTRIP
360
46B
  0
DICTIONARY
  5
484
330
432
100
AcDbDictionary
280
     1
281
     1
  3
ACAD_XREC_ROUNDTRIP
360
485
  0
DICTIONARY
  5
47E
330
42F
100
AcDbDictionary
280
     1
281
     1
  3
ACAD_XREC_ROUNDTRIP
360
47F
  0
DICTIONARY
  5
486
330
433
100
AcDbDictionary
280
     1
281
     1
  3
ACAD_XREC_ROUNDTRIP
360
487
  0
DICTIONARY
  5
476
330
42B
100
AcDbDictionary
280
     1
281
     1
  3
ACAD_XREC_ROUNDTRIP
360
477
  0
DICTIONARY
  5
47C
330
42E
100
AcDbDictionary
280
     1
281
     1
  3
ACAD_XREC_ROUNDTRIP
360
47D
  0
XRECORD
  5
45C
102
{ACAD_REACTORS
330
45B
102
}
330
45B
100
AcDbXrecord
280
     1
102
SHADEPLOT
 70
     0
102
SHADEPLOTRESLEVEL
 70
     2
102
SHADEPLOTCUSTOMDPI
 70
   300
  0
XRECORD
  5
460
102
{ACAD_REACTORS
330
45F
102
}
330
45F
100
AcDbXrecord
280
     1
102
SHADEPLOT
 70
     0
102
SHADEPLOTRESLEVEL
 70
     2
102
SHADEPLOTCUSTOMDPI
 70
   300
  0
XRECORD
  5
45E
102
{ACAD_REACTORS
330
45D
102
}
330
45D
100
AcDbXrecord
280
     1
102
SHADEPLOT
 70
     0
102
SHADEPLOTRESLEVEL
 70
     2
102
SHADEPLOTCUSTOMDPI
 70
   300
  0
XRECORD
  5
462
102
{ACAD_REACTORS
330
412
102
}
330
412
100
AcDbXrecord
280
     1
102
MATERIAL
148
0.0
149
0.0
149
0.0
 93
        0
 94
      127
282
     0
 72
     0
 77
     0
171
     0
175
     0
179
     0
273
     0
  0
XRECORD
  5
414
102
{ACAD_REACTORS
330
412
102
}
330
412
100
AcDbXrecord
280
     1
270
     1
271
     1
  0
XRECORD
  5
413
102
{ACAD_REACTORS
330
412
102
}
330
412
100
AcDbXrecord
280
     1
270
     1
271
     1
  0
XRECORD
  5
417
102
{ACAD_REACTORS
330
412
102
}
330
412
100
AcDbXrecord
280
     1
270
     1
271
     1
  0
XRECORD
  5
416
102
{ACAD_REACTORS
330
412
102
}
330
412
100
AcDbXrecord
280
     1
270
     1
271
     1
  0
XRECORD
  5
418
102
{ACAD_REACTORS
330
412
102
}
330
412
100
AcDbXrecord
280
     1
270
     1
271
     1
  0
XRECORD
  5
415
102
{ACAD_REACTORS
330
412
102
}
330
412
100
AcDbXrecord
280
     1
270
     1
271
     1
  0
XRECORD
  5
461
102
{ACAD_REACTORS
330
40A
102
}
330
40A
100
AcDbXrecord
280
     1
102
MATERIAL
148
0.0
149
0.0
149
0.0
 93
        0
 94
      127
282
     0
 72
     0
 77
     0
171
     0
175
     0
179
     0
273
     0
  0
XRECORD
  5
40C
102
{ACAD_REACTORS
330
40A
102
}
330
40A
100
AcDbXrecord
280
     1
270
     1
271
     1
  0
XRECORD
  5
40B
102
{ACAD_REACTORS
330
40A
102
}
330
40A
100
AcDbXrecord
280
     1
270
     1
271
     1
  0
XRECORD
  5
40F
102
{ACAD_REACTORS
330
40A
102
}
330
40A
100
AcDbXrecord
280
     1
270
     1
271
     1
  0
XRECORD
  5
40E
102
{ACAD_REACTORS
330
40A
102
}
330
40A
100
AcDbXrecord
280
     1
270
     1
271
     1
  0
XRECORD
  5
410
102
{ACAD_REACTORS
330
40A
102
}
330
40A
100
AcDbXrecord
280
     1
270
     1
271
     1
  0
XRECORD
  5
40D
102
{ACAD_REACTORS
330
40A
102
}
330
40A
100
AcDbXrecord
280
     1
270
     1
271
     1
  0
XRECORD
  5
463
102
{ACAD_REACTORS
330
41A
102
}
330
41A
100
AcDbXrecord
280
     1
102
MATERIAL
148
0.0
149
0.0
149
0.0
 93
        0
 94
      127
282
     0
 72
     0
 77
     0
171
     0
175
     0
179
     0
273
     0
  0
XRECORD
  5
41C
102
{ACAD_REACTORS
330
41A
102
}
330
41A
100
AcDbXrecord
280
     1
270
     1
271
     1
  0
XRECORD
  5
41B
102
{ACAD_REACTORS
330
41A
102
}
330
41A
100
AcDbXrecord
280
     1
270
     1
271
     1
  0
XRECORD
  5
41F
102
{ACAD_REACTORS
330
41A
102
}
330
41A
100
AcDbXrecord
280
     1
270
     1
271
     1
  0
XRECORD
  5
41E
102
{ACAD_REACTORS
330
41A
102
}
330
41A
100
AcDbXrecord
280
     1
270
     1
271
     1
  0
XRECORD
  5
420
102
{ACAD_REACTORS
330
41A
102
}
330
41A
100
AcDbXrecord
280
     1
270
     1
271
     1
  0
XRECORD
  5
41D
102
{ACAD_REACTORS
330
41A
102
}
330
41A
100
AcDbXrecord
280
     1
270
     1
271
     1
  0
CELLSTYLEMAP
  5
457
102
{ACAD_REACTORS
330
456
102
}
330
456
100
AcDbCellStyleMap
 90
        3
300
CELLSTYLE
  1
TABLEFORMAT_BEGIN
 90
        5
170
     1
 91
        0
 92
    32768
 62
   257
 93
        1
300
CONTENTFORMAT
  1
CONTENTFORMAT_BEGIN
 90
        0
 91
        0
 92
        4
 93
        0
300

 40
0.0
140
1.0
 94
        5
 62
     0
340
11
144
6.0
309
CONTENTFORMAT_END
171
     1
301
MARGIN
  1
CELLMARGIN_BEGIN
 40
1.5
 40
1.5
 40
1.5
 40
1.5
 40
0.18
 40
0.18
309
CELLMARGIN_END
 94
        6
 95
        1
302
GRIDFORMAT
  1
GRIDFORMAT_BEGIN
 90
        0
 91
        1
 62
     0
 92
       -2
340
0
 93
        0
 40
0.045
309
GRIDFORMAT_END
 95
        2
302
GRIDFORMAT
  1
GRIDFORMAT_BEGIN
 90
        0
 91
        1
 62
     0
 92
       -2
340
0
 93
        0
 40
0.045
309
GRIDFORMAT_END
 95
        4
302
GRIDFORMAT
  1
GRIDFORMAT_BEGIN
 90
        0
 91
        1
 62
     0
 92
       -2
340
0
 93
        0
 40
0.045
309
GRIDFORMAT_END
 95
        8
302
GRIDFORMAT
  1
GRIDFORMAT_BEGIN
 90
        0
 91
        1
 62
     0
 92
       -2
340
0
 93
        0
 40
0.045
309
GRIDFORMAT_END
 95
       16
302
GRIDFORMAT
  1
GRIDFORMAT_BEGIN
 90
        0
 91
        1
 62
     0
 92
       -2
340
0
 93
        0
 40
0.045
309
GRIDFORMAT_END
 95
       32
302
GRIDFORMAT
  1
GRIDFORMAT_BEGIN
 90
        0
 91
        1
 62
     0
 92
       -2
340
0
 93
        0
 40
0.045
309
GRIDFORMAT_END
309
TABLEFORMAT_END
  1
CELLSTYLE_BEGIN
 90
        1
 91
        1
300
_TITLE
309
CELLSTYLE_END
300
CELLSTYLE
  1
TABLEFORMAT_BEGIN
 90
        5
170
     1
 91
        0
 92
        0
 62
   257
 93
        1
300
CONTENTFORMAT
  1
CONTENTFORMAT_BEGIN
 90
        0
 91
        0
 92
        4
 93
        0
300

 40
0.0
140
1.0
 94
        5
 62
     0
340
11
144
4.5
309
CONTENTFORMAT_END
171
     1
301
MARGIN
  1
CELLMARGIN_BEGIN
 40
1.5
 40
1.5
 40
1.5
 40
1.5
 40
0.18
 40
0.18
309
CELLMARGIN_END
 94
        6
 95
        1
302
GRIDFORMAT
  1
GRIDFORMAT_BEGIN
 90
        0
 91
        1
 62
     0
 92
       -2
340
0
 93
        0
 40
0.045
309
GRIDFORMAT_END
 95
        2
302
GRIDFORMAT
  1
GRIDFORMAT_BEGIN
 90
        0
 91
        1
 62
     0
 92
       -2
340
0
 93
        0
 40
0.045
309
GRIDFORMAT_END
 95
        4
302
GRIDFORMAT
  1
GRIDFORMAT_BEGIN
 90
        0
 91
        1
 62
     0
 92
       -2
340
0
 93
        0
 40
0.045
309
GRIDFORMAT_END
 95
        8
302
GRIDFORMAT
  1
GRIDFORMAT_BEGIN
 90
        0
 91
        1
 62
     0
 92
       -2
340
0
 93
        0
 40
0.045
309
GRIDFORMAT_END
 95
       16
302
GRIDFORMAT
  1
GRIDFORMAT_BEGIN
 90
        0
 91
        1
 62
     0
 92
       -2
340
0
 93
        0
 40
0.045
309
GRIDFORMAT_END
 95
       32
302
GRIDFORMAT
  1
GRIDFORMAT_BEGIN
 90
        0
 91
        1
 62
     0
 92
       -2
340
0
 93
        0
 40
0.045
309
GRIDFORMAT_END
309
TABLEFORMAT_END
  1
CELLSTYLE_BEGIN
 90
        2
 91
        1
300
_HEADER
309
CELLSTYLE_END
300
CELLSTYLE
  1
TABLEFORMAT_BEGIN
 90
        5
170
     1
 91
        0
 92
        0
 62
   257
 93
        1
300
CONTENTFORMAT
  1
CONTENTFORMAT_BEGIN
 90
        0
 91
        0
 92
        4
 93
        0
300

 40
0.0
140
1.0
 94
        2
 62
     0
340
11
144
4.5
309
CONTENTFORMAT_END
171
     1
301
MARGIN
  1
CELLMARGIN_BEGIN
 40
1.5
 40
1.5
 40
1.5
 40
1.5
 40
0.18
 40
0.18
309
CELLMARGIN_END
 94
        6
 95
        1
302
GRIDFORMAT
  1
GRIDFORMAT_BEGIN
 90
        0
 91
        1
 62
     0
 92
       -2
340
0
 93
        0
 40
0.045
309
GRIDFORMAT_END
 95
        2
302
GRIDFORMAT
  1
GRIDFORMAT_BEGIN
 90
        0
 91
        1
 62
     0
 92
       -2
340
0
 93
        0
 40
0.045
309
GRIDFORMAT_END
 95
        4
302
GRIDFORMAT
  1
GRIDFORMAT_BEGIN
 90
        0
 91
        1
 62
     0
 92
       -2
340
0
 93
        0
 40
0.045
309
GRIDFORMAT_END
 95
        8
302
GRIDFORMAT
  1
GRIDFORMAT_BEGIN
 90
        0
 91
        1
 62
     0
 92
       -2
340
0
 93
        0
 40
0.045
309
GRIDFORMAT_END
 95
       16
302
GRIDFORMAT
  1
GRIDFORMAT_BEGIN
 90
        0
 91
        1
 62
     0
 92
       -2
340
0
 93
        0
 40
0.045
309
GRIDFORMAT_END
 95
       32
302
GRIDFORMAT
  1
GRIDFORMAT_BEGIN
 90
        0
 91
        1
 62
     0
 92
       -2
340
0
 93
        0
 40
0.045
309
GRIDFORMAT_END
309
TABLEFORMAT_END
  1
CELLSTYLE_BEGIN
 90
        3
 91
        2
300
_DATA
309
CELLSTYLE_END
  0
XRECORD
  5
45A
102
{ACAD_REACTORS
330
456
102
}
330
456
100
AcDbXrecord
280
     1
102
ACAD_ROUNDTRIP_PRE2007_TABLESTYLE
 90
        4
 91
        0
  1

 92
        4
 93
        0
  2

 94
        4
 95
        0
  3

  0
XRECORD
  5
46F
102
{ACAD_REACTORS
330
46E
102
}
330
46E
100
AcDbXrecord
280
     1
102
RTVSPropertyOp0
 70
     1
102
RTVSPropertyOp1
 70
     1
102
RTVSPropertyOp2
 70
     1
102
RTVSPropertyOp3
 70
     1
102
RTVSPropertyOp4
 70
     1
102
RTVSPropertyOp5
 70
     1
102
RTVSPropertyOp6
 70
     1
102
RTVSPropertyOp7
 70
     1
102
RTVSPropertyOp8
 70
     1
102
RTVSPropertyOp9
 70
     1
102
RTVSPropertyOp10
 70
     1
102
RTVSPropertyOp11
 70
     1
102
RTVSPropertyOp12
 70
     1
102
RTVSPropertyOp13
 70
     1
102
RTVSPropertyOp14
 70
     1
102
RTVSPropertyOp15
 70
     1
102
RTVSPropertyOp16
 70
     1
102
RTVSPropertyOp17
 70
     1
102
RTVSPropertyOp18
 70
     1
102
RTVSPropertyOp19
 70
     1
102
RTVSPropertyOp20
 70
     1
102
RTVSPropertyOp21
 70
     1
102
RTVSPropertyOp22
 70
     1
102
RTVSPropertyOp23
 70
     1
102
RTVSPropertyOp24
 70
     1
102
RTVSPropertyOp25
 70
     1
102
RTVSPropertyOp26
 70
     1
102
RTVSPropertyOp27
 70
     1
  0
XRECORD
  5
473
102
{ACAD_REACTORS
330
472
102
}
330
472
100
AcDbXrecord
280
     1
102
RTVSPropertyOp0
 70
     1
102
RTVSPropertyOp1
 70
     1
102
RTVSPropertyOp2
 70
     1
102
RTVSPropertyOp3
 70
     1
102
RTVSPropertyOp4
 70
     1
102
RTVSPropertyOp5
 70
     1
102
RTVSPropertyOp6
 70
     1
102
RTVSPropertyOp7
 70
     1
102
RTVSPropertyOp8
 70
     1
102
RTVSPropertyOp9
 70
     1
102
RTVSPropertyOp10
 70
     1
102
RTVSPropertyOp11
 70
     1
102
RTVSPropertyOp12
 70
     1
102
RTVSPropertyOp13
 70
     1
102
RTVSPropertyOp14
 70
     1
102
RTVSPropertyOp15
 70
     1
102
RTVSPropertyOp16
 70
     1
102
RTVSPropertyOp17
 70
     1
102
RTVSPropertyOp18
 70
     1
102
RTVSPropertyOp19
 70
     1
102
RTVSPropertyOp20
 70
     1
102
RTVSPropertyOp21
 70
     1
102
RTVSPropertyOp22
 70
     1
102
RTVSPropertyOp23
 70
     1
102
RTVSPropertyOp24
 70
     1
102
RTVSPropertyOp25
 70
     1
102
RTVSPropertyOp26
 70
     1
102
RTVSPropertyOp27
 70
     1
  0
XRECORD
  5
471
102
{ACAD_REACTORS
330
470
102
}
330
470
100
AcDbXrecord
280
     1
102
RTVSPropertyOp0
 70
     1
102
RTVSPropertyOp1
 70
     1
102
RTVSPropertyOp2
 70
     1
102
RTVSPropertyOp3
 70
     1
102
RTVSPropertyOp4
 70
     1
102
RTVSPropertyOp5
 70
     1
102
RTVSPropertyOp6
 70
     1
102
RTVSPropertyOp7
 70
     1
102
RTVSPropertyOp8
 70
     1
102
RTVSPropertyOp9
 70
     1
102
RTVSPropertyOp10
 70
     1
102
RTVSPropertyOp11
 70
     1
102
RTVSPropertyOp12
 70
     1
102
RTVSPropertyOp13
 70
     1
102
RTVSPropertyOp14
 70
     1
102
RTVSPropertyOp15
 70
     1
102
RTVSPropertyOp16
 70
     1
102
RTVSPropertyOp17
 70
     1
102
RTVSPropertyOp18
 70
     1
102
RTVSPropertyOp19
 70
     1
102
RTVSPropertyOp20
 70
     1
102
RTVSPropertyOp21
 70
     1
102
RTVSPropertyOp22
 70
     1
102
RTVSPropertyOp23
 70
     1
102
RTVSPropertyOp24
 70
     1
102
RTVSPropertyOp25
 70
     1
102
RTVSPropertyOp26
 70
     1
102
RTVSPropertyOp27
 70
     1
  0
XRECORD
  5
46D
102
{ACAD_REACTORS
330
46C
102
}
330
46C
100
AcDbXrecord
280
     1
102
RTVSPropertyOp0
 70
     1
102
RTVSPropertyOp1
 70
     1
102
RTVSPropertyOp2
 70
     1
102
RTVSPropertyOp3
 70
     1
102
RTVSPropertyOp4
 70
     1
102
RTVSPropertyOp5
 70
     1
102
RTVSPropertyOp6
 70
     1
102
RTVSPropertyOp7
 70
     1
102
RTVSPropertyOp8
 70
     1
102
RTVSPropertyOp9
 70
     1
102
RTVSPropertyOp10
 70
     1
102
RTVSPropertyOp11
 70
     1
102
RTVSPropertyOp12
 70
     1
102
RTVSPropertyOp13
 70
     1
102
RTVSPropertyOp14
 70
     1
102
RTVSPropertyOp15
 70
     1
102
RTVSPropertyOp16
 70
     1
102
RTVSPropertyOp17
 70
     1
102
RTVSPropertyOp18
 70
     1
102
RTVSPropertyOp19
 70
     1
102
RTVSPropertyOp20
 70
     1
102
RTVSPropertyOp21
 70
     1
102
RTVSPropertyOp22
 70
     1
102
RTVSPropertyOp23
 70
     1
102
RTVSPropertyOp24
 70
     1
102
RTVSPropertyOp25
 70
     1
102
RTVSPropertyOp26
 70
     1
102
RTVSPropertyOp27
 70
     1
  0
XRECORD
  5
47B
102
{ACAD_REACTORS
330
47A
102
}
330
47A
100
AcDbXrecord
280
     1
102
RTVSPropertyOp0
 70
     1
102
RTVSPropertyOp1
 70
     1
102
RTVSPropertyOp2
 70
     1
102
RTVSPropertyOp3
 70
     1
102
RTVSPropertyOp4
 70
     1
102
RTVSPropertyOp5
 70
     1
102
RTVSPropertyOp6
 70
     1
102
RTVSPropertyOp7
 70
     1
102
RTVSPropertyOp8
 70
     1
102
RTVSPropertyOp9
 70
     1
102
RTVSPropertyOp10
 70
     1
102
RTVSPropertyOp11
 70
     1
102
RTVSPropertyOp12
 70
     1
102
RTVSPropertyOp13
 70
     1
102
RTVSPropertyOp14
 70
     1
102
RTVSPropertyOp15
 70
     1
102
RTVSPropertyOp16
 70
     1
102
RTVSPropertyOp17
 70
     1
102
RTVSPropertyOp18
 70
     1
102
RTVSPropertyOp19
 70
     1
102
RTVSPropertyOp20
 70
     1
102
RTVSPropertyOp21
 70
     1
102
RTVSPropertyOp22
 70
     1
102
RTVSPropertyOp23
 70
     1
102
RTVSPropertyOp24
 70
     1
102
RTVSPropertyOp25
 70
     1
102
RTVSPropertyOp26
 70
     1
102
RTVSPropertyOp27
 70
     1
  0
XRECORD
  5
483
102
{ACAD_REACTORS
330
482
102
}
330
482
100
AcDbXrecord
280
     1
102
RTVSPropertyOp0
 70
     1
102
RTVSPropertyOp1
 70
     1
102
RTVSPropertyOp2
 70
     1
102
RTVSPropertyOp3
 70
     1
102
RTVSPropertyOp4
 70
     1
102
RTVSPropertyOp5
 70
     1
102
RTVSPropertyOp6
 70
     1
102
RTVSPropertyOp7
 70
     1
102
RTVSPropertyOp8
 70
     1
102
RTVSPropertyOp9
 70
     1
102
RTVSPropertyOp10
 70
     1
102
RTVSPropertyOp11
 70
     1
102
RTVSPropertyOp12
 70
     1
102
RTVSPropertyOp13
 70
     1
102
RTVSPropertyOp14
 70
     1
102
RTVSPropertyOp15
 70
     1
102
RTVSPropertyOp16
 70
     1
102
RTVSPropertyOp17
 70
     1
102
RTVSPropertyOp18
 70
     1
102
RTVSPropertyOp19
 70
     1
102
RTVSPropertyOp20
 70
     1
102
RTVSPropertyOp21
 70
     1
102
RTVSPropertyOp22
 70
     1
102
RTVSPropertyOp23
 70
     1
102
RTVSPropertyOp24
 70
     1
102
RTVSPropertyOp25
 70
     1
102
RTVSPropertyOp26
 70
     1
102
RTVSPropertyOp27
 70
     1
  0
XRECORD
  5
475
102
{ACAD_REACTORS
330
474
102
}
330
474
100
AcDbXrecord
280
     1
102
RTVSPropertyOp0
 70
     1
102
RTVSPropertyOp1
 70
     1
102
RTVSPropertyOp2
 70
     1
102
RTVSPropertyOp3
 70
     1
102
RTVSPropertyOp4
 70
     1
102
RTVSPropertyOp5
 70
     1
102
RTVSPropertyOp6
 70
     1
102
RTVSPropertyOp7
 70
     1
102
RTVSPropertyOp8
 70
     1
102
RTVSPropertyOp9
 70
     1
102
RTVSPropertyOp10
 70
     1
102
RTVSPropertyOp11
 70
     1
102
RTVSPropertyOp12
 70
     1
102
RTVSPropertyOp13
 70
     1
102
RTVSPropertyOp14
 70
     1
102
RTVSPropertyOp15
 70
     1
102
RTVSPropertyOp16
 70
     1
102
RTVSPropertyOp17
 70
     1
102
RTVSPropertyOp18
 70
     1
102
RTVSPropertyOp19
 70
     1
102
RTVSPropertyOp20
 70
     1
102
RTVSPropertyOp21
 70
     1
102
RTVSPropertyOp22
 70
     1
102
RTVSPropertyOp23
 70
     1
102
RTVSPropertyOp24
 70
     1
102
RTVSPropertyOp25
 70
     1
102
RTVSPropertyOp26
 70
     1
102
RTVSPropertyOp27
 70
     1
  0
XRECORD
  5
479
102
{ACAD_REACTORS
330
478
102
}
330
478
100
AcDbXrecord
280
     1
102
RTVSPropertyOp0
 70
     1
102
RTVSPropertyOp1
 70
     1
102
RTVSPropertyOp2
 70
     1
102
RTVSPropertyOp3
 70
     1
102
RTVSPropertyOp4
 70
     1
102
RTVSPropertyOp5
 70
     1
102
RTVSPropertyOp6
 70
     1
102
RTVSPropertyOp7
 70
     1
102
RTVSPropertyOp8
 70
     1
102
RTVSPropertyOp9
 70
     1
102
RTVSPropertyOp10
 70
     1
102
RTVSPropertyOp11
 70
     1
102
RTVSPropertyOp12
 70
     1
102
RTVSPropertyOp13
 70
     1
102
RTVSPropertyOp14
 70
     1
102
RTVSPropertyOp15
 70
     1
102
RTVSPropertyOp16
 70
     1
102
RTVSPropertyOp17
 70
     1
102
RTVSPropertyOp18
 70
     1
102
RTVSPropertyOp19
 70
     1
102
RTVSPropertyOp20
 70
     1
102
RTVSPropertyOp21
 70
     1
102
RTVSPropertyOp22
 70
     1
102
RTVSPropertyOp23
 70
     1
102
RTVSPropertyOp24
 70
     1
102
RTVSPropertyOp25
 70
     1
102
RTVSPropertyOp26
 70
     1
102
RTVSPropertyOp27
 70
     1
  0
XRECORD
  5
489
102
{ACAD_REACTORS
330
488
102
}
330
488
100
AcDbXrecord
280
     1
102
RTVSPropertyOp0
 70
     0
102
RTVSPropertyOp1
 70
     0
102
RTVSPropertyOp2
 70
     0
102
RTVSPropertyOp3
 70
     0
102
RTVSPropertyOp4
 70
     0
102
RTVSPropertyOp5
 70
     0
102
RTVSPropertyOp6
 70
     0
102
RTVSPropertyOp7
 70
     0
102
RTVSPropertyOp8
 70
     0
102
RTVSPropertyOp9
 70
     0
102
RTVSPropertyOp10
 70
     0
102
RTVSPropertyOp11
 70
     0
102
RTVSPropertyOp12
 70
     0
102
RTVSPropertyOp13
 70
     0
102
RTVSPropertyOp14
 70
     2
102
RTVSPropertyOp15
 70
     0
102
RTVSPropertyOp16
 70
     0
102
RTVSPropertyOp17
 70
     0
102
RTVSPropertyOp18
 70
     0
102
RTVSPropertyOp19
 70
     0
102
RTVSPropertyOp20
 70
     0
102
RTVSPropertyOp21
 70
     0
102
RTVSPropertyOp22
 70
     0
102
RTVSPropertyOp23
 70
     0
102
RTVSPropertyOp24
 70
     0
102
RTVSPropertyOp25
 70
     0
102
RTVSPropertyOp26
 70
     0
102
RTVSPropertyOp27
 70
     0
  0
XRECORD
  5
481
102
{ACAD_REACTORS
330
480
102
}
330
480
100
AcDbXrecord
280
     1
102
RTVSPropertyOp0
 70
     1
102
RTVSPropertyOp1
 70
     1
102
RTVSPropertyOp2
 70
     1
102
RTVSPropertyOp3
 70
     1
102
RTVSPropertyOp4
 70
     1
102
RTVSPropertyOp5
 70
     1
102
RTVSPropertyOp6
 70
     1
102
RTVSPropertyOp7
 70
     1
102
RTVSPropertyOp8
 70
     1
102
RTVSPropertyOp9
 70
     1
102
RTVSPropertyOp10
 70
     1
102
RTVSPropertyOp11
 70
     1
102
RTVSPropertyOp12
 70
     1
102
RTVSPropertyOp13
 70
     1
102
RTVSPropertyOp14
 70
     1
102
RTVSPropertyOp15
 70
     1
102
RTVSPropertyOp16
 70
     1
102
RTVSPropertyOp17
 70
     1
102
RTVSPropertyOp18
 70
     1
102
RTVSPropertyOp19
 70
     1
102
RTVSPropertyOp20
 70
     1
102
RTVSPropertyOp21
 70
     1
102
RTVSPropertyOp22
 70
     1
102
RTVSPropertyOp23
 70
     1
102
RTVSPropertyOp24
 70
     1
102
RTVSPropertyOp25
 70
     1
102
RTVSPropertyOp26
 70
     1
102
RTVSPropertyOp27
 70
     1
  0
XRECORD
  5
465
102
{ACAD_REACTORS
330
464
102
}
330
464
100
AcDbXrecord
280
     1
102
RTVSPropertyOp0
 70
     1
102
RTVSPropertyOp1
 70
     1
102
RTVSPropertyOp2
 70
     1
102
RTVSPropertyOp3
 70
     1
102
RTVSPropertyOp4
 70
     1
102
RTVSPropertyOp5
 70
     1
102
RTVSPropertyOp6
 70
     1
102
RTVSPropertyOp7
 70
     1
102
RTVSPropertyOp8
 70
     1
102
RTVSPropertyOp9
 70
     1
102
RTVSPropertyOp10
 70
     1
102
RTVSPropertyOp11
 70
     1
102
RTVSPropertyOp12
 70
     1
102
RTVSPropertyOp13
 70
     1
102
RTVSPropertyOp14
 70
     1
102
RTVSPropertyOp15
 70
     1
102
RTVSPropertyOp16
 70
     1
102
RTVSPropertyOp17
 70
     1
102
RTVSPropertyOp18
 70
     1
102
RTVSPropertyOp19
 70
     1
102
RTVSPropertyOp20
 70
     1
102
RTVSPropertyOp21
 70
     1
102
RTVSPropertyOp22
 70
     1
102
RTVSPropertyOp23
 70
     1
102
RTVSPropertyOp24
 70
     1
102
RTVSPropertyOp25
 70
     1
102
RTVSPropertyOp26
 70
     1
102
RTVSPropertyOp27
 70
     1
  0
XRECORD
  5
467
102
{ACAD_REACTORS
330
466
102
}
330
466
100
AcDbXrecord
280
     1
102
RTVSPropertyOp0
 70
     1
102
RTVSPropertyOp1
 70
     1
102
RTVSPropertyOp2
 70
     1
102
RTVSPropertyOp3
 70
     1
102
RTVSPropertyOp4
 70
     1
102
RTVSPropertyOp5
 70
     1
102
RTVSPropertyOp6
 70
     1
102
RTVSPropertyOp7
 70
     1
102
RTVSPropertyOp8
 70
     1
102
RTVSPropertyOp9
 70
     1
102
RTVSPropertyOp10
 70
     1
102
RTVSPropertyOp11
 70
     1
102
RTVSPropertyOp12
 70
     1
102
RTVSPropertyOp13
 70
     1
102
RTVSPropertyOp14
 70
     1
102
RTVSPropertyOp15
 70
     1
102
RTVSPropertyOp16
 70
     1
102
RTVSPropertyOp17
 70
     1
102
RTVSPropertyOp18
 70
     1
102
RTVSPropertyOp19
 70
     1
102
RTVSPropertyOp20
 70
     1
102
RTVSPropertyOp21
 70
     1
102
RTVSPropertyOp22
 70
     1
102
RTVSPropertyOp23
 70
     1
102
RTVSPropertyOp24
 70
     1
102
RTVSPropertyOp25
 70
     1
102
RTVSPropertyOp26
 70
     1
102
RTVSPropertyOp27
 70
     1
  0
XRECORD
  5
469
102
{ACAD_REACTORS
330
468
102
}
330
468
100
AcDbXrecord
280
     1
102
RTVSPropertyOp0
 70
     1
102
RTVSPropertyOp1
 70
     1
102
RTVSPropertyOp2
 70
     1
102
RTVSPropertyOp3
 70
     1
102
RTVSPropertyOp4
 70
     1
102
RTVSPropertyOp5
 70
     1
102
RTVSPropertyOp6
 70
     1
102
RTVSPropertyOp7
 70
     1
102
RTVSPropertyOp8
 70
     1
102
RTVSPropertyOp9
 70
     1
102
RTVSPropertyOp10
 70
     1
102
RTVSPropertyOp11
 70
     1
102
RTVSPropertyOp12
 70
     1
102
RTVSPropertyOp13
 70
     1
102
RTVSPropertyOp14
 70
     1
102
RTVSPropertyOp15
 70
     1
102
RTVSPropertyOp16
 70
     1
102
RTVSPropertyOp17
 70
     1
102
RTVSPropertyOp18
 70
     1
102
RTVSPropertyOp19
 70
     1
102
RTVSPropertyOp20
 70
     1
102
RTVSPropertyOp21
 70
     1
102
RTVSPropertyOp22
 70
     1
102
RTVSPropertyOp23
 70
     1
102
RTVSPropertyOp24
 70
     1
102
RTVSPropertyOp25
 70
     1
102
RTVSPropertyOp26
 70
     1
102
RTVSPropertyOp27
 70
     1
  0
XRECORD
  5
46B
102
{ACAD_REACTORS
330
46A
102
}
330
46A
100
AcDbXrecord
280
     1
102
RTVSPropertyOp0
 70
     1
102
RTVSPropertyOp1
 70
     1
102
RTVSPropertyOp2
 70
     1
102
RTVSPropertyOp3
 70
     1
102
RTVSPropertyOp4
 70
     1
102
RTVSPropertyOp5
 70
     1
102
RTVSPropertyOp6
 70
     1
102
RTVSPropertyOp7
 70
     1
102
RTVSPropertyOp8
 70
     1
102
RTVSPropertyOp9
 70
     1
102
RTVSPropertyOp10
 70
     1
102
RTVSPropertyOp11
 70
     1
102
RTVSPropertyOp12
 70
     1
102
RTVSPropertyOp13
 70
     1
102
RTVSPropertyOp14
 70
     1
102
RTVSPropertyOp15
 70
     1
102
RTVSPropertyOp16
 70
     1
102
RTVSPropertyOp17
 70
     1
102
RTVSPropertyOp18
 70
     1
102
RTVSPropertyOp19
 70
     1
102
RTVSPropertyOp20
 70
     1
102
RTVSPropertyOp21
 70
     1
102
RTVSPropertyOp22
 70
     1
102
RTVSPropertyOp23
 70
     1
102
RTVSPropertyOp24
 70
     1
102
RTVSPropertyOp25
 70
     1
102
RTVSPropertyOp26
 70
     1
102
RTVSPropertyOp27
 70
     1
  0
XRECORD
  5
485
102
{ACAD_REACTORS
330
484
102
}
330
484
100
AcDbXrecord
280
     1
102
RTVSPropertyOp0
 70
     0
102
RTVSPropertyOp1
 70
     0
102
RTVSPropertyOp2
 70
     0
102
RTVSPropertyOp3
 70
     0
102
RTVSPropertyOp4
 70
     0
102
RTVSPropertyOp5
 70
     0
102
RTVSPropertyOp6
 70
     0
102
RTVSPropertyOp7
 70
     0
102
RTVSPropertyOp8
 70
     0
102
RTVSPropertyOp9
 70
     0
102
RTVSPropertyOp10
 70
     0
102
RTVSPropertyOp11
 70
     0
102
RTVSPropertyOp12
 70
     0
102
RTVSPropertyOp13
 70
     0
102
RTVSPropertyOp14
 70
     2
102
RTVSPropertyOp15
 70
     0
102
RTVSPropertyOp16
 70
     0
102
RTVSPropertyOp17
 70
     0
102
RTVSPropertyOp18
 70
     0
102
RTVSPropertyOp19
 70
     0
102
RTVSPropertyOp20
 70
     0
102
RTVSPropertyOp21
 70
     0
102
RTVSPropertyOp22
 70
     0
102
RTVSPropertyOp23
 70
     0
102
RTVSPropertyOp24
 70
     0
102
RTVSPropertyOp25
 70
     0
102
RTVSPropertyOp26
 70
     0
102
RTVSPropertyOp27
 70
     0
  0
XRECORD
  5
47F
102
{ACAD_REACTORS
330
47E
102
}
330
47E
100
AcDbXrecord
280
     1
102
RTVSPropertyOp0
 70
     1
102
RTVSPropertyOp1
 70
     1
102
RTVSPropertyOp2
 70
     1
102
RTVSPropertyOp3
 70
     1
102
RTVSPropertyOp4
 70
     1
102
RTVSPropertyOp5
 70
     1
102
RTVSPropertyOp6
 70
     1
102
RTVSPropertyOp7
 70
     1
102
RTVSPropertyOp8
 70
     1
102
RTVSPropertyOp9
 70
     1
102
RTVSPropertyOp10
 70
     1
102
RTVSPropertyOp11
 70
     1
102
RTVSPropertyOp12
 70
     1
102
RTVSPropertyOp13
 70
     1
102
RTVSPropertyOp14
 70
     1
102
RTVSPropertyOp15
 70
     1
102
RTVSPropertyOp16
 70
     1
102
RTVSPropertyOp17
 70
     1
102
RTVSPropertyOp18
 70
     1
102
RTVSPropertyOp19
 70
     1
102
RTVSPropertyOp20
 70
     1
102
RTVSPropertyOp21
 70
     1
102
RTVSPropertyOp22
 70
     1
102
RTVSPropertyOp23
 70
     1
102
RTVSPropertyOp24
 70
     1
102
RTVSPropertyOp25
 70
     1
102
RTVSPropertyOp26
 70
     1
102
RTVSPropertyOp27
 70
     1
  0
XRECORD
  5
487
102
{ACAD_REACTORS
330
486
102
}
330
486
100
AcDbXrecord
280
     1
102
RTVSPropertyOp0
 70
     0
102
RTVSPropertyOp1
 70
     0
102
RTVSPropertyOp2
 70
     0
102
RTVSPropertyOp3
 70
     0
102
RTVSPropertyOp4
 70
     0
102
RTVSPropertyOp5
 70
     0
102
RTVSPropertyOp6
 70
     0
102
RTVSPropertyOp7
 70
     0
102
RTVSPropertyOp8
 70
     0
102
RTVSPropertyOp9
 70
     0
102
RTVSPropertyOp10
 70
     0
102
RTVSPropertyOp11
 70
     0
102
RTVSPropertyOp12
 70
     0
102
RTVSPropertyOp13
 70
     0
102
RTVSPropertyOp14
 70
     2
102
RTVSPropertyOp15
 70
     0
102
RTVSPropertyOp16
 70
     0
102
RTVSPropertyOp17
 70
     0
102
RTVSPropertyOp18
 70
     0
102
RTVSPropertyOp19
 70
     0
102
RTVSPropertyOp20
 70
     0
102
RTVSPropertyOp21
 70
     0
102
RTVSPropertyOp22
 70
     0
102
RTVSPropertyOp23
 70
     0
102
RTVSPropertyOp24
 70
     0
102
RTVSPropertyOp25
 70
     0
102
RTVSPropertyOp26
 70
     0
102
RTVSPropertyOp27
 70
     0
  0
XRECORD
  5
477
102
{ACAD_REACTORS
330
476
102
}
330
476
100
AcDbXrecord
280
     1
102
RTVSPropertyOp0
 70
     1
102
RTVSPropertyOp1
 70
     1
102
RTVSPropertyOp2
 70
     1
102
RTVSPropertyOp3
 70
     1
102
RTVSPropertyOp4
 70
     1
102
RTVSPropertyOp5
 70
     1
102
RTVSPropertyOp6
 70
     1
102
RTVSPropertyOp7
 70
     1
102
RTVSPropertyOp8
 70
     1
102
RTVSPropertyOp9
 70
     1
102
RTVSPropertyOp10
 70
     1
102
RTVSPropertyOp11
 70
     1
102
RTVSPropertyOp12
 70
     1
102
RTVSPropertyOp13
 70
     1
102
RTVSPropertyOp14
 70
     1
102
RTVSPropertyOp15
 70
     1
102
RTVSPropertyOp16
 70
     1
102
RTVSPropertyOp17
 70
     1
102
RTVSPropertyOp18
 70
     1
102
RTVSPropertyOp19
 70
     1
102
RTVSPropertyOp20
 70
     1
102
RTVSPropertyOp21
 70
     1
102
RTVSPropertyOp22
 70
     1
102
RTVSPropertyOp23
 70
     1
102
RTVSPropertyOp24
 70
     1
102
RTVSPropertyOp25
 70
     1
102
RTVSPropertyOp26
 70
     1
102
RTVSPropertyOp27
 70
     1
  0
XRECORD
  5
47D
102
{ACAD_REACTORS
330
47C
102
}
330
47C
100
AcDbXrecord
280
     1
102
RTVSPropertyOp0
 70
     1
102
RTVSPropertyOp1
 70
     1
102
RTVSPropertyOp2
 70
     1
102
RTVSPropertyOp3
 70
     1
102
RTVSPropertyOp4
 70
     1
102
RTVSPropertyOp5
 70
     1
102
RTVSPropertyOp6
 70
     1
102
RTVSPropertyOp7
 70
     1
102
RTVSPropertyOp8
 70
     1
102
RTVSPropertyOp9
 70
     1
102
RTVSPropertyOp10
 70
     1
102
RTVSPropertyOp11
 70
     1
102
RTVSPropertyOp12
 70
     1
102
RTVSPropertyOp13
 70
     1
102
RTVSPropertyOp14
 70
     1
102
RTVSPropertyOp15
 70
     1
102
RTVSPropertyOp16
 70
     1
102
RTVSPropertyOp17
 70
     1
102
RTVSPropertyOp18
 70
     1
102
RTVSPropertyOp19
 70
     1
102
RTVSPropertyOp20
 70
     1
102
RTVSPropertyOp21
 70
     1
102
RTVSPropertyOp22
 70
     1
102
RTVSPropertyOp23
 70
     1
102
RTVSPropertyOp24
 70
     1
102
RTVSPropertyOp25
 70
     1
102
RTVSPropertyOp26
 70
     1
102
RTVSPropertyOp27
 70
     1
  0
ENDSEC
  0
EOF
