  0
SECTION
  2
HEADER
  9
$ACADVER
  1
AC1015
  9
$ACADMAINTVER
 70
    20
  9
$DWGCODEPAGE
  3
ANSI_1252
  9
$INSBASE
 10
0.0
 20
0.0
 30
0.0
  9
$EXTMIN
 10
1824.159414537118
 20
1266.453239623876
 30
-0.0000000067693251
  9
$EXTMAX
 10
1826.605945844908
 20
1267.027366999956
 30
0.0000000067693251
  9
$LIMMIN
 10
0.0
 20
0.0
  9
$LIMMAX
 10
420.0
 20
297.0
  9
$ORTHOMODE
 70
     1
  9
$REGENMODE
 70
     1
  9
$FILLMODE
 70
     1
  9
$QTEXTMODE
 70
     0
  9
$MIRRTEXT
 70
     0
  9
$LTSCALE
 40
1.0
  9
$ATTMODE
 70
     1
  9
$TEXTSIZE
 40
2.5
  9
$TRACEWID
 40
1.0
  9
$TEXTSTYLE
  7
Standard
  9
$CLAYER
  8
0
  9
$CELTYPE
  6
ByLayer
  9
$CECOLOR
 62
   256
  9
$CELTSCALE
 40
1.0
  9
$DISPSILH
 70
     0
  9
$DIMSCALE
 40
1.0
  9
$DIMASZ
 40
2.5
  9
$DIMEXO
 40
0.625
  9
$DIMDLI
 40
3.75
  9
$DIMRND
 40
0.0
  9
$DIMDLE
 40
0.0
  9
$DIMEXE
 40
1.25
  9
$DIMTP
 40
0.0
  9
$DIMTM
 40
0.0
  9
$DIMTXT
 40
2.5
  9
$DIMCEN
 40
2.5
  9
$DIMTSZ
 40
0.0
  9
$DIMTOL
 70
     0
  9
$DIMLIM
 70
     0
  9
$DIMTIH
 70
     0
  9
$DIMTOH
 70
     0
  9
$DIMSE1
 70
     0
  9
$DIMSE2
 70
     0
  9
$DIMTAD
 70
     1
  9
$DIMZIN
 70
     8
  9
$DIMBLK
  1

  9
$DIMASO
 70
     1
  9
$DIMSHO
 70
     1
  9
$DIMPOST
  1

  9
$DIMAPOST
  1

  9
$DIMALT
 70
     0
  9
$DIMALTD
 70
     3
  9
$DIMALTF
 40
0.03937007874016
  9
$DIMLFAC
 40
1.0
  9
$DIMTOFL
 70
     1
  9
$DIMTVP
 40
0.0
  9
$DIMTIX
 70
     0
  9
$DIMSOXD
 70
     0
  9
$DIMSAH
 70
     0
  9
$DIMBLK1
  1

  9
$DIMBLK2
  1

  9
$DIMSTYLE
  2
ISO-25
  9
$DIMCLRD
 70
     0
  9
$DIMCLRE
 70
     0
  9
$DIMCLRT
 70
     0
  9
$DIMTFAC
 40
1.0
  9
$DIMGAP
 40
0.625
  9
$DIMJUST
 70
     0
  9
$DIMSD1
 70
     0
  9
$DIMSD2
 70
     0
  9
$DIMTOLJ
 70
     0
  9
$DIMTZIN
 70
     8
  9
$DIMALTZ
 70
     0
  9
$DIMALTTZ
 70
     0
  9
$DIMUPT
 70
     0
  9
$DIMDEC
 70
     2
  9
$DIMTDEC
 70
     2
  9
$DIMALTU
 70
     2
  9
$DIMALTTD
 70
     3
  9
$DIMTXSTY
  7
Standard
  9
$DIMAUNIT
 70
     0
  9
$DIMADEC
 70
     0
  9
$DIMALTRND
 40
0.0
  9
$DIMAZIN
 70
     0
  9
$DIMDSEP
 70
    44
  9
$DIMATFIT
 70
     3
  9
$DIMFRAC
 70
     0
  9
$DIMLDRBLK
  1

  9
$DIMLUNIT
 70
     2
  9
$DIMLWD
 70
    -2
  9
$DIMLWE
 70
    -2
  9
$DIMTMOVE
 70
     0
  9
$LUNITS
 70
     2
  9
$LUPREC
 70
     4
  9
$SKETCHINC
 40
1.0
  9
$FILLETRAD
 40
0.0
  9
$AUNITS
 70
     0
  9
$AUPREC
 70
     0
  9
$MENU
  1
.
  9
$ELEVATION
 40
0.0
  9
$PELEVATION
 40
0.0
  9
$THICKNESS
 40
0.0
  9
$LIMCHECK
 70
     0
  9
$CHAMFERA
 40
0.0
  9
$CHAMFERB
 40
0.0
  9
$CHAMFERC
 40
0.0
  9
$CHAMFERD
 40
0.0
  9
$SKPOLY
 70
     0
  9
$TDCREATE
 40
2454625.688404757
  9
$TDUCREATE
 40
2454625.646738090
  9
$TDUPDATE
 40
2456147.486363021
  9
$TDUUPDATE
 40
2456147.444696354
  9
$TDINDWG
 40
0.0023235069
  9
$TDUSRTIMER
 40
0.0023235069
  9
$USRTIMER
 70
     1
  9
$ANGBASE
 50
0.0
  9
$ANGDIR
 70
     0
  9
$PDMODE
 70
     0
  9
$PDSIZE
 40
0.0
  9
$PLINEWID
 40
0.0
  9
$SPLFRAME
 70
     0
  9
$SPLINETYPE
 70
     6
  9
$SPLINESEGS
 70
     8
  9
$HANDSEED
  5
E81
  9
$SURFTAB1
 70
     6
  9
$SURFTAB2
 70
     6
  9
$SURFTYPE
 70
     6
  9
$SURFU
 70
     6
  9
$SURFV
 70
     6
  9
$UCSBASE
  2

  9
$UCSNAME
  2

  9
$UCSORG
 10
0.0
 20
0.0
 30
0.0
  9
$UCSXDIR
 10
1.0
 20
0.0
 30
0.0
  9
$UCSYDIR
 10
0.0
 20
1.0
 30
0.0
  9
$UCSORTHOREF
  2

  9
$UCSORTHOVIEW
 70
     0
  9
$UCSORGTOP
 10
0.0
 20
0.0
 30
0.0
  9
$UCSORGBOTTOM
 10
0.0
 20
0.0
 30
0.0
  9
$UCSORGLEFT
 10
0.0
 20
0.0
 30
0.0
  9
$UCSORGRIGHT
 10
0.0
 20
0.0
 30
0.0
  9
$UCSORGFRONT
 10
0.0
 20
0.0
 30
0.0
  9
$UCSORGBACK
 10
0.0
 20
0.0
 30
0.0
  9
$PUCSBASE
  2

  9
$PUCSNAME
  2

  9
$PUCSORG
 10
0.0
 20
0.0
 30
0.0
  9
$PUCSXDIR
 10
1.0
 20
0.0
 30
0.0
  9
$PUCSYDIR
 10
0.0
 20
1.0
 30
0.0
  9
$PUCSORTHOREF
  2

  9
$PUCSORTHOVIEW
 70
     0
  9
$PUCSORGTOP
 10
0.0
 20
0.0
 30
0.0
  9
$PUCSORGBOTTOM
 10
0.0
 20
0.0
 30
0.0
  9
$PUCSORGLEFT
 10
0.0
 20
0.0
 30
0.0
  9
$PUCSORGRIGHT
 10
0.0
 20
0.0
 30
0.0
  9
$PUCSORGFRONT
 10
0.0
 20
0.0
 30
0.0
  9
$PUCSORGBACK
 10
0.0
 20
0.0
 30
0.0
  9
$USERI1
 70
     0
  9
$USERI2
 70
     0
  9
$USERI3
 70
     0
  9
$USERI4
 70
     0
  9
$USERI5
 70
     0
  9
$USERR1
 40
0.0
  9
$USERR2
 40
0.0
  9
$USERR3
 40
0.0
  9
$USERR4
 40
0.0
  9
$USERR5
 40
0.0
  9
$WORLDVIEW
 70
     1
  9
$SHADEDGE
 70
     3
  9
$SHADEDIF
 70
    70
  9
$TILEMODE
 70
     1
  9
$MAXACTVP
 70
    64
  9
$PINSBASE
 10
0.0
 20
0.0
 30
0.0
  9
$PLIMCHECK
 70
     0
  9
$PEXTMIN
 10
1.000000000000000E+20
 20
1.000000000000000E+20
 30
1.000000000000000E+20
  9
$PEXTMAX
 10
-1.000000000000000E+20
 20
-1.000000000000000E+20
 30
-1.000000000000000E+20
  9
$PLIMMIN
 10
0.0
 20
0.0
  9
$PLIMMAX
 10
420.0
 20
297.0
  9
$UNITMODE
 70
     0
  9
$VISRETAIN
 70
     1
  9
$PLINEGEN
 70
     0
  9
$PSLTSCALE
 70
     1
  9
$TREEDEPTH
 70
  3020
  9
$CMLSTYLE
  2
Standard
  9
$CMLJUST
 70
     0
  9
$CMLSCALE
 40
20.0
  9
$PROXYGRAPHICS
 70
     1
  9
$MEASUREMENT
 70
     1
  9
$CELWEIGHT
370
    -1
  9
$ENDCAPS
280
     0
  9
$JOINSTYLE
280
     0
  9
$LWDISPLAY
290
     0
  9
$INSUNITS
 70
     4
  9
$HYPERLINKBASE
  1

  9
$STYLESHEET
  1

  9
$XEDIT
290
     1
  9
$CEPSNTYPE
380
     0
  9
$PSTYLEMODE
290
     1
  9
$FINGERPRINTGUID
  2
{B6987474-236E-4760-8822-03FAB4FCA3D7}
  9
$VERSIONGUID
  2
{AE1EAE25-59E4-425E-9AED-4704CD7732F5}
  9
$EXTNAMES
290
     1
  9
$PSVPSCALE
 40
0.0
  9
$OLESTARTUP
290
     0
  0
ENDSEC
  0
SECTION
  2
CLASSES
  0
CLASS
  1
ACDBDICTIONARYWDFLT
  2
AcDbDictionaryWithDefault
  3
ObjectDBX Classes
 90
        0
280
     0
281
     0
  0
CLASS
  1
TABLESTYLE
  2
AcDbTableStyle
  3
ObjectDBX Classes
 90
     4095
280
     0
281
     0
  0
CLASS
  1
DIMASSOC
  2
AcDbDimAssoc
  3
"AcDbDimAssoc|Product Desc:     AcDim ARX App For Dimension|Company:          Autodesk, Inc.|WEB Address:      www.autodesk.com"
 90
    32768
280
     0
281
     0
  0
CLASS
  1
SORTENTSTABLE
  2
AcDbSortentsTable
  3
ObjectDBX Classes
 90
    32768
280
     0
281
     0
  0
CLASS
  1
DICTIONARYVAR
  2
AcDbDictionaryVar
  3
ObjectDBX Classes
 90
        0
280
     0
281
     0
  0
CLASS
  1
ACDBPLACEHOLDER
  2
AcDbPlaceHolder
  3
ObjectDBX Classes
 90
        0
280
     0
281
     0
  0
CLASS
  1
LAYOUT
  2
AcDbLayout
  3
ObjectDBX Classes
 90
        0
280
     0
281
     0
  0
CLASS
  1
MATERIAL
  2
AcDbMaterial
  3
ObjectDBX Classes
 90
     1153
280
     0
281
     0
  0
CLASS
  1
VISUALSTYLE
  2
AcDbVisualStyle
  3
ObjectDBX Classes
 90
     4095
280
     0
281
     0
  0
CLASS
  1
SCALE
  2
AcDbScale
  3
ObjectDBX Classes
 90
     1153
280
     0
281
     0
  0
CLASS
  1
MLEADERSTYLE
  2
AcDbMLeaderStyle
  3
ACDB_MLEADERSTYLE_CLASS
 90
     4095
280
     0
281
     0
  0
CLASS
  1
CELLSTYLEMAP
  2
AcDbCellStyleMap
  3
ObjectDBX Classes
 90
     1152
280
     0
281
     0
  0
ENDSEC
  0
SECTION
  2
TABLES
  0
TABLE
  2
VPORT
  5
8
330
0
100
AcDbSymbolTable
 70
     1
  0
VPORT
  5
DB5
330
8
100
AcDbSymbolTableRecord
100
AcDbViewportTableRecord
  2
*Active
 70
     0
 10
0.0
 20
0.0
 11
1.0
 21
1.0
 12
1825.431251972014
 22
1266.740303311916
 13
0.0
 23
0.0
 14
10.0
 24
10.0
 15
10.0
 25
10.0
 16
0.0
 26
0.0
 36
1.0
 17
0.0
 27
0.0
 37
0.0
 40
1.551504634770188
 41
1.645464025026068
 42
50.0
 43
0.0
 44
0.0
 50
0.0
 51
0.0
 71
     0
 72
  1000
 73
     1
 74
     3
 75
     0
 76
     0
 77
     0
 78
     0
281
     0
 65
     1
110
0.0
120
0.0
130
0.0
111
1.0
121
0.0
131
0.0
112
0.0
122
1.0
132
0.0
 79
     0
146
0.0
  0
ENDTAB
  0
TABLE
  2
LTYPE
  5
5
330
0
100
AcDbSymbolTable
 70
     3
  0
LTYPE
  5
14
330
5
100
AcDbSymbolTableRecord
100
AcDbLinetypeTableRecord
  2
ByBlock
 70
     0
  3

 72
    65
 73
     0
 40
0.0
  0
LTYPE
  5
15
330
5
100
AcDbSymbolTableRecord
100
AcDbLinetypeTableRecord
  2
ByLayer
 70
     0
  3

 72
    65
 73
     0
 40
0.0
  0
LTYPE
  5
16
330
5
100
AcDbSymbolTableRecord
100
AcDbLinetypeTableRecord
  2
Continuous
 70
     0
  3
Solid line
 72
    65
 73
     0
 40
0.0
  0
LTYPE
  5
34A
330
5
100
AcDbSymbolTableRecord
100
AcDbLinetypeTableRecord
  2
DASHDOT
 70
     0
  3
Dash dot __ . __ . __ . __ . __ . __ . __ . __
 72
    65
 73
     4
 40
25.4
 49
12.7
 74
     0
 49
-6.349999999999999
 74
     0
 49
0.0
 74
     0
 49
-6.349999999999999
 74
     0
  0
LTYPE
  5
34B
330
5
100
AcDbSymbolTableRecord
100
AcDbLinetypeTableRecord
  2
HIDDEN
 70
     0
  3
Hidden __ __ __ __ __ __ __ __ __ __ __ __ __ _
 72
    65
 73
     2
 40
9.524999999999998
 49
6.349999999999999
 74
     0
 49
-3.174999999999999
 74
     0
  0
ENDTAB
  0
TABLE
  2
LAYER
  5
2
330
0
100
AcDbSymbolTable
 70
     9
  0
LAYER
  5
10
102
{ACAD_XDICTIONARY
360
E05
102
}
330
2
100
AcDbSymbolTableRecord
100
AcDbLayerTableRecord
  2
0
 70
     0
 62
     7
  6
Continuous
370
    -3
390
F
  0
LAYER
  5
34C
102
{ACAD_XDICTIONARY
360
E07
102
}
330
2
100
AcDbSymbolTableRecord
100
AcDbLayerTableRecord
  2
4
 70
     0
 62
     4
  6
Continuous
370
    -3
390
F
  0
LAYER
  5
34D
102
{ACAD_XDICTIONARY
360
E09
102
}
330
2
100
AcDbSymbolTableRecord
100
AcDbLayerTableRecord
  2
cen
 70
     0
 62
     7
  6
DASHDOT
370
    -3
390
F
  0
LAYER
  5
34E
102
{ACAD_XDICTIONARY
360
E0B
102
}
330
2
100
AcDbSymbolTableRecord
100
AcDbLayerTableRecord
  2
hid
 70
     0
 62
     7
  6
HIDDEN
370
    -3
390
F
  0
LAYER
  5
34F
102
{ACAD_XDICTIONARY
360
E0D
102
}
330
2
100
AcDbSymbolTableRecord
100
AcDbLayerTableRecord
  2
hatch
 70
     0
 62
     9
  6
Continuous
370
    -3
390
F
  0
LAYER
  5
350
102
{ACAD_XDICTIONARY
360
E0F
102
}
330
2
100
AcDbSymbolTableRecord
100
AcDbLayerTableRecord
  2
9
 70
     0
 62
     9
  6
Continuous
370
    -3
390
F
  0
LAYER
  5
351
102
{ACAD_XDICTIONARY
360
E11
102
}
330
2
100
AcDbSymbolTableRecord
100
AcDbLayerTableRecord
  2
cotas
 70
     0
 62
     1
  6
Continuous
370
    -3
390
F
  0
LAYER
  5
352
330
2
100
AcDbSymbolTableRecord
100
AcDbLayerTableRecord
  2
Defpoints
 70
     0
 62
     7
  6
Continuous
290
     0
370
    -3
390
F
  0
LAYER
  5
353
102
{ACAD_XDICTIONARY
360
E13
102
}
330
2
100
AcDbSymbolTableRecord
100
AcDbLayerTableRecord
  2
SANINDUSA
 70
     0
 62
     3
  6
Continuous
370
    -3
390
F
  0
ENDTAB
  0
TABLE
  2
STYLE
  5
3
330
0
100
AcDbSymbolTable
 70
     2
  0
STYLE
  5
11
330
3
100
AcDbSymbolTableRecord
100
AcDbTextStyleTableRecord
  2
Standard
 70
     0
 40
0.0
 41
1.0
 50
0.0
 71
     0
 42
2.5
  3
txt
  4

  0
STYLE
  5
354
330
3
100
AcDbSymbolTableRecord
100
AcDbTextStyleTableRecord
  2
SANINDUSA
 70
     0
 40
0.0
 41
1.0
 50
0.0
 71
     0
 42
2.5
  3
verdana.TTF
  4

1001
ACAD
1000
Verdana
1071
       34
  0
ENDTAB
  0
TABLE
  2
VIEW
  5
6
330
0
100
AcDbSymbolTable
 70
     0
  0
ENDTAB
  0
TABLE
  2
UCS
  5
7
330
0
100
AcDbSymbolTable
 70
     0
  0
ENDTAB
  0
TABLE
  2
APPID
  5
9
330
0
100
AcDbSymbolTable
 70
     6
  0
APPID
  5
12
330
9
100
AcDbSymbolTableRecord
100
AcDbRegAppTableRecord
  2
ACAD
 70
     0
  0
APPID
  5
356
330
9
100
AcDbSymbolTableRecord
100
AcDbRegAppTableRecord
  2
ACAD_DSTYLE_DIMEXT_LENGTH
 70
     0
  0
APPID
  5
357
330
9
100
AcDbSymbolTableRecord
100
AcDbRegAppTableRecord
  2
ACAD_DSTYLE_DIMEXT_ENABLED
 70
     0
  0
APPID
  5
358
330
9
100
AcDbSymbolTableRecord
100
AcDbRegAppTableRecord
  2
ACAD_DSTYLE_DIMJOGGED_JOGANGLE_SYMBOL
 70
     0
  0
APPID
  5
359
330
9
100
AcDbSymbolTableRecord
100
AcDbRegAppTableRecord
  2
ACAD_DSTYLE_DIMARC_LENGTH_SYMBOL
 70
     0
  0
APPID
  5
E80
330
9
100
AcDbSymbolTableRecord
100
AcDbRegAppTableRecord
  2
ACAD_MLEADERVER
 70
     0
  0
ENDTAB
  0
TABLE
  2
DIMSTYLE
  5
A
330
0
100
AcDbSymbolTable
 70
     2
100
AcDbDimStyleTable
 71
     0
  0
DIMSTYLE
105
2B
330
A
100
AcDbSymbolTableRecord
100
AcDbDimStyleTableRecord
  2
ISO-25
 70
     0
 41
2.5
 42
0.625
 43
3.75
 44
1.25
 73
     0
 74
     0
 77
     1
 78
     8
140
2.5
141
2.5
143
0.03937007874016
147
0.625
171
     3
172
     1
271
     2
272
     2
274
     3
278
    44
283
     0
284
     8
340
11
  0
DIMSTYLE
105
355
330
A
100
AcDbSymbolTableRecord
100
AcDbDimStyleTableRecord
  2
SANINDUSA
 70
     0
 40
5.0
 41
2.0
 42
1.0
 43
1.0
 44
1.0
 73
     0
 74
     0
 77
     1
 78
     8
140
2.0
141
0.0
143
0.03937007874016
147
1.0
171
     3
172
     1
176
   256
177
   256
178
   256
179
     1
271
     1
272
     1
274
     3
278
    44
283
     0
284
     8
340
354
371
    -1
372
    -1
1001
ACAD_DSTYLE_DIMJOGGED_JOGANGLE_SYMBOL
1070
   384
1040
1.570796326794896
  0
ENDTAB
  0
TABLE
  2
BLOCK_RECORD
  5
1
330
0
100
AcDbSymbolTable
 70
   137
  0
BLOCK_RECORD
  5
23
330
1
100
AcDbSymbolTableRecord
100
AcDbBlockTableRecord
  2
*Model_Space
340
26
  0
BLOCK_RECORD
  5
1F
330
1
100
AcDbSymbolTableRecord
100
AcDbBlockTableRecord
  2
*Paper_Space
340
22
  0
BLOCK_RECORD
  5
27
330
1
100
AcDbSymbolTableRecord
100
AcDbBlockTableRecord
  2
*Paper_Space0
340
2A
  0
ENDTAB
  0
ENDSEC
  0
SECTION
  2
BLOCKS
  0
BLOCK
  5
24
330
23
100
AcDbEntity
  8
0
100
AcDbBlockBegin
  2
*Model_Space
 70
     0
 10
0.0
 20
0.0
 30
0.0
  3
*Model_Space
  1

  0
ENDBLK
  5
25
330
23
100
AcDbEntity
  8
0
100
AcDbBlockEnd
  0
BLOCK
  5
20
330
1F
100
AcDbEntity
 67
     1
  8
0
100
AcDbBlockBegin
  2
*Paper_Space
 70
     0
 10
0.0
 20
0.0
 30
0.0
  3
*Paper_Space
  1

  0
ENDBLK
  5
21
330
1F
100
AcDbEntity
 67
     1
  8
0
100
AcDbBlockEnd
  0
BLOCK
  5
28
330
27
100
AcDbEntity
 67
     1
  8
0
100
AcDbBlockBegin
  2
*Paper_Space0
 70
     0
 10
0.0
 20
0.0
 30
0.0
  3
*Paper_Space0
  1

  0
ENDBLK
  5
29
330
27
100
AcDbEntity
 67
     1
  8
0
100
AcDbBlockEnd
  0
ENDSEC
  0
SECTION
  2
ENTITIES
  0
ARC
  5
673
330
23
100
AcDbEntity
  8
SANINDUSA
100
AcDbCircle
 10
1825.43488677168
 20
1266.916523850434
 30
0.0
 40
0.0055037042023654
100
AcDbArc
 50
216.1477542284121
 51
270.6047850289688
  0
ARC
  5
674
330
23
100
AcDbEntity
  8
SANINDUSA
100
AcDbCircle
 10
1825.425773028085
 20
1266.910368462455
 30
0.0
 40
0.0055014676145388
100
AcDbArc
 50
31.92127244726622
 51
57.54543545334373
  0
LWPOLYLINE
  5
675
330
23
100
AcDbEntity
  8
SANINDUSA
100
AcDbPolyline
 90
        3
 70
   128
 43
0.0
 10
1825.428725284126
 20
1266.915010695774
 10
1825.427783441331
 20
1266.915649617769
 10
1825.427198987987
 20
1266.916086102583
  0
ARC
  5
677
330
23
100
AcDbEntity
  8
SANINDUSA
100
AcDbCircle
 10
1825.859876745878
 20
1266.902020321046
 30
0.0
 40
0.0090000423825829
100
AcDbArc
 50
348.8016239289815
 51
89.99969739602271
  0
LWPOLYLINE
  5
67B
330
23
100
AcDbEntity
  8
SANINDUSA
100
AcDbPolyline
 90
        9
 70
   128
 43
0.0
 10
1825.489842054036
 20
1266.663995097139
 10
1825.486630734589
 20
1266.69309333966
 10
1825.48363470712
 20
1266.722393194892
 10
1825.480818506863
 20
1266.751938218929
 10
1825.478160854962
 20
1266.781646574595
 10
1825.475653093841
 20
1266.811279947617
 10
1825.473251339581
 20
1266.841039205649
 10
1825.470928770091
 20
1266.870965475895
 10
1825.468670663025
 20
1266.900985385039
  0
ARC
  5
67E
330
23
100
AcDbEntity
  8
SANINDUSA
100
AcDbCircle
 10
1825.477335501684
 20
1266.902278765778
 30
0.0
 40
0.0087608368732978
100
AcDbArc
 50
93.78311113428436
 51
188.4897280972242
  0
LINE
  5
67F
330
23
100
AcDbEntity
  8
SANINDUSA
100
AcDbLine
 10
1825.476757463601
 20
1266.91102051244
 30
0.0
 11
1825.477696996715
 21
1266.91102051244
 31
0.0
  0
ARC
  5
682
330
23
100
AcDbEntity
  8
SANINDUSA
100
AcDbCircle
 10
1824.393456366156
 20
1267.192341498779
 30
0.0
 40
1.503883019844581
100
AcDbArc
 50
337.4445386466815
 51
348.8014252662355
  0
ARC
  5
686
330
23
100
AcDbEntity
  8
SANINDUSA
100
AcDbCircle
 10
1825.458946360411
 20
1266.90216392
 30
0.0
 40
0.0088621049596955
100
AcDbArc
 50
92.02645847507326
 51
187.9115088276223
  0
LWPOLYLINE
  5
687
330
23
100
AcDbEntity
  8
SANINDUSA
100
AcDbPolyline
 90
        3
 70
   128
 43
0.0
 10
1825.458632987525
 20
1266.911020482638
 10
1825.467037704375
 20
1266.911020482638
 10
1825.476757463601
 20
1266.91102051244
  0
ARC
  5
688
330
23
100
AcDbEntity
  8
SANINDUSA
100
AcDbCircle
 10
1828.321958806627
 20
1267.259985107371
 30
0.0
 40
2.894147437952364
100
AcDbArc
 50
187.1263369016438
 51
191.8839099369503
  0
LWPOLYLINE
  5
68A
330
23
100
AcDbEntity
  8
SANINDUSA
100
AcDbPolyline
 90
       10
 70
   128
 43
0.0
 10
1825.491327193167
 20
1266.616187023678
 10
1825.491367083576
 20
1266.616221184589
 10
1825.491808590081
 20
1266.616719956257
 10
1825.492254850056
 20
1266.617508913137
 10
1825.493105900076
 20
1266.620531740346
 10
1825.493586745646
 20
1266.625439154663
 10
1825.493585434344
 20
1266.630379381337
 10
1825.49319027045
 20
1266.637803169646
 10
1825.492474180248
 20
1266.645207072355
 10
1825.489842054036
 20
1266.663995097139
  0
LWPOLYLINE
  5
696
330
23
100
AcDbEntity
  8
SANINDUSA
100
AcDbPolyline
 90
        5
 70
   128
 43
0.0
 10
1825.489628326681
 20
1266.614253113725
 10
1825.439835649516
 20
1266.614253121175
 10
1825.389956649926
 20
1266.614253121175
 10
1825.343389049705
 20
1266.614253121175
 10
1825.296792693736
 20
1266.614253121175
  0
LWPOLYLINE
  5
69B
330
23
100
AcDbEntity
  8
SANINDUSA
100
AcDbPolyline
 90
        6
 70
   128
 43
0.0
 10
1825.296804171123
 20
1266.915223742582
 10
1825.312118087497
 20
1266.915110732176
 10
1825.341318376895
 20
1266.91497706876
 10
1825.370514926102
 20
1266.914953852751
 10
1825.409347471383
 20
1266.915100301363
 10
1825.42636491039
 20
1266.915230239489
  0
LINE
  5
69D
330
23
100
AcDbEntity
  8
SANINDUSA
100
AcDbLine
 10
1825.294792693641
 20
1266.905655289747
 30
0.0
 11
1825.294792693641
 21
1266.913310224869
 31
0.0
  0
ARC
  5
69E
330
23
100
AcDbEntity
  8
SANINDUSA
100
AcDbCircle
 10
1825.296750989483
 20
1266.913265661844
 30
0.0
 40
0.0019588028147406
100
AcDbArc
 50
88.44422421457661
 51
178.6964008775631
  0
CIRCLE
  5
69F
330
23
100
AcDbEntity
  8
SANINDUSA
100
AcDbCircle
 10
1825.356792694423
 20
1266.829712181585
 30
0.0
 40
0.0110000017352591
  0
LINE
  5
6A3
330
23
100
AcDbEntity
  8
SANINDUSA
100
AcDbLine
 10
1825.491464224246
 20
1266.614253113725
 30
0.0
 11
1825.489628326681
 21
1266.614253113725
 31
0.0
  0
LINE
  5
6A4
330
23
100
AcDbEntity
  8
SANINDUSA
100
AcDbLine
 10
1825.495243695166
 20
1266.614253113725
 30
0.0
 11
1825.491464224246
 21
1266.614253113725
 31
0.0
  0
LINE
  5
6A5
330
23
100
AcDbEntity
  8
SANINDUSA
100
AcDbLine
 10
1825.498207014587
 20
1266.614253113725
 30
0.0
 11
1825.495243695166
 21
1266.614253113725
 31
0.0
  0
LINE
  5
6A6
330
23
100
AcDbEntity
  8
SANINDUSA
100
AcDbLine
 10
1825.498207014587
 20
1266.614253113725
 30
0.0
 11
1825.780458342817
 21
1266.614252882757
 31
0.0
  0
LINE
  5
6A8
330
23
100
AcDbEntity
  8
SANINDUSA
100
AcDbLine
 10
1825.294792693641
 20
1266.616253125228
 30
0.0
 11
1825.294792693641
 21
1266.905655289747
 31
0.0
  0
ARC
  5
6AB
330
23
100
AcDbEntity
  8
SANINDUSA
100
AcDbCircle
 10
1825.426549415071
 20
1266.910381952867
 30
0.0
 40
0.0048517960734353
100
AcDbArc
 50
36.6392603485766
 51
92.17937624139999
  0
LINE
  5
6AD
330
23
100
AcDbEntity
  8
SANINDUSA
100
AcDbLine
 10
1825.434944864895
 20
1266.911020452835
 30
0.0
 11
1825.43945918658
 21
1266.911020452835
 31
0.0
  0
ARC
  5
6AE
330
23
100
AcDbEntity
  8
SANINDUSA
100
AcDbCircle
 10
1825.49838543454
 20
1266.61571533978
 30
0.0
 40
0.0070739845187535
100
AcDbArc
 50
176.176756852067
 51
191.9293105187737
  0
LINE
  5
6B4
330
23
100
AcDbEntity
  8
SANINDUSA
100
AcDbLine
 10
1825.427198987987
 20
1266.916086102583
 30
0.0
 11
1825.405399151479
 21
1266.933171496761
 31
0.0
  0
ARC
  5
6B5
330
23
100
AcDbEntity
  8
SANINDUSA
100
AcDbCircle
 10
1825.402314850983
 20
1266.92923613268
 30
0.0
 40
0.0050000000000005
100
AcDbArc
 50
51.91279691028139
 51
89.99239201384392
  0
LINE
  5
6B6
330
23
100
AcDbEntity
  8
SANINDUSA
100
AcDbLine
 10
1825.402315514905
 20
1266.934236132636
 30
0.0
 11
1825.37065785804
 21
1266.934240336277
 31
0.0
  0
LINE
  5
6B7
330
23
100
AcDbEntity
  8
SANINDUSA
100
AcDbLine
 10
1825.37065785804
 20
1266.934240336277
 30
0.0
 11
1825.296792957999
 21
1266.934250081637
 31
0.0
  0
ARC
  5
6B9
330
23
100
AcDbEntity
  8
SANINDUSA
100
AcDbCircle
 10
1825.296792693641
 20
1266.932250088216
 30
0.0
 40
0.0020000000000002
100
AcDbArc
 50
89.99242611997642
 51
180.0
  0
LINE
  5
6BA
330
23
100
AcDbEntity
  8
SANINDUSA
100
AcDbLine
 10
1825.294792693641
 20
1266.913310224869
 30
0.0
 11
1825.294792693641
 21
1266.932250077583
 31
0.0
  0
ARC
  5
6BB
330
23
100
AcDbEntity
  8
SANINDUSA
100
AcDbCircle
 10
1825.296792606942
 20
1266.616253034475
 30
0.0
 40
0.0019999133010629
100
AcDbArc
 50
179.9988941432229
 51
270.0024865818738
  0
ARC
  5
6BD
330
23
100
AcDbEntity
  8
SANINDUSA
100
AcDbCircle
 10
1825.780458354876
 20
1266.616252883313
 30
0.0
 40
0.0020000000000133
100
AcDbArc
 50
270.0
 51
337.4445039723278
  0
ARC
  5
6C0
330
23
100
AcDbEntity
  8
SANINDUSA
100
AcDbCircle
 10
1825.578268949103
 20
1266.65134251529
 30
0.0
 40
0.0900000000000002
100
AcDbArc
 50
204.3840203177029
 51
266.4720746106271
  0
ARC
  5
6C1
330
23
100
AcDbEntity
  8
SANINDUSA
100
AcDbCircle
 10
1825.589839299319
 20
1266.651023972545
 30
0.0
 40
0.0900000000000001
100
AcDbArc
 50
270.3739074914943
 51
335.8596178643454
  0
ARC
  5
6C3
330
23
100
AcDbEntity
  8
SANINDUSA
100
AcDbCircle
 10
1825.588729901329
 20
1266.821020352612
 30
0.0
 40
0.2600000000000001
100
AcDbArc
 50
266.4720746106271
 51
270.3739074914943
  0
ARC
  5
6CD
330
23
100
AcDbEntity
  8
SANINDUSA
100
AcDbCircle
 10
1824.913054291067
 20
1266.601295599829
 30
0.0
 40
0.0402754092303393
100
AcDbArc
 50
270.1062457920219
 51
345.2491229925167
  0
ARC
  5
6CE
330
23
100
AcDbEntity
  8
SANINDUSA
100
AcDbCircle
 10
1824.901423850633
 20
1266.6012945387
 30
0.0
 40
0.0402743476872189
100
AcDbArc
 50
194.7575944293405
 51
269.8940711167497
  0
LINE
  5
6CF
330
23
100
AcDbEntity
  8
SANINDUSA
100
AcDbLine
 10
1824.901349413643
 20
1266.561020259844
 30
0.0
 11
1824.913128975282
 21
1266.561020259844
 31
0.0
  0
LWPOLYLINE
  5
6D0
330
23
100
AcDbEntity
  8
SANINDUSA
100
AcDbPolyline
 90
       15
 70
   128
 43
0.0
 10
1824.95200230504
 20
1266.591040806012
 10
1824.95208442534
 20
1266.591321976022
 10
1824.95243463988
 20
1266.592756972747
 10
1824.952698561797
 20
1266.594014913873
 10
1824.952900643894
 20
1266.595129654841
 10
1824.95306228424
 20
1266.596156918542
 10
1824.953199605891
 20
1266.597159945504
 10
1824.953327718625
 20
1266.598236599104
 10
1824.953464287767
 20
1266.599567250447
 10
1824.953653674075
 20
1266.60175832464
 10
1824.953813012192
 20
1266.603905127482
 10
1824.953962560246
 20
1266.606146783666
 10
1824.954123425731
 20
1266.608775326149
 10
1824.954281452546
 20
1266.611553133564
 10
1824.9544258746
 20
1266.614252881245
  0
LWPOLYLINE
  5
6D1
330
23
100
AcDbEntity
  8
SANINDUSA
100
AcDbPolyline
 90
       15
 70
   128
 43
0.0
 10
1824.860052782545
 20
1266.614252881245
 10
1824.860081303367
 20
1266.613698043959
 10
1824.860235888014
 20
1266.610851422982
 10
1824.860388624916
 20
1266.608207711117
 10
1824.860540378341
 20
1266.605764777498
 10
1824.860693741092
 20
1266.603503891365
 10
1824.860856268058
 20
1266.601365224557
 10
1824.861056196937
 20
1266.599135250883
 10
1824.861223402867
 20
1266.597606652515
 10
1824.861360210428
 20
1266.59654854341
 10
1824.861523050318
 20
1266.595461444096
 10
1824.861729103574
 20
1266.594280154542
 10
1824.862000468621
 20
1266.592950956063
 10
1824.862368646512
 20
1266.591418692009
 10
1824.862478065739
 20
1266.591035449044
  0
LINE
  5
6D2
330
23
100
AcDbEntity
  8
SANINDUSA
100
AcDbLine
 10
1825.042406636164
 20
1266.61625303431
 30
0.0
 11
1825.042406616344
 21
1266.638210364716
 31
0.0
  0
ARC
  5
6D3
330
23
100
AcDbEntity
  8
SANINDUSA
100
AcDbCircle
 10
1825.040406632433
 20
1266.616253032782
 30
0.0
 40
0.0020000003025988
100
AcDbArc
 50
270.0043841881258
 51
0.4668833306552675
  0
LINE
  5
6D4
330
23
100
AcDbEntity
  8
SANINDUSA
100
AcDbLine
 10
1824.772071767101
 20
1266.638209299283
 30
0.0
 11
1824.772071737299
 21
1266.61625303431
 31
0.0
  0
ARC
  5
6D5
330
23
100
AcDbEntity
  8
SANINDUSA
100
AcDbCircle
 10
1824.774071747528
 20
1266.616253032782
 30
0.0
 40
0.0020000003025988
100
AcDbArc
 50
180.4667793543147
 51
269.9956158118742
  0
ARC
  5
6D6
330
23
100
AcDbEntity
  8
SANINDUSA
100
AcDbCircle
 10
1825.088475184753
 20
1266.902022823112
 30
0.0
 40
0.0089975996535354
100
AcDbArc
 50
353.78345276049
 51
89.96986555125632
  0
ARC
  5
6D9
330
23
100
AcDbEntity
  8
SANINDUSA
100
AcDbCircle
 10
1824.726003222692
 20
1266.902022793153
 30
0.0
 40
0.0089976296343053
100
AcDbArc
 50
90.03039462202357
 51
186.2163345385667
  0
ARC
  5
6DB
330
23
100
AcDbEntity
  8
SANINDUSA
100
AcDbCircle
 10
1823.705720925275
 20
1267.055841697224
 30
0.0
 40
1.400281008282374
100
AcDbArc
 50
343.7186850728803
 51
353.6533025094653
  0
LWPOLYLINE
  5
6DC
330
23
100
AcDbEntity
  8
SANINDUSA
100
AcDbPolyline
 90
        9
 70
   128
 43
0.0
 10
1825.04984614343
 20
1266.663267755048
 10
1825.047327560807
 20
1266.654729523794
 10
1825.044775309242
 20
1266.646173202531
 10
1825.0421668506
 20
1266.637493387894
 10
1825.039576887121
 20
1266.62885915591
 10
1825.038014473827
 20
1266.623583735065
 10
1825.03725042936
 20
1266.620953784422
 10
1825.036531439019
 20
1266.618414105014
 10
1825.035788688777
 20
1266.6156440015
  0
LWPOLYLINE
  5
6E0
330
23
100
AcDbEntity
  8
SANINDUSA
100
AcDbPolyline
 90
        9
 70
   128
 43
0.0
 10
1824.764632243166
 20
1266.663267755048
 10
1824.767150807628
 20
1266.654729523794
 10
1824.769703078518
 20
1266.646173202531
 10
1824.772311526785
 20
1266.637493387894
 10
1824.774901497612
 20
1266.62885915591
 10
1824.776463914165
 20
1266.623583735065
 10
1824.777227956304
 20
1266.620953784422
 10
1824.777946937332
 20
1266.618414105014
 10
1824.778689700613
 20
1266.6156440015
  0
ARC
  5
6E1
330
23
100
AcDbEntity
  8
SANINDUSA
100
AcDbCircle
 10
1826.108758723184
 20
1267.055842023278
 30
0.0
 40
1.400282310950704
100
AcDbArc
 50
186.3467049887918
 51
196.2813132575082
  0
ARC
  5
6E9
330
23
100
AcDbEntity
  8
SANINDUSA
100
AcDbCircle
 10
1825.033887816804
 20
1266.616247349697
 30
0.0
 40
0.0019943277827326
100
AcDbArc
 50
270.0541879411632
 51
342.3902486868201
  0
ARC
  5
6EA
330
23
100
AcDbEntity
  8
SANINDUSA
100
AcDbCircle
 10
1824.780590536358
 20
1266.616247300222
 30
0.0
 40
0.0019942782846811
100
AcDbArc
 50
197.6087113954832
 51
269.9465170842076
  0
ARC
  5
6FC
330
23
100
AcDbEntity
  8
SANINDUSA
100
AcDbCircle
 10
1824.907238639863
 20
1266.49403416791
 30
0.0
 40
0.44021582280841
100
AcDbArc
 50
89.99992879140091
 51
106.9067124903049
  0
ARC
  5
6FE
330
23
100
AcDbEntity
  8
SANINDUSA
100
AcDbCircle
 10
1824.907239744064
 20
1266.494034200086
 30
0.0
 40
0.4402157906329627
100
AcDbArc
 50
73.09328688328796
 51
90.00007249832675
  0
LWPOLYLINE
  5
715
330
23
100
AcDbEntity
  8
SANINDUSA
100
AcDbPolyline
 90
       45
 70
   128
 43
0.0
 10
1824.15942563477
 20
1266.844097096892
 10
1824.159596282868
 20
1266.839541469188
 10
1824.16095631185
 20
1266.810733739706
 10
1824.16269974771
 20
1266.780334685417
 10
1824.16475554171
 20
1266.750020031305
 10
1824.167122650771
 20
1266.719794664951
 10
1824.169800151018
 20
1266.689662252041
 10
1824.172787058978
 20
1266.659626279446
 10
1824.176082271962
 20
1266.629690204235
 10
1824.177843976645
 20
1266.614762906404
 10
1824.179394412665
 20
1266.601583335968
 10
1824.180282253651
 20
1266.595717672678
 10
1824.181375790266
 20
1266.590163264843
 10
1824.183056998877
 20
1266.583062474104
 10
1824.18504147592
 20
1266.576038662763
 10
1824.187329966454
 20
1266.569087390276
 10
1824.189931411175
 20
1266.562191699119
 10
1824.192818451552
 20
1266.555435542436
 10
1824.195999342827
 20
1266.548788968893
 10
1824.199479717641
 20
1266.542242560955
 10
1824.203248251109
 20
1266.535823766561
 10
1824.20729156199
 20
1266.529559795232
 10
1824.211591679482
 20
1266.523480836721
 10
1824.216130066542
 20
1266.517613355489
 10
1824.220891911416
 20
1266.511976901861
 10
1824.225840110211
 20
1266.506612126203
 10
1824.23101626697
 20
1266.501461808057
 10
1824.236443925528
 20
1266.496501986356
 10
1824.242110345392
 20
1266.491747979494
 10
1824.248001415162
 20
1266.487214748236
 10
1824.254101518421
 20
1266.482917134138
 10
1824.260393638043
 20
1266.478869323107
 10
1824.266859639315
 20
1266.475084785791
 10
1824.273478854327
 20
1266.471576873632
 10
1824.280229899911
 20
1266.468357328745
 10
1824.287092346577
 20
1266.465435747476
 10
1824.294045705227
 20
1266.462820414873
 10
1824.301069695382
 20
1266.46051794705
 10
1824.308144513397
 20
1266.458533589216
 10
1824.315251070885
 20
1266.456871096464
 10
1824.322371203331
 20
1266.455532793375
 10
1824.328800041108
 20
1266.45461583552
 10
1824.335557762412
 20
1266.453932825895
 10
1824.342842120556
 20
1266.453463796945
 10
1824.349635202317
 20
1266.453239623876
  0
LWPOLYLINE
  5
716
330
23
100
AcDbEntity
  8
SANINDUSA
100
AcDbPolyline
 90
       46
 70
   128
 43
0.0
 10
1824.349643010525
 20
1266.453246716829
 10
1824.35183346632
 20
1266.453284208151
 10
1824.359791476158
 20
1266.453648869367
 10
1824.366964574782
 20
1266.454227570864
 10
1824.373562160759
 20
1266.45502007422
 10
1824.380553435413
 20
1266.456176940771
 10
1824.387286562352
 20
1266.457592193456
 10
1824.394276570408
 20
1266.459373478265
 10
1824.401237126319
 20
1266.461468760343
 10
1824.408152099578
 20
1266.463876191946
 10
1824.415002975492
 20
1266.466592256399
 10
1824.421770457058
 20
1266.469612066122
 10
1824.428434673576
 20
1266.472929243417
 10
1824.434975419073
 20
1266.476536158891
 10
1824.441372405617
 20
1266.480423454614
 10
1824.447605550168
 20
1266.484580580564
 10
1824.453653002037
 20
1266.488993827673
 10
1824.459495916842
 20
1266.493649784895
 10
1824.465116873263
 20
1266.498534147115
 10
1824.470499755694
 20
1266.503632132383
 10
1824.4756299135
 20
1266.508928481909
 10
1824.480494265324
 20
1266.51440763888
 10
1824.485084095092
 20
1266.520049576135
 10
1824.489486461384
 20
1266.52595520434
 10
1824.493662238
 20
1266.532081310125
 10
1824.497591545684
 20
1266.538404200645
 10
1824.501256409911
 20
1266.544899288984
 10
1824.504638574897
 20
1266.551536892029
 10
1824.507723023994
 20
1266.558288071724
 10
1824.510497856764
 20
1266.565125201317
 10
1824.512955140201
 20
1266.572016392322
 10
1824.515131400777
 20
1266.579055075021
 10
1824.517003409444
 20
1266.586187456222
 10
1824.518562890468
 20
1266.593386028381
 10
1824.519544508187
 20
1266.599066231819
 10
1824.520267542331
 20
1266.604790721508
 10
1824.520994458227
 20
1266.611158047291
 10
1824.522237155466
 20
1266.62145659742
 10
1824.524732824294
 20
1266.643269334408
 10
1824.527894958733
 20
1266.673318896862
 10
1824.530728682755
 20
1266.703263584944
 10
1824.533255502461
 20
1266.733304147096
 10
1824.535474374769
 20
1266.763436887832
 10
1824.537384316204
 20
1266.793658275576
 10
1824.538984384267
 20
1266.823964719148
 10
1824.539838580765
 20
1266.844097779363
  0
ARC
  5
717
330
23
100
AcDbEntity
  8
SANINDUSA
100
AcDbCircle
 10
1824.352833456167
 20
1266.471390889022
 30
0.0
 40
0.4229524086305902
100
AcDbArc
 50
64.6174755348066
 51
71.3253482382853
  0
ARC
  5
718
330
23
100
AcDbEntity
  8
SANINDUSA
100
AcDbCircle
 10
1824.3468126078
 20
1266.469399983448
 30
0.0
 40
0.4249345095329766
100
AcDbArc
 50
108.6352685027091
 51
115.3119197495103
  0
ARC
  5
719
330
23
100
AcDbEntity
  8
SANINDUSA
100
AcDbCircle
 10
1824.491485894755
 20
1266.881622222847
 30
0.0
 40
0.010061784302536
100
AcDbArc
 50
176.6136265478375
 51
251.32704676566
  0
ARC
  5
71A
330
23
100
AcDbEntity
  8
SANINDUSA
100
AcDbCircle
 10
1824.207831984382
 20
1266.881596891384
 30
0.0
 40
0.0100263472581622
100
AcDbArc
 50
288.5183438882206
 51
3.539625598543802
  0
ARC
  5
71B
330
23
100
AcDbEntity
  8
SANINDUSA
100
AcDbCircle
 10
1824.530056193121
 20
1266.844608391409
 30
0.0
 40
0.0097957116438503
100
AcDbArc
 50
357.0112734602171
 51
65.38647105241055
  0
ARC
  5
71C
330
23
100
AcDbEntity
  8
SANINDUSA
100
AcDbCircle
 10
1824.169310270531
 20
1266.844565622932
 30
0.0
 40
0.0098957334139808
100
AcDbArc
 50
114.9672104784749
 51
182.7137266165299
  0
ARC
  5
71D
330
23
100
AcDbEntity
  8
SANINDUSA
100
AcDbCircle
 10
1824.350033467458
 20
1266.452552460422
 30
0.0
 40
0.4565504726502282
100
AcDbArc
 50
90.04932642155344
 51
104.7281364351056
  0
ARC
  5
71E
330
23
100
AcDbEntity
  8
SANINDUSA
100
AcDbCircle
 10
1824.350025593451
 20
1266.584756708521
 30
0.0
 40
0.3304012852889266
100
AcDbArc
 50
90.06679438456291
 51
110.5654275550669
  0
ARC
  5
723
330
23
100
AcDbEntity
  8
SANINDUSA
100
AcDbCircle
 10
1824.349255245169
 20
1266.584756756762
 30
0.0
 40
0.3304012370447775
100
AcDbArc
 50
69.43457094457058
 51
89.93320616259387
  0
ARC
  5
724
330
23
100
AcDbEntity
  8
SANINDUSA
100
AcDbCircle
 10
1824.349247373927
 20
1266.452552460422
 30
0.0
 40
0.4565504726502282
100
AcDbArc
 50
75.27186356489437
 51
89.95067357844657
  0
LINE
  5
727
330
23
100
AcDbEntity
  8
SANINDUSA
100
AcDbLine
 10
1824.222200412182
 20
1267.027366999956
 30
0.0
 11
1824.349640417723
 21
1267.027366999956
 31
0.0
  0
LINE
  5
72A
330
23
100
AcDbEntity
  8
SANINDUSA
100
AcDbLine
 10
1824.477080425127
 20
1267.027366999956
 30
0.0
 11
1824.349640417723
 21
1267.027366999956
 31
0.0
  0
LWPOLYLINE
  5
73A
330
23
100
AcDbEntity
  8
SANINDUSA
100
AcDbPolyline
 90
       42
 70
   128
 43
0.0
 10
1824.349640417723
 20
1266.826958809467
 10
1824.360917370645
 20
1266.826582674356
 10
1824.372144605844
 20
1266.825459395023
 10
1824.384681466846
 20
1266.823295448395
 10
1824.397055659322
 20
1266.820188362571
 10
1824.409164290754
 20
1266.816168714734
 10
1824.420904476075
 20
1266.811267037364
 10
1824.431865092246
 20
1266.805776466103
 10
1824.442455436913
 20
1266.799527813168
 10
1824.452493823944
 20
1266.792464230629
 10
1824.461798569067
 20
1266.784528855654
 10
1824.465628895788
 20
1266.780470002862
 10
1824.468990607066
 20
1266.775992785068
 10
1824.471819462134
 20
1266.771182123991
 10
1824.47408370941
 20
1266.766078953119
 10
1824.475770390472
 20
1266.760738317343
 10
1824.476846520668
 20
1266.755260233255
 10
1824.477380754305
 20
1266.746880297037
 10
1824.476987378551
 20
1266.738454167219
 10
1824.476122762887
 20
1266.73001635489
 10
1824.475243275864
 20
1266.721601311536
 10
1824.470756082675
 20
1266.674799386831
 10
1824.465424626945
 20
1266.627480332227
 10
1824.464274857072
 20
1266.617949042889
 10
1824.462980378298
 20
1266.608405653806
 10
1824.461322273938
 20
1266.598938230844
 10
1824.459081627308
 20
1266.589634899469
 10
1824.45603951986
 20
1266.580583725544
 10
1824.452090434609
 20
1266.57171595511
 10
1824.447396740196
 20
1266.563179705711
 10
1824.442012160895
 20
1266.555061284872
 10
1824.435990415393
 20
1266.547447089525
 10
1824.429412681488
 20
1266.540437791916
 10
1824.422250706582
 20
1266.533976320596
 10
1824.414580073087
 20
1266.528128300281
 10
1824.406476352243
 20
1266.522959355684
 10
1824.397962655751
 20
1266.51849919972
 10
1824.389072511224
 20
1266.514756981703
 10
1824.37990124139
 20
1266.511770073744
 10
1824.370544198779
 20
1266.509575728746
 10
1824.360138241081
 20
1266.508105580183
 10
1824.349640417723
 20
1266.50760931191
  0
LWPOLYLINE
  5
743
330
23
100
AcDbEntity
  8
SANINDUSA
100
AcDbPolyline
 90
       42
 70
   128
 43
0.0
 10
1824.349640417723
 20
1266.826958809467
 10
1824.338363472251
 20
1266.826582674356
 10
1824.327136237053
 20
1266.825459395023
 10
1824.314599368601
 20
1266.823295448395
 10
1824.302225176124
 20
1266.820188362571
 10
1824.290116552143
 20
1266.816168714734
 10
1824.278376359371
 20
1266.811267037364
 10
1824.267415750651
 20
1266.805776466103
 10
1824.256825405983
 20
1266.799527813168
 10
1824.246787015228
 20
1266.792464230629
 10
1824.237482268242
 20
1266.784528855654
 10
1824.23365195456
 20
1266.780470002862
 10
1824.230290222792
 20
1266.775992785068
 10
1824.227461386351
 20
1266.771182123991
 10
1824.225197125105
 20
1266.766078953119
 10
1824.22351046267
 20
1266.760738317343
 10
1824.222434330611
 20
1266.755260233255
 10
1824.22190009418
 20
1266.746880297037
 10
1824.222293455033
 20
1266.738454167219
 10
1824.22315808001
 20
1266.73001635489
 10
1824.224037576346
 20
1266.721601311536
 10
1824.228524763016
 20
1266.674799386831
 10
1824.233856219677
 20
1266.627480332227
 10
1824.235005978374
 20
1266.617949042889
 10
1824.236300457148
 20
1266.608405653806
 10
1824.237958568959
 20
1266.598938230844
 10
1824.240199211864
 20
1266.589634899469
 10
1824.243241328625
 20
1266.580583725544
 10
1824.247190404562
 20
1266.57171595511
 10
1824.251884106426
 20
1266.563179705711
 10
1824.257268685727
 20
1266.555061284872
 10
1824.263290423779
 20
1266.547447089525
 10
1824.269868153958
 20
1266.540437791916
 10
1824.277030128865
 20
1266.533976320596
 10
1824.28470076981
 20
1266.528128300281
 10
1824.292804483204
 20
1266.522959355684
 10
1824.301318187146
 20
1266.51849919972
 10
1824.310208339123
 20
1266.514756981703
 10
1824.319379601507
 20
1266.511770073744
 10
1824.328736651568
 20
1266.509575728746
 10
1824.339142594365
 20
1266.508105580183
 10
1824.349640417723
 20
1266.50760931191
  0
LINE
  5
745
330
23
100
AcDbEntity
  8
SANINDUSA
100
AcDbLine
 10
1824.465317530437
 20
1266.8941020709
 30
0.0
 11
1824.471237042798
 21
1266.892063934775
 31
0.0
  0
LINE
  5
746
330
23
100
AcDbEntity
  8
SANINDUSA
100
AcDbLine
 10
1824.233963299422
 20
1266.8941020709
 30
0.0
 11
1824.228043813137
 21
1266.892063934775
 31
0.0
  0
LWPOLYLINE
  5
748
330
23
100
AcDbEntity
  8
SANINDUSA
100
AcDbPolyline
 90
        3
 70
   128
 43
0.0
 10
1824.474010990812
 20
1266.891717154952
 10
1824.473991177855
 20
1266.89171687183
 10
1824.471237042798
 20
1266.892063934775
  0
LWPOLYLINE
  5
74A
330
23
100
AcDbEntity
  8
SANINDUSA
100
AcDbPolyline
 90
        3
 70
   128
 43
0.0
 10
1824.225269842772
 20
1266.891717154952
 10
1824.225289661317
 20
1266.89171687183
 10
1824.228043813137
 20
1266.892063934775
  0
ARC
  5
74D
330
23
100
AcDbEntity
  8
SANINDUSA
100
AcDbCircle
 10
1822.082659443786
 20
1267.009174147354
 30
0.0
 40
2.402149702058839
100
AcDbArc
 50
357.3102283671453
 51
0.3865472179632633
  0
ARC
  5
750
330
23
100
AcDbEntity
  8
SANINDUSA
100
AcDbCircle
 10
1826.616637241198
 20
1267.009174309144
 30
0.0
 40
2.402165533354526
100
AcDbArc
 50
179.6134591917101
 51
182.6897577562429
  0
LWPOLYLINE
  5
752
330
23
100
AcDbEntity
  8
SANINDUSA
100
AcDbPolyline
 90
       10
 70
   128
 43
0.0
 10
1824.482162621683
 20
1266.896445755335
 10
1824.482162135532
 20
1266.896436009975
 10
1824.482081777528
 20
1266.895953853103
 10
1824.481169212954
 20
1266.89445740399
 10
1824.480206849864
 20
1266.893630762072
 10
1824.478968400387
 20
1266.892891738983
 10
1824.478542914027
 20
1266.892692584964
 10
1824.475819203882
 20
1266.89188293037
 10
1824.474039791962
 20
1266.891717616888
 10
1824.474010990812
 20
1266.891717154952
  0
LWPOLYLINE
  5
753
330
23
100
AcDbEntity
  8
SANINDUSA
100
AcDbPolyline
 90
       10
 70
   128
 43
0.0
 10
1824.217118222146
 20
1266.896445755335
 10
1824.217118698983
 20
1266.896436009975
 10
1824.217199075846
 20
1266.895953853103
 10
1824.218111622958
 20
1266.89445740399
 10
1824.219073999552
 20
1266.893630762072
 10
1824.220312435059
 20
1266.892891738983
 10
1824.220737922816
 20
1266.892692584964
 10
1824.223461646466
 20
1266.89188293037
 10
1824.225241053729
 20
1266.891717616888
 10
1824.225269842772
 20
1266.891717154952
  0
LINE
  5
755
330
23
100
AcDbEntity
  8
SANINDUSA
100
AcDbLine
 10
1824.482754521882
 20
1267.027366999956
 30
0.0
 11
1824.477080425127
 21
1267.027366999956
 31
0.0
  0
LINE
  5
757
330
23
100
AcDbEntity
  8
SANINDUSA
100
AcDbLine
 10
1824.216526318221
 20
1267.027366999956
 30
0.0
 11
1824.222200412182
 21
1267.027366999956
 31
0.0
  0
ARC
  5
75A
330
23
100
AcDbEntity
  8
SANINDUSA
100
AcDbCircle
 10
1822.222169503922
 20
1267.003797311079
 30
0.0
 40
2.262541325334069
100
AcDbArc
 50
357.1456782392705
 51
357.280446920305
  0
LINE
  5
75B
330
23
100
AcDbEntity
  8
SANINDUSA
100
AcDbLine
 10
1824.481681142347
 20
1266.88674910781
 30
0.0
 11
1824.48190386232
 21
1266.891130198212
 31
0.0
  0
LINE
  5
75D
330
23
100
AcDbEntity
  8
SANINDUSA
100
AcDbLine
 10
1824.217599708466
 20
1266.88674910781
 30
0.0
 11
1824.217376965908
 21
1266.891130198212
 31
0.0
  0
ARC
  5
75E
330
23
100
AcDbEntity
  8
SANINDUSA
100
AcDbCircle
 10
1826.490933656258
 20
1267.004463504103
 30
0.0
 40
2.276379683281505
100
AcDbArc
 50
182.7197949741385
 51
182.8537443674581
  0
LINE
  5
762
330
23
100
AcDbEntity
  8
SANINDUSA
100
AcDbLine
 10
1824.48144167929
 20
1266.882216562005
 30
0.0
 11
1824.481681142347
 21
1266.88674910781
 31
0.0
  0
LINE
  5
763
330
23
100
AcDbEntity
  8
SANINDUSA
100
AcDbLine
 10
1824.217839170126
 20
1266.882216562005
 30
0.0
 11
1824.217599708466
 21
1266.88674910781
 31
0.0
  0
CIRCLE
  5
766
330
23
100
AcDbEntity
  8
SANINDUSA
100
AcDbCircle
 10
-1824.428640420851
 20
1266.878354205548
 30
0.0016466867304174
 40
0.0075000000003024
210
0.0000009025766768
220
-0.0000000000000071
230
-0.9999999999995928
  0
CIRCLE
  5
767
330
23
100
AcDbEntity
  8
SANINDUSA
100
AcDbCircle
 10
1824.270640419047
 20
1266.878354205548
 30
0.0016465441284732
 40
0.0075000000003024
210
0.0000009025766698
220
0.0000000000000071
230
0.9999999999995928
  0
ARC
  5
76C
330
23
100
AcDbEntity
  8
SANINDUSA
100
AcDbCircle
 10
1824.482754783098
 20
1267.025366999956
 30
0.0
 40
0.0020000000000807
100
AcDbArc
 50
0.377569093972303
 51
90.0
  0
ARC
  5
76E
330
23
100
AcDbEntity
  8
SANINDUSA
100
AcDbCircle
 10
1824.216526058286
 20
1267.025366999956
 30
0.0
 40
0.0020000000000807
100
AcDbArc
 50
90.0
 51
179.6224309060277
  0
ARC
  5
785
330
23
100
AcDbEntity
  8
SANINDUSA
100
AcDbCircle
 10
1824.359104458057
 20
1266.666989340706
 30
0.0
 40
0.0297179158102153
100
AcDbArc
 50
269.828888413208
 51
0.4751104556753296
  0
ARC
  5
788
330
23
100
AcDbEntity
  8
SANINDUSA
100
AcDbCircle
 10
1824.34017636565
 20
1266.666989314207
 30
0.0
 40
0.0297178893903234
100
AcDbArc
 50
179.5248380316983
 51
270.1711630979697
  0
LWPOLYLINE
  5
794
330
23
100
AcDbEntity
  8
SANINDUSA
100
AcDbPolyline
 90
        4
 70
   128
 43
0.0
 10
1824.389955844609
 20
1266.733133022161
 10
1824.38939058396
 20
1266.700185422273
 10
1824.389102641372
 20
1266.683708761306
 10
1824.388821352152
 20
1266.667235766025
  0
LWPOLYLINE
  5
795
330
23
100
AcDbEntity
  8
SANINDUSA
100
AcDbPolyline
 90
        4
 70
   128
 43
0.0
 10
1824.309324998288
 20
1266.733133022161
 10
1824.309890258937
 20
1266.700185422273
 10
1824.310178208975
 20
1266.683708761306
 10
1824.310459498195
 20
1266.667235766025
  0
ARC
  5
79B
330
23
100
AcDbEntity
  8
SANINDUSA
100
AcDbCircle
 10
1824.374663424286
 20
1266.731816750897
 30
0.0
 40
0.0150181946220076
100
AcDbArc
 50
359.6127095431849
 51
89.5258456300921
  0
ARC
  5
79D
330
23
100
AcDbEntity
  8
SANINDUSA
100
AcDbCircle
 10
1824.324617418723
 20
1266.731816750847
 30
0.0
 40
0.0150181947340292
100
AcDbArc
 50
90.47418321386087
 51
180.3872902743454
  0
SPLINE
  5
7A0
330
23
100
AcDbEntity
  8
SANINDUSA
100
AcDbSpline
210
0.0
220
0.0
230
1.0
 70
    28
 71
     3
 72
    10
 73
     6
 74
     0
 42
0.0000000001
 43
0.0000000001
 40
0.0
 40
0.0
 40
0.0
 40
0.0
 40
0.5
 40
0.5
 40
0.5568494728842395
 40
0.5568494728842395
 40
0.5568494728842395
 40
0.5568494728842395
 10
1824.349640420692
 20
1266.746834421634
 30
0.0
 41
1.0
 10
1824.357153955665
 20
1266.746834421634
 30
0.0
 41
1.0
 10
1824.364661787819
 20
1266.746834421634
 30
0.0
 41
1.0
 10
1824.373069357144
 20
1266.746834421634
 30
0.0
 41
1.0
 10
1824.373928231961
 20
1266.746834421634
 30
0.0
 41
1.0
 10
1824.374787710073
 20
1266.746834421634
 30
0.0
 41
1.0
  0
SPLINE
  5
7A1
330
23
100
AcDbEntity
  8
SANINDUSA
100
AcDbSpline
210
0.0
220
0.0
230
1.0
 70
    28
 71
     3
 72
    10
 73
     6
 74
     0
 42
0.0000000001
 43
0.0000000001
 40
0.0
 40
0.0
 40
0.0
 40
0.0
 40
0.5
 40
0.5
 40
0.5568494728842392
 40
0.5568494728842392
 40
0.5568494728842392
 40
0.5568494728842392
 10
1824.349640420692
 20
1266.746834421634
 30
0.0
 41
1.0
 10
1824.34212688572
 20
1266.746834421634
 30
0.0
 41
1.0
 10
1824.334619053565
 20
1266.746834421634
 30
0.0
 41
1.0
 10
1824.32621148424
 20
1266.746834421634
 30
0.0
 41
1.0
 10
1824.325352609423
 20
1266.746834421634
 30
0.0
 41
1.0
 10
1824.324493131312
 20
1266.746834421634
 30
0.0
 41
1.0
  0
LWPOLYLINE
  5
7C7
330
23
100
AcDbEntity
  8
SANINDUSA
100
AcDbPolyline
 90
       21
 70
   128
 43
0.0
 10
1826.163683576333
 20
1266.916510737249
 10
1826.160944782203
 20
1266.918659265181
 10
1826.157997070814
 20
1266.920972825953
 10
1826.155306684658
 20
1266.923085262228
 10
1826.152875707162
 20
1266.924994555233
 10
1826.150705381128
 20
1266.926699362391
 10
1826.148794595181
 20
1266.928200176513
 10
1826.14714711827
 20
1266.929493773477
 10
1826.145739744899
 20
1266.930598255046
 10
1826.144575586909
 20
1266.931511049323
 10
1826.143660044451
 20
1266.932227788337
 10
1826.142993443448
 20
1266.932748067539
 10
1826.142564412012
 20
1266.933080428232
 10
1826.142404458182
 20
1266.933201917977
 10
1826.142323932744
 20
1266.933261234992
 10
1826.142220734728
 20
1266.933334307703
 10
1826.142045501112
 20
1266.93345015925
 10
1826.141783330354
 20
1266.933604956197
 10
1826.141414036902
 20
1266.933788793059
 10
1826.140777198904
 20
1266.934023290867
 10
1826.139972862064
 20
1266.934182191111
  0
LWPOLYLINE
  5
7C8
330
23
100
AcDbEntity
  8
SANINDUSA
100
AcDbPolyline
 90
        3
 70
   128
 43
0.0
 10
1826.165814155645
 20
1266.915002879623
 10
1826.164852476553
 20
1266.915637759452
 10
1826.163683576333
 20
1266.916510737249
  0
ARC
  5
7C9
330
23
100
AcDbEntity
  8
SANINDUSA
100
AcDbCircle
 10
1826.171923418135
 20
1266.916377113801
 30
0.0
 40
0.0053692834645964
100
AcDbArc
 50
214.4371657221728
 51
269.0958394235519
  0
ARC
  5
7CA
330
23
100
AcDbEntity
  8
SANINDUSA
100
AcDbCircle
 10
1826.162137013633
 20
1266.909602952104
 30
0.0
 40
0.0065330383890937
100
AcDbArc
 50
34.8996752961145
 51
55.74664913212256
  0
LWPOLYLINE
  5
7CB
330
23
100
AcDbEntity
  8
SANINDUSA
100
AcDbPolyline
 90
       10
 70
   128
 43
0.0
 10
1826.561064938236
 20
1266.898078255362
 10
1826.559540944806
 20
1266.876284139663
 42
0.4142136369009586
 10
1826.560468752617
 20
1266.875216819104
 10
1826.575581941949
 20
1266.874160005543
 10
1826.587032093866
 20
1266.873359336504
 42
0.3734095754709574
 10
1826.588079649622
 20
1266.874147358322
 10
1826.590649945619
 20
1266.886141284726
 10
1826.593042798558
 20
1266.897807573414
 42
0.4747872283924392
 10
1826.592063192024
 20
1266.89900849887
 10
1826.562062502285
 20
1266.89900849887
  0
LWPOLYLINE
  5
7CC
330
23
100
AcDbEntity
  8
SANINDUSA
100
AcDbPolyline
 90
        5
 70
   128
 43
0.0
 10
1826.199519120505
 20
1266.873545470434
 10
1826.207010910933
 20
1266.874069344326
 10
1826.223420622204
 20
1266.87521681887
 42
0.4142136378646695
 10
1826.224348430038
 20
1266.876284139412
 10
1826.222824436992
 20
1266.898078255344
  0
ARC
  5
7CD
330
23
100
AcDbEntity
  8
SANINDUSA
100
AcDbCircle
 10
1826.227282109834
 20
1266.90600849887
 30
0.0
 40
0.0050000000000858
100
AcDbArc
 50
4.000000000157284
 51
90.0
  0
ARC
  5
7CE
330
23
100
AcDbEntity
  8
SANINDUSA
100
AcDbCircle
 10
1826.556607263794
 20
1266.906008497822
 30
0.0
 40
0.0050000010476598
100
AcDbArc
 50
89.99999567485273
 51
175.9999887949059
  0
LINE
  5
7CF
330
23
100
AcDbEntity
  8
SANINDUSA
100
AcDbLine
 10
1826.154824437149
 20
1266.91100849887
 30
0.0
 11
1826.227282109834
 21
1266.91100849887
 31
0.0
  0
LINE
  5
7D0
330
23
100
AcDbEntity
  8
SANINDUSA
100
AcDbLine
 10
1826.556607264171
 20
1266.91100849887
 30
0.0
 11
1826.596945843726
 21
1266.91100849887
 31
0.0
  0
LWPOLYLINE
  5
7D1
330
23
100
AcDbEntity
  8
SANINDUSA
100
AcDbPolyline
 90
       14
 70
   128
 43
0.0
 10
1826.569421250732
 20
1266.805572235678
 10
1826.564210048002
 20
1266.799077853403
 10
1826.555055731469
 20
1266.789742608292
 10
1826.544933321319
 20
1266.78128931978
 10
1826.53401375674
 20
1266.773891756823
 10
1826.52500273925
 20
1266.768896651473
 10
1826.515320226701
 20
1266.764295949914
 10
1826.505867443435
 20
1266.760228235748
 10
1826.496269945547
 20
1266.756513324423
 10
1826.487306391516
 20
1266.753427166187
 42
0.3346019995938668
 10
1826.486633307415
 20
1266.752429303833
 10
1826.493301705231
 20
1266.625188693614
 42
0.3989595459737201
 10
1826.494300334766
 20
1266.624241029571
 10
1826.509344719818
 20
1266.624241029571
  0
ARC
  5
7D2
330
23
100
AcDbEntity
  8
SANINDUSA
100
AcDbCircle
 10
1825.130523189805
 20
1267.192330329328
 30
0.0
 40
1.491885336143108
100
AcDbArc
 50
337.64334510486
 51
344.9397382485796
  0
ARC
  5
7D3
330
23
100
AcDbEntity
  8
SANINDUSA
100
AcDbCircle
 10
1826.221826872941
 20
1266.89800849887
 30
0.0
 40
0.001
100
AcDbArc
 50
4.000000000157284
 51
90.0
  0
ARC
  5
7D4
330
23
100
AcDbEntity
  8
SANINDUSA
100
AcDbCircle
 10
1826.596945844664
 20
1266.902008498625
 30
0.0
 40
0.0090000002444697
100
AcDbArc
 50
348.8014533958655
 51
90.00000597964636
  0
ARC
  5
7D5
330
23
100
AcDbEntity
  8
SANINDUSA
100
AcDbCircle
 10
1826.474869402325
 20
1266.747610113521
 30
0.0
 40
0.0020000000000002
100
AcDbArc
 50
3.000000003272976
 51
105.2069118827397
  0
LWPOLYLINE
  5
7D6
330
23
100
AcDbEntity
  8
SANINDUSA
100
AcDbPolyline
 90
        3
 70
   128
 43
0.0
 10
1826.474344791276
 20
1266.749540083274
 10
1826.461331899173
 20
1266.74634540939
 10
1826.44816753673
 20
1266.743794561684
  0
LINE
  5
7D7
330
23
100
AcDbEntity
  8
SANINDUSA
100
AcDbLine
 10
1826.476866661395
 20
1266.747714785434
 30
0.0
 11
1826.48386171196
 21
1266.614241269471
 31
0.0
  0
LWPOLYLINE
  5
7D8
330
23
100
AcDbEntity
  8
SANINDUSA
100
AcDbPolyline
 90
        5
 70
   128
 43
0.0
 10
1826.122948570868
 20
1266.614241213948
 10
1826.154678496348
 20
1266.61424121232
 10
1826.187563578699
 20
1266.614241210603
 10
1826.21813522429
 20
1266.614241208184
 10
1826.233517936531
 20
1266.614241206081
  0
LWPOLYLINE
  5
7D9
330
23
100
AcDbEntity
  8
SANINDUSA
100
AcDbPolyline
 90
       16
 70
   128
 43
0.0
 10
1826.408949614668
 20
1266.614241170628
 10
1826.415594004626
 20
1266.614241167883
 10
1826.425568594957
 20
1266.614241162211
 10
1826.43525484257
 20
1266.61424115512
 10
1826.442288725719
 20
1266.614241148904
 10
1826.449083489569
 20
1266.614241141948
 10
1826.455588125568
 20
1266.614241133819
 10
1826.46158581136
 20
1266.614241124422
 10
1826.467148620718
 20
1266.614241113557
 10
1826.472002081268
 20
1266.614241101629
 10
1826.476123172153
 20
1266.61424108867
 10
1826.479404659421
 20
1266.614241074946
 10
1826.481084834981
 20
1266.614241065606
 10
1826.482371604967
 20
1266.614241056089
 10
1826.483264969378
 20
1266.614241046398
 10
1826.483863894677
 20
1266.614241029571
  0
LINE
  5
7DB
330
23
100
AcDbEntity
  8
SANINDUSA
100
AcDbLine
 10
1826.031861736215
 20
1266.754855315082
 30
0.0
 11
1826.031861736215
 21
1266.696308103216
 31
0.0
  0
LINE
  5
7DC
330
23
100
AcDbEntity
  8
SANINDUSA
100
AcDbLine
 10
1826.551619442606
 20
1266.906357281822
 30
0.0
 11
1826.548865300627
 21
1266.867006062922
 31
0.0
  0
ARC
  5
7DD
330
23
100
AcDbEntity
  8
SANINDUSA
100
AcDbCircle
 10
1826.549865300627
 20
1266.866936306429
 30
0.0
 40
0.001
100
AcDbArc
 50
175.9999989027415
 51
265.9999989287332
  0
LWPOLYLINE
  5
7DE
330
23
100
AcDbEntity
  8
SANINDUSA
100
AcDbPolyline
 90
        6
 70
   128
 43
0.0
 10
1826.201178515008
 20
1266.863637086664
 10
1826.206676071616
 20
1266.864021511086
 10
1826.220883731809
 20
1266.865015003556
 10
1826.234093827673
 20
1266.865938742467
 42
0.4142135839603906
 10
1826.235021635323
 20
1266.867006062996
 10
1826.232269928839
 20
1266.906357299069
  0
LWPOLYLINE
  5
7E3
330
23
100
AcDbEntity
  8
SANINDUSA
100
AcDbPolyline
 90
       10
 70
   128
 43
0.0
 10
1826.111861736215
 20
1266.847200334252
 10
1826.111861736215
 20
1266.838963877815
 42
0.4620138029042675
 10
1826.113021451234
 20
1266.837976714651
 10
1826.119140643418
 20
1266.838966750472
 10
1826.12634479505
 20
1266.840777960176
 10
1826.133082719941
 20
1266.843108772056
 10
1826.139625928805
 20
1266.845947987008
 10
1826.152615112405
 20
1266.852098903491
 10
1826.171183792247
 20
1266.860893797246
 10
1826.189751085671
 20
1266.869691618565
  0
LWPOLYLINE
  5
7E4
330
23
100
AcDbEntity
  8
SANINDUSA
100
AcDbPolyline
 90
        3
 70
   128
 43
0.0
 10
1826.476601389545
 20
1266.760567342409
 10
1826.461663435345
 20
1266.756668597786
 10
1826.446507450242
 20
1266.75365580465
  0
LINE
  5
7E5
330
23
100
AcDbEntity
  8
SANINDUSA
100
AcDbLine
 10
1826.477340308651
 20
1266.760784874606
 30
0.0
 11
1826.476601389545
 21
1266.760567342409
 31
0.0
  0
LWPOLYLINE
  5
7E6
330
23
100
AcDbEntity
  8
SANINDUSA
100
AcDbPolyline
 90
       18
 70
   128
 43
0.0
 10
1826.549795544134
 20
1266.86593874238
 10
1826.584063278171
 20
1266.863542508339
 42
-0.4624396649899728
 10
1826.584966817767
 20
1266.862315390975
 10
1826.582966983188
 20
1266.85383617923
 10
1826.579924281308
 20
1266.84443223741
 10
1826.576177338264
 20
1266.83540814455
 10
1826.571716482084
 20
1266.826711383116
 10
1826.566602195175
 20
1266.818440745252
 10
1826.56084322801
 20
1266.810603397805
 10
1826.554472300189
 20
1266.803241892221
 10
1826.547534240228
 20
1266.796413954064
 10
1826.540018451121
 20
1266.790117876054
 10
1826.532019408514
 20
1266.78444741389
 10
1826.523506689498
 20
1266.779392474559
 10
1826.514568989504
 20
1266.774957086429
 10
1826.502335866881
 20
1266.769587573515
 10
1826.489973978741
 20
1266.764877007785
 10
1826.477340308651
 20
1266.760784874606
  0
ARC
  5
7E7
330
23
100
AcDbEntity
  8
SANINDUSA
100
AcDbCircle
 10
1825.130576934414
 20
1267.192314041917
 30
0.0
 40
1.503829451858361
100
AcDbArc
 50
337.4443345368853
 51
348.8016277409146
  0
ARC
  5
7E8
330
23
100
AcDbEntity
  8
SANINDUSA
100
AcDbCircle
 10
1826.51752739745
 20
1266.616241029571
 30
0.0
 40
0.0020000000000033
100
AcDbArc
 50
270.0
 51
337.4445039602968
  0
LINE
  5
7E9
330
23
100
AcDbEntity
  8
SANINDUSA
100
AcDbLine
 10
1826.483862803318
 20
1266.614241029571
 30
0.0
 11
1826.51752739745
 21
1266.614241029571
 31
0.0
  0
ARC
  5
7EA
330
23
100
AcDbEntity
  8
SANINDUSA
100
AcDbCircle
 10
1826.451487710854
 20
1266.724072075943
 30
0.0
 40
0.0200000000000184
100
AcDbArc
 50
99.55583615625371
 51
169.999999998777
  0
LINE
  5
7EB
330
23
100
AcDbEntity
  8
SANINDUSA
100
AcDbLine
 10
1826.431791555793
 20
1266.727545039496
 30
0.0
 11
1826.415541039664
 21
1266.635383782812
 31
0.0
  0
ARC
  5
7EC
330
23
100
AcDbEntity
  8
SANINDUSA
100
AcDbCircle
 10
1826.326908341893
 20
1266.651012118802
 30
0.0
 40
0.0900000000000001
100
AcDbArc
 50
270.3739074914943
 51
349.999999998777
  0
ARC
  5
7ED
330
23
100
AcDbEntity
  8
SANINDUSA
100
AcDbCircle
 10
1826.325798943902
 20
1266.82100849887
 30
0.0
 40
0.2600000000000002
100
AcDbArc
 50
266.4720746106271
 51
270.3739074914943
  0
ARC
  5
7EE
330
23
100
AcDbEntity
  8
SANINDUSA
100
AcDbCircle
 10
1826.315337991677
 20
1266.651330661547
 30
0.0
 40
0.0900000000000001
100
AcDbArc
 50
200.000000000605
 51
266.4720746106271
  0
LINE
  5
7EF
330
23
100
AcDbEntity
  8
SANINDUSA
100
AcDbLine
 10
1826.230765655806
 20
1266.620548848648
 30
0.0
 11
1826.213952530587
 21
1266.666742530538
 31
0.0
  0
ARC
  5
7F0
330
23
100
AcDbEntity
  8
SANINDUSA
100
AcDbCircle
 10
1826.199857141275
 20
1266.661612228388
 30
0.0
 40
0.0150000000000002
100
AcDbArc
 50
20.00000000060502
 51
87.9999999962464
  0
LINE
  5
7F1
330
23
100
AcDbEntity
  8
SANINDUSA
100
AcDbLine
 10
1826.200380633726
 20
1266.676603090794
 30
0.0
 11
1826.111512741248
 21
1266.679706425982
 31
0.0
  0
LINE
  5
7F2
330
23
100
AcDbEntity
  8
SANINDUSA
100
AcDbLine
 10
1826.111861736215
 20
1266.689700334252
 30
0.0
 11
1826.111512741248
 21
1266.679706425982
 31
0.0
  0
LINE
  5
7F3
330
23
100
AcDbEntity
  8
SANINDUSA
100
AcDbLine
 10
1826.200729628693
 20
1266.686596999064
 30
0.0
 11
1826.111861736215
 21
1266.689700334252
 31
0.0
  0
ARC
  5
7F4
330
23
100
AcDbEntity
  8
SANINDUSA
100
AcDbCircle
 10
1826.199857141275
 20
1266.661612228388
 30
0.0
 40
0.0250000000000001
100
AcDbArc
 50
20.00000000060502
 51
87.9999999962464
  0
LINE
  5
7F5
330
23
100
AcDbEntity
  8
SANINDUSA
100
AcDbLine
 10
1826.240162582014
 20
1266.623969050081
 30
0.0
 11
1826.223349456794
 21
1266.670162731972
 31
0.0
  0
ARC
  5
7F6
330
23
100
AcDbEntity
  8
SANINDUSA
100
AcDbCircle
 10
1826.315337991677
 20
1266.651330661547
 30
0.0
 40
0.0800000000000002
100
AcDbArc
 50
200.000000000605
 51
266.4720746106271
  0
ARC
  5
7F7
330
23
100
AcDbEntity
  8
SANINDUSA
100
AcDbCircle
 10
1826.325798943902
 20
1266.82100849887
 30
0.0
 40
0.2500000000000002
100
AcDbArc
 50
266.4720746106271
 51
270.3739074914943
  0
ARC
  5
7F8
330
23
100
AcDbEntity
  8
SANINDUSA
100
AcDbCircle
 10
1826.326908341893
 20
1266.651012118802
 30
0.0
 40
0.0800000000000003
100
AcDbArc
 50
270.3739074914943
 51
349.999999998777
  0
LINE
  5
7F9
330
23
100
AcDbEntity
  8
SANINDUSA
100
AcDbLine
 10
1826.421943478263
 20
1266.729281521273
 30
0.0
 11
1826.405692962134
 21
1266.637120264589
 31
0.0
  0
ARC
  5
7FA
330
23
100
AcDbEntity
  8
SANINDUSA
100
AcDbCircle
 10
1826.451487710854
 20
1266.724072075943
 30
0.0
 40
0.0299999999999999
100
AcDbArc
 50
99.55583615625371
 51
169.999999998777
  0
ARC
  5
7FB
330
23
100
AcDbEntity
  8
SANINDUSA
100
AcDbCircle
 10
1826.562062502285
 20
1266.89800849887
 30
0.0
 40
0.001
100
AcDbArc
 50
90.0
 51
175.9999989547247
  0
LINE
  5
7FC
330
23
100
AcDbEntity
  8
SANINDUSA
100
AcDbLine
 10
1826.139373161204
 20
1266.934224287027
 30
0.0
 11
1826.033862000593
 21
1266.934238234457
 31
0.0
  0
ARC
  5
7FD
330
23
100
AcDbEntity
  8
SANINDUSA
100
AcDbCircle
 10
1826.139372500788
 20
1266.929224285428
 30
0.0
 40
0.0050000016425079
100
AcDbArc
 50
20.00001290828604
 51
89.99243219081559
  0
LINE
  5
7FE
330
23
100
AcDbEntity
  8
SANINDUSA
100
AcDbLine
 10
1826.144070965236
 20
1266.930934387256
 30
0.0
 11
1826.150125972288
 21
1266.914298398153
 31
0.0
  0
ARC
  5
7FF
330
23
100
AcDbEntity
  8
SANINDUSA
100
AcDbCircle
 10
1826.154824436692
 20
1266.916008500726
 30
0.0
 40
0.005000001856016
100
AcDbArc
 50
200.0000148905726
 51
270.0000052370759
  0
ARC
  5
800
330
23
100
AcDbEntity
  8
SANINDUSA
100
AcDbCircle
 10
1826.317634815514
 20
1266.871783852653
 30
0.0
 40
0.1177452204421212
100
AcDbArc
 50
184.4924214889188
 51
228.0989400472156
  0
ARC
  5
801
330
23
100
AcDbEntity
  8
SANINDUSA
100
AcDbCircle
 10
1826.327854996898
 20
1266.883969447947
 30
0.0
 40
0.1336415155855707
100
AcDbArc
 50
228.3266944878276
 51
234.9505785867461
  0
ARC
  5
802
330
23
100
AcDbEntity
  8
SANINDUSA
100
AcDbCircle
 10
1826.360554651076
 20
1266.927986503615
 30
0.0
 40
0.1884611373241792
100
AcDbArc
 50
234.4971103316433
 51
246.1907255872912
  0
ARC
  5
803
330
23
100
AcDbEntity
  8
SANINDUSA
100
AcDbCircle
 10
1826.272362932654
 20
1266.728117821747
 30
0.0
 40
0.0300000015343359
100
AcDbArc
 50
63.54657498053728
 51
66.18989154306953
  0
ARC
  5
804
330
23
100
AcDbEntity
  8
SANINDUSA
100
AcDbCircle
 10
1826.263921748185
 20
1266.711152903626
 30
0.0
 40
0.0489489340130637
100
AcDbArc
 50
7.999999998104389
 51
63.54657498053728
  0
LINE
  5
805
330
23
100
AcDbEntity
  8
SANINDUSA
100
AcDbLine
 10
1826.312394314537
 20
1266.717965278561
 30
0.0
 11
1826.324615292938
 21
1266.63100849887
 31
0.0
  0
LINE
  5
806
330
23
100
AcDbEntity
  8
SANINDUSA
100
AcDbLine
 10
1826.324615292938
 20
1266.63100849887
 30
0.0
 11
1826.314517017213
 21
1266.63100849887
 31
0.0
  0
LINE
  5
807
330
23
100
AcDbEntity
  8
SANINDUSA
100
AcDbLine
 10
1826.314517017213
 20
1266.63100849887
 30
0.0
 11
1826.303334312176
 21
1266.710577579705
 31
0.0
  0
ARC
  5
808
330
23
100
AcDbEntity
  8
SANINDUSA
100
AcDbCircle
 10
1826.253818601557
 20
1266.70361723127
 30
0.0
 40
0.0500025204201122
100
AcDbArc
 50
8.001553571080879
 51
64.55709246731472
  0
ARC
  5
809
330
23
100
AcDbEntity
  8
SANINDUSA
100
AcDbCircle
 10
1826.358898265879
 20
1266.924978006932
 30
0.0
 40
0.1950328652748736
100
AcDbArc
 50
230.8282202306819
 51
244.6190044717139
  0
ARC
  5
80A
330
23
100
AcDbEntity
  8
SANINDUSA
100
AcDbCircle
 10
1826.235074589155
 20
1266.773002412344
 30
0.0
 40
0.001
100
AcDbArc
 50
50.8282202306818
 51
92.00000000375359
  0
LINE
  5
80B
330
23
100
AcDbEntity
  8
SANINDUSA
100
AcDbLine
 10
1826.111861736215
 20
1266.769700334252
 30
0.0
 11
1826.235039689658
 21
1266.774001803171
 31
0.0
  0
LINE
  5
80C
330
23
100
AcDbEntity
  8
SANINDUSA
100
AcDbLine
 10
1826.111512741248
 20
1266.779694242522
 30
0.0
 11
1826.111861736215
 21
1266.769700334252
 31
0.0
  0
LINE
  5
80D
330
23
100
AcDbEntity
  8
SANINDUSA
100
AcDbLine
 10
1826.111512741248
 20
1266.779694242522
 30
0.0
 11
1826.205025398146
 21
1266.782959776459
 31
0.0
  0
ARC
  5
80E
330
23
100
AcDbEntity
  8
SANINDUSA
100
AcDbCircle
 10
1826.204676403179
 20
1266.792953684729
 30
0.0
 40
0.0100000000000226
100
AcDbArc
 50
272.0000000037536
 51
34.90811117987463
  0
ARC
  5
80F
330
23
100
AcDbEntity
  8
SANINDUSA
100
AcDbCircle
 10
1826.317628608322
 20
1266.871781821147
 30
0.0
 40
0.127739158342257
100
AcDbArc
 50
186.9932227615645
 51
214.9109847778191
  0
ARC
  5
810
330
23
100
AcDbEntity
  8
SANINDUSA
100
AcDbCircle
 10
1826.188854575457
 20
1266.855986112864
 30
0.0
 40
0.0020000259689441
100
AcDbArc
 50
6.984882259204005
 51
115.3610049783292
  0
SPLINE
  5
811
330
23
100
AcDbEntity
  8
SANINDUSA
100
AcDbSpline
210
0.0
220
0.0
230
1.0
 70
    12
 71
     3
 72
    10
 73
     6
 74
     0
 42
0.0000000001
 43
0.0000000001
 40
0.1271966539183485
 40
0.1271966539183485
 40
0.1271966539183485
 40
0.1271966539183485
 40
0.597306948183811
 40
0.597306948183811
 40
1.0
 40
1.0
 40
1.0
 40
1.0
 10
1826.18799792387
 20
1266.857793390357
 30
0.0
 41
1.0
 10
1826.17299364502
 20
1266.850680368816
 30
0.0
 41
1.0
 10
1826.157989366168
 20
1266.843567347274
 30
0.0
 41
1.0
 10
1826.130132531408
 20
1266.830361363321
 30
0.0
 41
1.0
 10
1826.116085392016
 20
1266.827200334252
 30
0.0
 41
1.0
 10
1826.101861736215
 20
1266.827200334252
 30
0.0
 41
1.0
  0
LINE
  5
812
330
23
100
AcDbEntity
  8
SANINDUSA
100
AcDbLine
 10
1826.073861736215
 20
1266.827200334252
 30
0.0
 11
1826.101861736215
 21
1266.827200334252
 31
0.0
  0
ARC
  5
813
330
23
100
AcDbEntity
  8
SANINDUSA
100
AcDbCircle
 10
1826.073861736215
 20
1266.829200334252
 30
0.0
 40
0.002
100
AcDbArc
 50
180.0
 51
270.0
  0
LINE
  5
814
330
23
100
AcDbEntity
  8
SANINDUSA
100
AcDbLine
 10
1826.071861736215
 20
1266.837200334252
 30
0.0
 11
1826.071861736215
 21
1266.829200334252
 31
0.0
  0
LINE
  5
815
330
23
100
AcDbEntity
  8
SANINDUSA
100
AcDbLine
 10
1826.101861736215
 20
1266.837200334252
 30
0.0
 11
1826.071861736215
 21
1266.837200334252
 31
0.0
  0
LINE
  5
816
330
23
100
AcDbEntity
  8
SANINDUSA
100
AcDbLine
 10
1826.101861736215
 20
1266.847200334252
 30
0.0
 11
1826.101861736215
 21
1266.837200334252
 31
0.0
  0
LINE
  5
817
330
23
100
AcDbEntity
  8
SANINDUSA
100
AcDbLine
 10
1826.101861736215
 20
1266.847200334252
 30
0.0
 11
1826.111861736215
 21
1266.847200334252
 31
0.0
  0
LINE
  5
818
330
23
100
AcDbEntity
  8
SANINDUSA
100
AcDbLine
 10
1826.189751082221
 20
1266.86969161693
 30
0.0
 11
1826.196910403394
 21
1266.873085296595
 31
0.0
  0
ARC
  5
819
330
23
100
AcDbEntity
  8
SANINDUSA
100
AcDbCircle
 10
1826.199052317985
 20
1266.868567293611
 30
0.0
 40
0.0050000149071685
100
AcDbArc
 50
84.64305180923142
 51
115.3648987875973
  0
ARC
  5
81A
330
23
100
AcDbEntity
  8
SANINDUSA
100
AcDbCircle
 10
1826.154824435565
 20
1266.916008504945
 30
0.0
 40
0.0170000060749945
100
AcDbArc
 50
200.0000143340615
 51
270.0000053022137
  0
LINE
  5
81B
330
23
100
AcDbEntity
  8
SANINDUSA
100
AcDbLine
 10
1826.134470809957
 20
1266.92222493496
 30
0.0
 11
1826.138849656757
 21
1266.910194156433
 31
0.0
  0
LINE
  5
81C
330
23
100
AcDbEntity
  8
SANINDUSA
100
AcDbLine
 10
1826.134470809957
 20
1266.92222493496
 30
0.0
 11
1826.101861736215
 21
1266.922229245525
 31
0.0
  0
LINE
  5
81D
330
23
100
AcDbEntity
  8
SANINDUSA
100
AcDbLine
 10
1826.082861736215
 20
1266.922229245525
 30
0.0
 11
1826.101861736215
 21
1266.922229245525
 31
0.0
  0
ARC
  5
81E
330
23
100
AcDbEntity
  8
SANINDUSA
100
AcDbCircle
 10
1826.082861736215
 20
1266.921229245525
 30
0.0
 40
0.001
100
AcDbArc
 50
90.0
 51
180.0
  0
LINE
  5
81F
330
23
100
AcDbEntity
  8
SANINDUSA
100
AcDbLine
 10
1826.081861736215
 20
1266.921229245525
 30
0.0
 11
1826.081861736215
 21
1266.903200334252
 31
0.0
  0
LINE
  5
820
330
23
100
AcDbEntity
  8
SANINDUSA
100
AcDbLine
 10
1826.082861736215
 20
1266.902200334252
 30
0.0
 11
1826.101861736215
 21
1266.902200334252
 31
0.0
  0
ARC
  5
821
330
23
100
AcDbEntity
  8
SANINDUSA
100
AcDbCircle
 10
1826.082861736215
 20
1266.903200334252
 30
0.0
 40
0.001
100
AcDbArc
 50
180.0
 51
270.0
  0
ARC
  5
822
330
23
100
AcDbEntity
  8
SANINDUSA
100
AcDbCircle
 10
1826.101861736215
 20
1266.892200334252
 30
0.0
 40
0.01
100
AcDbArc
 50
0.0
 51
90.0
  0
LINE
  5
823
330
23
100
AcDbEntity
  8
SANINDUSA
100
AcDbLine
 10
1826.111861736215
 20
1266.882200334252
 30
0.0
 11
1826.101861736215
 21
1266.882200334252
 31
0.0
  0
LINE
  5
824
330
23
100
AcDbEntity
  8
SANINDUSA
100
AcDbLine
 10
1826.101861736215
 20
1266.892200334252
 30
0.0
 11
1826.101861736215
 21
1266.882200334252
 31
0.0
  0
LINE
  5
825
330
23
100
AcDbEntity
  8
SANINDUSA
100
AcDbLine
 10
1826.071861736215
 20
1266.892200334252
 30
0.0
 11
1826.101861736215
 21
1266.892200334252
 31
0.0
  0
LINE
  5
826
330
23
100
AcDbEntity
  8
SANINDUSA
100
AcDbLine
 10
1826.071861736215
 20
1266.921238498765
 30
0.0
 11
1826.071861736215
 21
1266.892200334252
 31
0.0
  0
LINE
  5
827
330
23
100
AcDbEntity
  8
SANINDUSA
100
AcDbLine
 10
1826.031861736215
 20
1266.922238498765
 30
0.0
 11
1826.070861736215
 21
1266.922238498765
 31
0.0
  0
ARC
  5
828
330
23
100
AcDbEntity
  8
SANINDUSA
100
AcDbCircle
 10
1826.070861736215
 20
1266.921238498765
 30
0.0
 40
0.001
100
AcDbArc
 50
0.0
 51
90.0
  0
LINE
  5
829
330
23
100
AcDbEntity
  8
SANINDUSA
100
AcDbLine
 10
1826.031861736215
 20
1266.932238234474
 30
0.0
 11
1826.031861736215
 21
1266.922238498765
 31
0.0
  0
ARC
  5
82A
330
23
100
AcDbEntity
  8
SANINDUSA
100
AcDbCircle
 10
1826.033861736215
 20
1266.932238234474
 30
0.0
 40
0.0020000000000002
100
AcDbArc
 50
89.99242611997642
 51
180.0
  0
LINE
  5
82B
330
23
100
AcDbEntity
  8
SANINDUSA
100
AcDbLine
 10
1826.111861736215
 20
1266.882200334252
 30
0.0
 11
1826.111861736215
 21
1266.892200334252
 31
0.0
  0
LINE
  5
82C
330
23
100
AcDbEntity
  8
SANINDUSA
100
AcDbLine
 10
1826.154824437139
 20
1266.89900849887
 30
0.0
 11
1826.221826872941
 21
1266.89900849887
 31
0.0
  0
LINE
  5
833
330
23
100
AcDbEntity
  8
SANINDUSA
100
AcDbLine
 10
1826.111861736215
 20
1266.769700334252
 30
0.0
 11
1826.111861736215
 21
1266.689700334252
 31
0.0
  0
LINE
  5
842
330
23
100
AcDbEntity
  8
SANINDUSA
100
AcDbLine
 10
1826.046861736202
 20
1266.630241243218
 30
0.0
 11
1826.046861736202
 21
1266.638794024237
 31
0.0
  0
ARC
  5
843
330
23
100
AcDbEntity
  8
SANINDUSA
100
AcDbCircle
 10
1826.047861736202
 20
1266.638794024237
 30
0.0
 40
0.001
100
AcDbArc
 50
91.99999931280464
 51
180.0
  0
ARC
  5
844
330
23
100
AcDbEntity
  8
SANINDUSA
100
AcDbCircle
 10
1826.047861736202
 20
1266.630241243218
 30
0.0
 40
0.001
100
AcDbArc
 50
180.0
 51
270.0
  0
LINE
  5
845
330
23
100
AcDbEntity
  8
SANINDUSA
100
AcDbLine
 10
1826.038861736202
 20
1266.619241243218
 30
0.0
 11
1826.082036340008
 21
1266.619241243218
 31
0.0
  0
LINE
  5
846
330
23
100
AcDbEntity
  8
SANINDUSA
100
AcDbLine
 10
1826.047861736202
 20
1266.629241243218
 30
0.0
 11
1826.071394820367
 21
1266.629241243218
 31
0.0
  0
ARC
  5
847
330
23
100
AcDbEntity
  8
SANINDUSA
100
AcDbCircle
 10
1826.038861736202
 20
1266.621241243218
 30
0.0
 40
0.002
100
AcDbArc
 50
180.0
 51
270.0
  0
LINE
  5
84E
330
23
100
AcDbEntity
  8
SANINDUSA
100
AcDbLine
 10
1826.033842794966
 20
1266.614241308855
 30
0.0
 11
1826.081861736343
 21
1266.614241216059
 31
0.0
  0
LINE
  5
84F
330
23
100
AcDbEntity
  8
SANINDUSA
100
AcDbLine
 10
1826.081861736343
 20
1266.614241216059
 30
0.0
 11
1826.121915387325
 21
1266.614241213977
 31
0.0
  0
LINE
  5
852
330
23
100
AcDbEntity
  8
SANINDUSA
100
AcDbLine
 10
1826.031861736215
 20
1266.616241219104
 30
0.0
 11
1826.031861736215
 21
1266.696308027682
 31
0.0
  0
ARC
  5
853
330
23
100
AcDbEntity
  8
SANINDUSA
100
AcDbCircle
 10
1826.03386173602
 20
1266.616241218966
 30
0.0
 40
0.001999999804485
100
AcDbArc
 50
180.4577872628648
 51
269.4573705992724
  0
LINE
  5
858
330
23
100
AcDbEntity
  8
SANINDUSA
100
AcDbLine
 10
1826.071861736215
 20
1266.837200334252
 30
0.0
 11
1826.071861736215
 21
1266.892200334252
 31
0.0
  0
LINE
  5
859
330
23
100
AcDbEntity
  8
SANINDUSA
100
AcDbLine
 10
1826.101861736215
 20
1266.882200334252
 30
0.0
 11
1826.101861736215
 21
1266.847200334252
 31
0.0
  0
LINE
  5
85A
330
23
100
AcDbEntity
  8
SANINDUSA
100
AcDbLine
 10
1826.111861736215
 20
1266.882200334252
 30
0.0
 11
1826.111861736215
 21
1266.847200334252
 31
0.0
  0
LINE
  5
85C
330
23
100
AcDbEntity
  8
SANINDUSA
100
AcDbLine
 10
1826.031861736215
 20
1266.895659509968
 30
0.0
 11
1826.031861736215
 21
1266.922238498765
 31
0.0
  0
LINE
  5
87C
330
23
100
AcDbEntity
  8
SANINDUSA
100
AcDbLine
 10
1826.031861736215
 20
1266.830990655047
 30
0.0
 11
1826.031861736215
 21
1266.812829023123
 31
0.0
  0
LINE
  5
87D
330
23
100
AcDbEntity
  8
SANINDUSA
100
AcDbLine
 10
1826.031861736215
 20
1266.895659509968
 30
0.0
 11
1826.031861736215
 21
1266.830990655047
 31
0.0
  0
LINE
  5
882
330
23
100
AcDbEntity
  8
SANINDUSA
100
AcDbLine
 10
1826.031861736215
 20
1266.812829023123
 30
0.0
 11
1826.031861736215
 21
1266.755480645071
 31
0.0
  0
LINE
  5
885
330
23
100
AcDbEntity
  8
SANINDUSA
100
AcDbLine
 10
1826.031861736215
 20
1266.755411407326
 30
0.0
 11
1826.031861736215
 21
1266.754855315082
 31
0.0
  0
LINE
  5
894
330
23
100
AcDbEntity
  8
SANINDUSA
100
AcDbLine
 10
1824.780588674793
 20
1266.614253022806
 30
0.0
 11
1824.774071594491
 21
1266.614253032485
 31
0.0
  0
LINE
  5
895
330
23
100
AcDbEntity
  8
SANINDUSA
100
AcDbLine
 10
1824.725998449573
 20
1266.911020421521
 30
0.0
 11
1825.088479916999
 21
1266.911020421521
 31
0.0
  0
ARC
  5
896
330
23
100
AcDbEntity
  8
SANINDUSA
100
AcDbCircle
 10
1824.782136940979
 20
1266.905630425283
 30
0.0
 40
0.0100275923086002
100
AcDbArc
 50
106.9257323554216
 51
147.4854667599647
  0
ARC
  5
897
330
23
100
AcDbEntity
  8
SANINDUSA
100
AcDbCircle
 10
1825.032344377203
 20
1266.905636893874
 30
0.0
 40
0.0100205483132175
100
AcDbArc
 50
32.49654901480554
 51
73.07957672833464
  0
LINE
  5
898
330
23
100
AcDbEntity
  8
SANINDUSA
100
AcDbLine
 10
1825.033889702955
 20
1266.614253022806
 30
0.0
 11
1825.04040678547
 21
1266.614253032485
 31
0.0
  0
LINE
  5
899
330
23
100
AcDbEntity
  8
SANINDUSA
100
AcDbLine
 10
1825.033889702955
 20
1266.614253022806
 30
0.0
 11
1824.780588674793
 21
1266.614253022806
 31
0.0
  0
LINE
  5
89A
330
23
100
AcDbEntity
  8
SANINDUSA
100
AcDbLine
 10
1825.43945918658
 20
1266.911020452835
 30
0.0
 11
1825.458632987525
 21
1266.911020482638
 31
0.0
  0
LINE
  5
89B
330
23
100
AcDbEntity
  8
SANINDUSA
100
AcDbLine
 10
1825.477696996715
 20
1266.91102051244
 30
0.0
 11
1825.859876793411
 21
1266.911020363428
 31
0.0
  0
ARC
  5
89C
330
23
100
AcDbEntity
  8
SANINDUSA
100
AcDbCircle
 10
1826.201248271087
 20
1266.862639522586
 30
0.0
 40
0.001
100
AcDbArc
 50
93.99997734245442
 51
184.4924214889188
  0
LINE
  5
89D
330
23
100
AcDbEntity
  8
SANINDUSA
100
AcDbLine
 10
1826.234093827673
 20
1266.865938742467
 30
0.0
 11
1826.549795544134
 21
1266.86593874238
 31
0.0
  0
LINE
  5
8A0
330
23
100
AcDbEntity
  8
SANINDUSA
100
AcDbLine
 10
1826.556607263794
 20
1266.91100849887
 30
0.0
 11
1826.227282109834
 21
1266.91100849887
 31
0.0
  0
ARC
  5
8A1
330
23
100
AcDbEntity
  8
SANINDUSA
100
AcDbCircle
 10
1826.509344719818
 20
1266.625241029571
 30
0.0
 40
0.001
100
AcDbArc
 50
270.0
 51
337.64334510486
  0
ARC
  5
8A2
330
23
100
AcDbEntity
  8
SANINDUSA
100
AcDbCircle
 10
1826.570201199118
 20
1266.804946391836
 30
0.0
 40
0.001
100
AcDbArc
 50
344.9397382485796
 51
141.2558499163389
  0
LINE
  5
970
330
23
100
AcDbEntity
  8
SANINDUSA
100
AcDbLine
 10
1826.036842794759
 20
1266.621241330491
 30
0.0
 11
1826.036842794759
 21
1266.649415939437
 31
0.0
  0
LINE
  5
971
330
23
100
AcDbEntity
  8
SANINDUSA
100
AcDbLine
 10
1826.083127562558
 20
1266.65103223859
 30
0.0
 11
1826.036842794759
 21
1266.649415939437
 31
0.0
  0
LINE
  5
972
330
23
100
AcDbEntity
  8
SANINDUSA
100
AcDbLine
 10
1826.071687687767
 20
1266.640626654057
 30
0.0
 11
1826.047826836717
 21
1266.639793415064
 31
0.0
  0
ARC
  5
973
330
23
100
AcDbEntity
  8
SANINDUSA
100
AcDbCircle
 10
1826.071722587252
 20
1266.63962726323
 30
0.0
 40
0.001
100
AcDbArc
 50
358.0000009480423
 51
91.99999931280464
  0
LINE
  5
974
330
23
100
AcDbEntity
  8
SANINDUSA
100
AcDbLine
 10
1826.082017399972
 20
1266.619241326438
 30
0.0
 11
1826.083127562558
 21
1266.65103223859
 31
0.0
  0
LINE
  5
975
330
23
100
AcDbEntity
  8
SANINDUSA
100
AcDbLine
 10
1826.072394211194
 20
1266.630206343738
 30
0.0
 11
1826.072721978079
 21
1266.63959236375
 31
0.0
  0
ARC
  5
976
330
23
100
AcDbEntity
  8
SANINDUSA
100
AcDbCircle
 10
1826.071394820367
 20
1266.630241243218
 30
0.0
 40
0.001
100
AcDbArc
 50
270.0
 51
358.0000009480423
  0
LINE
  5
DB1
330
23
100
AcDbEntity
  8
SANINDUSA
100
AcDbLine
 10
1824.340265143542
 20
1266.637271557423
 30
0.0
 11
1824.359015706805
 21
1266.637271557423
 31
0.0
  0
ENDSEC
  0
SECTION
  2
OBJECTS
  0
DICTIONARY
  5
C
330
0
100
AcDbDictionary
281
     1
  3
ACAD_2007HEADERVARS_RT
350
E1E
  3
ACAD_COLOR
350
1C
  3
ACAD_GROUP
350
D
  3
ACAD_LAYOUT
350
1A
  3
ACAD_MATERIAL
350
1B
  3
ACAD_MLEADERSTYLE
350
DFF
  3
ACAD_MLINESTYLE
350
17
  3
ACAD_PLOTSETTINGS
350
19
  3
ACAD_PLOTSTYLENAME
350
E
  3
ACAD_SCALELIST
350
DED
  3
ACAD_TABLESTYLE
350
1D
  3
ACAD_VISUALSTYLE
350
DD9
  3
ACDB_RECOMPOSE_DATA
350
E1C
  3
AcDbVariableDictionary
350
DB3
  3
DWGPROPS
350
E1D
  0
DICTIONARY
  5
E05
330
10
100
AcDbDictionary
280
     1
281
     1
  3
ADSK_XREC_LAYER_RECONCILED
360
E06
  0
DICTIONARY
  5
E07
330
34C
100
AcDbDictionary
280
     1
281
     1
  3
ADSK_XREC_LAYER_RECONCILED
360
E08
  0
DICTIONARY
  5
E09
330
34D
100
AcDbDictionary
280
     1
281
     1
  3
ADSK_XREC_LAYER_RECONCILED
360
E0A
  0
DICTIONARY
  5
E0B
330
34E
100
AcDbDictionary
280
     1
281
     1
  3
ADSK_XREC_LAYER_RECONCILED
360
E0C
  0
DICTIONARY
  5
E0D
330
34F
100
AcDbDictionary
280
     1
281
     1
  3
ADSK_XREC_LAYER_RECONCILED
360
E0E
  0
DICTIONARY
  5
E0F
330
350
100
AcDbDictionary
280
     1
281
     1
  3
ADSK_XREC_LAYER_RECONCILED
360
E10
  0
DICTIONARY
  5
E11
330
351
100
AcDbDictionary
280
     1
281
     1
  3
ADSK_XREC_LAYER_RECONCILED
360
E12
  0
DICTIONARY
  5
E13
330
353
100
AcDbDictionary
280
     1
281
     1
  3
ADSK_XREC_LAYER_RECONCILED
360
E14
  0
DICTIONARY
  5
E1E
102
{ACAD_REACTORS
330
C
102
}
330
C
100
AcDbDictionary
281
     1
  3
DIMJOGANG
350
E1F
  0
DICTIONARY
  5
1C
102
{ACAD_REACTORS
330
C
102
}
330
C
100
AcDbDictionary
281
     1
  0
DICTIONARY
  5
D
102
{ACAD_REACTORS
330
C
102
}
330
C
100
AcDbDictionary
281
     1
  0
DICTIONARY
  5
1A
102
{ACAD_REACTORS
330
C
102
}
330
C
100
AcDbDictionary
281
     1
  3
Layout1
350
22
  3
Layout2
350
2A
  3
Model
350
26
  0
DICTIONARY
  5
1B
102
{ACAD_REACTORS
330
C
102
}
330
C
100
AcDbDictionary
281
     1
  3
ByBlock
350
DC9
  3
ByLayer
350
DC1
  3
Global
350
DD1
  0
DICTIONARY
  5
DFF
102
{ACAD_REACTORS
330
C
102
}
330
C
100
AcDbDictionary
281
     1
  3
Standard
350
E00
  0
DICTIONARY
  5
17
102
{ACAD_REACTORS
330
C
102
}
330
C
100
AcDbDictionary
281
     1
  3
Standard
350
18
  0
DICTIONARY
  5
19
102
{ACAD_REACTORS
330
C
102
}
330
C
100
AcDbDictionary
281
     1
  0
ACDBDICTIONARYWDFLT
  5
E
102
{ACAD_REACTORS
330
C
102
}
330
C
100
AcDbDictionary
281
     1
  3
Normal
350
F
100
AcDbDictionaryWithDefault
340
F
  0
DICTIONARY
  5
DED
102
{ACAD_REACTORS
330
C
102
}
330
C
100
AcDbDictionary
281
     1
  3
A0
350
DEE
  3
A1
350
DEF
  3
A2
350
DF0
  3
A3
350
DF1
  3
A4
350
DF2
  3
A5
350
DF3
  3
A6
350
DF4
  3
A7
350
DF5
  3
A8
350
DF6
  3
A9
350
DF7
  3
B0
350
DF8
  3
B1
350
DF9
  3
B2
350
DFA
  3
B3
350
DFB
  3
B4
350
DFC
  3
B5
350
DFD
  3
B6
350
DFE
  0
DICTIONARY
  5
1D
102
{ACAD_REACTORS
330
C
102
}
330
C
100
AcDbDictionary
281
     1
  3
Standard
350
1E
  0
DICTIONARY
  5
DD9
102
{ACAD_REACTORS
330
C
102
}
330
C
100
AcDbDictionary
281
     1
  3
2dWireframe
350
DDF
  3
3D Hidden
350
DE1
  3
3dWireframe
350
DE0
  3
Basic
350
DDE
  3
Brighten
350
DE5
  3
ColorChange
350
DE9
  3
Conceptual
350
DE2
  3
Dim
350
DE4
  3
EdgeColorOff
350
DEC
  3
Facepattern
350
DE8
  3
Flat
350
DDA
  3
FlatWithEdges
350
DDB
  3
Gouraud
350
DDC
  3
GouraudWithEdges
350
DDD
  3
JitterOff
350
DEA
  3
Linepattern
350
DE7
  3
OverhangOff
350
DEB
  3
Realistic
350
DE3
  3
Thicken
350
DE6
  0
XRECORD
  5
E1C
102
{ACAD_REACTORS
330
C
102
}
330
C
100
AcDbXrecord
280
     1
 90
        1
330
1E
  0
DICTIONARY
  5
DB3
102
{ACAD_REACTORS
330
C
102
}
330
C
100
AcDbDictionary
281
     1
  3
CANNOSCALE
350
E16
  3
CMLEADERSTYLE
350
E15
  3
CTABLESTYLE
350
DB4
  3
DIMASSOC
350
DBE
  3
HIDETEXT
350
DBD
  3
INDEXCTL
350
E18
  3
PROJECTNAME
350
DBF
  3
SORTENTS
350
E17
  3
XCLIPFRAME
350
E19
  0
XRECORD
  5
E1D
102
{ACAD_REACTORS
330
C
102
}
330
C
100
AcDbXrecord
280
     1
  1
DWGPROPS COOKIE
  2

  3

  4

  6

  7

  8
Julio
  9

300
=
301
=
302
=
303
=
304
=
305
=
306
=
307
=
308
=
309
=
 40
0.0023231365740741
 41
2454625.688404757
 42
2456147.486363021
  1

 90
        0
  0
XRECORD
  5
E06
102
{ACAD_REACTORS
330
E05
102
}
330
E05
100
AcDbXrecord
280
     1
290
     1
  0
XRECORD
  5
E08
102
{ACAD_REACTORS
330
E07
102
}
330
E07
100
AcDbXrecord
280
     1
290
     1
  0
XRECORD
  5
E0A
102
{ACAD_REACTORS
330
E09
102
}
330
E09
100
AcDbXrecord
280
     1
290
     1
  0
XRECORD
  5
E0C
102
{ACAD_REACTORS
330
E0B
102
}
330
E0B
100
AcDbXrecord
280
     1
290
     1
  0
XRECORD
  5
E0E
102
{ACAD_REACTORS
330
E0D
102
}
330
E0D
100
AcDbXrecord
280
     1
290
     1
  0
XRECORD
  5
E10
102
{ACAD_REACTORS
330
E0F
102
}
330
E0F
100
AcDbXrecord
280
     1
290
     1
  0
XRECORD
  5
E12
102
{ACAD_REACTORS
330
E11
102
}
330
E11
100
AcDbXrecord
280
     1
290
     1
  0
XRECORD
  5
E14
102
{ACAD_REACTORS
330
E13
102
}
330
E13
100
AcDbXrecord
280
     1
290
     1
  0
XRECORD
  5
E1F
102
{ACAD_REACTORS
330
E1E
102
}
330
E1E
100
AcDbXrecord
280
     1
 40
1.570796326794896
  0
LAYOUT
  5
22
102
{ACAD_XDICTIONARY
360
E21
102
}
102
{ACAD_REACTORS
330
1A
102
}
330
1A
100
AcDbPlotSettings
  1

  2
C:\Documents and Settings\Julio\Application Data\Autodesk\AutoCAD 2006\R16.2\enu\plotters\Default Windows System Printer.pc3
  4

  6

 40
0.0
 41
0.0
 42
0.0
 43
0.0
 44
0.0
 45
0.0
 46
0.0
 47
0.0
 48
0.0
 49
0.0
140
0.0
141
0.0
142
1.0
143
1.0
 70
   688
 72
     0
 73
     0
 74
     5
  7

 75
    16
147
1.0
148
0.0
149
0.0
100
AcDbLayout
  1
Layout1
 70
     1
 71
     1
 10
0.0
 20
0.0
 11
420.0
 21
297.0
 12
0.0
 22
0.0
 32
0.0
 14
1.000000000000000E+20
 24
1.000000000000000E+20
 34
1.000000000000000E+20
 15
-1.000000000000000E+20
 25
-1.000000000000000E+20
 35
-1.000000000000000E+20
146
0.0
 13
0.0
 23
0.0
 33
0.0
 16
1.0
 26
0.0
 36
0.0
 17
0.0
 27
1.0
 37
0.0
 76
     0
330
1F
  0
LAYOUT
  5
2A
102
{ACAD_XDICTIONARY
360
E25
102
}
102
{ACAD_REACTORS
330
1A
102
}
330
1A
100
AcDbPlotSettings
  1

  2
C:\Documents and Settings\Julio\Application Data\Autodesk\AutoCAD 2006\R16.2\enu\plotters\Default Windows System Printer.pc3
  4

  6

 40
0.0
 41
0.0
 42
0.0
 43
0.0
 44
0.0
 45
0.0
 46
0.0
 47
0.0
 48
0.0
 49
0.0
140
0.0
141
0.0
142
1.0
143
1.0
 70
   688
 72
     0
 73
     0
 74
     5
  7

 75
    16
147
1.0
148
0.0
149
0.0
100
AcDbLayout
  1
Layout2
 70
     1
 71
     2
 10
0.0
 20
0.0
 11
12.0
 21
9.0
 12
0.0
 22
0.0
 32
0.0
 14
0.0
 24
0.0
 34
0.0
 15
0.0
 25
0.0
 35
0.0
146
0.0
 13
0.0
 23
0.0
 33
0.0
 16
1.0
 26
0.0
 36
0.0
 17
0.0
 27
1.0
 37
0.0
 76
     0
330
27
  0
LAYOUT
  5
26
102
{ACAD_XDICTIONARY
360
E23
102
}
102
{ACAD_REACTORS
330
1A
102
}
330
1A
100
AcDbPlotSettings
  1

  2
C:\Documents and Settings\Julio\Application Data\Autodesk\AutoCAD 2006\R16.2\enu\plotters\Default Windows System Printer.pc3
  4

  6

 40
0.0
 41
0.0
 42
0.0
 43
0.0
 44
0.0
 45
0.0
 46
0.0
 47
0.0
 48
0.0
 49
0.0
140
0.0
141
0.0
142
1.0
143
1.0
 70
  1712
 72
     0
 73
     0
 74
     0
  7

 75
     0
147
1.0
148
0.0
149
0.0
100
AcDbLayout
  1
Model
 70
     1
 71
     0
 10
0.0
 20
0.0
 11
12.0
 21
9.0
 12
0.0
 22
0.0
 32
0.0
 14
0.0
 24
0.0
 34
0.0
 15
0.0
 25
0.0
 35
0.0
146
0.0
 13
0.0
 23
0.0
 33
0.0
 16
1.0
 26
0.0
 36
0.0
 17
0.0
 27
1.0
 37
0.0
 76
     0
330
23
331
DB5
  0
MATERIAL
  5
DC9
102
{ACAD_XDICTIONARY
360
DCA
102
}
102
{ACAD_REACTORS
330
1B
102
}
330
1B
100
AcDbMaterial
  1
ByBlock
 72
     0
 43
0.0008202099737533
 43
0.0
 43
0.0
 43
0.0
 43
0.0
 43
0.0008202099737533
 43
0.0
 43
0.0
 43
0.0
 43
0.0
 43
1.0
 43
0.0
 43
0.0
 43
0.0
 43
0.0
 43
1.0
 77
     0
 47
0.0008202099737533
 47
0.0
 47
0.0
 47
0.0
 47
0.0
 47
0.0008202099737533
 47
0.0
 47
0.0
 47
0.0
 47
0.0
 47
1.0
 47
0.0
 47
0.0
 47
0.0
 47
0.0
 47
1.0
171
     0
 49
0.0008202099737533
 49
0.0
 49
0.0
 49
0.0
 49
0.0
 49
0.0008202099737533
 49
0.0
 49
0.0
 49
0.0
 49
0.0
 49
1.0
 49
0.0
 49
0.0
 49
0.0
 49
0.0
 49
1.0
175
     0
142
0.0008202099737533
142
0.0
142
0.0
142
0.0
142
0.0
142
0.0008202099737533
142
0.0
142
0.0
142
0.0
142
0.0
142
1.0
142
0.0
142
0.0
142
0.0
142
0.0
142
1.0
179
     0
144
0.0008202099737533
144
0.0
144
0.0
144
0.0
144
0.0
144
0.0008202099737533
144
0.0
144
0.0
144
0.0
144
0.0
144
1.0
144
0.0
144
0.0
144
0.0
144
0.0
144
1.0
147
0.0008202099737533
147
0.0
147
0.0
147
0.0
147
0.0
147
0.0008202099737533
147
0.0
147
0.0
147
0.0
147
0.0
147
1.0
147
0.0
147
0.0
147
0.0
147
0.0
147
1.0
  0
MATERIAL
  5
DC1
102
{ACAD_XDICTIONARY
360
DC2
102
}
102
{ACAD_REACTORS
330
1B
102
}
330
1B
100
AcDbMaterial
  1
ByLayer
 72
     0
 43
0.0008202099737533
 43
0.0
 43
0.0
 43
0.0
 43
0.0
 43
0.0008202099737533
 43
0.0
 43
0.0
 43
0.0
 43
0.0
 43
1.0
 43
0.0
 43
0.0
 43
0.0
 43
0.0
 43
1.0
 77
     0
 47
0.0008202099737533
 47
0.0
 47
0.0
 47
0.0
 47
0.0
 47
0.0008202099737533
 47
0.0
 47
0.0
 47
0.0
 47
0.0
 47
1.0
 47
0.0
 47
0.0
 47
0.0
 47
0.0
 47
1.0
171
     0
 49
0.0008202099737533
 49
0.0
 49
0.0
 49
0.0
 49
0.0
 49
0.0008202099737533
 49
0.0
 49
0.0
 49
0.0
 49
0.0
 49
1.0
 49
0.0
 49
0.0
 49
0.0
 49
0.0
 49
1.0
175
     0
142
0.0008202099737533
142
0.0
142
0.0
142
0.0
142
0.0
142
0.0008202099737533
142
0.0
142
0.0
142
0.0
142
0.0
142
1.0
142
0.0
142
0.0
142
0.0
142
0.0
142
1.0
179
     0
144
0.0008202099737533
144
0.0
144
0.0
144
0.0
144
0.0
144
0.0008202099737533
144
0.0
144
0.0
144
0.0
144
0.0
144
1.0
144
0.0
144
0.0
144
0.0
144
0.0
144
1.0
147
0.0008202099737533
147
0.0
147
0.0
147
0.0
147
0.0
147
0.0008202099737533
147
0.0
147
0.0
147
0.0
147
0.0
147
1.0
147
0.0
147
0.0
147
0.0
147
0.0
147
1.0
  0
MATERIAL
  5
DD1
102
{ACAD_XDICTIONARY
360
DD2
102
}
102
{ACAD_REACTORS
330
1B
102
}
330
1B
100
AcDbMaterial
  1
Global
 72
     0
 43
0.0008202099737533
 43
0.0
 43
0.0
 43
0.0
 43
0.0
 43
0.0008202099737533
 43
0.0
 43
0.0
 43
0.0
 43
0.0
 43
1.0
 43
0.0
 43
0.0
 43
0.0
 43
0.0
 43
1.0
 77
     0
 47
0.0008202099737533
 47
0.0
 47
0.0
 47
0.0
 47
0.0
 47
0.0008202099737533
 47
0.0
 47
0.0
 47
0.0
 47
0.0
 47
1.0
 47
0.0
 47
0.0
 47
0.0
 47
0.0
 47
1.0
171
     0
 49
0.0008202099737533
 49
0.0
 49
0.0
 49
0.0
 49
0.0
 49
0.0008202099737533
 49
0.0
 49
0.0
 49
0.0
 49
0.0
 49
1.0
 49
0.0
 49
0.0
 49
0.0
 49
0.0
 49
1.0
175
     0
142
0.0008202099737533
142
0.0
142
0.0
142
0.0
142
0.0
142
0.0008202099737533
142
0.0
142
0.0
142
0.0
142
0.0
142
1.0
142
0.0
142
0.0
142
0.0
142
0.0
142
1.0
179
     0
144
0.0008202099737533
144
0.0
144
0.0
144
0.0
144
0.0
144
0.0008202099737533
144
0.0
144
0.0
144
0.0
144
0.0
144
1.0
144
0.0
144
0.0
144
0.0
144
0.0
144
1.0
147
0.0008202099737533
147
0.0
147
0.0
147
0.0
147
0.0
147
0.0008202099737533
147
0.0
147
0.0
147
0.0
147
0.0
147
1.0
147
0.0
147
0.0
147
0.0
147
0.0
147
1.0
  0
MLEADERSTYLE
  5
E00
102
{ACAD_REACTORS
330
DFF
102
}
330
DFF
100
AcDbMLeaderStyle
170
     2
171
     1
172
     0
 90
        2
 40
0.0
 41
0.0
173
     1
 91
-1056964608
340
14
 92
       -2
290
     1
 42
2.0
291
     1
 43
0.36
  3
Standard
 44
4.0
300

342
11
174
     1
178
     6
175
     1
176
     0
 93
-1056964608
 45
4.0
292
     0
297
     0
 46
4.0
 94
-1056964608
 47
1.0
 49
1.0
140
1.0
293
     1
141
0.0
294
     1
177
     0
142
1.0
295
     0
296
     0
143
0.125
1001
ACAD_MLEADERVER
1070
     2
  0
MLINESTYLE
  5
18
102
{ACAD_REACTORS
330
17
102
}
330
17
100
AcDbMlineStyle
  2
STANDARD
 70
     0
  3

 62
   256
 51
90.0
 52
90.0
 71
     2
 49
0.5
 62
   256
  6
BYLAYER
 49
-0.5
 62
   256
  6
BYLAYER
  0
ACDBPLACEHOLDER
  5
F
102
{ACAD_REACTORS
330
E
102
}
330
E
  0
SCALE
  5
DEE
102
{ACAD_REACTORS
330
DED
102
}
330
DED
100
AcDbScale
 70
     0
300
1:1
140
1.0
141
1.0
290
     1
  0
SCALE
  5
DEF
102
{ACAD_REACTORS
330
DED
102
}
330
DED
100
AcDbScale
 70
     0
300
1:2
140
1.0
141
2.0
290
     0
  0
SCALE
  5
DF0
102
{ACAD_REACTORS
330
DED
102
}
330
DED
100
AcDbScale
 70
     0
300
1:4
140
1.0
141
4.0
290
     0
  0
SCALE
  5
DF1
102
{ACAD_REACTORS
330
DED
102
}
330
DED
100
AcDbScale
 70
     0
300
1:5
140
1.0
141
5.0
290
     0
  0
SCALE
  5
DF2
102
{ACAD_REACTORS
330
DED
102
}
330
DED
100
AcDbScale
 70
     0
300
1:8
140
1.0
141
8.0
290
     0
  0
SCALE
  5
DF3
102
{ACAD_REACTORS
330
DED
102
}
330
DED
100
AcDbScale
 70
     0
300
1:10
140
1.0
141
10.0
290
     0
  0
SCALE
  5
DF4
102
{ACAD_REACTORS
330
DED
102
}
330
DED
100
AcDbScale
 70
     0
300
1:16
140
1.0
141
16.0
290
     0
  0
SCALE
  5
DF5
102
{ACAD_REACTORS
330
DED
102
}
330
DED
100
AcDbScale
 70
     0
300
1:20
140
1.0
141
20.0
290
     0
  0
SCALE
  5
DF6
102
{ACAD_REACTORS
330
DED
102
}
330
DED
100
AcDbScale
 70
     0
300
1:30
140
1.0
141
30.0
290
     0
  0
SCALE
  5
DF7
102
{ACAD_REACTORS
330
DED
102
}
330
DED
100
AcDbScale
 70
     0
300
1:40
140
1.0
141
40.0
290
     0
  0
SCALE
  5
DF8
102
{ACAD_REACTORS
330
DED
102
}
330
DED
100
AcDbScale
 70
     0
300
1:50
140
1.0
141
50.0
290
     0
  0
SCALE
  5
DF9
102
{ACAD_REACTORS
330
DED
102
}
330
DED
100
AcDbScale
 70
     0
300
1:100
140
1.0
141
100.0
290
     0
  0
SCALE
  5
DFA
102
{ACAD_REACTORS
330
DED
102
}
330
DED
100
AcDbScale
 70
     0
300
2:1
140
2.0
141
1.0
290
     0
  0
SCALE
  5
DFB
102
{ACAD_REACTORS
330
DED
102
}
330
DED
100
AcDbScale
 70
     0
300
4:1
140
4.0
141
1.0
290
     0
  0
SCALE
  5
DFC
102
{ACAD_REACTORS
330
DED
102
}
330
DED
100
AcDbScale
 70
     0
300
8:1
140
8.0
141
1.0
290
     0
  0
SCALE
  5
DFD
102
{ACAD_REACTORS
330
DED
102
}
330
DED
100
AcDbScale
 70
     0
300
10:1
140
10.0
141
1.0
290
     0
  0
SCALE
  5
DFE
102
{ACAD_REACTORS
330
DED
102
}
330
DED
100
AcDbScale
 70
     0
300
100:1
140
100.0
141
1.0
290
     0
  0
TABLESTYLE
  5
1E
102
{ACAD_XDICTIONARY
360
E1A
102
}
102
{ACAD_REACTORS
330
1D
102
}
330
1D
100
AcDbTableStyle
  3
Standard
 70
     0
 71
     0
 40
1.5
 41
1.5
280
     0
281
     0
  7
Standard
140
4.5
170
     2
 62
     0
 63
     7
283
     0
274
    -2
284
     1
 64
     0
275
    -2
285
     1
 65
     0
276
    -2
286
     1
 66
     0
277
    -2
287
     1
 67
     0
278
    -2
288
     1
 68
     0
279
    -2
289
     1
 69
     0
  7
Standard
140
6.0
170
     5
 62
     0
 63
     7
283
     0
274
    -2
284
     1
 64
     0
275
    -2
285
     1
 65
     0
276
    -2
286
     1
 66
     0
277
    -2
287
     1
 67
     0
278
    -2
288
     1
 68
     0
279
    -2
289
     1
 69
     0
  7
Standard
140
4.5
170
     5
 62
     0
 63
     7
283
     0
274
    -2
284
     1
 64
     0
275
    -2
285
     1
 65
     0
276
    -2
286
     1
 66
     0
277
    -2
287
     1
 67
     0
278
    -2
288
     1
 68
     0
279
    -2
289
     1
 69
     0
  0
VISUALSTYLE
  5
DDF
102
{ACAD_XDICTIONARY
360
E64
102
}
102
{ACAD_REACTORS
330
DD9
102
}
330
DD9
100
AcDbVisualStyle
  2
2dWireframe
 70
     4
 71
     0
 72
     2
 73
     0
 90
        0
 40
-0.6
 41
-30.0
 62
     5
 63
     7
 74
     1
 91
        4
 64
     7
 65
   257
 75
     1
175
     1
 42
1.0
 92
        0
 66
   257
 43
1.0
 76
     1
 77
     6
 78
     2
 67
     7
 79
     5
170
     0
171
     0
290
     0
174
     0
 93
        1
 44
0.0
173
     0
291
     0
 45
0.0
1001
ACAD
1000
AcDbSavedByObjectVersion
1070
     0
  0
VISUALSTYLE
  5
DE1
102
{ACAD_XDICTIONARY
360
E68
102
}
102
{ACAD_REACTORS
330
DD9
102
}
330
DD9
100
AcDbVisualStyle
  2
3D Hidden
 70
     6
 71
     1
 72
     2
 73
     2
 90
        0
 40
-0.6
 41
-30.0
 62
     5
 63
     7
 74
     2
 91
        2
 64
     7
 65
   257
 75
     2
175
     1
 42
179.0
 92
        0
 66
   257
 43
1.0
 76
     1
 77
     6
 78
     2
 67
     7
 79
     3
170
     0
171
     0
290
     0
174
     0
 93
        1
 44
0.0
173
     0
291
     0
 45
0.0
1001
ACAD
1000
AcDbSavedByObjectVersion
1070
     0
  0
VISUALSTYLE
  5
DE0
102
{ACAD_XDICTIONARY
360
E66
102
}
102
{ACAD_REACTORS
330
DD9
102
}
330
DD9
100
AcDbVisualStyle
  2
3dWireframe
 70
     5
 71
     0
 72
     2
 73
     0
 90
        0
 40
-0.6
 41
-30.0
 62
     5
 63
     7
 74
     1
 91
        4
 64
     7
 65
   257
 75
     1
175
     1
 42
1.0
 92
        0
 66
   257
 43
1.0
 76
     1
 77
     6
 78
     2
 67
     7
 79
     5
170
     0
171
     0
290
     0
174
     0
 93
        1
 44
0.0
173
     0
291
     0
 45
0.0
1001
ACAD
1000
AcDbSavedByObjectVersion
1070
     0
  0
VISUALSTYLE
  5
DDE
102
{ACAD_XDICTIONARY
360
E62
102
}
102
{ACAD_REACTORS
330
DD9
102
}
330
DD9
100
AcDbVisualStyle
  2
Basic
 70
     7
 71
     1
 72
     0
 73
     1
 90
        0
 40
-0.6
 41
-30.0
 62
     5
 63
     7
 74
     0
 91
        4
 64
     7
 65
   257
 75
     1
175
     1
 42
1.0
 92
        8
 66
     7
 43
1.0
 76
     1
 77
     6
 78
     2
 67
     7
 79
     5
170
     0
171
     0
290
     0
174
     0
 93
        1
 44
0.0
173
     0
291
     1
 45
0.0
1001
ACAD
1000
AcDbSavedByObjectVersion
1070
     0
  0
VISUALSTYLE
  5
DE5
102
{ACAD_XDICTIONARY
360
E70
102
}
102
{ACAD_REACTORS
330
DD9
102
}
330
DD9
100
AcDbVisualStyle
  2
Brighten
 70
    12
 71
     2
 72
     2
 73
     0
 90
        0
 40
-0.6
 41
-30.0
 62
     5
 63
     7
 74
     1
 91
        4
 64
     7
 65
   257
 75
     1
175
     1
 42
1.0
 92
        8
 66
     7
 43
1.0
 76
     1
 77
     6
 78
     2
 67
     7
 79
     5
170
     0
171
     0
290
     0
174
     0
 93
        1
 44
50.0
173
     0
291
     1
 45
0.0
1001
ACAD
1000
AcDbSavedByObjectVersion
1070
     0
  0
VISUALSTYLE
  5
DE9
102
{ACAD_XDICTIONARY
360
E78
102
}
102
{ACAD_REACTORS
330
DD9
102
}
330
DD9
100
AcDbVisualStyle
  2
ColorChange
 70
    16
 71
     2
 72
     2
 73
     3
 90
        0
 40
-0.6
 41
-30.0
 62
     5
 63
     8
 74
     1
 91
        4
 64
     7
 65
   257
 75
     1
175
     1
 42
1.0
 92
        8
 66
     8
 43
1.0
 76
     1
 77
     6
 78
     2
 67
     7
 79
     5
170
     0
171
     0
290
     0
174
     0
 93
        1
 44
0.0
173
     0
291
     1
 45
0.0
1001
ACAD
1000
AcDbSavedByObjectVersion
1070
     0
  0
VISUALSTYLE
  5
DE2
102
{ACAD_XDICTIONARY
360
E6A
102
}
102
{ACAD_REACTORS
330
DD9
102
}
330
DD9
100
AcDbVisualStyle
  2
Conceptual
 70
     9
 71
     3
 72
     2
 73
     0
 90
        0
 40
-0.6
 41
-30.0
 62
     5
 63
     7
 74
     2
 91
        2
 64
     7
 65
   257
 75
     1
175
     1
 42
179.0
 92
        8
 66
     7
 43
1.0
 76
     1
 77
     6
 78
     2
 67
     7
 79
     3
170
     0
171
     0
290
     0
174
     0
 93
        1
 44
0.0
173
     0
291
     0
 45
0.0
1001
ACAD
1000
AcDbSavedByObjectVersion
1070
     0
  0
VISUALSTYLE
  5
DE4
102
{ACAD_XDICTIONARY
360
E6E
102
}
102
{ACAD_REACTORS
330
DD9
102
}
330
DD9
100
AcDbVisualStyle
  2
Dim
 70
    11
 71
     2
 72
     2
 73
     0
 90
        0
 40
-0.6
 41
-30.0
 62
     5
 63
     7
 74
     1
 91
        4
 64
     7
 65
   257
 75
     1
175
     1
 42
1.0
 92
        8
 66
     7
 43
1.0
 76
     1
 77
     6
 78
     2
 67
     7
 79
     5
170
     0
171
     0
290
     0
174
     0
 93
        1
 44
-50.0
173
     0
291
     1
 45
0.0
1001
ACAD
1000
AcDbSavedByObjectVersion
1070
     0
  0
VISUALSTYLE
  5
DEC
102
{ACAD_XDICTIONARY
360
E7E
102
}
102
{ACAD_REACTORS
330
DD9
102
}
330
DD9
100
AcDbVisualStyle
  2
EdgeColorOff
 70
    22
 71
     2
 72
     2
 73
     0
 90
        0
 40
-0.6
 41
-30.0
 62
     5
 63
     7
 74
     1
 91
        4
 64
     7
 65
   257
 75
     1
175
     1
 42
1.0
 92
        8
 66
     7
 43
1.0
 76
     1
 77
     6
 78
     2
 67
     7
 79
     5
170
     0
171
     0
290
     0
174
     0
 93
        1
 44
0.0
173
     0
291
     1
 45
0.0
1001
ACAD
1000
AcDbSavedByObjectVersion
1070
     0
  0
VISUALSTYLE
  5
DE8
102
{ACAD_XDICTIONARY
360
E76
102
}
102
{ACAD_REACTORS
330
DD9
102
}
330
DD9
100
AcDbVisualStyle
  2
Facepattern
 70
    15
 71
     2
 72
     2
 73
     0
 90
        0
 40
-0.6
 41
-30.0
 62
     5
 63
     7
 74
     1
 91
        4
 64
     7
 65
   257
 75
     1
175
     1
 42
1.0
 92
        8
 66
     7
 43
1.0
 76
     1
 77
     6
 78
     2
 67
     7
 79
     5
170
     0
171
     0
290
     0
174
     0
 93
        1
 44
0.0
173
     0
291
     1
 45
0.0
1001
ACAD
1000
AcDbSavedByObjectVersion
1070
     0
  0
VISUALSTYLE
  5
DDA
102
{ACAD_XDICTIONARY
360
E5A
102
}
102
{ACAD_REACTORS
330
DD9
102
}
330
DD9
100
AcDbVisualStyle
  2
Flat
 70
     0
 71
     2
 72
     1
 73
     1
 90
        2
 40
-0.6
 41
30.0
 62
     5
 63
     7
 74
     0
 91
        4
 64
     7
 65
   257
 75
     1
175
     1
 42
1.0
 92
        8
 66
     7
 43
1.0
 76
     1
 77
     6
 78
     2
 67
     7
 79
     5
170
     0
171
     0
290
     0
174
     0
 93
       13
 44
0.0
173
     0
291
     1
 45
0.0
1001
ACAD
1000
AcDbSavedByObjectVersion
1070
     0
  0
VISUALSTYLE
  5
DDB
102
{ACAD_XDICTIONARY
360
E5C
102
}
102
{ACAD_REACTORS
330
DD9
102
}
330
DD9
100
AcDbVisualStyle
  2
FlatWithEdges
 70
     1
 71
     2
 72
     1
 73
     1
 90
        2
 40
-0.6
 41
30.0
 62
     5
 63
     7
 74
     1
 91
        4
 64
     7
 65
   257
 75
     1
175
     1
 42
1.0
 92
        0
 66
   257
 43
1.0
 76
     1
 77
     6
 78
     2
 67
     7
 79
     5
170
     0
171
     0
290
     0
174
     0
 93
       13
 44
0.0
173
     0
291
     1
 45
0.0
1001
ACAD
1000
AcDbSavedByObjectVersion
1070
     0
  0
VISUALSTYLE
  5
DDC
102
{ACAD_XDICTIONARY
360
E5E
102
}
102
{ACAD_REACTORS
330
DD9
102
}
330
DD9
100
AcDbVisualStyle
  2
Gouraud
 70
     2
 71
     2
 72
     2
 73
     1
 90
        2
 40
-0.6
 41
30.0
 62
     5
 63
     7
 74
     0
 91
        4
 64
     7
 65
   257
 75
     1
175
     1
 42
1.0
 92
        0
 66
     7
 43
1.0
 76
     1
 77
     6
 78
     2
 67
     7
 79
     5
170
     0
171
     0
290
     0
174
     0
 93
       13
 44
0.0
173
     0
291
     1
 45
0.0
1001
ACAD
1000
AcDbSavedByObjectVersion
1070
     0
  0
VISUALSTYLE
  5
DDD
102
{ACAD_XDICTIONARY
360
E60
102
}
102
{ACAD_REACTORS
330
DD9
102
}
330
DD9
100
AcDbVisualStyle
  2
GouraudWithEdges
 70
     3
 71
     2
 72
     2
 73
     1
 90
        2
 40
-0.6
 41
30.0
 62
     5
 63
     7
 74
     1
 91
        4
 64
     7
 65
   257
 75
     1
175
     1
 42
1.0
 92
        0
 66
   257
 43
1.0
 76
     1
 77
     6
 78
     2
 67
     7
 79
     5
170
     0
171
     0
290
     0
174
     0
 93
       13
 44
0.0
173
     0
291
     1
 45
0.0
1001
ACAD
1000
AcDbSavedByObjectVersion
1070
     0
  0
VISUALSTYLE
  5
DEA
102
{ACAD_XDICTIONARY
360
E7A
102
}
102
{ACAD_REACTORS
330
DD9
102
}
330
DD9
100
AcDbVisualStyle
  2
JitterOff
 70
    20
 71
     2
 72
     2
 73
     0
 90
        0
 40
-0.6
 41
-30.0
 62
     5
 63
     7
 74
     1
 91
        4
 64
     7
 65
   257
 75
     1
175
     1
 42
1.0
 92
       10
 66
     7
 43
1.0
 76
     1
 77
     6
 78
     2
 67
     7
 79
     5
170
     0
171
     0
290
     0
174
     0
 93
        1
 44
0.0
173
     0
291
     1
 45
0.0
1001
ACAD
1000
AcDbSavedByObjectVersion
1070
     0
  0
VISUALSTYLE
  5
DE7
102
{ACAD_XDICTIONARY
360
E74
102
}
102
{ACAD_REACTORS
330
DD9
102
}
330
DD9
100
AcDbVisualStyle
  2
Linepattern
 70
    14
 71
     2
 72
     2
 73
     0
 90
        0
 40
-0.6
 41
-30.0
 62
     5
 63
     7
 74
     1
 91
        4
 64
     7
 65
   257
 75
     7
175
     7
 42
1.0
 92
        8
 66
     7
 43
1.0
 76
     1
 77
     6
 78
     2
 67
     7
 79
     5
170
     0
171
     0
290
     0
174
     0
 93
        1
 44
0.0
173
     0
291
     1
 45
0.0
1001
ACAD
1000
AcDbSavedByObjectVersion
1070
     0
  0
VISUALSTYLE
  5
DEB
102
{ACAD_XDICTIONARY
360
E7C
102
}
102
{ACAD_REACTORS
330
DD9
102
}
330
DD9
100
AcDbVisualStyle
  2
OverhangOff
 70
    21
 71
     2
 72
     2
 73
     0
 90
        0
 40
-0.6
 41
-30.0
 62
     5
 63
     7
 74
     1
 91
        4
 64
     7
 65
   257
 75
     1
175
     1
 42
1.0
 92
        9
 66
     7
 43
1.0
 76
     1
 77
     6
 78
     2
 67
     7
 79
     5
170
     0
171
     0
290
     0
174
     0
 93
        1
 44
0.0
173
     0
291
     1
 45
0.0
1001
ACAD
1000
AcDbSavedByObjectVersion
1070
     0
  0
VISUALSTYLE
  5
DE3
102
{ACAD_XDICTIONARY
360
E6C
102
}
102
{ACAD_REACTORS
330
DD9
102
}
330
DD9
100
AcDbVisualStyle
  2
Realistic
 70
     8
 71
     2
 72
     2
 73
     0
 90
        0
 40
-0.6
 41
-30.0
 62
     5
 63
     7
 74
     1
 91
        0
 64
     7
 65
   257
 75
     1
175
     1
 42
1.0
 92
        8
 66
     8
 43
1.0
 76
     1
 77
     6
 78
     2
 67
     7
 79
     5
170
     0
171
     0
290
     0
174
     0
 93
       13
 44
0.0
173
     0
291
     0
 45
0.0
1001
ACAD
1000
AcDbSavedByObjectVersion
1070
     0
  0
VISUALSTYLE
  5
DE6
102
{ACAD_XDICTIONARY
360
E72
102
}
102
{ACAD_REACTORS
330
DD9
102
}
330
DD9
100
AcDbVisualStyle
  2
Thicken
 70
    13
 71
     2
 72
     2
 73
     0
 90
        0
 40
-0.6
 41
-30.0
 62
     5
 63
     7
 74
     1
 91
        4
 64
     7
 65
   257
 75
     1
175
     1
 42
1.0
 92
       12
 66
     7
 43
1.0
 76
     1
 77
     6
 78
     2
 67
     7
 79
     5
170
     0
171
     0
290
     0
174
     0
 93
        1
 44
0.0
173
     0
291
     1
 45
0.0
1001
ACAD
1000
AcDbSavedByObjectVersion
1070
     0
  0
DICTIONARYVAR
  5
E16
102
{ACAD_REACTORS
330
DB3
102
}
330
DB3
100
DictionaryVariables
280
     0
  1
1:1
  0
DICTIONARYVAR
  5
E15
102
{ACAD_REACTORS
330
DB3
102
}
330
DB3
100
DictionaryVariables
280
     0
  1
STANDARD
  0
DICTIONARYVAR
  5
DB4
102
{ACAD_REACTORS
330
DB3
102
}
330
DB3
100
DictionaryVariables
280
     0
  1
STANDARD
  0
DICTIONARYVAR
  5
DBE
102
{ACAD_REACTORS
330
DB3
102
}
330
DB3
100
DictionaryVariables
280
     0
  1
2
  0
DICTIONARYVAR
  5
DBD
102
{ACAD_REACTORS
330
DB3
102
}
330
DB3
100
DictionaryVariables
280
     0
  1
1
  0
DICTIONARYVAR
  5
E18
102
{ACAD_REACTORS
330
DB3
102
}
330
DB3
100
DictionaryVariables
280
     0
  1
0
  0
DICTIONARYVAR
  5
DBF
102
{ACAD_REACTORS
330
DB3
102
}
330
DB3
100
DictionaryVariables
280
     0
  1

  0
DICTIONARYVAR
  5
E17
102
{ACAD_REACTORS
330
DB3
102
}
330
DB3
100
DictionaryVariables
280
     0
  1
127
  0
DICTIONARYVAR
  5
E19
102
{ACAD_REACTORS
330
DB3
102
}
330
DB3
100
DictionaryVariables
280
     0
  1
2
  0
DICTIONARY
  5
E21
330
22
100
AcDbDictionary
280
     1
281
     1
  3
ACAD_XREC_ROUNDTRIP
360
E22
  0
DICTIONARY
  5
E25
330
2A
100
AcDbDictionary
280
     1
281
     1
  3
ACAD_XREC_ROUNDTRIP
360
E26
  0
DICTIONARY
  5
E23
330
26
100
AcDbDictionary
280
     1
281
     1
  3
ACAD_XREC_ROUNDTRIP
360
E24
  0
DICTIONARY
  5
DCA
330
DC9
100
AcDbDictionary
280
     1
281
     1
  3
ACAD_XREC_ROUNDTRIP
360
E58
  3
BUMPTILE
360
DCC
  3
DIFFUSETILE
360
DCB
  3
OPACITYTILE
360
DCF
  3
REFLECTIONTILE
360
DCE
  3
REFRACTIONTILE
360
DD0
  3
SPECULARTILE
360
DCD
  0
DICTIONARY
  5
DC2
330
DC1
100
AcDbDictionary
280
     1
281
     1
  3
ACAD_XREC_ROUNDTRIP
360
E57
  3
BUMPTILE
360
DC4
  3
DIFFUSETILE
360
DC3
  3
OPACITYTILE
360
DC7
  3
REFLECTIONTILE
360
DC6
  3
REFRACTIONTILE
360
DC8
  3
SPECULARTILE
360
DC5
  0
DICTIONARY
  5
DD2
330
DD1
100
AcDbDictionary
280
     1
281
     1
  3
ACAD_XREC_ROUNDTRIP
360
E59
  3
BUMPTILE
360
DD4
  3
DIFFUSETILE
360
DD3
  3
OPACITYTILE
360
DD7
  3
REFLECTIONTILE
360
DD6
  3
REFRACTIONTILE
360
DD8
  3
SPECULARTILE
360
DD5
  0
DICTIONARY
  5
E1A
330
1E
100
AcDbDictionary
280
     1
281
     1
  3
ACAD_ROUNDTRIP_2008_TABLESTYLE_CELLSTYLEMAP
360
E1B
  3
ACAD_XREC_ROUNDTRIP
360
E20
  0
DICTIONARY
  5
E64
330
DDF
100
AcDbDictionary
280
     1
281
     1
  3
ACAD_XREC_ROUNDTRIP
360
E65
  0
DICTIONARY
  5
E68
330
DE1
100
AcDbDictionary
280
     1
281
     1
  3
ACAD_XREC_ROUNDTRIP
360
E69
  0
DICTIONARY
  5
E66
330
DE0
100
AcDbDictionary
280
     1
281
     1
  3
ACAD_XREC_ROUNDTRIP
360
E67
  0
DICTIONARY
  5
E62
330
DDE
100
AcDbDictionary
280
     1
281
     1
  3
ACAD_XREC_ROUNDTRIP
360
E63
  0
DICTIONARY
  5
E70
330
DE5
100
AcDbDictionary
280
     1
281
     1
  3
ACAD_XREC_ROUNDTRIP
360
E71
  0
DICTIONARY
  5
E78
330
DE9
100
AcDbDictionary
280
     1
281
     1
  3
ACAD_XREC_ROUNDTRIP
360
E79
  0
DICTIONARY
  5
E6A
330
DE2
100
AcDbDictionary
280
     1
281
     1
  3
ACAD_XREC_ROUNDTRIP
360
E6B
  0
DICTIONARY
  5
E6E
330
DE4
100
AcDbDictionary
280
     1
281
     1
  3
ACAD_XREC_ROUNDTRIP
360
E6F
  0
DICTIONARY
  5
E7E
330
DEC
100
AcDbDictionary
280
     1
281
     1
  3
ACAD_XREC_ROUNDTRIP
360
E7F
  0
DICTIONARY
  5
E76
330
DE8
100
AcDbDictionary
280
     1
281
     1
  3
ACAD_XREC_ROUNDTRIP
360
E77
  0
DICTIONARY
  5
E5A
330
DDA
100
AcDbDictionary
280
     1
281
     1
  3
ACAD_XREC_ROUNDTRIP
360
E5B
  0
DICTIONARY
  5
E5C
330
DDB
100
AcDbDictionary
280
     1
281
     1
  3
ACAD_XREC_ROUNDTRIP
360
E5D
  0
DICTIONARY
  5
E5E
330
DDC
100
AcDbDictionary
280
     1
281
     1
  3
ACAD_XREC_ROUNDTRIP
360
E5F
  0
DICTIONARY
  5
E60
330
DDD
100
AcDbDictionary
280
     1
281
     1
  3
ACAD_XREC_ROUNDTRIP
360
E61
  0
DICTIONARY
  5
E7A
330
DEA
100
AcDbDictionary
280
     1
281
     1
  3
ACAD_XREC_ROUNDTRIP
360
E7B
  0
DICTIONARY
  5
E74
330
DE7
100
AcDbDictionary
280
     1
281
     1
  3
ACAD_XREC_ROUNDTRIP
360
E75
  0
DICTIONARY
  5
E7C
330
DEB
100
AcDbDictionary
280
     1
281
     1
  3
ACAD_XREC_ROUNDTRIP
360
E7D
  0
DICTIONARY
  5
E6C
330
DE3
100
AcDbDictionary
280
     1
281
     1
  3
ACAD_XREC_ROUNDTRIP
360
E6D
  0
DICTIONARY
  5
E72
330
DE6
100
AcDbDictionary
280
     1
281
     1
  3
ACAD_XREC_ROUNDTRIP
360
E73
  0
XRECORD
  5
E22
102
{ACAD_REACTORS
330
E21
102
}
330
E21
100
AcDbXrecord
280
     1
102
SHADEPLOT
 70
     0
102
SHADEPLOTRESLEVEL
 70
     2
102
SHADEPLOTCUSTOMDPI
 70
   300
  0
XRECORD
  5
E26
102
{ACAD_REACTORS
330
E25
102
}
330
E25
100
AcDbXrecord
280
     1
102
SHADEPLOT
 70
     0
102
SHADEPLOTRESLEVEL
 70
     2
102
SHADEPLOTCUSTOMDPI
 70
   300
  0
XRECORD
  5
E24
102
{ACAD_REACTORS
330
E23
102
}
330
E23
100
AcDbXrecord
280
     1
102
SHADEPLOT
 70
     0
102
SHADEPLOTRESLEVEL
 70
     2
102
SHADEPLOTCUSTOMDPI
 70
   300
  0
XRECORD
  5
E58
102
{ACAD_REACTORS
330
DCA
102
}
330
DCA
100
AcDbXrecord
280
     1
102
MATERIAL
148
0.0
149
0.0
149
0.0
 93
        0
 94
      127
282
     0
 72
     0
 77
     0
171
     0
175
     0
179
     0
273
     0
  0
XRECORD
  5
DCC
102
{ACAD_REACTORS
330
DCA
102
}
330
DCA
100
AcDbXrecord
280
     1
270
     1
271
     1
  0
XRECORD
  5
DCB
102
{ACAD_REACTORS
330
DCA
102
}
330
DCA
100
AcDbXrecord
280
     1
270
     1
271
     1
  0
XRECORD
  5
DCF
102
{ACAD_REACTORS
330
DCA
102
}
330
DCA
100
AcDbXrecord
280
     1
270
     1
271
     1
  0
XRECORD
  5
DCE
102
{ACAD_REACTORS
330
DCA
102
}
330
DCA
100
AcDbXrecord
280
     1
270
     1
271
     1
  0
XRECORD
  5
DD0
102
{ACAD_REACTORS
330
DCA
102
}
330
DCA
100
AcDbXrecord
280
     1
270
     1
271
     1
  0
XRECORD
  5
DCD
102
{ACAD_REACTORS
330
DCA
102
}
330
DCA
100
AcDbXrecord
280
     1
270
     1
271
     1
  0
XRECORD
  5
E57
102
{ACAD_REACTORS
330
DC2
102
}
330
DC2
100
AcDbXrecord
280
     1
102
MATERIAL
148
0.0
149
0.0
149
0.0
 93
        0
 94
      127
282
     0
 72
     0
 77
     0
171
     0
175
     0
179
     0
273
     0
  0
XRECORD
  5
DC4
102
{ACAD_REACTORS
330
DC2
102
}
330
DC2
100
AcDbXrecord
280
     1
270
     1
271
     1
  0
XRECORD
  5
DC3
102
{ACAD_REACTORS
330
DC2
102
}
330
DC2
100
AcDbXrecord
280
     1
270
     1
271
     1
  0
XRECORD
  5
DC7
102
{ACAD_REACTORS
330
DC2
102
}
330
DC2
100
AcDbXrecord
280
     1
270
     1
271
     1
  0
XRECORD
  5
DC6
102
{ACAD_REACTORS
330
DC2
102
}
330
DC2
100
AcDbXrecord
280
     1
270
     1
271
     1
  0
XRECORD
  5
DC8
102
{ACAD_REACTORS
330
DC2
102
}
330
DC2
100
AcDbXrecord
280
     1
270
     1
271
     1
  0
XRECORD
  5
DC5
102
{ACAD_REACTORS
330
DC2
102
}
330
DC2
100
AcDbXrecord
280
     1
270
     1
271
     1
  0
XRECORD
  5
E59
102
{ACAD_REACTORS
330
DD2
102
}
330
DD2
100
AcDbXrecord
280
     1
102
MATERIAL
148
0.0
149
0.0
149
0.0
 93
        0
 94
      127
282
     0
 72
     0
 77
     0
171
     0
175
     0
179
     0
273
     0
  0
XRECORD
  5
DD4
102
{ACAD_REACTORS
330
DD2
102
}
330
DD2
100
AcDbXrecord
280
     1
270
     1
271
     1
  0
XRECORD
  5
DD3
102
{ACAD_REACTORS
330
DD2
102
}
330
DD2
100
AcDbXrecord
280
     1
270
     1
271
     1
  0
XRECORD
  5
DD7
102
{ACAD_REACTORS
330
DD2
102
}
330
DD2
100
AcDbXrecord
280
     1
270
     1
271
     1
  0
XRECORD
  5
DD6
102
{ACAD_REACTORS
330
DD2
102
}
330
DD2
100
AcDbXrecord
280
     1
270
     1
271
     1
  0
XRECORD
  5
DD8
102
{ACAD_REACTORS
330
DD2
102
}
330
DD2
100
AcDbXrecord
280
     1
270
     1
271
     1
  0
XRECORD
  5
DD5
102
{ACAD_REACTORS
330
DD2
102
}
330
DD2
100
AcDbXrecord
280
     1
270
     1
271
     1
  0
CELLSTYLEMAP
  5
E1B
102
{ACAD_REACTORS
330
E1A
102
}
330
E1A
100
AcDbCellStyleMap
 90
        3
300
CELLSTYLE
  1
TABLEFORMAT_BEGIN
 90
        5
170
     1
 91
        0
 92
    32768
 62
   257
 93
        1
300
CONTENTFORMAT
  1
CONTENTFORMAT_BEGIN
 90
        0
 91
        0
 92
        4
 93
        0
300

 40
0.0
140
1.0
 94
        5
 62
     0
340
11
144
6.0
309
CONTENTFORMAT_END
171
     1
301
MARGIN
  1
CELLMARGIN_BEGIN
 40
1.5
 40
1.5
 40
1.5
 40
1.5
 40
0.18
 40
0.18
309
CELLMARGIN_END
 94
        6
 95
        1
302
GRIDFORMAT
  1
GRIDFORMAT_BEGIN
 90
        0
 91
        1
 62
     0
 92
       -2
340
0
 93
        0
 40
0.045
309
GRIDFORMAT_END
 95
        2
302
GRIDFORMAT
  1
GRIDFORMAT_BEGIN
 90
        0
 91
        1
 62
     0
 92
       -2
340
0
 93
        0
 40
0.045
309
GRIDFORMAT_END
 95
        4
302
GRIDFORMAT
  1
GRIDFORMAT_BEGIN
 90
        0
 91
        1
 62
     0
 92
       -2
340
0
 93
        0
 40
0.045
309
GRIDFORMAT_END
 95
        8
302
GRIDFORMAT
  1
GRIDFORMAT_BEGIN
 90
        0
 91
        1
 62
     0
 92
       -2
340
0
 93
        0
 40
0.045
309
GRIDFORMAT_END
 95
       16
302
GRIDFORMAT
  1
GRIDFORMAT_BEGIN
 90
        0
 91
        1
 62
     0
 92
       -2
340
0
 93
        0
 40
0.045
309
GRIDFORMAT_END
 95
       32
302
GRIDFORMAT
  1
GRIDFORMAT_BEGIN
 90
        0
 91
        1
 62
     0
 92
       -2
340
0
 93
        0
 40
0.045
309
GRIDFORMAT_END
309
TABLEFORMAT_END
  1
CELLSTYLE_BEGIN
 90
        1
 91
        1
300
_TITLE
309
CELLSTYLE_END
300
CELLSTYLE
  1
TABLEFORMAT_BEGIN
 90
        5
170
     1
 91
        0
 92
        0
 62
   257
 93
        1
300
CONTENTFORMAT
  1
CONTENTFORMAT_BEGIN
 90
        0
 91
        0
 92
        4
 93
        0
300

 40
0.0
140
1.0
 94
        5
 62
     0
340
11
144
4.5
309
CONTENTFORMAT_END
171
     1
301
MARGIN
  1
CELLMARGIN_BEGIN
 40
1.5
 40
1.5
 40
1.5
 40
1.5
 40
0.18
 40
0.18
309
CELLMARGIN_END
 94
        6
 95
        1
302
GRIDFORMAT
  1
GRIDFORMAT_BEGIN
 90
        0
 91
        1
 62
     0
 92
       -2
340
0
 93
        0
 40
0.045
309
GRIDFORMAT_END
 95
        2
302
GRIDFORMAT
  1
GRIDFORMAT_BEGIN
 90
        0
 91
        1
 62
     0
 92
       -2
340
0
 93
        0
 40
0.045
309
GRIDFORMAT_END
 95
        4
302
GRIDFORMAT
  1
GRIDFORMAT_BEGIN
 90
        0
 91
        1
 62
     0
 92
       -2
340
0
 93
        0
 40
0.045
309
GRIDFORMAT_END
 95
        8
302
GRIDFORMAT
  1
GRIDFORMAT_BEGIN
 90
        0
 91
        1
 62
     0
 92
       -2
340
0
 93
        0
 40
0.045
309
GRIDFORMAT_END
 95
       16
302
GRIDFORMAT
  1
GRIDFORMAT_BEGIN
 90
        0
 91
        1
 62
     0
 92
       -2
340
0
 93
        0
 40
0.045
309
GRIDFORMAT_END
 95
       32
302
GRIDFORMAT
  1
GRIDFORMAT_BEGIN
 90
        0
 91
        1
 62
     0
 92
       -2
340
0
 93
        0
 40
0.045
309
GRIDFORMAT_END
309
TABLEFORMAT_END
  1
CELLSTYLE_BEGIN
 90
        2
 91
        1
300
_HEADER
309
CELLSTYLE_END
300
CELLSTYLE
  1
TABLEFORMAT_BEGIN
 90
        5
170
     1
 91
        0
 92
        0
 62
   257
 93
        1
300
CONTENTFORMAT
  1
CONTENTFORMAT_BEGIN
 90
        0
 91
        0
 92
        4
 93
        0
300

 40
0.0
140
1.0
 94
        2
 62
     0
340
11
144
4.5
309
CONTENTFORMAT_END
171
     1
301
MARGIN
  1
CELLMARGIN_BEGIN
 40
1.5
 40
1.5
 40
1.5
 40
1.5
 40
0.18
 40
0.18
309
CELLMARGIN_END
 94
        6
 95
        1
302
GRIDFORMAT
  1
GRIDFORMAT_BEGIN
 90
        0
 91
        1
 62
     0
 92
       -2
340
0
 93
        0
 40
0.045
309
GRIDFORMAT_END
 95
        2
302
GRIDFORMAT
  1
GRIDFORMAT_BEGIN
 90
        0
 91
        1
 62
     0
 92
       -2
340
0
 93
        0
 40
0.045
309
GRIDFORMAT_END
 95
        4
302
GRIDFORMAT
  1
GRIDFORMAT_BEGIN
 90
        0
 91
        1
 62
     0
 92
       -2
340
0
 93
        0
 40
0.045
309
GRIDFORMAT_END
 95
        8
302
GRIDFORMAT
  1
GRIDFORMAT_BEGIN
 90
        0
 91
        1
 62
     0
 92
       -2
340
0
 93
        0
 40
0.045
309
GRIDFORMAT_END
 95
       16
302
GRIDFORMAT
  1
GRIDFORMAT_BEGIN
 90
        0
 91
        1
 62
     0
 92
       -2
340
0
 93
        0
 40
0.045
309
GRIDFORMAT_END
 95
       32
302
GRIDFORMAT
  1
GRIDFORMAT_BEGIN
 90
        0
 91
        1
 62
     0
 92
       -2
340
0
 93
        0
 40
0.045
309
GRIDFORMAT_END
309
TABLEFORMAT_END
  1
CELLSTYLE_BEGIN
 90
        3
 91
        2
300
_DATA
309
CELLSTYLE_END
  0
XRECORD
  5
E20
102
{ACAD_REACTORS
330
E1A
102
}
330
E1A
100
AcDbXrecord
280
     1
102
ACAD_ROUNDTRIP_PRE2007_TABLESTYLE
 90
        4
 91
        0
  1

 92
        4
 93
        0
  2

 94
        4
 95
        0
  3

  0
XRECORD
  5
E65
102
{ACAD_REACTORS
330
E64
102
}
330
E64
100
AcDbXrecord
280
     1
102
RTVSPropertyOp0
 70
     1
102
RTVSPropertyOp1
 70
     1
102
RTVSPropertyOp2
 70
     1
102
RTVSPropertyOp3
 70
     1
102
RTVSPropertyOp4
 70
     1
102
RTVSPropertyOp5
 70
     1
102
RTVSPropertyOp6
 70
     1
102
RTVSPropertyOp7
 70
     1
102
RTVSPropertyOp8
 70
     1
102
RTVSPropertyOp9
 70
     1
102
RTVSPropertyOp10
 70
     1
102
RTVSPropertyOp11
 70
     1
102
RTVSPropertyOp12
 70
     1
102
RTVSPropertyOp13
 70
     1
102
RTVSPropertyOp14
 70
     1
102
RTVSPropertyOp15
 70
     1
102
RTVSPropertyOp16
 70
     1
102
RTVSPropertyOp17
 70
     1
102
RTVSPropertyOp18
 70
     1
102
RTVSPropertyOp19
 70
     1
102
RTVSPropertyOp20
 70
     1
102
RTVSPropertyOp21
 70
     1
102
RTVSPropertyOp22
 70
     1
102
RTVSPropertyOp23
 70
     1
102
RTVSPropertyOp24
 70
     1
102
RTVSPropertyOp25
 70
     1
102
RTVSPropertyOp26
 70
     1
102
RTVSPropertyOp27
 70
     1
  0
XRECORD
  5
E69
102
{ACAD_REACTORS
330
E68
102
}
330
E68
100
AcDbXrecord
280
     1
102
RTVSPropertyOp0
 70
     1
102
RTVSPropertyOp1
 70
     1
102
RTVSPropertyOp2
 70
     1
102
RTVSPropertyOp3
 70
     1
102
RTVSPropertyOp4
 70
     1
102
RTVSPropertyOp5
 70
     1
102
RTVSPropertyOp6
 70
     1
102
RTVSPropertyOp7
 70
     1
102
RTVSPropertyOp8
 70
     1
102
RTVSPropertyOp9
 70
     1
102
RTVSPropertyOp10
 70
     1
102
RTVSPropertyOp11
 70
     1
102
RTVSPropertyOp12
 70
     1
102
RTVSPropertyOp13
 70
     1
102
RTVSPropertyOp14
 70
     1
102
RTVSPropertyOp15
 70
     1
102
RTVSPropertyOp16
 70
     1
102
RTVSPropertyOp17
 70
     1
102
RTVSPropertyOp18
 70
     1
102
RTVSPropertyOp19
 70
     1
102
RTVSPropertyOp20
 70
     1
102
RTVSPropertyOp21
 70
     1
102
RTVSPropertyOp22
 70
     1
102
RTVSPropertyOp23
 70
     1
102
RTVSPropertyOp24
 70
     1
102
RTVSPropertyOp25
 70
     1
102
RTVSPropertyOp26
 70
     1
102
RTVSPropertyOp27
 70
     1
  0
XRECORD
  5
E67
102
{ACAD_REACTORS
330
E66
102
}
330
E66
100
AcDbXrecord
280
     1
102
RTVSPropertyOp0
 70
     1
102
RTVSPropertyOp1
 70
     1
102
RTVSPropertyOp2
 70
     1
102
RTVSPropertyOp3
 70
     1
102
RTVSPropertyOp4
 70
     1
102
RTVSPropertyOp5
 70
     1
102
RTVSPropertyOp6
 70
     1
102
RTVSPropertyOp7
 70
     1
102
RTVSPropertyOp8
 70
     1
102
RTVSPropertyOp9
 70
     1
102
RTVSPropertyOp10
 70
     1
102
RTVSPropertyOp11
 70
     1
102
RTVSPropertyOp12
 70
     1
102
RTVSPropertyOp13
 70
     1
102
RTVSPropertyOp14
 70
     1
102
RTVSPropertyOp15
 70
     1
102
RTVSPropertyOp16
 70
     1
102
RTVSPropertyOp17
 70
     1
102
RTVSPropertyOp18
 70
     1
102
RTVSPropertyOp19
 70
     1
102
RTVSPropertyOp20
 70
     1
102
RTVSPropertyOp21
 70
     1
102
RTVSPropertyOp22
 70
     1
102
RTVSPropertyOp23
 70
     1
102
RTVSPropertyOp24
 70
     1
102
RTVSPropertyOp25
 70
     1
102
RTVSPropertyOp26
 70
     1
102
RTVSPropertyOp27
 70
     1
  0
XRECORD
  5
E63
102
{ACAD_REACTORS
330
E62
102
}
330
E62
100
AcDbXrecord
280
     1
102
RTVSPropertyOp0
 70
     1
102
RTVSPropertyOp1
 70
     1
102
RTVSPropertyOp2
 70
     1
102
RTVSPropertyOp3
 70
     1
102
RTVSPropertyOp4
 70
     1
102
RTVSPropertyOp5
 70
     1
102
RTVSPropertyOp6
 70
     1
102
RTVSPropertyOp7
 70
     1
102
RTVSPropertyOp8
 70
     1
102
RTVSPropertyOp9
 70
     1
102
RTVSPropertyOp10
 70
     1
102
RTVSPropertyOp11
 70
     1
102
RTVSPropertyOp12
 70
     1
102
RTVSPropertyOp13
 70
     1
102
RTVSPropertyOp14
 70
     1
102
RTVSPropertyOp15
 70
     1
102
RTVSPropertyOp16
 70
     1
102
RTVSPropertyOp17
 70
     1
102
RTVSPropertyOp18
 70
     1
102
RTVSPropertyOp19
 70
     1
102
RTVSPropertyOp20
 70
     1
102
RTVSPropertyOp21
 70
     1
102
RTVSPropertyOp22
 70
     1
102
RTVSPropertyOp23
 70
     1
102
RTVSPropertyOp24
 70
     1
102
RTVSPropertyOp25
 70
     1
102
RTVSPropertyOp26
 70
     1
102
RTVSPropertyOp27
 70
     1
  0
XRECORD
  5
E71
102
{ACAD_REACTORS
330
E70
102
}
330
E70
100
AcDbXrecord
280
     1
102
RTVSPropertyOp0
 70
     1
102
RTVSPropertyOp1
 70
     1
102
RTVSPropertyOp2
 70
     1
102
RTVSPropertyOp3
 70
     1
102
RTVSPropertyOp4
 70
     1
102
RTVSPropertyOp5
 70
     1
102
RTVSPropertyOp6
 70
     1
102
RTVSPropertyOp7
 70
     1
102
RTVSPropertyOp8
 70
     1
102
RTVSPropertyOp9
 70
     1
102
RTVSPropertyOp10
 70
     1
102
RTVSPropertyOp11
 70
     1
102
RTVSPropertyOp12
 70
     1
102
RTVSPropertyOp13
 70
     1
102
RTVSPropertyOp14
 70
     1
102
RTVSPropertyOp15
 70
     1
102
RTVSPropertyOp16
 70
     1
102
RTVSPropertyOp17
 70
     1
102
RTVSPropertyOp18
 70
     1
102
RTVSPropertyOp19
 70
     1
102
RTVSPropertyOp20
 70
     1
102
RTVSPropertyOp21
 70
     1
102
RTVSPropertyOp22
 70
     1
102
RTVSPropertyOp23
 70
     1
102
RTVSPropertyOp24
 70
     1
102
RTVSPropertyOp25
 70
     1
102
RTVSPropertyOp26
 70
     1
102
RTVSPropertyOp27
 70
     1
  0
XRECORD
  5
E79
102
{ACAD_REACTORS
330
E78
102
}
330
E78
100
AcDbXrecord
280
     1
102
RTVSPropertyOp0
 70
     1
102
RTVSPropertyOp1
 70
     1
102
RTVSPropertyOp2
 70
     1
102
RTVSPropertyOp3
 70
     1
102
RTVSPropertyOp4
 70
     1
102
RTVSPropertyOp5
 70
     1
102
RTVSPropertyOp6
 70
     1
102
RTVSPropertyOp7
 70
     1
102
RTVSPropertyOp8
 70
     1
102
RTVSPropertyOp9
 70
     1
102
RTVSPropertyOp10
 70
     1
102
RTVSPropertyOp11
 70
     1
102
RTVSPropertyOp12
 70
     1
102
RTVSPropertyOp13
 70
     1
102
RTVSPropertyOp14
 70
     1
102
RTVSPropertyOp15
 70
     1
102
RTVSPropertyOp16
 70
     1
102
RTVSPropertyOp17
 70
     1
102
RTVSPropertyOp18
 70
     1
102
RTVSPropertyOp19
 70
     1
102
RTVSPropertyOp20
 70
     1
102
RTVSPropertyOp21
 70
     1
102
RTVSPropertyOp22
 70
     1
102
RTVSPropertyOp23
 70
     1
102
RTVSPropertyOp24
 70
     1
102
RTVSPropertyOp25
 70
     1
102
RTVSPropertyOp26
 70
     1
102
RTVSPropertyOp27
 70
     1
  0
XRECORD
  5
E6B
102
{ACAD_REACTORS
330
E6A
102
}
330
E6A
100
AcDbXrecord
280
     1
102
RTVSPropertyOp0
 70
     1
102
RTVSPropertyOp1
 70
     1
102
RTVSPropertyOp2
 70
     1
102
RTVSPropertyOp3
 70
     1
102
RTVSPropertyOp4
 70
     1
102
RTVSPropertyOp5
 70
     1
102
RTVSPropertyOp6
 70
     1
102
RTVSPropertyOp7
 70
     1
102
RTVSPropertyOp8
 70
     1
102
RTVSPropertyOp9
 70
     1
102
RTVSPropertyOp10
 70
     1
102
RTVSPropertyOp11
 70
     1
102
RTVSPropertyOp12
 70
     1
102
RTVSPropertyOp13
 70
     1
102
RTVSPropertyOp14
 70
     1
102
RTVSPropertyOp15
 70
     1
102
RTVSPropertyOp16
 70
     1
102
RTVSPropertyOp17
 70
     1
102
RTVSPropertyOp18
 70
     1
102
RTVSPropertyOp19
 70
     1
102
RTVSPropertyOp20
 70
     1
102
RTVSPropertyOp21
 70
     1
102
RTVSPropertyOp22
 70
     1
102
RTVSPropertyOp23
 70
     1
102
RTVSPropertyOp24
 70
     1
102
RTVSPropertyOp25
 70
     1
102
RTVSPropertyOp26
 70
     1
102
RTVSPropertyOp27
 70
     1
  0
XRECORD
  5
E6F
102
{ACAD_REACTORS
330
E6E
102
}
330
E6E
100
AcDbXrecord
280
     1
102
RTVSPropertyOp0
 70
     1
102
RTVSPropertyOp1
 70
     1
102
RTVSPropertyOp2
 70
     1
102
RTVSPropertyOp3
 70
     1
102
RTVSPropertyOp4
 70
     1
102
RTVSPropertyOp5
 70
     1
102
RTVSPropertyOp6
 70
     1
102
RTVSPropertyOp7
 70
     1
102
RTVSPropertyOp8
 70
     1
102
RTVSPropertyOp9
 70
     1
102
RTVSPropertyOp10
 70
     1
102
RTVSPropertyOp11
 70
     1
102
RTVSPropertyOp12
 70
     1
102
RTVSPropertyOp13
 70
     1
102
RTVSPropertyOp14
 70
     1
102
RTVSPropertyOp15
 70
     1
102
RTVSPropertyOp16
 70
     1
102
RTVSPropertyOp17
 70
     1
102
RTVSPropertyOp18
 70
     1
102
RTVSPropertyOp19
 70
     1
102
RTVSPropertyOp20
 70
     1
102
RTVSPropertyOp21
 70
     1
102
RTVSPropertyOp22
 70
     1
102
RTVSPropertyOp23
 70
     1
102
RTVSPropertyOp24
 70
     1
102
RTVSPropertyOp25
 70
     1
102
RTVSPropertyOp26
 70
     1
102
RTVSPropertyOp27
 70
     1
  0
XRECORD
  5
E7F
102
{ACAD_REACTORS
330
E7E
102
}
330
E7E
100
AcDbXrecord
280
     1
102
RTVSPropertyOp0
 70
     0
102
RTVSPropertyOp1
 70
     0
102
RTVSPropertyOp2
 70
     0
102
RTVSPropertyOp3
 70
     0
102
RTVSPropertyOp4
 70
     0
102
RTVSPropertyOp5
 70
     0
102
RTVSPropertyOp6
 70
     0
102
RTVSPropertyOp7
 70
     0
102
RTVSPropertyOp8
 70
     0
102
RTVSPropertyOp9
 70
     0
102
RTVSPropertyOp10
 70
     0
102
RTVSPropertyOp11
 70
     0
102
RTVSPropertyOp12
 70
     0
102
RTVSPropertyOp13
 70
     0
102
RTVSPropertyOp14
 70
     2
102
RTVSPropertyOp15
 70
     0
102
RTVSPropertyOp16
 70
     0
102
RTVSPropertyOp17
 70
     0
102
RTVSPropertyOp18
 70
     0
102
RTVSPropertyOp19
 70
     0
102
RTVSPropertyOp20
 70
     0
102
RTVSPropertyOp21
 70
     0
102
RTVSPropertyOp22
 70
     0
102
RTVSPropertyOp23
 70
     0
102
RTVSPropertyOp24
 70
     0
102
RTVSPropertyOp25
 70
     0
102
RTVSPropertyOp26
 70
     0
102
RTVSPropertyOp27
 70
     0
  0
XRECORD
  5
E77
102
{ACAD_REACTORS
330
E76
102
}
330
E76
100
AcDbXrecord
280
     1
102
RTVSPropertyOp0
 70
     1
102
RTVSPropertyOp1
 70
     1
102
RTVSPropertyOp2
 70
     1
102
RTVSPropertyOp3
 70
     1
102
RTVSPropertyOp4
 70
     1
102
RTVSPropertyOp5
 70
     1
102
RTVSPropertyOp6
 70
     1
102
RTVSPropertyOp7
 70
     1
102
RTVSPropertyOp8
 70
     1
102
RTVSPropertyOp9
 70
     1
102
RTVSPropertyOp10
 70
     1
102
RTVSPropertyOp11
 70
     1
102
RTVSPropertyOp12
 70
     1
102
RTVSPropertyOp13
 70
     1
102
RTVSPropertyOp14
 70
     1
102
RTVSPropertyOp15
 70
     1
102
RTVSPropertyOp16
 70
     1
102
RTVSPropertyOp17
 70
     1
102
RTVSPropertyOp18
 70
     1
102
RTVSPropertyOp19
 70
     1
102
RTVSPropertyOp20
 70
     1
102
RTVSPropertyOp21
 70
     1
102
RTVSPropertyOp22
 70
     1
102
RTVSPropertyOp23
 70
     1
102
RTVSPropertyOp24
 70
     1
102
RTVSPropertyOp25
 70
     1
102
RTVSPropertyOp26
 70
     1
102
RTVSPropertyOp27
 70
     1
  0
XRECORD
  5
E5B
102
{ACAD_REACTORS
330
E5A
102
}
330
E5A
100
AcDbXrecord
280
     1
102
RTVSPropertyOp0
 70
     1
102
RTVSPropertyOp1
 70
     1
102
RTVSPropertyOp2
 70
     1
102
RTVSPropertyOp3
 70
     1
102
RTVSPropertyOp4
 70
     1
102
RTVSPropertyOp5
 70
     1
102
RTVSPropertyOp6
 70
     1
102
RTVSPropertyOp7
 70
     1
102
RTVSPropertyOp8
 70
     1
102
RTVSPropertyOp9
 70
     1
102
RTVSPropertyOp10
 70
     1
102
RTVSPropertyOp11
 70
     1
102
RTVSPropertyOp12
 70
     1
102
RTVSPropertyOp13
 70
     1
102
RTVSPropertyOp14
 70
     1
102
RTVSPropertyOp15
 70
     1
102
RTVSPropertyOp16
 70
     1
102
RTVSPropertyOp17
 70
     1
102
RTVSPropertyOp18
 70
     1
102
RTVSPropertyOp19
 70
     1
102
RTVSPropertyOp20
 70
     1
102
RTVSPropertyOp21
 70
     1
102
RTVSPropertyOp22
 70
     1
102
RTVSPropertyOp23
 70
     1
102
RTVSPropertyOp24
 70
     1
102
RTVSPropertyOp25
 70
     1
102
RTVSPropertyOp26
 70
     1
102
RTVSPropertyOp27
 70
     1
  0
XRECORD
  5
E5D
102
{ACAD_REACTORS
330
E5C
102
}
330
E5C
100
AcDbXrecord
280
     1
102
RTVSPropertyOp0
 70
     1
102
RTVSPropertyOp1
 70
     1
102
RTVSPropertyOp2
 70
     1
102
RTVSPropertyOp3
 70
     1
102
RTVSPropertyOp4
 70
     1
102
RTVSPropertyOp5
 70
     1
102
RTVSPropertyOp6
 70
     1
102
RTVSPropertyOp7
 70
     1
102
RTVSPropertyOp8
 70
     1
102
RTVSPropertyOp9
 70
     1
102
RTVSPropertyOp10
 70
     1
102
RTVSPropertyOp11
 70
     1
102
RTVSPropertyOp12
 70
     1
102
RTVSPropertyOp13
 70
     1
102
RTVSPropertyOp14
 70
     1
102
RTVSPropertyOp15
 70
     1
102
RTVSPropertyOp16
 70
     1
102
RTVSPropertyOp17
 70
     1
102
RTVSPropertyOp18
 70
     1
102
RTVSPropertyOp19
 70
     1
102
RTVSPropertyOp20
 70
     1
102
RTVSPropertyOp21
 70
     1
102
RTVSPropertyOp22
 70
     1
102
RTVSPropertyOp23
 70
     1
102
RTVSPropertyOp24
 70
     1
102
RTVSPropertyOp25
 70
     1
102
RTVSPropertyOp26
 70
     1
102
RTVSPropertyOp27
 70
     1
  0
XRECORD
  5
E5F
102
{ACAD_REACTORS
330
E5E
102
}
330
E5E
100
AcDbXrecord
280
     1
102
RTVSPropertyOp0
 70
     1
102
RTVSPropertyOp1
 70
     1
102
RTVSPropertyOp2
 70
     1
102
RTVSPropertyOp3
 70
     1
102
RTVSPropertyOp4
 70
     1
102
RTVSPropertyOp5
 70
     1
102
RTVSPropertyOp6
 70
     1
102
RTVSPropertyOp7
 70
     1
102
RTVSPropertyOp8
 70
     1
102
RTVSPropertyOp9
 70
     1
102
RTVSPropertyOp10
 70
     1
102
RTVSPropertyOp11
 70
     1
102
RTVSPropertyOp12
 70
     1
102
RTVSPropertyOp13
 70
     1
102
RTVSPropertyOp14
 70
     1
102
RTVSPropertyOp15
 70
     1
102
RTVSPropertyOp16
 70
     1
102
RTVSPropertyOp17
 70
     1
102
RTVSPropertyOp18
 70
     1
102
RTVSPropertyOp19
 70
     1
102
RTVSPropertyOp20
 70
     1
102
RTVSPropertyOp21
 70
     1
102
RTVSPropertyOp22
 70
     1
102
RTVSPropertyOp23
 70
     1
102
RTVSPropertyOp24
 70
     1
102
RTVSPropertyOp25
 70
     1
102
RTVSPropertyOp26
 70
     1
102
RTVSPropertyOp27
 70
     1
  0
XRECORD
  5
E61
102
{ACAD_REACTORS
330
E60
102
}
330
E60
100
AcDbXrecord
280
     1
102
RTVSPropertyOp0
 70
     1
102
RTVSPropertyOp1
 70
     1
102
RTVSPropertyOp2
 70
     1
102
RTVSPropertyOp3
 70
     1
102
RTVSPropertyOp4
 70
     1
102
RTVSPropertyOp5
 70
     1
102
RTVSPropertyOp6
 70
     1
102
RTVSPropertyOp7
 70
     1
102
RTVSPropertyOp8
 70
     1
102
RTVSPropertyOp9
 70
     1
102
RTVSPropertyOp10
 70
     1
102
RTVSPropertyOp11
 70
     1
102
RTVSPropertyOp12
 70
     1
102
RTVSPropertyOp13
 70
     1
102
RTVSPropertyOp14
 70
     1
102
RTVSPropertyOp15
 70
     1
102
RTVSPropertyOp16
 70
     1
102
RTVSPropertyOp17
 70
     1
102
RTVSPropertyOp18
 70
     1
102
RTVSPropertyOp19
 70
     1
102
RTVSPropertyOp20
 70
     1
102
RTVSPropertyOp21
 70
     1
102
RTVSPropertyOp22
 70
     1
102
RTVSPropertyOp23
 70
     1
102
RTVSPropertyOp24
 70
     1
102
RTVSPropertyOp25
 70
     1
102
RTVSPropertyOp26
 70
     1
102
RTVSPropertyOp27
 70
     1
  0
XRECORD
  5
E7B
102
{ACAD_REACTORS
330
E7A
102
}
330
E7A
100
AcDbXrecord
280
     1
102
RTVSPropertyOp0
 70
     0
102
RTVSPropertyOp1
 70
     0
102
RTVSPropertyOp2
 70
     0
102
RTVSPropertyOp3
 70
     0
102
RTVSPropertyOp4
 70
     0
102
RTVSPropertyOp5
 70
     0
102
RTVSPropertyOp6
 70
     0
102
RTVSPropertyOp7
 70
     0
102
RTVSPropertyOp8
 70
     0
102
RTVSPropertyOp9
 70
     0
102
RTVSPropertyOp10
 70
     0
102
RTVSPropertyOp11
 70
     0
102
RTVSPropertyOp12
 70
     0
102
RTVSPropertyOp13
 70
     0
102
RTVSPropertyOp14
 70
     2
102
RTVSPropertyOp15
 70
     0
102
RTVSPropertyOp16
 70
     0
102
RTVSPropertyOp17
 70
     0
102
RTVSPropertyOp18
 70
     0
102
RTVSPropertyOp19
 70
     0
102
RTVSPropertyOp20
 70
     0
102
RTVSPropertyOp21
 70
     0
102
RTVSPropertyOp22
 70
     0
102
RTVSPropertyOp23
 70
     0
102
RTVSPropertyOp24
 70
     0
102
RTVSPropertyOp25
 70
     0
102
RTVSPropertyOp26
 70
     0
102
RTVSPropertyOp27
 70
     0
  0
XRECORD
  5
E75
102
{ACAD_REACTORS
330
E74
102
}
330
E74
100
AcDbXrecord
280
     1
102
RTVSPropertyOp0
 70
     1
102
RTVSPropertyOp1
 70
     1
102
RTVSPropertyOp2
 70
     1
102
RTVSPropertyOp3
 70
     1
102
RTVSPropertyOp4
 70
     1
102
RTVSPropertyOp5
 70
     1
102
RTVSPropertyOp6
 70
     1
102
RTVSPropertyOp7
 70
     1
102
RTVSPropertyOp8
 70
     1
102
RTVSPropertyOp9
 70
     1
102
RTVSPropertyOp10
 70
     1
102
RTVSPropertyOp11
 70
     1
102
RTVSPropertyOp12
 70
     1
102
RTVSPropertyOp13
 70
     1
102
RTVSPropertyOp14
 70
     1
102
RTVSPropertyOp15
 70
     1
102
RTVSPropertyOp16
 70
     1
102
RTVSPropertyOp17
 70
     1
102
RTVSPropertyOp18
 70
     1
102
RTVSPropertyOp19
 70
     1
102
RTVSPropertyOp20
 70
     1
102
RTVSPropertyOp21
 70
     1
102
RTVSPropertyOp22
 70
     1
102
RTVSPropertyOp23
 70
     1
102
RTVSPropertyOp24
 70
     1
102
RTVSPropertyOp25
 70
     1
102
RTVSPropertyOp26
 70
     1
102
RTVSPropertyOp27
 70
     1
  0
XRECORD
  5
E7D
102
{ACAD_REACTORS
330
E7C
102
}
330
E7C
100
AcDbXrecord
280
     1
102
RTVSPropertyOp0
 70
     0
102
RTVSPropertyOp1
 70
     0
102
RTVSPropertyOp2
 70
     0
102
RTVSPropertyOp3
 70
     0
102
RTVSPropertyOp4
 70
     0
102
RTVSPropertyOp5
 70
     0
102
RTVSPropertyOp6
 70
     0
102
RTVSPropertyOp7
 70
     0
102
RTVSPropertyOp8
 70
     0
102
RTVSPropertyOp9
 70
     0
102
RTVSPropertyOp10
 70
     0
102
RTVSPropertyOp11
 70
     0
102
RTVSPropertyOp12
 70
     0
102
RTVSPropertyOp13
 70
     0
102
RTVSPropertyOp14
 70
     2
102
RTVSPropertyOp15
 70
     0
102
RTVSPropertyOp16
 70
     0
102
RTVSPropertyOp17
 70
     0
102
RTVSPropertyOp18
 70
     0
102
RTVSPropertyOp19
 70
     0
102
RTVSPropertyOp20
 70
     0
102
RTVSPropertyOp21
 70
     0
102
RTVSPropertyOp22
 70
     0
102
RTVSPropertyOp23
 70
     0
102
RTVSPropertyOp24
 70
     0
102
RTVSPropertyOp25
 70
     0
102
RTVSPropertyOp26
 70
     0
102
RTVSPropertyOp27
 70
     0
  0
XRECORD
  5
E6D
102
{ACAD_REACTORS
330
E6C
102
}
330
E6C
100
AcDbXrecord
280
     1
102
RTVSPropertyOp0
 70
     1
102
RTVSPropertyOp1
 70
     1
102
RTVSPropertyOp2
 70
     1
102
RTVSPropertyOp3
 70
     1
102
RTVSPropertyOp4
 70
     1
102
RTVSPropertyOp5
 70
     1
102
RTVSPropertyOp6
 70
     1
102
RTVSPropertyOp7
 70
     1
102
RTVSPropertyOp8
 70
     1
102
RTVSPropertyOp9
 70
     1
102
RTVSPropertyOp10
 70
     1
102
RTVSPropertyOp11
 70
     1
102
RTVSPropertyOp12
 70
     1
102
RTVSPropertyOp13
 70
     1
102
RTVSPropertyOp14
 70
     1
102
RTVSPropertyOp15
 70
     1
102
RTVSPropertyOp16
 70
     1
102
RTVSPropertyOp17
 70
     1
102
RTVSPropertyOp18
 70
     1
102
RTVSPropertyOp19
 70
     1
102
RTVSPropertyOp20
 70
     1
102
RTVSPropertyOp21
 70
     1
102
RTVSPropertyOp22
 70
     1
102
RTVSPropertyOp23
 70
     1
102
RTVSPropertyOp24
 70
     1
102
RTVSPropertyOp25
 70
     1
102
RTVSPropertyOp26
 70
     1
102
RTVSPropertyOp27
 70
     1
  0
XRECORD
  5
E73
102
{ACAD_REACTORS
330
E72
102
}
330
E72
100
AcDbXrecord
280
     1
102
RTVSPropertyOp0
 70
     1
102
RTVSPropertyOp1
 70
     1
102
RTVSPropertyOp2
 70
     1
102
RTVSPropertyOp3
 70
     1
102
RTVSPropertyOp4
 70
     1
102
RTVSPropertyOp5
 70
     1
102
RTVSPropertyOp6
 70
     1
102
RTVSPropertyOp7
 70
     1
102
RTVSPropertyOp8
 70
     1
102
RTVSPropertyOp9
 70
     1
102
RTVSPropertyOp10
 70
     1
102
RTVSPropertyOp11
 70
     1
102
RTVSPropertyOp12
 70
     1
102
RTVSPropertyOp13
 70
     1
102
RTVSPropertyOp14
 70
     1
102
RTVSPropertyOp15
 70
     1
102
RTVSPropertyOp16
 70
     1
102
RTVSPropertyOp17
 70
     1
102
RTVSPropertyOp18
 70
     1
102
RTVSPropertyOp19
 70
     1
102
RTVSPropertyOp20
 70
     1
102
RTVSPropertyOp21
 70
     1
102
RTVSPropertyOp22
 70
     1
102
RTVSPropertyOp23
 70
     1
102
RTVSPropertyOp24
 70
     1
102
RTVSPropertyOp25
 70
     1
102
RTVSPropertyOp26
 70
     1
102
RTVSPropertyOp27
 70
     1
  0
ENDSEC
  0
EOF
