  0
SECTION
  2
HEADER
  9
$ACADVER
  1
AC1015
  9
$ACADMAINTVER
 70
    20
  9
$DWGCODEPAGE
  3
ANSI_1252
  9
$INSBASE
 10
0.0
 20
0.0
 30
0.0
  9
$EXTMIN
 10
9.994159365323186
 20
511.1088278972072
 30
0.0
  9
$EXTMAX
 10
13.02172038714411
 20
512.0171973604466
 30
0.0
  9
$LIMMIN
 10
0.0
 20
0.0
  9
$LIMMAX
 10
420.0
 20
297.0
  9
$ORTHOMODE
 70
     1
  9
$REGENMODE
 70
     1
  9
$FILLMODE
 70
     1
  9
$QTEXTMODE
 70
     0
  9
$MIRRTEXT
 70
     0
  9
$LTSCALE
 40
1.0
  9
$ATTMODE
 70
     1
  9
$TEXTSIZE
 40
2.5
  9
$TRACEWID
 40
1.0
  9
$TEXTSTYLE
  7
Standard
  9
$CLAYER
  8
0
  9
$CELTYPE
  6
ByLayer
  9
$CECOLOR
 62
   256
  9
$CELTSCALE
 40
1.0
  9
$DISPSILH
 70
     0
  9
$DIMSCALE
 40
1.0
  9
$DIMASZ
 40
2.5
  9
$DIMEXO
 40
0.625
  9
$DIMDLI
 40
3.75
  9
$DIMRND
 40
0.0
  9
$DIMDLE
 40
0.0
  9
$DIMEXE
 40
1.25
  9
$DIMTP
 40
0.0
  9
$DIMTM
 40
0.0
  9
$DIMTXT
 40
2.5
  9
$DIMCEN
 40
2.5
  9
$DIMTSZ
 40
0.0
  9
$DIMTOL
 70
     0
  9
$DIMLIM
 70
     0
  9
$DIMTIH
 70
     0
  9
$DIMTOH
 70
     0
  9
$DIMSE1
 70
     0
  9
$DIMSE2
 70
     0
  9
$DIMTAD
 70
     1
  9
$DIMZIN
 70
     8
  9
$DIMBLK
  1

  9
$DIMASO
 70
     1
  9
$DIMSHO
 70
     1
  9
$DIMPOST
  1

  9
$DIMAPOST
  1

  9
$DIMALT
 70
     0
  9
$DIMALTD
 70
     3
  9
$DIMALTF
 40
0.03937007874016
  9
$DIMLFAC
 40
1.0
  9
$DIMTOFL
 70
     1
  9
$DIMTVP
 40
0.0
  9
$DIMTIX
 70
     0
  9
$DIMSOXD
 70
     0
  9
$DIMSAH
 70
     0
  9
$DIMBLK1
  1

  9
$DIMBLK2
  1

  9
$DIMSTYLE
  2
ISO-25
  9
$DIMCLRD
 70
     0
  9
$DIMCLRE
 70
     0
  9
$DIMCLRT
 70
     0
  9
$DIMTFAC
 40
1.0
  9
$DIMGAP
 40
0.625
  9
$DIMJUST
 70
     0
  9
$DIMSD1
 70
     0
  9
$DIMSD2
 70
     0
  9
$DIMTOLJ
 70
     0
  9
$DIMTZIN
 70
     8
  9
$DIMALTZ
 70
     0
  9
$DIMALTTZ
 70
     0
  9
$DIMUPT
 70
     0
  9
$DIMDEC
 70
     2
  9
$DIMTDEC
 70
     2
  9
$DIMALTU
 70
     2
  9
$DIMALTTD
 70
     3
  9
$DIMTXSTY
  7
Standard
  9
$DIMAUNIT
 70
     0
  9
$DIMADEC
 70
     0
  9
$DIMALTRND
 40
0.0
  9
$DIMAZIN
 70
     0
  9
$DIMDSEP
 70
    44
  9
$DIMATFIT
 70
     3
  9
$DIMFRAC
 70
     0
  9
$DIMLDRBLK
  1

  9
$DIMLUNIT
 70
     2
  9
$DIMLWD
 70
    -2
  9
$DIMLWE
 70
    -2
  9
$DIMTMOVE
 70
     0
  9
$LUNITS
 70
     2
  9
$LUPREC
 70
     4
  9
$SKETCHINC
 40
1.0
  9
$FILLETRAD
 40
0.0
  9
$AUNITS
 70
     0
  9
$AUPREC
 70
     0
  9
$MENU
  1
.
  9
$ELEVATION
 40
0.0
  9
$PELEVATION
 40
0.0
  9
$THICKNESS
 40
0.0
  9
$LIMCHECK
 70
     0
  9
$CHAMFERA
 40
0.0
  9
$CHAMFERB
 40
0.0
  9
$CHAMFERC
 40
0.0
  9
$CHAMFERD
 40
0.0
  9
$SKPOLY
 70
     0
  9
$TDCREATE
 40
2453797.429959850
  9
$TDUCREATE
 40
2453797.388293183
  9
$TDUPDATE
 40
2456147.426319259
  9
$TDUUPDATE
 40
2456147.384652593
  9
$TDINDWG
 40
0.0176929630
  9
$TDUSRTIMER
 40
0.0176927778
  9
$USRTIMER
 70
     1
  9
$ANGBASE
 50
0.0
  9
$ANGDIR
 70
     0
  9
$PDMODE
 70
     0
  9
$PDSIZE
 40
0.0
  9
$PLINEWID
 40
0.0
  9
$SPLFRAME
 70
     0
  9
$SPLINETYPE
 70
     6
  9
$SPLINESEGS
 70
     8
  9
$HANDSEED
  5
EEC
  9
$SURFTAB1
 70
     6
  9
$SURFTAB2
 70
     6
  9
$SURFTYPE
 70
     6
  9
$SURFU
 70
     6
  9
$SURFV
 70
     6
  9
$UCSBASE
  2

  9
$UCSNAME
  2

  9
$UCSORG
 10
0.0
 20
0.0
 30
0.0
  9
$UCSXDIR
 10
1.0
 20
0.0
 30
0.0
  9
$UCSYDIR
 10
0.0
 20
1.0
 30
0.0
  9
$UCSORTHOREF
  2

  9
$UCSORTHOVIEW
 70
     0
  9
$UCSORGTOP
 10
0.0
 20
0.0
 30
0.0
  9
$UCSORGBOTTOM
 10
0.0
 20
0.0
 30
0.0
  9
$UCSORGLEFT
 10
0.0
 20
0.0
 30
0.0
  9
$UCSORGRIGHT
 10
0.0
 20
0.0
 30
0.0
  9
$UCSORGFRONT
 10
0.0
 20
0.0
 30
0.0
  9
$UCSORGBACK
 10
0.0
 20
0.0
 30
0.0
  9
$PUCSBASE
  2

  9
$PUCSNAME
  2

  9
$PUCSORG
 10
0.0
 20
0.0
 30
0.0
  9
$PUCSXDIR
 10
1.0
 20
0.0
 30
0.0
  9
$PUCSYDIR
 10
0.0
 20
1.0
 30
0.0
  9
$PUCSORTHOREF
  2

  9
$PUCSORTHOVIEW
 70
     0
  9
$PUCSORGTOP
 10
0.0
 20
0.0
 30
0.0
  9
$PUCSORGBOTTOM
 10
0.0
 20
0.0
 30
0.0
  9
$PUCSORGLEFT
 10
0.0
 20
0.0
 30
0.0
  9
$PUCSORGRIGHT
 10
0.0
 20
0.0
 30
0.0
  9
$PUCSORGFRONT
 10
0.0
 20
0.0
 30
0.0
  9
$PUCSORGBACK
 10
0.0
 20
0.0
 30
0.0
  9
$USERI1
 70
     0
  9
$USERI2
 70
     0
  9
$USERI3
 70
     0
  9
$USERI4
 70
     0
  9
$USERI5
 70
     0
  9
$USERR1
 40
0.0
  9
$USERR2
 40
0.0
  9
$USERR3
 40
0.0
  9
$USERR4
 40
0.0
  9
$USERR5
 40
0.0
  9
$WORLDVIEW
 70
     1
  9
$SHADEDGE
 70
     3
  9
$SHADEDIF
 70
    70
  9
$TILEMODE
 70
     1
  9
$MAXACTVP
 70
    64
  9
$PINSBASE
 10
0.0
 20
0.0
 30
0.0
  9
$PLIMCHECK
 70
     0
  9
$PEXTMIN
 10
1.000000000000000E+20
 20
1.000000000000000E+20
 30
1.000000000000000E+20
  9
$PEXTMAX
 10
-1.000000000000000E+20
 20
-1.000000000000000E+20
 30
-1.000000000000000E+20
  9
$PLIMMIN
 10
0.0
 20
0.0
  9
$PLIMMAX
 10
420.0
 20
297.0
  9
$UNITMODE
 70
     0
  9
$VISRETAIN
 70
     1
  9
$PLINEGEN
 70
     0
  9
$PSLTSCALE
 70
     1
  9
$TREEDEPTH
 70
  3020
  9
$CMLSTYLE
  2
Standard
  9
$CMLJUST
 70
     0
  9
$CMLSCALE
 40
20.0
  9
$PROXYGRAPHICS
 70
     1
  9
$MEASUREMENT
 70
     1
  9
$CELWEIGHT
370
    -1
  9
$ENDCAPS
280
     0
  9
$JOINSTYLE
280
     0
  9
$LWDISPLAY
290
     0
  9
$INSUNITS
 70
     4
  9
$HYPERLINKBASE
  1

  9
$STYLESHEET
  1

  9
$XEDIT
290
     1
  9
$CEPSNTYPE
380
     0
  9
$PSTYLEMODE
290
     1
  9
$FINGERPRINTGUID
  2
{57F7B151-833D-41F0-9A0A-E138A2E48290}
  9
$VERSIONGUID
  2
{FC7B2BDF-B7C3-44DA-86D4-F95EA911756A}
  9
$EXTNAMES
290
     1
  9
$PSVPSCALE
 40
0.0
  9
$OLESTARTUP
290
     0
  0
ENDSEC
  0
SECTION
  2
CLASSES
  0
CLASS
  1
ACDBDICTIONARYWDFLT
  2
AcDbDictionaryWithDefault
  3
ObjectDBX Classes
 90
        0
280
     0
281
     0
  0
CLASS
  1
TABLESTYLE
  2
AcDbTableStyle
  3
ObjectDBX Classes
 90
     4095
280
     0
281
     0
  0
CLASS
  1
DICTIONARYVAR
  2
AcDbDictionaryVar
  3
ObjectDBX Classes
 90
        0
280
     0
281
     0
  0
CLASS
  1
SORTENTSTABLE
  2
AcDbSortentsTable
  3
ObjectDBX Classes
 90
        0
280
     0
281
     0
  0
CLASS
  1
ACDBPLACEHOLDER
  2
AcDbPlaceHolder
  3
ObjectDBX Classes
 90
        0
280
     0
281
     0
  0
CLASS
  1
LAYOUT
  2
AcDbLayout
  3
ObjectDBX Classes
 90
        0
280
     0
281
     0
  0
CLASS
  1
MATERIAL
  2
AcDbMaterial
  3
ObjectDBX Classes
 90
     1153
280
     0
281
     0
  0
CLASS
  1
VISUALSTYLE
  2
AcDbVisualStyle
  3
ObjectDBX Classes
 90
     4095
280
     0
281
     0
  0
CLASS
  1
SCALE
  2
AcDbScale
  3
ObjectDBX Classes
 90
     1153
280
     0
281
     0
  0
CLASS
  1
MLEADERSTYLE
  2
AcDbMLeaderStyle
  3
ACDB_MLEADERSTYLE_CLASS
 90
     4095
280
     0
281
     0
  0
CLASS
  1
CELLSTYLEMAP
  2
AcDbCellStyleMap
  3
ObjectDBX Classes
 90
     1152
280
     0
281
     0
  0
ENDSEC
  0
SECTION
  2
TABLES
  0
TABLE
  2
VPORT
  5
8
330
0
100
AcDbSymbolTable
 70
     1
  0
VPORT
  5
E5F
330
8
100
AcDbSymbolTableRecord
100
AcDbViewportTableRecord
  2
*Active
 70
     0
 10
0.0
 20
0.0
 11
1.0
 21
1.0
 12
11.55778745383345
 22
511.5640468372415
 13
0.0
 23
0.0
 14
10.0
 24
10.0
 15
10.0
 25
10.0
 16
0.0
 26
0.0
 36
1.0
 17
0.0
 27
0.0
 37
0.0
 40
1.919004865308108
 41
1.645464025026068
 42
50.0
 43
0.0
 44
0.0
 50
0.0
 51
0.0
 71
     0
 72
  1000
 73
     1
 74
     3
 75
     0
 76
     0
 77
     0
 78
     0
281
     0
 65
     1
110
0.0
120
0.0
130
0.0
111
1.0
121
0.0
131
0.0
112
0.0
122
1.0
132
0.0
 79
     0
146
0.0
  0
ENDTAB
  0
TABLE
  2
LTYPE
  5
5
330
0
100
AcDbSymbolTable
 70
     2
  0
LTYPE
  5
14
330
5
100
AcDbSymbolTableRecord
100
AcDbLinetypeTableRecord
  2
ByBlock
 70
     0
  3

 72
    65
 73
     0
 40
0.0
  0
LTYPE
  5
15
330
5
100
AcDbSymbolTableRecord
100
AcDbLinetypeTableRecord
  2
ByLayer
 70
     0
  3

 72
    65
 73
     0
 40
0.0
  0
LTYPE
  5
16
330
5
100
AcDbSymbolTableRecord
100
AcDbLinetypeTableRecord
  2
Continuous
 70
     0
  3
Solid line
 72
    65
 73
     0
 40
0.0
  0
LTYPE
  5
2F
330
5
100
AcDbSymbolTableRecord
100
AcDbLinetypeTableRecord
  2
HIDDEN
 70
     0
  3
Hidden __ __ __ __ __ __ __ __ __ __ __ __ __ __
 72
    65
 73
     2
 40
1.905
 49
1.27
 74
     0
 49
-0.635
 74
     0
  0
ENDTAB
  0
TABLE
  2
LAYER
  5
2
330
0
100
AcDbSymbolTable
 70
     4
  0
LAYER
  5
10
102
{ACAD_XDICTIONARY
360
EAA
102
}
330
2
100
AcDbSymbolTableRecord
100
AcDbLayerTableRecord
  2
0
 70
     0
 62
     7
  6
Continuous
370
    -3
390
F
  0
LAYER
  5
30
102
{ACAD_XDICTIONARY
360
EAC
102
}
330
2
100
AcDbSymbolTableRecord
100
AcDbLayerTableRecord
  2
FORMAT
 70
     0
 62
     7
  6
Continuous
370
    -3
390
F
  0
LAYER
  5
D40
102
{ACAD_XDICTIONARY
360
EAE
102
}
330
2
100
AcDbSymbolTableRecord
100
AcDbLayerTableRecord
  2
sanindusa
 70
     0
 62
     3
  6
Continuous
370
    -3
390
F
  0
LAYER
  5
D68
102
{ACAD_XDICTIONARY
360
EB0
102
}
330
2
100
AcDbSymbolTableRecord
100
AcDbLayerTableRecord
  2
INDUSA
 70
     0
 62
     3
  6
Continuous
370
    -3
390
F
  0
ENDTAB
  0
TABLE
  2
STYLE
  5
3
330
0
100
AcDbSymbolTable
 70
     2
  0
STYLE
  5
11
330
3
100
AcDbSymbolTableRecord
100
AcDbTextStyleTableRecord
  2
Standard
 70
     0
 40
0.0
 41
1.0
 50
0.0
 71
     0
 42
2.5
  3
txt
  4

  0
STYLE
  5
31
330
3
100
AcDbSymbolTableRecord
100
AcDbTextStyleTableRecord
  2
SLDTEXTSTYLE0
 70
     0
 40
0.0
 41
0.75
 50
0.0
 71
     0
 42
0.0
  3
TXT
  4

  0
ENDTAB
  0
TABLE
  2
VIEW
  5
6
330
0
100
AcDbSymbolTable
 70
     0
  0
ENDTAB
  0
TABLE
  2
UCS
  5
7
330
0
100
AcDbSymbolTable
 70
     0
  0
ENDTAB
  0
TABLE
  2
APPID
  5
9
330
0
100
AcDbSymbolTable
 70
     4
  0
APPID
  5
12
330
9
100
AcDbSymbolTableRecord
100
AcDbRegAppTableRecord
  2
ACAD
 70
     0
  0
APPID
  5
33
330
9
100
AcDbSymbolTableRecord
100
AcDbRegAppTableRecord
  2
DCO15
 70
     0
  0
APPID
  5
D42
330
9
100
AcDbSymbolTableRecord
100
AcDbRegAppTableRecord
  2
ACAD_EXEMPT_FROM_CAD_STANDARDS
 70
     0
  0
APPID
  5
EEB
330
9
100
AcDbSymbolTableRecord
100
AcDbRegAppTableRecord
  2
ACAD_MLEADERVER
 70
     0
  0
ENDTAB
  0
TABLE
  2
DIMSTYLE
  5
A
330
0
100
AcDbSymbolTable
 70
     2
100
AcDbDimStyleTable
 71
     1
340
2B
  0
DIMSTYLE
105
2B
330
A
100
AcDbSymbolTableRecord
100
AcDbDimStyleTableRecord
  2
ISO-25
 70
     0
 41
2.5
 42
0.625
 43
3.75
 44
1.25
 73
     0
 74
     0
 77
     1
 78
     8
140
2.5
141
2.5
143
0.03937007874016
147
0.625
171
     3
172
     1
271
     2
272
     2
274
     3
278
    44
283
     0
284
     8
340
11
  0
DIMSTYLE
105
32
330
A
100
AcDbSymbolTableRecord
100
AcDbDimStyleTableRecord
  2
STANDARD
 70
     0
340
11
  0
ENDTAB
  0
TABLE
  2
BLOCK_RECORD
  5
1
330
0
100
AcDbSymbolTable
 70
     1
  0
BLOCK_RECORD
  5
23
102
{ACAD_XDICTIONARY
360
D56
102
}
330
1
100
AcDbSymbolTableRecord
100
AcDbBlockTableRecord
  2
*Model_Space
340
26
  0
BLOCK_RECORD
  5
1F
330
1
100
AcDbSymbolTableRecord
100
AcDbBlockTableRecord
  2
*Paper_Space
340
22
  0
BLOCK_RECORD
  5
27
330
1
100
AcDbSymbolTableRecord
100
AcDbBlockTableRecord
  2
*Paper_Space0
340
2A
  0
ENDTAB
  0
ENDSEC
  0
SECTION
  2
BLOCKS
  0
BLOCK
  5
24
330
23
100
AcDbEntity
  8
0
100
AcDbBlockBegin
  2
*Model_Space
 70
     0
 10
0.0
 20
0.0
 30
0.0
  3
*Model_Space
  1

  0
ENDBLK
  5
25
330
23
100
AcDbEntity
  8
0
100
AcDbBlockEnd
  0
BLOCK
  5
20
330
1F
100
AcDbEntity
 67
     1
  8
0
100
AcDbBlockBegin
  2
*Paper_Space
 70
     0
 10
0.0
 20
0.0
 30
0.0
  3
*Paper_Space
  1

  0
ENDBLK
  5
21
330
1F
100
AcDbEntity
 67
     1
  8
0
100
AcDbBlockEnd
  0
BLOCK
  5
28
330
27
100
AcDbEntity
 67
     1
  8
0
100
AcDbBlockBegin
  2
*Paper_Space0
 70
     0
 10
0.0
 20
0.0
 30
0.0
  3
*Paper_Space0
  1

  0
ENDBLK
  5
29
330
27
100
AcDbEntity
 67
     1
  8
0
100
AcDbBlockEnd
  0
ENDSEC
  0
SECTION
  2
ENTITIES
  0
ARC
  5
6BE
330
23
100
AcDbEntity
  8
sanindusa
100
AcDbCircle
 10
10.93486225166126
 20
511.7648732184851
 30
0.0
 40
0.2523138645882339
100
AcDbArc
 50
58.60076195359519
 51
90.19927671532238
  0
ARC
  5
6BF
330
23
100
AcDbEntity
  8
sanindusa
100
AcDbCircle
 10
10.93303356570314
 20
511.7650560441894
 30
0.0
 40
0.2521190751557659
100
AcDbArc
 50
89.78403648886638
 51
121.4066543113286
  0
ARC
  5
6C0
330
23
100
AcDbEntity
  8
sanindusa
100
AcDbCircle
 10
9.404452285399075
 20
511.5748650120496
 30
0.0
 40
1.713588817181475
100
AcDbArc
 50
358.7579769368589
 51
6.142632540142824
  0
ARC
  5
6C1
330
23
100
AcDbEntity
  8
sanindusa
100
AcDbCircle
 10
12.46231113641426
 20
511.5750860913799
 30
0.0
 40
1.712376757292698
100
AcDbArc
 50
173.8603833870661
 51
181.2502683758713
  0
LWPOLYLINE
  5
6C2
330
23
100
AcDbEntity
  8
sanindusa
100
AcDbPolyline
 90
        9
 70
   128
 43
0.0
 10
10.75530297837962
 20
511.5328281784869
 10
10.75434185124721
 20
511.5329214246973
 10
10.75341643350275
 20
511.5331977418588
 10
10.75256140275848
 20
511.5336468205823
 10
10.75180866020619
 20
511.5342519057433
 10
10.75118629066583
 20
511.5349904216182
 10
10.7507175147411
 20
511.5358348141844
 10
10.75041982245885
 20
511.5367535791603
 10
10.75030432071629
 20
511.5377124374305
  0
LWPOLYLINE
  5
6C3
330
23
100
AcDbEntity
  8
sanindusa
100
AcDbPolyline
 90
        9
 70
   128
 43
0.0
 10
11.11766297242069
 20
511.5377381803845
 10
11.11755178526348
 20
511.5367755383509
 10
11.11725699631584
 20
511.5358524231458
 10
11.11678967834917
 20
511.5350035085373
 10
11.1161673846166
 20
511.5342606811935
 10
11.11541348952314
 20
511.5336518429661
 10
11.11455631064346
 20
511.5331998628483
 10
11.11362804506589
 20
511.5329217179778
 10
11.11266377003245
 20
511.5328278559415
  0
ARC
  5
6C4
330
23
100
AcDbEntity
  8
sanindusa
100
AcDbCircle
 10
12.41352620476936
 20
511.5826205455793
 30
0.0
 40
1.663026139024832
100
AcDbArc
 50
169.2774815069825
 51
173.9388750100008
  0
ARC
  5
6C5
330
23
100
AcDbEntity
  8
sanindusa
100
AcDbCircle
 10
9.451097986208377
 20
511.5817445546054
 30
0.0
 40
1.666459664498814
100
AcDbArc
 50
6.079035882203295
 51
10.73068152922764
  0
ARC
  5
6C6
330
23
100
AcDbEntity
  8
sanindusa
100
AcDbCircle
 10
9.456165985922009
 20
511.5853701370595
 30
0.0
 40
1.660820932101589
100
AcDbArc
 50
10.640294284576
 51
13.53339010921769
  0
ARC
  5
6C7
330
23
100
AcDbEntity
  8
sanindusa
100
AcDbCircle
 10
12.41500481972683
 20
511.5852635414364
 30
0.0
 40
1.663984950299867
100
AcDbArc
 50
166.4888165874925
 51
169.3764172174965
  0
ARC
  5
6C8
330
23
100
AcDbEntity
  8
sanindusa
100
AcDbCircle
 10
11.06117118161587
 20
511.9716980883886
 30
0.0
 40
0.0100000000000001
100
AcDbArc
 50
13.49470020685269
 51
58.89085291768703
  0
ARC
  5
6C9
330
23
100
AcDbEntity
  8
sanindusa
100
AcDbCircle
 10
10.80679635949183
 20
511.9716983179812
 30
0.0
 40
0.0100000000000001
100
AcDbArc
 50
121.1090436540376
 51
166.5051963649391
  0
LWPOLYLINE
  5
6CC
330
23
100
AcDbEntity
  8
sanindusa
100
AcDbPolyline
 90
        4
 70
   128
 43
0.0
 10
11.06901697580643
 20
511.1108303777544
 10
11.06900260895222
 20
511.1233003159902
 10
11.06898704653572
 20
511.1373613204492
 10
11.06898484509285
 20
511.1393439812241
  0
LWPOLYLINE
  5
6CD
330
23
100
AcDbEntity
  8
sanindusa
100
AcDbPolyline
 90
        4
 70
   128
 43
0.0
 10
10.7989827428831
 20
511.1393316088695
 10
10.79897399873168
 20
511.1314042241594
 10
10.79896151368866
 20
511.1202025223525
 10
10.79895065047422
 20
511.1108303789992
  0
LWPOLYLINE
  5
6CE
330
23
100
AcDbEntity
  8
sanindusa
100
AcDbPolyline
 90
        9
 70
   128
 43
0.0
 10
11.06901568453299
 20
511.1108449766319
 10
11.06898033332273
 20
511.110453141519
 10
11.06886896070726
 20
511.1100758079933
 10
11.06868587637428
 20
511.1097275773968
 10
11.06843816497642
 20
511.1094219249012
 10
11.06813541198276
 20
511.1091706780711
 10
11.06778933275837
 20
511.1089835591829
 10
11.06741331922518
 20
511.1088678090109
 10
11.06702192164662
 20
511.1088279066374
  0
LWPOLYLINE
  5
6CF
330
23
100
AcDbEntity
  8
sanindusa
100
AcDbPolyline
 90
        9
 70
   128
 43
0.0
 10
10.80094568837943
 20
511.1088279066374
 10
10.80055795801412
 20
511.1088670687673
 10
10.80018518266284
 20
511.1089806780145
 10
10.79984151555316
 20
511.1091644209564
 10
10.79954000475492
 20
511.1094113213924
 10
10.79929209778184
 20
511.10971200521
 10
10.79910720696173
 20
511.1100550562936
 10
10.79899235207702
 20
511.1104274499623
 10
10.79895189384339
 20
511.1108150474797
  0
ARC
  5
6D9
330
23
100
AcDbEntity
  8
sanindusa
100
AcDbCircle
 10
7.838586539428899
 20
511.7069556623197
 30
0.0
 40
3.28348435597025
100
AcDbArc
 50
349.7019078680329
 51
355.443139139548
  0
LWPOLYLINE
  5
6DA
330
23
100
AcDbEntity
  8
sanindusa
100
AcDbPolyline
 90
        3
 70
   128
 43
0.0
 10
11.11572264731637
 20
511.5034820663537
 10
11.11698497507513
 20
511.524640902805
 10
11.1171422002083
 20
511.5275579703801
  0
LWPOLYLINE
  5
6DB
330
23
100
AcDbEntity
  8
sanindusa
100
AcDbPolyline
 90
        3
 70
   128
 43
0.0
 10
10.75084097624311
 20
511.527558749527
 10
10.75139956204605
 20
511.5173416973004
 10
10.75225838263218
 20
511.5033779405048
  0
ARC
  5
6DC
330
23
100
AcDbEntity
  8
sanindusa
100
AcDbCircle
 10
14.03953083900189
 20
511.7084466946015
 30
0.0
 40
3.293727582522776
100
AcDbArc
 50
184.5679944352115
 51
190.2920513603267
  0
LWPOLYLINE
  5
6DD
330
23
100
AcDbEntity
  8
sanindusa
100
AcDbPolyline
 90
        9
 70
   128
 43
0.0
 10
11.11218347371127
 20
511.5328278563749
 10
11.11319369193174
 20
511.5327247387615
 10
11.11416237962577
 20
511.5324195800046
 10
11.11504941934241
 20
511.5319249706894
 10
11.11581821258769
 20
511.5312613179699
 10
11.11643703961512
 20
511.530456003585
 10
11.11688036815503
 20
511.529542254112
 10
11.11712990685409
 20
511.5285577700664
 10
11.1171753599607
 20
511.5275431704112
  0
LWPOLYLINE
  5
6DE
330
23
100
AcDbEntity
  8
sanindusa
100
AcDbPolyline
 90
        9
 70
   128
 43
0.0
 10
10.75079189641318
 20
511.5275494408818
 10
10.7508385083899
 20
511.5285632061348
 10
10.75108885902917
 20
511.5295466781346
 10
10.75153263495949
 20
511.5304593420576
 10
10.75215155451782
 20
511.5312636000684
 10
10.75292012087559
 20
511.5319263201898
 10
10.75380667239859
 20
511.5324202011982
 10
10.75477468697036
 20
511.5327248973165
 10
10.75578413631478
 20
511.5328278563749
  0
LINE
  5
6F3
330
23
100
AcDbEntity
  8
sanindusa
100
AcDbLine
 10
11.1126188942379
 20
511.5328278559819
 30
0.0
 11
11.11060515374528
 21
511.5328278577995
 31
0.0
  0
LINE
  5
6F5
330
23
100
AcDbEntity
  8
sanindusa
100
AcDbLine
 10
10.93398380501303
 20
511.5038280172138
 30
0.0
 11
11.09138298919063
 21
511.5038278751489
 31
0.0
  0
LINE
  5
6FB
330
23
100
AcDbEntity
  8
sanindusa
100
AcDbLine
 10
10.93398380501303
 20
511.5038280172138
 30
0.0
 11
10.77658462083542
 21
511.5038278751489
 31
0.0
  0
LWPOLYLINE
  5
6FF
330
23
100
AcDbEntity
  8
sanindusa
100
AcDbPolyline
 90
       15
 70
   128
 43
0.0
 10
10.93398380501303
 20
511.3160796972196
 10
10.93910626641169
 20
511.3160760817165
 10
10.94786139944068
 20
511.3160541534115
 10
10.95653991050291
 20
511.3160126825388
 10
10.96504220646427
 20
511.3159522202988
 10
10.9732686941906
 20
511.3158733178918
 10
10.98248071393073
 20
511.3157577065899
 10
10.99120722969586
 20
511.3156172063098
 10
10.99931652172085
 20
511.3154531088727
 10
11.00768262010603
 20
511.3152384742066
 10
11.01510091593253
 20
511.3149944011651
 10
11.02143165768053
 20
511.314723890532
 10
11.02639656265341
 20
511.3144411275357
 10
11.03027116084666
 20
511.3141348797519
 10
11.03298631510029
 20
511.3138074586796
  0
LWPOLYLINE
  5
702
330
23
100
AcDbEntity
  8
sanindusa
100
AcDbPolyline
 90
       15
 70
   128
 43
0.0
 10
10.93398380501303
 20
511.3160796972196
 10
10.92886134361435
 20
511.3160760817165
 10
10.92010621058537
 20
511.3160541534115
 10
10.91142769952313
 20
511.3160126825388
 10
10.90292540356178
 20
511.3159522202988
 10
10.89469891583545
 20
511.3158733178918
 10
10.88548689609532
 20
511.3157577065899
 10
10.87676038033019
 20
511.3156172063098
 10
10.8686510883052
 20
511.3154531088727
 10
10.86028498992002
 20
511.3152384742066
 10
10.85286669409352
 20
511.3149944011651
 10
10.84653595234552
 20
511.314723890532
 10
10.84157104737264
 20
511.3144411275357
 10
10.83769644917939
 20
511.3141348797519
 10
10.83498129492576
 20
511.3138074586796
  0
LWPOLYLINE
  5
707
330
23
100
AcDbEntity
  8
sanindusa
100
AcDbPolyline
 90
       14
 70
   128
 43
0.0
 10
11.02841357602023
 20
511.2922960413883
 10
11.02551284505133
 20
511.2918501381662
 10
11.02146265111161
 20
511.2912788993845
 10
11.01633492102577
 20
511.2907213898387
 10
11.0101314225524
 20
511.2902229795383
 10
11.00294697927273
 20
511.2897483163567
 10
10.99491627099574
 20
511.2893085152789
 10
10.98723945731622
 20
511.2889580391611
 10
10.9790267087611
 20
511.2886456758515
 10
10.97039667118896
 20
511.2883793142199
 10
10.96013190336391
 20
511.2881397419432
 10
10.94950372890091
 20
511.2879744596266
 10
10.93871234578539
 20
511.287891523336
 10
10.93398380501303
 20
511.2878828383279
  0
LWPOLYLINE
  5
709
330
23
100
AcDbEntity
  8
sanindusa
100
AcDbPolyline
 90
       14
 70
   128
 43
0.0
 10
10.83955403400582
 20
511.2922960413883
 10
10.84245476497472
 20
511.2918501381662
 10
10.84650495891444
 20
511.2912788993845
 10
10.85163268900028
 20
511.2907213898387
 10
10.85783618747365
 20
511.2902229795383
 10
10.86502063075332
 20
511.2897483163567
 10
10.87305133903031
 20
511.2893085152789
 10
10.88072815270983
 20
511.2889580391611
 10
10.88894090126495
 20
511.2886456758515
 10
10.89757093883709
 20
511.2883793142199
 10
10.90783570666214
 20
511.2881397419432
 10
10.91846388112513
 20
511.2879744596266
 10
10.92925526424066
 20
511.287891523336
 10
10.93398380501303
 20
511.2878828383279
  0
LINE
  5
714
330
23
100
AcDbEntity
  8
sanindusa
100
AcDbLine
 10
10.83807753881518
 20
511.1088279306509
 30
0.0
 11
10.93398380501303
 21
511.1088280172136
 31
0.0
  0
LINE
  5
719
330
23
100
AcDbEntity
  8
sanindusa
100
AcDbLine
 10
11.02989007121087
 20
511.1088279306509
 30
0.0
 11
10.93398380501303
 21
511.1088280172136
 31
0.0
  0
LINE
  5
71C
330
23
100
AcDbEntity
  8
sanindusa
100
AcDbLine
 10
10.77658462083542
 20
511.5038278751489
 30
0.0
 11
10.77463320702045
 21
511.5038278733876
 31
0.0
  0
LINE
  5
71F
330
23
100
AcDbEntity
  8
sanindusa
100
AcDbLine
 10
11.09138298919063
 20
511.5038278751489
 30
0.0
 11
11.0933344030056
 21
511.5038278733876
 31
0.0
  0
LWPOLYLINE
  5
722
330
23
100
AcDbEntity
  8
sanindusa
100
AcDbPolyline
 90
        5
 70
   128
 43
0.0
 10
11.06329479970453
 20
511.3156922447717
 10
11.06485585364843
 20
511.3192724416143
 10
11.06645637032616
 20
511.322911913504
 10
11.06976922077618
 20
511.3304232906691
 10
11.07355045306203
 20
511.3390397410602
  0
ARC
  5
723
330
23
100
AcDbEntity
  8
sanindusa
100
AcDbCircle
 10
11.03430585653096
 20
511.4761922857641
 30
0.0
 40
0.1630969711088763
100
AcDbArc
 50
273.8864316848389
 51
280.2381800303087
  0
LWPOLYLINE
  5
724
330
23
100
AcDbEntity
  8
sanindusa
100
AcDbPolyline
 90
        4
 70
   128
 43
0.0
 10
11.03305778096479
 20
511.3138189504554
 10
11.03305779292498
 20
511.3138189501079
 10
11.0396561001833
 20
511.3136291373015
 10
11.04536041027467
 20
511.3134703793519
  0
ARC
  5
726
330
23
100
AcDbEntity
  8
sanindusa
100
AcDbCircle
 10
10.32069027572811
 20
511.6677619552032
 30
0.0
 40
0.8214966467894534
100
AcDbArc
 50
336.4124187800193
 51
347.6264997494794
  0
LWPOLYLINE
  5
728
330
23
100
AcDbEntity
  8
sanindusa
100
AcDbPolyline
 90
        4
 70
   128
 43
0.0
 10
10.83490982906126
 20
511.3138189504554
 10
10.83490981710106
 20
511.3138189501079
 10
10.82831150984275
 20
511.3136291373015
 10
10.82260719975138
 20
511.3134703793519
  0
ARC
  5
729
330
23
100
AcDbEntity
  8
sanindusa
100
AcDbCircle
 10
10.83366175349499
 20
511.4761922857633
 30
0.0
 40
0.1630969711080177
100
AcDbArc
 50
259.7618199696912
 51
266.1135683151611
  0
LWPOLYLINE
  5
72A
330
23
100
AcDbEntity
  8
sanindusa
100
AcDbPolyline
 90
        5
 70
   128
 43
0.0
 10
10.80467281032152
 20
511.3156922447717
 10
10.80311175637762
 20
511.3192724416143
 10
10.80151123969989
 20
511.322911913504
 10
10.79819838924987
 20
511.3304232906691
 10
10.79441715696402
 20
511.3390397410602
  0
ARC
  5
72B
330
23
100
AcDbEntity
  8
sanindusa
100
AcDbCircle
 10
11.5472773342979
 20
511.6677619552032
 30
0.0
 40
0.8214966467894186
100
AcDbArc
 50
192.3735002505205
 51
203.5875812199807
  0
LWPOLYLINE
  5
72C
330
23
100
AcDbEntity
  8
sanindusa
100
AcDbPolyline
 90
       10
 70
   128
 43
0.0
 10
10.75463159265663
 20
511.5038278553346
 10
10.75266589172548
 20
511.5036324112288
 10
10.75077702738179
 20
511.5030537220701
 10
10.74903883243584
 20
511.5021144079301
 10
10.74751925026225
 20
511.5008511851582
 10
10.74627767899764
 20
511.4993134311949
 10
10.74536264975857
 20
511.4975612544842
 10
10.74480992963465
 20
511.4956631449267
 10
10.74464112360782
 20
511.4936932967138
 10
10.74486283004679
 20
511.4917287081909
  0
LINE
  5
72D
330
23
100
AcDbEntity
  8
sanindusa
100
AcDbLine
 10
10.77463320702045
 20
511.5038278733876
 30
0.0
 11
10.75463159265663
 21
511.5038278553346
 31
0.0
  0
LWPOLYLINE
  5
72E
330
23
100
AcDbEntity
  8
sanindusa
100
AcDbPolyline
 90
       10
 70
   128
 43
0.0
 10
11.11333601736941
 20
511.5038278553346
 10
11.11530171830057
 20
511.5036324112288
 10
11.11719058264426
 20
511.5030537220701
 10
11.11892877759021
 20
511.5021144079301
 10
11.1204483597638
 20
511.5008511851582
 10
11.12168993102841
 20
511.4993134311949
 10
11.12260496026748
 20
511.4975612544842
 10
11.1231576803914
 20
511.4956631449267
 10
11.12332648641823
 20
511.4936932967138
 10
11.12310477997926
 20
511.4917287081909
  0
LINE
  5
72F
330
23
100
AcDbEntity
  8
sanindusa
100
AcDbLine
 10
11.0933344030056
 20
511.5038278733876
 30
0.0
 11
11.11333601736941
 21
511.5038278553346
 31
0.0
  0
LWPOLYLINE
  5
731
330
23
100
AcDbEntity
  8
sanindusa
100
AcDbPolyline
 90
        4
 70
   128
 43
0.0
 10
11.04086298152047
 20
511.2928090228668
 10
11.03495514776501
 20
511.2925775677689
 10
11.02841343962421
 20
511.2923040340589
 10
11.02841343038056
 20
511.2923040336623
  0
LWPOLYLINE
  5
732
330
23
100
AcDbEntity
  8
sanindusa
100
AcDbPolyline
 90
        4
 70
   128
 43
0.0
 10
10.82710462850558
 20
511.2928090228668
 10
10.83301246226104
 20
511.2925775677689
 10
10.83955417040184
 20
511.2923040340589
 10
10.83955417964549
 20
511.2923040336623
  0
LINE
  5
73B
330
23
100
AcDbEntity
  8
sanindusa
100
AcDbLine
 10
10.82585397968194
 20
511.1088279196182
 30
0.0
 11
10.83807753881518
 21
511.1088279306509
 31
0.0
  0
LINE
  5
73D
330
23
100
AcDbEntity
  8
sanindusa
100
AcDbLine
 10
11.04211363034411
 20
511.1088279196182
 30
0.0
 11
11.02989007121087
 21
511.1088279306509
 31
0.0
  0
LINE
  5
73F
330
23
100
AcDbEntity
  8
sanindusa
100
AcDbLine
 10
10.80805557437299
 20
511.5038279035539
 30
0.0
 11
10.79866505013095
 21
511.5038278950782
 31
0.0
  0
ARC
  5
740
330
23
100
AcDbEntity
  8
sanindusa
100
AcDbCircle
 10
11.10227829302704
 20
511.2991334175692
 30
0.0
 40
0.0423545453281033
100
AcDbArc
 50
156.9859089574382
 51
183.4909456356987
  0
ARC
  5
741
330
23
100
AcDbEntity
  8
sanindusa
100
AcDbCircle
 10
11.01095305906075
 20
511.4961264256904
 30
0.0
 40
0.2055111171414396
100
AcDbArc
 50
278.3685361629421
 51
283.8080393275352
  0
ARC
  5
742
330
23
100
AcDbEntity
  8
sanindusa
100
AcDbCircle
 10
10.7656893169991
 20
511.2991334175692
 30
0.0
 40
0.0423545453280125
100
AcDbArc
 50
356.5090543643013
 51
23.01409104256179
  0
ARC
  5
743
330
23
100
AcDbEntity
  8
sanindusa
100
AcDbCircle
 10
10.85701455096518
 20
511.4961264256898
 30
0.0
 40
0.2055111171407727
100
AcDbArc
 50
256.1919606723659
 51
261.6314638370579
  0
LWPOLYLINE
  5
744
330
23
100
AcDbEntity
  8
sanindusa
100
AcDbPolyline
 90
        6
 70
   128
 43
0.0
 10
11.06898414803925
 20
511.1393439805185
 10
11.06897842058628
 20
511.1460585053479
 10
11.06895400446672
 20
511.1605823728866
 10
11.06892006049604
 20
511.1752776887069
 10
11.06888044039029
 20
511.1901577063301
 10
11.06883731069614
 20
511.2050979725207
  0
LWPOLYLINE
  5
747
330
23
100
AcDbEntity
  8
sanindusa
100
AcDbPolyline
 90
        6
 70
   128
 43
0.0
 10
10.79898345143324
 20
511.1393316081531
 10
10.79898918943977
 20
511.1460585053479
 10
10.79901360555933
 20
511.1605823728866
 10
10.79904754953001
 20
511.1752776887069
 10
10.79908716963576
 20
511.1901577063301
 10
10.79913029932991
 20
511.2050979725207
  0
LINE
  5
748
330
23
100
AcDbEntity
  8
sanindusa
100
AcDbLine
 10
11.06692157941434
 20
511.1088278972271
 30
0.0
 11
11.04211363034411
 21
511.1088279196182
 31
0.0
  0
LINE
  5
749
330
23
100
AcDbEntity
  8
sanindusa
100
AcDbLine
 10
10.80104603061171
 20
511.1088278972271
 30
0.0
 11
10.82585397968194
 21
511.1088279196182
 31
0.0
  0
LINE
  5
74C
330
23
100
AcDbEntity
  8
sanindusa
100
AcDbLine
 10
10.8314709337992
 20
511.503827924688
 30
0.0
 11
10.81933564367931
 21
511.503827913735
 31
0.0
  0
LINE
  5
74E
330
23
100
AcDbEntity
  8
sanindusa
100
AcDbLine
 10
10.93398380501303
 20
511.5038280172138
 30
0.0
 11
11.03649667622685
 21
511.503827924688
 31
0.0
  0
LINE
  5
753
330
23
100
AcDbEntity
  8
sanindusa
100
AcDbLine
 10
10.93398380501303
 20
511.5075339219883
 30
0.0
 11
10.82405530222252
 21
511.5075338227693
 31
0.0
  0
LINE
  5
755
330
23
100
AcDbEntity
  8
sanindusa
100
AcDbLine
 10
10.93398380501303
 20
511.5075339219883
 30
0.0
 11
11.04391230780353
 21
511.5075338227693
 31
0.0
  0
ARC
  5
757
330
23
100
AcDbEntity
  8
sanindusa
100
AcDbCircle
 10
10.9340998331945
 20
511.1230635613489
 30
0.0
 40
0.4039970032274437
100
AcDbArc
 50
90.01645538243975
 51
106.1887767941191
  0
ARC
  5
759
330
23
100
AcDbEntity
  8
sanindusa
100
AcDbCircle
 10
10.93386777683156
 20
511.123063561349
 30
0.0
 40
0.4039970032273942
100
AcDbArc
 50
73.81122320588092
 51
89.98354461756022
  0
LINE
  5
75D
330
23
100
AcDbEntity
  8
sanindusa
100
AcDbLine
 10
10.81737841136023
 20
511.5065370152168
 30
0.0
 11
10.82405530222252
 21
511.5075338227693
 31
0.0
  0
LINE
  5
75F
330
23
100
AcDbEntity
  8
sanindusa
100
AcDbLine
 10
11.05058919866582
 20
511.5065370152168
 30
0.0
 11
11.04391230780353
 21
511.5075338227693
 31
0.0
  0
LWPOLYLINE
  5
762
330
23
100
AcDbEntity
  8
sanindusa
100
AcDbPolyline
 90
        3
 70
   128
 43
0.0
 10
11.05522830528657
 20
511.5060571683152
 10
11.05378551479903
 20
511.5063007410481
 10
11.05058919866582
 20
511.5065370152168
  0
LWPOLYLINE
  5
763
330
23
100
AcDbEntity
  8
sanindusa
100
AcDbPolyline
 90
        3
 70
   128
 43
0.0
 10
10.81273930473948
 20
511.5060571683152
 10
10.81418209522702
 20
511.5063007410481
 10
10.81737841136023
 20
511.5065370152168
  0
LWPOLYLINE
  5
766
330
23
100
AcDbEntity
  8
sanindusa
100
AcDbPolyline
 90
        3
 70
   128
 43
0.0
 10
10.81473165351584
 20
511.5090228032139
 10
10.81312858521362
 20
511.5085232664069
 10
10.8124027803851
 20
511.5082946885022
  0
LWPOLYLINE
  5
769
330
23
100
AcDbEntity
  8
sanindusa
100
AcDbPolyline
 90
        3
 70
   128
 43
0.0
 10
11.05323595651021
 20
511.5090228032139
 10
11.05483902481243
 20
511.5085232664069
 10
11.05556482964095
 20
511.5082946885022
  0
LINE
  5
76A
330
23
100
AcDbEntity
  8
sanindusa
100
AcDbLine
 10
11.0465033519227
 20
511.5110414032945
 30
0.0
 11
11.05323595651021
 21
511.5090228032139
 31
0.0
  0
LINE
  5
76B
330
23
100
AcDbEntity
  8
sanindusa
100
AcDbLine
 10
10.82146425810335
 20
511.5110414032945
 30
0.0
 11
10.81473165351584
 21
511.5090228032139
 31
0.0
  0
LWPOLYLINE
  5
76D
330
23
100
AcDbEntity
  8
sanindusa
100
AcDbPolyline
 90
        3
 70
   128
 43
0.0
 10
11.05556482964095
 20
511.5082946885022
 10
11.05862341080538
 20
511.5073148880163
 10
11.05972377545213
 20
511.5069558176109
  0
LINE
  5
779
330
23
100
AcDbEntity
  8
sanindusa
100
AcDbLine
 10
10.93398380501303
 20
511.5328280172138
 30
0.0
 11
10.75784294923498
 21
511.5328278582332
 31
0.0
  0
LINE
  5
77D
330
23
100
AcDbEntity
  8
sanindusa
100
AcDbLine
 10
10.93398380501303
 20
511.5328280172138
 30
0.0
 11
11.11012466079107
 21
511.5328278582332
 31
0.0
  0
LINE
  5
783
330
23
100
AcDbEntity
  8
sanindusa
100
AcDbLine
 10
10.75784294923498
 20
511.5328278582332
 30
0.0
 11
10.75578413631478
 21
511.5328278563749
 31
0.0
  0
LINE
  5
784
330
23
100
AcDbEntity
  8
sanindusa
100
AcDbLine
 10
10.93398380501303
 20
511.5328280172138
 30
0.0
 11
10.76791710631031
 21
511.5328278673259
 31
0.0
  0
LWPOLYLINE
  5
78F
330
23
100
AcDbEntity
  8
sanindusa
100
AcDbPolyline
 90
        3
 70
   128
 43
0.0
 10
11.06883731069614
 20
511.2050979725207
 10
11.06853641477499
 20
511.2856260837019
 10
11.06832595354993
 20
511.3270600826198
  0
LWPOLYLINE
  5
792
330
23
100
AcDbEntity
  8
sanindusa
100
AcDbPolyline
 90
        3
 70
   128
 43
0.0
 10
10.79913029932991
 20
511.2050979725207
 10
10.79943119525106
 20
511.2856260837019
 10
10.79964165931888
 20
511.32706064228
  0
ARC
  5
79D
330
23
100
AcDbEntity
  8
sanindusa
100
AcDbCircle
 10
11.05339992567635
 20
511.4961363369586
 30
0.0
 40
0.0100879069585988
100
AcDbArc
 50
49.94210122468999
 51
79.55773189552319
  0
ARC
  5
79E
330
23
100
AcDbEntity
  8
sanindusa
100
AcDbCircle
 10
10.81456768434997
 20
511.496136336958
 30
0.0
 40
0.010087906959214
100
AcDbArc
 50
100.4422681054777
 51
130.0578987748426
  0
ARC
  5
7A0
330
23
100
AcDbEntity
  8
sanindusa
100
AcDbCircle
 10
10.8154579691165
 20
511.4986310314005
 30
0.0
 40
0.01013510960788
100
AcDbArc
 50
107.544476798448
 51
149.1522040401853
  0
LWPOLYLINE
  5
7A1
330
23
100
AcDbEntity
  8
sanindusa
100
AcDbPolyline
 90
        3
 70
   128
 43
0.0
 10
11.06445012635288
 20
511.5038278994579
 10
11.06281283922815
 20
511.505403722807
 10
11.05980055700078
 20
511.5069303471564
  0
LINE
  5
7B5
330
23
100
AcDbEntity
  8
sanindusa
100
AcDbLine
 10
11.544954381946
 20
511.9913400977736
 30
0.0
 11
11.51452535776475
 21
511.9802137826484
 31
0.0
  0
LINE
  5
7B6
330
23
100
AcDbEntity
  8
sanindusa
100
AcDbLine
 10
11.61305029478205
 20
512.0162392364343
 30
0.0
 11
11.6121568395834
 21
512.0159126593879
 31
0.0
  0
ARC
  5
7B7
330
23
100
AcDbEntity
  8
sanindusa
100
AcDbCircle
 10
11.51796421338116
 20
511.9708236669915
 30
0.0
 40
0.0100000000000005
100
AcDbArc
 50
110.1137811504217
 51
180.0
  0
ARC
  5
7B9
330
23
100
AcDbEntity
  8
sanindusa
100
AcDbCircle
 10
11.54349895275411
 20
511.9950021546033
 30
0.0
 40
0.0039385948579707
100
AcDbArc
 50
291.6784746831869
 51
1.272110391277516
  0
LINE
  5
7BA
330
23
100
AcDbEntity
  8
sanindusa
100
AcDbLine
 10
11.54746421338116
 20
512.0126592888436
 30
0.0
 11
11.54746421338116
 21
511.9950835633693
 31
0.0
  0
ARC
  5
7BB
330
23
100
AcDbEntity
  8
sanindusa
100
AcDbCircle
 10
11.55045457409571
 20
512.0126803144985
 30
0.0
 40
0.0029775424801415
100
AcDbArc
 50
93.71353287969341
 51
180.1114216901102
  0
ARC
  5
7BC
330
23
100
AcDbEntity
  8
sanindusa
100
AcDbCircle
 10
11.61075585145989
 20
512.0196592888435
 30
0.0
 40
0.0039999999999987
100
AcDbArc
 50
270.0000907871777
 51
290.5024253666702
  0
ARC
  5
7C6
330
23
100
AcDbEntity
  8
sanindusa
100
AcDbCircle
 10
11.75003132968255
 20
511.5096630383453
 30
0.0
 40
0.0058355893534426
100
AcDbArc
 50
239.9537564062945
 51
269.2442491441543
  0
ARC
  5
7C7
330
23
100
AcDbEntity
  8
sanindusa
100
AcDbCircle
 10
11.7493751470714
 20
511.508529587251
 30
0.0
 40
0.0045258998119858
100
AcDbArc
 50
207.5064888438512
 51
239.9599369126039
  0
ARC
  5
7C8
330
23
100
AcDbEntity
  8
sanindusa
100
AcDbCircle
 10
11.7015628293093
 20
511.5470578032006
 30
0.0
 40
0.0199467123742537
100
AcDbArc
 50
230.463464109969
 51
264.2598292195141
  0
ARC
  5
7C9
330
23
100
AcDbEntity
  8
sanindusa
100
AcDbCircle
 10
11.74043417215836
 20
511.5034403473808
 30
0.0
 40
0.0057676696912906
100
AcDbArc
 50
31.32956536248383
 51
56.87291057261529
  0
ARC
  5
7CA
330
23
100
AcDbEntity
  8
sanindusa
100
AcDbCircle
 10
11.76327886339775
 20
511.5351740017329
 30
0.0
 40
0.0333406272790547
100
AcDbArc
 50
228.9703199700825
 51
233.7967884856868
  0
LWPOLYLINE
  5
7CB
330
23
100
AcDbEntity
  8
sanindusa
100
AcDbPolyline
 90
       18
 70
   128
 43
0.0
 10
11.74141896647582
 20
511.5099936031543
 10
11.73938680287755
 20
511.5117497406984
 10
11.73666206022338
 20
511.5141074979749
 10
11.73420689774899
 20
511.5162344349019
 10
11.73201979721702
 20
511.5181309449264
 10
11.73007604652012
 20
511.5198177765659
 10
11.72836871647152
 20
511.521300569625
 10
11.72690081183691
 20
511.5225763647362
 10
11.72567449799758
 20
511.5236429365294
 10
11.7246911343142
 20
511.5244987671293
 10
11.72395128277063
 20
511.5251430408819
 10
11.72345459548883
 20
511.5255757443111
 10
11.7231978158557
 20
511.52579940948
 10
11.7231486890341
 20
511.5258420865123
 10
11.7231271751517
 20
511.5258605899911
 10
11.72310710355972
 20
511.5258776681438
 10
11.7230714133516
 20
511.5259075917285
 10
11.72304799906379
 20
511.5259268366209
  0
ARC
  5
7CF
330
23
100
AcDbEntity
  8
sanindusa
100
AcDbCircle
 10
11.52218056296364
 20
512.1908030650656
 30
0.0
 40
0.1967220379619801
100
AcDbArc
 50
292.3957200565192
 51
295.8114216771278
  0
ARC
  5
7D0
330
23
100
AcDbEntity
  8
sanindusa
100
AcDbCircle
 10
11.58120474996
 20
512.071492240067
 30
0.0
 40
0.0636259212561839
100
AcDbArc
 50
294.7431138766095
 51
299.109221524215
  0
ARC
  5
7D1
330
23
100
AcDbEntity
  8
sanindusa
100
AcDbCircle
 10
11.43521340796398
 20
512.3990003032353
 30
0.0
 40
0.4223518864310532
100
AcDbArc
 50
289.8167093652069
 51
292.54280055424
  0
ARC
  5
7D2
330
23
100
AcDbEntity
  8
sanindusa
100
AcDbCircle
 10
11.61330711550296
 20
512.0247640872451
 30
0.0
 40
0.0085287184399698
100
AcDbArc
 50
268.2744220948692
 51
290.2212706909757
  0
LINE
  5
7D4
330
23
100
AcDbEntity
  8
sanindusa
100
AcDbLine
 10
11.50796421338116
 20
511.9516359714365
 30
0.0
 11
11.50796421338116
 21
511.9708236669915
 31
0.0
  0
LWPOLYLINE
  5
7D6
330
23
100
AcDbEntity
  8
sanindusa
100
AcDbPolyline
 90
       24
 70
   128
 43
0.0
 10
11.5502617246022
 20
512.0156516051767
 10
11.55050840414721
 20
512.015659290288
 10
11.55086112262101
 20
512.0156592931592
 10
11.55156226301033
 20
512.0156592959779
 10
11.55260328453615
 20
512.0156592987098
 10
11.55397150623623
 20
512.0156593013214
 10
11.55565026143529
 20
512.015659303781
 10
11.55761910076626
 20
512.0156593060586
 10
11.55985404126951
 20
512.0156593081266
 10
11.5623278585357
 20
512.0156593099596
 10
11.56501041833361
 20
512.0156593115354
 10
11.56786904368329
 20
512.0156593128349
 10
11.57086891290312
 20
512.0156593138422
 10
11.57397348378201
 20
512.0156593145448
 10
11.57714493870993
 20
512.0156593149344
 10
11.58034464534429
 20
512.0156593150062
 10
11.58353362720091
 20
512.0156593147592
 10
11.58667303843699
 20
512.0156593141967
 10
11.58972463704277
 20
512.0156593133252
 10
11.59265125067765
 20
512.0156593121556
 10
11.59541722947647
 20
512.0156593107019
 10
11.59798888031008
 20
512.0156593089821
 10
11.60033487721034
 20
512.0156593070169
 10
11.60242664296018
 20
512.0156593048302
  0
LWPOLYLINE
  5
7DD
330
23
100
AcDbEntity
  8
sanindusa
100
AcDbPolyline
 90
        6
 70
   128
 43
0.0
 10
11.60242664296018
 20
512.0156593048302
 10
11.60485012626187
 20
512.0156593018653
 10
11.60731046144168
 20
512.0156592983754
 10
11.60937412127815
 20
512.0156592946858
 10
11.60965756880207
 20
512.0156592940803
 10
11.61078359667897
 20
512.0156592912308
  0
LWPOLYLINE
  5
7E7
330
23
100
AcDbEntity
  8
sanindusa
100
AcDbPolyline
 90
        3
 70
   128
 43
0.0
 10
11.6014944806392
 20
511.8916141859076
 10
11.5957172604865
 20
511.9352147688259
 10
11.59003226063578
 20
511.9735022083542
  0
ARC
  5
7E8
330
23
100
AcDbEntity
  8
sanindusa
100
AcDbCircle
 10
8.985914410310705
 20
511.5672934093998
 30
0.0
 40
2.635610568800761
100
AcDbArc
 50
4.149001303005362
 51
7.068354520859354
  0
ARC
  5
7E9
330
23
100
AcDbEntity
  8
sanindusa
100
AcDbCircle
 10
8.982179009361514
 20
511.5667940140223
 30
0.0
 40
2.639372321596774
100
AcDbArc
 50
359.3693263068982
 51
4.153947032140168
  0
ARC
  5
7ED
330
23
100
AcDbEntity
  8
sanindusa
100
AcDbCircle
 10
9.033024927686144
 20
511.5712138487319
 30
0.0
 40
2.599419073987876
100
AcDbArc
 50
359.2617240155868
 51
4.128390988359537
  0
LWPOLYLINE
  5
7F0
330
23
100
AcDbEntity
  8
sanindusa
100
AcDbPolyline
 90
        9
 70
   128
 43
0.0
 10
11.6227669904745
 20
511.5328281783127
 10
11.62250149652245
 20
511.5329221660228
 10
11.62224598374892
 20
511.5332005940341
 10
11.62201005809253
 20
511.5336529949153
 10
11.62180258911914
 20
511.534262360769
 10
11.62163137657275
 20
511.5350057826386
 10
11.6215028571461
 20
511.5358553117656
 10
11.62142186249479
 20
511.5367790103153
 10
11.62139143759241
 20
511.5377421520728
  0
LWPOLYLINE
  5
7F1
330
23
100
AcDbEntity
  8
sanindusa
100
AcDbPolyline
 90
        9
 70
   128
 43
0.0
 10
11.63222821107801
 20
511.5377203595598
 10
11.63213586249976
 20
511.5367603700947
 10
11.63189583059618
 20
511.5358403003171
 10
11.63151708890162
 20
511.5349945468123
 10
11.63101379658226
 20
511.5342547278692
 10
11.63040476909911
 20
511.5336485014393
 10
11.62971277479656
 20
511.5331985311502
 10
11.6289636837134
 20
511.5329216390319
 10
11.62818550043766
 20
511.5328281766288
  0
ARC
  5
7F4
330
23
100
AcDbEntity
  8
sanindusa
100
AcDbCircle
 10
9.02860872398042
 20
511.571198080969
 30
0.0
 40
2.603824971355848
100
AcDbArc
 50
4.121741170875266
 51
7.081732440433119
  0
LWPOLYLINE
  5
7F5
330
23
100
AcDbEntity
  8
sanindusa
100
AcDbPolyline
 90
        3
 70
   128
 43
0.0
 10
11.60105363198499
 20
511.9742282211567
 10
11.60676835918356
 20
511.9358815338904
 10
11.61256988325137
 20
511.8922108670624
  0
LWPOLYLINE
  5
7F6
330
23
100
AcDbEntity
  8
sanindusa
100
AcDbPolyline
 90
       13
 70
   128
 43
0.0
 10
11.62880553153956
 20
512.009876954441
 10
11.62853493183517
 20
512.0094660439617
 10
11.62769104964179
 20
512.008226471972
 10
11.62620534805627
 20
512.0061295861319
 10
11.62404075460025
 20
512.0031887303041
 10
11.62247766112393
 20
512.001120574905
 10
11.62068689547909
 20
511.9987910864177
 10
11.6186572680854
 20
511.9961896132728
 10
11.61640790776355
 20
511.9933408501323
 10
11.61389660542474
 20
511.9901903235603
 10
11.61117903689749
 20
511.9868032877504
 10
11.60514527324647
 20
511.9793151327973
 10
11.60105363198499
 20
511.9742282211567
  0
LWPOLYLINE
  5
7F7
330
23
100
AcDbEntity
  8
sanindusa
100
AcDbPolyline
 90
        4
 70
   128
 43
0.0
 10
11.62880553153956
 20
512.009876954441
 10
11.6402127555802
 20
511.9666644319977
 10
11.6504671517646
 20
511.9232098147846
 10
11.66061844306736
 20
511.8737260255564
  0
ARC
  5
7F8
330
23
100
AcDbEntity
  8
sanindusa
100
AcDbCircle
 10
10.00228743960883
 20
511.5558896327724
 30
0.0
 40
1.688514640034194
100
AcDbArc
 50
359.385322922855
 51
10.84975860860165
  0
ARC
  5
7FA
330
23
100
AcDbEntity
  8
sanindusa
100
AcDbCircle
 10
11.68570518977643
 20
511.5378280172142
 30
0.0
 40
0.0050000000000001
100
AcDbArc
 50
270.0
 51
359.3965901381173
  0
LINE
  5
7FF
330
23
100
AcDbEntity
  8
sanindusa
100
AcDbLine
 10
11.51934746240957
 20
511.5328278828426
 30
0.0
 11
11.52462905120788
 21
511.5328280172138
 31
0.0
  0
LINE
  5
800
330
23
100
AcDbEntity
  8
sanindusa
100
AcDbLine
 10
11.51663804573413
 20
511.5328281508978
 30
0.0
 11
11.51934745067078
 21
511.5328278828425
 31
0.0
  0
LWPOLYLINE
  5
801
330
23
100
AcDbEntity
  8
sanindusa
100
AcDbPolyline
 90
        5
 70
   128
 43
0.0
 10
11.51296421338116
 20
511.5328278878823
 10
11.51317342914503
 20
511.5328278865903
 10
11.51391718362846
 20
511.5328278852318
 10
11.51511709936119
 20
511.532827884172
 10
11.51663801746195
 20
511.5328278835304
  0
LINE
  5
80E
330
23
100
AcDbEntity
  8
sanindusa
100
AcDbLine
 10
11.50796421338116
 20
511.537828146546
 30
0.0
 11
11.50796421338116
 21
511.9502598708391
 31
0.0
  0
ARC
  5
815
330
23
100
AcDbEntity
  8
sanindusa
100
AcDbCircle
 10
11.51296421338116
 20
511.5378278878823
 30
0.0
 40
0.0050000000000004
100
AcDbArc
 50
180.0
 51
270.0
  0
LWPOLYLINE
  5
817
330
23
100
AcDbEntity
  8
sanindusa
100
AcDbPolyline
 90
        9
 70
   128
 43
0.0
 10
11.59003226063578
 20
511.9735022083542
 10
11.5898136169881
 20
511.9745858058996
 10
11.58963672409735
 20
511.9756306505744
 10
11.58950395603659
 20
511.9766227195561
 10
11.58941709468115
 20
511.977548698323
 10
11.58937730579413
 20
511.9783961593476
 10
11.58938512338073
 20
511.9791537288864
 10
11.58944044252141
 20
511.9798112396258
 10
11.58954252077999
 20
511.9803598671383
  0
LWPOLYLINE
  5
818
330
23
100
AcDbEntity
  8
sanindusa
100
AcDbPolyline
 90
        9
 70
   128
 43
0.0
 10
11.58954252077999
 20
511.9803598671383
 10
11.59114245717749
 20
511.9804625420526
 10
11.59279942922358
 20
511.9802847078331
 10
11.59446040361041
 20
511.9798320562698
 10
11.59607221893057
 20
511.9791190749999
 10
11.59758328716948
 20
511.978168583814
 10
11.59894524483946
 20
511.9770110042824
 10
11.60011450090917
 20
511.9756833860775
 10
11.60105363198499
 20
511.9742282211567
  0
LINE
  5
81A
330
23
100
AcDbEntity
  8
sanindusa
100
AcDbLine
 10
11.51748245298412
 20
511.9598877715088
 30
0.0
 11
11.58954252077999
 21
511.9803598671383
 31
0.0
  0
ARC
  5
81B
330
23
100
AcDbEntity
  8
sanindusa
100
AcDbCircle
 10
11.61917122955006
 20
512.0071973604466
 30
0.0
 40
0.0099999999999639
100
AcDbArc
 50
15.54287657042296
 51
106.6167340235714
  0
LINE
  5
81C
330
23
100
AcDbEntity
  8
sanindusa
100
AcDbLine
 10
11.58954252077999
 20
511.9803598671383
 30
0.0
 11
11.59169602756042
 21
511.9832620633228
 31
0.0
  0
LINE
  5
81D
330
23
100
AcDbEntity
  8
sanindusa
100
AcDbLine
 10
11.59223729580316
 20
511.9838631158819
 30
0.0
 11
11.59169602756042
 21
511.9832620633228
 31
0.0
  0
LWPOLYLINE
  5
81E
330
23
100
AcDbEntity
  8
sanindusa
100
AcDbPolyline
 90
       14
 70
   128
 43
0.0
 10
11.61631154731014
 20
512.0167797514575
 10
11.6160033393998
 20
512.0163007369867
 10
11.6155654693872
 20
512.015634275913
 10
11.6149271905694
 20
512.0146804557098
 10
11.61407486376656
 20
512.0134295757837
 10
11.61300690313155
 20
512.0118893959245
 10
11.61166470222152
 20
512.009986234939
 10
11.61008107690183
 20
512.0077756462633
 10
11.60824164892097
 20
512.0052441532832
 10
11.60616630937864
 20
512.0024216716766
 10
11.60384543083317
 20
511.9992952470886
 10
11.60130518867815
 20
511.995898561779
 10
11.59699518768212
 20
511.9901711059685
 10
11.59223729580316
 20
511.9838631158819
  0
LWPOLYLINE
  5
81F
330
23
100
AcDbEntity
  8
sanindusa
100
AcDbPolyline
 90
        3
 70
   128
 43
0.0
 10
11.51457306257342
 20
511.9590501500971
 10
11.51681970729064
 20
511.9596977578927
 10
11.51748245298412
 20
511.9598877715088
  0
LINE
  5
825
330
23
100
AcDbEntity
  8
sanindusa
100
AcDbLine
 10
11.61631154708451
 20
512.0167797513902
 30
0.0
 11
11.6162550379037
 21
512.0167610383418
 31
0.0
  0
LWPOLYLINE
  5
828
330
23
100
AcDbEntity
  8
sanindusa
100
AcDbPolyline
 90
        9
 70
   128
 43
0.0
 10
11.50796421338116
 20
511.9502598708391
 10
11.50808118654657
 20
511.9516848718471
 10
11.50842936949852
 20
511.9530765354794
 10
11.5090006166246
 20
511.954402304276
 10
11.50978156380791
 20
511.9556311623622
 10
11.51075394107561
 20
511.956734361054
 10
11.51189500001833
 20
511.957686091423
 10
11.51317804598078
 20
511.9584640880861
 10
11.51457306257342
 20
511.9590501500971
  0
LINE
  5
82A
330
23
100
AcDbEntity
  8
sanindusa
100
AcDbLine
 10
11.50796421338116
 20
511.9502598708391
 30
0.0
 11
11.50796421338116
 21
511.9516359714365
 31
0.0
  0
LWPOLYLINE
  5
82E
330
23
100
AcDbEntity
  8
sanindusa
100
AcDbPolyline
 90
        4
 70
   128
 43
0.0
 10
11.99150138811612
 20
511.3138189504554
 10
11.99150132932128
 20
511.3138189501079
 10
11.95744360797158
 20
511.3136291373015
 10
11.92482648943663
 20
511.3134703793519
  0
LWPOLYLINE
  5
82F
330
23
100
AcDbEntity
  8
sanindusa
100
AcDbPolyline
 90
        6
 70
   128
 43
0.0
 10
11.92482648943663
 20
511.3134703793519
 10
11.89733815472642
 20
511.3138794542406
 10
11.86977863066987
 20
511.3143292174624
 10
11.8413792804835
 20
511.3148296400268
 10
11.81291729307096
 20
511.3153633555014
 10
11.79605735250162
 20
511.3156922447717
  0
LWPOLYLINE
  5
833
330
23
100
AcDbEntity
  8
sanindusa
100
AcDbPolyline
 90
       10
 70
   128
 43
0.0
 10
11.78105774574862
 20
511.5038278553346
 10
11.77929455398317
 20
511.5036387109652
 10
11.77759806152236
 20
511.5030784343904
 10
11.77603244452088
 20
511.5021682201612
 10
11.77465692828104
 20
511.5009425005256
 10
11.77352354683483
 20
511.4994476429004
 10
11.77267517456258
 20
511.4977401958507
 10
11.77214390430965
 20
511.4958847499291
 10
11.7719498333548
 20
511.4939514942981
 10
11.77210030315573
 20
511.492013561562
  0
LWPOLYLINE
  5
838
330
23
100
AcDbEntity
  8
sanindusa
100
AcDbPolyline
 90
        7
 70
   128
 43
0.0
 10
11.77210030315573
 20
511.492013561562
 10
11.77451146032132
 20
511.4681071878028
 10
11.77691083429652
 20
511.4443614643217
 10
11.77958165491653
 20
511.4179818509533
 10
11.78223245135932
 20
511.391859166313
 10
11.78485418421111
 20
511.3660898970603
 10
11.78745177219918
 20
511.3406392014158
  0
LWPOLYLINE
  5
83B
330
23
100
AcDbEntity
  8
sanindusa
100
AcDbPolyline
 90
       16
 70
   128
 43
0.0
 10
11.62159465387259
 20
511.2072968914701
 10
11.62014754751483
 20
511.1874535252604
 10
11.61726785199064
 20
511.1564041117206
 10
11.61532337393611
 20
511.140912225778
 10
11.61410913418099
 20
511.133174430084
 10
11.61245111128312
 20
511.125528331186
 10
11.61123142190326
 20
511.1218231093331
 10
11.61053138630953
 20
511.1205472004816
 10
11.61011176153739
 20
511.1201079963885
 10
11.6098887985272
 20
511.1199805783266
 10
11.60963396259652
 20
511.1199295687852
 10
11.60940973301753
 20
511.1199718056234
 10
11.60916779305507
 20
511.120113810535
 10
11.60883243904751
 20
511.1204880313813
 10
11.60813003736715
 20
511.1220147820072
 10
11.60719637615768
 20
511.1259467914567
  0
LWPOLYLINE
  5
83C
330
23
100
AcDbEntity
  8
sanindusa
100
AcDbPolyline
 90
       12
 70
   128
 43
0.0
 10
11.62164829600699
 20
511.5276173861503
 10
11.62032506135881
 20
511.4928830004284
 10
11.61901234959205
 20
511.4581688332721
 10
11.61771965622056
 20
511.4237134980702
 10
11.6164389310095
 20
511.3892857774512
 10
11.61517097160676
 20
511.3548816256424
 10
11.61391743541108
 20
511.3205122726643
 10
11.61268062014717
 20
511.2861958535313
 10
11.61146230660862
 20
511.2519206631894
 10
11.6102653723037
 20
511.2176825015541
 10
11.60909435265351
 20
511.1834908854006
 10
11.60719637615768
 20
511.1259467914567
  0
LWPOLYLINE
  5
83E
330
23
100
AcDbEntity
  8
sanindusa
100
AcDbPolyline
 90
        9
 70
   128
 43
0.0
 10
11.62159465387259
 20
511.2072968914701
 10
11.62357735910582
 20
511.263870084066
 10
11.62553478102462
 20
511.3205935062882
 10
11.62670648858435
 20
511.3548980479048
 10
11.62787160980952
 20
511.389242673968
 10
11.62903123151289
 20
511.4236390597437
 10
11.63018515763914
 20
511.4580682771441
 10
11.63134211622914
 20
511.4927826621902
 10
11.63249371130426
 20
511.527526640561
  0
LWPOLYLINE
  5
83F
330
23
100
AcDbEntity
  8
sanindusa
100
AcDbPolyline
 90
        5
 70
   128
 43
0.0
 10
11.62845496497967
 20
511.5328278582332
 10
11.6277528069171
 20
511.5328278575296
 10
11.62633525224688
 20
511.5328278567213
 10
11.62469894982732
 20
511.5328278563822
 10
11.62303065217
 20
511.5328278565513
  0
LWPOLYLINE
  5
840
330
23
100
AcDbEntity
  8
sanindusa
100
AcDbPolyline
 90
        9
 70
   128
 43
0.0
 10
11.63249371130426
 20
511.527526640561
 10
11.63245941163686
 20
511.528543415129
 10
11.63225922743657
 20
511.5295305476935
 10
11.63190145135038
 20
511.5304471462069
 10
11.63140090428216
 20
511.5312552405
 10
11.63077832143547
 20
511.5319213552002
 10
11.63005949335606
 20
511.532417896451
 10
11.62927419755638
 20
511.5327242949903
 10
11.62845496497967
 20
511.5328278582332
  0
LWPOLYLINE
  5
841
330
23
100
AcDbEntity
  8
sanindusa
100
AcDbPolyline
 90
        9
 70
   128
 43
0.0
 10
11.62164829600699
 20
511.5276173861503
 10
11.62166463334233
 20
511.5286220101531
 10
11.62173630837375
 20
511.5295944628345
 10
11.62186041753137
 20
511.5304953499419
 10
11.62203193312838
 20
511.5312881763582
 10
11.62224390703364
 20
511.5319408245266
 10
11.62248775214181
 20
511.5324268555393
 10
11.62275359023877
 20
511.5327265801826
 10
11.62303065217
 20
511.5328278565513
  0
LWPOLYLINE
  5
843
330
23
100
AcDbEntity
  8
sanindusa
100
AcDbPolyline
 90
        5
 70
   128
 43
0.0
 10
11.78105774574862
 20
511.5038278553346
 10
11.77604615552237
 20
511.5038278657141
 10
11.77136508768379
 20
511.5038278762287
 10
11.76701217481967
 20
511.5038278868879
 10
11.76299997041448
 20
511.5038278976656
  0
LINE
  5
845
330
23
100
AcDbEntity
  8
sanindusa
100
AcDbLine
 10
11.62303065217
 20
511.5328278565513
 30
0.0
 11
11.59421867847881
 21
511.5328278640399
 31
0.0
  0
LWPOLYLINE
  5
84D
330
23
100
AcDbEntity
  8
sanindusa
100
AcDbPolyline
 90
        9
 70
   128
 43
0.0
 10
11.66424127743675
 20
511.5274398750009
 10
11.6621767470362
 20
511.5255328162065
 10
11.6601460962543
 20
511.5229860527247
 10
11.65820415051444
 20
511.5198417340812
 10
11.65641319122061
 20
511.5161618740434
 10
11.65493724768672
 20
511.5123021942395
 10
11.65369941221819
 20
511.5080957244046
 10
11.65274166677512
 20
511.5035460053337
 10
11.65212769836677
 20
511.4988298951673
  0
LWPOLYLINE
  5
84E
330
23
100
AcDbEntity
  8
sanindusa
100
AcDbPolyline
 90
        5
 70
   128
 43
0.0
 10
11.65212769836677
 20
511.4988298951673
 10
11.64607071568581
 20
511.4334394247784
 10
11.63961299289524
 20
511.3680836597509
 10
11.6310329095144
 20
511.2876470785902
 10
11.62159465387258
 20
511.2072968914701
  0
LINE
  5
851
330
23
100
AcDbEntity
  8
sanindusa
100
AcDbLine
 10
11.78105774574862
 20
511.5038278553346
 30
0.0
 11
12.16936414927934
 21
511.5038280172138
 31
0.0
  0
LWPOLYLINE
  5
85E
330
23
100
AcDbEntity
  8
sanindusa
100
AcDbPolyline
 90
        3
 70
   128
 43
0.0
 10
11.75312905079993
 20
511.5038279571924
 10
11.75136180142797
 20
511.5038279570248
 10
11.74995435850247
 20
511.5038279566372
  0
LWPOLYLINE
  5
85F
330
23
100
AcDbEntity
  8
sanindusa
100
AcDbPolyline
 90
       19
 70
   128
 43
0.0
 10
11.75031922668658
 20
511.5038279422799
 10
11.75136180142797
 20
511.5038279420162
 10
11.75312905079993
 20
511.5038279418486
 10
11.75489630017188
 20
511.5038279420162
 10
11.75658631226607
 20
511.5038279425119
 10
11.75812522544441
 20
511.5038279433139
 10
11.75944578181648
 20
511.503827944387
 10
11.76049026673209
 20
511.5038279456846
 10
11.76121303118843
 20
511.5038279471497
 10
11.76299997041448
 20
511.5038278976656
 10
11.76158248691056
 20
511.5038279503225
 10
11.76121303118843
 20
511.5038279518913
 10
11.76049026673209
 20
511.5038279533565
 10
11.75944578181648
 20
511.503827954654
 10
11.75812522544441
 20
511.5038279557272
 10
11.75658631226607
 20
511.5038279565292
 10
11.75489630017188
 20
511.5038279570248
 10
11.75312905079993
 20
511.5038279571924
 10
11.75312905079993
 20
511.5038279571924
  0
LWPOLYLINE
  5
862
330
23
100
AcDbEntity
  8
sanindusa
100
AcDbPolyline
 90
       13
 70
   128
 43
0.0
 10
11.68567091649635
 20
511.5328280172138
 10
11.68532200364525
 20
511.5328280042593
 10
11.68428705716662
 20
511.5328279913273
 10
11.68256960757454
 20
511.5328279784621
 10
11.6801121014147
 20
511.5328279654139
 10
11.67695000539767
 20
511.5328279524819
 10
11.67309457875556
 20
511.5328279397122
 10
11.66789400491981
 20
511.5328279254681
 10
11.66182387910474
 20
511.5328279114947
 10
11.65491198027089
 20
511.5328278978561
 10
11.64693405361599
 20
511.5328278842055
 10
11.63810075443686
 20
511.5328278709764
 10
11.62845496497967
 20
511.5328278582332
  0
ARC
  5
863
330
23
100
AcDbEntity
  8
sanindusa
100
AcDbCircle
 10
11.68567091651132
 20
511.5278280167826
 30
0.0
 40
0.00500000043113
100
AcDbArc
 50
50.29118141719627
 51
90.00000017149551
  0
LINE
  5
865
330
23
100
AcDbEntity
  8
sanindusa
100
AcDbLine
 10
11.52462905120788
 20
511.5328280172138
 30
0.0
 11
11.52762905146201
 21
511.5328280172138
 31
0.0
  0
LWPOLYLINE
  5
866
330
23
100
AcDbEntity
  8
sanindusa
100
AcDbPolyline
 90
       21
 70
   128
 43
0.0
 10
11.52762905146201
 20
511.5328280172138
 10
11.52780924197879
 20
511.5328280089283
 10
11.52834194355699
 20
511.5328280006551
 10
11.52922636979527
 20
511.5328279924065
 10
11.53046121505831
 20
511.5328279841946
 10
11.53204465640434
 20
511.5328279760317
 10
11.53397435627614
 20
511.5328279679296
 10
11.53624746595198
 20
511.5328279599005
 10
11.53886062975097
 20
511.5328279519561
 10
11.54180998998691
 20
511.5328279441081
 10
11.5450911926632
 20
511.5328279363683
 10
11.54869939390047
 20
511.5328279287478
 10
11.55262926708729
 20
511.5328279212581
 10
11.55687501074367
 20
511.5328279139102
 10
11.56143035708543
 20
511.532827906715
 10
11.56628858127707
 20
511.5328278996829
 10
11.57144251135928
 20
511.5328278928246
 10
11.5768845388366
 20
511.53282788615
 10
11.58260662990943
 20
511.532827879669
 10
11.58860033733396
 20
511.5328278733913
 10
11.5948568128924
 20
511.5328278673259
  0
LWPOLYLINE
  5
867
330
23
100
AcDbEntity
  8
sanindusa
100
AcDbPolyline
 90
        9
 70
   128
 43
0.0
 10
11.5948568128924
 20
511.5328278673259
 10
11.5951856395788
 20
511.5328278670386
 10
11.59553456621657
 20
511.5328278667712
 10
11.5959021011931
 20
511.5328278665251
 10
11.59628667334776
 20
511.5328278663011
 10
11.59668663868837
 20
511.5328278661003
 10
11.59710028741901
 20
511.5328278659235
 10
11.5975258512492
 20
511.5328278657715
 10
11.59796151095307
 20
511.5328278656449
  0
ARC
  5
86A
330
23
100
AcDbEntity
  8
sanindusa
100
AcDbCircle
 10
12.16936415052792
 20
511.4938280171024
 30
0.0
 40
0.0100000001113245
100
AcDbArc
 50
335.6795753202786
 51
90.00000715385624
  0
LINE
  5
873
330
23
100
AcDbEntity
  8
sanindusa
100
AcDbLine
 10
11.59196421338116
 20
511.5056402235489
 30
0.0
 11
11.59196421338116
 21
511.1108279042789
 31
0.0
  0
ARC
  5
875
330
23
100
AcDbEntity
  8
sanindusa
100
AcDbCircle
 10
11.58996421338116
 20
511.5056402235489
 30
0.0
 40
0.0020000000000002
100
AcDbArc
 50
0.0
 51
90.0
  0
ARC
  5
879
330
23
100
AcDbEntity
  8
sanindusa
100
AcDbCircle
 10
11.52462905093508
 20
511.5278280170787
 30
0.0
 40
0.0050000001351606
100
AcDbArc
 50
89.99999687389642
 51
180.0
  0
LINE
  5
87D
330
23
100
AcDbEntity
  8
sanindusa
100
AcDbLine
 10
11.51962905080719
 20
511.509640223654
 30
0.0
 11
11.51962905079993
 21
511.5278280172138
 31
0.0
  0
LINE
  5
880
330
23
100
AcDbEntity
  8
sanindusa
100
AcDbLine
 10
11.52162905096847
 20
511.5076402235489
 30
0.0
 11
11.58997472715713
 21
511.5076402235489
 31
0.0
  0
ARC
  5
881
330
23
100
AcDbEntity
  8
sanindusa
100
AcDbCircle
 10
11.52162905091228
 20
511.509640223654
 30
0.0
 40
0.0020000001050863
100
AcDbArc
 50
180.0
 51
270.0000016098186
  0
ARC
  5
885
330
23
100
AcDbEntity
  8
sanindusa
100
AcDbCircle
 10
11.37655378272539
 20
511.8521376832922
 30
0.0
 40
0.880019595396488
100
AcDbArc
 50
322.472420737635
 51
335.6794704289055
  0
LWPOLYLINE
  5
886
330
23
100
AcDbEntity
  8
sanindusa
100
AcDbPolyline
 90
       18
 70
   128
 43
0.0
 10
12.07446231817225
 20
511.3160796972196
 10
12.07432459048322
 20
511.3160760817165
 10
12.0734921246537
 20
511.3160547955431
 10
12.07189897496492
 20
511.316014442109
 10
12.06949820859816
 20
511.315953834403
 10
12.06631271825154
 20
511.3158733178918
 10
12.06304154465254
 20
511.3157902636025
 10
12.05923930403363
 20
511.3156930827125
 10
12.05486647085782
 20
511.3155803388351
 10
12.04998351083506
 20
511.3154531088727
 10
12.04409969602657
 20
511.3152978453848
 10
12.03766350722858
 20
511.315125477737
 10
12.03060332023252
 20
511.3149332583185
 10
12.02305303676014
 20
511.314723890532
 10
12.01574761739078
 20
511.3145173140733
 10
12.00811453223138
 20
511.314296867259
 10
12.00008839149741
 20
511.3140593466297
 10
11.99181787385239
 20
511.3138074586796
  0
LWPOLYLINE
  5
88A
330
23
100
AcDbEntity
  8
sanindusa
100
AcDbPolyline
 90
       13
 70
   128
 43
0.0
 10
11.61026143779978
 20
511.1164286831744
 10
11.61099246562307
 20
511.116556851202
 10
11.61287680760169
 20
511.117340401705
 10
11.61472265483169
 20
511.1187308918896
 10
11.6163601345082
 20
511.1204763168409
 10
11.6189933571983
 20
511.1242999765269
 10
11.62119315717683
 20
511.1284809742397
 10
11.62469630122526
 20
511.1371118734173
 10
11.62753296920838
 20
511.1460585053479
 10
11.63118849656395
 20
511.1605823728866
 10
11.63410592800407
 20
511.1752776887069
 10
11.63654065658233
 20
511.1901577063301
 10
11.63857957033513
 20
511.2050979725207
  0
LWPOLYLINE
  5
88B
330
23
100
AcDbEntity
  8
sanindusa
100
AcDbPolyline
 90
        5
 70
   128
 43
0.0
 10
11.63857957033513
 20
511.2050979725207
 10
11.64806842063703
 20
511.2856260837019
 10
11.65659900194743
 20
511.3662738169383
 10
11.66295219910266
 20
511.431746238694
 10
11.66886020163413
 20
511.4972632102285
  0
LWPOLYLINE
  5
88D
330
23
100
AcDbEntity
  8
sanindusa
100
AcDbPolyline
 90
        7
 70
   128
 43
0.0
 10
11.66886020163415
 20
511.4972632102285
 10
11.66988609124653
 20
511.4994262080228
 10
11.67059059010743
 20
511.5003727148657
 10
11.67202597947504
 20
511.5018477350307
 10
11.67360638758526
 20
511.5030907904727
 10
11.67779513449367
 20
511.505403722807
 10
11.6824459007555
 20
511.5069303471564
  0
LWPOLYLINE
  5
88F
330
23
100
AcDbEntity
  8
sanindusa
100
AcDbPolyline
 90
        9
 70
   128
 43
0.0
 10
11.78941330571791
 20
511.3183028383798
 10
11.79014137802985
 20
511.3178958233032
 10
11.79091248965863
 20
511.3175057089654
 10
11.79172008271964
 20
511.3171358130767
 10
11.79255728907357
 20
511.3167892813999
 10
11.79341698873615
 20
511.3164690609985
 10
11.79429187042976
 20
511.3161778751726
 10
11.7951744937619
 20
511.3159182002992
 10
11.79605735250162
 20
511.3156922447717
  0
ARC
  5
890
330
23
100
AcDbEntity
  8
sanindusa
100
AcDbCircle
 10
11.68967953714919
 20
511.3207987341362
 30
0.0
 40
0.0997649943043465
100
AcDbArc
 50
358.5664389031526
 51
11.47100637157194
  0
LWPOLYLINE
  5
894
330
23
100
AcDbEntity
  8
sanindusa
100
AcDbPolyline
 90
        9
 70
   128
 43
0.0
 10
11.61378071499737
 20
511.1088278972072
 10
11.65123202852218
 20
511.1088278972603
 10
11.68867343703532
 20
511.1088278980395
 10
11.72615692687648
 20
511.1088278995481
 10
11.76359576614489
 20
511.1088279017844
 10
11.80368968624119
 20
511.1088279049915
 10
11.8437121981961
 20
511.1088279090355
 10
11.88359927108272
 20
511.1088279139103
 10
11.92337218711399
 20
511.1088279196182
  0
ARC
  5
899
330
23
100
AcDbEntity
  8
sanindusa
100
AcDbCircle
 10
15.77117098749239
 20
512.3085938419719
 30
0.0
 40
4.110099067935509
100
AcDbArc
 50
191.3945179808006
 51
194.2546745471579
  0
LWPOLYLINE
  5
89A
330
23
100
AcDbEntity
  8
sanindusa
100
AcDbPolyline
 90
        7
 70
   128
 43
0.0
 10
11.78761848414625
 20
511.2965544152058
 10
11.79602476665273
 20
511.2963435222428
 10
11.81198344702478
 20
511.2959185983076
 10
11.8403488196802
 20
511.2951467369954
 10
11.8686532479624
 20
511.2943602047763
 10
11.89621699038768
 20
511.2935837779414
 10
11.92370893115196
 20
511.2928035077062
  0
ARC
  5
89E
330
23
100
AcDbEntity
  8
sanindusa
100
AcDbCircle
 10
10.47544198454916
 20
511.4157920405774
 30
0.0
 40
1.317582929989252
100
AcDbArc
 50
354.8077861243393
 51
355.7567535546372
  0
LINE
  5
8A3
330
23
100
AcDbEntity
  8
sanindusa
100
AcDbLine
 10
11.61267438013265
 20
511.1088278973515
 30
0.0
 11
11.61378071499737
 21
511.1088278972072
 31
0.0
  0
LINE
  5
8A5
330
23
100
AcDbEntity
  8
sanindusa
100
AcDbLine
 10
11.5961456212157
 20
511.1088279016391
 30
0.0
 11
11.61267438013265
 21
511.1088278973515
 31
0.0
  0
LWPOLYLINE
  5
8A7
330
23
100
AcDbEntity
  8
sanindusa
100
AcDbPolyline
 90
        3
 70
   128
 43
0.0
 10
11.74108113235599
 20
511.5082946885022
 10
11.70116146796692
 20
511.5073148880163
 10
11.68255731523042
 20
511.5069558176109
  0
ARC
  5
8AB
330
23
100
AcDbEntity
  8
sanindusa
100
AcDbCircle
 10
11.59396421338116
 20
511.1108279042789
 30
0.0
 40
0.0020000000000012
100
AcDbArc
 50
180.0
 51
270.0000000002035
  0
LWPOLYLINE
  5
8AC
330
23
100
AcDbEntity
  8
sanindusa
100
AcDbPolyline
 90
        5
 70
   128
 43
0.0
 10
11.59396421338116
 20
511.1088279042789
 10
11.59408836462156
 20
511.1088279034977
 10
11.59453046098656
 20
511.1088279026746
 10
11.59524049296546
 20
511.1088279020332
 10
11.5961456212157
 20
511.1088279016391
  0
LWPOLYLINE
  5
8AE
330
23
100
AcDbEntity
  8
sanindusa
100
AcDbPolyline
 90
        9
 70
   128
 43
0.0
 10
11.74108113235599
 20
511.5082946885022
 10
11.74169288131313
 20
511.508242923784
 10
11.74229537135727
 20
511.5081197831037
 10
11.74287948371048
 20
511.5079271302143
 10
11.74343637774396
 20
511.5076678809464
 10
11.74395762478227
 20
511.5073459590769
 10
11.74443533567266
 20
511.5069662369419
 10
11.74487663808323
 20
511.5066960659221
 10
11.74536086161063
 20
511.506439304651
  0
LWPOLYLINE
  5
8B0
330
23
100
AcDbEntity
  8
sanindusa
100
AcDbPolyline
 90
       11
 70
   128
 43
0.0
 10
11.68255731523042
 20
511.5069558176109
 10
11.68728989499035
 20
511.5102790289702
 10
11.69123545623437
 20
511.5134059597519
 10
11.69435351247109
 20
511.5162110189344
 10
11.69680364569074
 20
511.5187409335597
 10
11.69865548022907
 20
511.5209813134911
 10
11.69996071732261
 20
511.5228889023641
 10
11.70080932302847
 20
511.5244529792225
 10
11.7012978299717
 20
511.5256556954812
 10
11.70158231672372
 20
511.5267064197376
 10
11.70164307233383
 20
511.5270605479148
  0
LINE
  5
8B1
330
23
100
AcDbEntity
  8
sanindusa
100
AcDbLine
 10
11.70164307233383
 20
511.5270605479148
 30
0.0
 11
11.69956781157644
 21
511.5272111098038
 31
0.0
  0
LINE
  5
8B3
330
23
100
AcDbEntity
  8
sanindusa
100
AcDbLine
 10
11.71987773697472
 20
511.5270605479148
 30
0.0
 11
11.70164307233383
 21
511.5270605479148
 31
0.0
  0
LWPOLYLINE
  5
8B8
330
23
100
AcDbEntity
  8
sanindusa
100
AcDbPolyline
 90
        4
 70
   128
 43
0.0
 10
11.92370902415071
 20
511.2928090228668
 10
11.95638870761437
 20
511.2925775677689
 10
11.98901014697407
 20
511.2923040340589
 10
11.98901019089187
 20
511.2923040336623
  0
ARC
  5
8B9
330
23
100
AcDbEntity
  8
sanindusa
100
AcDbCircle
 10
11.71986506627841
 20
511.522025667373
 30
0.0
 40
0.0050348964852036
100
AcDbArc
 50
50.78926958640629
 51
89.85581070224055
  0
LWPOLYLINE
  5
8BC
330
23
100
AcDbEntity
  8
sanindusa
100
AcDbPolyline
 90
        9
 70
   128
 43
0.0
 10
11.92337218711204
 20
511.1088279196182
 10
11.93143252699288
 20
511.1088279208781
 10
11.93948622760528
 20
511.108827922172
 10
11.94753311157926
 20
511.1088279235
 10
11.95557300169495
 20
511.1088279248622
 10
11.9636057208865
 20
511.1088279262584
 10
11.97163109224604
 20
511.1088279276885
 10
11.97964893902745
 20
511.1088279291528
 10
11.98765908465039
 20
511.1088279306509
  0
ARC
  5
8C0
330
23
100
AcDbEntity
  8
sanindusa
100
AcDbCircle
 10
11.83138289810324
 20
507.9134155663647
 30
0.0
 40
3.382555191466754
100
AcDbArc
 50
86.03703562560811
 51
87.3290458936484
  0
ARC
  5
8C1
330
23
100
AcDbEntity
  8
sanindusa
100
AcDbCircle
 10
12.1101499687655
 20
511.2886681954482
 30
0.0
 40
0.0449999870469862
100
AcDbArc
 50
142.4723180822609
 51
180.9999987981309
  0
ARC
  5
8C3
330
23
100
AcDbEntity
  8
sanindusa
100
AcDbCircle
 10
12.06624703511922
 20
511.1108280175066
 30
0.0
 40
0.0020000002924572
100
AcDbArc
 50
270.0538435079034
 51
0.9999915146199322
  0
LWPOLYLINE
  5
8C5
330
23
100
AcDbEntity
  8
sanindusa
100
AcDbPolyline
 90
       23
 70
   128
 43
0.0
 10
11.98765908465039
 20
511.1088279306509
 10
11.99360034710861
 20
511.1088279319063
 10
11.99944345139804
 20
511.1088279334932
 10
12.00516571195901
 20
511.1088279354055
 10
12.01074491240157
 20
511.1088279376358
 10
12.01615939175953
 20
511.1088279401753
 10
12.02138812858803
 20
511.1088279430143
 10
12.02641082257831
 20
511.1088279461417
 10
12.03120797337258
 20
511.1088279495453
 10
12.03576095627321
 20
511.1088279532119
 10
12.0400520945522
 20
511.1088279571275
 10
12.04406472808016
 20
511.1088279612765
 10
12.04778327800845
 20
511.1088279656432
 10
12.05119330725328
 20
511.1088279702103
 10
12.05428157654694
 20
511.1088279749603
 10
12.05703609583862
 20
511.1088279798747
 10
12.05944617084517
 20
511.1088279849343
 10
12.06150244457112
 20
511.1088279901196
 10
12.06319693363676
 20
511.1088279954104
 10
12.06452305927317
 20
511.1088280007862
 10
12.065475672864
 20
511.1088280062261
 10
12.06605107593473
 20
511.108828011709
 10
12.06624703451176
 20
511.1088280172136
  0
LINE
  5
8C6
330
23
100
AcDbEntity
  8
sanindusa
100
AcDbLine
 10
12.06515683541804
 20
511.2878828383279
 30
0.0
 11
12.06824673080616
 21
511.1108629220264
 31
0.0
  0
LINE
  5
8C7
330
23
100
AcDbEntity
  8
sanindusa
100
AcDbLine
 10
11.56323007811655
 20
511.4676448439587
 30
0.0
 11
11.59196421338116
 21
511.4663309971285
 31
0.0
  0
LINE
  5
8CA
330
23
100
AcDbEntity
  8
sanindusa
100
AcDbLine
 10
11.530653452309
 20
511.5076402235489
 30
0.0
 11
11.53461875801214
 21
511.484670503577
 31
0.0
  0
LINE
  5
8CB
330
23
100
AcDbEntity
  8
sanindusa
100
AcDbLine
 10
11.55341370968217
 20
511.4680936900588
 30
0.0
 11
11.56323007811655
 21
511.4676448439587
 31
0.0
  0
ARC
  5
8CC
330
23
100
AcDbEntity
  8
sanindusa
100
AcDbCircle
 10
11.55432724025025
 20
511.4880728157128
 30
0.0
 40
0.0200000000000002
100
AcDbArc
 50
189.79454074634
 51
267.382016824924
  0
ARC
  5
8DA
330
23
100
AcDbEntity
  8
sanindusa
100
AcDbCircle
 10
11.4540146303321
 20
512.3449609043173
 30
0.0
 40
0.3651392974318207
100
AcDbArc
 50
284.4222849666502
 51
289.9159063306584
  0
ARC
  5
8E0
330
23
100
AcDbEntity
  8
sanindusa
100
AcDbCircle
 10
11.5521526576977
 20
512.2529574638287
 30
0.0
 40
0.7341249884383189
100
AcDbArc
 50
278.7898171867079
 51
280.7298496445205
  0
LWPOLYLINE
  5
8E1
330
23
100
AcDbEntity
  8
sanindusa
100
AcDbPolyline
 90
        9
 70
   128
 43
0.0
 10
11.74687817162038
 20
511.5047614451225
 10
11.74690017850978
 20
511.50472715942
 10
11.74682498435297
 20
511.5043752163632
 10
11.74650705445704
 20
511.5036825980959
 10
11.74596016617439
 20
511.5026793189266
 10
11.74520801866856
 20
511.5014088555173
 10
11.74428320592136
 20
511.4999262628419
 10
11.74322580428703
 20
511.4982957884028
 10
11.74208163580096
 20
511.4965880880938
  0
ARC
  5
8E8
330
23
100
AcDbEntity
  8
sanindusa
100
AcDbCircle
 10
10.18279358999704
 20
512.0568577399774
 30
0.0
 40
0.3084829586863
100
AcDbArc
 50
270.133277031283
 51
305.8270375713511
  0
ARC
  5
8E9
330
23
100
AcDbEntity
  8
sanindusa
100
AcDbCircle
 10
10.18422898534756
 20
512.0568583567241
 30
0.0
 40
0.3084835760315574
100
AcDbArc
 50
234.1729793364704
 51
269.866675311157
  0
LINE
  5
8EA
330
23
100
AcDbEntity
  8
sanindusa
100
AcDbLine
 10
10.02961794973519
 20
511.9212203931382
 30
0.0
 11
9.999847648715626
 21
511.8176844468827
 31
0.0
  0
LINE
  5
8EB
330
23
100
AcDbEntity
  8
sanindusa
100
AcDbLine
 10
10.36717469396
 20
511.8176844860072
 30
0.0
 11
10.33740438883959
 21
511.9212203962673
 31
0.0
  0
LWPOLYLINE
  5
8EC
330
23
100
AcDbEntity
  8
sanindusa
100
AcDbPolyline
 90
        3
 70
   128
 43
0.0
 10
10.3374078755822
 20
511.9212219506236
 10
10.33673337822866
 20
511.9235930501151
 10
10.33670353993326
 20
511.9237165703519
  0
LWPOLYLINE
  5
8ED
330
23
100
AcDbEntity
  8
sanindusa
100
AcDbPolyline
 90
        3
 70
   128
 43
0.0
 10
10.03031972091974
 20
511.9237217965184
 10
10.02994423656979
 20
511.9223269937052
 10
10.02961681627668
 20
511.9212195305381
  0
ARC
  5
8EE
330
23
100
AcDbEntity
  8
sanindusa
100
AcDbCircle
 10
10.0400008535866
 20
511.9212103219701
 30
0.0
 40
0.01
100
AcDbArc
 50
90.00000302117074
 51
165.4531119131958
  0
LWPOLYLINE
  5
8EF
330
23
100
AcDbEntity
  8
sanindusa
100
AcDbPolyline
 90
        9
 70
   128
 43
0.0
 10
10.32708911083583
 20
511.9312100838069
 10
10.32871900103492
 20
511.9310649510246
 10
10.3303034011638
 20
511.9306559497701
 10
10.33179988717597
 20
511.9299940314994
 10
10.33316838902153
 20
511.929096919798
 10
10.33437226356667
 20
511.9279886358133
 10
10.33537927575359
 20
511.9266988550609
 10
10.3361624617295
 20
511.9252621128317
 10
10.33670085083321
 20
511.92371687947
  0
ARC
  5
8F0
330
23
100
AcDbEntity
  8
sanindusa
100
AcDbCircle
 10
10.0093975137848
 20
511.8150140074744
 30
0.0
 40
0.0099129458062097
100
AcDbArc
 50
164.4004364209889
 51
235.2657602197806
  0
ARC
  5
8F1
330
23
100
AcDbEntity
  8
sanindusa
100
AcDbCircle
 10
10.35762233186758
 20
511.8149323969391
 30
0.0
 40
0.0099216633259695
100
AcDbArc
 50
304.9946012986169
 51
16.0686533456889
  0
ARC
  5
8F4
330
23
100
AcDbEntity
  8
sanindusa
100
AcDbCircle
 10
10.03191189098357
 20
511.7700925201442
 30
0.0
 40
0.018227070594369
100
AcDbArc
 50
15.54394751951496
 51
36.49382576415607
  0
ARC
  5
8F5
330
23
100
AcDbEntity
  8
sanindusa
100
AcDbCircle
 10
10.33503483855717
 20
511.7700934128762
 30
0.0
 40
0.0181589902742859
100
AcDbArc
 50
143.3229409792813
 51
164.2519819892964
  0
ARC
  5
8F6
330
23
100
AcDbEntity
  8
sanindusa
100
AcDbCircle
 10
10.18424010732553
 20
511.430278662359
 30
0.0
 40
0.1704862571732836
100
AcDbArc
 50
189.80346993827
 51
269.7544769231155
  0
ARC
  5
8F7
330
23
100
AcDbEntity
  8
sanindusa
100
AcDbCircle
 10
10.18277549713708
 20
511.4302562882216
 30
0.0
 40
0.1704684074639706
100
AcDbArc
 50
270.2476303339802
 51
350.2043145367721
  0
ARC
  5
8F8
330
23
100
AcDbEntity
  8
sanindusa
100
AcDbCircle
 10
10.18180124596562
 20
511.2664329090767
 30
0.0
 40
0.4400833924341843
100
AcDbArc
 50
107.6979918560363
 51
114.3954502271828
  0
ARC
  5
8F9
330
23
100
AcDbEntity
  8
sanindusa
100
AcDbCircle
 10
10.187534963128
 20
511.2727410971571
 30
0.0
 40
0.4333676098619214
100
AcDbArc
 50
65.53864769087837
 51
72.33969717387821
  0
ARC
  5
8FA
330
23
100
AcDbEntity
  8
sanindusa
100
AcDbCircle
 10
12.83054228604184
 20
511.7718313960158
 30
0.0
 40
2.838574149068928
100
AcDbArc
 50
182.3042139072977
 51
187.1859158609435
  0
ARC
  5
8FB
330
23
100
AcDbEntity
  8
sanindusa
100
AcDbCircle
 10
7.530162554194531
 20
511.7723713641361
 30
0.0
 40
2.844902364375646
100
AcDbArc
 50
352.81921468975
 51
357.6900369465543
  0
ARC
  5
8FC
330
23
100
AcDbEntity
  8
sanindusa
100
AcDbCircle
 10
10.0450612486283
 20
511.6950984111713
 30
0.0
 40
0.0098199846492867
100
AcDbArc
 50
287.4042160305965
 51
342.0726153469285
  0
ARC
  5
8FD
330
23
100
AcDbEntity
  8
sanindusa
100
AcDbCircle
 10
10.32194676216727
 20
511.6951115283548
 30
0.0
 40
0.009819971458503
100
AcDbArc
 50
198.0153866388375
 51
252.6793337913572
  0
ARC
  5
8FE
330
23
100
AcDbEntity
  8
sanindusa
100
AcDbCircle
 10
10.32347304135772
 20
511.6957404496277
 30
0.0
 40
0.0114780813185398
100
AcDbArc
 50
176.8461860725557
 51
198.6583338540396
  0
ARC
  5
8FF
330
23
100
AcDbEntity
  8
sanindusa
100
AcDbCircle
 10
10.04378470163175
 20
511.6956898475203
 30
0.0
 40
0.0112454448244364
100
AcDbArc
 50
341.195875257463
 51
3.211141434186185
  0
LINE
  5
900
330
23
100
AcDbEntity
  8
sanindusa
100
AcDbLine
 10
10.35078562383286
 20
511.4012493061833
 30
0.0
 11
10.3527504530002
 21
511.4167569696095
 31
0.0
  0
LINE
  5
901
330
23
100
AcDbEntity
  8
sanindusa
100
AcDbLine
 10
10.01427111896483
 20
511.4167567238355
 30
0.0
 11
10.01625965495288
 21
511.4012521519193
 31
0.0
  0
ARC
  5
902
330
23
100
AcDbEntity
  8
sanindusa
100
AcDbCircle
 10
10.36286377198443
 20
511.6581167896026
 30
0.0
 40
0.01
100
AcDbArc
 50
357.6212104419077
 51
65.62458922376419
  0
ARC
  5
903
330
23
100
AcDbEntity
  8
sanindusa
100
AcDbCircle
 10
10.00415936532318
 20
511.6581167896026
 30
0.0
 40
0.01
100
AcDbArc
 50
114.3754107762358
 51
182.3787895580923
  0
ARC
  5
918
330
23
100
AcDbEntity
  8
sanindusa
100
AcDbCircle
 10
10.19385599189162
 20
511.869572002607
 30
0.0
 40
0.0431810563539461
100
AcDbArc
 50
229.4774850726773
 51
252.4936406304007
  0
ARC
  5
91B
330
23
100
AcDbEntity
  8
sanindusa
100
AcDbCircle
 10
10.17173720727809
 20
511.872150165841
 30
0.0
 40
0.046073707948524
100
AcDbArc
 50
288.2378171131658
 51
309.7910571838551
  0
ARC
  5
91C
330
23
100
AcDbEntity
  8
sanindusa
100
AcDbCircle
 10
10.18351157387281
 20
511.85971032197
 30
0.0
 40
0.0289999999999956
100
AcDbArc
 50
307.6452134752192
 51
232.3547865247808
  0
LINE
  5
91D
330
23
100
AcDbEntity
  8
sanindusa
100
AcDbLine
 10
10.18086662697083
 20
511.8283909386723
 30
0.0
 11
10.18615652077479
 21
511.8283909386723
 31
0.0
  0
CIRCLE
  5
924
330
23
100
AcDbEntity
  8
sanindusa
100
AcDbCircle
 10
10.18351157297023
 20
511.85971032197
 30
0.0
 40
0.025
  0
LINE
  5
92A
330
23
100
AcDbEntity
  8
sanindusa
100
AcDbLine
 10
10.07727301598061
 20
511.9312103219701
 30
0.0
 11
10.28975009718333
 21
511.9312103219701
 31
0.0
  0
LINE
  5
92D
330
23
100
AcDbEntity
  8
sanindusa
100
AcDbLine
 10
10.30940497980191
 20
511.8474785203538
 30
0.0
 11
10.31437862520585
 21
511.8496320145706
 31
0.0
  0
LWPOLYLINE
  5
92F
330
23
100
AcDbEntity
  8
sanindusa
100
AcDbPolyline
 90
       13
 70
   128
 43
0.0
 10
10.3159445623195
 20
511.8381209033656
 10
10.308076321897
 20
511.8345938400715
 10
10.30000412198971
 20
511.8312480309091
 10
10.29167901054757
 20
511.8280859702958
 10
10.2831542042773
 20
511.8251479580759
 10
10.27424697106916
 20
511.8223974188076
 10
10.2651503592551
 20
511.8199159109841
 10
10.25579816971449
 20
511.8176996321649
 10
10.24628553301136
 20
511.8157788036931
 10
10.23111770330298
 20
511.8133742075291
 10
10.21560218707929
 20
511.8116879469701
 10
10.19964439480983
 20
511.8106917473451
 10
10.18351156865381
 20
511.8103690038116
  0
LWPOLYLINE
  5
931
330
23
100
AcDbEntity
  8
sanindusa
100
AcDbPolyline
 90
       13
 70
   128
 43
0.0
 10
10.30843301886092
 20
511.8469372399106
 10
10.29794496395105
 20
511.8426858097541
 10
10.29023429235025
 20
511.8398518754581
 10
10.28234688600632
 20
511.8372059196166
 10
10.27423505742757
 20
511.8347477304116
 10
10.26595817904074
 20
511.8325065691556
 10
10.25758799081669
 20
511.8305066076248
 10
10.24906164890776
 20
511.8287361369819
 10
10.2371807159182
 20
511.8266977974094
 10
10.22510827579336
 20
511.8251056660639
 10
10.21270615888819
 20
511.82393909414
 10
10.20020146611388
 20
511.8232058008583
 10
10.18351263758016
 20
511.8228629882627
  0
LWPOLYLINE
  5
936
330
23
100
AcDbEntity
  8
sanindusa
100
AcDbPolyline
 90
       15
 70
   128
 43
0.0
 10
10.18351156865381
 20
511.8103690038116
 10
10.17611686169297
 20
511.8104360490871
 10
10.16131896401201
 20
511.8109868177107
 10
10.14648316524984
 20
511.8121442475091
 10
10.13168389399417
 20
511.8139653315995
 10
10.12435439948003
 20
511.815133780751
 10
10.11599437812995
 20
511.8166952581446
 10
10.10771386894755
 20
511.8184927301966
 10
10.09956206054926
 20
511.82051533754
 10
10.09144368789726
 20
511.8227883851518
 10
10.08347896536641
 20
511.8252757749655
 10
10.07557636151614
 20
511.8280018745974
 10
10.06784535293277
 20
511.8309210813024
 10
10.0602632253072
 20
511.8340292621048
 10
10.05107851063658
 20
511.8381209033662
  0
LINE
  5
938
330
23
100
AcDbEntity
  8
sanindusa
100
AcDbLine
 10
10.05264445881884
 20
511.8496320145712
 30
0.0
 11
10.0576181391706
 21
511.8474785077908
 31
0.0
  0
LWPOLYLINE
  5
93A
330
23
100
AcDbEntity
  8
sanindusa
100
AcDbPolyline
 90
       14
 70
   128
 43
0.0
 10
10.18351263758013
 20
511.8228629880411
 10
10.16767344263241
 20
511.8231711959514
 10
10.15908001422832
 20
511.823609065964
 10
10.1505263993838
 20
511.8242473447818
 10
10.14196923402083
 20
511.8250996715846
 10
10.13348380002424
 20
511.8261676322196
 10
10.12476128620763
 20
511.8275098331296
 10
10.11613374727915
 20
511.8290934584494
 10
10.10755626585513
 20
511.8309328864302
 10
10.09912454750944
 20
511.8330082259726
 10
10.09078941772079
 20
511.835329104518
 10
10.08262558887106
 20
511.8378693466731
 10
10.07040765238278
 20
511.8421793476691
 10
10.05859008800289
 20
511.846937239548
  0
LWPOLYLINE
  5
93B
330
23
100
AcDbEntity
  8
sanindusa
100
AcDbPolyline
 90
        3
 70
   128
 43
0.0
 10
10.33348865069315
 20
511.8266046245554
 10
10.32466897565678
 20
511.8324061761673
 10
10.3159445623195
 20
511.8381209033656
  0
ARC
  5
93C
330
23
100
AcDbEntity
  8
sanindusa
100
AcDbCircle
 10
7.612891884578834
 20
507.6978279364683
 30
0.0
 40
4.944536753213833
100
AcDbArc
 50
56.34220498716111
 51
56.61770194101597
  0
ARC
  5
93F
330
23
100
AcDbEntity
  8
sanindusa
100
AcDbCircle
 10
12.75645842771632
 20
507.6942638329091
 30
0.0
 40
4.948793425081973
100
AcDbArc
 50
123.3820932395595
 51
123.6573561372342
  0
LWPOLYLINE
  5
940
330
23
100
AcDbEntity
  8
sanindusa
100
AcDbPolyline
 90
        3
 70
   128
 43
0.0
 10
10.05107851063658
 20
511.8381209033662
 10
10.04235402807784
 20
511.8324061761676
 10
10.03353431599659
 20
511.8266046520998
  0
LINE
  5
941
330
23
100
AcDbEntity
  8
sanindusa
100
AcDbLine
 10
10.07120476650527
 20
511.9216920823671
 30
0.0
 11
10.05264445881884
 21
511.8496320145712
 31
0.0
  0
LWPOLYLINE
  5
942
330
23
100
AcDbEntity
  8
sanindusa
100
AcDbPolyline
 90
        3
 70
   128
 43
0.0
 10
10.07195069094728
 20
511.9246014727777
 10
10.07137657615362
 20
511.9223548280605
 10
10.07120476650527
 20
511.9216920823671
  0
LINE
  5
947
330
23
100
AcDbEntity
  8
sanindusa
100
AcDbLine
 10
10.29582232225406
 20
511.9216766795259
 30
0.0
 11
10.29507234840997
 21
511.9246014727827
 31
0.0
  0
LINE
  5
948
330
23
100
AcDbEntity
  8
sanindusa
100
AcDbLine
 10
10.31437862520585
 20
511.8496320145706
 30
0.0
 11
10.29582225224156
 21
511.9216766702189
 31
0.0
  0
LWPOLYLINE
  5
94B
330
23
100
AcDbEntity
  8
sanindusa
100
AcDbPolyline
 90
        9
 70
   128
 43
0.0
 10
10.05107851063658
 20
511.8381209033662
 10
10.0498559783936
 20
511.8391059613705
 10
10.04879413733517
 20
511.8402685035287
 10
10.04791936728185
 20
511.841579648255
 10
10.04725340056057
 20
511.8430068221599
 10
10.04681278209814
 20
511.8445145692856
 10
10.0466084583878
 20
511.8460654319559
 10
10.04664550554029
 20
511.8476208813546
 10
10.04692300317567
 20
511.8491422747154
  0
LWPOLYLINE
  5
94E
330
23
100
AcDbEntity
  8
sanindusa
100
AcDbPolyline
 90
        9
 70
   128
 43
0.0
 10
10.32010006846988
 20
511.8491422747148
 10
10.32037756665488
 20
511.847620881354
 10
10.32041461426245
 20
511.8460654319552
 10
10.32021029090132
 20
511.844514569285
 10
10.31976967267356
 20
511.8430068221592
 10
10.31910370606659
 20
511.8415796482545
 10
10.31822893600438
 20
511.8402685035282
 10
10.31716709481408
 20
511.8391059613699
 10
10.3159445623195
 20
511.8381209033656
  0
LINE
  5
94F
330
23
100
AcDbEntity
  8
sanindusa
100
AcDbLine
 10
10.04692300317567
 20
511.8491422747154
 30
0.0
 11
10.06516289639034
 21
511.9212103219766
 31
0.0
  0
LINE
  5
953
330
23
100
AcDbEntity
  8
sanindusa
100
AcDbLine
 10
10.30186013032678
 20
511.9212103522128
 30
0.0
 11
10.32010006846988
 21
511.8491422747148
 31
0.0
  0
LWPOLYLINE
  5
955
330
23
100
AcDbEntity
  8
sanindusa
100
AcDbPolyline
 90
        3
 70
   128
 43
0.0
 10
10.02939866702188
 20
511.8376800547119
 10
10.03820480917775
 20
511.8434572748647
 10
10.04692300317567
 20
511.8491422747154
  0
LWPOLYLINE
  5
957
330
23
100
AcDbEntity
  8
sanindusa
100
AcDbPolyline
 90
        3
 70
   128
 43
0.0
 10
10.32010006846988
 20
511.8491422747148
 10
10.32881819335325
 20
511.8434572748643
 10
10.33762429850348
 20
511.837680027264
  0
ARC
  5
95F
330
23
100
AcDbEntity
  8
sanindusa
100
AcDbCircle
 10
11.18106541296924
 20
510.0845272269922
 30
0.0
 40
2.09758936187779
100
AcDbArc
 50
123.3013831877189
 51
123.9487174765786
  0
ARC
  5
961
330
23
100
AcDbEntity
  8
sanindusa
100
AcDbCircle
 10
9.18578220206713
 20
510.0842851444937
 30
0.0
 40
2.09788794506471
100
AcDbArc
 50
56.0510084835516
 51
56.6982437892201
  0
LWPOLYLINE
  5
969
330
23
100
AcDbEntity
  8
sanindusa
100
AcDbPolyline
 90
        4
 70
   128
 43
0.0
 10
10.30114502743452
 20
511.9240577091696
 10
10.30126468404764
 20
511.9235750708948
 10
10.30174946760923
 20
511.921644581412
 10
10.30185815344084
 20
511.9212117404854
  0
LWPOLYLINE
  5
96A
330
23
100
AcDbEntity
  8
sanindusa
100
AcDbPolyline
 90
        3
 70
   128
 43
0.0
 10
10.06516452307583
 20
511.921210322123
 10
10.06532449225237
 20
511.9218476388819
 10
10.06587799620947
 20
511.9240576928531
  0
LWPOLYLINE
  5
96E
330
23
100
AcDbEntity
  8
sanindusa
100
AcDbPolyline
 90
        9
 70
   128
 43
0.0
 10
10.07530197230904
 20
511.9312103219701
 10
10.07475869271819
 20
511.9310933488046
 10
10.07422812295402
 20
511.9307451658527
 10
10.0737226755015
 20
511.9301739187266
 10
10.07325417511832
 20
511.9293929715433
 10
10.07283358219904
 20
511.9284205942756
 10
10.07247073636069
 20
511.9272795353329
 10
10.07217412624852
 20
511.9259964893704
 10
10.07195069094728
 20
511.9246014727777
  0
LINE
  5
96F
330
23
100
AcDbEntity
  8
sanindusa
100
AcDbLine
 10
10.07530197230904
 20
511.9312103219701
 30
0.0
 11
10.07575554624464
 21
511.9312103219701
 31
0.0
  0
LINE
  5
971
330
23
100
AcDbEntity
  8
sanindusa
100
AcDbLine
 10
10.29126756476935
 20
511.9312103219701
 30
0.0
 11
10.29172105136715
 21
511.9312103219701
 31
0.0
  0
LWPOLYLINE
  5
972
330
23
100
AcDbEntity
  8
sanindusa
100
AcDbPolyline
 90
        9
 70
   128
 43
0.0
 10
10.06587799620947
 20
511.9240576928531
 10
10.06644543465565
 20
511.925550882147
 10
10.06723984591687
 20
511.9269328328054
 10
10.06824087104846
 20
511.9281681285922
 10
10.06942285606451
 20
511.9292251117
 10
10.07075550939094
 20
511.9300766940678
 10
10.07220467816928
 20
511.9307010515863
 10
10.07373322351637
 20
511.9310821833995
 10
10.07530197230904
 20
511.9312103219701
  0
LWPOLYLINE
  5
973
330
23
100
AcDbEntity
  8
sanindusa
100
AcDbPolyline
 90
        9
 70
   128
 43
0.0
 10
10.29172105136715
 20
511.9312103219701
 10
10.29328979888273
 20
511.9310821837389
 10
10.29481834309199
 20
511.9307010529269
 10
10.29626751100469
 20
511.9300766970197
 10
10.29760016385828
 20
511.9292251167895
 10
10.29878214889688
 20
511.928168136233
 10
10.2997831746261
 20
511.9269328432744
 10
10.3005775871127
 20
511.9255508955642
 10
10.30114502743452
 20
511.9240577091696
  0
LINE
  5
976
330
23
100
AcDbEntity
  8
sanindusa
100
AcDbLine
 10
10.07530197230904
 20
511.9312103219701
 30
0.0
 11
10.04004721475698
 21
511.9312103219701
 31
0.0
  0
LINE
  5
977
330
23
100
AcDbEntity
  8
sanindusa
100
AcDbLine
 10
10.29172105136715
 20
511.9312103219701
 30
0.0
 11
10.3269363588405
 21
511.9312103219701
 31
0.0
  0
LINE
  5
97A
330
23
100
AcDbEntity
  8
sanindusa
100
AcDbLine
 10
10.07576579856559
 20
511.9312103219701
 30
0.0
 11
10.07727301535384
 21
511.9312103219701
 31
0.0
  0
LINE
  5
97B
330
23
100
AcDbEntity
  8
sanindusa
100
AcDbLine
 10
10.28975009718333
 20
511.9312103219701
 30
0.0
 11
10.29125731142516
 21
511.9312103219701
 31
0.0
  0
ARC
  5
980
330
23
100
AcDbEntity
  8
sanindusa
100
AcDbCircle
 10
10.1837200555944
 20
511.3701028884624
 30
0.0
 40
0.3443643433901611
100
AcDbArc
 50
90.03468832573586
 51
108.652458492876
  0
ARC
  5
982
330
23
100
AcDbEntity
  8
sanindusa
100
AcDbCircle
 10
10.18360684502813
 20
511.2662350353224
 30
0.0
 40
0.4439929941915544
100
AcDbArc
 50
90.01229509078406
 51
104.3476740079933
  0
ARC
  5
986
330
23
100
AcDbEntity
  8
sanindusa
100
AcDbCircle
 10
10.18330308171322
 20
511.3701028884624
 30
0.0
 40
0.344364343390161
100
AcDbArc
 50
71.34754150712393
 51
89.96531167426416
  0
ARC
  5
987
330
23
100
AcDbEntity
  8
sanindusa
100
AcDbCircle
 10
10.18341629227948
 20
511.2662350353224
 30
0.0
 40
0.4439929941915544
100
AcDbArc
 50
75.65232599200666
 51
89.98770490921591
  0
LWPOLYLINE
  5
98A
330
23
100
AcDbEntity
  8
sanindusa
100
AcDbPolyline
 90
       11
 70
   128
 43
0.0
 10
10.05777159821472
 20
511.7566172201208
 10
10.06839888327305
 20
511.7518846403608
 10
10.07948012495831
 20
511.7479390791168
 10
10.09062607987919
 20
511.7448210228801
 10
10.102056394722
 20
511.7423708896605
 10
10.11379883076202
 20
511.7405190551221
 10
10.12571087539805
 20
511.7392138180286
 10
10.13778935846033
 20
511.7383652123227
 10
10.149952045327
 20
511.7378767053795
 10
10.16669951428378
 20
511.7375922186275
 10
10.18351156865381
 20
511.7375314630173
  0
LWPOLYLINE
  5
98C
330
23
100
AcDbEntity
  8
sanindusa
100
AcDbPolyline
 90
       11
 70
   128
 43
0.0
 10
10.3092515390929
 20
511.7566172201208
 10
10.29859215171297
 20
511.7518725389198
 10
10.28754301234931
 20
511.7479390791168
 10
10.27630045178548
 20
511.7448022884012
 10
10.26479821643213
 20
511.7423488789788
 10
10.25311069142744
 20
511.7405092543534
 10
10.24131226190957
 20
511.7392138180286
 10
10.22922291356397
 20
511.7383649377962
 10
10.21707109198061
 20
511.7378767053795
 10
10.20030759855223
 20
511.7375859029296
 10
10.18351156865381
 20
511.7375314630173
  0
LWPOLYLINE
  5
98F
330
23
100
AcDbEntity
  8
sanindusa
100
AcDbPolyline
 90
        7
 70
   128
 43
0.0
 10
10.0502160661448
 20
511.7703143337171
 10
10.05050257323674
 20
511.7692884441047
 10
10.05079189545225
 20
511.7685839452438
 10
10.05145678566733
 20
511.7671633297393
 10
10.05227938796071
 20
511.765568147766
 10
10.05468253443868
 20
511.7613794008575
 10
10.05769481666605
 20
511.7567286345957
  0
LWPOLYLINE
  5
990
330
23
100
AcDbEntity
  8
sanindusa
100
AcDbPolyline
 90
        3
 70
   128
 43
0.0
 10
10.04944873198947
 20
511.7749778857907
 10
10.04993448469001
 20
511.7728877862664
 10
10.05015882878733
 20
511.771184540536
  0
LWPOLYLINE
  5
991
330
23
100
AcDbEntity
  8
sanindusa
100
AcDbPolyline
 90
        3
 70
   128
 43
0.0
 10
10.31758720953879
 20
511.7750218198215
 10
10.31708865261761
 20
511.7728877862664
 10
10.31686335679865
 20
511.7711736768643
  0
LWPOLYLINE
  5
992
330
23
100
AcDbEntity
  8
sanindusa
100
AcDbPolyline
 90
        7
 70
   128
 43
0.0
 10
10.31680707116281
 20
511.7703143337171
 10
10.31652056407087
 20
511.7692884441047
 10
10.31623124185536
 20
511.7685839452438
 10
10.31556635164029
 20
511.7671633297393
 10
10.31474374934691
 20
511.765568147766
 10
10.31234060286893
 20
511.7613794008575
 10
10.30932832064156
 20
511.7567286345957
  0
ARC
  5
9C0
330
23
100
AcDbEntity
  8
sanindusa
100
AcDbCircle
 10
10.18350301570189
 20
511.4647835244327
 30
0.0
 40
0.1698982261556671
100
AcDbArc
 50
54.69570519638448
 51
89.99711563760168
  0
ARC
  5
9C2
330
23
100
AcDbEntity
  8
sanindusa
100
AcDbCircle
 10
10.18352012160573
 20
511.4647835244327
 30
0.0
 40
0.1698982261556705
100
AcDbArc
 50
90.00288436239832
 51
125.3042948036155
  0
LINE
  5
9C5
330
23
100
AcDbEntity
  8
sanindusa
100
AcDbLine
 10
10.06690617500102
 20
511.6942171761478
 30
0.0
 11
10.0735830658633
 21
511.6963798329306
 31
0.0
  0
LINE
  5
9C7
330
23
100
AcDbEntity
  8
sanindusa
100
AcDbLine
 10
10.3001169623066
 20
511.6942171761478
 30
0.0
 11
10.29344007144431
 21
511.6963798329306
 31
0.0
  0
ARC
  5
9C8
330
23
100
AcDbEntity
  8
sanindusa
100
AcDbCircle
 10
10.18436250067716
 20
511.4301318600129
 30
0.0
 40
0.1153167337761594
100
AcDbArc
 50
215.7175541643824
 51
255.2732144854242
  0
ARC
  5
9CC
330
23
100
AcDbEntity
  8
sanindusa
100
AcDbCircle
 10
10.18266063663045
 20
511.4301318600129
 30
0.0
 40
0.1153167337761577
100
AcDbArc
 50
284.7267855145758
 51
324.2824458356176
  0
LWPOLYLINE
  5
9CF
330
23
100
AcDbEntity
  8
sanindusa
100
AcDbPolyline
 90
        8
 70
   128
 43
0.0
 10
10.28036747170751
 20
511.368867976171
 10
10.28415806702425
 20
511.3753439981659
 10
10.28753642987001
 20
511.3820793400956
 10
10.29131297727328
 20
511.3912824998587
 10
10.29431044866451
 20
511.4008451777345
 10
10.29573213715181
 20
511.4069406656065
 10
10.2967483338361
 20
511.4131160618373
 10
10.29833454134904
 20
511.4256141400399
  0
LWPOLYLINE
  5
9D1
330
23
100
AcDbEntity
  8
sanindusa
100
AcDbPolyline
 90
        8
 70
   128
 43
0.0
 10
10.08665566560011
 20
511.368867976171
 10
10.08286507028336
 20
511.3753439981659
 10
10.0794867074376
 20
511.3820793400956
 10
10.07571016003433
 20
511.3912824998587
 10
10.0727126886431
 20
511.4008451777345
 10
10.07129100015581
 20
511.4069406656065
 10
10.07027480347152
 20
511.4131160618373
 10
10.06868859595858
 20
511.4256141400399
  0
LWPOLYLINE
  5
9D4
330
23
100
AcDbEntity
  8
sanindusa
100
AcDbPolyline
 90
        3
 70
   128
 43
0.0
 10
10.06226706838027
 20
511.6939425388911
 10
10.06370985886781
 20
511.6938130994917
 10
10.06690617500102
 20
511.6942171761478
  0
LWPOLYLINE
  5
9D6
330
23
100
AcDbEntity
  8
sanindusa
100
AcDbPolyline
 90
        3
 70
   128
 43
0.0
 10
10.30475606892735
 20
511.6939425388911
 10
10.30331327843981
 20
511.6938130994917
 10
10.3001169623066
 20
511.6942171761478
  0
LWPOLYLINE
  5
9D9
330
23
100
AcDbEntity
  8
sanindusa
100
AcDbPolyline
 90
        3
 70
   128
 43
0.0
 10
10.31680707116281
 20
511.7703143337171
 10
10.31504268696655
 20
511.7373845001316
 10
10.312248453735
 20
511.6996380440816
  0
LWPOLYLINE
  5
9DB
330
23
100
AcDbEntity
  8
sanindusa
100
AcDbPolyline
 90
        3
 70
   128
 43
0.0
 10
10.0502160661448
 20
511.7703143337171
 10
10.05198045034107
 20
511.7373845001316
 10
10.05477468357262
 20
511.6996380440816
  0
LWPOLYLINE
  5
9DC
330
23
100
AcDbEntity
  8
sanindusa
100
AcDbPolyline
 90
        7
 70
   128
 43
0.0
 10
10.312248453735
 20
511.6996380440816
 10
10.31224726729781
 20
511.6996258655986
 10
10.31201430763404
 20
511.6986669587887
 10
10.31066522306655
 20
511.6967165733154
 10
10.30853897027194
 20
511.6951928862408
 10
10.30601063555836
 20
511.694207853086
 10
10.30475606892735
 20
511.6939425388911
  0
LWPOLYLINE
  5
9DD
330
23
100
AcDbEntity
  8
sanindusa
100
AcDbPolyline
 90
        7
 70
   128
 43
0.0
 10
10.05477468357262
 20
511.6996380440816
 10
10.05477587000981
 20
511.6996258655986
 10
10.05500882967357
 20
511.6986669587887
 10
10.05635791424106
 20
511.6967165733154
 10
10.05848416703568
 20
511.6951928862408
 10
10.06101250174926
 20
511.694207853086
 10
10.06226706838027
 20
511.6939425388911
  0
LWPOLYLINE
  5
9E3
330
23
100
AcDbEntity
  8
sanindusa
100
AcDbPolyline
 90
       12
 70
   128
 43
0.0
 10
10.06224203022137
 20
511.4818751377519
 10
10.05890021534722
 20
511.5158110363468
 10
10.05596434579452
 20
511.5497893648138
 10
10.05568924165791
 20
511.5540042934718
 10
10.05567898365069
 20
511.5582238349102
 10
10.05605991793771
 20
511.5625221518636
 10
10.05680772344717
 20
511.5667720037036
 10
10.0579676159285
 20
511.5710844649466
 10
10.05950995645349
 20
511.5752755347411
 10
10.06149027433169
 20
511.5794470882882
 10
10.0638463375617
 20
511.5834182925747
 10
10.0638463705587
 20
511.5834183426866
  0
LWPOLYLINE
  5
9E7
330
23
100
AcDbEntity
  8
sanindusa
100
AcDbPolyline
 90
       12
 70
   128
 43
0.0
 10
10.30478110708625
 20
511.4818751377519
 10
10.30812292196039
 20
511.5158110363468
 10
10.3110587915131
 20
511.5497893648138
 10
10.3113338956497
 20
511.5540042934718
 10
10.31134415365693
 20
511.5582238349102
 10
10.31096321936991
 20
511.5625221518636
 10
10.31021541386044
 20
511.5667720037036
 10
10.30905552137912
 20
511.5710844649466
 10
10.30751318085413
 20
511.5752755347411
 10
10.30553286297592
 20
511.5794470882882
 10
10.30317679974592
 20
511.5834182925747
 10
10.30317676674892
 20
511.5834183426866
  0
LINE
  5
9EA
330
23
100
AcDbEntity
  8
sanindusa
100
AcDbLine
 10
10.05477468357262
 20
511.6996380440816
 30
0.0
 11
10.05497606217166
 21
511.6970928995502
 31
0.0
  0
LINE
  5
9EB
330
23
100
AcDbEntity
  8
sanindusa
100
AcDbLine
 10
10.312248453735
 20
511.6996380440816
 30
0.0
 11
10.31204707513595
 21
511.6970928995502
 31
0.0
  0
ARC
  5
9ED
330
23
100
AcDbEntity
  8
sanindusa
100
AcDbCircle
 10
10.26134898532791
 20
511.5558566207983
 30
0.0
 40
0.050092033418806
100
AcDbArc
 50
33.38222051623223
 51
50.34983606961761
  0
ARC
  5
9EF
330
23
100
AcDbEntity
  8
sanindusa
100
AcDbCircle
 10
10.10567415197974
 20
511.5558566207982
 30
0.0
 40
0.0500920334188553
100
AcDbArc
 50
129.6501639303824
 51
146.6177794837677
  0
ARC
  5
9F3
330
23
100
AcDbEntity
  8
sanindusa
100
AcDbCircle
 10
10.18355377988926
 20
511.4276481137497
 30
0.0
 40
0.11270909684882
100
AcDbArc
 50
255.3498535542116
 51
269.9785418767214
  0
ARC
  5
9F5
330
23
100
AcDbEntity
  8
sanindusa
100
AcDbCircle
 10
10.18346935741836
 20
511.4276481137497
 30
0.0
 40
0.1127090968488304
100
AcDbArc
 50
270.0214581232787
 51
284.6501464457884
  0
LINE
  5
9F6
330
23
100
AcDbEntity
  8
sanindusa
100
AcDbLine
 10
10.29331262917823
 20
511.5944252256971
 30
0.0
 11
10.28169039454446
 21
511.6034364937008
 31
0.0
  0
LINE
  5
9F7
330
23
100
AcDbEntity
  8
sanindusa
100
AcDbLine
 10
10.07371050812939
 20
511.5944252256971
 30
0.0
 11
10.08533274276315
 21
511.6034364937008
 31
0.0
  0
LWPOLYLINE
  5
9F8
330
23
100
AcDbEntity
  8
sanindusa
100
AcDbPolyline
 90
        3
 70
   128
 43
0.0
 10
10.29833454134904
 20
511.4256141400399
 10
10.30015100308836
 20
511.4405038018015
 10
10.30478110708625
 20
511.4818751377519
  0
LWPOLYLINE
  5
9F9
330
23
100
AcDbEntity
  8
sanindusa
100
AcDbPolyline
 90
        3
 70
   128
 43
0.0
 10
10.06868859595858
 20
511.4256141400399
 10
10.06687213421925
 20
511.4405038018015
 10
10.06224203022137
 20
511.4818751377519
  0
LINE
  5
9FC
330
23
100
AcDbEntity
  8
sanindusa
100
AcDbLine
 10
10.09073630200326
 20
511.3628111053329
 30
0.0
 11
10.08665566560011
 21
511.368867976171
 31
0.0
  0
LINE
  5
9FE
330
23
100
AcDbEntity
  8
sanindusa
100
AcDbLine
 10
10.27628683530435
 20
511.3628111053329
 30
0.0
 11
10.28036747170751
 21
511.368867976171
 31
0.0
  0
CIRCLE
  5
A00
330
23
100
AcDbEntity
  8
sanindusa
100
AcDbCircle
 10
10.2585115677512
 20
511.6860454845513
 30
0.0
 40
0.0074999999999969
  0
CIRCLE
  5
A01
330
23
100
AcDbEntity
  8
sanindusa
100
AcDbCircle
 10
10.10851156955641
 20
511.6860454845513
 30
0.0
 40
0.0074999999999969
  0
LWPOLYLINE
  5
A15
330
23
100
AcDbEntity
  8
sanindusa
100
AcDbPolyline
 90
       11
 70
   128
 43
0.0
 10
10.19448634466628
 20
511.4604724046792
 10
10.19925190813161
 20
511.4606338676134
 10
10.20402930486131
 20
511.4614161884061
 10
10.20960358022998
 20
511.4631976936768
 10
10.21496593039652
 20
511.4659756595383
 10
10.21962750533728
 20
511.4695282018642
 10
10.2237489289682
 20
511.4740079625506
 10
10.22702249388175
 20
511.4791610399977
 10
10.22942073707921
 20
511.4849897107846
 10
10.23078237772605
 20
511.4910864089053
 10
10.23114115071165
 20
511.4974244898769
  0
LWPOLYLINE
  5
A18
330
23
100
AcDbEntity
  8
sanindusa
100
AcDbPolyline
 90
       11
 70
   128
 43
0.0
 10
10.17253679264134
 20
511.4604724046792
 10
10.167771229176
 20
511.4606338676134
 10
10.1629938324463
 20
511.4614161884061
 10
10.15741955707763
 20
511.4631976936768
 10
10.1520572069111
 20
511.4659756595383
 10
10.14739563197033
 20
511.4695282018642
 10
10.14327420833942
 20
511.4740079625506
 10
10.14000064342586
 20
511.4791610399977
 10
10.13760240022841
 20
511.4849897107846
 10
10.13624075958157
 20
511.4910864089053
 10
10.13588198659596
 20
511.4974244898769
  0
LWPOLYLINE
  5
A1A
330
23
100
AcDbEntity
  8
sanindusa
100
AcDbPolyline
 90
        3
 70
   128
 43
0.0
 10
10.23114115071165
 20
511.4974244898769
 10
10.23107184778653
 20
511.5110493856317
 10
10.23104593224759
 20
511.5247224710803
  0
LWPOLYLINE
  5
A1D
330
23
100
AcDbEntity
  8
sanindusa
100
AcDbPolyline
 90
        3
 70
   128
 43
0.0
 10
10.13588198659596
 20
511.4974244898769
 10
10.13595128952109
 20
511.5110493856317
 10
10.13597720506002
 20
511.5247224710803
  0
LWPOLYLINE
  5
A1E
330
23
100
AcDbEntity
  8
sanindusa
100
AcDbPolyline
 90
        3
 70
   128
 43
0.0
 10
10.2310459322469
 20
511.5247224710802
 10
10.23107454008658
 20
511.5385370949425
 10
10.23117844840765
 20
511.5523547957256
  0
LWPOLYLINE
  5
A20
330
23
100
AcDbEntity
  8
sanindusa
100
AcDbPolyline
 90
        3
 70
   128
 43
0.0
 10
10.13597720506071
 20
511.5247224710802
 10
10.13594859722103
 20
511.5385370949425
 10
10.13584468889997
 20
511.5523547957256
  0
LWPOLYLINE
  5
A22
330
23
100
AcDbEntity
  8
sanindusa
100
AcDbPolyline
 90
       18
 70
   128
 43
0.0
 10
10.13584468889997
 20
511.5523547957256
 10
10.1359481151951
 20
511.5558223524526
 10
10.13649131940152
 20
511.5591076057167
 10
10.1373116314679
 20
511.5624500532327
 10
10.13833553370971
 20
511.5660537051052
 10
10.13954180269818
 20
511.5700863657168
 10
10.14093907929159
 20
511.5745623633021
 10
10.14261110135114
 20
511.5794564897843
 10
10.14312129283746
 20
511.5806984138615
 10
10.14373688496273
 20
511.581771446978
 10
10.14391703847071
 20
511.5819788339879
 10
10.14410959378672
 20
511.5821363979581
 10
10.14431235682844
 20
511.5822316273277
 10
10.14441688059572
 20
511.5822519566745
 10
10.14452313351354
 20
511.582252010536
 10
10.14474001904364
 20
511.5821899550422
 10
10.14496025324173
 20
511.5820548111615
 10
10.14539685904094
 20
511.5816168691316
  0
LWPOLYLINE
  5
A24
330
23
100
AcDbEntity
  8
sanindusa
100
AcDbPolyline
 90
       18
 70
   128
 43
0.0
 10
10.23117844840765
 20
511.5523547957256
 10
10.23107502211251
 20
511.5558223524526
 10
10.23053181790609
 20
511.5591076057167
 10
10.22971150583971
 20
511.5624500532327
 10
10.2286876035979
 20
511.5660537051052
 10
10.22748133460943
 20
511.5700863657168
 10
10.22608405801603
 20
511.5745623633021
 10
10.22441203595648
 20
511.5794564897843
 10
10.22390184447015
 20
511.5806984138615
 10
10.22328625234488
 20
511.581771446978
 10
10.22310609883691
 20
511.5819788339879
 10
10.22291354352089
 20
511.5821363979581
 10
10.22271078047917
 20
511.5822316273277
 10
10.2226062567119
 20
511.5822519566745
 10
10.22250000379407
 20
511.582252010536
 10
10.22228311826397
 20
511.5821899550422
 10
10.22206288406589
 20
511.5820548111615
 10
10.22162627826668
 20
511.5816168691316
  0
LWPOLYLINE
  5
A26
330
23
100
AcDbEntity
  8
sanindusa
100
AcDbPolyline
 90
        7
 70
   128
 43
0.0
 10
10.14539685904093
 20
511.5816168691316
 10
10.15206180375462
 20
511.5803793936574
 10
10.15890995576814
 20
511.5792155921916
 10
10.16607631782245
 20
511.5781994794016
 10
10.17342764575462
 20
511.5774486421858
 10
10.17844729895891
 20
511.5771497006082
 10
10.18351161152658
 20
511.5770458346197
  0
LWPOLYLINE
  5
A28
330
23
100
AcDbEntity
  8
sanindusa
100
AcDbPolyline
 90
        7
 70
   128
 43
0.0
 10
10.22162627826669
 20
511.5816168691316
 10
10.214961333553
 20
511.5803793936574
 10
10.20811318153948
 20
511.5792155921916
 10
10.20094681948517
 20
511.5781994794016
 10
10.193595491553
 20
511.5774486421858
 10
10.1885758383487
 20
511.5771497006082
 10
10.18351152578103
 20
511.5770458346197
  0
LWPOLYLINE
  5
A29
330
23
100
AcDbEntity
  8
sanindusa
100
AcDbPolyline
 90
       12
 70
   128
 43
0.0
 10
10.15881093293869
 20
511.5528913446036
 10
10.15881092814682
 20
511.5528913530495
 10
10.15566961589085
 20
511.558717035519
 10
10.15232251739183
 20
511.565549333152
 10
10.15134758160271
 20
511.5676579769703
 10
10.15090897580114
 20
511.5683579799934
 10
10.15025701322747
 20
511.5691729443335
 10
10.14940768276087
 20
511.5703213384368
 10
10.14819857797723
 20
511.5724899153006
 10
10.14702093338878
 20
511.5754475448347
 10
10.14616508767046
 20
511.5782946917661
 10
10.14539685904094
 20
511.5816168691316
  0
ARC
  5
A2A
330
23
100
AcDbEntity
  8
sanindusa
100
AcDbCircle
 10
10.15851884705638
 20
511.5373621895258
 30
0.0
 40
0.015531901737743
100
AcDbArc
 50
88.9224581024869
 51
179.7930636254764
  0
ARC
  5
A2B
330
23
100
AcDbEntity
  8
sanindusa
100
AcDbCircle
 10
10.30178016542454
 20
511.6225260926748
 30
0.0
 40
0.180162685606589
100
AcDbArc
 50
202.9226770824958
 51
208.1898213135769
  0
ARC
  5
A2C
330
23
100
AcDbEntity
  8
sanindusa
100
AcDbCircle
 10
10.20850429025124
 20
511.5373621895258
 30
0.0
 40
0.0155319017377418
100
AcDbArc
 50
0.2069363745235261
 51
91.07754189751309
  0
LWPOLYLINE
  5
A2D
330
23
100
AcDbEntity
  8
sanindusa
100
AcDbPolyline
 90
       12
 70
   128
 43
0.0
 10
10.20821220436892
 20
511.5528913446036
 10
10.20821220916079
 20
511.5528913530495
 10
10.21135352141677
 20
511.558717035519
 10
10.21470061991579
 20
511.565549333152
 10
10.21567555570491
 20
511.5676579769703
 10
10.21611416150648
 20
511.5683579799934
 10
10.21676612408014
 20
511.5691729443335
 10
10.21761545454675
 20
511.5703213384368
 10
10.21882455933038
 20
511.5724899153006
 10
10.22000220391884
 20
511.5754475448347
 10
10.22085804963716
 20
511.5782946917661
 10
10.22162627826668
 20
511.5816168691316
  0
ARC
  5
A2E
330
23
100
AcDbEntity
  8
sanindusa
100
AcDbCircle
 10
10.06524297188322
 20
511.6225260926747
 30
0.0
 40
0.1801626856064275
100
AcDbArc
 50
331.8101786864231
 51
337.0773229175041
  0
LINE
  5
A30
330
23
100
AcDbEntity
  8
sanindusa
100
AcDbLine
 10
10.18351161152658
 20
511.5528913446036
 30
0.0
 11
10.15881093293869
 21
511.5528913446036
 31
0.0
  0
LINE
  5
A31
330
23
100
AcDbEntity
  8
sanindusa
100
AcDbLine
 10
10.18351152578103
 20
511.5528913446036
 30
0.0
 11
10.20821220436892
 21
511.5528913446036
 31
0.0
  0
LINE
  5
A32
330
23
100
AcDbEntity
  8
sanindusa
100
AcDbLine
 10
10.18351155518872
 20
511.4605280266862
 30
0.0
 11
10.19448634466628
 21
511.4604724046792
 31
0.0
  0
LINE
  5
A34
330
23
100
AcDbEntity
  8
sanindusa
100
AcDbLine
 10
10.18351158211889
 20
511.4605280266862
 30
0.0
 11
10.17253679264134
 21
511.4604724081575
 31
0.0
  0
LINE
  5
A35
330
23
100
AcDbEntity
  8
sanindusa
100
AcDbLine
 10
10.14311338017927
 20
511.5142975456219
 30
0.0
 11
10.13588198659596
 21
511.4974244898769
 31
0.0
  0
LINE
  5
A36
330
23
100
AcDbEntity
  8
sanindusa
100
AcDbLine
 10
10.22390975712835
 20
511.5142975456219
 30
0.0
 11
10.23114115071165
 21
511.4974244898769
 31
0.0
  0
LWPOLYLINE
  5
A37
330
23
100
AcDbEntity
  8
sanindusa
100
AcDbPolyline
 90
       17
 70
   128
 43
0.0
 10
10.14311338017927
 20
511.5142975456219
 10
10.14333745802876
 20
511.5107600871241
 10
10.14390845266881
 20
511.5072560996373
 10
10.14482096141614
 20
511.5038187374737
 10
10.14606635022167
 20
511.5004805245446
 10
10.14763283536488
 20
511.4972730466231
 10
10.14950559494993
 20
511.4942266524832
 10
10.1516669091487
 20
511.4913701667435
 10
10.15409632786368
 20
511.4887306171318
 10
10.15677086422437
 20
511.4863329787521
 10
10.1596652120863
 20
511.4841999377731
 10
10.16275198547476
 20
511.4823516767745
 10
10.16600197770763
 20
511.4808056837818
 10
10.16938443774551
 20
511.4795765867964
 10
10.17286736115443
 20
511.4786760153877
 10
10.17641779292797
 20
511.478112490655
 10
10.18000213930358
 20
511.4778913446023
  0
LWPOLYLINE
  5
A39
330
23
100
AcDbEntity
  8
sanindusa
100
AcDbPolyline
 90
       17
 70
   128
 43
0.0
 10
10.22390975712835
 20
511.5142975456219
 10
10.22368567927885
 20
511.5107600871241
 10
10.22311468463881
 20
511.5072560996373
 10
10.22220217589148
 20
511.5038187374737
 10
10.22095678708594
 20
511.5004805245446
 10
10.21939030194273
 20
511.4972730466231
 10
10.21751754235768
 20
511.4942266524832
 10
10.21535622815891
 20
511.4913701667435
 10
10.21292680944393
 20
511.4887306171318
 10
10.21025227308324
 20
511.4863329787521
 10
10.20735792522131
 20
511.4841999377731
 10
10.20427115183285
 20
511.4823516767745
 10
10.20102115959999
 20
511.4808056837818
 10
10.19763869956211
 20
511.4795765867964
 10
10.19415577615318
 20
511.4786760153877
 10
10.19060534437965
 20
511.478112490655
 10
10.18702099800404
 20
511.4778913446023
  0
LINE
  5
A3B
330
23
100
AcDbEntity
  8
sanindusa
100
AcDbLine
 10
10.18000213930358
 20
511.4778913446023
 30
0.0
 11
10.18351156865381
 21
511.4778913446023
 31
0.0
  0
LINE
  5
A3C
330
23
100
AcDbEntity
  8
sanindusa
100
AcDbLine
 10
10.18702099800404
 20
511.4778913446023
 30
0.0
 11
10.18351156865381
 21
511.4778913446023
 31
0.0
  0
ARC
  5
A49
330
23
100
AcDbEntity
  8
sanindusa
100
AcDbCircle
 10
8.08583998072239
 20
508.4135661913451
 30
0.0
 40
4.086661404637136
100
AcDbArc
 50
56.13048263809996
 51
56.29985924196651
  0
LWPOLYLINE
  5
A4A
330
23
100
AcDbEntity
  8
sanindusa
100
AcDbPolyline
 90
        8
 70
   128
 43
0.0
 10
10.01371304280384
 20
511.8134754222397
 10
10.01091956613324
 20
511.8116117192853
 10
10.00857655338604
 20
511.8100450029395
 10
10.00668429700042
 20
511.8087773983481
 10
10.00524584127157
 20
511.8078125482048
 10
10.00429138901515
 20
511.8071719941894
 10
10.0037572136592
 20
511.8068138520219
 10
10.00366965883575
 20
511.8067560567476
  0
ARC
  5
A51
330
23
100
AcDbEntity
  8
sanindusa
100
AcDbCircle
 10
10.08457194186576
 20
511.7077488249251
 30
0.0
 40
0.1387627732340469
100
AcDbArc
 50
122.6712647269775
 51
127.6106492914907
  0
LWPOLYLINE
  5
A52
330
23
100
AcDbEntity
  8
sanindusa
100
AcDbPolyline
 90
        8
 70
   128
 43
0.0
 10
10.35735741309183
 20
511.8245567770156
 10
10.36012334866746
 20
511.8226808009139
 10
10.36243542554913
 20
511.821096677879
 10
10.36429314684052
 20
511.8198063226125
 10
10.36569331650604
 20
511.8188132016404
 10
10.36660736243711
 20
511.8181400141464
 10
10.3670972971545
 20
511.8177438285663
 10
10.36713624624944
 20
511.8176734274383
  0
LINE
  5
A5F
330
23
100
AcDbEntity
  8
sanindusa
100
AcDbLine
 10
10.05015882878733
 20
511.771184540536
 30
0.0
 11
10.0502160661448
 21
511.7703143337171
 31
0.0
  0
LINE
  5
A60
330
23
100
AcDbEntity
  8
sanindusa
100
AcDbLine
 10
10.31686335679865
 20
511.7711736768643
 30
0.0
 11
10.31680707116281
 21
511.7703143337171
 31
0.0
  0
LINE
  5
A6D
330
23
100
AcDbEntity
  8
sanindusa
100
AcDbLine
 10
10.31204707513595
 20
511.6970928995502
 30
0.0
 11
10.31200701138544
 21
511.6962836590683
 31
0.0
  0
LINE
  5
A70
330
23
100
AcDbEntity
  8
sanindusa
100
AcDbLine
 10
10.05497606217166
 20
511.6970928995502
 30
0.0
 11
10.05501671106414
 21
511.6962718398911
 31
0.0
  0
LWPOLYLINE
  5
A77
330
23
100
AcDbEntity
  8
sanindusa
100
AcDbPolyline
 90
       14
 70
   128
 43
0.0
 10
10.14575800726128
 20
511.5461138115009
 10
10.14573048181065
 20
511.5447952689598
 10
10.14563163010939
 20
511.5410163186527
 10
10.14550599845646
 20
511.5373714246017
 10
10.14535466706235
 20
511.5338919264631
 10
10.14517893710998
 20
511.5306077417802
 10
10.1449803195668
 20
511.5275471087452
 10
10.14476052219316
 20
511.5247363434006
 10
10.14452143485857
 20
511.522199613368
 10
10.14426511329216
 20
511.5199587300486
 10
10.14399376140704
 20
511.5180329610844
 10
10.14370971235052
 20
511.5164388646897
 10
10.14341540844319
 20
511.5151901472803
 10
10.14311338017927
 20
511.5142975456219
  0
LWPOLYLINE
  5
A78
330
23
100
AcDbEntity
  8
sanindusa
100
AcDbPolyline
 90
       14
 70
   128
 43
0.0
 10
10.22126513004634
 20
511.5461138115009
 10
10.22129265549696
 20
511.5447952689598
 10
10.22139150719822
 20
511.5410163186527
 10
10.22151713885115
 20
511.5373714246017
 10
10.22166847024527
 20
511.5338919264631
 10
10.22184420019764
 20
511.5306077417802
 10
10.22204281774081
 20
511.5275471087452
 10
10.22226261511445
 20
511.5247363434006
 10
10.22250170244904
 20
511.522199613368
 10
10.22275802401545
 20
511.5199587300486
 10
10.22302937590058
 20
511.5180329610844
 10
10.2233134249571
 20
511.5164388646897
 10
10.22360772886442
 20
511.5151901472803
 10
10.22390975712835
 20
511.5142975456219
  0
LINE
  5
AC4
330
23
100
AcDbEntity
  8
sanindusa
100
AcDbLine
 10
12.45540651024679
 20
512.0162392149788
 30
0.0
 11
12.45448664076236
 21
512.0159028802476
 31
0.0
  0
ARC
  5
ACC
330
23
100
AcDbEntity
  8
sanindusa
100
AcDbCircle
 10
11.9331977623407
 20
512.3618387525202
 30
0.0
 40
0.6325318096313135
100
AcDbArc
 50
322.1231832411758
 51
325.3043142914535
  0
LWPOLYLINE
  5
AD1
330
23
100
AcDbEntity
  8
sanindusa
100
AcDbPolyline
 90
        3
 70
   128
 43
0.0
 10
12.4252922932397
 20
511.9695448279246
 10
12.41544903853691
 20
511.9667464445773
 10
12.37132044988601
 20
511.9539665577014
  0
LINE
  5
AD2
330
23
100
AcDbEntity
  8
sanindusa
100
AcDbLine
 10
12.36132044988601
 20
511.9510605473329
 30
0.0
 11
12.36032044988601
 21
511.9507650220229
 31
0.0
  0
ARC
  5
AD3
330
23
100
AcDbEntity
  8
sanindusa
100
AcDbCircle
 10
12.42114910713375
 20
511.9851619483882
 30
0.0
 40
0.016281905147522
100
AcDbArc
 50
284.8729022500619
 51
314.1814517723092
  0
LWPOLYLINE
  5
AD8
330
23
100
AcDbEntity
  8
sanindusa
100
AcDbPolyline
 90
       18
 70
   128
 43
0.0
 10
12.58377520298067
 20
511.5099936031543
 10
12.5817430393824
 20
511.5117497406984
 10
12.57901829672823
 20
511.5141074979749
 10
12.57656313425384
 20
511.516234434902
 10
12.57437603372186
 20
511.5181309449264
 10
12.57243228302497
 20
511.5198177765659
 10
12.57072495297637
 20
511.521300569625
 10
12.56925704834175
 20
511.5225763647362
 10
12.56803073450242
 20
511.5236429365294
 10
12.56704737081905
 20
511.5244987671293
 10
12.56630751927548
 20
511.5251430408819
 10
12.56581083199368
 20
511.5255757443111
 10
12.56555405236055
 20
511.52579940948
 10
12.56550492553895
 20
511.5258420865123
 10
12.56548341165655
 20
511.5258605899911
 10
12.56546334006458
 20
511.5258776681438
 10
12.56542764985642
 20
511.5259075917285
 10
12.56540423556868
 20
511.5259268366208
  0
ARC
  5
ADA
330
23
100
AcDbEntity
  8
sanindusa
100
AcDbCircle
 10
12.60563509989944
 20
511.5351740017289
 30
0.0
 40
0.0333406272740454
100
AcDbArc
 50
228.9703199699288
 51
233.7967884859332
  0
ARC
  5
ADB
330
23
100
AcDbEntity
  8
sanindusa
100
AcDbCircle
 10
12.5920613033177
 20
511.5089495424562
 30
0.0
 40
0.0050551663102232
100
AcDbArc
 50
210.0463830139502
 51
239.1056356602603
  0
ARC
  5
ADC
330
23
100
AcDbEntity
  8
sanindusa
100
AcDbCircle
 10
12.58322333318839
 20
511.5039653920055
 30
0.0
 40
0.0050919347853363
100
AcDbArc
 50
28.79956036936923
 51
57.72385284856838
  0
ARC
  5
ADD
330
23
100
AcDbEntity
  8
sanindusa
100
AcDbCircle
 10
12.59225050041776
 20
511.5093370599864
 30
0.0
 40
0.0054849678736386
100
AcDbArc
 50
239.4881758046831
 51
272.2535168328275
  0
LINE
  5
ADE
330
23
100
AcDbEntity
  8
sanindusa
100
AcDbLine
 10
12.38719422913131
 20
511.9912975256445
 30
0.0
 11
12.35688633763763
 21
511.9802155034055
 31
0.0
  0
ARC
  5
AE0
330
23
100
AcDbEntity
  8
sanindusa
100
AcDbCircle
 10
12.38582058322005
 20
511.995054281117
 30
0.0
 40
0.0040000143461083
100
AcDbArc
 50
290.0847814554497
 51
0.0
  0
LINE
  5
AE1
330
23
100
AcDbEntity
  8
sanindusa
100
AcDbLine
 10
12.35863362743684
 20
511.9680773624471
 30
0.0
 11
12.35502238917197
 21
511.9667569201149
 31
0.0
  0
LINE
  5
AE3
330
23
100
AcDbEntity
  8
sanindusa
100
AcDbLine
 10
12.39419426165636
 20
511.9810800399977
 30
0.0
 11
12.37263362743666
 21
511.9731964355414
 31
0.0
  0
ARC
  5
AE4
330
23
100
AcDbEntity
  8
sanindusa
100
AcDbCircle
 10
12.28717403524836
 20
512.3636792937313
 30
0.0
 40
0.397285184493473
100
AcDbArc
 50
285.6273082032112
 51
294.5393045579995
  0
LINE
  5
AE5
330
23
100
AcDbEntity
  8
sanindusa
100
AcDbLine
 10
12.45579529277953
 20
512.0036043528243
 30
0.0
 11
12.45219392805147
 21
512.0022875064645
 31
0.0
  0
ARC
  5
AE6
330
23
100
AcDbEntity
  8
sanindusa
100
AcDbCircle
 10
12.45082025969069
 20
512.0060442372544
 30
0.0
 40
0.0039999988741041
100
AcDbArc
 50
180.0
 51
290.0852048791102
  0
ARC
  5
AE7
330
23
100
AcDbEntity
  8
sanindusa
100
AcDbCircle
 10
12.3928206141104
 20
511.9848368059719
 30
0.0
 40
0.0040000247706652
100
AcDbArc
 50
290.0847517889113
 51
0.0
  0
LINE
  5
AE9
330
23
100
AcDbEntity
  8
sanindusa
100
AcDbLine
 10
12.3898205976144
 20
512.0126592889313
 30
0.0
 11
12.38982059756612
 21
511.9950542741492
 31
0.0
  0
LINE
  5
AEB
330
23
100
AcDbEntity
  8
sanindusa
100
AcDbLine
 10
12.44682026078637
 20
512.0146592889312
 30
0.0
 11
12.44682026081662
 21
512.0060442230409
 31
0.0
  0
LINE
  5
AEC
330
23
100
AcDbEntity
  8
sanindusa
100
AcDbLine
 10
12.39682063888097
 20
511.9848367947083
 30
0.0
 11
12.39682063898565
 21
512.0146592889312
 31
0.0
  0
ARC
  5
AED
330
23
100
AcDbEntity
  8
sanindusa
100
AcDbCircle
 10
12.36032045032325
 20
511.9708236516814
 30
0.0
 40
0.0100000004372694
100
AcDbArc
 50
110.0848429117271
 51
180.0
  0
ARC
  5
AEE
330
23
100
AcDbEntity
  8
sanindusa
100
AcDbCircle
 10
12.37332044997716
 20
511.9713180651938
 30
0.0
 40
0.0020000000912743
100
AcDbArc
 50
110.0848429749018
 51
180.0
  0
LINE
  5
AEF
330
23
100
AcDbEntity
  8
sanindusa
100
AcDbLine
 10
12.37132044988601
 20
511.9605440653656
 30
0.0
 11
12.37132044988601
 21
511.9713180651623
 31
0.0
  0
ARC
  5
AF0
330
23
100
AcDbEntity
  8
sanindusa
100
AcDbCircle
 10
12.36832044982874
 20
511.9605440652566
 30
0.0
 40
0.0030000000572727
100
AcDbArc
 50
270.0000010938055
 51
0.0
  0
LINE
  5
AF1
330
23
100
AcDbEntity
  8
sanindusa
100
AcDbLine
 10
12.36832044988601
 20
511.9575440651994
 30
0.0
 11
12.36432044988601
 21
511.9575440651994
 31
0.0
  0
ARC
  5
AF2
330
23
100
AcDbEntity
  8
sanindusa
100
AcDbCircle
 10
12.36432044999621
 20
511.9605440653096
 30
0.0
 40
0.003000000110201
100
AcDbArc
 50
180.0
 51
269.9999978953379
  0
LINE
  5
AF3
330
23
100
AcDbEntity
  8
sanindusa
100
AcDbLine
 10
12.36132044988601
 20
511.9661989920653
 30
0.0
 11
12.36132044988601
 21
511.9605440653656
 31
0.0
  0
ARC
  5
AF4
330
23
100
AcDbEntity
  8
sanindusa
100
AcDbCircle
 10
12.35932044986915
 20
511.9661989921391
 30
0.0
 40
0.0020000000169352
100
AcDbArc
 50
0.0
 51
110.0848404535353
  0
ARC
  5
AF5
330
23
100
AcDbEntity
  8
sanindusa
100
AcDbCircle
 10
12.35382044991511
 20
511.9700440681533
 30
0.0
 40
0.0035000000291574
100
AcDbArc
 50
180.0
 51
290.0848404621097
  0
LINE
  5
AF6
330
23
100
AcDbEntity
  8
sanindusa
100
AcDbLine
 10
12.35032044988601
 20
511.9700440682813
 30
0.0
 11
12.35032044988601
 21
511.970823651523
 31
0.0
  0
ARC
  5
AF7
330
23
100
AcDbEntity
  8
sanindusa
100
AcDbCircle
 10
12.39282060674183
 20
512.0126592798039
 30
0.0
 40
0.0030000091274442
100
AcDbArc
 50
89.99988227703546
 51
180.0
  0
LINE
  5
AF8
330
23
100
AcDbEntity
  8
sanindusa
100
AcDbLine
 10
12.39582063171591
 20
512.0156592889312
 30
0.0
 11
12.39282061290581
 21
512.0156592889312
 31
0.0
  0
ARC
  5
AF9
330
23
100
AcDbEntity
  8
sanindusa
100
AcDbCircle
 10
12.39582063550309
 20
512.0146592854486
 30
0.0
 40
0.0010000034827647
100
AcDbArc
 50
0.0
 51
90.00021698863593
  0
ARC
  5
AFA
330
23
100
AcDbEntity
  8
sanindusa
100
AcDbCircle
 10
12.45609333278233
 20
512.0143608448886
 30
0.0
 40
0.001999999847811
100
AcDbArc
 50
22.47482163436228
 51
110.0848453742873
  0
ARC
  5
AFD
330
23
100
AcDbEntity
  8
sanindusa
100
AcDbCircle
 10
12.44782026499242
 20
512.0146592847249
 30
0.0
 40
0.0010000042063514
100
AcDbArc
 50
89.99982446432202
 51
180.0
  0
LINE
  5
AFE
330
23
100
AcDbEntity
  8
sanindusa
100
AcDbLine
 10
12.4531121254642
 20
512.0156592889312
 30
0.0
 11
12.44782026805611
 21
512.0156592889312
 31
0.0
  0
LINE
  5
AFF
330
23
100
AcDbEntity
  8
sanindusa
100
AcDbLine
 10
12.45448577119644
 20
512.0159025485174
 30
0.0
 11
12.4531121254642
 21
512.0156592889312
 31
0.0
  0
LINE
  5
B00
330
23
100
AcDbEntity
  8
sanindusa
100
AcDbLine
 10
12.35032044988601
 20
511.9623446864044
 30
0.0
 11
12.35032044988601
 21
511.9700440682813
 31
0.0
  0
LWPOLYLINE
  5
B03
330
23
100
AcDbEntity
  8
sanindusa
100
AcDbPolyline
 90
        9
 70
   128
 43
0.0
 10
12.36832044988601
 20
511.9427896320165
 10
12.36890572085206
 20
511.9428443531223
 10
12.3694685001831
 20
511.9430064135383
 10
12.36998716058507
 20
511.9432695853736
 10
12.37044177022957
 20
511.9436237550821
 10
12.37081485872292
 20
511.9440553121207
 10
12.37109208848355
 20
511.9445476719943
 10
12.37126280572722
 20
511.945081913589
 10
12.37132044988601
 20
511.9456375063
  0
LINE
  5
B05
330
23
100
AcDbEntity
  8
sanindusa
100
AcDbLine
 10
12.37132044988601
 20
511.9605440653656
 30
0.0
 11
12.37132044988601
 21
511.9456375063
 31
0.0
  0
LWPOLYLINE
  5
B06
330
23
100
AcDbEntity
  8
sanindusa
100
AcDbPolyline
 90
        9
 70
   128
 43
0.0
 10
12.36132044988601
 20
511.9456375063
 10
12.3613780940448
 20
511.945081913589
 10
12.36154881128848
 20
511.9445476719943
 10
12.3618260410491
 20
511.9440553121207
 10
12.36219912954245
 20
511.9436237550821
 10
12.36265373918695
 20
511.9432695853736
 10
12.36317239958891
 20
511.9430064135383
 10
12.36373517891996
 20
511.9428443531223
 10
12.36432044988601
 20
511.9427896320165
  0
LINE
  5
B07
330
23
100
AcDbEntity
  8
sanindusa
100
AcDbLine
 10
12.36132044988601
 20
511.9456375063
 30
0.0
 11
12.36132044988601
 21
511.9605440653656
 31
0.0
  0
LWPOLYLINE
  5
B0C
330
23
100
AcDbEntity
  8
sanindusa
100
AcDbPolyline
 90
       28
 70
   128
 43
0.0
 10
12.39582063171591
 20
512.0156592889312
 10
12.39598595502916
 20
512.0156592861999
 10
12.3965023092762
 20
512.0156592835043
 10
12.39736267839906
 20
512.0156592808815
 10
12.3985553719746
 20
512.0156592783668
 10
12.40006418406025
 20
512.0156592759943
 10
12.40186861339529
 20
512.0156592737965
 10
12.40394414196539
 20
512.0156592718033
 10
12.40626256814572
 20
512.0156592700415
 10
12.40879238989563
 20
512.0156592685352
 10
12.41149923279843
 20
512.0156592673048
 10
12.41434631713007
 20
512.015659266367
 10
12.41729495761038
 20
512.0156592657346
 10
12.42030508904642
 20
512.0156592654165
 10
12.4233358107256
 20
512.0156592654165
 10
12.42634594216164
 20
512.0156592657346
 10
12.42929458264195
 20
512.015659266367
 10
12.43214166697359
 20
512.0156592673048
 10
12.43484850987639
 20
512.0156592685352
 10
12.4373783316263
 20
512.0156592700415
 10
12.43969675780663
 20
512.0156592718033
 10
12.44177228637673
 20
512.0156592737965
 10
12.44357671571177
 20
512.0156592759943
 10
12.44508552779743
 20
512.0156592783668
 10
12.44627822137296
 20
512.0156592808815
 10
12.44713859049582
 20
512.0156592835043
 10
12.44765494474286
 20
512.0156592861999
 10
12.44782026805611
 20
512.0156592889312
  0
LINE
  5
B0D
330
23
100
AcDbEntity
  8
sanindusa
100
AcDbLine
 10
12.36432044988601
 20
511.9427896320165
 30
0.0
 11
12.36832044988601
 21
511.9427896320165
 31
0.0
  0
LINE
  5
B0E
330
23
100
AcDbEntity
  8
sanindusa
100
AcDbLine
 10
12.4558203100266
 20
511.5328280173016
 30
0.0
 11
12.52806142628128
 21
511.5328280172142
 31
0.0
  0
ARC
  5
B11
330
23
100
AcDbEntity
  8
sanindusa
100
AcDbCircle
 10
12.45582030813223
 20
511.5418280148728
 30
0.0
 40
0.0010000024334699
100
AcDbArc
 50
89.9998929558623
 51
180.0
  0
LINE
  5
B12
330
23
100
AcDbEntity
  8
sanindusa
100
AcDbLine
 10
12.52310654515506
 20
511.5428280173068
 30
0.0
 11
12.45582031000051
 21
511.5428280173063
 31
0.0
  0
ARC
  5
B13
330
23
100
AcDbEntity
  8
sanindusa
100
AcDbCircle
 10
10.83801496838916
 20
511.5556387711363
 30
0.0
 40
1.685140256379252
100
AcDbArc
 50
359.5644224538389
 51
15.13379461443498
  0
LINE
  5
B14
330
23
100
AcDbEntity
  8
sanindusa
100
AcDbLine
 10
12.46471258408088
 20
511.9955849445651
 30
0.0
 11
12.45539940188359
 21
511.992179612157
 31
0.0
  0
LINE
  5
B16
330
23
100
AcDbEntity
  8
sanindusa
100
AcDbLine
 10
12.45271257928333
 20
511.9940579824311
 30
0.0
 11
12.45271257928333
 21
512.0004464991783
 31
0.0
  0
LINE
  5
B18
330
23
100
AcDbEntity
  8
sanindusa
100
AcDbLine
 10
12.455808327485
 20
512.0029766486436
 30
0.0
 11
12.45402575697163
 21
512.0023248694669
 31
0.0
  0
ARC
  5
B19
330
23
100
AcDbEntity
  8
sanindusa
100
AcDbCircle
 10
12.45477809347903
 20
512.0057942047825
 30
0.0
 40
0.0030000007838834
100
AcDbArc
 50
290.0848424266424
 51
358.9999987262563
  0
LINE
  5
B1A
330
23
100
AcDbEntity
  8
sanindusa
100
AcDbLine
 10
12.4577776373471
 20
512.0057418474828
 30
0.0
 11
12.457953882812
 21
512.0158389430286
 31
0.0
  0
ARC
  5
B1B
330
23
100
AcDbEntity
  8
sanindusa
100
AcDbCircle
 10
12.45895373075709
 20
512.0158214905979
 30
0.0
 40
0.0010000002503278
100
AcDbArc
 50
106.6167356640967
 51
178.9999988532946
  0
LINE
  5
B25
330
23
100
AcDbEntity
  8
sanindusa
100
AcDbLine
 10
12.42655330681492
 20
511.9588824277562
 30
0.0
 11
12.36032044988601
 21
511.9397944761801
 31
0.0
  0
ARC
  5
B26
330
23
100
AcDbEntity
  8
sanindusa
100
AcDbCircle
 10
12.42199072193235
 20
511.9760884851526
 30
0.0
 40
0.0178007188601271
100
AcDbArc
 50
284.8514978335728
 51
315.9696033417627
  0
LWPOLYLINE
  5
B27
330
23
100
AcDbEntity
  8
sanindusa
100
AcDbPolyline
 90
       12
 70
   128
 43
0.0
 10
12.45539940188359
 20
511.992179612157
 10
12.45539803041715
 20
511.9921775429022
 10
12.45528159457229
 20
511.9919974110043
 10
12.45497089547125
 20
511.9915236215882
 10
12.45445486999757
 20
511.990749854573
 10
12.45372650510659
 20
511.989675628585
 10
12.45177189419245
 20
511.9868602476636
 10
12.44901606203993
 20
511.9829954540598
 10
12.44540279850217
 20
511.9780352378721
 10
12.4410066213615
 20
511.9720837520339
 10
12.43801314804739
 20
511.9680541538643
 10
12.43478892555804
 20
511.9637162753301
  0
ARC
  5
B29
330
23
100
AcDbEntity
  8
sanindusa
100
AcDbCircle
 10
12.46152746605491
 20
512.0071973604466
 30
0.0
 40
0.0099999999999639
100
AcDbArc
 50
15.54287657042296
 51
106.6167340235714
  0
ARC
  5
B2C
330
23
100
AcDbEntity
  8
sanindusa
100
AcDbCircle
 10
12.52806142628128
 20
511.5378280172142
 30
0.0
 40
0.005
100
AcDbArc
 50
270.0
 51
359.3965901381173
  0
ARC
  5
B2F
330
23
100
AcDbEntity
  8
sanindusa
100
AcDbCircle
 10
12.35332045002922
 20
511.9623078947766
 30
0.0
 40
0.0030000001432086
100
AcDbArc
 50
110.0848430543935
 51
180.0
  0
LINE
  5
B30
330
23
100
AcDbEntity
  8
sanindusa
100
AcDbLine
 10
12.3562902162123
 20
511.9665880426163
 30
0.0
 11
12.35229021621238
 21
511.9651254503024
 31
0.0
  0
ARC
  5
B31
330
23
100
AcDbEntity
  8
sanindusa
100
AcDbCircle
 10
12.35732044986123
 20
511.9637704871551
 30
0.0
 40
0.0030000000247819
100
AcDbArc
 50
0.0
 51
110.0848404666978
  0
LINE
  5
B32
330
23
100
AcDbEntity
  8
sanindusa
100
AcDbLine
 10
12.36032044988601
 20
511.5428280173055
 30
0.0
 11
12.36032044988601
 21
511.9637704870425
 31
0.0
  0
ARC
  5
B33
330
23
100
AcDbEntity
  8
sanindusa
100
AcDbCircle
 10
12.38882059153522
 20
511.5418280147677
 30
0.0
 40
0.0010000025381011
100
AcDbArc
 50
0.0
 51
90.00010105400821
  0
LINE
  5
B34
330
23
100
AcDbEntity
  8
sanindusa
100
AcDbLine
 10
12.38982059405149
 20
511.5338280173015
 30
0.0
 11
12.389820594073
 21
511.5418280173058
 31
0.0
  0
ARC
  5
B35
330
23
100
AcDbEntity
  8
sanindusa
100
AcDbCircle
 10
12.38882059215028
 20
511.5338280192026
 30
0.0
 40
0.001000001901212
100
AcDbArc
 50
269.9998622117557
 51
0.0
  0
LINE
  5
B36
330
23
100
AcDbEntity
  8
sanindusa
100
AcDbLine
 10
12.35532044988601
 20
511.5328280173016
 30
0.0
 11
12.38882058974542
 21
511.5328280173016
 31
0.0
  0
LINE
  5
B38
330
23
100
AcDbEntity
  8
sanindusa
100
AcDbLine
 10
12.35032044988601
 20
511.5378280173016
 30
0.0
 11
12.35032044988601
 21
511.9623078947274
 31
0.0
  0
LINE
  5
B39
330
23
100
AcDbEntity
  8
sanindusa
100
AcDbLine
 10
12.38882058977149
 20
511.5428280173057
 30
0.0
 11
12.36032044988601
 21
511.5428280173055
 31
0.0
  0
LWPOLYLINE
  5
B3B
330
23
100
AcDbEntity
  8
sanindusa
100
AcDbPolyline
 90
        9
 70
   128
 43
0.0
 10
12.45402575697163
 20
512.0023248694669
 10
12.45374833080796
 20
512.0021987048239
 10
12.45349329517077
 20
512.0020318527419
 10
12.45326657216572
 20
512.0018281876431
 10
12.45307342645936
 20
512.0015924387732
 10
12.45291834302989
 20
512.0013300803854
 10
12.45280492302288
 20
512.0010472046251
 10
12.45273580013011
 20
512.0007503800649
 10
12.45271257928333
 20
512.0004464991783
  0
LWPOLYLINE
  5
B3D
330
23
100
AcDbEntity
  8
sanindusa
100
AcDbPolyline
 90
       31
 70
   128
 43
0.0
 10
12.4558203100266
 20
511.5328280173016
 10
12.45564625617679
 20
511.5328280141348
 10
12.4551057344657
 20
511.5328280110018
 10
12.45420468875058
 20
511.5328280079372
 10
12.45295302739773
 20
511.5328280049745
 10
12.45136451432497
 20
511.5328280021465
 10
12.44945661764646
 20
511.5328279994842
 10
12.44725031758421
 20
511.5328279970167
 10
12.44476987575875
 20
511.5328279947715
 10
12.44204256839565
 20
511.532827992773
 10
12.43909838638211
 20
511.5328279910433
 10
12.43596970547151
 20
511.5328279896014
 10
12.43269093026284
 20
511.5328279884631
 10
12.42929811586992
 20
511.532827987641
 10
12.42582857144059
 20
511.5328279871441
 10
12.42232044988601
 20
511.5328279869778
 10
12.41881232833143
 20
511.5328279871441
 10
12.4153427839021
 20
511.532827987641
 10
12.41194996950917
 20
511.5328279884631
 10
12.40867119430051
 20
511.5328279896014
 10
12.4055425133899
 20
511.5328279910433
 10
12.40259833137636
 20
511.532827992773
 10
12.39987102401327
 20
511.5328279947715
 10
12.39739058218781
 20
511.5328279970167
 10
12.39518428212556
 20
511.5328279994842
 10
12.39327638544705
 20
511.5328280021465
 10
12.39168787237429
 20
511.5328280049745
 10
12.39043621102144
 20
511.5328280079372
 10
12.38953516530632
 20
511.5328280110018
 10
12.38899464359523
 20
511.5328280141348
 10
12.38882058974542
 20
511.5328280173016
  0
LWPOLYLINE
  5
B40
330
23
100
AcDbEntity
  8
sanindusa
100
AcDbPolyline
 90
       31
 70
   128
 43
0.0
 10
12.38882058977149
 20
511.5428280173057
 10
12.38899464273726
 20
511.5428280141388
 10
12.38953516369911
 20
511.5428280110058
 10
12.39043620880601
 20
511.5428280079411
 10
12.39168786969494
 20
511.5428280049783
 10
12.39327638244847
 20
511.5428280021503
 10
12.39518427895001
 20
511.5428279994879
 10
12.39739057897227
 20
511.5428279970204
 10
12.3998710208869
 20
511.5428279947751
 10
12.40259832845799
 20
511.5428279927766
 10
12.40554251078581
 20
511.5428279910469
 10
12.40867119210246
 20
511.5428279896049
 10
12.41194996779268
 20
511.5428279884667
 10
12.41534278272505
 20
511.5428279876446
 10
12.41881232773301
 20
511.5428279871476
 10
12.422320449886
 20
511.5428279869814
 10
12.42582857203899
 20
511.5428279871477
 10
12.42929811704696
 20
511.5428279876446
 10
12.43269093197933
 20
511.5428279884668
 10
12.43596970766955
 20
511.5428279896051
 10
12.43909838898619
 20
511.5428279910471
 10
12.44204257131401
 20
511.5428279927769
 10
12.4447698788851
 20
511.5428279947755
 10
12.44725032079974
 20
511.5428279970209
 10
12.449456620822
 20
511.5428279994883
 10
12.45136451732353
 20
511.5428280021507
 10
12.45295303007707
 20
511.5428280049789
 10
12.454204690966
 20
511.5428280079416
 10
12.45510573607289
 20
511.5428280110063
 10
12.45564625703474
 20
511.5428280141394
 10
12.45582031000051
 20
511.5428280173063
  0
ARC
  5
B42
330
23
100
AcDbEntity
  8
sanindusa
100
AcDbCircle
 10
10.83792809625615
 20
511.5556275297937
 30
0.0
 40
1.695227054543233
100
AcDbArc
 50
359.3966160187846
 51
15.54278406952585
  0
ARC
  5
B4C
330
23
100
AcDbEntity
  8
sanindusa
100
AcDbCircle
 10
12.35532044988601
 20
511.5378278878823
 30
0.0
 40
0.0050000000000003
100
AcDbArc
 50
180.0
 51
270.0
  0
LWPOLYLINE
  5
B50
330
23
100
AcDbEntity
  8
sanindusa
100
AcDbPolyline
 90
        9
 70
   128
 43
0.0
 10
12.45271257928333
 20
511.9940579824311
 10
12.45276998317543
 20
511.9935822510519
 10
12.45293889963305
 20
511.9931338285006
 10
12.45320963219572
 20
511.992738455973
 10
12.45356663976328
 20
511.9924188293869
 10
12.4539894287153
 20
511.9921932965493
 10
12.45445372932452
 20
511.9920748039207
 10
12.45493288893338
 20
511.9920701534382
 10
12.45539940188359
 20
511.992179612157
  0
LWPOLYLINE
  5
B62
330
23
100
AcDbEntity
  8
sanindusa
100
AcDbPolyline
 90
       22
 70
   128
 43
0.0
 10
12.75658012428078
 20
511.4588278784317
 10
12.78275793053273
 20
511.4588278805203
 10
12.80887575899838
 20
511.4588278831884
 10
12.83492315326135
 20
511.4588278863528
 10
12.84794504936009
 20
511.4588278879861
 10
12.8609353070399
 20
511.4588278898024
 10
12.87377808376286
 20
511.4588278922509
 10
12.88672326028751
 20
511.4588278957496
 10
12.89932038883263
 20
511.4588279002238
 10
12.91143937736055
 20
511.4588279056206
 10
12.92261758892705
 20
511.4588279116883
 10
12.93324611413889
 20
511.4588279185826
 10
12.943211547545
 20
511.4588279262385
 10
12.95240048369426
 20
511.458827934591
 10
12.9607796391036
 20
511.4588279436579
 10
12.96827760160566
 20
511.4588279533907
 10
12.97478234592264
 20
511.4588279636837
 10
12.98018184677675
 20
511.4588279744307
 10
12.98413405865055
 20
511.45882798477
 10
12.98703899528499
 20
511.458827995438
 10
12.98883048596531
 20
511.4588280062981
 10
12.98944235997676
 20
511.4588280172137
  0
ARC
  5
B74
330
23
100
AcDbEntity
  8
sanindusa
100
AcDbCircle
 10
12.81592826475627
 20
511.4765779408831
 30
0.0
 40
0.1727610927564905
100
AcDbArc
 50
280.3405604720455
 51
295.6396960588995
  0
LINE
  5
B76
330
23
100
AcDbEntity
  8
sanindusa
100
AcDbLine
 10
12.9073018694684
 20
511.3233894100721
 30
0.0
 11
12.9173505693177
 21
511.3367359889958
 31
0.0
  0
LINE
  5
B79
330
23
100
AcDbEntity
  8
sanindusa
100
AcDbLine
 10
12.91735045084309
 20
511.3367358882213
 30
0.0
 11
12.90480482974641
 21
511.3284404782269
 31
0.0
  0
LINE
  5
B7B
330
23
100
AcDbEntity
  8
sanindusa
100
AcDbLine
 10
12.89551472989877
 20
511.2876734068613
 30
0.0
 11
12.89860236321658
 21
511.1107931124109
 31
0.0
  0
LINE
  5
B88
330
23
100
AcDbEntity
  8
sanindusa
100
AcDbLine
 10
12.62762414936955
 20
511.34614982183
 30
0.0
 11
12.55281061093918
 21
511.3448438540007
 31
0.0
  0
LINE
  5
B89
330
23
100
AcDbEntity
  8
sanindusa
100
AcDbLine
 10
12.55281061093918
 20
511.2428121806017
 30
0.0
 11
12.59994350698004
 21
511.2419894713704
 31
0.0
  0
ARC
  5
B8A
330
23
100
AcDbEntity
  8
sanindusa
100
AcDbCircle
 10
12.46357680569414
 20
511.5298280349157
 30
0.0
 40
0.002000017789709
100
AcDbArc
 50
269.9998437611798
 51
345.5220930537032
  0
ARC
  5
B8B
330
23
100
AcDbEntity
  8
sanindusa
100
AcDbCircle
 10
12.46744981757781
 20
511.5288279980739
 30
0.0
 40
0.0020000190521193
100
AcDbArc
 50
89.99991779319548
 51
165.5220650407624
  0
LINE
  5
B91
330
23
100
AcDbEntity
  8
sanindusa
100
AcDbLine
 10
12.52351567231338
 20
511.5308280171261
 30
0.0
 11
12.52351567231275
 21
511.529828017126
 31
0.0
  0
LINE
  5
B93
330
23
100
AcDbEntity
  8
sanindusa
100
AcDbLine
 10
12.52802710527155
 20
511.5328280171261
 30
0.0
 11
12.5255156727977
 21
511.5328280171261
 31
0.0
  0
ARC
  5
B94
330
23
100
AcDbEntity
  8
sanindusa
100
AcDbCircle
 10
12.52802710542949
 20
511.5278280156995
 30
0.0
 40
0.005000001426526
100
AcDbArc
 50
50.29105545730442
 51
90.00000180981194
  0
ARC
  5
B95
330
23
100
AcDbEntity
  8
sanindusa
100
AcDbCircle
 10
12.54399930327468
 20
511.5470605108459
 30
0.0
 40
0.0199999980447734
100
AcDbArc
 50
230.29105496287
 51
269.9999998237209
  0
LINE
  5
B98
330
23
100
AcDbEntity
  8
sanindusa
100
AcDbLine
 10
12.56706364403349
 20
511.5233546064256
 30
0.0
 11
12.5713027525648
 21
511.5075339219883
 31
0.0
  0
ARC
  5
B99
330
23
100
AcDbEntity
  8
sanindusa
100
AcDbCircle
 10
12.57613241346007
 20
511.5088280174545
 30
0.0
 40
0.0050000003285783
100
AcDbArc
 50
195.0000028919435
 51
270.0000023874007
  0
LINE
  5
B9C
330
23
100
AcDbEntity
  8
sanindusa
100
AcDbLine
 10
12.64684902148291
 20
511.496458910262
 30
0.0
 11
12.64747035176875
 21
511.4608629220266
 31
0.0
  0
ARC
  5
B9D
330
23
100
AcDbEntity
  8
sanindusa
100
AcDbCircle
 10
12.6454706843292
 20
511.4608280173351
 30
0.0
 40
0.0020000002091734
100
AcDbArc
 50
269.9999966332938
 51
0.999994087954686
  0
ARC
  5
B9F
330
23
100
AcDbEntity
  8
sanindusa
100
AcDbCircle
 10
12.61074407451855
 20
511.4568280169075
 30
0.0
 40
0.0020000002184875
100
AcDbArc
 50
89.99999348937912
 51
187.2851725218425
  0
LWPOLYLINE
  5
BA2
330
23
100
AcDbEntity
  8
sanindusa
100
AcDbPolyline
 90
        8
 70
   128
 43
0.0
 10
12.72863942725245
 20
511.1969878695354
 10
12.72076051321956
 20
511.247734403839
 10
12.71500426244902
 20
511.2809130463681
 10
12.71377016948674
 20
511.2883012593385
 10
12.71216219574788
 20
511.2956018637482
 10
12.71039927870292
 20
511.3001951792993
 10
12.70789527615175
 20
511.3044303174886
 10
12.70448489599182
 20
511.308408275048
  0
LINE
  5
BA3
330
23
100
AcDbEntity
  8
sanindusa
100
AcDbLine
 10
12.71853541352556
 20
511.1969878695354
 30
0.0
 11
12.72863942725245
 21
511.1969878695354
 31
0.0
  0
LWPOLYLINE
  5
BA4
330
23
100
AcDbEntity
  8
sanindusa
100
AcDbPolyline
 90
        8
 70
   128
 43
0.0
 10
12.69992382006263
 20
511.2983809066982
 10
12.70151236030792
 20
511.2956048349056
 10
12.70356158063835
 20
511.289827101457
 10
12.70478977644852
 20
511.2837734385499
 10
12.70563568302112
 20
511.2775990207544
 10
12.70653803563883
 20
511.2714590226401
 10
12.71283042272007
 20
511.2342755391434
 10
12.71853541352556
 20
511.1969878695354
  0
LINE
  5
BA7
330
23
100
AcDbEntity
  8
sanindusa
100
AcDbLine
 10
12.64211328345537
 20
511.3364010962921
 30
0.0
 11
12.55298513500355
 21
511.3348453544626
 31
0.0
  0
ARC
  5
BA8
330
23
100
AcDbEntity
  8
sanindusa
100
AcDbCircle
 10
12.55296768365634
 20
511.3358452032066
 30
0.0
 40
0.0010000010303264
100
AcDbArc
 50
180.9999046076145
 51
270.999938271255
  0
LINE
  5
BA9
330
23
100
AcDbEntity
  8
sanindusa
100
AcDbLine
 10
12.55196783490196
 20
511.3358277524469
 30
0.0
 11
12.55182821565046
 21
511.3438265520138
 31
0.0
  0
ARC
  5
BAA
330
23
100
AcDbEntity
  8
sanindusa
100
AcDbCircle
 10
12.55282806411029
 20
511.3438440055347
 30
0.0
 40
0.0010000007841286
100
AcDbArc
 50
91.0000430348135
 51
181.0000634865228
  0
LINE
  5
BAD
330
23
100
AcDbEntity
  8
sanindusa
100
AcDbLine
 10
12.59671720194301
 20
511.4589055271791
 30
0.0
 11
12.39576994618702
 21
511.4680936900588
 31
0.0
  0
ARC
  5
BAE
330
23
100
AcDbEntity
  8
sanindusa
100
AcDbCircle
 10
12.3966834767551
 20
511.4880728157128
 30
0.0
 40
0.0200000000000002
100
AcDbArc
 50
189.79454074634
 51
267.382016824924
  0
LINE
  5
BAF
330
23
100
AcDbEntity
  8
sanindusa
100
AcDbLine
 10
12.37697499451699
 20
511.484670503577
 30
0.0
 11
12.37290317155153
 21
511.5082572432369
 31
0.0
  0
LINE
  5
BB2
330
23
100
AcDbEntity
  8
sanindusa
100
AcDbLine
 10
12.37098534837299
 20
511.5076402235489
 30
0.0
 11
12.36398534606053
 21
511.5076402235489
 31
0.0
  0
ARC
  5
BB7
330
23
100
AcDbEntity
  8
sanindusa
100
AcDbCircle
 10
12.36998534833843
 20
511.5308280167652
 30
0.0
 40
0.0020000003607993
100
AcDbArc
 50
0.0
 51
90.00000918381346
  0
ARC
  5
BB9
330
23
100
AcDbEntity
  8
sanindusa
100
AcDbCircle
 10
12.37470467040162
 20
511.5288280046246
 30
0.0
 40
0.0020000125015152
100
AcDbArc
 50
14.47778959681492
 51
90.00022756629567
  0
ARC
  5
BBA
330
23
100
AcDbEntity
  8
sanindusa
100
AcDbCircle
 10
12.37857767426643
 20
511.5298280311137
 30
0.0
 40
0.0020000139878881
100
AcDbArc
 50
194.4778225779776
 51
270.0002406017863
  0
ARC
  5
BBC
330
23
100
AcDbEntity
  8
sanindusa
100
AcDbCircle
 10
12.38757780892175
 20
511.5268280076179
 30
0.0
 40
0.0010000095085292
100
AcDbArc
 50
0.0
 51
90.00044233271621
  0
LINE
  5
BBD
330
23
100
AcDbEntity
  8
sanindusa
100
AcDbLine
 10
12.38857781847326
 20
511.5188280172191
 30
0.0
 11
12.38857781843023
 21
511.526828017126
 31
0.0
  0
ARC
  5
BBE
330
23
100
AcDbEntity
  8
sanindusa
100
AcDbCircle
 10
12.38757780694096
 20
511.5188280287461
 30
0.0
 40
0.0010000115323668
100
AcDbArc
 50
269.9996738483154
 51
0.0
  0
LINE
  5
BBF
330
23
100
AcDbEntity
  8
sanindusa
100
AcDbLine
 10
12.38757780124848
 20
511.5178280172138
 30
0.0
 11
12.38139886581787
 21
511.5178280172138
 31
0.0
  0
LINE
  5
BC0
330
23
100
AcDbEntity
  8
sanindusa
100
AcDbLine
 10
12.38139886581787
 20
511.5178280172138
 30
0.0
 11
12.38683883434962
 21
511.4863160574342
 31
0.0
  0
ARC
  5
BC1
330
23
100
AcDbEntity
  8
sanindusa
100
AcDbCircle
 10
12.39669307546867
 20
511.4880172135022
 30
0.0
 40
0.0099999999999999
100
AcDbArc
 50
189.79454074634
 51
267.382016824924
  0
LINE
  5
BC2
330
23
100
AcDbEntity
  8
sanindusa
100
AcDbLine
 10
12.39623631018464
 20
511.4780276506752
 30
0.0
 11
12.59743522846911
 21
511.4688279807147
 31
0.0
  0
LINE
  5
BC5
330
23
100
AcDbEntity
  8
sanindusa
100
AcDbLine
 10
12.63651095851043
 20
511.4918280171259
 30
0.0
 11
12.57076109277098
 21
511.4918280172138
 31
0.0
  0
LINE
  5
BC7
330
23
100
AcDbEntity
  8
sanindusa
100
AcDbLine
 10
12.56110183481855
 20
511.4992398267618
 30
0.0
 11
12.55686268534572
 21
511.5150605475863
 31
0.0
  0
LINE
  5
BC8
330
23
100
AcDbEntity
  8
sanindusa
100
AcDbLine
 10
12.52696891182253
 20
511.5150605113674
 30
0.0
 11
12.55686268501019
 21
511.5150605113674
 31
0.0
  0
LINE
  5
BCA
330
23
100
AcDbEntity
  8
sanindusa
100
AcDbLine
 10
12.52016468146077
 20
511.5178280172138
 30
0.0
 11
12.45457668165692
 21
511.5178280172138
 31
0.0
  0
ARC
  5
BCB
330
23
100
AcDbEntity
  8
sanindusa
100
AcDbCircle
 10
12.4545766704595
 20
511.5188280232408
 30
0.0
 40
0.0010000060273824
100
AcDbArc
 50
180.0
 51
270.0006415611348
  0
LINE
  5
BCC
330
23
100
AcDbEntity
  8
sanindusa
100
AcDbLine
 10
12.45357709840896
 20
511.5268280172138
 30
0.0
 11
12.45357666443214
 21
511.5188280172191
 31
0.0
  0
ARC
  5
BCD
330
23
100
AcDbEntity
  8
sanindusa
100
AcDbCircle
 10
12.45457667406653
 20
511.5268280075348
 30
0.0
 40
0.0010000095914097
100
AcDbArc
 50
89.99956241592824
 51
180.0
  0
ARC
  5
BCF
330
23
100
AcDbEntity
  8
sanindusa
100
AcDbCircle
 10
12.52696892299312
 20
511.5250605472501
 30
0.0
 40
0.00999999969378
100
AcDbArc
 50
226.3237135270691
 51
270.0000000072262
  0
ARC
  5
BD5
330
23
100
AcDbEntity
  8
sanindusa
100
AcDbCircle
 10
12.21970884440167
 20
511.851726717877
 30
0.0
 40
0.8671211112321412
100
AcDbArc
 50
333.7956068017717
 51
335.477563863753
  0
LINE
  5
BD6
330
23
100
AcDbEntity
  8
sanindusa
100
AcDbLine
 10
13.00861513256024
 20
511.4918280171259
 30
0.0
 11
12.97692972950563
 21
511.4918280171259
 31
0.0
  0
ARC
  5
BD7
330
23
100
AcDbEntity
  8
sanindusa
100
AcDbCircle
 10
12.8919827486756
 20
511.3181239104354
 30
0.0
 40
0.0030000074241743
100
AcDbArc
 50
1.00012489472982
 51
115.6570178279151
  0
LINE
  5
BDD
330
23
100
AcDbEntity
  8
sanindusa
100
AcDbLine
 10
12.60932931589452
 20
511.2349235933502
 30
0.0
 11
12.6248167679779
 21
511.1844344897463
 31
0.0
  0
ARC
  5
BDE
330
23
100
AcDbEntity
  8
sanindusa
100
AcDbCircle
 10
12.59976897575389
 20
511.231990977606
 30
0.0
 40
0.0100000169353805
100
AcDbArc
 50
17.0532932377311
 51
88.99996065351976
  0
ARC
  5
BDF
330
23
100
AcDbEntity
  8
sanindusa
100
AcDbCircle
 10
12.55282806418788
 20
511.2438120291425
 30
0.0
 40
0.001000000860294
100
AcDbArc
 50
178.9999412366842
 51
268.9999525949654
  0
LINE
  5
BE0
330
23
100
AcDbEntity
  8
sanindusa
100
AcDbLine
 10
12.55182821565046
 20
511.2438294825885
 30
0.0
 11
12.55196783490196
 21
511.2518282821555
 31
0.0
  0
ARC
  5
BE1
330
23
100
AcDbEntity
  8
sanindusa
100
AcDbCircle
 10
12.55296768396062
 20
511.2518108310807
 30
0.0
 40
0.0010000013400668
100
AcDbArc
 50
89.00007947547701
 51
179.0000776461588
  0
LINE
  5
BE2
330
23
100
AcDbEntity
  8
sanindusa
100
AcDbLine
 10
12.55298513500355
 20
511.2528106801399
 30
0.0
 11
12.60011801309559
 21
511.2519879704264
 31
0.0
  0
ARC
  5
BE3
330
23
100
AcDbEntity
  8
sanindusa
100
AcDbCircle
 10
12.59976894685302
 20
511.2319909700513
 30
0.0
 40
0.0200000467810351
100
AcDbArc
 50
17.05329885202471
 51
88.99995043921931
  0
LINE
  5
BE4
330
23
100
AcDbEntity
  8
sanindusa
100
AcDbLine
 10
12.6188896389021
 20
511.2378562071998
 30
0.0
 11
12.63437709098548
 21
511.1873671035958
 31
0.0
  0
ARC
  5
BEB
330
23
100
AcDbEntity
  8
sanindusa
100
AcDbCircle
 10
12.9894423208486
 20
511.4568280171024
 30
0.0
 40
0.0020000000235439
100
AcDbArc
 50
332.8410428887181
 51
90.00001552965619
  0
LINE
  5
BEC
330
23
100
AcDbEntity
  8
sanindusa
100
AcDbLine
 10
12.96796999430591
 20
511.458828017126
 30
0.0
 11
12.98944232030651
 21
511.458828017126
 31
0.0
  0
ARC
  5
BED
330
23
100
AcDbEntity
  8
sanindusa
100
AcDbCircle
 10
12.96796999250697
 20
511.4608280180268
 30
0.0
 40
0.0020000009008154
100
AcDbArc
 50
179.0000260101064
 51
270.0000515358761
  0
LINE
  5
BEE
330
23
100
AcDbEntity
  8
sanindusa
100
AcDbLine
 10
12.96597029620013
 20
511.4608629219389
 30
0.0
 11
12.96659162739554
 21
511.4964589101746
 31
0.0
  0
LINE
  5
BF6
330
23
100
AcDbEntity
  8
sanindusa
100
AcDbLine
 10
12.90060204837595
 20
511.1088280172136
 30
0.0
 11
12.90860312938835
 21
511.1088280171259
 31
0.0
  0
ARC
  5
BF7
330
23
100
AcDbEntity
  8
sanindusa
100
AcDbCircle
 10
12.90060189208773
 20
511.1108280197198
 30
0.0
 40
0.0020000027286297
100
AcDbArc
 50
184.0448950021153
 51
273.4275150826596
  0
LINE
  5
BF8
330
23
100
AcDbEntity
  8
sanindusa
100
AcDbLine
 10
12.89551472989877
 20
511.2876734068613
 30
0.0
 11
12.89498229906998
 21
511.3181762743228
 31
0.0
  0
LINE
  5
BF9
330
23
100
AcDbEntity
  8
sanindusa
100
AcDbLine
 10
12.90495125069218
 20
511.3200436151869
 30
0.0
 11
12.9048046830807
 21
511.3284404516347
 31
0.0
  0
LINE
  5
BFA
330
23
100
AcDbEntity
  8
sanindusa
100
AcDbLine
 10
12.90730188832749
 20
511.3233894346252
 30
0.0
 11
12.90492246681314
 21
511.3200494362918
 31
0.0
  0
ARC
  5
BFD
330
23
100
AcDbEntity
  8
sanindusa
100
AcDbCircle
 10
12.88428472129859
 20
511.4918501547399
 30
0.0
 40
0.2877733734973642
100
AcDbArc
 50
186.9259091808728
 51
208.7232217559899
  0
ARC
  5
C00
330
23
100
AcDbEntity
  8
sanindusa
100
AcDbCircle
 10
12.70287149354583
 20
511.376108190069
 30
0.0
 40
0.0725825328641626
100
AcDbArc
 50
213.1655354798732
 51
259.9393755671245
  0
LWPOLYLINE
  5
C08
330
23
100
AcDbEntity
  8
sanindusa
100
AcDbPolyline
 90
       17
 70
   128
 43
0.0
 10
12.83001532115524
 20
511.1088279306509
 10
12.83595658361346
 20
511.1088279319063
 10
12.84179968790289
 20
511.1088279334932
 10
12.84752194846386
 20
511.1088279354055
 10
12.85310114890642
 20
511.1088279376358
 10
12.85851562826438
 20
511.1088279401753
 10
12.86374436509288
 20
511.1088279430143
 10
12.86876705908316
 20
511.1088279461417
 10
12.87356420987743
 20
511.1088279495453
 10
12.87811719277806
 20
511.1088279532119
 10
12.88240833105705
 20
511.1088279571275
 10
12.88642096458501
 20
511.1088279612765
 10
12.8901395145133
 20
511.1088279656432
 10
12.89354954375813
 20
511.1088279702103
 10
12.89663781305179
 20
511.1088279749603
 10
12.89939233234347
 20
511.1088279798746
 10
12.90080935864423
 20
511.1088279827431
  0
LWPOLYLINE
  5
C09
330
23
100
AcDbEntity
  8
sanindusa
100
AcDbPolyline
 90
        9
 70
   128
 43
0.0
 10
12.76572842361689
 20
511.1088279196182
 10
12.77378876349773
 20
511.1088279208781
 10
12.78184246411013
 20
511.108827922172
 10
12.78988934808411
 20
511.1088279235
 10
12.79792923819979
 20
511.1088279248622
 10
12.80596195739135
 20
511.1088279262584
 10
12.81398732875088
 20
511.1088279276885
 10
12.8220051755323
 20
511.1088279291528
 10
12.83001532115524
 20
511.1088279306509
  0
LWPOLYLINE
  5
C0A
330
23
100
AcDbEntity
  8
sanindusa
100
AcDbPolyline
 90
        9
 70
   128
 43
0.0
 10
12.45613695150222
 20
511.1088278972072
 10
12.49357962054097
 20
511.1088278972602
 10
12.53102967354017
 20
511.1088278980395
 10
12.56850448610974
 20
511.1088278995476
 10
12.60595200264974
 20
511.1088279017844
 10
12.64604592274604
 20
511.1088279049915
 10
12.68606843470095
 20
511.1088279090355
 10
12.72595550758757
 20
511.1088279139103
 10
12.76572842361884
 20
511.1088279196182
  0
ARC
  5
C0D
330
23
100
AcDbEntity
  8
sanindusa
100
AcDbCircle
 10
12.57076109269891
 20
511.5018280174047
 30
0.0
 40
0.0100000001909742
100
AcDbArc
 50
195.0000016376858
 51
270.0000004129123
  0
LWPOLYLINE
  5
C0F
330
23
100
AcDbEntity
  8
sanindusa
100
AcDbPolyline
 90
       17
 70
   128
 43
0.0
 10
12.99122184718767
 20
511.4559150959322
 10
12.98462296663259
 20
511.4433080388856
 10
12.97781962480221
 20
511.4308133410062
 10
12.97081336204621
 20
511.4184334775445
 10
12.96360567408245
 20
511.4061709237883
 10
12.95619807147984
 20
511.3940281448849
 10
12.94839199492961
 20
511.3820940346251
 10
12.94073397952864
 20
511.3721781723431
 10
12.93221237813832
 20
511.3627468407133
 10
12.92287121016041
 20
511.353909813915
 10
12.91276579222383
 20
511.3457742159384
 10
12.90197985283213
 20
511.3384351305067
 10
12.89061580562501
 20
511.3319671801737
 10
12.87877913471557
 20
511.3264409531667
 10
12.86658726677729
 20
511.3219016348738
 10
12.85416414983282
 20
511.3183700023259
 10
12.84800517854789
 20
511.3170660644694
  0
LWPOLYLINE
  5
C11
330
23
100
AcDbEntity
  8
sanindusa
100
AcDbPolyline
 90
       17
 70
   128
 43
0.0
 10
12.60876018616206
 20
511.4565744017777
 10
12.60928688737298
 20
511.4526739769845
 10
12.61268923735123
 20
511.4335801863992
 10
12.61743297860848
 20
511.414725561348
 10
12.62347981734505
 20
511.3962488710859
 10
12.62884463431824
 20
511.382721397282
 10
12.63488999689941
 20
511.3695357644157
 10
12.6415835746759
 20
511.3567423797929
 10
12.64888278052222
 20
511.3443853592881
 10
12.65289312844093
 20
511.3384437823714
 10
12.65760626617669
 20
511.3328913940138
 10
12.6630210902429
 20
511.3278541118464
 10
12.6690560545994
 20
511.3234480574885
 10
12.67559000404131
 20
511.3197854429178
 10
12.68248108822368
 20
511.3169398942448
 10
12.68757149570312
 20
511.3154244613771
 10
12.69271009568375
 20
511.3143560049181
  0
ARC
  5
C18
330
23
100
AcDbEntity
  8
sanindusa
100
AcDbCircle
 10
12.21891001923031
 20
511.8521376832922
 30
0.0
 40
0.8800195953964118
100
AcDbArc
 50
322.472420737635
 51
335.6794704289055
  0
LWPOLYLINE
  5
C1B
330
23
100
AcDbEntity
  8
sanindusa
100
AcDbPolyline
 90
       14
 70
   128
 43
0.0
 10
12.79716216408796
 20
511.3198340233578
 10
12.79716222192977
 20
511.3198340245546
 10
12.80206026801154
 20
511.3199459284422
 10
12.80834064919722
 20
511.320011220893
 10
12.81436147269555
 20
511.3199684412214
 10
12.82002095530318
 20
511.3198196533546
 10
12.82509967679154
 20
511.3195786275725
 10
12.829743254993
 20
511.3192569363278
 10
12.83386791598954
 20
511.3188729053818
 10
12.83735145826595
 20
511.3184543528142
 10
12.84025459514109
 20
511.3180152955609
 10
12.8425104814082
 20
511.3175808037243
 10
12.84428268527538
 20
511.3171016631563
 10
12.8450188843838
 20
511.3166917543705
  0
LWPOLYLINE
  5
C1C
330
23
100
AcDbEntity
  8
sanindusa
100
AcDbPolyline
 90
        4
 70
   128
 43
0.0
 10
12.78176929219131
 20
511.319050358472
 10
12.78947670645041
 20
511.3195158037607
 10
12.79716210591712
 20
511.3198340215843
 10
12.79716216408796
 20
511.3198340233578
  0
ARC
  5
C1D
330
23
100
AcDbEntity
  8
sanindusa
100
AcDbCircle
 10
12.75611499392764
 20
511.6957344234696
 30
0.0
 40
0.3775566551426385
100
AcDbArc
 50
270.0918691651458
 51
273.8961475534556
  0
ARC
  5
C20
330
23
100
AcDbEntity
  8
sanindusa
100
AcDbCircle
 10
12.52151572411447
 20
511.5298280173068
 30
0.0
 40
0.0020000000932339
100
AcDbArc
 50
269.9999987214679
 51
0.0
  0
ARC
  5
C21
330
23
100
AcDbEntity
  8
sanindusa
100
AcDbCircle
 10
12.3639852874172
 20
511.5096402236541
 30
0.0
 40
0.0020000001051397
100
AcDbArc
 50
180.0
 51
270.0000016078849
  0
LINE
  5
C23
330
23
100
AcDbEntity
  8
sanindusa
100
AcDbLine
 10
12.5974344302253
 20
511.4688280172138
 30
0.0
 11
12.63731411016178
 21
511.4688280172138
 31
0.0
  0
LINE
  5
C27
330
23
100
AcDbEntity
  8
sanindusa
100
AcDbLine
 10
12.3785773508267
 20
511.5278280172138
 30
0.0
 11
12.38757738021087
 21
511.5278280172138
 31
0.0
  0
LINE
  5
C2B
330
23
100
AcDbEntity
  8
sanindusa
100
AcDbLine
 10
12.45457710269453
 20
511.5278280172138
 30
0.0
 11
12.4635771320787
 21
511.5278280172138
 31
0.0
  0
ARC
  5
C2E
330
23
100
AcDbEntity
  8
sanindusa
100
AcDbCircle
 10
12.47757715818842
 20
511.52982801971
 30
0.0
 40
0.002000002496277
100
AcDbArc
 50
194.477567575689
 51
270.000028414414
  0
LINE
  5
C30
330
23
100
AcDbEntity
  8
sanindusa
100
AcDbLine
 10
12.47757715918027
 20
511.5278280172138
 30
0.0
 11
12.52151572406984
 21
511.5278280172138
 31
0.0
  0
ARC
  5
C3B
330
23
100
AcDbEntity
  8
sanindusa
100
AcDbCircle
 10
12.6875703082106
 20
511.2898726186342
 30
0.0
 40
0.0150000000000097
100
AcDbArc
 50
34.55626836622969
 51
79.93400727667617
  0
ARC
  5
C3D
330
23
100
AcDbEntity
  8
sanindusa
100
AcDbCircle
 10
12.71085967418081
 20
511.2108280172137
 30
0.0
 40
0.0900000000000856
100
AcDbArc
 50
197.0545207676459
 51
270.0000001345502
  0
LINE
  5
C40
330
23
100
AcDbEntity
  8
sanindusa
100
AcDbLine
 10
12.63731411016178
 20
511.4688280172138
 30
0.0
 11
12.63651093246347
 21
511.4918280172138
 31
0.0
  0
ARC
  5
C41
330
23
100
AcDbEntity
  8
sanindusa
100
AcDbCircle
 10
12.62753688733736
 20
511.3511490603058
 30
0.0
 40
0.0050000000000003
100
AcDbArc
 50
271.0000000000197
 51
28.72806353158031
  0
LINE
  5
C44
330
23
100
AcDbEntity
  8
sanindusa
100
AcDbLine
 10
12.72492331694103
 20
511.1208280165243
 30
0.0
 11
12.7108596743922
 21
511.1208280165243
 31
0.0
  0
LINE
  5
C48
330
23
100
AcDbEntity
  8
sanindusa
100
AcDbLine
 10
12.83089788096597
 20
511.2908217088138
 30
0.0
 11
12.81347894104287
 21
511.1947687039758
 31
0.0
  0
ARC
  5
C4C
330
23
100
AcDbEntity
  8
sanindusa
100
AcDbCircle
 10
12.95250620527055
 20
511.2886681954481
 30
0.0
 40
0.044999987047181
100
AcDbArc
 50
142.4723180823229
 51
180.9999987981309
  0
LINE
  5
C4D
330
23
100
AcDbEntity
  8
sanindusa
100
AcDbLine
 10
12.90751307192289
 20
511.2878828383279
 30
0.0
 11
12.91060296731101
 21
511.1108629220264
 31
0.0
  0
ARC
  5
C4F
330
23
100
AcDbEntity
  8
sanindusa
100
AcDbCircle
 10
12.9086032716241
 20
511.1108280175066
 30
0.0
 40
0.0020000002925214
100
AcDbArc
 50
270.0538435068856
 51
0.9999916840038256
  0
LINE
  5
C52
330
23
100
AcDbEntity
  8
sanindusa
100
AcDbLine
 10
12.99771119811404
 20
511.4688280172138
 30
0.0
 11
12.97612666121748
 21
511.4688280172138
 31
0.0
  0
LINE
  5
C53
330
23
100
AcDbEntity
  8
sanindusa
100
AcDbLine
 10
12.97692983915245
 20
511.4918280172138
 30
0.0
 11
12.97612666121766
 21
511.4688280172138
 31
0.0
  0
ARC
  5
C54
330
23
100
AcDbEntity
  8
sanindusa
100
AcDbCircle
 10
12.85052128653713
 20
511.2869462675094
 30
0.0
 40
0.0199999999999994
100
AcDbArc
 50
100.3191672746852
 51
169.7212801944948
  0
ARC
  5
C56
330
23
100
AcDbEntity
  8
sanindusa
100
AcDbCircle
 10
12.36698528744006
 20
511.5278280170786
 30
0.0
 40
0.0050000001352834
100
AcDbArc
 50
89.99999687542308
 51
180.0
  0
LINE
  5
C59
330
23
100
AcDbEntity
  8
sanindusa
100
AcDbLine
 10
12.36198528731208
 20
511.5096402235482
 30
0.0
 11
12.36198528730839
 21
511.5178280172138
 31
0.0
  0
LINE
  5
C5A
330
23
100
AcDbEntity
  8
sanindusa
100
AcDbLine
 10
12.36198528730839
 20
511.5178280172138
 30
0.0
 11
12.36198528730478
 21
511.5278280172138
 31
0.0
  0
LINE
  5
C5D
330
23
100
AcDbEntity
  8
sanindusa
100
AcDbLine
 10
12.37198528813984
 20
511.5308280172138
 30
0.0
 11
12.3747043583473
 21
511.5308280172138
 31
0.0
  0
LINE
  5
C5F
330
23
100
AcDbEntity
  8
sanindusa
100
AcDbLine
 10
12.44432044988601
 20
511.1238280141123
 30
0.0
 11
12.44432044988601
 21
511.1388280173011
 31
0.0
  0
LINE
  5
C61
330
23
100
AcDbEntity
  8
sanindusa
100
AcDbLine
 10
12.47432044988601
 20
511.1388280173011
 30
0.0
 11
12.47432044988601
 21
511.1238280141123
 31
0.0
  0
LINE
  5
C62
330
23
100
AcDbEntity
  8
sanindusa
100
AcDbLine
 10
12.44432044988601
 20
511.1388280173011
 30
0.0
 11
12.47432044988601
 21
511.1388280173011
 31
0.0
  0
LINE
  5
C64
330
23
100
AcDbEntity
  8
sanindusa
100
AcDbLine
 10
12.48432044988601
 20
511.1468280173012
 30
0.0
 11
12.48432044988601
 21
511.115828014096
 31
0.0
  0
LINE
  5
C66
330
23
100
AcDbEntity
  8
sanindusa
100
AcDbLine
 10
12.43632044988601
 20
511.1138280172136
 30
0.0
 11
12.48232044988601
 21
511.1138280172136
 31
0.0
  0
ARC
  5
C68
330
23
100
AcDbEntity
  8
sanindusa
100
AcDbCircle
 10
12.43632044988601
 20
511.1468280173012
 30
0.0
 40
0.0020000000000002
100
AcDbArc
 50
90.0
 51
180.0
  0
LINE
  5
C69
330
23
100
AcDbEntity
  8
sanindusa
100
AcDbLine
 10
12.43632044988601
 20
511.1488280173012
 30
0.0
 11
12.48232044988601
 21
511.1488280173012
 31
0.0
  0
LINE
  5
C6A
330
23
100
AcDbEntity
  8
sanindusa
100
AcDbLine
 10
12.43432044988601
 20
511.1158280172136
 30
0.0
 11
12.43432044988601
 21
511.1468280173012
 31
0.0
  0
LINE
  5
C6C
330
23
100
AcDbEntity
  8
sanindusa
100
AcDbLine
 10
12.44432044988601
 20
511.1238280172137
 30
0.0
 11
12.47432044988601
 21
511.1238280172137
 31
0.0
  0
LINE
  5
C6F
330
23
100
AcDbEntity
  8
sanindusa
100
AcDbLine
 10
12.46745012455964
 20
511.5308280172138
 30
0.0
 11
12.47370416977937
 21
511.5308280172138
 31
0.0
  0
ARC
  5
C71
330
23
100
AcDbEntity
  8
sanindusa
100
AcDbCircle
 10
12.47370417086554
 20
511.5288280145761
 30
0.0
 40
0.0020000026376613
100
AcDbArc
 50
14.47757072737779
 51
90.00003111640968
  0
ARC
  5
C72
330
23
100
AcDbEntity
  8
sanindusa
100
AcDbCircle
 10
12.48232044988546
 20
511.1158280172142
 30
0.0
 40
0.0020000000005604
100
AcDbArc
 50
270.0000000157755
 51
0.0
  0
ARC
  5
C75
330
23
100
AcDbEntity
  8
sanindusa
100
AcDbCircle
 10
12.52551572425478
 20
511.530828017166
 30
0.0
 40
0.0020000000477498
100
AcDbArc
 50
89.99999745209581
 51
180.0
  0
LINE
  5
C76
330
23
100
AcDbEntity
  8
sanindusa
100
AcDbLine
 10
12.56223397347957
 20
511.5270605479148
 30
0.0
 11
12.54399930883868
 21
511.5270605479148
 31
0.0
  0
LINE
  5
C79
330
23
100
AcDbEntity
  8
sanindusa
100
AcDbLine
 10
12.55182821565046
 20
511.3438265520138
 30
0.0
 11
12.55182821565046
 21
511.2438294825885
 31
0.0
  0
ARC
  5
C7B
330
23
100
AcDbEntity
  8
sanindusa
100
AcDbCircle
 10
12.56223397341765
 20
511.5220605473157
 30
0.0
 40
0.0050000005990025
100
AcDbArc
 50
15.00000055546012
 51
89.99999929040553
  0
LINE
  5
C7F
330
23
100
AcDbEntity
  8
sanindusa
100
AcDbLine
 10
12.57613238180939
 20
511.5038280172138
 30
0.0
 11
12.63935016376924
 21
511.5038280172138
 31
0.0
  0
ARC
  5
C81
330
23
100
AcDbEntity
  8
sanindusa
100
AcDbCircle
 10
12.71085967418075
 20
511.2108280172136
 30
0.0
 40
0.0800000000000123
100
AcDbArc
 50
197.0533116474021
 51
269.9999978761019
  0
ARC
  5
C85
330
23
100
AcDbEntity
  8
sanindusa
100
AcDbCircle
 10
12.72492331694102
 20
511.2108280172136
 30
0.0
 40
0.0800000000000049
100
AcDbArc
 50
270.0
 51
349.7212801944948
  0
LINE
  5
C8B
330
23
100
AcDbEntity
  8
sanindusa
100
AcDbLine
 10
12.97409060720781
 20
511.5038280172138
 30
0.0
 11
13.01172038578419
 21
511.5038280172138
 31
0.0
  0
ARC
  5
C8C
330
23
100
AcDbEntity
  8
sanindusa
100
AcDbCircle
 10
12.97409060562049
 20
511.4963280163427
 30
0.0
 40
0.0075000008710336
100
AcDbArc
 50
89.99998787379178
 51
178.9999934623229
  0
ARC
  5
C8D
330
23
100
AcDbEntity
  8
sanindusa
100
AcDbCircle
 10
13.01172038703281
 20
511.4938280171025
 30
0.0
 40
0.0100000001113028
100
AcDbArc
 50
335.6795753172688
 51
90.00000715405979
  0
LINE
  5
C90
330
23
100
AcDbEntity
  8
sanindusa
100
AcDbLine
 10
12.45457710265816
 20
511.5178280172138
 30
0.0
 11
12.38757738024724
 21
511.5178280172138
 31
0.0
  0
LWPOLYLINE
  5
C91
330
23
100
AcDbEntity
  8
sanindusa
100
AcDbPolyline
 90
        3
 70
   128
 43
0.0
 10
12.73290349639601
 20
511.3193205999504
 10
12.74476270603132
 20
511.3184272793367
 10
12.75672036852159
 20
511.3181782534335
  0
LWPOLYLINE
  5
C92
330
23
100
AcDbEntity
  8
sanindusa
100
AcDbPolyline
 90
       13
 70
   128
 43
0.0
 10
12.69514876335201
 20
511.3183457536732
 10
12.69542288221752
 20
511.3187582478287
 10
12.69598693933264
 20
511.3190797230391
 10
12.69741075970453
 20
511.3194345425742
 10
12.70056934782509
 20
511.3198475292345
 10
12.7041812825977
 20
511.3201551285119
 10
12.7083842864534
 20
511.3203693102106
 10
12.71316359293154
 20
511.3204622051522
 10
12.71878557734422
 20
511.3203705485028
 10
12.72196895669681
 20
511.3202285174526
 10
12.72540486331448
 20
511.3200090045419
 10
12.72905506405183
 20
511.3197069159967
 10
12.73290349639601
 20
511.3193205999504
  0
ARC
  5
C93
330
23
100
AcDbEntity
  8
sanindusa
100
AcDbCircle
 10
12.68713721249613
 20
511.3205025091473
 30
0.0
 40
0.0082967789708798
100
AcDbArc
 50
312.1978180352604
 51
344.9328490122293
  0
ARC
  5
C97
330
23
100
AcDbEntity
  8
sanindusa
100
AcDbCircle
 10
12.68913466788526
 20
511.2926484874168
 30
0.0
 40
0.0220000000003025
100
AcDbArc
 50
45.75407477458084
 51
80.64683578827647
  0
ARC
  5
C99
330
23
100
AcDbEntity
  8
sanindusa
100
AcDbCircle
 10
12.72492331694099
 20
511.2108280172137
 30
0.0
 40
0.090000000000041
100
AcDbArc
 50
270.0
 51
349.7212801944948
  0
LWPOLYLINE
  5
C9D
330
23
100
AcDbEntity
  8
sanindusa
100
AcDbPolyline
 90
       31
 70
   128
 43
0.0
 10
12.38757738021087
 20
511.5278280172138
 10
12.38777028487724
 20
511.5278280140595
 10
12.3883267726761
 20
511.5278280109405
 10
12.3892407689132
 20
511.5278280078911
 10
12.39050229628504
 20
511.5278280049444
 10
12.39209758379237
 20
511.5278280021325
 10
12.39400921706629
 20
511.5278279994861
 10
12.39621632846575
 20
511.5278279970343
 10
12.39869482487151
 20
511.5278279948037
 10
12.4014176506898
 20
511.5278279928187
 10
12.40435508319474
 20
511.5278279911009
 10
12.40747505698554
 20
511.5278279896691
 10
12.41074351401664
 20
511.527827988539
 10
12.41412477537987
 20
511.5278279877228
 10
12.41758193078005
 20
511.5278279872295
 10
12.4210772414527
 20
511.5278279870645
 10
12.42457255212535
 20
511.5278279872295
 10
12.42802970752554
 20
511.5278279877228
 10
12.43141096888876
 20
511.527827988539
 10
12.43467942591987
 20
511.5278279896691
 10
12.43779939971066
 20
511.5278279911009
 10
12.4407368322156
 20
511.5278279928187
 10
12.44345965803389
 20
511.5278279948037
 10
12.44593815443965
 20
511.5278279970343
 10
12.44814526583911
 20
511.5278279994861
 10
12.45005689911303
 20
511.5278280021325
 10
12.45165218662036
 20
511.5278280049444
 10
12.4529137139922
 20
511.5278280078911
 10
12.4538277102293
 20
511.5278280109405
 10
12.45438419802816
 20
511.5278280140595
 10
12.45457710269453
 20
511.5278280172138
  0
LINE
  5
CA0
330
23
100
AcDbEntity
  8
sanindusa
100
AcDbLine
 10
12.43432044988601
 20
511.1108311139959
 30
0.0
 11
12.43432044988601
 21
511.1158280172136
 31
0.0
  0
LINE
  5
CA1
330
23
100
AcDbEntity
  8
sanindusa
100
AcDbLine
 10
12.43632044988601
 20
511.1088375195161
 30
0.0
 11
12.48917541283957
 21
511.1088311975615
 31
0.0
  0
LINE
  5
CA2
330
23
100
AcDbEntity
  8
sanindusa
100
AcDbLine
 10
12.48232044988601
 20
511.1116017055123
 30
0.0
 11
12.48232044988601
 21
511.1138280172136
 31
0.0
  0
LINE
  5
CA4
330
23
100
AcDbEntity
  8
sanindusa
100
AcDbLine
 10
12.5131518329932
 20
511.1088636452149
 30
0.0
 11
12.48917541283957
 21
511.1088311975615
 31
0.0
  0
LWPOLYLINE
  5
CA6
330
23
100
AcDbEntity
  8
sanindusa
100
AcDbPolyline
 90
       37
 70
   128
 43
0.0
 10
12.3747043583473
 20
511.5308280172138
 10
12.37488874712001
 20
511.530828013571
 10
12.37542372882181
 20
511.5308280099566
 10
12.37630524268379
 20
511.5308280063978
 10
12.37752659759094
 20
511.530828002922
 10
12.37907852287099
 20
511.5308279995551
 10
12.38094923866323
 20
511.5308279963231
 10
12.38312454533333
 20
511.5308279932501
 10
12.38558793125546
 20
511.5308279903598
 10
12.3883206981434
 20
511.530827987674
 10
12.39130210297964
 20
511.530827985213
 10
12.3945095154648
 20
511.5308279829957
 10
12.39791858979254
 20
511.5308279810387
 10
12.40150344944596
 20
511.5308279793569
 10
12.40523688361284
 20
511.5308279779632
 10
12.40909055372881
 20
511.5308279768681
 10
12.4130352085807
 20
511.5308279760799
 10
12.41704090633733
 20
511.5308279756045
 10
12.42107724182251
 20
511.5308279754456
 10
12.42511357730488
 20
511.5308279756045
 10
12.42911927505312
 20
511.5308279760799
 10
12.43306392989107
 20
511.5308279768681
 10
12.43691759998769
 20
511.5308279779632
 10
12.44065103412994
 20
511.5308279793569
 10
12.44423589375365
 20
511.5308279810387
 10
12.44764496804681
 20
511.5308279829957
 10
12.45085238049278
 20
511.530827985213
 10
12.45383378528553
 20
511.530827987674
 10
12.45656655212602
 20
511.5308279903598
 10
12.45902993799707
 20
511.5308279932501
 10
12.46120524461287
 20
511.5308279963231
 10
12.46307596034799
 20
511.5308279995551
 10
12.46462788556855
 20
511.530828002922
 10
12.46584924041428
 20
511.5308280063978
 10
12.46673075421337
 20
511.5308280099566
 10
12.46726573585129
 20
511.530828013571
 10
12.46745012455964
 20
511.5308280172138
  0
LINE
  5
CA9
330
23
100
AcDbEntity
  8
sanindusa
100
AcDbLine
 10
12.37300968881385
 20
511.5076402235489
 30
0.0
 11
12.37098528806202
 21
511.5076402235489
 31
0.0
  0
ARC
  5
CB2
330
23
100
AcDbEntity
  8
sanindusa
100
AcDbCircle
 10
12.63935016376924
 20
511.4963280172138
 30
0.0
 40
0.0075000000000031
100
AcDbArc
 50
1.000000000107216
 51
90.0
  0
LINE
  5
CB9
330
23
100
AcDbEntity
  8
sanindusa
100
AcDbLine
 10
12.72492331694103
 20
511.1308280165243
 30
0.0
 11
12.7108596743922
 21
511.1308280165243
 31
0.0
  0
LINE
  5
CC2
330
23
100
AcDbEntity
  8
sanindusa
100
AcDbLine
 10
12.82100275560651
 20
511.2922994185329
 30
0.0
 11
12.80363942725377
 21
511.1965530717614
 31
0.0
  0
LWPOLYLINE
  5
CDE
330
23
100
AcDbEntity
  8
sanindusa
100
AcDbPolyline
 90
        9
 70
   128
 43
0.0
 10
12.48432747149171
 20
511.1468278601928
 10
12.48428907561417
 20
511.1472180631159
 10
12.48417530236778
 20
511.1475932753027
 10
12.48399052443051
 20
511.1479390761216
 10
12.48374184342283
 20
511.1482421753162
 10
12.48343881696918
 20
511.1484909237932
 10
12.48309309136726
 20
511.1486757613351
 10
12.48271795398266
 20
511.1487895840306
 10
12.482327822572
 20
511.1488280173012
  0
LINE
  5
CF0
330
23
100
AcDbEntity
  8
sanindusa
100
AcDbLine
 10
12.43432044988601
 20
511.1468280173012
 30
0.0
 11
12.43432044988601
 21
511.1832730821127
 31
0.0
  0
ARC
  5
D02
330
23
100
AcDbEntity
  8
sanindusa
100
AcDbCircle
 10
12.43632044988558
 20
511.1108279060927
 30
0.0
 40
0.0019999999995946
100
AcDbArc
 50
180.0
 51
270.0000000122133
  0
LINE
  5
D0D
330
23
100
AcDbEntity
  8
sanindusa
100
AcDbLine
 10
12.43432044988601
 20
511.1832730821127
 30
0.0
 11
12.43432044988601
 21
511.2423780173012
 31
0.0
  0
LINE
  5
D11
330
23
100
AcDbEntity
  8
sanindusa
100
AcDbLine
 10
12.43432044988601
 20
511.3452780173011
 30
0.0
 11
12.43432044988601
 21
511.4663309971285
 31
0.0
  0
LWPOLYLINE
  5
D24
330
23
100
AcDbEntity
  8
sanindusa
100
AcDbPolyline
 90
        9
 70
   128
 43
0.0
 10
12.61074404079651
 20
511.4588280172137
 10
12.61137454164887
 20
511.4588280052546
 10
12.61320179014971
 20
511.4588279933504
 10
12.6161294060225
 20
511.458827981616
 10
12.62006100899072
 20
511.4588279701668
 10
12.62522424794449
 20
511.4588279584195
 10
12.63136486294602
 20
511.4588279470107
 10
12.63839814162971
 20
511.4588279360041
 10
12.64570719543647
 20
511.4588279261785
  0
LWPOLYLINE
  5
D25
330
23
100
AcDbEntity
  8
sanindusa
100
AcDbPolyline
 90
       15
 70
   128
 43
0.0
 10
12.64585501400412
 20
511.4588279259798
 10
12.64623937162993
 20
511.4588279254631
 10
12.65480384058105
 20
511.4588279154516
 10
12.66133287626449
 20
511.4588279086085
 10
12.6682838324972
 20
511.4588279020793
 10
12.67573756903063
 20
511.4588278960589
 10
12.68377494561619
 20
511.458827890742
 10
12.69293945581123
 20
511.4588278860052
 10
12.70266278657659
 20
511.4588278822101
 10
12.71276805433743
 20
511.4588278794521
 10
12.72138218186672
 20
511.4588278780749
 10
12.7301325053766
 20
511.4588278774859
 10
12.73895697211609
 20
511.4588278774837
 10
12.74779352933419
 20
511.4588278778661
 10
12.75658012427992
 20
511.4588278784317
  0
ARC
  5
D2C
330
23
100
AcDbEntity
  8
sanindusa
100
AcDbCircle
 10
12.85040170883572
 20
511.2874905142971
 30
0.0
 40
0.0296932184329059
100
AcDbArc
 50
100.4443992567733
 51
165.9795661411651
  0
LWPOLYLINE
  5
D31
330
23
100
AcDbEntity
  8
sanindusa
100
AcDbPolyline
 90
        3
 70
   128
 43
0.0
 10
12.48442693646944
 20
511.1108377990497
 10
12.48287755505387
 20
511.1112178380571
 10
12.48232044988601
 20
511.1116017055123
  0
ARC
  5
D55
330
23
100
AcDbEntity
  8
sanindusa
100
AcDbCircle
 10
12.5966258488862
 20
511.4569076146136
 30
0.0
 40
0.002
100
AcDbArc
 50
6.925909180872872
 51
87.38201682492396
  0
LINE
  5
D59
330
23
100
AcDbEntity
  8
sanindusa
100
AcDbLine
 10
12.9740847639877
 20
511.5038280149388
 30
0.0
 11
12.63935016375883
 21
511.5038280172138
 31
0.0
  0
LINE
  5
DE8
330
23
100
AcDbEntity
  8
sanindusa
100
AcDbLine
 10
12.55885225552939
 20
511.2238280173011
 30
0.0
 11
12.57889769834008
 21
511.2242835955468
 31
0.0
  0
LINE
  5
DE9
330
23
100
AcDbEntity
  8
sanindusa
100
AcDbLine
 10
12.57889769834008
 20
511.3633724390554
 30
0.0
 11
12.55885225552939
 21
511.3638280173011
 31
0.0
  0
LINE
  5
DEA
330
23
100
AcDbEntity
  8
sanindusa
100
AcDbLine
 10
12.55885225552938
 20
511.2308641426541
 30
0.0
 11
12.55885225552939
 21
511.2238280173011
 31
0.0
  0
LINE
  5
DEB
330
23
100
AcDbEntity
  8
sanindusa
100
AcDbLine
 10
12.55885225552939
 20
511.3638280173011
 30
0.0
 11
12.55885225552938
 21
511.3567918919481
 31
0.0
  0
LINE
  5
DEC
330
23
100
AcDbEntity
  8
sanindusa
100
AcDbLine
 10
12.58085225552938
 20
511.3523280173011
 30
0.0
 11
12.58085225552935
 21
511.3453389608806
 31
0.0
  0
LINE
  5
DED
330
23
100
AcDbEntity
  8
sanindusa
100
AcDbLine
 10
12.58085225552941
 20
511.2423170737217
 30
0.0
 11
12.58085225552938
 21
511.2353280173011
 31
0.0
  0
LINE
  5
DEE
330
23
100
AcDbEntity
  8
sanindusa
100
AcDbLine
 10
12.58085225552938
 20
511.226283079218
 30
0.0
 11
12.58085225552938
 21
511.2353280173011
 31
0.0
  0
LINE
  5
DEF
330
23
100
AcDbEntity
  8
sanindusa
100
AcDbLine
 10
12.5788522555294
 20
511.2343280173011
 30
0.0
 11
12.5788522555294
 21
511.226283079218
 31
0.0
  0
LINE
  5
DF0
330
23
100
AcDbEntity
  8
sanindusa
100
AcDbLine
 10
12.5788522555294
 20
511.226283079218
 30
0.0
 11
12.57387497693474
 21
511.2261699592499
 31
0.0
  0
LINE
  5
DF1
330
23
100
AcDbEntity
  8
sanindusa
100
AcDbLine
 10
12.56085225552939
 20
511.2268969738127
 30
0.0
 11
12.56085225552939
 21
511.2299371806384
 31
0.0
  0
LINE
  5
DF7
330
23
100
AcDbEntity
  8
sanindusa
100
AcDbLine
 10
12.56285225552938
 20
511.228978010917
 30
0.0
 11
12.56285225552938
 21
511.2268969738127
 31
0.0
  0
LINE
  5
DF8
330
23
100
AcDbEntity
  8
sanindusa
100
AcDbLine
 10
12.57398612143365
 20
511.242438240794
 30
0.0
 11
12.5788522555294
 21
511.2343280173011
 31
0.0
  0
LINE
  5
DF9
330
23
100
AcDbEntity
  8
sanindusa
100
AcDbLine
 10
12.58085225552938
 20
511.2353280173011
 30
0.0
 11
12.57772145291673
 21
511.2423723231795
 31
0.0
  0
LINE
  5
DFA
330
23
100
AcDbEntity
  8
sanindusa
100
AcDbLine
 10
12.5788522555294
 20
511.3613729553843
 30
0.0
 11
12.5788522555294
 21
511.3533280173012
 31
0.0
  0
LINE
  5
DFB
330
23
100
AcDbEntity
  8
sanindusa
100
AcDbLine
 10
12.58085225552938
 20
511.3523280173011
 30
0.0
 11
12.58085225552938
 21
511.3613729553843
 31
0.0
  0
LINE
  5
DFC
330
23
100
AcDbEntity
  8
sanindusa
100
AcDbLine
 10
12.5788522555294
 20
511.3533280173012
 30
0.0
 11
12.5739861214337
 21
511.3452177938083
 31
0.0
  0
LINE
  5
DFD
330
23
100
AcDbEntity
  8
sanindusa
100
AcDbLine
 10
12.57772145291673
 20
511.3452837114227
 30
0.0
 11
12.58085225552938
 21
511.3523280173011
 31
0.0
  0
LINE
  5
DFE
330
23
100
AcDbEntity
  8
sanindusa
100
AcDbLine
 10
12.57387497693474
 20
511.3614860753524
 30
0.0
 11
12.5788522555294
 21
511.3613729553843
 31
0.0
  0
LINE
  5
DFF
330
23
100
AcDbEntity
  8
sanindusa
100
AcDbLine
 10
12.56085225552939
 20
511.3593280173011
 30
0.0
 11
12.56085225552939
 21
511.3607590607896
 31
0.0
  0
LINE
  5
E00
330
23
100
AcDbEntity
  8
sanindusa
100
AcDbLine
 10
12.56285225552938
 20
511.3607590607896
 30
0.0
 11
12.56285225552938
 21
511.3593280173011
 31
0.0
  0
ARC
  5
E06
330
23
100
AcDbEntity
  8
sanindusa
100
AcDbCircle
 10
12.5618522555294
 20
511.2268969738127
 30
0.0
 40
0.0010000000000002
100
AcDbArc
 50
180.0
 51
0.0
  0
ARC
  5
E07
330
23
100
AcDbEntity
  8
sanindusa
100
AcDbCircle
 10
12.56585225552939
 20
511.2269878829036
 30
0.0
 40
0.0010000000000002
100
AcDbArc
 50
180.5639345062287
 51
343.1500899907014
  0
ARC
  5
E08
330
23
100
AcDbEntity
  8
sanindusa
100
AcDbCircle
 10
12.56985225552938
 20
511.2270787919945
 30
0.0
 40
0.0010000000000002
100
AcDbArc
 50
202.3816771988399
 51
337.6183228011601
  0
ARC
  5
E09
330
23
100
AcDbEntity
  8
sanindusa
100
AcDbCircle
 10
12.5738522555294
 20
511.2271697010854
 30
0.0
 40
0.0010000000000002
100
AcDbArc
 50
208.1436502304407
 51
271.3019526720243
  0
ARC
  5
E0A
330
23
100
AcDbEntity
  8
sanindusa
100
AcDbCircle
 10
12.56985225552938
 20
511.3605772426078
 30
0.0
 40
0.0010000000000002
100
AcDbArc
 50
22.38167719520828
 51
157.6183228047917
  0
ARC
  5
E0B
330
23
100
AcDbEntity
  8
sanindusa
100
AcDbCircle
 10
12.5618522555294
 20
511.3607590607896
 30
0.0
 40
0.0010000000000002
100
AcDbArc
 50
0.0
 51
180.0
  0
LINE
  5
E0C
330
23
100
AcDbEntity
  8
sanindusa
100
AcDbLine
 10
12.56085225552939
 20
511.3607590607896
 30
0.0
 11
12.56085225552939
 21
511.3577188539639
 31
0.0
  0
ARC
  5
E0D
330
23
100
AcDbEntity
  8
sanindusa
100
AcDbCircle
 10
12.56585225552939
 20
511.3606681516986
 30
0.0
 40
0.0010000000000002
100
AcDbArc
 50
16.84991000579799
 51
179.4360654872567
  0
LINE
  5
E0E
330
23
100
AcDbEntity
  8
sanindusa
100
AcDbLine
 10
12.56285225552938
 20
511.3586780236853
 30
0.0
 11
12.56285225552938
 21
511.3607590607896
 31
0.0
  0
ARC
  5
E12
330
23
100
AcDbEntity
  8
sanindusa
100
AcDbCircle
 10
12.5738522555294
 20
511.3604863335169
 30
0.0
 40
0.0010000000000002
100
AcDbArc
 50
88.69804732797568
 51
151.8563497695593
  0
ARC
  5
E15
330
23
100
AcDbEntity
  8
sanindusa
100
AcDbCircle
 10
12.5788522555294
 20
511.3613729553843
 30
0.0
 40
0.002
100
AcDbArc
 50
0.0
 51
88.69804732797568
  0
ARC
  5
E16
330
23
100
AcDbEntity
  8
sanindusa
100
AcDbCircle
 10
12.5788522555294
 20
511.226283079218
 30
0.0
 40
0.002
100
AcDbArc
 50
271.3019526720243
 51
0.0
  0
LINE
  5
E19
330
23
100
AcDbEntity
  8
sanindusa
100
AcDbLine
 10
12.56655300804837
 20
511.3585080173011
 30
0.0
 11
12.56655300804837
 21
511.3450866212192
 31
0.0
  0
LINE
  5
E1A
330
23
100
AcDbEntity
  8
sanindusa
100
AcDbLine
 10
12.56655300804837
 20
511.2425694133832
 30
0.0
 11
12.56655300804837
 21
511.2291480173011
 31
0.0
  0
LINE
  5
E1B
330
23
100
AcDbEntity
  8
sanindusa
100
AcDbLine
 10
12.56023225552943
 20
511.3487080173012
 30
0.0
 11
12.56023225552945
 21
511.3449750785277
 31
0.0
  0
LINE
  5
E1C
330
23
100
AcDbEntity
  8
sanindusa
100
AcDbLine
 10
12.56023225552945
 20
511.2426809560747
 30
0.0
 11
12.56023225552943
 21
511.2389480173011
 31
0.0
  0
LINE
  5
E23
330
23
100
AcDbEntity
  8
sanindusa
100
AcDbLine
 10
12.55557004340284
 20
511.2397250526556
 30
0.0
 11
12.55557004340287
 21
511.2427632304063
 31
0.0
  0
LINE
  5
E24
330
23
100
AcDbEntity
  8
sanindusa
100
AcDbLine
 10
12.55557004340281
 20
511.344892804196
 30
0.0
 11
12.55557004340284
 21
511.3479309819466
 31
0.0
  0
LINE
  5
E25
330
23
100
AcDbEntity
  8
sanindusa
100
AcDbLine
 10
12.54859114946612
 20
511.2462980173011
 30
0.0
 11
12.54859114946612
 21
511.3413580173011
 31
0.0
  0
LINE
  5
E26
330
23
100
AcDbEntity
  8
sanindusa
100
AcDbLine
 10
12.29465225552943
 20
511.2458080173011
 30
0.0
 11
12.29465225552943
 21
511.3418480173011
 31
0.0
  0
LINE
  5
E27
330
23
100
AcDbEntity
  8
sanindusa
100
AcDbLine
 10
12.29514225552941
 20
511.3413580173011
 30
0.0
 11
12.29514225552941
 21
511.2462980173011
 31
0.0
  0
LINE
  5
E28
330
23
100
AcDbEntity
  8
sanindusa
100
AcDbLine
 10
12.53410810120238
 20
511.3453234463615
 30
0.0
 11
12.56271331386807
 21
511.3585814191584
 31
0.0
  0
LINE
  5
E29
330
23
100
AcDbEntity
  8
sanindusa
100
AcDbLine
 10
12.54928411411168
 20
511.3416450526555
 30
0.0
 11
12.55557004340284
 21
511.3479309819466
 31
0.0
  0
LINE
  5
E2A
330
23
100
AcDbEntity
  8
sanindusa
100
AcDbLine
 10
12.29514225552941
 20
511.3413580173011
 30
0.0
 11
12.54859114946612
 21
511.3413580173011
 31
0.0
  0
LINE
  5
E2B
330
23
100
AcDbEntity
  8
sanindusa
100
AcDbLine
 10
12.30285665678636
 20
511.3452780173012
 30
0.0
 11
12.53390205101519
 21
511.3452780173012
 31
0.0
  0
ARC
  5
E2C
330
23
100
AcDbEntity
  8
sanindusa
100
AcDbCircle
 10
12.30285665678636
 20
511.3104450581253
 30
0.0
 40
0.0348329591759133
100
AcDbArc
 50
90.0
 51
102.9810230690337
  0
ARC
  5
E2D
330
23
100
AcDbEntity
  8
sanindusa
100
AcDbCircle
 10
12.29514225552941
 20
511.3439103664042
 30
0.0
 40
0.0004900000000001
100
AcDbArc
 50
102.9810230690337
 51
180.0
  0
LINE
  5
E2E
330
23
100
AcDbEntity
  8
sanindusa
100
AcDbLine
 10
12.29465225552943
 20
511.3418480173011
 30
0.0
 11
12.29465225552943
 21
511.3439103664042
 31
0.0
  0
ARC
  5
E2F
330
23
100
AcDbEntity
  8
sanindusa
100
AcDbCircle
 10
12.29514225552941
 20
511.3418480173011
 30
0.0
 40
0.00049
100
AcDbArc
 50
180.0
 51
270.0
  0
ARC
  5
E30
330
23
100
AcDbEntity
  8
sanindusa
100
AcDbCircle
 10
12.54859114946612
 20
511.3423380173012
 30
0.0
 40
0.00098
100
AcDbArc
 50
270.0
 51
314.9999999999998
  0
ARC
  5
E31
330
23
100
AcDbEntity
  8
sanindusa
100
AcDbCircle
 10
12.53390205101519
 20
511.3457680173011
 30
0.0
 40
0.00049
100
AcDbArc
 50
270.0
 51
294.8668271162502
  0
ARC
  5
E32
330
23
100
AcDbEntity
  8
sanindusa
100
AcDbCircle
 10
12.5778722555294
 20
511.3599780173012
 30
0.0
 40
0.0009800000000001
100
AcDbArc
 50
0.0
 51
90.0
  0
ARC
  5
E33
330
23
100
AcDbEntity
  8
sanindusa
100
AcDbCircle
 10
12.56553818482052
 20
511.3599780173012
 30
0.0
 40
0.0009799999999999
100
AcDbArc
 50
90.0
 51
134.9999999999997
  0
LINE
  5
E34
330
23
100
AcDbEntity
  8
sanindusa
100
AcDbLine
 10
12.56655300804837
 20
511.3585080173011
 30
0.0
 11
12.5778722555294
 21
511.3585080173011
 31
0.0
  0
LINE
  5
E35
330
23
100
AcDbEntity
  8
sanindusa
100
AcDbLine
 10
12.56553818482052
 20
511.3609580173011
 30
0.0
 11
12.5778722555294
 21
511.3609580173011
 31
0.0
  0
ARC
  5
E36
330
23
100
AcDbEntity
  8
sanindusa
100
AcDbCircle
 10
12.5562630080484
 20
511.3472380173011
 30
0.0
 40
0.00098
100
AcDbArc
 50
90.0
 51
134.9999999999997
  0
LINE
  5
E37
330
23
100
AcDbEntity
  8
sanindusa
100
AcDbLine
 10
12.55971763178888
 20
511.3520785703328
 30
0.0
 11
12.55971763178888
 21
511.3506926410416
 31
0.0
  0
LINE
  5
E38
330
23
100
AcDbEntity
  8
sanindusa
100
AcDbLine
 10
12.55974225552944
 20
511.3482180173011
 30
0.0
 11
12.5562630080484
 21
511.3482180173011
 31
0.0
  0
ARC
  5
E39
330
23
100
AcDbEntity
  8
sanindusa
100
AcDbCircle
 10
12.55974225552944
 20
511.3487080173012
 30
0.0
 40
0.0004900000000001
100
AcDbArc
 50
270.0
 51
0.0
  0
LINE
  5
E3A
330
23
100
AcDbEntity
  8
sanindusa
100
AcDbLine
 10
12.56023225552943
 20
511.3499750526556
 30
0.0
 11
12.56023225552943
 21
511.3487080173012
 31
0.0
  0
ARC
  5
E3B
330
23
100
AcDbEntity
  8
sanindusa
100
AcDbCircle
 10
12.55974225552944
 20
511.3499750526556
 30
0.0
 40
0.0004900000000001
100
AcDbArc
 50
0.0
 51
45.00000000000022
  0
LINE
  5
E3C
330
23
100
AcDbEntity
  8
sanindusa
100
AcDbLine
 10
12.55971763178888
 20
511.3506926410416
 30
0.0
 11
12.56008873785222
 21
511.3503215349783
 31
0.0
  0
ARC
  5
E3D
330
23
100
AcDbEntity
  8
sanindusa
100
AcDbCircle
 10
12.56041059643445
 20
511.3513856056872
 30
0.0
 40
0.00098
100
AcDbArc
 50
134.9999999999997
 51
225.0000000000002
  0
ARC
  5
E3E
330
23
100
AcDbEntity
  8
sanindusa
100
AcDbCircle
 10
12.56655300804837
 20
511.3575280173011
 30
0.0
 40
0.0009799999999999
100
AcDbArc
 50
90.0
 51
134.9999999999997
  0
ARC
  5
E3F
330
23
100
AcDbEntity
  8
sanindusa
100
AcDbCircle
 10
12.56250726368088
 20
511.3590259900981
 30
0.0
 40
0.00049
100
AcDbArc
 50
294.8668271162502
 51
314.9999999999998
  0
LINE
  5
E40
330
23
100
AcDbEntity
  8
sanindusa
100
AcDbLine
 10
12.56285374600367
 20
511.3586795077754
 30
0.0
 11
12.56484522017501
 21
511.3606709819467
 31
0.0
  0
LINE
  5
E41
330
23
100
AcDbEntity
  8
sanindusa
100
AcDbLine
 10
12.55971763178888
 20
511.3520785703328
 30
0.0
 11
12.56586004340281
 21
511.3582209819467
 31
0.0
  0
ARC
  5
E42
330
23
100
AcDbEntity
  8
sanindusa
100
AcDbCircle
 10
12.5778722555294
 20
511.3594880173011
 30
0.0
 40
0.0009800000000001
100
AcDbArc
 50
270.0
 51
0.0
  0
LINE
  5
E43
330
23
100
AcDbEntity
  8
sanindusa
100
AcDbLine
 10
12.57885225552942
 20
511.3599780173012
 30
0.0
 11
12.57885225552942
 21
511.3594880173011
 31
0.0
  0
LINE
  5
E44
330
23
100
AcDbEntity
  8
sanindusa
100
AcDbLine
 10
12.53410810120238
 20
511.2423325882407
 30
0.0
 11
12.56271331386807
 21
511.2290746154438
 31
0.0
  0
LINE
  5
E45
330
23
100
AcDbEntity
  8
sanindusa
100
AcDbLine
 10
12.55557004340284
 20
511.2397250526556
 30
0.0
 11
12.54928411411168
 21
511.2460109819467
 31
0.0
  0
LINE
  5
E46
330
23
100
AcDbEntity
  8
sanindusa
100
AcDbLine
 10
12.54859114946612
 20
511.2462980173011
 30
0.0
 11
12.29514225552941
 21
511.2462980173011
 31
0.0
  0
LINE
  5
E47
330
23
100
AcDbEntity
  8
sanindusa
100
AcDbLine
 10
12.53390205101519
 20
511.2423780173012
 30
0.0
 11
12.30285665678636
 21
511.2423780173012
 31
0.0
  0
ARC
  5
E48
330
23
100
AcDbEntity
  8
sanindusa
100
AcDbCircle
 10
12.30285665678636
 20
511.2772109764771
 30
0.0
 40
0.0348329591759133
100
AcDbArc
 50
257.0189769309662
 51
270.0
  0
ARC
  5
E49
330
23
100
AcDbEntity
  8
sanindusa
100
AcDbCircle
 10
12.29514225552941
 20
511.2437456681981
 30
0.0
 40
0.00049
100
AcDbArc
 50
180.0
 51
257.0189769309662
  0
ARC
  5
E4A
330
23
100
AcDbEntity
  8
sanindusa
100
AcDbCircle
 10
12.29514225552941
 20
511.2458080173011
 30
0.0
 40
0.00049
100
AcDbArc
 50
90.0
 51
180.0
  0
LINE
  5
E4B
330
23
100
AcDbEntity
  8
sanindusa
100
AcDbLine
 10
12.29465225552943
 20
511.2437456681981
 30
0.0
 11
12.29465225552943
 21
511.2458080173011
 31
0.0
  0
ARC
  5
E4C
330
23
100
AcDbEntity
  8
sanindusa
100
AcDbCircle
 10
12.54859114946612
 20
511.2453180173011
 30
0.0
 40
0.00098
100
AcDbArc
 50
45.00000000000022
 51
90.0
  0
ARC
  5
E4D
330
23
100
AcDbEntity
  8
sanindusa
100
AcDbCircle
 10
12.5778722555294
 20
511.2276780173012
 30
0.0
 40
0.0009800000000001
100
AcDbArc
 50
270.0
 51
0.0
  0
LINE
  5
E4E
330
23
100
AcDbEntity
  8
sanindusa
100
AcDbLine
 10
12.56484522017501
 20
511.2269850526556
 30
0.0
 11
12.56285374600367
 21
511.228976526827
 31
0.0
  0
LINE
  5
E4F
330
23
100
AcDbEntity
  8
sanindusa
100
AcDbLine
 10
12.5778722555294
 20
511.2291480173011
 30
0.0
 11
12.56655300804837
 21
511.2291480173011
 31
0.0
  0
ARC
  5
E50
330
23
100
AcDbEntity
  8
sanindusa
100
AcDbCircle
 10
12.56655300804837
 20
511.2301280173012
 30
0.0
 40
0.00098
100
AcDbArc
 50
225.0000000000002
 51
270.0
  0
ARC
  5
E51
330
23
100
AcDbEntity
  8
sanindusa
100
AcDbCircle
 10
12.56250726368088
 20
511.2286300445042
 30
0.0
 40
0.00049
100
AcDbArc
 50
45.00000000000022
 51
65.13317288374972
  0
ARC
  5
E52
330
23
100
AcDbEntity
  8
sanindusa
100
AcDbCircle
 10
12.5562630080484
 20
511.2404180173012
 30
0.0
 40
0.00098
100
AcDbArc
 50
225.0000000000002
 51
270.0
  0
LINE
  5
E53
330
23
100
AcDbEntity
  8
sanindusa
100
AcDbLine
 10
12.55971763178888
 20
511.2369633935606
 30
0.0
 11
12.55971763178888
 21
511.2355774642694
 31
0.0
  0
ARC
  5
E54
330
23
100
AcDbEntity
  8
sanindusa
100
AcDbCircle
 10
12.56041059643445
 20
511.236270428915
 30
0.0
 40
0.0009799999999999
100
AcDbArc
 50
134.9999999999997
 51
225.0000000000002
  0
LINE
  5
E55
330
23
100
AcDbEntity
  8
sanindusa
100
AcDbLine
 10
12.56008873785222
 20
511.2373344996239
 30
0.0
 11
12.55971763178888
 21
511.2369633935606
 31
0.0
  0
ARC
  5
E56
330
23
100
AcDbEntity
  8
sanindusa
100
AcDbCircle
 10
12.55974225552944
 20
511.2376809819466
 30
0.0
 40
0.0004900000000001
100
AcDbArc
 50
314.9999999999998
 51
0.0
  0
LINE
  5
E57
330
23
100
AcDbEntity
  8
sanindusa
100
AcDbLine
 10
12.56023225552943
 20
511.2389480173011
 30
0.0
 11
12.56023225552943
 21
511.2376809819466
 31
0.0
  0
ARC
  5
E58
330
23
100
AcDbEntity
  8
sanindusa
100
AcDbCircle
 10
12.55974225552944
 20
511.2389480173011
 30
0.0
 40
0.00049
100
AcDbArc
 50
0.0
 51
90.0
  0
LINE
  5
E59
330
23
100
AcDbEntity
  8
sanindusa
100
AcDbLine
 10
12.5562630080484
 20
511.2394380173012
 30
0.0
 11
12.55974225552944
 21
511.2394380173012
 31
0.0
  0
LINE
  5
E5A
330
23
100
AcDbEntity
  8
sanindusa
100
AcDbLine
 10
12.56586004340281
 20
511.2294350526556
 30
0.0
 11
12.55971763178888
 21
511.2355774642694
 31
0.0
  0
LINE
  5
E5B
330
23
100
AcDbEntity
  8
sanindusa
100
AcDbLine
 10
12.57885225552942
 20
511.2281680173011
 30
0.0
 11
12.57885225552942
 21
511.2276780173012
 31
0.0
  0
ARC
  5
E5C
330
23
100
AcDbEntity
  8
sanindusa
100
AcDbCircle
 10
12.5778722555294
 20
511.2281680173011
 30
0.0
 40
0.0009800000000001
100
AcDbArc
 50
0.0
 51
90.0
  0
LINE
  5
E5D
330
23
100
AcDbEntity
  8
sanindusa
100
AcDbLine
 10
12.5778722555294
 20
511.2266980173012
 30
0.0
 11
12.56553818482052
 21
511.2266980173012
 31
0.0
  0
ARC
  5
E5E
330
23
100
AcDbEntity
  8
sanindusa
100
AcDbCircle
 10
12.56553818482052
 20
511.2276780173012
 30
0.0
 40
0.00098
100
AcDbArc
 50
225.0000000000002
 51
270.0
  0
ENDSEC
  0
SECTION
  2
OBJECTS
  0
DICTIONARY
  5
C
330
0
100
AcDbDictionary
281
     1
  3
ACAD_COLOR
350
1C
  3
ACAD_GROUP
350
D
  3
ACAD_LAYOUT
350
1A
  3
ACAD_MATERIAL
350
1B
  3
ACAD_MLEADERSTYLE
350
EA6
  3
ACAD_MLINESTYLE
350
17
  3
ACAD_PLOTSETTINGS
350
19
  3
ACAD_PLOTSTYLENAME
350
E
  3
ACAD_SCALELIST
350
E94
  3
ACAD_TABLESTYLE
350
1D
  3
ACAD_VISUALSTYLE
350
E80
  3
ACDB_RECOMPOSE_DATA
350
EB9
  3
AcDbVariableDictionary
350
D4C
  3
ASE_INDEX_DICTIONARY
350
D49
  3
DWGPROPS
350
EBA
  0
DICTIONARY
  5
EAA
330
10
100
AcDbDictionary
280
     1
281
     1
  3
ADSK_XREC_LAYER_RECONCILED
360
EAB
  0
DICTIONARY
  5
EAC
330
30
100
AcDbDictionary
280
     1
281
     1
  3
ADSK_XREC_LAYER_RECONCILED
360
EAD
  0
DICTIONARY
  5
EAE
330
D40
100
AcDbDictionary
280
     1
281
     1
  3
ADSK_XREC_LAYER_RECONCILED
360
EAF
  0
DICTIONARY
  5
EB0
330
D68
100
AcDbDictionary
280
     1
281
     1
  3
ADSK_XREC_LAYER_RECONCILED
360
EB1
  0
DICTIONARY
  5
D56
330
23
100
AcDbDictionary
280
     1
281
     1
  3
ACAD_SORTENTS
360
D57
  0
DICTIONARY
  5
1C
102
{ACAD_REACTORS
330
C
102
}
330
C
100
AcDbDictionary
281
     1
  0
DICTIONARY
  5
D
102
{ACAD_REACTORS
330
C
102
}
330
C
100
AcDbDictionary
281
     1
  0
DICTIONARY
  5
1A
102
{ACAD_REACTORS
330
C
102
}
330
C
100
AcDbDictionary
281
     1
  3
Layout1
350
22
  3
Layout2
350
2A
  3
Model
350
26
  0
DICTIONARY
  5
1B
102
{ACAD_REACTORS
330
C
102
}
330
C
100
AcDbDictionary
281
     1
  3
ByBlock
350
E70
  3
ByLayer
350
E68
  3
Global
350
E78
  0
DICTIONARY
  5
EA6
102
{ACAD_REACTORS
330
C
102
}
330
C
100
AcDbDictionary
281
     1
  3
Standard
350
EA7
  0
DICTIONARY
  5
17
102
{ACAD_REACTORS
330
C
102
}
330
C
100
AcDbDictionary
281
     1
  3
Standard
350
18
  0
DICTIONARY
  5
19
102
{ACAD_REACTORS
330
C
102
}
330
C
100
AcDbDictionary
281
     1
  0
ACDBDICTIONARYWDFLT
  5
E
102
{ACAD_REACTORS
330
C
102
}
330
C
100
AcDbDictionary
281
     1
  3
Normal
350
F
100
AcDbDictionaryWithDefault
340
F
  0
DICTIONARY
  5
E94
102
{ACAD_REACTORS
330
C
102
}
330
C
100
AcDbDictionary
281
     1
  3
A0
350
E95
  3
A1
350
E96
  3
A2
350
E97
  3
A3
350
E98
  3
A4
350
E99
  3
A5
350
E9A
  3
A6
350
E9B
  3
A7
350
E9C
  3
A8
350
E9D
  3
A9
350
E9E
  3
B0
350
E9F
  3
B1
350
EA0
  3
B2
350
EA1
  3
B3
350
EA2
  3
B4
350
EA3
  3
B5
350
EA4
  3
B6
350
EA5
  0
DICTIONARY
  5
1D
102
{ACAD_REACTORS
330
C
102
}
330
C
100
AcDbDictionary
281
     1
  3
Standard
350
1E
  0
DICTIONARY
  5
E80
102
{ACAD_REACTORS
330
C
102
}
330
C
100
AcDbDictionary
281
     1
  3
2dWireframe
350
E86
  3
3D Hidden
350
E88
  3
3dWireframe
350
E87
  3
Basic
350
E85
  3
Brighten
350
E8C
  3
ColorChange
350
E90
  3
Conceptual
350
E89
  3
Dim
350
E8B
  3
EdgeColorOff
350
E93
  3
Facepattern
350
E8F
  3
Flat
350
E81
  3
FlatWithEdges
350
E82
  3
Gouraud
350
E83
  3
GouraudWithEdges
350
E84
  3
JitterOff
350
E91
  3
Linepattern
350
E8E
  3
OverhangOff
350
E92
  3
Realistic
350
E8A
  3
Thicken
350
E8D
  0
XRECORD
  5
EB9
102
{ACAD_REACTORS
330
C
102
}
330
C
100
AcDbXrecord
280
     1
 90
        1
330
1E
  0
DICTIONARY
  5
D4C
102
{ACAD_REACTORS
330
C
102
}
330
C
100
AcDbDictionary
281
     1
  3
CANNOSCALE
350
EB3
  3
CMLEADERSTYLE
350
EB2
  3
CTABLESTYLE
350
D4D
  3
DIMASSOC
350
D63
  3
HIDETEXT
350
D62
  3
INDEXCTL
350
EB5
  3
PROJECTNAME
350
D64
  3
SORTENTS
350
EB4
  3
XCLIPFRAME
350
EB6
  0
DICTIONARY
  5
D49
102
{ACAD_REACTORS
330
C
102
}
330
C
100
AcDbDictionary
281
     1
  3
ASEBlockHierarchyIndexRecord
350
D4A
1001
DCO15
1040
1554698190.031
  0
XRECORD
  5
EBA
102
{ACAD_REACTORS
330
C
102
}
330
C
100
AcDbXrecord
280
     1
  1
DWGPROPS COOKIE
  2

  3

  4

  6

  7

  8
Julio
  9

300
=
301
=
302
=
303
=
304
=
305
=
306
=
307
=
308
=
309
=
 40
0.0176926041666667
 41
2453797.42995985
 42
2456147.426319259
  1

 90
        0
  0
XRECORD
  5
EAB
102
{ACAD_REACTORS
330
EAA
102
}
330
EAA
100
AcDbXrecord
280
     1
290
     1
  0
XRECORD
  5
EAD
102
{ACAD_REACTORS
330
EAC
102
}
330
EAC
100
AcDbXrecord
280
     1
290
     1
  0
XRECORD
  5
EAF
102
{ACAD_REACTORS
330
EAE
102
}
330
EAE
100
AcDbXrecord
280
     1
290
     1
  0
XRECORD
  5
EB1
102
{ACAD_REACTORS
330
EB0
102
}
330
EB0
100
AcDbXrecord
280
     1
290
     1
  0
SORTENTSTABLE
  5
D57
102
{ACAD_REACTORS
330
D56
102
}
330
D56
100
AcDbSortentsTable
330
23
331
9F7
  5
9F7
331
955
  5
955
331
9F3
  5
9F3
331
A36
  5
A36
331
9EF
  5
9EF
331
98C
  5
98C
331
749
  5
749
331
A32
  5
A32
331
9EB
  5
9EB
331
80E
  5
80E
331
7CF
  5
7CF
331
7CB
  5
7CB
331
741
  5
741
331
8C5
  5
8C5
331
8C1
  5
8C1
331
886
  5
886
331
B33
  5
B33
331
BC7
  5
BC7
331
843
  5
843
331
900
  5
900
331
B2F
  5
B2F
331
AF4
  5
AF4
331
C3D
  5
C3E
331
8B9
  5
8B9
331
AF0
  5
AF0
331
BBF
  5
BBF
331
BFA
  5
BFA
331
6BF
  5
6BF
331
A2E
  5
A2E
331
9E7
  5
9E7
331
980
  5
980
331
A2A
  5
A2A
331
9E3
  5
9E3
331
941
  5
941
331
784
  5
784
331
7C7
  5
7C7
331
73D
  5
73D
331
A26
  5
A26
331
A22
  5
A22
331
9DB
  5
9DB
331
7FA
  5
7FA
331
7BB
  5
7BB
331
731
  5
731
331
83F
  5
83F
331
D55
  5
BFE
331
8FC
  5
8FC
331
83B
  5
83B
331
8F8
  5
8F8
331
AEC
  5
AEC
331
B76
  5
B76
331
B27
  5
B27
331
A6D
  5
A6D
331
8B1
  5
8B1
331
833
  5
833
331
D02
  5
D03
331
BF6
  5
BF6
331
BB7
  5
BB7
331
8F4
  5
8F4
331
AE4
  5
AE4
331
C6C
  5
C6D
331
8F0
  5
8F0
331
B62
  5
B62
331
B1B
  5
B1B
331
AE0
  5
AE0
331
BEE
  5
BEE
331
C68
  5
C69
331
BAF
  5
BAF
331
C64
  5
C65
331
C21
  5
C22
331
702
  5
702
331
A1E
  5
A1E
331
A1A
  5
A1A
331
931
  5
931
331
7F6
  5
7F6
331
7B7
  5
7B7
331
72D
  5
72D
331
9CF
  5
9CF
331
92D
  5
92D
331
729
  5
729
331
C97
  5
C98
331
82F
  5
82F
331
C93
  5
C94
331
8EC
  5
8EC
331
8A5
  5
8A5
331
86A
  5
86A
331
CDE
  5
CDF
331
ADC
  5
ADC
331
8E8
  5
8E8
331
866
  5
866
331
B13
  5
B13
331
AD8
  5
AD8
331
BA7
  5
BA7
331
C8B
  5
C8C
331
862
  5
862
331
D31
  5
D32
331
8E0
  5
8E0
331
BE2
  5
BE2
331
C1D
  5
C1E
331
BA3
  5
BA3
331
899
  5
899
331
A51
  5
A51
331
BDE
  5
BDE
331
B9F
  5
B9F
331
C54
  5
C55
331
C11
  5
C12
331
6DE
  5
6DE
331
6DA
  5
6DA
331
9C7
  5
9C7
331
719
  5
719
331
9FE
  5
9FE
331
91D
  5
91D
331
85E
  5
85E
331
81F
  5
81F
331
CC2
  5
CC3
331
81B
  5
81B
331
C7F
  5
C80
331
B07
  5
B07
331
ACC
  5
ACC
331
817
  5
817
331
C7B
  5
C7C
331
D25
  5
D26
331
8CC
  5
8CC
331
B42
  5
B42
331
B03
  5
B03
331
A49
  5
A49
331
BD6
  5
BD6
331
88D
  5
88D
331
AFF
  5
AFF
331
AC4
  5
AC4
331
C4C
  5
C4D
331
C0D
  5
C0E
331
B93
  5
B93
331
A39
  5
A39
331
C48
  5
C49
331
C09
  5
C0A
331
B8B
  5
B8B
331
C44
  5
C45
331
BCA
  5
BCA
331
6CE
  5
6CE
331
C40
  5
C41
331
6C6
  5
6C6
331
6C2
  5
6C2
331
9F6
  5
9F6
331
98F
  5
98F
331
7D6
  5
7D6
331
74C
  5
74C
331
A35
  5
A35
331
78F
  5
78F
331
7D2
  5
7D2
331
748
  5
748
331
A31
  5
A31
331
9EA
  5
9EA
331
948
  5
948
331
744
  5
744
331
84E
  5
84E
331
7CA
  5
7CA
331
740
  5
740
331
CB2
  5
CB3
331
B36
  5
B36
331
8C0
  5
8C0
331
885
  5
885
331
D11
  5
D12
331
903
  5
903
331
AF7
  5
AF7
331
B32
  5
B32
331
A78
  5
A78
331
8BC
  5
8BC
331
881
  5
881
331
AF3
  5
AF3
331
BC2
  5
BC2
331
8B8
  5
8B8
331
B79
  5
B79
331
A70
  5
A70
331
BFD
  5
BFD
331
BBE
  5
BBE
331
BF9
  5
BF9
331
BBA
  5
BBA
331
6BE
  5
6BE
331
C30
  5
C31
331
709
  5
709
331
987
  5
987
331
A2D
  5
A2D
331
A29
  5
A29
331
940
  5
940
331
7C6
  5
7C6
331
783
  5
783
331
97B
  5
97B
331
93C
  5
93C
331
801
  5
801
331
938
  5
938
331
7BA
  5
7BA
331
D0D
  5
D0E
331
CA6
  5
CA7
331
87D
  5
87D
331
8FF
  5
8FF
331
83E
  5
83E
331
CA2
  5
CA3
331
AEF
  5
AEF
331
8FB
  5
8FB
331
879
  5
879
331
8F7
  5
8F7
331
B26
  5
B26
331
AEB
  5
AEB
331
8B0
  5
8B0
331
875
  5
875
331
AE7
  5
AE7
331
C6F
  5
C70
331
8AC
  5
8AC
331
AE3
  5
AE3
331
BB2
  5
BB2
331
B1A
  5
B1A
331
A60
  5
A60
331
BED
  5
BED
331
BAE
  5
BAE
331
BAA
  5
BAA
331
C20
  5
C21
331
977
  5
977
331
A1D
  5
A1D
331
9D6
  5
9D6
331
973
  5
973
331
96F
  5
96F
331
76B
  5
76B
331
7F5
  5
7F5
331
7B6
  5
7B6
331
72C
  5
72C
331
A15
  5
A15
331
7F1
  5
7F1
331
728
  5
728
331
763
  5
763
331
7ED
  5
7ED
331
724
  5
724
331
8EF
  5
8EF
331
82E
  5
82E
331
7E9
  5
7E9
331
C92
  5
C93
331
8EB
  5
8EB
331
82A
  5
82A
331
B16
  5
B16
331
ADB
  5
ADB
331
865
  5
865
331
B12
  5
B12
331
C5F
  5
C60
331
B0E
  5
B0E
331
AD3
  5
AD3
331
BE1
  5
BE1
331
C1C
  5
C1D
331
BA2
  5
BA2
331
C18
  5
C19
331
BDD
  5
BDD
331
C53
  5
C54
331
6F5
  5
6F5
331
6DD
  5
6DD
331
6D9
  5
6D9
331
924
  5
924
331
75F
  5
75F
331
A01
  5
A01
331
71C
  5
71C
331
9C2
  5
9C2
331
95F
  5
95F
331
79E
  5
79E
331
757
  5
757
331
91C
  5
91C
331
9F9
  5
9F9
331
753
  5
753
331
7DD
  5
7DD
331
714
  5
714
331
992
  5
992
331
918
  5
918
331
792
  5
792
331
81E
  5
81E
331
D2C
  5
D2D
331
894
  5
894
331
81A
  5
81A
331
B06
  5
B06
331
890
  5
890
331
851
  5
851
331
CB9
  5
CBA
331
D24
  5
D25
331
C4F
  5
C50
331
BD5
  5
BD5
331
8CB
  5
8CB
331
B3D
  5
B3D
331
AFE
  5
AFE
331
A3C
  5
A3C
331
B39
  5
B39
331
AFA
  5
AFA
331
C08
  5
C09
331
BCD
  5
BCD
331
B8A
  5
B8A
331
6CD
  5
6CD
331
C00
  5
C01
331
6C9
  5
6C9
331
6C5
  5
6C5
331
6C1
  5
6C1
331
957
  5
957
331
9F5
  5
9F5
331
953
  5
953
331
94F
  5
94F
331
98A
  5
98A
331
A34
  5
A34
331
9ED
  5
9ED
331
94B
  5
94B
331
7D1
  5
7D1
331
747
  5
747
331
A30
  5
A30
331
743
  5
743
331
8C7
  5
8C7
331
84D
  5
84D
331
7C9
  5
7C9
331
8C3
  5
8C3
331
B35
  5
B35
331
845
  5
845
331
CA9
  5
CAA
331
880
  5
880
331
AF6
  5
AF6
331
B31
  5
B31
331
A77
  5
A77
331
BC5
  5
BC5
331
902
  5
902
331
841
  5
841
331
AF2
  5
AF2
331
C3B
  5
C3C
331
BC1
  5
BC1
331
B29
  5
B29
331
C76
  5
C77
331
BBD
  5
BBD
331
BF8
  5
BF8
331
C72
  5
C73
331
BB9
  5
BB9
331
986
  5
986
331
947
  5
947
331
A2C
  5
A2C
331
982
  5
982
331
73F
  5
73F
331
73B
  5
73B
331
A28
  5
A28
331
93F
  5
93F
331
97A
  5
97A
331
A24
  5
A24
331
9DD
  5
9DD
331
93B
  5
93B
331
800
  5
800
331
A20
  5
A20
331
9D9
  5
9D9
331
7F8
  5
7F8
331
7B9
  5
7B9
331
8FE
  5
8FE
331
CA1
  5
CA2
331
8FA
  5
8FA
331
AEE
  5
AEE
331
8B3
  5
8B3
331
C9D
  5
C9E
331
B74
  5
B74
331
B25
  5
B25
331
8F6
  5
8F6
331
C99
  5
C9A
331
AE6
  5
AE6
331
8AB
  5
8AB
331
C6A
  5
C6B
331
C2B
  5
C2C
331
B19
  5
B19
331
BEC
  5
BEC
331
C66
  5
C67
331
C27
  5
C28
331
BAD
  5
BAD
331
BA9
  5
BA9
331
C62
  5
C63
331
C23
  5
C24
331
976
  5
976
331
972
  5
972
331
72F
  5
72F
331
96E
  5
96E
331
A18
  5
A18
331
9D1
  5
9D1
331
92F
  5
92F
331
76A
  5
76A
331
7F4
  5
7F4
331
7B5
  5
7B5
331
72B
  5
72B
331
96A
  5
96A
331
7F0
  5
7F0
331
766
  5
766
331
762
  5
762
331
723
  5
723
331
7E8
  5
7E8
331
8EE
  5
8EE
331
8A7
  5
8A7
331
7A1
  5
7A1
331
CF0
  5
CF1
331
C91
  5
C92
331
8EA
  5
8EA
331
ADE
  5
ADE
331
A5F
  5
A5F
331
8A3
  5
8A3
331
C8D
  5
C8E
331
ADA
  5
ADA
331
825
  5
825
331
B50
  5
B50
331
B11
  5
B11
331
BE4
  5
BE4
331
B4C
  5
B4C
331
B0D
  5
B0D
331
AD2
  5
AD2
331
C5A
  5
C5B
331
C1B
  5
C1C
331
BE0
  5
BE0
331
C56
  5
C57
331
B9D
  5
B9D
331
C52
  5
C53
331
B99
  5
B99
331
6DC
  5
6DC
331
9C5
  5
9C5
331
71F
  5
71F
331
A00
  5
A00
331
79D
  5
79D
331
9FC
  5
9FC
331
91B
  5
91B
331
9F8
  5
9F8
331
991
  5
991
331
C85
  5
C86
331
81D
  5
81D
331
C81
  5
C82
331
8DA
  5
8DA
331
B05
  5
B05
331
88F
  5
88F
331
815
  5
815
331
C79
  5
C7A
331
8CA
  5
8CA
331
B40
  5
B40
331
C0F
  5
C10
331
B95
  5
B95
331
88B
  5
88B
331
AFD
  5
AFD
331
A3B
  5
A3B
331
B91
  5
B91
331
B38
  5
B38
331
AF9
  5
AF9
331
BCC
  5
BCC
331
BC8
  5
BC8
331
B89
  5
B89
331
6CC
  5
6CC
331
6C8
  5
6C8
331
6C4
  5
6C4
331
6C0
  5
6C0
331
74E
  5
74E
331
A37
  5
A37
331
94E
  5
94E
331
7D4
  5
7D4
331
7D0
  5
7D0
331
742
  5
742
331
8C6
  5
8C6
331
7C8
  5
7C8
331
B34
  5
B34
331
B30
  5
B30
331
AF5
  5
AF5
331
901
  5
901
331
840
  5
840
331
B7B
  5
B7B
331
B2C
  5
B2C
331
AF1
  5
AF1
331
BC0
  5
BC0
331
C75
  5
C76
331
BBC
  5
BBC
331
C71
  5
C72
331
A2B
  5
A2B
331
942
  5
942
331
77D
  5
77D
331
9DC
  5
9DC
331
93A
  5
93A
331
7FF
  5
7FF
331
779
  5
779
331
7BC
  5
7BC
331
732
  5
732
331
CA4
  5
CA5
331
8FD
  5
8FD
331
83C
  5
83C
331
CA0
  5
CA1
331
AED
  5
AED
331
8F9
  5
8F9
331
838
  5
838
331
8F5
  5
8F5
331
AE9
  5
AE9
331
BF7
  5
BF7
331
8AE
  5
8AE
331
873
  5
873
331
AE5
  5
AE5
331
C2E
  5
C2F
331
8F1
  5
8F1
331
AE1
  5
AE1
331
C69
  5
C6A
331
B18
  5
B18
331
BEB
  5
BEB
331
BA8
  5
BA8
331
707
  5
707
331
C61
  5
C62
331
6FF
  5
6FF
331
6FB
  5
6FB
331
936
  5
936
331
9D4
  5
9D4
331
971
  5
971
331
76D
  5
76D
331
7F7
  5
7F7
331
72E
  5
72E
331
769
  5
769
331
72A
  5
72A
331
969
  5
969
331
9CC
  5
9CC
331
92A
  5
92A
331
726
  5
726
331
9C8
  5
9C8
331
722
  5
722
331
8ED
  5
8ED
331
7A0
  5
7A0
331
C90
  5
C91
331
867
  5
867
331
ADD
  5
ADD
331
8E9
  5
8E9
331
828
  5
828
331
C8C
  5
C8D
331
B14
  5
B14
331
89E
  5
89E
331
863
  5
863
331
8E1
  5
8E1
331
BE3
  5
BE3
331
C5D
  5
C5E
331
BA4
  5
BA4
331
89A
  5
89A
331
AD1
  5
AD1
331
B0C
  5
B0C
331
A52
  5
A52
331
C59
  5
C5A
331
BDF
  5
BDF
331
B9C
  5
B9C
331
B98
  5
B98
331
6F3
  5
6F3
331
6DB
  5
6DB
331
961
  5
961
331
7E7
  5
7E7
331
75D
  5
75D
331
759
  5
759
331
9C0
  5
9C0
331
755
  5
755
331
990
  5
990
331
85F
  5
85F
331
81C
  5
81C
331
818
  5
818
331
A4A
  5
A4A
331
BD7
  5
BD7
331
B00
  5
B00
331
C4D
  5
C4E
331
B94
  5
B94
331
88A
  5
88A
331
B3B
  5
B3B
331
C0A
  5
C0B
331
BCF
  5
BCF
331
AF8
  5
AF8
331
BCB
  5
BCB
331
B88
  5
B88
331
6CF
  5
6CF
331
C41
  5
C42
331
6C7
  5
6C7
331
6C3
  5
6C3
  0
LAYOUT
  5
22
102
{ACAD_XDICTIONARY
360
EBC
102
}
102
{ACAD_REACTORS
330
1A
102
}
330
1A
100
AcDbPlotSettings
  1

  2
HP DesignJet 500PS42+HPGL2 Card
  4

  6

 40
0.0
 41
0.0
 42
0.0
 43
0.0
 44
0.0
 45
0.0
 46
0.0
 47
0.0
 48
0.0
 49
0.0
140
0.0
141
0.0
142
1.0
143
1.0
 70
   688
 72
     0
 73
     0
 74
     5
  7
C:\Documents and Settings\Julio\Application Data\Autodesk\AutoCAD 2006\R16.2\enu\Plot Styles\sanindusa.ctb
 75
    16
147
1.0
148
0.0
149
0.0
100
AcDbLayout
  1
Layout1
 70
     1
 71
     1
 10
0.0
 20
0.0
 11
420.0
 21
297.0
 12
0.0
 22
0.0
 32
0.0
 14
1.000000000000000E+20
 24
1.000000000000000E+20
 34
1.000000000000000E+20
 15
-1.000000000000000E+20
 25
-1.000000000000000E+20
 35
-1.000000000000000E+20
146
0.0
 13
0.0
 23
0.0
 33
0.0
 16
1.0
 26
0.0
 36
0.0
 17
0.0
 27
1.0
 37
0.0
 76
     0
330
1F
  0
LAYOUT
  5
2A
102
{ACAD_XDICTIONARY
360
EC0
102
}
102
{ACAD_REACTORS
330
1A
102
}
330
1A
100
AcDbPlotSettings
  1

  2
HP DesignJet 500PS42+HPGL2 Card
  4

  6

 40
0.0
 41
0.0
 42
0.0
 43
0.0
 44
0.0
 45
0.0
 46
0.0
 47
0.0
 48
0.0
 49
0.0
140
0.0
141
0.0
142
1.0
143
1.0
 70
   688
 72
     0
 73
     0
 74
     5
  7
C:\Documents and Settings\Julio\Application Data\Autodesk\AutoCAD 2006\R16.2\enu\Plot Styles\sanindusa.ctb
 75
    16
147
1.0
148
0.0
149
0.0
100
AcDbLayout
  1
Layout2
 70
     1
 71
     2
 10
0.0
 20
0.0
 11
12.0
 21
9.0
 12
0.0
 22
0.0
 32
0.0
 14
0.0
 24
0.0
 34
0.0
 15
0.0
 25
0.0
 35
0.0
146
0.0
 13
0.0
 23
0.0
 33
0.0
 16
1.0
 26
0.0
 36
0.0
 17
0.0
 27
1.0
 37
0.0
 76
     0
330
27
  0
LAYOUT
  5
26
102
{ACAD_XDICTIONARY
360
EBE
102
}
102
{ACAD_REACTORS
330
1A
102
}
330
1A
100
AcDbPlotSettings
  1

  2
HP DesignJet 500PS42+HPGL2 Card
  4

  6

 40
0.0
 41
0.0
 42
0.0
 43
0.0
 44
0.0
 45
0.0
 46
0.0
 47
0.0
 48
0.0
 49
0.0
140
0.0
141
0.0
142
1.0
143
1.0
 70
  1712
 72
     0
 73
     0
 74
     0
  7
C:\Documents and Settings\Julio\Application Data\Autodesk\AutoCAD 2006\R16.2\enu\Plot Styles\sanindusa.ctb
 75
     0
147
1.0
148
0.0
149
0.0
100
AcDbLayout
  1
Model
 70
     1
 71
     0
 10
0.0
 20
0.0
 11
12.0
 21
9.0
 12
0.0
 22
0.0
 32
0.0
 14
0.0
 24
0.0
 34
0.0
 15
0.0
 25
0.0
 35
0.0
146
0.0
 13
0.0
 23
0.0
 33
0.0
 16
1.0
 26
0.0
 36
0.0
 17
0.0
 27
1.0
 37
0.0
 76
     0
330
23
331
E5F
  0
MATERIAL
  5
E70
102
{ACAD_XDICTIONARY
360
E71
102
}
102
{ACAD_REACTORS
330
1B
102
}
330
1B
100
AcDbMaterial
  1
ByBlock
 72
     0
 43
0.0008202099737533
 43
0.0
 43
0.0
 43
0.0
 43
0.0
 43
0.0008202099737533
 43
0.0
 43
0.0
 43
0.0
 43
0.0
 43
1.0
 43
0.0
 43
0.0
 43
0.0
 43
0.0
 43
1.0
 77
     0
 47
0.0008202099737533
 47
0.0
 47
0.0
 47
0.0
 47
0.0
 47
0.0008202099737533
 47
0.0
 47
0.0
 47
0.0
 47
0.0
 47
1.0
 47
0.0
 47
0.0
 47
0.0
 47
0.0
 47
1.0
171
     0
 49
0.0008202099737533
 49
0.0
 49
0.0
 49
0.0
 49
0.0
 49
0.0008202099737533
 49
0.0
 49
0.0
 49
0.0
 49
0.0
 49
1.0
 49
0.0
 49
0.0
 49
0.0
 49
0.0
 49
1.0
175
     0
142
0.0008202099737533
142
0.0
142
0.0
142
0.0
142
0.0
142
0.0008202099737533
142
0.0
142
0.0
142
0.0
142
0.0
142
1.0
142
0.0
142
0.0
142
0.0
142
0.0
142
1.0
179
     0
144
0.0008202099737533
144
0.0
144
0.0
144
0.0
144
0.0
144
0.0008202099737533
144
0.0
144
0.0
144
0.0
144
0.0
144
1.0
144
0.0
144
0.0
144
0.0
144
0.0
144
1.0
147
0.0008202099737533
147
0.0
147
0.0
147
0.0
147
0.0
147
0.0008202099737533
147
0.0
147
0.0
147
0.0
147
0.0
147
1.0
147
0.0
147
0.0
147
0.0
147
0.0
147
1.0
  0
MATERIAL
  5
E68
102
{ACAD_XDICTIONARY
360
E69
102
}
102
{ACAD_REACTORS
330
1B
102
}
330
1B
100
AcDbMaterial
  1
ByLayer
 72
     0
 43
0.0008202099737533
 43
0.0
 43
0.0
 43
0.0
 43
0.0
 43
0.0008202099737533
 43
0.0
 43
0.0
 43
0.0
 43
0.0
 43
1.0
 43
0.0
 43
0.0
 43
0.0
 43
0.0
 43
1.0
 77
     0
 47
0.0008202099737533
 47
0.0
 47
0.0
 47
0.0
 47
0.0
 47
0.0008202099737533
 47
0.0
 47
0.0
 47
0.0
 47
0.0
 47
1.0
 47
0.0
 47
0.0
 47
0.0
 47
0.0
 47
1.0
171
     0
 49
0.0008202099737533
 49
0.0
 49
0.0
 49
0.0
 49
0.0
 49
0.0008202099737533
 49
0.0
 49
0.0
 49
0.0
 49
0.0
 49
1.0
 49
0.0
 49
0.0
 49
0.0
 49
0.0
 49
1.0
175
     0
142
0.0008202099737533
142
0.0
142
0.0
142
0.0
142
0.0
142
0.0008202099737533
142
0.0
142
0.0
142
0.0
142
0.0
142
1.0
142
0.0
142
0.0
142
0.0
142
0.0
142
1.0
179
     0
144
0.0008202099737533
144
0.0
144
0.0
144
0.0
144
0.0
144
0.0008202099737533
144
0.0
144
0.0
144
0.0
144
0.0
144
1.0
144
0.0
144
0.0
144
0.0
144
0.0
144
1.0
147
0.0008202099737533
147
0.0
147
0.0
147
0.0
147
0.0
147
0.0008202099737533
147
0.0
147
0.0
147
0.0
147
0.0
147
1.0
147
0.0
147
0.0
147
0.0
147
0.0
147
1.0
  0
MATERIAL
  5
E78
102
{ACAD_XDICTIONARY
360
E79
102
}
102
{ACAD_REACTORS
330
1B
102
}
330
1B
100
AcDbMaterial
  1
Global
 72
     0
 43
0.0008202099737533
 43
0.0
 43
0.0
 43
0.0
 43
0.0
 43
0.0008202099737533
 43
0.0
 43
0.0
 43
0.0
 43
0.0
 43
1.0
 43
0.0
 43
0.0
 43
0.0
 43
0.0
 43
1.0
 77
     0
 47
0.0008202099737533
 47
0.0
 47
0.0
 47
0.0
 47
0.0
 47
0.0008202099737533
 47
0.0
 47
0.0
 47
0.0
 47
0.0
 47
1.0
 47
0.0
 47
0.0
 47
0.0
 47
0.0
 47
1.0
171
     0
 49
0.0008202099737533
 49
0.0
 49
0.0
 49
0.0
 49
0.0
 49
0.0008202099737533
 49
0.0
 49
0.0
 49
0.0
 49
0.0
 49
1.0
 49
0.0
 49
0.0
 49
0.0
 49
0.0
 49
1.0
175
     0
142
0.0008202099737533
142
0.0
142
0.0
142
0.0
142
0.0
142
0.0008202099737533
142
0.0
142
0.0
142
0.0
142
0.0
142
1.0
142
0.0
142
0.0
142
0.0
142
0.0
142
1.0
179
     0
144
0.0008202099737533
144
0.0
144
0.0
144
0.0
144
0.0
144
0.0008202099737533
144
0.0
144
0.0
144
0.0
144
0.0
144
1.0
144
0.0
144
0.0
144
0.0
144
0.0
144
1.0
147
0.0008202099737533
147
0.0
147
0.0
147
0.0
147
0.0
147
0.0008202099737533
147
0.0
147
0.0
147
0.0
147
0.0
147
1.0
147
0.0
147
0.0
147
0.0
147
0.0
147
1.0
  0
MLEADERSTYLE
  5
EA7
102
{ACAD_REACTORS
330
EA6
102
}
330
EA6
100
AcDbMLeaderStyle
170
     2
171
     1
172
     0
 90
        2
 40
0.0
 41
0.0
173
     1
 91
-1056964608
340
14
 92
       -2
290
     1
 42
2.0
291
     1
 43
0.36
  3
Standard
 44
4.0
300

342
11
174
     1
178
     6
175
     1
176
     0
 93
-1056964608
 45
4.0
292
     0
297
     0
 46
4.0
 94
-1056964608
 47
1.0
 49
1.0
140
1.0
293
     1
141
0.0
294
     1
177
     0
142
1.0
295
     0
296
     0
143
0.125
1001
ACAD_MLEADERVER
1070
     2
  0
MLINESTYLE
  5
18
102
{ACAD_REACTORS
330
17
102
}
330
17
100
AcDbMlineStyle
  2
STANDARD
 70
     0
  3

 62
   256
 51
90.0
 52
90.0
 71
     2
 49
0.5
 62
   256
  6
BYLAYER
 49
-0.5
 62
   256
  6
BYLAYER
  0
ACDBPLACEHOLDER
  5
F
102
{ACAD_REACTORS
330
E
102
}
330
E
  0
SCALE
  5
E95
102
{ACAD_REACTORS
330
E94
102
}
330
E94
100
AcDbScale
 70
     0
300
1:1
140
1.0
141
1.0
290
     1
  0
SCALE
  5
E96
102
{ACAD_REACTORS
330
E94
102
}
330
E94
100
AcDbScale
 70
     0
300
1:2
140
1.0
141
2.0
290
     0
  0
SCALE
  5
E97
102
{ACAD_REACTORS
330
E94
102
}
330
E94
100
AcDbScale
 70
     0
300
1:4
140
1.0
141
4.0
290
     0
  0
SCALE
  5
E98
102
{ACAD_REACTORS
330
E94
102
}
330
E94
100
AcDbScale
 70
     0
300
1:5
140
1.0
141
5.0
290
     0
  0
SCALE
  5
E99
102
{ACAD_REACTORS
330
E94
102
}
330
E94
100
AcDbScale
 70
     0
300
1:8
140
1.0
141
8.0
290
     0
  0
SCALE
  5
E9A
102
{ACAD_REACTORS
330
E94
102
}
330
E94
100
AcDbScale
 70
     0
300
1:10
140
1.0
141
10.0
290
     0
  0
SCALE
  5
E9B
102
{ACAD_REACTORS
330
E94
102
}
330
E94
100
AcDbScale
 70
     0
300
1:16
140
1.0
141
16.0
290
     0
  0
SCALE
  5
E9C
102
{ACAD_REACTORS
330
E94
102
}
330
E94
100
AcDbScale
 70
     0
300
1:20
140
1.0
141
20.0
290
     0
  0
SCALE
  5
E9D
102
{ACAD_REACTORS
330
E94
102
}
330
E94
100
AcDbScale
 70
     0
300
1:30
140
1.0
141
30.0
290
     0
  0
SCALE
  5
E9E
102
{ACAD_REACTORS
330
E94
102
}
330
E94
100
AcDbScale
 70
     0
300
1:40
140
1.0
141
40.0
290
     0
  0
SCALE
  5
E9F
102
{ACAD_REACTORS
330
E94
102
}
330
E94
100
AcDbScale
 70
     0
300
1:50
140
1.0
141
50.0
290
     0
  0
SCALE
  5
EA0
102
{ACAD_REACTORS
330
E94
102
}
330
E94
100
AcDbScale
 70
     0
300
1:100
140
1.0
141
100.0
290
     0
  0
SCALE
  5
EA1
102
{ACAD_REACTORS
330
E94
102
}
330
E94
100
AcDbScale
 70
     0
300
2:1
140
2.0
141
1.0
290
     0
  0
SCALE
  5
EA2
102
{ACAD_REACTORS
330
E94
102
}
330
E94
100
AcDbScale
 70
     0
300
4:1
140
4.0
141
1.0
290
     0
  0
SCALE
  5
EA3
102
{ACAD_REACTORS
330
E94
102
}
330
E94
100
AcDbScale
 70
     0
300
8:1
140
8.0
141
1.0
290
     0
  0
SCALE
  5
EA4
102
{ACAD_REACTORS
330
E94
102
}
330
E94
100
AcDbScale
 70
     0
300
10:1
140
10.0
141
1.0
290
     0
  0
SCALE
  5
EA5
102
{ACAD_REACTORS
330
E94
102
}
330
E94
100
AcDbScale
 70
     0
300
100:1
140
100.0
141
1.0
290
     0
  0
TABLESTYLE
  5
1E
102
{ACAD_XDICTIONARY
360
EB7
102
}
102
{ACAD_REACTORS
330
1D
102
}
330
1D
100
AcDbTableStyle
  3
Standard
 70
     0
 71
     0
 40
1.5
 41
1.5
280
     0
281
     0
  7
Standard
140
4.5
170
     2
 62
     0
 63
     7
283
     0
274
    -2
284
     1
 64
     0
275
    -2
285
     1
 65
     0
276
    -2
286
     1
 66
     0
277
    -2
287
     1
 67
     0
278
    -2
288
     1
 68
     0
279
    -2
289
     1
 69
     0
  7
Standard
140
6.0
170
     5
 62
     0
 63
     7
283
     0
274
    -2
284
     1
 64
     0
275
    -2
285
     1
 65
     0
276
    -2
286
     1
 66
     0
277
    -2
287
     1
 67
     0
278
    -2
288
     1
 68
     0
279
    -2
289
     1
 69
     0
  7
Standard
140
4.5
170
     5
 62
     0
 63
     7
283
     0
274
    -2
284
     1
 64
     0
275
    -2
285
     1
 65
     0
276
    -2
286
     1
 66
     0
277
    -2
287
     1
 67
     0
278
    -2
288
     1
 68
     0
279
    -2
289
     1
 69
     0
  0
VISUALSTYLE
  5
E86
102
{ACAD_XDICTIONARY
360
ECF
102
}
102
{ACAD_REACTORS
330
E80
102
}
330
E80
100
AcDbVisualStyle
  2
2dWireframe
 70
     4
 71
     0
 72
     2
 73
     0
 90
        0
 40
-0.6
 41
-30.0
 62
     5
 63
     7
 74
     1
 91
        4
 64
     7
 65
   257
 75
     1
175
     1
 42
1.0
 92
        0
 66
   257
 43
1.0
 76
     1
 77
     6
 78
     2
 67
     7
 79
     5
170
     0
171
     0
290
     0
174
     0
 93
        1
 44
0.0
173
     0
291
     0
 45
0.0
1001
ACAD
1000
AcDbSavedByObjectVersion
1070
     0
  0
VISUALSTYLE
  5
E88
102
{ACAD_XDICTIONARY
360
ED3
102
}
102
{ACAD_REACTORS
330
E80
102
}
330
E80
100
AcDbVisualStyle
  2
3D Hidden
 70
     6
 71
     1
 72
     2
 73
     2
 90
        0
 40
-0.6
 41
-30.0
 62
     5
 63
     7
 74
     2
 91
        2
 64
     7
 65
   257
 75
     2
175
     1
 42
179.0
 92
        0
 66
   257
 43
1.0
 76
     1
 77
     6
 78
     2
 67
     7
 79
     3
170
     0
171
     0
290
     0
174
     0
 93
        1
 44
0.0
173
     0
291
     0
 45
0.0
1001
ACAD
1000
AcDbSavedByObjectVersion
1070
     0
  0
VISUALSTYLE
  5
E87
102
{ACAD_XDICTIONARY
360
ED1
102
}
102
{ACAD_REACTORS
330
E80
102
}
330
E80
100
AcDbVisualStyle
  2
3dWireframe
 70
     5
 71
     0
 72
     2
 73
     0
 90
        0
 40
-0.6
 41
-30.0
 62
     5
 63
     7
 74
     1
 91
        4
 64
     7
 65
   257
 75
     1
175
     1
 42
1.0
 92
        0
 66
   257
 43
1.0
 76
     1
 77
     6
 78
     2
 67
     7
 79
     5
170
     0
171
     0
290
     0
174
     0
 93
        1
 44
0.0
173
     0
291
     0
 45
0.0
1001
ACAD
1000
AcDbSavedByObjectVersion
1070
     0
  0
VISUALSTYLE
  5
E85
102
{ACAD_XDICTIONARY
360
ECD
102
}
102
{ACAD_REACTORS
330
E80
102
}
330
E80
100
AcDbVisualStyle
  2
Basic
 70
     7
 71
     1
 72
     0
 73
     1
 90
        0
 40
-0.6
 41
-30.0
 62
     5
 63
     7
 74
     0
 91
        4
 64
     7
 65
   257
 75
     1
175
     1
 42
1.0
 92
        8
 66
     7
 43
1.0
 76
     1
 77
     6
 78
     2
 67
     7
 79
     5
170
     0
171
     0
290
     0
174
     0
 93
        1
 44
0.0
173
     0
291
     1
 45
0.0
1001
ACAD
1000
AcDbSavedByObjectVersion
1070
     0
  0
VISUALSTYLE
  5
E8C
102
{ACAD_XDICTIONARY
360
EDB
102
}
102
{ACAD_REACTORS
330
E80
102
}
330
E80
100
AcDbVisualStyle
  2
Brighten
 70
    12
 71
     2
 72
     2
 73
     0
 90
        0
 40
-0.6
 41
-30.0
 62
     5
 63
     7
 74
     1
 91
        4
 64
     7
 65
   257
 75
     1
175
     1
 42
1.0
 92
        8
 66
     7
 43
1.0
 76
     1
 77
     6
 78
     2
 67
     7
 79
     5
170
     0
171
     0
290
     0
174
     0
 93
        1
 44
50.0
173
     0
291
     1
 45
0.0
1001
ACAD
1000
AcDbSavedByObjectVersion
1070
     0
  0
VISUALSTYLE
  5
E90
102
{ACAD_XDICTIONARY
360
EE3
102
}
102
{ACAD_REACTORS
330
E80
102
}
330
E80
100
AcDbVisualStyle
  2
ColorChange
 70
    16
 71
     2
 72
     2
 73
     3
 90
        0
 40
-0.6
 41
-30.0
 62
     5
 63
     8
 74
     1
 91
        4
 64
     7
 65
   257
 75
     1
175
     1
 42
1.0
 92
        8
 66
     8
 43
1.0
 76
     1
 77
     6
 78
     2
 67
     7
 79
     5
170
     0
171
     0
290
     0
174
     0
 93
        1
 44
0.0
173
     0
291
     1
 45
0.0
1001
ACAD
1000
AcDbSavedByObjectVersion
1070
     0
  0
VISUALSTYLE
  5
E89
102
{ACAD_XDICTIONARY
360
ED5
102
}
102
{ACAD_REACTORS
330
E80
102
}
330
E80
100
AcDbVisualStyle
  2
Conceptual
 70
     9
 71
     3
 72
     2
 73
     0
 90
        0
 40
-0.6
 41
-30.0
 62
     5
 63
     7
 74
     2
 91
        2
 64
     7
 65
   257
 75
     1
175
     1
 42
179.0
 92
        8
 66
     7
 43
1.0
 76
     1
 77
     6
 78
     2
 67
     7
 79
     3
170
     0
171
     0
290
     0
174
     0
 93
        1
 44
0.0
173
     0
291
     0
 45
0.0
1001
ACAD
1000
AcDbSavedByObjectVersion
1070
     0
  0
VISUALSTYLE
  5
E8B
102
{ACAD_XDICTIONARY
360
ED9
102
}
102
{ACAD_REACTORS
330
E80
102
}
330
E80
100
AcDbVisualStyle
  2
Dim
 70
    11
 71
     2
 72
     2
 73
     0
 90
        0
 40
-0.6
 41
-30.0
 62
     5
 63
     7
 74
     1
 91
        4
 64
     7
 65
   257
 75
     1
175
     1
 42
1.0
 92
        8
 66
     7
 43
1.0
 76
     1
 77
     6
 78
     2
 67
     7
 79
     5
170
     0
171
     0
290
     0
174
     0
 93
        1
 44
-50.0
173
     0
291
     1
 45
0.0
1001
ACAD
1000
AcDbSavedByObjectVersion
1070
     0
  0
VISUALSTYLE
  5
E93
102
{ACAD_XDICTIONARY
360
EE9
102
}
102
{ACAD_REACTORS
330
E80
102
}
330
E80
100
AcDbVisualStyle
  2
EdgeColorOff
 70
    22
 71
     2
 72
     2
 73
     0
 90
        0
 40
-0.6
 41
-30.0
 62
     5
 63
     7
 74
     1
 91
        4
 64
     7
 65
   257
 75
     1
175
     1
 42
1.0
 92
        8
 66
     7
 43
1.0
 76
     1
 77
     6
 78
     2
 67
     7
 79
     5
170
     0
171
     0
290
     0
174
     0
 93
        1
 44
0.0
173
     0
291
     1
 45
0.0
1001
ACAD
1000
AcDbSavedByObjectVersion
1070
     0
  0
VISUALSTYLE
  5
E8F
102
{ACAD_XDICTIONARY
360
EE1
102
}
102
{ACAD_REACTORS
330
E80
102
}
330
E80
100
AcDbVisualStyle
  2
Facepattern
 70
    15
 71
     2
 72
     2
 73
     0
 90
        0
 40
-0.6
 41
-30.0
 62
     5
 63
     7
 74
     1
 91
        4
 64
     7
 65
   257
 75
     1
175
     1
 42
1.0
 92
        8
 66
     7
 43
1.0
 76
     1
 77
     6
 78
     2
 67
     7
 79
     5
170
     0
171
     0
290
     0
174
     0
 93
        1
 44
0.0
173
     0
291
     1
 45
0.0
1001
ACAD
1000
AcDbSavedByObjectVersion
1070
     0
  0
VISUALSTYLE
  5
E81
102
{ACAD_XDICTIONARY
360
EC5
102
}
102
{ACAD_REACTORS
330
E80
102
}
330
E80
100
AcDbVisualStyle
  2
Flat
 70
     0
 71
     2
 72
     1
 73
     1
 90
        2
 40
-0.6
 41
30.0
 62
     5
 63
     7
 74
     0
 91
        4
 64
     7
 65
   257
 75
     1
175
     1
 42
1.0
 92
        8
 66
     7
 43
1.0
 76
     1
 77
     6
 78
     2
 67
     7
 79
     5
170
     0
171
     0
290
     0
174
     0
 93
       13
 44
0.0
173
     0
291
     1
 45
0.0
1001
ACAD
1000
AcDbSavedByObjectVersion
1070
     0
  0
VISUALSTYLE
  5
E82
102
{ACAD_XDICTIONARY
360
EC7
102
}
102
{ACAD_REACTORS
330
E80
102
}
330
E80
100
AcDbVisualStyle
  2
FlatWithEdges
 70
     1
 71
     2
 72
     1
 73
     1
 90
        2
 40
-0.6
 41
30.0
 62
     5
 63
     7
 74
     1
 91
        4
 64
     7
 65
   257
 75
     1
175
     1
 42
1.0
 92
        0
 66
   257
 43
1.0
 76
     1
 77
     6
 78
     2
 67
     7
 79
     5
170
     0
171
     0
290
     0
174
     0
 93
       13
 44
0.0
173
     0
291
     1
 45
0.0
1001
ACAD
1000
AcDbSavedByObjectVersion
1070
     0
  0
VISUALSTYLE
  5
E83
102
{ACAD_XDICTIONARY
360
EC9
102
}
102
{ACAD_REACTORS
330
E80
102
}
330
E80
100
AcDbVisualStyle
  2
Gouraud
 70
     2
 71
     2
 72
     2
 73
     1
 90
        2
 40
-0.6
 41
30.0
 62
     5
 63
     7
 74
     0
 91
        4
 64
     7
 65
   257
 75
     1
175
     1
 42
1.0
 92
        0
 66
     7
 43
1.0
 76
     1
 77
     6
 78
     2
 67
     7
 79
     5
170
     0
171
     0
290
     0
174
     0
 93
       13
 44
0.0
173
     0
291
     1
 45
0.0
1001
ACAD
1000
AcDbSavedByObjectVersion
1070
     0
  0
VISUALSTYLE
  5
E84
102
{ACAD_XDICTIONARY
360
ECB
102
}
102
{ACAD_REACTORS
330
E80
102
}
330
E80
100
AcDbVisualStyle
  2
GouraudWithEdges
 70
     3
 71
     2
 72
     2
 73
     1
 90
        2
 40
-0.6
 41
30.0
 62
     5
 63
     7
 74
     1
 91
        4
 64
     7
 65
   257
 75
     1
175
     1
 42
1.0
 92
        0
 66
   257
 43
1.0
 76
     1
 77
     6
 78
     2
 67
     7
 79
     5
170
     0
171
     0
290
     0
174
     0
 93
       13
 44
0.0
173
     0
291
     1
 45
0.0
1001
ACAD
1000
AcDbSavedByObjectVersion
1070
     0
  0
VISUALSTYLE
  5
E91
102
{ACAD_XDICTIONARY
360
EE5
102
}
102
{ACAD_REACTORS
330
E80
102
}
330
E80
100
AcDbVisualStyle
  2
JitterOff
 70
    20
 71
     2
 72
     2
 73
     0
 90
        0
 40
-0.6
 41
-30.0
 62
     5
 63
     7
 74
     1
 91
        4
 64
     7
 65
   257
 75
     1
175
     1
 42
1.0
 92
       10
 66
     7
 43
1.0
 76
     1
 77
     6
 78
     2
 67
     7
 79
     5
170
     0
171
     0
290
     0
174
     0
 93
        1
 44
0.0
173
     0
291
     1
 45
0.0
1001
ACAD
1000
AcDbSavedByObjectVersion
1070
     0
  0
VISUALSTYLE
  5
E8E
102
{ACAD_XDICTIONARY
360
EDF
102
}
102
{ACAD_REACTORS
330
E80
102
}
330
E80
100
AcDbVisualStyle
  2
Linepattern
 70
    14
 71
     2
 72
     2
 73
     0
 90
        0
 40
-0.6
 41
-30.0
 62
     5
 63
     7
 74
     1
 91
        4
 64
     7
 65
   257
 75
     7
175
     7
 42
1.0
 92
        8
 66
     7
 43
1.0
 76
     1
 77
     6
 78
     2
 67
     7
 79
     5
170
     0
171
     0
290
     0
174
     0
 93
        1
 44
0.0
173
     0
291
     1
 45
0.0
1001
ACAD
1000
AcDbSavedByObjectVersion
1070
     0
  0
VISUALSTYLE
  5
E92
102
{ACAD_XDICTIONARY
360
EE7
102
}
102
{ACAD_REACTORS
330
E80
102
}
330
E80
100
AcDbVisualStyle
  2
OverhangOff
 70
    21
 71
     2
 72
     2
 73
     0
 90
        0
 40
-0.6
 41
-30.0
 62
     5
 63
     7
 74
     1
 91
        4
 64
     7
 65
   257
 75
     1
175
     1
 42
1.0
 92
        9
 66
     7
 43
1.0
 76
     1
 77
     6
 78
     2
 67
     7
 79
     5
170
     0
171
     0
290
     0
174
     0
 93
        1
 44
0.0
173
     0
291
     1
 45
0.0
1001
ACAD
1000
AcDbSavedByObjectVersion
1070
     0
  0
VISUALSTYLE
  5
E8A
102
{ACAD_XDICTIONARY
360
ED7
102
}
102
{ACAD_REACTORS
330
E80
102
}
330
E80
100
AcDbVisualStyle
  2
Realistic
 70
     8
 71
     2
 72
     2
 73
     0
 90
        0
 40
-0.6
 41
-30.0
 62
     5
 63
     7
 74
     1
 91
        0
 64
     7
 65
   257
 75
     1
175
     1
 42
1.0
 92
        8
 66
     8
 43
1.0
 76
     1
 77
     6
 78
     2
 67
     7
 79
     5
170
     0
171
     0
290
     0
174
     0
 93
       13
 44
0.0
173
     0
291
     0
 45
0.0
1001
ACAD
1000
AcDbSavedByObjectVersion
1070
     0
  0
VISUALSTYLE
  5
E8D
102
{ACAD_XDICTIONARY
360
EDD
102
}
102
{ACAD_REACTORS
330
E80
102
}
330
E80
100
AcDbVisualStyle
  2
Thicken
 70
    13
 71
     2
 72
     2
 73
     0
 90
        0
 40
-0.6
 41
-30.0
 62
     5
 63
     7
 74
     1
 91
        4
 64
     7
 65
   257
 75
     1
175
     1
 42
1.0
 92
       12
 66
     7
 43
1.0
 76
     1
 77
     6
 78
     2
 67
     7
 79
     5
170
     0
171
     0
290
     0
174
     0
 93
        1
 44
0.0
173
     0
291
     1
 45
0.0
1001
ACAD
1000
AcDbSavedByObjectVersion
1070
     0
  0
DICTIONARYVAR
  5
EB3
102
{ACAD_REACTORS
330
D4C
102
}
330
D4C
100
DictionaryVariables
280
     0
  1
1:1
  0
DICTIONARYVAR
  5
EB2
102
{ACAD_REACTORS
330
D4C
102
}
330
D4C
100
DictionaryVariables
280
     0
  1
STANDARD
  0
DICTIONARYVAR
  5
D4D
102
{ACAD_REACTORS
330
D4C
102
}
330
D4C
100
DictionaryVariables
280
     0
  1
STANDARD
  0
DICTIONARYVAR
  5
D63
102
{ACAD_REACTORS
330
D4C
102
}
330
D4C
100
DictionaryVariables
280
     0
  1
2
  0
DICTIONARYVAR
  5
D62
102
{ACAD_REACTORS
330
D4C
102
}
330
D4C
100
DictionaryVariables
280
     0
  1
1
  0
DICTIONARYVAR
  5
EB5
102
{ACAD_REACTORS
330
D4C
102
}
330
D4C
100
DictionaryVariables
280
     0
  1
0
  0
DICTIONARYVAR
  5
D64
102
{ACAD_REACTORS
330
D4C
102
}
330
D4C
100
DictionaryVariables
280
     0
  1

  0
DICTIONARYVAR
  5
EB4
102
{ACAD_REACTORS
330
D4C
102
}
330
D4C
100
DictionaryVariables
280
     0
  1
127
  0
DICTIONARYVAR
  5
EB6
102
{ACAD_REACTORS
330
D4C
102
}
330
D4C
100
DictionaryVariables
280
     0
  1
2
  0
XRECORD
  5
D4A
102
{ACAD_REACTORS
330
D49
102
}
330
D49
100
AcDbXrecord
280
     1
  0
DICTIONARY
  5
EBC
330
22
100
AcDbDictionary
280
     1
281
     1
  3
ACAD_XREC_ROUNDTRIP
360
EBD
  0
DICTIONARY
  5
EC0
330
2A
100
AcDbDictionary
280
     1
281
     1
  3
ACAD_XREC_ROUNDTRIP
360
EC1
  0
DICTIONARY
  5
EBE
330
26
100
AcDbDictionary
280
     1
281
     1
  3
ACAD_XREC_ROUNDTRIP
360
EBF
  0
DICTIONARY
  5
E71
330
E70
100
AcDbDictionary
280
     1
281
     1
  3
ACAD_XREC_ROUNDTRIP
360
EC3
  3
BUMPTILE
360
E73
  3
DIFFUSETILE
360
E72
  3
OPACITYTILE
360
E76
  3
REFLECTIONTILE
360
E75
  3
REFRACTIONTILE
360
E77
  3
SPECULARTILE
360
E74
  0
DICTIONARY
  5
E69
330
E68
100
AcDbDictionary
280
     1
281
     1
  3
ACAD_XREC_ROUNDTRIP
360
EC2
  3
BUMPTILE
360
E6B
  3
DIFFUSETILE
360
E6A
  3
OPACITYTILE
360
E6E
  3
REFLECTIONTILE
360
E6D
  3
REFRACTIONTILE
360
E6F
  3
SPECULARTILE
360
E6C
  0
DICTIONARY
  5
E79
330
E78
100
AcDbDictionary
280
     1
281
     1
  3
ACAD_XREC_ROUNDTRIP
360
EC4
  3
BUMPTILE
360
E7B
  3
DIFFUSETILE
360
E7A
  3
OPACITYTILE
360
E7E
  3
REFLECTIONTILE
360
E7D
  3
REFRACTIONTILE
360
E7F
  3
SPECULARTILE
360
E7C
  0
DICTIONARY
  5
EB7
330
1E
100
AcDbDictionary
280
     1
281
     1
  3
ACAD_ROUNDTRIP_2008_TABLESTYLE_CELLSTYLEMAP
360
EB8
  3
ACAD_XREC_ROUNDTRIP
360
EBB
  0
DICTIONARY
  5
ECF
330
E86
100
AcDbDictionary
280
     1
281
     1
  3
ACAD_XREC_ROUNDTRIP
360
ED0
  0
DICTIONARY
  5
ED3
330
E88
100
AcDbDictionary
280
     1
281
     1
  3
ACAD_XREC_ROUNDTRIP
360
ED4
  0
DICTIONARY
  5
ED1
330
E87
100
AcDbDictionary
280
     1
281
     1
  3
ACAD_XREC_ROUNDTRIP
360
ED2
  0
DICTIONARY
  5
ECD
330
E85
100
AcDbDictionary
280
     1
281
     1
  3
ACAD_XREC_ROUNDTRIP
360
ECE
  0
DICTIONARY
  5
EDB
330
E8C
100
AcDbDictionary
280
     1
281
     1
  3
ACAD_XREC_ROUNDTRIP
360
EDC
  0
DICTIONARY
  5
EE3
330
E90
100
AcDbDictionary
280
     1
281
     1
  3
ACAD_XREC_ROUNDTRIP
360
EE4
  0
DICTIONARY
  5
ED5
330
E89
100
AcDbDictionary
280
     1
281
     1
  3
ACAD_XREC_ROUNDTRIP
360
ED6
  0
DICTIONARY
  5
ED9
330
E8B
100
AcDbDictionary
280
     1
281
     1
  3
ACAD_XREC_ROUNDTRIP
360
EDA
  0
DICTIONARY
  5
EE9
330
E93
100
AcDbDictionary
280
     1
281
     1
  3
ACAD_XREC_ROUNDTRIP
360
EEA
  0
DICTIONARY
  5
EE1
330
E8F
100
AcDbDictionary
280
     1
281
     1
  3
ACAD_XREC_ROUNDTRIP
360
EE2
  0
DICTIONARY
  5
EC5
330
E81
100
AcDbDictionary
280
     1
281
     1
  3
ACAD_XREC_ROUNDTRIP
360
EC6
  0
DICTIONARY
  5
EC7
330
E82
100
AcDbDictionary
280
     1
281
     1
  3
ACAD_XREC_ROUNDTRIP
360
EC8
  0
DICTIONARY
  5
EC9
330
E83
100
AcDbDictionary
280
     1
281
     1
  3
ACAD_XREC_ROUNDTRIP
360
ECA
  0
DICTIONARY
  5
ECB
330
E84
100
AcDbDictionary
280
     1
281
     1
  3
ACAD_XREC_ROUNDTRIP
360
ECC
  0
DICTIONARY
  5
EE5
330
E91
100
AcDbDictionary
280
     1
281
     1
  3
ACAD_XREC_ROUNDTRIP
360
EE6
  0
DICTIONARY
  5
EDF
330
E8E
100
AcDbDictionary
280
     1
281
     1
  3
ACAD_XREC_ROUNDTRIP
360
EE0
  0
DICTIONARY
  5
EE7
330
E92
100
AcDbDictionary
280
     1
281
     1
  3
ACAD_XREC_ROUNDTRIP
360
EE8
  0
DICTIONARY
  5
ED7
330
E8A
100
AcDbDictionary
280
     1
281
     1
  3
ACAD_XREC_ROUNDTRIP
360
ED8
  0
DICTIONARY
  5
EDD
330
E8D
100
AcDbDictionary
280
     1
281
     1
  3
ACAD_XREC_ROUNDTRIP
360
EDE
  0
XRECORD
  5
EBD
102
{ACAD_REACTORS
330
EBC
102
}
330
EBC
100
AcDbXrecord
280
     1
102
SHADEPLOT
 70
     0
102
SHADEPLOTRESLEVEL
 70
     2
102
SHADEPLOTCUSTOMDPI
 70
   300
  0
XRECORD
  5
EC1
102
{ACAD_REACTORS
330
EC0
102
}
330
EC0
100
AcDbXrecord
280
     1
102
SHADEPLOT
 70
     0
102
SHADEPLOTRESLEVEL
 70
     2
102
SHADEPLOTCUSTOMDPI
 70
   300
  0
XRECORD
  5
EBF
102
{ACAD_REACTORS
330
EBE
102
}
330
EBE
100
AcDbXrecord
280
     1
102
SHADEPLOT
 70
     0
102
SHADEPLOTRESLEVEL
 70
     2
102
SHADEPLOTCUSTOMDPI
 70
   300
  0
XRECORD
  5
EC3
102
{ACAD_REACTORS
330
E71
102
}
330
E71
100
AcDbXrecord
280
     1
102
MATERIAL
148
0.0
149
0.0
149
0.0
 93
        0
 94
      127
282
     0
 72
     0
 77
     0
171
     0
175
     0
179
     0
273
     0
  0
XRECORD
  5
E73
102
{ACAD_REACTORS
330
E71
102
}
330
E71
100
AcDbXrecord
280
     1
270
     1
271
     1
  0
XRECORD
  5
E72
102
{ACAD_REACTORS
330
E71
102
}
330
E71
100
AcDbXrecord
280
     1
270
     1
271
     1
  0
XRECORD
  5
E76
102
{ACAD_REACTORS
330
E71
102
}
330
E71
100
AcDbXrecord
280
     1
270
     1
271
     1
  0
XRECORD
  5
E75
102
{ACAD_REACTORS
330
E71
102
}
330
E71
100
AcDbXrecord
280
     1
270
     1
271
     1
  0
XRECORD
  5
E77
102
{ACAD_REACTORS
330
E71
102
}
330
E71
100
AcDbXrecord
280
     1
270
     1
271
     1
  0
XRECORD
  5
E74
102
{ACAD_REACTORS
330
E71
102
}
330
E71
100
AcDbXrecord
280
     1
270
     1
271
     1
  0
XRECORD
  5
EC2
102
{ACAD_REACTORS
330
E69
102
}
330
E69
100
AcDbXrecord
280
     1
102
MATERIAL
148
0.0
149
0.0
149
0.0
 93
        0
 94
      127
282
     0
 72
     0
 77
     0
171
     0
175
     0
179
     0
273
     0
  0
XRECORD
  5
E6B
102
{ACAD_REACTORS
330
E69
102
}
330
E69
100
AcDbXrecord
280
     1
270
     1
271
     1
  0
XRECORD
  5
E6A
102
{ACAD_REACTORS
330
E69
102
}
330
E69
100
AcDbXrecord
280
     1
270
     1
271
     1
  0
XRECORD
  5
E6E
102
{ACAD_REACTORS
330
E69
102
}
330
E69
100
AcDbXrecord
280
     1
270
     1
271
     1
  0
XRECORD
  5
E6D
102
{ACAD_REACTORS
330
E69
102
}
330
E69
100
AcDbXrecord
280
     1
270
     1
271
     1
  0
XRECORD
  5
E6F
102
{ACAD_REACTORS
330
E69
102
}
330
E69
100
AcDbXrecord
280
     1
270
     1
271
     1
  0
XRECORD
  5
E6C
102
{ACAD_REACTORS
330
E69
102
}
330
E69
100
AcDbXrecord
280
     1
270
     1
271
     1
  0
XRECORD
  5
EC4
102
{ACAD_REACTORS
330
E79
102
}
330
E79
100
AcDbXrecord
280
     1
102
MATERIAL
148
0.0
149
0.0
149
0.0
 93
        0
 94
      127
282
     0
 72
     0
 77
     0
171
     0
175
     0
179
     0
273
     0
  0
XRECORD
  5
E7B
102
{ACAD_REACTORS
330
E79
102
}
330
E79
100
AcDbXrecord
280
     1
270
     1
271
     1
  0
XRECORD
  5
E7A
102
{ACAD_REACTORS
330
E79
102
}
330
E79
100
AcDbXrecord
280
     1
270
     1
271
     1
  0
XRECORD
  5
E7E
102
{ACAD_REACTORS
330
E79
102
}
330
E79
100
AcDbXrecord
280
     1
270
     1
271
     1
  0
XRECORD
  5
E7D
102
{ACAD_REACTORS
330
E79
102
}
330
E79
100
AcDbXrecord
280
     1
270
     1
271
     1
  0
XRECORD
  5
E7F
102
{ACAD_REACTORS
330
E79
102
}
330
E79
100
AcDbXrecord
280
     1
270
     1
271
     1
  0
XRECORD
  5
E7C
102
{ACAD_REACTORS
330
E79
102
}
330
E79
100
AcDbXrecord
280
     1
270
     1
271
     1
  0
CELLSTYLEMAP
  5
EB8
102
{ACAD_REACTORS
330
EB7
102
}
330
EB7
100
AcDbCellStyleMap
 90
        3
300
CELLSTYLE
  1
TABLEFORMAT_BEGIN
 90
        5
170
     1
 91
        0
 92
    32768
 62
   257
 93
        1
300
CONTENTFORMAT
  1
CONTENTFORMAT_BEGIN
 90
        0
 91
        0
 92
        4
 93
        0
300

 40
0.0
140
1.0
 94
        5
 62
     0
340
11
144
6.0
309
CONTENTFORMAT_END
171
     1
301
MARGIN
  1
CELLMARGIN_BEGIN
 40
1.5
 40
1.5
 40
1.5
 40
1.5
 40
0.18
 40
0.18
309
CELLMARGIN_END
 94
        6
 95
        1
302
GRIDFORMAT
  1
GRIDFORMAT_BEGIN
 90
        0
 91
        1
 62
     0
 92
       -2
340
0
 93
        0
 40
0.045
309
GRIDFORMAT_END
 95
        2
302
GRIDFORMAT
  1
GRIDFORMAT_BEGIN
 90
        0
 91
        1
 62
     0
 92
       -2
340
0
 93
        0
 40
0.045
309
GRIDFORMAT_END
 95
        4
302
GRIDFORMAT
  1
GRIDFORMAT_BEGIN
 90
        0
 91
        1
 62
     0
 92
       -2
340
0
 93
        0
 40
0.045
309
GRIDFORMAT_END
 95
        8
302
GRIDFORMAT
  1
GRIDFORMAT_BEGIN
 90
        0
 91
        1
 62
     0
 92
       -2
340
0
 93
        0
 40
0.045
309
GRIDFORMAT_END
 95
       16
302
GRIDFORMAT
  1
GRIDFORMAT_BEGIN
 90
        0
 91
        1
 62
     0
 92
       -2
340
0
 93
        0
 40
0.045
309
GRIDFORMAT_END
 95
       32
302
GRIDFORMAT
  1
GRIDFORMAT_BEGIN
 90
        0
 91
        1
 62
     0
 92
       -2
340
0
 93
        0
 40
0.045
309
GRIDFORMAT_END
309
TABLEFORMAT_END
  1
CELLSTYLE_BEGIN
 90
        1
 91
        1
300
_TITLE
309
CELLSTYLE_END
300
CELLSTYLE
  1
TABLEFORMAT_BEGIN
 90
        5
170
     1
 91
        0
 92
        0
 62
   257
 93
        1
300
CONTENTFORMAT
  1
CONTENTFORMAT_BEGIN
 90
        0
 91
        0
 92
        4
 93
        0
300

 40
0.0
140
1.0
 94
        5
 62
     0
340
11
144
4.5
309
CONTENTFORMAT_END
171
     1
301
MARGIN
  1
CELLMARGIN_BEGIN
 40
1.5
 40
1.5
 40
1.5
 40
1.5
 40
0.18
 40
0.18
309
CELLMARGIN_END
 94
        6
 95
        1
302
GRIDFORMAT
  1
GRIDFORMAT_BEGIN
 90
        0
 91
        1
 62
     0
 92
       -2
340
0
 93
        0
 40
0.045
309
GRIDFORMAT_END
 95
        2
302
GRIDFORMAT
  1
GRIDFORMAT_BEGIN
 90
        0
 91
        1
 62
     0
 92
       -2
340
0
 93
        0
 40
0.045
309
GRIDFORMAT_END
 95
        4
302
GRIDFORMAT
  1
GRIDFORMAT_BEGIN
 90
        0
 91
        1
 62
     0
 92
       -2
340
0
 93
        0
 40
0.045
309
GRIDFORMAT_END
 95
        8
302
GRIDFORMAT
  1
GRIDFORMAT_BEGIN
 90
        0
 91
        1
 62
     0
 92
       -2
340
0
 93
        0
 40
0.045
309
GRIDFORMAT_END
 95
       16
302
GRIDFORMAT
  1
GRIDFORMAT_BEGIN
 90
        0
 91
        1
 62
     0
 92
       -2
340
0
 93
        0
 40
0.045
309
GRIDFORMAT_END
 95
       32
302
GRIDFORMAT
  1
GRIDFORMAT_BEGIN
 90
        0
 91
        1
 62
     0
 92
       -2
340
0
 93
        0
 40
0.045
309
GRIDFORMAT_END
309
TABLEFORMAT_END
  1
CELLSTYLE_BEGIN
 90
        2
 91
        1
300
_HEADER
309
CELLSTYLE_END
300
CELLSTYLE
  1
TABLEFORMAT_BEGIN
 90
        5
170
     1
 91
        0
 92
        0
 62
   257
 93
        1
300
CONTENTFORMAT
  1
CONTENTFORMAT_BEGIN
 90
        0
 91
        0
 92
        4
 93
        0
300

 40
0.0
140
1.0
 94
        2
 62
     0
340
11
144
4.5
309
CONTENTFORMAT_END
171
     1
301
MARGIN
  1
CELLMARGIN_BEGIN
 40
1.5
 40
1.5
 40
1.5
 40
1.5
 40
0.18
 40
0.18
309
CELLMARGIN_END
 94
        6
 95
        1
302
GRIDFORMAT
  1
GRIDFORMAT_BEGIN
 90
        0
 91
        1
 62
     0
 92
       -2
340
0
 93
        0
 40
0.045
309
GRIDFORMAT_END
 95
        2
302
GRIDFORMAT
  1
GRIDFORMAT_BEGIN
 90
        0
 91
        1
 62
     0
 92
       -2
340
0
 93
        0
 40
0.045
309
GRIDFORMAT_END
 95
        4
302
GRIDFORMAT
  1
GRIDFORMAT_BEGIN
 90
        0
 91
        1
 62
     0
 92
       -2
340
0
 93
        0
 40
0.045
309
GRIDFORMAT_END
 95
        8
302
GRIDFORMAT
  1
GRIDFORMAT_BEGIN
 90
        0
 91
        1
 62
     0
 92
       -2
340
0
 93
        0
 40
0.045
309
GRIDFORMAT_END
 95
       16
302
GRIDFORMAT
  1
GRIDFORMAT_BEGIN
 90
        0
 91
        1
 62
     0
 92
       -2
340
0
 93
        0
 40
0.045
309
GRIDFORMAT_END
 95
       32
302
GRIDFORMAT
  1
GRIDFORMAT_BEGIN
 90
        0
 91
        1
 62
     0
 92
       -2
340
0
 93
        0
 40
0.045
309
GRIDFORMAT_END
309
TABLEFORMAT_END
  1
CELLSTYLE_BEGIN
 90
        3
 91
        2
300
_DATA
309
CELLSTYLE_END
  0
XRECORD
  5
EBB
102
{ACAD_REACTORS
330
EB7
102
}
330
EB7
100
AcDbXrecord
280
     1
102
ACAD_ROUNDTRIP_PRE2007_TABLESTYLE
 90
        4
 91
        0
  1

 92
        4
 93
        0
  2

 94
        4
 95
        0
  3

  0
XRECORD
  5
ED0
102
{ACAD_REACTORS
330
ECF
102
}
330
ECF
100
AcDbXrecord
280
     1
102
RTVSPropertyOp0
 70
     1
102
RTVSPropertyOp1
 70
     1
102
RTVSPropertyOp2
 70
     1
102
RTVSPropertyOp3
 70
     1
102
RTVSPropertyOp4
 70
     1
102
RTVSPropertyOp5
 70
     1
102
RTVSPropertyOp6
 70
     1
102
RTVSPropertyOp7
 70
     1
102
RTVSPropertyOp8
 70
     1
102
RTVSPropertyOp9
 70
     1
102
RTVSPropertyOp10
 70
     1
102
RTVSPropertyOp11
 70
     1
102
RTVSPropertyOp12
 70
     1
102
RTVSPropertyOp13
 70
     1
102
RTVSPropertyOp14
 70
     1
102
RTVSPropertyOp15
 70
     1
102
RTVSPropertyOp16
 70
     1
102
RTVSPropertyOp17
 70
     1
102
RTVSPropertyOp18
 70
     1
102
RTVSPropertyOp19
 70
     1
102
RTVSPropertyOp20
 70
     1
102
RTVSPropertyOp21
 70
     1
102
RTVSPropertyOp22
 70
     1
102
RTVSPropertyOp23
 70
     1
102
RTVSPropertyOp24
 70
     1
102
RTVSPropertyOp25
 70
     1
102
RTVSPropertyOp26
 70
     1
102
RTVSPropertyOp27
 70
     1
  0
XRECORD
  5
ED4
102
{ACAD_REACTORS
330
ED3
102
}
330
ED3
100
AcDbXrecord
280
     1
102
RTVSPropertyOp0
 70
     1
102
RTVSPropertyOp1
 70
     1
102
RTVSPropertyOp2
 70
     1
102
RTVSPropertyOp3
 70
     1
102
RTVSPropertyOp4
 70
     1
102
RTVSPropertyOp5
 70
     1
102
RTVSPropertyOp6
 70
     1
102
RTVSPropertyOp7
 70
     1
102
RTVSPropertyOp8
 70
     1
102
RTVSPropertyOp9
 70
     1
102
RTVSPropertyOp10
 70
     1
102
RTVSPropertyOp11
 70
     1
102
RTVSPropertyOp12
 70
     1
102
RTVSPropertyOp13
 70
     1
102
RTVSPropertyOp14
 70
     1
102
RTVSPropertyOp15
 70
     1
102
RTVSPropertyOp16
 70
     1
102
RTVSPropertyOp17
 70
     1
102
RTVSPropertyOp18
 70
     1
102
RTVSPropertyOp19
 70
     1
102
RTVSPropertyOp20
 70
     1
102
RTVSPropertyOp21
 70
     1
102
RTVSPropertyOp22
 70
     1
102
RTVSPropertyOp23
 70
     1
102
RTVSPropertyOp24
 70
     1
102
RTVSPropertyOp25
 70
     1
102
RTVSPropertyOp26
 70
     1
102
RTVSPropertyOp27
 70
     1
  0
XRECORD
  5
ED2
102
{ACAD_REACTORS
330
ED1
102
}
330
ED1
100
AcDbXrecord
280
     1
102
RTVSPropertyOp0
 70
     1
102
RTVSPropertyOp1
 70
     1
102
RTVSPropertyOp2
 70
     1
102
RTVSPropertyOp3
 70
     1
102
RTVSPropertyOp4
 70
     1
102
RTVSPropertyOp5
 70
     1
102
RTVSPropertyOp6
 70
     1
102
RTVSPropertyOp7
 70
     1
102
RTVSPropertyOp8
 70
     1
102
RTVSPropertyOp9
 70
     1
102
RTVSPropertyOp10
 70
     1
102
RTVSPropertyOp11
 70
     1
102
RTVSPropertyOp12
 70
     1
102
RTVSPropertyOp13
 70
     1
102
RTVSPropertyOp14
 70
     1
102
RTVSPropertyOp15
 70
     1
102
RTVSPropertyOp16
 70
     1
102
RTVSPropertyOp17
 70
     1
102
RTVSPropertyOp18
 70
     1
102
RTVSPropertyOp19
 70
     1
102
RTVSPropertyOp20
 70
     1
102
RTVSPropertyOp21
 70
     1
102
RTVSPropertyOp22
 70
     1
102
RTVSPropertyOp23
 70
     1
102
RTVSPropertyOp24
 70
     1
102
RTVSPropertyOp25
 70
     1
102
RTVSPropertyOp26
 70
     1
102
RTVSPropertyOp27
 70
     1
  0
XRECORD
  5
ECE
102
{ACAD_REACTORS
330
ECD
102
}
330
ECD
100
AcDbXrecord
280
     1
102
RTVSPropertyOp0
 70
     1
102
RTVSPropertyOp1
 70
     1
102
RTVSPropertyOp2
 70
     1
102
RTVSPropertyOp3
 70
     1
102
RTVSPropertyOp4
 70
     1
102
RTVSPropertyOp5
 70
     1
102
RTVSPropertyOp6
 70
     1
102
RTVSPropertyOp7
 70
     1
102
RTVSPropertyOp8
 70
     1
102
RTVSPropertyOp9
 70
     1
102
RTVSPropertyOp10
 70
     1
102
RTVSPropertyOp11
 70
     1
102
RTVSPropertyOp12
 70
     1
102
RTVSPropertyOp13
 70
     1
102
RTVSPropertyOp14
 70
     1
102
RTVSPropertyOp15
 70
     1
102
RTVSPropertyOp16
 70
     1
102
RTVSPropertyOp17
 70
     1
102
RTVSPropertyOp18
 70
     1
102
RTVSPropertyOp19
 70
     1
102
RTVSPropertyOp20
 70
     1
102
RTVSPropertyOp21
 70
     1
102
RTVSPropertyOp22
 70
     1
102
RTVSPropertyOp23
 70
     1
102
RTVSPropertyOp24
 70
     1
102
RTVSPropertyOp25
 70
     1
102
RTVSPropertyOp26
 70
     1
102
RTVSPropertyOp27
 70
     1
  0
XRECORD
  5
EDC
102
{ACAD_REACTORS
330
EDB
102
}
330
EDB
100
AcDbXrecord
280
     1
102
RTVSPropertyOp0
 70
     1
102
RTVSPropertyOp1
 70
     1
102
RTVSPropertyOp2
 70
     1
102
RTVSPropertyOp3
 70
     1
102
RTVSPropertyOp4
 70
     1
102
RTVSPropertyOp5
 70
     1
102
RTVSPropertyOp6
 70
     1
102
RTVSPropertyOp7
 70
     1
102
RTVSPropertyOp8
 70
     1
102
RTVSPropertyOp9
 70
     1
102
RTVSPropertyOp10
 70
     1
102
RTVSPropertyOp11
 70
     1
102
RTVSPropertyOp12
 70
     1
102
RTVSPropertyOp13
 70
     1
102
RTVSPropertyOp14
 70
     1
102
RTVSPropertyOp15
 70
     1
102
RTVSPropertyOp16
 70
     1
102
RTVSPropertyOp17
 70
     1
102
RTVSPropertyOp18
 70
     1
102
RTVSPropertyOp19
 70
     1
102
RTVSPropertyOp20
 70
     1
102
RTVSPropertyOp21
 70
     1
102
RTVSPropertyOp22
 70
     1
102
RTVSPropertyOp23
 70
     1
102
RTVSPropertyOp24
 70
     1
102
RTVSPropertyOp25
 70
     1
102
RTVSPropertyOp26
 70
     1
102
RTVSPropertyOp27
 70
     1
  0
XRECORD
  5
EE4
102
{ACAD_REACTORS
330
EE3
102
}
330
EE3
100
AcDbXrecord
280
     1
102
RTVSPropertyOp0
 70
     1
102
RTVSPropertyOp1
 70
     1
102
RTVSPropertyOp2
 70
     1
102
RTVSPropertyOp3
 70
     1
102
RTVSPropertyOp4
 70
     1
102
RTVSPropertyOp5
 70
     1
102
RTVSPropertyOp6
 70
     1
102
RTVSPropertyOp7
 70
     1
102
RTVSPropertyOp8
 70
     1
102
RTVSPropertyOp9
 70
     1
102
RTVSPropertyOp10
 70
     1
102
RTVSPropertyOp11
 70
     1
102
RTVSPropertyOp12
 70
     1
102
RTVSPropertyOp13
 70
     1
102
RTVSPropertyOp14
 70
     1
102
RTVSPropertyOp15
 70
     1
102
RTVSPropertyOp16
 70
     1
102
RTVSPropertyOp17
 70
     1
102
RTVSPropertyOp18
 70
     1
102
RTVSPropertyOp19
 70
     1
102
RTVSPropertyOp20
 70
     1
102
RTVSPropertyOp21
 70
     1
102
RTVSPropertyOp22
 70
     1
102
RTVSPropertyOp23
 70
     1
102
RTVSPropertyOp24
 70
     1
102
RTVSPropertyOp25
 70
     1
102
RTVSPropertyOp26
 70
     1
102
RTVSPropertyOp27
 70
     1
  0
XRECORD
  5
ED6
102
{ACAD_REACTORS
330
ED5
102
}
330
ED5
100
AcDbXrecord
280
     1
102
RTVSPropertyOp0
 70
     1
102
RTVSPropertyOp1
 70
     1
102
RTVSPropertyOp2
 70
     1
102
RTVSPropertyOp3
 70
     1
102
RTVSPropertyOp4
 70
     1
102
RTVSPropertyOp5
 70
     1
102
RTVSPropertyOp6
 70
     1
102
RTVSPropertyOp7
 70
     1
102
RTVSPropertyOp8
 70
     1
102
RTVSPropertyOp9
 70
     1
102
RTVSPropertyOp10
 70
     1
102
RTVSPropertyOp11
 70
     1
102
RTVSPropertyOp12
 70
     1
102
RTVSPropertyOp13
 70
     1
102
RTVSPropertyOp14
 70
     1
102
RTVSPropertyOp15
 70
     1
102
RTVSPropertyOp16
 70
     1
102
RTVSPropertyOp17
 70
     1
102
RTVSPropertyOp18
 70
     1
102
RTVSPropertyOp19
 70
     1
102
RTVSPropertyOp20
 70
     1
102
RTVSPropertyOp21
 70
     1
102
RTVSPropertyOp22
 70
     1
102
RTVSPropertyOp23
 70
     1
102
RTVSPropertyOp24
 70
     1
102
RTVSPropertyOp25
 70
     1
102
RTVSPropertyOp26
 70
     1
102
RTVSPropertyOp27
 70
     1
  0
XRECORD
  5
EDA
102
{ACAD_REACTORS
330
ED9
102
}
330
ED9
100
AcDbXrecord
280
     1
102
RTVSPropertyOp0
 70
     1
102
RTVSPropertyOp1
 70
     1
102
RTVSPropertyOp2
 70
     1
102
RTVSPropertyOp3
 70
     1
102
RTVSPropertyOp4
 70
     1
102
RTVSPropertyOp5
 70
     1
102
RTVSPropertyOp6
 70
     1
102
RTVSPropertyOp7
 70
     1
102
RTVSPropertyOp8
 70
     1
102
RTVSPropertyOp9
 70
     1
102
RTVSPropertyOp10
 70
     1
102
RTVSPropertyOp11
 70
     1
102
RTVSPropertyOp12
 70
     1
102
RTVSPropertyOp13
 70
     1
102
RTVSPropertyOp14
 70
     1
102
RTVSPropertyOp15
 70
     1
102
RTVSPropertyOp16
 70
     1
102
RTVSPropertyOp17
 70
     1
102
RTVSPropertyOp18
 70
     1
102
RTVSPropertyOp19
 70
     1
102
RTVSPropertyOp20
 70
     1
102
RTVSPropertyOp21
 70
     1
102
RTVSPropertyOp22
 70
     1
102
RTVSPropertyOp23
 70
     1
102
RTVSPropertyOp24
 70
     1
102
RTVSPropertyOp25
 70
     1
102
RTVSPropertyOp26
 70
     1
102
RTVSPropertyOp27
 70
     1
  0
XRECORD
  5
EEA
102
{ACAD_REACTORS
330
EE9
102
}
330
EE9
100
AcDbXrecord
280
     1
102
RTVSPropertyOp0
 70
     0
102
RTVSPropertyOp1
 70
     0
102
RTVSPropertyOp2
 70
     0
102
RTVSPropertyOp3
 70
     0
102
RTVSPropertyOp4
 70
     0
102
RTVSPropertyOp5
 70
     0
102
RTVSPropertyOp6
 70
     0
102
RTVSPropertyOp7
 70
     0
102
RTVSPropertyOp8
 70
     0
102
RTVSPropertyOp9
 70
     0
102
RTVSPropertyOp10
 70
     0
102
RTVSPropertyOp11
 70
     0
102
RTVSPropertyOp12
 70
     0
102
RTVSPropertyOp13
 70
     0
102
RTVSPropertyOp14
 70
     2
102
RTVSPropertyOp15
 70
     0
102
RTVSPropertyOp16
 70
     0
102
RTVSPropertyOp17
 70
     0
102
RTVSPropertyOp18
 70
     0
102
RTVSPropertyOp19
 70
     0
102
RTVSPropertyOp20
 70
     0
102
RTVSPropertyOp21
 70
     0
102
RTVSPropertyOp22
 70
     0
102
RTVSPropertyOp23
 70
     0
102
RTVSPropertyOp24
 70
     0
102
RTVSPropertyOp25
 70
     0
102
RTVSPropertyOp26
 70
     0
102
RTVSPropertyOp27
 70
     0
  0
XRECORD
  5
EE2
102
{ACAD_REACTORS
330
EE1
102
}
330
EE1
100
AcDbXrecord
280
     1
102
RTVSPropertyOp0
 70
     1
102
RTVSPropertyOp1
 70
     1
102
RTVSPropertyOp2
 70
     1
102
RTVSPropertyOp3
 70
     1
102
RTVSPropertyOp4
 70
     1
102
RTVSPropertyOp5
 70
     1
102
RTVSPropertyOp6
 70
     1
102
RTVSPropertyOp7
 70
     1
102
RTVSPropertyOp8
 70
     1
102
RTVSPropertyOp9
 70
     1
102
RTVSPropertyOp10
 70
     1
102
RTVSPropertyOp11
 70
     1
102
RTVSPropertyOp12
 70
     1
102
RTVSPropertyOp13
 70
     1
102
RTVSPropertyOp14
 70
     1
102
RTVSPropertyOp15
 70
     1
102
RTVSPropertyOp16
 70
     1
102
RTVSPropertyOp17
 70
     1
102
RTVSPropertyOp18
 70
     1
102
RTVSPropertyOp19
 70
     1
102
RTVSPropertyOp20
 70
     1
102
RTVSPropertyOp21
 70
     1
102
RTVSPropertyOp22
 70
     1
102
RTVSPropertyOp23
 70
     1
102
RTVSPropertyOp24
 70
     1
102
RTVSPropertyOp25
 70
     1
102
RTVSPropertyOp26
 70
     1
102
RTVSPropertyOp27
 70
     1
  0
XRECORD
  5
EC6
102
{ACAD_REACTORS
330
EC5
102
}
330
EC5
100
AcDbXrecord
280
     1
102
RTVSPropertyOp0
 70
     1
102
RTVSPropertyOp1
 70
     1
102
RTVSPropertyOp2
 70
     1
102
RTVSPropertyOp3
 70
     1
102
RTVSPropertyOp4
 70
     1
102
RTVSPropertyOp5
 70
     1
102
RTVSPropertyOp6
 70
     1
102
RTVSPropertyOp7
 70
     1
102
RTVSPropertyOp8
 70
     1
102
RTVSPropertyOp9
 70
     1
102
RTVSPropertyOp10
 70
     1
102
RTVSPropertyOp11
 70
     1
102
RTVSPropertyOp12
 70
     1
102
RTVSPropertyOp13
 70
     1
102
RTVSPropertyOp14
 70
     1
102
RTVSPropertyOp15
 70
     1
102
RTVSPropertyOp16
 70
     1
102
RTVSPropertyOp17
 70
     1
102
RTVSPropertyOp18
 70
     1
102
RTVSPropertyOp19
 70
     1
102
RTVSPropertyOp20
 70
     1
102
RTVSPropertyOp21
 70
     1
102
RTVSPropertyOp22
 70
     1
102
RTVSPropertyOp23
 70
     1
102
RTVSPropertyOp24
 70
     1
102
RTVSPropertyOp25
 70
     1
102
RTVSPropertyOp26
 70
     1
102
RTVSPropertyOp27
 70
     1
  0
XRECORD
  5
EC8
102
{ACAD_REACTORS
330
EC7
102
}
330
EC7
100
AcDbXrecord
280
     1
102
RTVSPropertyOp0
 70
     1
102
RTVSPropertyOp1
 70
     1
102
RTVSPropertyOp2
 70
     1
102
RTVSPropertyOp3
 70
     1
102
RTVSPropertyOp4
 70
     1
102
RTVSPropertyOp5
 70
     1
102
RTVSPropertyOp6
 70
     1
102
RTVSPropertyOp7
 70
     1
102
RTVSPropertyOp8
 70
     1
102
RTVSPropertyOp9
 70
     1
102
RTVSPropertyOp10
 70
     1
102
RTVSPropertyOp11
 70
     1
102
RTVSPropertyOp12
 70
     1
102
RTVSPropertyOp13
 70
     1
102
RTVSPropertyOp14
 70
     1
102
RTVSPropertyOp15
 70
     1
102
RTVSPropertyOp16
 70
     1
102
RTVSPropertyOp17
 70
     1
102
RTVSPropertyOp18
 70
     1
102
RTVSPropertyOp19
 70
     1
102
RTVSPropertyOp20
 70
     1
102
RTVSPropertyOp21
 70
     1
102
RTVSPropertyOp22
 70
     1
102
RTVSPropertyOp23
 70
     1
102
RTVSPropertyOp24
 70
     1
102
RTVSPropertyOp25
 70
     1
102
RTVSPropertyOp26
 70
     1
102
RTVSPropertyOp27
 70
     1
  0
XRECORD
  5
ECA
102
{ACAD_REACTORS
330
EC9
102
}
330
EC9
100
AcDbXrecord
280
     1
102
RTVSPropertyOp0
 70
     1
102
RTVSPropertyOp1
 70
     1
102
RTVSPropertyOp2
 70
     1
102
RTVSPropertyOp3
 70
     1
102
RTVSPropertyOp4
 70
     1
102
RTVSPropertyOp5
 70
     1
102
RTVSPropertyOp6
 70
     1
102
RTVSPropertyOp7
 70
     1
102
RTVSPropertyOp8
 70
     1
102
RTVSPropertyOp9
 70
     1
102
RTVSPropertyOp10
 70
     1
102
RTVSPropertyOp11
 70
     1
102
RTVSPropertyOp12
 70
     1
102
RTVSPropertyOp13
 70
     1
102
RTVSPropertyOp14
 70
     1
102
RTVSPropertyOp15
 70
     1
102
RTVSPropertyOp16
 70
     1
102
RTVSPropertyOp17
 70
     1
102
RTVSPropertyOp18
 70
     1
102
RTVSPropertyOp19
 70
     1
102
RTVSPropertyOp20
 70
     1
102
RTVSPropertyOp21
 70
     1
102
RTVSPropertyOp22
 70
     1
102
RTVSPropertyOp23
 70
     1
102
RTVSPropertyOp24
 70
     1
102
RTVSPropertyOp25
 70
     1
102
RTVSPropertyOp26
 70
     1
102
RTVSPropertyOp27
 70
     1
  0
XRECORD
  5
ECC
102
{ACAD_REACTORS
330
ECB
102
}
330
ECB
100
AcDbXrecord
280
     1
102
RTVSPropertyOp0
 70
     1
102
RTVSPropertyOp1
 70
     1
102
RTVSPropertyOp2
 70
     1
102
RTVSPropertyOp3
 70
     1
102
RTVSPropertyOp4
 70
     1
102
RTVSPropertyOp5
 70
     1
102
RTVSPropertyOp6
 70
     1
102
RTVSPropertyOp7
 70
     1
102
RTVSPropertyOp8
 70
     1
102
RTVSPropertyOp9
 70
     1
102
RTVSPropertyOp10
 70
     1
102
RTVSPropertyOp11
 70
     1
102
RTVSPropertyOp12
 70
     1
102
RTVSPropertyOp13
 70
     1
102
RTVSPropertyOp14
 70
     1
102
RTVSPropertyOp15
 70
     1
102
RTVSPropertyOp16
 70
     1
102
RTVSPropertyOp17
 70
     1
102
RTVSPropertyOp18
 70
     1
102
RTVSPropertyOp19
 70
     1
102
RTVSPropertyOp20
 70
     1
102
RTVSPropertyOp21
 70
     1
102
RTVSPropertyOp22
 70
     1
102
RTVSPropertyOp23
 70
     1
102
RTVSPropertyOp24
 70
     1
102
RTVSPropertyOp25
 70
     1
102
RTVSPropertyOp26
 70
     1
102
RTVSPropertyOp27
 70
     1
  0
XRECORD
  5
EE6
102
{ACAD_REACTORS
330
EE5
102
}
330
EE5
100
AcDbXrecord
280
     1
102
RTVSPropertyOp0
 70
     0
102
RTVSPropertyOp1
 70
     0
102
RTVSPropertyOp2
 70
     0
102
RTVSPropertyOp3
 70
     0
102
RTVSPropertyOp4
 70
     0
102
RTVSPropertyOp5
 70
     0
102
RTVSPropertyOp6
 70
     0
102
RTVSPropertyOp7
 70
     0
102
RTVSPropertyOp8
 70
     0
102
RTVSPropertyOp9
 70
     0
102
RTVSPropertyOp10
 70
     0
102
RTVSPropertyOp11
 70
     0
102
RTVSPropertyOp12
 70
     0
102
RTVSPropertyOp13
 70
     0
102
RTVSPropertyOp14
 70
     2
102
RTVSPropertyOp15
 70
     0
102
RTVSPropertyOp16
 70
     0
102
RTVSPropertyOp17
 70
     0
102
RTVSPropertyOp18
 70
     0
102
RTVSPropertyOp19
 70
     0
102
RTVSPropertyOp20
 70
     0
102
RTVSPropertyOp21
 70
     0
102
RTVSPropertyOp22
 70
     0
102
RTVSPropertyOp23
 70
     0
102
RTVSPropertyOp24
 70
     0
102
RTVSPropertyOp25
 70
     0
102
RTVSPropertyOp26
 70
     0
102
RTVSPropertyOp27
 70
     0
  0
XRECORD
  5
EE0
102
{ACAD_REACTORS
330
EDF
102
}
330
EDF
100
AcDbXrecord
280
     1
102
RTVSPropertyOp0
 70
     1
102
RTVSPropertyOp1
 70
     1
102
RTVSPropertyOp2
 70
     1
102
RTVSPropertyOp3
 70
     1
102
RTVSPropertyOp4
 70
     1
102
RTVSPropertyOp5
 70
     1
102
RTVSPropertyOp6
 70
     1
102
RTVSPropertyOp7
 70
     1
102
RTVSPropertyOp8
 70
     1
102
RTVSPropertyOp9
 70
     1
102
RTVSPropertyOp10
 70
     1
102
RTVSPropertyOp11
 70
     1
102
RTVSPropertyOp12
 70
     1
102
RTVSPropertyOp13
 70
     1
102
RTVSPropertyOp14
 70
     1
102
RTVSPropertyOp15
 70
     1
102
RTVSPropertyOp16
 70
     1
102
RTVSPropertyOp17
 70
     1
102
RTVSPropertyOp18
 70
     1
102
RTVSPropertyOp19
 70
     1
102
RTVSPropertyOp20
 70
     1
102
RTVSPropertyOp21
 70
     1
102
RTVSPropertyOp22
 70
     1
102
RTVSPropertyOp23
 70
     1
102
RTVSPropertyOp24
 70
     1
102
RTVSPropertyOp25
 70
     1
102
RTVSPropertyOp26
 70
     1
102
RTVSPropertyOp27
 70
     1
  0
XRECORD
  5
EE8
102
{ACAD_REACTORS
330
EE7
102
}
330
EE7
100
AcDbXrecord
280
     1
102
RTVSPropertyOp0
 70
     0
102
RTVSPropertyOp1
 70
     0
102
RTVSPropertyOp2
 70
     0
102
RTVSPropertyOp3
 70
     0
102
RTVSPropertyOp4
 70
     0
102
RTVSPropertyOp5
 70
     0
102
RTVSPropertyOp6
 70
     0
102
RTVSPropertyOp7
 70
     0
102
RTVSPropertyOp8
 70
     0
102
RTVSPropertyOp9
 70
     0
102
RTVSPropertyOp10
 70
     0
102
RTVSPropertyOp11
 70
     0
102
RTVSPropertyOp12
 70
     0
102
RTVSPropertyOp13
 70
     0
102
RTVSPropertyOp14
 70
     2
102
RTVSPropertyOp15
 70
     0
102
RTVSPropertyOp16
 70
     0
102
RTVSPropertyOp17
 70
     0
102
RTVSPropertyOp18
 70
     0
102
RTVSPropertyOp19
 70
     0
102
RTVSPropertyOp20
 70
     0
102
RTVSPropertyOp21
 70
     0
102
RTVSPropertyOp22
 70
     0
102
RTVSPropertyOp23
 70
     0
102
RTVSPropertyOp24
 70
     0
102
RTVSPropertyOp25
 70
     0
102
RTVSPropertyOp26
 70
     0
102
RTVSPropertyOp27
 70
     0
  0
XRECORD
  5
ED8
102
{ACAD_REACTORS
330
ED7
102
}
330
ED7
100
AcDbXrecord
280
     1
102
RTVSPropertyOp0
 70
     1
102
RTVSPropertyOp1
 70
     1
102
RTVSPropertyOp2
 70
     1
102
RTVSPropertyOp3
 70
     1
102
RTVSPropertyOp4
 70
     1
102
RTVSPropertyOp5
 70
     1
102
RTVSPropertyOp6
 70
     1
102
RTVSPropertyOp7
 70
     1
102
RTVSPropertyOp8
 70
     1
102
RTVSPropertyOp9
 70
     1
102
RTVSPropertyOp10
 70
     1
102
RTVSPropertyOp11
 70
     1
102
RTVSPropertyOp12
 70
     1
102
RTVSPropertyOp13
 70
     1
102
RTVSPropertyOp14
 70
     1
102
RTVSPropertyOp15
 70
     1
102
RTVSPropertyOp16
 70
     1
102
RTVSPropertyOp17
 70
     1
102
RTVSPropertyOp18
 70
     1
102
RTVSPropertyOp19
 70
     1
102
RTVSPropertyOp20
 70
     1
102
RTVSPropertyOp21
 70
     1
102
RTVSPropertyOp22
 70
     1
102
RTVSPropertyOp23
 70
     1
102
RTVSPropertyOp24
 70
     1
102
RTVSPropertyOp25
 70
     1
102
RTVSPropertyOp26
 70
     1
102
RTVSPropertyOp27
 70
     1
  0
XRECORD
  5
EDE
102
{ACAD_REACTORS
330
EDD
102
}
330
EDD
100
AcDbXrecord
280
     1
102
RTVSPropertyOp0
 70
     1
102
RTVSPropertyOp1
 70
     1
102
RTVSPropertyOp2
 70
     1
102
RTVSPropertyOp3
 70
     1
102
RTVSPropertyOp4
 70
     1
102
RTVSPropertyOp5
 70
     1
102
RTVSPropertyOp6
 70
     1
102
RTVSPropertyOp7
 70
     1
102
RTVSPropertyOp8
 70
     1
102
RTVSPropertyOp9
 70
     1
102
RTVSPropertyOp10
 70
     1
102
RTVSPropertyOp11
 70
     1
102
RTVSPropertyOp12
 70
     1
102
RTVSPropertyOp13
 70
     1
102
RTVSPropertyOp14
 70
     1
102
RTVSPropertyOp15
 70
     1
102
RTVSPropertyOp16
 70
     1
102
RTVSPropertyOp17
 70
     1
102
RTVSPropertyOp18
 70
     1
102
RTVSPropertyOp19
 70
     1
102
RTVSPropertyOp20
 70
     1
102
RTVSPropertyOp21
 70
     1
102
RTVSPropertyOp22
 70
     1
102
RTVSPropertyOp23
 70
     1
102
RTVSPropertyOp24
 70
     1
102
RTVSPropertyOp25
 70
     1
102
RTVSPropertyOp26
 70
     1
102
RTVSPropertyOp27
 70
     1
  0
ENDSEC
  0
EOF
