  0
SECTION
  2
HEADER
  9
$ACADVER
  1
AC1015
  9
$ACADMAINTVER
 70
    20
  9
$DWGCODEPAGE
  3
ANSI_1252
  9
$INSBASE
 10
0.0
 20
0.0
 30
0.0
  9
$EXTMIN
 10
916.6254387738458
 20
1556.422630194151
 30
0.0
  9
$EXTMAX
 10
919.3514039757873
 20
1556.993265770334
 30
0.0
  9
$LIMMIN
 10
0.0
 20
0.0
  9
$LIMMAX
 10
420.0
 20
297.0
  9
$ORTHOMODE
 70
     1
  9
$REGENMODE
 70
     1
  9
$FILLMODE
 70
     1
  9
$QTEXTMODE
 70
     0
  9
$MIRRTEXT
 70
     0
  9
$LTSCALE
 40
1.0
  9
$ATTMODE
 70
     1
  9
$TEXTSIZE
 40
2.5
  9
$TRACEWID
 40
1.0
  9
$TEXTSTYLE
  7
Standard
  9
$CLAYER
  8
SANINDUSA
  9
$CELTYPE
  6
ByLayer
  9
$CECOLOR
 62
   256
  9
$CELTSCALE
 40
1.0
  9
$DISPSILH
 70
     0
  9
$DIMSCALE
 40
1.0
  9
$DIMASZ
 40
2.5
  9
$DIMEXO
 40
0.625
  9
$DIMDLI
 40
3.75
  9
$DIMRND
 40
0.0
  9
$DIMDLE
 40
0.0
  9
$DIMEXE
 40
1.25
  9
$DIMTP
 40
0.0
  9
$DIMTM
 40
0.0
  9
$DIMTXT
 40
2.5
  9
$DIMCEN
 40
2.5
  9
$DIMTSZ
 40
0.0
  9
$DIMTOL
 70
     0
  9
$DIMLIM
 70
     0
  9
$DIMTIH
 70
     0
  9
$DIMTOH
 70
     0
  9
$DIMSE1
 70
     0
  9
$DIMSE2
 70
     0
  9
$DIMTAD
 70
     1
  9
$DIMZIN
 70
     8
  9
$DIMBLK
  1

  9
$DIMASO
 70
     1
  9
$DIMSHO
 70
     1
  9
$DIMPOST
  1

  9
$DIMAPOST
  1

  9
$DIMALT
 70
     0
  9
$DIMALTD
 70
     3
  9
$DIMALTF
 40
0.03937007874016
  9
$DIMLFAC
 40
1.0
  9
$DIMTOFL
 70
     1
  9
$DIMTVP
 40
0.0
  9
$DIMTIX
 70
     0
  9
$DIMSOXD
 70
     0
  9
$DIMSAH
 70
     0
  9
$DIMBLK1
  1

  9
$DIMBLK2
  1

  9
$DIMSTYLE
  2
ISO-25
  9
$DIMCLRD
 70
     0
  9
$DIMCLRE
 70
     0
  9
$DIMCLRT
 70
     0
  9
$DIMTFAC
 40
1.0
  9
$DIMGAP
 40
0.625
  9
$DIMJUST
 70
     0
  9
$DIMSD1
 70
     0
  9
$DIMSD2
 70
     0
  9
$DIMTOLJ
 70
     0
  9
$DIMTZIN
 70
     8
  9
$DIMALTZ
 70
     0
  9
$DIMALTTZ
 70
     0
  9
$DIMUPT
 70
     0
  9
$DIMDEC
 70
     2
  9
$DIMTDEC
 70
     2
  9
$DIMALTU
 70
     2
  9
$DIMALTTD
 70
     3
  9
$DIMTXSTY
  7
Standard
  9
$DIMAUNIT
 70
     0
  9
$DIMADEC
 70
     0
  9
$DIMALTRND
 40
0.0
  9
$DIMAZIN
 70
     0
  9
$DIMDSEP
 70
    44
  9
$DIMATFIT
 70
     3
  9
$DIMFRAC
 70
     0
  9
$DIMLDRBLK
  1

  9
$DIMLUNIT
 70
     2
  9
$DIMLWD
 70
    -2
  9
$DIMLWE
 70
    -2
  9
$DIMTMOVE
 70
     0
  9
$LUNITS
 70
     2
  9
$LUPREC
 70
     4
  9
$SKETCHINC
 40
1.0
  9
$FILLETRAD
 40
0.0
  9
$AUNITS
 70
     0
  9
$AUPREC
 70
     0
  9
$MENU
  1
.
  9
$ELEVATION
 40
0.0
  9
$PELEVATION
 40
0.0
  9
$THICKNESS
 40
0.0
  9
$LIMCHECK
 70
     0
  9
$CHAMFERA
 40
0.0
  9
$CHAMFERB
 40
0.0
  9
$CHAMFERC
 40
0.0
  9
$CHAMFERD
 40
0.0
  9
$SKPOLY
 70
     0
  9
$TDCREATE
 40
2453797.419882442
  9
$TDUCREATE
 40
2453797.378215775
  9
$TDUPDATE
 40
2456147.424201563
  9
$TDUUPDATE
 40
2456147.382534896
  9
$TDINDWG
 40
0.0093026620
  9
$TDUSRTIMER
 40
0.0093024884
  9
$USRTIMER
 70
     1
  9
$ANGBASE
 50
0.0
  9
$ANGDIR
 70
     0
  9
$PDMODE
 70
     0
  9
$PDSIZE
 40
0.0
  9
$PLINEWID
 40
0.0
  9
$SPLFRAME
 70
     0
  9
$SPLINETYPE
 70
     6
  9
$SPLINESEGS
 70
     8
  9
$HANDSEED
  5
7F0
  9
$SURFTAB1
 70
     6
  9
$SURFTAB2
 70
     6
  9
$SURFTYPE
 70
     6
  9
$SURFU
 70
     6
  9
$SURFV
 70
     6
  9
$UCSBASE
  2

  9
$UCSNAME
  2

  9
$UCSORG
 10
0.0
 20
0.0
 30
0.0
  9
$UCSXDIR
 10
1.0
 20
0.0
 30
0.0
  9
$UCSYDIR
 10
0.0
 20
1.0
 30
0.0
  9
$UCSORTHOREF
  2

  9
$UCSORTHOVIEW
 70
     0
  9
$UCSORGTOP
 10
0.0
 20
0.0
 30
0.0
  9
$UCSORGBOTTOM
 10
0.0
 20
0.0
 30
0.0
  9
$UCSORGLEFT
 10
0.0
 20
0.0
 30
0.0
  9
$UCSORGRIGHT
 10
0.0
 20
0.0
 30
0.0
  9
$UCSORGFRONT
 10
0.0
 20
0.0
 30
0.0
  9
$UCSORGBACK
 10
0.0
 20
0.0
 30
0.0
  9
$PUCSBASE
  2

  9
$PUCSNAME
  2

  9
$PUCSORG
 10
0.0
 20
0.0
 30
0.0
  9
$PUCSXDIR
 10
1.0
 20
0.0
 30
0.0
  9
$PUCSYDIR
 10
0.0
 20
1.0
 30
0.0
  9
$PUCSORTHOREF
  2

  9
$PUCSORTHOVIEW
 70
     0
  9
$PUCSORGTOP
 10
0.0
 20
0.0
 30
0.0
  9
$PUCSORGBOTTOM
 10
0.0
 20
0.0
 30
0.0
  9
$PUCSORGLEFT
 10
0.0
 20
0.0
 30
0.0
  9
$PUCSORGRIGHT
 10
0.0
 20
0.0
 30
0.0
  9
$PUCSORGFRONT
 10
0.0
 20
0.0
 30
0.0
  9
$PUCSORGBACK
 10
0.0
 20
0.0
 30
0.0
  9
$USERI1
 70
     0
  9
$USERI2
 70
     0
  9
$USERI3
 70
     0
  9
$USERI4
 70
     0
  9
$USERI5
 70
     0
  9
$USERR1
 40
0.0
  9
$USERR2
 40
0.0
  9
$USERR3
 40
0.0
  9
$USERR4
 40
0.0
  9
$USERR5
 40
0.0
  9
$WORLDVIEW
 70
     1
  9
$SHADEDGE
 70
     3
  9
$SHADEDIF
 70
    70
  9
$TILEMODE
 70
     1
  9
$MAXACTVP
 70
    64
  9
$PINSBASE
 10
0.0
 20
0.0
 30
0.0
  9
$PLIMCHECK
 70
     0
  9
$PEXTMIN
 10
1.000000000000000E+20
 20
1.000000000000000E+20
 30
1.000000000000000E+20
  9
$PEXTMAX
 10
-1.000000000000000E+20
 20
-1.000000000000000E+20
 30
-1.000000000000000E+20
  9
$PLIMMIN
 10
0.0
 20
0.0
  9
$PLIMMAX
 10
420.0
 20
297.0
  9
$UNITMODE
 70
     0
  9
$VISRETAIN
 70
     1
  9
$PLINEGEN
 70
     0
  9
$PSLTSCALE
 70
     1
  9
$TREEDEPTH
 70
  3020
  9
$CMLSTYLE
  2
Standard
  9
$CMLJUST
 70
     0
  9
$CMLSCALE
 40
20.0
  9
$PROXYGRAPHICS
 70
     1
  9
$MEASUREMENT
 70
     1
  9
$CELWEIGHT
370
    -1
  9
$ENDCAPS
280
     0
  9
$JOINSTYLE
280
     0
  9
$LWDISPLAY
290
     0
  9
$INSUNITS
 70
     4
  9
$HYPERLINKBASE
  1

  9
$STYLESHEET
  1

  9
$XEDIT
290
     1
  9
$CEPSNTYPE
380
     0
  9
$PSTYLEMODE
290
     1
  9
$FINGERPRINTGUID
  2
{1EC6851C-A5D7-446F-945E-4A969C663661}
  9
$VERSIONGUID
  2
{06F45548-EFC9-4E79-9C7C-1A6D76C95021}
  9
$EXTNAMES
290
     1
  9
$PSVPSCALE
 40
0.0
  9
$OLESTARTUP
290
     0
  0
ENDSEC
  0
SECTION
  2
CLASSES
  0
CLASS
  1
ACDBDICTIONARYWDFLT
  2
AcDbDictionaryWithDefault
  3
ObjectDBX Classes
 90
        0
280
     0
281
     0
  0
CLASS
  1
TABLESTYLE
  2
AcDbTableStyle
  3
ObjectDBX Classes
 90
     4095
280
     0
281
     0
  0
CLASS
  1
SORTENTSTABLE
  2
AcDbSortentsTable
  3
ObjectDBX Classes
 90
        0
280
     0
281
     0
  0
CLASS
  1
DICTIONARYVAR
  2
AcDbDictionaryVar
  3
ObjectDBX Classes
 90
        0
280
     0
281
     0
  0
CLASS
  1
ACDBPLACEHOLDER
  2
AcDbPlaceHolder
  3
ObjectDBX Classes
 90
        0
280
     0
281
     0
  0
CLASS
  1
LAYOUT
  2
AcDbLayout
  3
ObjectDBX Classes
 90
        0
280
     0
281
     0
  0
CLASS
  1
MATERIAL
  2
AcDbMaterial
  3
ObjectDBX Classes
 90
     1153
280
     0
281
     0
  0
CLASS
  1
VISUALSTYLE
  2
AcDbVisualStyle
  3
ObjectDBX Classes
 90
     4095
280
     0
281
     0
  0
CLASS
  1
SCALE
  2
AcDbScale
  3
ObjectDBX Classes
 90
     1153
280
     0
281
     0
  0
CLASS
  1
MLEADERSTYLE
  2
AcDbMLeaderStyle
  3
ACDB_MLEADERSTYLE_CLASS
 90
     4095
280
     0
281
     0
  0
CLASS
  1
AEC_REFEDIT_STATUS_TRACKER
  2
AecDbRefEditStatusTracker
  3
AecArchBase60|Product Desc: Autodesk Architectural Desktop 2007 |Company: Autodesk,Inc. |WEB Address: www.autodesk.com
 90
      129
280
     0
281
     0
  0
CLASS
  1
NPOCOLLECTION
  2
AcDbImpNonPersistentObjectsCollection
  3
ObjectDBX Classes
 90
     1153
280
     0
281
     0
  0
CLASS
  1
CELLSTYLEMAP
  2
AcDbCellStyleMap
  3
ObjectDBX Classes
 90
     1152
280
     0
281
     0
  0
ENDSEC
  0
SECTION
  2
TABLES
  0
TABLE
  2
VPORT
  5
8
330
0
100
AcDbSymbolTable
 70
     1
  0
VPORT
  5
565
330
8
100
AcDbSymbolTableRecord
100
AcDbViewportTableRecord
  2
*Active
 70
     0
 10
0.0
 20
0.0
 11
1.0
 21
1.0
 12
917.9884213748165
 22
1556.707947982243
 13
0.0
 23
0.0
 14
10.0
 24
10.0
 15
10.0
 25
10.0
 16
0.0
 26
0.0
 36
1.0
 17
0.0
 27
0.0
 37
0.0
 40
1.66294689538451
 41
1.645464025026068
 42
50.0
 43
0.0
 44
0.0
 50
0.0
 51
0.0
 71
     0
 72
  1000
 73
     1
 74
     3
 75
     0
 76
     0
 77
     0
 78
     0
281
     0
 65
     1
110
0.0
120
0.0
130
0.0
111
1.0
121
0.0
131
0.0
112
0.0
122
1.0
132
0.0
 79
     0
146
0.0
  0
ENDTAB
  0
TABLE
  2
LTYPE
  5
5
330
0
100
AcDbSymbolTable
 70
     3
  0
LTYPE
  5
14
330
5
100
AcDbSymbolTableRecord
100
AcDbLinetypeTableRecord
  2
ByBlock
 70
     0
  3

 72
    65
 73
     0
 40
0.0
  0
LTYPE
  5
15
330
5
100
AcDbSymbolTableRecord
100
AcDbLinetypeTableRecord
  2
ByLayer
 70
     0
  3

 72
    65
 73
     0
 40
0.0
  0
LTYPE
  5
16
330
5
100
AcDbSymbolTableRecord
100
AcDbLinetypeTableRecord
  2
Continuous
 70
     0
  3
Solid line
 72
    65
 73
     0
 40
0.0
  0
LTYPE
  5
B9
330
5
100
AcDbSymbolTableRecord
100
AcDbLinetypeTableRecord
  2
DASHDOT
 70
     0
  3
Dash dot __ . __ . __ . __ . __ . __ . __ . __
 72
    65
 73
     4
 40
25.4
 49
12.7
 74
     0
 49
-6.349999999999999
 74
     0
 49
0.0
 74
     0
 49
-6.349999999999999
 74
     0
  0
LTYPE
  5
BA
330
5
100
AcDbSymbolTableRecord
100
AcDbLinetypeTableRecord
  2
HIDDEN
 70
     0
  3
Hidden __ __ __ __ __ __ __ __ __ __ __ __ __ _
 72
    65
 73
     2
 40
9.524999999999998
 49
6.349999999999999
 74
     0
 49
-3.174999999999999
 74
     0
  0
ENDTAB
  0
TABLE
  2
LAYER
  5
2
330
0
100
AcDbSymbolTable
 70
     7
  0
LAYER
  5
10
102
{ACAD_XDICTIONARY
360
766
102
}
330
2
100
AcDbSymbolTableRecord
100
AcDbLayerTableRecord
  2
0
 70
     0
 62
    -7
  6
Continuous
370
    -3
390
F
  0
LAYER
  5
BB
102
{ACAD_XDICTIONARY
360
768
102
}
330
2
100
AcDbSymbolTableRecord
100
AcDbLayerTableRecord
  2
cen
 70
     0
 62
    -7
  6
DASHDOT
370
    -3
390
F
  0
LAYER
  5
BC
102
{ACAD_XDICTIONARY
360
76A
102
}
330
2
100
AcDbSymbolTableRecord
100
AcDbLayerTableRecord
  2
hid
 70
     0
 62
    -7
  6
HIDDEN
370
    -3
390
F
  0
LAYER
  5
BD
102
{ACAD_XDICTIONARY
360
76C
102
}
330
2
100
AcDbSymbolTableRecord
100
AcDbLayerTableRecord
  2
hatch
 70
     0
 62
    -9
  6
Continuous
370
    -3
390
F
  0
LAYER
  5
BE
102
{ACAD_XDICTIONARY
360
76E
102
}
330
2
100
AcDbSymbolTableRecord
100
AcDbLayerTableRecord
  2
9
 70
     0
 62
    -9
  6
Continuous
370
    -3
390
F
  0
LAYER
  5
BF
102
{ACAD_XDICTIONARY
360
770
102
}
330
2
100
AcDbSymbolTableRecord
100
AcDbLayerTableRecord
  2
cotas
 70
     0
 62
    -1
  6
Continuous
370
    -3
390
F
  0
LAYER
  5
C0
102
{ACAD_XDICTIONARY
360
772
102
}
330
2
100
AcDbSymbolTableRecord
100
AcDbLayerTableRecord
  2
SANINDUSA
 70
     0
 62
     3
  6
Continuous
370
    -3
390
F
  0
ENDTAB
  0
TABLE
  2
STYLE
  5
3
330
0
100
AcDbSymbolTable
 70
     2
  0
STYLE
  5
11
330
3
100
AcDbSymbolTableRecord
100
AcDbTextStyleTableRecord
  2
Standard
 70
     0
 40
0.0
 41
1.0
 50
0.0
 71
     0
 42
2.5
  3
txt
  4

  0
STYLE
  5
C1
330
3
100
AcDbSymbolTableRecord
100
AcDbTextStyleTableRecord
  2
SANINDUSA
 70
     0
 40
0.0
 41
1.0
 50
0.0
 71
     0
 42
2.5
  3
verdana.TTF
  4

1001
ACAD
1000
Verdana
1071
       34
  0
ENDTAB
  0
TABLE
  2
VIEW
  5
6
330
0
100
AcDbSymbolTable
 70
     0
  0
ENDTAB
  0
TABLE
  2
UCS
  5
7
330
0
100
AcDbSymbolTable
 70
     0
  0
ENDTAB
  0
TABLE
  2
APPID
  5
9
330
0
100
AcDbSymbolTable
 70
     7
  0
APPID
  5
12
330
9
100
AcDbSymbolTableRecord
100
AcDbRegAppTableRecord
  2
ACAD
 70
     0
  0
APPID
  5
C3
330
9
100
AcDbSymbolTableRecord
100
AcDbRegAppTableRecord
  2
ACAD_DSTYLE_DIMEXT_LENGTH
 70
     0
  0
APPID
  5
C4
330
9
100
AcDbSymbolTableRecord
100
AcDbRegAppTableRecord
  2
ACAD_DSTYLE_DIMEXT_ENABLED
 70
     0
  0
APPID
  5
C5
330
9
100
AcDbSymbolTableRecord
100
AcDbRegAppTableRecord
  2
ACAD_DSTYLE_DIMJOGGED_JOGANGLE_SYMBOL
 70
     0
  0
APPID
  5
C6
330
9
100
AcDbSymbolTableRecord
100
AcDbRegAppTableRecord
  2
ACAD_DSTYLE_DIMARC_LENGTH_SYMBOL
 70
     0
  0
APPID
  5
533
330
9
100
AcDbSymbolTableRecord
100
AcDbRegAppTableRecord
  2
ACAD_EXEMPT_FROM_CAD_STANDARDS
 70
     0
  0
APPID
  5
7EF
330
9
100
AcDbSymbolTableRecord
100
AcDbRegAppTableRecord
  2
ACAD_MLEADERVER
 70
     0
  0
ENDTAB
  0
TABLE
  2
DIMSTYLE
  5
A
330
0
100
AcDbSymbolTable
 70
     2
100
AcDbDimStyleTable
 71
     1
340
2B
  0
DIMSTYLE
105
2B
330
A
100
AcDbSymbolTableRecord
100
AcDbDimStyleTableRecord
  2
ISO-25
 70
     0
 41
2.5
 42
0.625
 43
3.75
 44
1.25
 73
     0
 74
     0
 77
     1
 78
     8
140
2.5
141
2.5
143
0.03937007874016
147
0.625
171
     3
172
     1
271
     2
272
     2
274
     3
278
    44
283
     0
284
     8
340
11
  0
DIMSTYLE
105
C2
330
A
100
AcDbSymbolTableRecord
100
AcDbDimStyleTableRecord
  2
SANINDUSA
 70
     0
 40
5.0
 41
2.0
 42
1.0
 43
1.0
 44
1.0
 73
     0
 74
     0
 77
     1
 78
     8
140
2.0
141
0.0
143
0.03937007874016
147
1.0
171
     3
172
     1
176
   256
177
   256
178
   256
179
     1
271
     1
272
     1
274
     3
278
    44
283
     0
284
     8
340
C1
371
    -1
372
    -1
1001
ACAD_DSTYLE_DIMEXT_LENGTH
1070
   378
1040
4.0
1001
ACAD_DSTYLE_DIMJOGGED_JOGANGLE_SYMBOL
1070
   384
1040
1.570796326794896
  0
ENDTAB
  0
TABLE
  2
BLOCK_RECORD
  5
1
330
0
100
AcDbSymbolTable
 70
     3
  0
BLOCK_RECORD
  5
23
102
{ACAD_XDICTIONARY
360
762
102
}
330
1
100
AcDbSymbolTableRecord
100
AcDbBlockTableRecord
  2
*Model_Space
340
26
  0
BLOCK_RECORD
  5
1F
330
1
100
AcDbSymbolTableRecord
100
AcDbBlockTableRecord
  2
*Paper_Space
340
22
  0
BLOCK_RECORD
  5
27
330
1
100
AcDbSymbolTableRecord
100
AcDbBlockTableRecord
  2
*Paper_Space0
340
2A
  0
BLOCK_RECORD
  5
2F
102
{ACAD_XDICTIONARY
360
30
102
}
330
1
100
AcDbSymbolTableRecord
100
AcDbBlockTableRecord
  2
sifão técnico
340
0
1001
ACAD
1000
DesignCenter Data
1002
{
1070
     1
1070
     4
1002
}
  0
BLOCK_RECORD
  5
5B5
330
1
100
AcDbSymbolTableRecord
100
AcDbBlockTableRecord
  2
b sifões
340
0
1001
ACAD
1000
DesignCenter Data
1002
{
1070
     1
1070
     4
1002
}
  0
ENDTAB
  0
ENDSEC
  0
SECTION
  2
BLOCKS
  0
BLOCK
  5
24
330
23
100
AcDbEntity
  8
0
100
AcDbBlockBegin
  2
*Model_Space
 70
     0
 10
0.0
 20
0.0
 30
0.0
  3
*Model_Space
  1

  0
ENDBLK
  5
25
330
23
100
AcDbEntity
  8
0
100
AcDbBlockEnd
  0
BLOCK
  5
20
330
1F
100
AcDbEntity
 67
     1
  8
0
100
AcDbBlockBegin
  2
*Paper_Space
 70
     0
 10
0.0
 20
0.0
 30
0.0
  3
*Paper_Space
  1

  0
ENDBLK
  5
21
330
1F
100
AcDbEntity
 67
     1
  8
0
100
AcDbBlockEnd
  0
BLOCK
  5
28
330
27
100
AcDbEntity
 67
     1
  8
0
100
AcDbBlockBegin
  2
*Paper_Space0
 70
     0
 10
0.0
 20
0.0
 30
0.0
  3
*Paper_Space0
  1

  0
ENDBLK
  5
29
330
27
100
AcDbEntity
 67
     1
  8
0
100
AcDbBlockEnd
  0
BLOCK
  5
32
330
2F
100
AcDbEntity
  8
0
100
AcDbBlockBegin
  2
sifão técnico
 70
     0
 10
0.0
 20
0.0
 30
0.0
  3
sifão técnico
  1

  0
LINE
  5
33
330
2F
100
AcDbEntity
  8
hid
 62
     9
100
AcDbLine
 10
173.2296330569023
 20
202.4600962763936
 30
0.0
 11
173.2296330569026
 21
114.2127604579871
 31
0.0
  0
LINE
  5
34
330
2F
100
AcDbEntity
  8
hid
 62
     9
100
AcDbLine
 10
259.2296330569023
 20
114.2127604579871
 30
0.0
 11
259.2296330569023
 21
225.6338092391175
 31
0.0
  0
LINE
  5
35
330
2F
100
AcDbEntity
  8
hid
 62
     9
100
AcDbLine
 10
261.2296330569021
 20
117.9448112655561
 30
0.0
 11
261.2296330569021
 21
225.6338121893795
 31
0.0
  0
LINE
  5
36
330
2F
100
AcDbEntity
  8
hid
 62
     9
100
AcDbLine
 10
173.2296330569026
 20
114.2127604579871
 30
0.0
 11
259.2296330569023
 21
114.2127604579871
 31
0.0
  0
LINE
  5
37
330
2F
100
AcDbEntity
  8
hid
 62
     9
100
AcDbLine
 10
171.2296330569021
 20
117.9448112655559
 30
0.0
 11
172.2296330569023
 21
114.2127604579871
 31
0.0
  0
LINE
  5
38
330
2F
100
AcDbEntity
  8
hid
 62
     9
100
AcDbLine
 10
172.2296330569023
 20
114.2127604579871
 30
0.0
 11
173.2296330569026
 21
114.2127604579871
 31
0.0
  0
LINE
  5
39
330
2F
100
AcDbEntity
  8
cen
100
AcDbLine
 10
216.2296330569021
 20
211.7545345011436
 30
0.0
 11
216.2296330569021
 21
108.4696705999699
 31
0.0
  0
LINE
  5
3A
330
2F
100
AcDbEntity
  8
hid
 62
     9
100
AcDbLine
 10
259.2296330569023
 20
114.2127604579871
 30
0.0
 11
260.2296330569024
 21
114.2127604579871
 31
0.0
  0
LINE
  5
3B
330
2F
100
AcDbEntity
  8
hid
 62
     9
100
AcDbLine
 10
260.2296330569024
 20
114.2127604579871
 30
0.0
 11
261.2296330569021
 21
117.9448112655559
 31
0.0
  0
LWPOLYLINE
  5
3C
330
2F
100
AcDbEntity
  8
hid
 62
     9
100
AcDbPolyline
 90
        8
 70
   128
 43
0.0
 10
173.2096688765858
 20
202.4577200936183
 10
173.2495972372183
 20
202.4624724591693
 10
173.9631960966079
 20
202.5466093700707
 10
175.5470311273974
 20
202.7398961132415
 10
178.4608950548785
 20
203.108554653542
 10
182.4196843176422
 20
203.6926573968604
 10
185.1352028281988
 20
204.1886306509628
 10
188.1199474650165
 20
204.8529676865158
  0
ARC
  5
3D
330
2F
100
AcDbEntity
  8
hid
 62
     9
100
AcDbCircle
 10
187.2296330569023
 20
344.2127604579871
 30
0.0
 40
55.99999999999994
100
AcDbArc
 50
90.0
 51
180.0
  0
ARC
  5
3E
330
2F
100
AcDbEntity
  8
hid
 62
     9
100
AcDbCircle
 10
187.2296330569023
 20
344.2127604579871
 30
0.0
 40
53.99999999999991
100
AcDbArc
 50
90.0
 51
180.0
  0
LWPOLYLINE
  5
3F
330
2F
100
AcDbEntity
  8
hid
 62
     9
100
AcDbPolyline
 90
       14
 70
   128
 43
0.0
 10
133.2296330603297
 20
301.7421824068233
 10
133.2302061945082
 20
301.7421996366293
 10
133.3438007060357
 20
301.7455770202898
 10
133.6669738102263
 20
301.7550907122425
 10
134.9556120830706
 20
301.7930242361692
 10
136.9138116088864
 20
301.8503717657527
 10
139.5512491521571
 20
301.9266184396451
 10
143.4559131898689
 20
302.035337581339
 10
148.1147268583171
 20
302.1599642855185
 10
151.7617889323836
 20
302.2565529768272
 10
155.7502018736576
 20
302.3515843225794
 10
160.7156737128151
 20
302.4448465129988
 10
165.9206159403282
 20
302.5243892770393
 10
186.8570267714634
 20
302.6604250698049
  0
LINE
  5
40
330
2F
100
AcDbEntity
  8
hid
 62
     9
100
AcDbLine
 10
133.2296330569025
 20
268.4895832847196
 30
0.0
 11
133.229633056902
 21
301.7421824068232
 31
0.0
  0
LINE
  5
41
330
2F
100
AcDbEntity
  8
hid
 62
     9
100
AcDbLine
 10
131.2296330569026
 20
268.4895832847196
 30
0.0
 11
131.2296330569021
 21
301.7421824084647
 31
0.0
  0
LINE
  5
42
330
2F
100
AcDbEntity
  8
hid
 62
     9
100
AcDbLine
 10
133.2296330569025
 20
344.2127604579871
 30
0.0
 11
133.229633056902
 21
301.7421824068232
 31
0.0
  0
LINE
  5
43
330
2F
100
AcDbEntity
  8
hid
 62
     9
100
AcDbLine
 10
131.2296330569021
 20
344.2127604579871
 30
0.0
 11
131.2296330569021
 21
301.7421824068232
 31
0.0
  0
LINE
  5
44
330
2F
100
AcDbEntity
  8
hid
 62
     9
100
AcDbLine
 10
133.229633056902
 20
301.7421824068232
 30
0.0
 11
133.2296330603296
 21
301.7421824068232
 31
0.0
  0
LINE
  5
45
330
2F
100
AcDbEntity
  8
hid
 62
     9
100
AcDbLine
 10
211.2296330569021
 20
398.212760457987
 30
0.0
 11
211.2296330569021
 21
306.0414016718639
 31
0.0
  0
LINE
  5
46
330
2F
100
AcDbEntity
  8
hid
 62
     9
100
AcDbLine
 10
216.2296330569021
 20
330.7421722226928
 30
0.0
 11
216.2296330569021
 21
403.2127604579869
 31
0.0
  0
LINE
  5
47
330
2F
100
AcDbEntity
  8
hid
 62
     9
100
AcDbLine
 10
218.2296330569026
 20
330.0276815483744
 30
0.0
 11
218.2296330569026
 21
416.212760457987
 31
0.0
  0
LINE
  5
48
330
2F
100
AcDbEntity
  8
hid
 62
     9
100
AcDbLine
 10
257.2296330569023
 20
287.2127604579869
 30
0.0
 11
257.2296330569023
 21
285.2127604579871
 31
0.0
  0
LINE
  5
49
330
2F
100
AcDbEntity
  8
hid
 62
     9
100
AcDbLine
 10
227.2296330569024
 20
285.8242218209042
 30
0.0
 11
227.2296330569024
 21
287.2127604579871
 31
0.0
  0
LWPOLYLINE
  5
4A
330
2F
100
AcDbEntity
  8
hid
 62
     9
100
AcDbPolyline
 90
        5
 70
   128
 43
0.0
 10
213.405670349974
 20
280.7993657648885
 10
212.0469317732221
 20
282.6011736841692
 10
210.9919865103492
 20
284.6745298467213
 10
210.3521569947746
 20
286.8485595762375
 10
210.1248617132804
 20
289.1872593169496
  0
LWPOLYLINE
  5
4B
330
2F
100
AcDbEntity
  8
hid
 62
     9
100
AcDbPolyline
 90
        5
 70
   128
 43
0.0
 10
203.9439187711881
 20
289.1872593169496
 10
204.2389039230301
 20
286.02834868779
 10
205.153248496198
 20
282.8694380586301
 10
206.5714367328614
 20
280.0501857662204
 10
208.5156281539602
 20
277.444208344064
  0
LINE
  5
4C
330
2F
100
AcDbEntity
  8
hid
 62
     9
100
AcDbLine
 10
186.8570267714532
 20
302.6604250698048
 30
0.0
 11
186.8570267714532
 21
261.7421824068232
 31
0.0
  0
LINE
  5
4D
330
2F
100
AcDbEntity
  8
hid
 62
     9
100
AcDbLine
 10
193.265595415551
 20
261.7421824068232
 30
0.0
 11
193.265595415551
 21
304.283485172886
 31
0.0
  0
LINE
  5
4E
330
2F
100
AcDbEntity
  8
hid
 62
     9
100
AcDbLine
 10
225.9134318071041
 20
283.5896044666307
 30
0.0
 11
254.4427108904646
 21
241.2911301289057
 31
0.0
  0
LWPOLYLINE
  5
4F
330
2F
100
AcDbEntity
  8
hid
 62
     9
100
AcDbPolyline
 90
       22
 70
   128
 43
0.0
 10
254.4427108877684
 20
241.2911301329027
 10
254.4425255024347
 20
241.2913366450462
 10
254.3309534608123
 20
241.4014403867632
 10
254.0112201851087
 20
241.7135099121868
 10
253.4803394233635
 20
242.2275452213169
 10
252.7957547928771
 20
242.8849737317435
 10
251.9049756916537
 20
243.7300187082055
 10
250.8009036546572
 20
244.7626801507031
 10
248.9449118810916
 20
246.4702152435043
 10
246.6388886844837
 20
248.5523846327121
 10
244.0663632287555
 20
250.8405639096061
 10
241.1884623829582
 20
253.3817006144611
 10
238.9819734295023
 20
255.3259520235283
 10
236.734820938549
 20
257.3115044387876
 10
234.4589698185867
 20
259.3383578602395
 10
232.1655086720019
 20
261.4065122878835
 10
229.8646470621442
 20
263.5159677217203
 10
227.5657186634534
 20
265.666724161749
 10
223.4770368077515
 20
269.6294539828086
 10
219.740098849269
 20
273.4724708570186
 10
216.3798362142815
 20
277.1957747843785
 10
213.405670349974
 20
280.7993657648885
  0
LINE
  5
50
330
2F
100
AcDbEntity
  8
hid
 62
     9
100
AcDbLine
 10
227.5715579117922
 20
284.7058360139629
 30
0.0
 11
256.1007851204748
 21
242.4095172925385
 31
0.0
  0
LWPOLYLINE
  5
51
330
2F
100
AcDbEntity
  8
hid
 62
     9
100
AcDbPolyline
 90
       25
 70
   128
 43
0.0
 10
208.5156281539602
 20
277.444208344064
 10
211.1028298187974
 20
274.4425248363023
 10
213.9736344804477
 20
270.948609702499
 10
216.6915996076621
 20
267.5148458451765
 10
219.9704246378
 20
263.274741208699
 10
222.1845851342599
 20
260.3893411353797
 10
225.1229537813841
 20
256.5936247055226
 10
227.7102661449716
 20
253.3072264843629
 10
230.3418814662054
 20
250.0529868337185
 10
233.119075954576
 20
246.7580892656886
 10
235.6816182788179
 20
243.8754212558213
 10
238.1423061028953
 20
241.2731657317152
 10
240.52211579626
 20
238.9105220422616
 10
242.8091931373846
 20
236.78749018746
 10
245.323427388398
 20
234.630868440107
 10
247.7613997919378
 20
232.7108731974906
 10
250.0838653856143
 20
231.027504459611
 10
252.4553703334258
 20
229.4494523291807
 10
254.5957157416514
 20
228.1398694979691
 10
256.4267843393208
 20
227.0987559659761
 10
257.6038885071424
 20
226.4632100683223
 10
258.4798018019914
 20
226.0072246660859
 10
259.0293724843972
 20
225.730799759267
 10
259.2292103047583
 20
225.6339353478654
 10
259.2296330569023
 20
225.6338092382696
  0
LINE
  5
52
330
2F
100
AcDbEntity
  8
hid
 62
     9
100
AcDbLine
 10
193.265595415551
 20
216.6191863188124
 30
0.0
 11
193.265595415551
 21
261.7421824068232
 31
0.0
  0
LINE
  5
53
330
2F
100
AcDbEntity
  8
hid
 62
     9
100
AcDbLine
 10
186.8570267714532
 20
261.7421824068232
 30
0.0
 11
186.8370625911394
 21
217.1861934471558
 31
0.0
  0
LINE
  5
54
330
2F
100
AcDbEntity
  8
hid
 62
     9
100
AcDbLine
 10
186.8370625911397
 20
217.1861934471556
 30
0.0
 11
193.2456312352345
 21
217.1861934471556
 31
0.0
  0
LWPOLYLINE
  5
55
330
2F
100
AcDbEntity
  8
hid
 62
     9
100
AcDbPolyline
 90
       10
 70
   128
 43
0.0
 10
188.1199474650165
 20
204.8529676865158
 10
188.1389288737181
 20
204.8603980092128
 10
188.2656708906269
 20
204.9119427946633
 10
188.5477093551043
 20
205.0428149755585
 10
189.090538549331
 20
205.3797979961733
 10
189.9119316388595
 20
206.1231821711247
 10
191.3346909498117
 20
208.1964882686389
 10
192.1558575864763
 20
210.1122545467922
 10
192.7313992569924
 20
212.163209578941
 10
193.2349143392899
 20
216.6191863188123
  0
LINE
  5
56
330
2F
100
AcDbEntity
  8
hid
 62
     9
100
AcDbLine
 10
182.5134129892964
 20
212.3565012440581
 30
0.0
 11
183.0332819808844
 21
212.068204358317
 31
0.0
  0
LWPOLYLINE
  5
57
330
2F
100
AcDbEntity
  8
hid
 62
     9
100
AcDbPolyline
 90
        7
 70
   128
 43
0.0
 10
183.0332819808844
 20
212.068204358317
 10
184.6332020178932
 20
211.0487929684187
 10
186.1233579475005
 20
209.8081645261228
 10
187.3747120774868
 20
208.2329760207638
 10
187.8801906150019
 20
207.1258282536801
 10
188.1493831013207
 20
205.3807286134741
 10
188.1199474650033
 20
204.8529676865158
  0
LINE
  5
58
330
2F
100
AcDbEntity
  8
hid
 62
     9
100
AcDbLine
 10
213.405670349974
 20
280.7993657648885
 30
0.0
 11
227.7940694685768
 21
280.7993657648885
 31
0.0
  0
LWPOLYLINE
  5
59
330
2F
100
AcDbEntity
  8
hid
 62
     9
100
AcDbPolyline
 90
        5
 70
   128
 43
0.0
 10
213.405670349974
 20
280.7993657648885
 10
212.430216810137
 20
280.2352265913103
 10
211.2222687253978
 20
279.4424591016114
 10
209.8807760531216
 20
278.486003428814
 10
208.5156281539602
 20
277.444208344064
  0
ARC
  5
5A
330
2F
100
AcDbEntity
  8
hid
 62
     9
100
AcDbCircle
 10
229.2296330569024
 20
285.8242218209042
 30
0.0
 40
2.000000000000099
100
AcDbArc
 50
180.0
 51
214.0000000000041
  0
ARC
  5
5B
330
2F
100
AcDbEntity
  8
hid
 62
     9
100
AcDbCircle
 10
231.2298089312229
 20
225.6338326916004
 30
0.0
 40
29.99981769652079
100
AcDbArc
 50
0.0
 51
33.99999865984721
  0
ARC
  5
5C
330
2F
100
AcDbEntity
  8
hid
 62
     9
100
AcDbCircle
 10
231.2298383193687
 20
225.6338526885244
 30
0.0
 40
27.99978307018289
100
AcDbArc
 50
0.0
 51
33.99999523589766
  0
LINE
  5
5D
330
2F
100
AcDbEntity
  8
hid
 62
     9
100
AcDbLine
 10
257.2296330569023
 20
285.2127604579871
 30
0.0
 11
261.2296330569021
 21
285.2127604579871
 31
0.0
  0
LINE
  5
5E
330
2F
100
AcDbEntity
  8
hid
 62
     9
100
AcDbLine
 10
261.2296330569021
 20
289.2127604579871
 30
0.0
 11
225.2296330569024
 21
289.2127604579871
 31
0.0
  0
LINE
  5
5F
330
2F
100
AcDbEntity
  8
hid
 62
     9
100
AcDbLine
 10
257.2296330569023
 20
287.2127604579871
 30
0.0
 11
227.2296330569024
 21
287.2127604579871
 31
0.0
  0
LWPOLYLINE
  5
60
330
2F
100
AcDbEntity
  8
hid
 62
     9
100
AcDbPolyline
 90
        8
 70
   128
 43
0.0
 10
216.2244430646418
 20
329.9822585261438
 10
216.1852347039093
 20
324.241407895345
 10
216.0559212197276
 20
318.0054743933042
 10
215.9151239591464
 20
313.7630225567675
 10
215.7397867572535
 20
309.7821484113122
 10
215.5281638609466
 20
305.9853690970401
 10
215.2917578241339
 20
302.5251535063019
 10
215.0358453175321
 20
299.4040861306064
  0
LWPOLYLINE
  5
61
330
2F
100
AcDbEntity
  8
hid
 62
     9
100
AcDbPolyline
 90
        9
 70
   128
 43
0.0
 10
216.3723568412405
 20
297.362258574239
 10
216.6484262695629
 20
299.4614243562832
 10
216.9166077310264
 20
301.7880071615687
 10
217.2399627827784
 20
305.0939825827772
 10
217.529682307268
 20
308.7259567461777
 10
217.7838117578803
 20
312.7787404532698
 10
217.9864364848576
 20
317.1218933991911
 10
218.1660919160903
 20
323.3371887585211
 10
218.2296330569023
 20
330.0276815483744
  0
LWPOLYLINE
  5
62
330
2F
100
AcDbEntity
  8
hid
 62
     9
100
AcDbPolyline
 90
        6
 70
   128
 43
0.0
 10
203.9439187711881
 20
309.3137808810682
 10
201.5396441995243
 20
308.396622019709
 10
199.2093768784788
 20
307.3794993971039
 10
196.9379606889941
 20
306.2763844746289
 10
194.7458266693401
 20
305.1160350593266
 10
193.265595415551
 20
304.283485172886
  0
LWPOLYLINE
  5
63
330
2F
100
AcDbEntity
  8
hid
 62
     9
100
AcDbPolyline
 90
        5
 70
   128
 43
0.0
 10
193.265595415551
 20
304.283485172886
 10
191.9276051704022
 20
303.6302924196427
 10
190.4129905570124
 20
303.1241937387772
 10
188.8756715915364
 20
302.8132282522513
 10
187.2296330569023
 20
302.6754192050498
  0
ARC
  5
64
330
2F
100
AcDbEntity
  8
hid
 62
     9
100
AcDbCircle
 10
186.8540033247305
 20
316.7355432658482
 30
0.0
 40
14.07511852077344
100
AcDbArc
 50
270.0123075864945
 51
271.5292627087223
  0
LINE
  5
65
330
2F
100
AcDbEntity
  8
hid
 62
     9
100
AcDbLine
 10
187.2296330569023
 20
302.6754192050498
 30
0.0
 11
187.2296330569023
 21
302.6654379471901
 31
0.0
  0
LWPOLYLINE
  5
66
330
2F
100
AcDbEntity
  8
hid
 62
     9
100
AcDbPolyline
 90
        6
 70
   128
 43
0.0
 10
210.1248617132804
 20
307.3534177219328
 10
208.5975752952139
 20
308.7098143087869
 10
207.2155953657947
 20
309.3663510021224
 10
205.893020812075
 20
309.6057608555745
 10
204.5398374230425
 20
309.4856700706364
 10
203.9439187711881
 20
309.3137808810682
  0
LINE
  5
67
330
2F
100
AcDbEntity
  8
hid
 62
     9
100
AcDbLine
 10
203.9439187711881
 20
309.3137808810681
 30
0.0
 11
203.9439187711881
 21
289.1872593169496
 31
0.0
  0
LWPOLYLINE
  5
68
330
2F
100
AcDbEntity
  8
hid
 62
     9
100
AcDbPolyline
 90
        6
 70
   128
 43
0.0
 10
225.2296330569024
 20
289.2127604579871
 10
224.7990586876452
 20
289.6133391335447
 10
223.4879473578961
 20
290.8306314875169
 10
221.3673532253387
 20
292.7911026552422
 10
218.4756378967612
 20
295.446076181624
 10
216.3723568412405
 20
297.362258574239
  0
LINE
  5
69
330
2F
100
AcDbEntity
  8
hid
 62
     9
100
AcDbLine
 10
225.2296330569024
 20
289.1872593169496
 30
0.0
 11
210.1248617132804
 21
289.1872593169496
 31
0.0
  0
LINE
  5
6A
330
2F
100
AcDbEntity
  8
hid
 62
     9
100
AcDbLine
 10
211.2296330569021
 20
306.0414016718639
 30
0.0
 11
210.1248617132804
 21
307.3534177219328
 31
0.0
  0
LWPOLYLINE
  5
6B
330
2F
100
AcDbEntity
  8
hid
 62
     9
100
AcDbPolyline
 90
        5
 70
   128
 43
0.0
 10
215.0358453175321
 20
299.4040861306062
 10
215.3343992075501
 20
298.7520220410638
 10
215.6837082040228
 20
298.1699964604989
 10
216.0163992432493
 20
297.732163542865
 10
216.3723568412405
 20
297.362258574239
  0
LINE
  5
6C
330
2F
100
AcDbEntity
  8
hid
 62
     9
100
AcDbLine
 10
210.1248617132804
 20
289.1872593169496
 30
0.0
 11
203.9439187711881
 21
289.1872593169496
 31
0.0
  0
LWPOLYLINE
  5
6D
330
2F
100
AcDbEntity
  8
hid
 62
     9
100
AcDbPolyline
 90
        5
 70
   128
 43
0.0
 10
211.2296330569023
 20
306.0414016718639
 10
212.3261741152254
 20
304.5853033620094
 10
213.3190113058998
 20
302.9875370426089
 10
214.2281271853548
 20
301.2544650113917
 10
215.0358453175321
 20
299.4040861306062
  0
LINE
  5
6E
330
2F
100
AcDbEntity
  8
hid
 62
     9
100
AcDbLine
 10
210.1248617132804
 20
289.1872593169496
 30
0.0
 11
210.1248617132804
 21
307.3534177219328
 31
0.0
  0
LINE
  5
6F
330
2F
100
AcDbEntity
  8
hid
 62
     9
100
AcDbLine
 10
225.2296330569024
 20
289.1872593169496
 30
0.0
 11
225.2296330569024
 21
289.2127604579871
 31
0.0
  0
LINE
  5
70
330
2F
100
AcDbEntity
  8
hid
 62
     9
100
AcDbLine
 10
216.2296330569021
 20
330.7421722226928
 30
0.0
 11
216.2244430646418
 21
329.9822585261438
 31
0.0
  0
LINE
  5
71
330
2F
100
AcDbEntity
  8
hid
 62
     9
100
AcDbLine
 10
218.2296330569026
 20
416.212760457987
 30
0.0
 11
261.2296330569021
 21
416.212760457987
 31
0.0
  0
LINE
  5
72
330
2F
100
AcDbEntity
  8
hid
 62
     9
100
AcDbLine
 10
218.2296330569026
 20
418.212760457987
 30
0.0
 11
257.2296330569023
 21
418.212760457987
 31
0.0
  0
LINE
  5
73
330
2F
100
AcDbEntity
  8
hid
 62
     9
100
AcDbLine
 10
216.2296330569021
 20
414.2127604579871
 30
0.0
 11
216.2296330569021
 21
403.2127604579869
 31
0.0
  0
LINE
  5
74
330
2F
100
AcDbEntity
  8
hid
 62
     9
100
AcDbLine
 10
214.2296330569024
 20
414.2127604579871
 30
0.0
 11
214.2296330569024
 21
403.2127604579869
 31
0.0
  0
LINE
  5
75
330
2F
100
AcDbEntity
  8
hid
 62
     9
100
AcDbLine
 10
187.2296330569023
 20
400.2127604579869
 30
0.0
 11
211.2296330569021
 21
400.2127604579869
 31
0.0
  0
LINE
  5
76
330
2F
100
AcDbEntity
  8
hid
 62
     9
100
AcDbLine
 10
187.2296330569023
 20
398.212760457987
 30
0.0
 11
211.2296330569021
 21
398.212760457987
 31
0.0
  0
ARC
  5
77
330
2F
100
AcDbEntity
  8
hid
 62
     9
100
AcDbCircle
 10
211.2296330569021
 20
403.2127604579869
 30
0.0
 40
2.999999999999971
100
AcDbArc
 50
270.0
 51
0.0
  0
ARC
  5
78
330
2F
100
AcDbEntity
  8
hid
 62
     9
100
AcDbCircle
 10
211.2296330569021
 20
403.2127604579869
 30
0.0
 40
5.0
100
AcDbArc
 50
270.0
 51
0.0
  0
ARC
  5
79
330
2F
100
AcDbEntity
  8
hid
 62
     9
100
AcDbCircle
 10
218.2296330569026
 20
414.2127604579871
 30
0.0
 40
2.000000000000028
100
AcDbArc
 50
90.0
 51
180.0
  0
ARC
  5
7A
330
2F
100
AcDbEntity
  8
hid
 62
     9
100
AcDbCircle
 10
218.2296330569026
 20
414.2127604579871
 30
0.0
 40
4.000000000000056
100
AcDbArc
 50
90.0
 51
180.0
  0
LINE
  5
7B
330
2F
100
AcDbEntity
  8
hid
 62
     9
100
AcDbLine
 10
261.2296330569021
 20
420.2127604579871
 30
0.0
 11
257.2296330569023
 21
420.2127604579871
 31
0.0
  0
LINE
  5
7C
330
2F
100
AcDbEntity
  8
hid
 62
     9
100
AcDbLine
 10
257.2296330569023
 20
420.2127604579871
 30
0.0
 11
257.2296330569023
 21
418.212760457987
 31
0.0
  0
LINE
  5
7D
330
2F
100
AcDbEntity
  8
hid
 62
     9
100
AcDbLine
 10
261.2296330569021
 20
420.2127604579871
 30
0.0
 11
261.2296330569021
 21
416.212760457987
 31
0.0
  0
LINE
  5
7E
330
2F
100
AcDbEntity
  8
hid
 62
     9
100
AcDbLine
 10
261.2296330569021
 20
416.212760457987
 30
0.0
 11
261.2296330569021
 21
404.7832245398392
 31
0.0
  0
LINE
  5
7F
330
2F
100
AcDbEntity
  8
hid
 62
     9
100
AcDbLine
 10
261.2296330569021
 20
289.2127604579871
 30
0.0
 11
261.2296330569021
 21
285.2127604579871
 31
0.0
  0
LINE
  5
80
330
2F
100
AcDbEntity
  8
hid
 62
     9
100
AcDbLine
 10
225.2296330569024
 20
289.1872593169496
 30
0.0
 11
225.2296330569024
 21
285.8263005279756
 31
0.0
  0
ARC
  5
81
330
2F
100
AcDbEntity
  8
hid
 62
     9
100
AcDbCircle
 10
229.2296330569024
 20
285.8263005279756
 30
0.0
 40
4.0
100
AcDbArc
 50
180.0
 51
213.9986946284326
  0
LINE
  5
82
330
2F
100
AcDbEntity
  8
hid
 62
     9
100
AcDbLine
 10
171.2296330569023
 20
202.4600962763937
 30
0.0
 11
171.2296330569021
 21
117.9448112655559
 31
0.0
  0
ARC
  5
83
330
2F
100
AcDbEntity
  8
hid
 62
     9
100
AcDbCircle
 10
151.2296330569024
 20
202.4600962763937
 30
0.0
 40
20.0
100
AcDbArc
 50
0.0
 51
37.28570792783314
  0
LINE
  5
84
330
2F
100
AcDbEntity
  8
hid
 62
     9
100
AcDbLine
 10
135.3171407348258
 20
256.3737841736479
 30
0.0
 11
167.1421253789793
 21
214.5758953874655
 31
0.0
  0
ARC
  5
85
330
2F
100
AcDbEntity
  8
hid
 62
     9
100
AcDbCircle
 10
151.2296330569026
 20
268.4895832847196
 30
0.0
 40
20.0
100
AcDbArc
 50
180.0
 51
217.2857079278331
  0
ARC
  5
86
330
2F
100
AcDbEntity
  8
hid
 62
     9
100
AcDbCircle
 10
182.6168240621388
 20
216.6140858311214
 30
0.0
 40
4.258840260679665
100
AcDbArc
 50
268.6086352048363
 51
7.720117827304947
  0
ARC
  5
87
330
2F
100
AcDbEntity
  8
hid
 62
     9
100
AcDbCircle
 10
151.2296330569024
 20
202.4600962763937
 30
0.0
 40
22.0
100
AcDbArc
 50
0.0
 51
37.28570792783314
  0
LINE
  5
88
330
2F
100
AcDbEntity
  8
hid
 62
     9
100
AcDbLine
 10
136.9083899670335
 20
257.585364084755
 30
0.0
 11
168.733374611187
 21
215.7874752985726
 31
0.0
  0
ARC
  5
89
330
2F
100
AcDbEntity
  8
hid
 62
     9
100
AcDbCircle
 10
151.2296330569026
 20
268.4895832847196
 30
0.0
 40
18.0
100
AcDbArc
 50
180.0
 51
217.2857079278331
  0
ARC
  5
8A
330
2F
100
AcDbEntity
  8
hid
 62
     9
100
AcDbCircle
 10
195.6608374036585
 20
291.0052067180067
 30
0.0
 40
79.72429160906486
100
AcDbArc
 50
250.5471220913953
 51
260.5832693730423
  0
LINE
  5
8B
330
2F
100
AcDbEntity
  8
hid
 62
     9
100
AcDbLine
 10
241.2296330569021
 20
282.7127604579871
 30
0.0
 11
261.2750758676088
 21
283.168338703685
 31
0.0
  0
LINE
  5
8C
330
2F
100
AcDbEntity
  8
hid
 62
     9
100
AcDbLine
 10
261.2750758676088
 20
422.2571822122892
 30
0.0
 11
241.2296330569021
 21
422.7127604579871
 31
0.0
  0
LINE
  5
8D
330
2F
100
AcDbEntity
  8
hid
 62
     9
100
AcDbLine
 10
241.2296330569021
 20
287.2127604579871
 30
0.0
 11
241.2296330569021
 21
282.7127604579871
 31
0.0
  0
LINE
  5
8E
330
2F
100
AcDbEntity
  8
hid
 62
     9
100
AcDbLine
 10
241.2296330569021
 20
422.7127604579871
 30
0.0
 11
241.2296330569021
 21
418.2127604579869
 31
0.0
  0
LINE
  5
8F
330
2F
100
AcDbEntity
  8
hid
 62
     9
100
AcDbLine
 10
263.2296330569022
 20
411.2127604579871
 30
0.0
 11
263.2296330569022
 21
404.8402038542406
 31
0.0
  0
LINE
  5
90
330
2F
100
AcDbEntity
  8
hid
 62
     9
100
AcDbLine
 10
263.2296330569022
 20
285.1678223747748
 30
0.0
 11
263.2296330569022
 21
294.2127604579872
 31
0.0
  0
LINE
  5
91
330
2F
100
AcDbEntity
  8
hid
 62
     9
100
AcDbLine
 10
261.2296330569021
 20
293.2127604579871
 30
0.0
 11
261.2296330569021
 21
285.1678223747748
 31
0.0
  0
LINE
  5
92
330
2F
100
AcDbEntity
  8
hid
 62
     9
100
AcDbLine
 10
261.2296330569021
 20
285.1678223747748
 30
0.0
 11
256.2523544622556
 21
285.0547024067147
 31
0.0
  0
LINE
  5
93
330
2F
100
AcDbEntity
  8
hid
 62
     9
100
AcDbLine
 10
243.229633056902
 20
285.7817169695325
 30
0.0
 11
243.229633056902
 21
287.2127604579871
 31
0.0
  0
LINE
  5
94
330
2F
100
AcDbEntity
  8
hid
 62
     9
100
AcDbLine
 10
255.2296330569022
 20
286.0544442422599
 30
0.0
 11
255.2296330569022
 21
287.2127604579871
 31
0.0
  0
LINE
  5
95
330
2F
100
AcDbEntity
  8
hid
 62
     9
100
AcDbLine
 10
253.2296330569022
 20
287.2127604579871
 30
0.0
 11
253.2296330569022
 21
285.9635351513507
 31
0.0
  0
LINE
  5
96
330
2F
100
AcDbEntity
  8
hid
 62
     9
100
AcDbLine
 10
251.2296330569021
 20
285.9635351513508
 30
0.0
 11
251.2296330569021
 21
287.2127604579869
 31
0.0
  0
LINE
  5
97
330
2F
100
AcDbEntity
  8
hid
 62
     9
100
AcDbLine
 10
249.2296330569022
 20
287.2127604579871
 30
0.0
 11
249.2296330569021
 21
285.8726260604417
 31
0.0
  0
LINE
  5
98
330
2F
100
AcDbEntity
  8
hid
 62
     9
100
AcDbLine
 10
247.2296330569022
 20
285.8726260604417
 30
0.0
 11
247.2296330569022
 21
287.2127604579871
 31
0.0
  0
LINE
  5
99
330
2F
100
AcDbEntity
  8
hid
 62
     9
100
AcDbLine
 10
245.2296330569021
 20
287.2127604579869
 30
0.0
 11
245.2296330569022
 21
285.7817169695325
 31
0.0
  0
LINE
  5
9A
330
2F
100
AcDbEntity
  8
hid
 62
     9
100
AcDbLine
 10
256.7805864458621
 20
300.6278381430539
 30
0.0
 11
261.2296330569021
 21
293.2127604579871
 31
0.0
  0
LINE
  5
9B
330
2F
100
AcDbEntity
  8
hid
 62
     9
100
AcDbLine
 10
261.229633056902
 20
298.7127604579871
 30
0.0
 11
260.4317548448401
 21
300.5079864351267
 31
0.0
  0
LINE
  5
9C
330
2F
100
AcDbEntity
  8
hid
 62
     9
100
AcDbLine
 10
261.2296330569021
 20
420.2576985411995
 30
0.0
 11
261.2296330569021
 21
412.2127604579871
 31
0.0
  0
LINE
  5
9D
330
2F
100
AcDbEntity
  8
hid
 62
     9
100
AcDbLine
 10
263.2296330569022
 20
411.2127604579871
 30
0.0
 11
263.2296330569022
 21
420.2576985411993
 31
0.0
  0
LINE
  5
9E
330
2F
100
AcDbEntity
  8
hid
 62
     9
100
AcDbLine
 10
261.2296330569021
 20
412.2127604579871
 30
0.0
 11
256.6943869417282
 21
404.6540169326973
 31
0.0
  0
LINE
  5
9F
330
2F
100
AcDbEntity
  8
hid
 62
     9
100
AcDbLine
 10
260.3610636512264
 20
404.7584792952165
 30
0.0
 11
261.2296330569021
 21
406.712760457987
 31
0.0
  0
LINE
  5
A0
330
2F
100
AcDbEntity
  8
hid
 62
     9
100
AcDbLine
 10
256.2523544622556
 20
420.3708185092595
 30
0.0
 11
261.2296330569021
 21
420.2576985411995
 31
0.0
  0
LINE
  5
A1
330
2F
100
AcDbEntity
  8
hid
 62
     9
100
AcDbLine
 10
243.229633056902
 20
418.212760457987
 30
0.0
 11
243.229633056902
 21
419.6438039464418
 31
0.0
  0
LINE
  5
A2
330
2F
100
AcDbEntity
  8
hid
 62
     9
100
AcDbLine
 10
245.2296330569022
 20
419.6438039464418
 30
0.0
 11
245.2296330569021
 21
418.2127604579869
 31
0.0
  0
LINE
  5
A3
330
2F
100
AcDbEntity
  8
hid
 62
     9
100
AcDbLine
 10
247.2296330569022
 20
418.1830863784082
 30
0.0
 11
247.2296330569022
 21
419.5528948555326
 31
0.0
  0
LINE
  5
A4
330
2F
100
AcDbEntity
  8
hid
 62
     9
100
AcDbLine
 10
249.2296330569021
 20
419.5528948555326
 30
0.0
 11
249.2296330569021
 21
418.2127604579869
 31
0.0
  0
LINE
  5
A5
330
2F
100
AcDbEntity
  8
hid
 62
     9
100
AcDbLine
 10
251.2296330569022
 20
418.212760457987
 30
0.0
 11
251.2296330569021
 21
419.4619857646235
 31
0.0
  0
LINE
  5
A6
330
2F
100
AcDbEntity
  8
hid
 62
     9
100
AcDbLine
 10
253.2296330569022
 20
419.4619857646235
 30
0.0
 11
253.2296330569022
 21
418.212760457987
 31
0.0
  0
LINE
  5
A7
330
2F
100
AcDbEntity
  8
hid
 62
     9
100
AcDbLine
 10
255.2296330569022
 20
418.212760457987
 30
0.0
 11
255.2296330569022
 21
419.3710766737144
 31
0.0
  0
ARC
  5
A8
330
2F
100
AcDbEntity
  8
hid
 62
     9
100
AcDbCircle
 10
244.2296330569022
 20
285.7817169695325
 30
0.0
 40
1.000000000000182
100
AcDbArc
 50
180.0
 51
0.0
  0
ARC
  5
A9
330
2F
100
AcDbEntity
  8
hid
 62
     9
100
AcDbCircle
 10
248.2296330569024
 20
285.8726260604417
 30
0.0
 40
1.000000000000182
100
AcDbArc
 50
180.0
 51
0.0
  0
ARC
  5
AA
330
2F
100
AcDbEntity
  8
hid
 62
     9
100
AcDbCircle
 10
252.2296330569023
 20
285.9635351513508
 30
0.0
 40
1.000000000000182
100
AcDbArc
 50
180.0
 51
0.0
  0
ARC
  5
AB
330
2F
100
AcDbEntity
  8
hid
 62
     9
100
AcDbCircle
 10
256.2296330569024
 20
286.0544442422599
 30
0.0
 40
1.000000000000182
100
AcDbArc
 50
180.0
 51
271.3019526725765
  0
ARC
  5
AC
330
2F
100
AcDbEntity
  8
hid
 62
     9
100
AcDbCircle
 10
252.2296330569023
 20
419.4619857646235
 30
0.0
 40
1.000000000000182
100
AcDbArc
 50
0.0
 51
180.0
  0
ARC
  5
AD
330
2F
100
AcDbEntity
  8
hid
 62
     9
100
AcDbCircle
 10
244.2296330569022
 20
419.6438039464418
 30
0.0
 40
1.000000000000182
100
AcDbArc
 50
0.0
 51
180.0
  0
ARC
  5
AE
330
2F
100
AcDbEntity
  8
hid
 62
     9
100
AcDbCircle
 10
248.2296330569024
 20
419.5528948555326
 30
0.0
 40
1.000000000000182
100
AcDbArc
 50
0.0
 51
180.0
  0
ARC
  5
AF
330
2F
100
AcDbEntity
  8
hid
 62
     9
100
AcDbCircle
 10
256.2296330569024
 20
419.3710766737144
 30
0.0
 40
1.000000000000182
100
AcDbArc
 50
88.69804732742354
 51
180.0
  0
ARC
  5
B0
330
2F
100
AcDbEntity
  8
hid
 62
     9
100
AcDbCircle
 10
261.2296330569022
 20
420.2576985411993
 30
0.0
 40
2.0
100
AcDbArc
 50
0.0
 51
88.69804732742029
  0
ARC
  5
B1
330
2F
100
AcDbEntity
  8
hid
 62
     9
100
AcDbCircle
 10
261.2296330569022
 20
285.1678223747748
 30
0.0
 40
2.0
100
AcDbArc
 50
271.3019526725797
 51
0.0
  0
LINE
  5
B2
330
2F
100
AcDbEntity
  8
cen
100
AcDbLine
 10
208.9091963410367
 20
352.7127604579872
 30
0.0
 11
272.1327709803954
 21
352.7127604579872
 31
0.0
  0
LINE
  5
B3
330
2F
100
AcDbEntity
  8
hid
 62
     9
100
AcDbLine
 10
263.2296330569022
 20
300.4161444695844
 30
0.0
 11
263.2296330569022
 21
294.2127604579872
 31
0.0
  0
LINE
  5
B4
330
2F
100
AcDbEntity
  8
hid
 62
     9
100
AcDbLine
 10
261.2296330569021
 20
300.4817956227664
 30
0.0
 11
261.2296330569021
 21
289.2127604579871
 31
0.0
  0
LINE
  5
B5
330
2F
100
AcDbEntity
  8
hid
 62
     9
100
AcDbLine
 10
256.6943869417282
 20
404.6540169326973
 30
0.0
 11
263.2296330569022
 21
404.8402038542406
 31
0.0
  0
LINE
  5
B6
330
2F
100
AcDbEntity
  8
hid
 62
     9
100
AcDbLine
 10
256.7805864458621
 20
300.6278381430539
 30
0.0
 11
263.2296330569022
 21
300.4161444695844
 31
0.0
  0
LINE
  5
B7
330
2F
100
AcDbEntity
  8
hid
 62
     9
100
AcDbLine
 10
263.2296330569022
 20
404.8402038542406
 30
0.0
 11
263.2296330569022
 21
300.4161444695844
 31
0.0
  0
ENDBLK
  5
B8
330
2F
100
AcDbEntity
  8
0
100
AcDbBlockEnd
  0
BLOCK
  5
689
330
5B5
100
AcDbEntity
  8
0
100
AcDbBlockBegin
  2
b sifões
 70
     0
 10
0.0
 20
0.0
 30
0.0
  3
b sifões
  1

  0
LINE
  5
5B6
330
5B5
100
AcDbEntity
  8
SANINDUSA
  6
Continuous
100
AcDbLine
 10
-0.272276037755546
 20
0.095369895654585
 30
0.0
 11
-0.272276037755546
 21
-0.0046273022317109
 31
0.0
  0
LINE
  5
5B7
330
5B5
100
AcDbEntity
  8
SANINDUSA
  6
HIDDEN
100
AcDbLine
 10
-0.3160306080881128
 20
-0.1048813674701705
 30
0.0
 11
-0.3160306080881128
 21
-0.1931287032887212
 31
0.0
  0
LINE
  5
5B8
330
5B5
100
AcDbEntity
  8
SANINDUSA
  6
HIDDEN
100
AcDbLine
 10
-0.2300306080878727
 20
-0.1931287032887212
 30
0.0
 11
-0.2300306080878727
 21
-0.0817076545074542
 31
0.0
  0
LINE
  5
5B9
330
5B5
100
AcDbEntity
  8
SANINDUSA
  6
HIDDEN
100
AcDbLine
 10
-0.2280306080883747
 20
-0.1893966524810366
 30
0.0
 11
-0.2280306080883747
 21
-0.0817076515572808
 31
0.0
  0
LINE
  5
5BA
330
5B5
100
AcDbEntity
  8
SANINDUSA
  6
HIDDEN
100
AcDbLine
 10
-0.3160306080881128
 20
-0.1931287032887212
 30
0.0
 11
-0.2300306080878727
 21
-0.1931287032887212
 31
0.0
  0
LINE
  5
5BB
330
5B5
100
AcDbEntity
  8
SANINDUSA
  6
HIDDEN
100
AcDbLine
 10
-0.3180306080885202
 20
-0.1893966524810366
 30
0.0
 11
-0.3170306080883165
 21
-0.1931287032887212
 31
0.0
  0
LINE
  5
5BC
330
5B5
100
AcDbEntity
  8
SANINDUSA
  6
HIDDEN
100
AcDbLine
 10
-0.3170306080883165
 20
-0.1931287032887212
 30
0.0
 11
-0.3160306080881128
 21
-0.1931287032887212
 31
0.0
  0
LINE
  5
5BD
330
5B5
100
AcDbEntity
  8
SANINDUSA
  6
HIDDEN
100
AcDbLine
 10
-0.2300306080878727
 20
-0.1931287032887212
 30
0.0
 11
-0.2290306080885784
 21
-0.1931287032887212
 31
0.0
  0
LINE
  5
5BE
330
5B5
100
AcDbEntity
  8
SANINDUSA
  6
HIDDEN
100
AcDbLine
 10
-0.2290306080885784
 20
-0.1931287032887212
 30
0.0
 11
-0.2280306080883747
 21
-0.1893966524810366
 31
0.0
  0
ARC
  5
5BF
330
5B5
100
AcDbEntity
  8
SANINDUSA
  6
HIDDEN
100
AcDbCircle
 10
-0.3020306080879891
 20
0.036871296711297
 30
0.0
 40
0.056
100
AcDbArc
 50
100.2865606110578
 51
180.0
  0
ARC
  5
5C0
330
5B5
100
AcDbEntity
  8
SANINDUSA
  6
HIDDEN
100
AcDbCircle
 10
-0.3020306080879891
 20
0.036871296711297
 30
0.0
 40
0.0539999999999999
100
AcDbArc
 50
90.0
 51
180.0
  0
LINE
  5
5C1
330
5B5
100
AcDbEntity
  8
SANINDUSA
  6
HIDDEN
100
AcDbLine
 10
-0.3560306080880764
 20
-0.0388518804618343
 30
0.0
 11
-0.3560306080880764
 21
-0.0055992813397552
 31
0.0
  0
LINE
  5
5C2
330
5B5
100
AcDbEntity
  8
SANINDUSA
  6
HIDDEN
100
AcDbLine
 10
-0.3580306080884839
 20
-0.0388518804618343
 30
0.0
 11
-0.3580306080884839
 21
-0.0055992813381636
 31
0.0
  0
LINE
  5
5C3
330
5B5
100
AcDbEntity
  8
SANINDUSA
  6
HIDDEN
100
AcDbLine
 10
-0.3560306080880764
 20
0.036871296711297
 30
0.0
 11
-0.3560306080880764
 21
-0.0055992813397552
 31
0.0
  0
LINE
  5
5C4
330
5B5
100
AcDbEntity
  8
SANINDUSA
  6
HIDDEN
100
AcDbLine
 10
-0.3580306080884839
 20
0.036871296711297
 30
0.0
 11
-0.3580306080884839
 21
-0.0055992813397552
 31
0.0
  0
LINE
  5
5C5
330
5B5
100
AcDbEntity
  8
SANINDUSA
  6
HIDDEN
100
AcDbLine
 10
-0.3560306080880764
 20
-0.0055992813397552
 30
0.0
 11
-0.3560306080844384
 21
-0.0055992813397552
 31
0.0
  0
LINE
  5
5C6
330
5B5
100
AcDbEntity
  8
SANINDUSA
  6
HIDDEN
100
AcDbLine
 10
-0.2320306080882801
 20
-0.020128703288492
 30
0.0
 11
-0.2320306080882801
 21
-0.0221287032886721
 31
0.0
  0
LINE
  5
5C7
330
5B5
100
AcDbEntity
  8
SANINDUSA
  6
HIDDEN
100
AcDbLine
 10
-0.2620306080880255
 20
-0.0215172419257215
 30
0.0
 11
-0.2620306080880255
 21
-0.020128703288492
 31
0.0
  0
LINE
  5
5C8
330
5B5
100
AcDbEntity
  8
SANINDUSA
  6
HIDDEN
100
AcDbLine
 10
-0.2633468093381452
 20
-0.0237518592800825
 30
0.0
 11
-0.2348175302549862
 21
-0.0660503336177953
 31
0.0
  0
LINE
  5
5C9
330
5B5
100
AcDbEntity
  8
SANINDUSA
  6
HIDDEN
100
AcDbLine
 10
-0.2616886832329328
 20
-0.0226356277325977
 30
0.0
 11
-0.2331594560246231
 21
-0.0649319464539531
 31
0.0
  0
ARC
  5
5CA
330
5B5
100
AcDbEntity
  8
SANINDUSA
  6
HIDDEN
100
AcDbCircle
 10
-0.2600306080885275
 20
-0.0215172419257215
 30
0.0
 40
0.0020000000000001
100
AcDbArc
 50
180.0
 51
214.0000000001436
  0
ARC
  5
5CB
330
5B5
100
AcDbEntity
  8
SANINDUSA
  6
HIDDEN
100
AcDbCircle
 10
-0.2580304322136726
 20
-0.0817076310549965
 30
0.0
 40
0.0299998176965208
100
AcDbArc
 50
0.0
 51
33.99999865963669
  0
ARC
  5
5CC
330
5B5
100
AcDbEntity
  8
SANINDUSA
  6
HIDDEN
100
AcDbCircle
 10
-0.2580304028260798
 20
-0.0817076110581638
 30
0.0
 40
0.0279997830701829
100
AcDbArc
 50
0.0
 51
33.99999523654892
  0
LINE
  5
5CD
330
5B5
100
AcDbEntity
  8
SANINDUSA
  6
HIDDEN
100
AcDbLine
 10
-0.2320306080882801
 20
-0.0221287032886721
 30
0.0
 11
-0.2280306080883747
 21
-0.0221287032886721
 31
0.0
  0
LINE
  5
5CE
330
5B5
100
AcDbEntity
  8
SANINDUSA
  6
HIDDEN
100
AcDbLine
 10
-0.2280306080883747
 20
-0.0181287032885393
 30
0.0
 11
-0.2640306080884329
 21
-0.0181287032885393
 31
0.0
  0
LINE
  5
5CF
330
5B5
100
AcDbEntity
  8
SANINDUSA
  6
HIDDEN
100
AcDbLine
 10
-0.2320306080882801
 20
-0.020128703288492
 30
0.0
 11
-0.2620306080880255
 21
-0.020128703288492
 31
0.0
  0
LINE
  5
5D0
330
5B5
100
AcDbEntity
  8
SANINDUSA
  6
HIDDEN
100
AcDbLine
 10
-0.2640306080884329
 20
-0.0181542044297203
 30
0.0
 11
-0.2640306080884329
 21
-0.0181287032885393
 31
0.0
  0
LINE
  5
5D1
330
5B5
100
AcDbEntity
  8
SANINDUSA
  6
HIDDEN
100
AcDbLine
 10
-0.27103060808804
 20
0.1088712967114134
 30
0.0
 11
-0.2280306080883747
 21
0.1088712967114134
 31
0.0
  0
LINE
  5
5D2
330
5B5
100
AcDbEntity
  8
SANINDUSA
  6
HIDDEN
100
AcDbLine
 10
-0.27103060808804
 20
0.1108712967113661
 30
0.0
 11
-0.2320306080882801
 21
0.1108712967113661
 31
0.0
  0
LINE
  5
5D3
330
5B5
100
AcDbEntity
  8
SANINDUSA
  6
HIDDEN
100
AcDbLine
 10
-0.2730306080884475
 20
0.1068712967114607
 30
0.0
 11
-0.2730306080884475
 21
0.0958712967114934
 31
0.0
  0
LINE
  5
5D4
330
5B5
100
AcDbEntity
  8
SANINDUSA
  6
HIDDEN
100
AcDbLine
 10
-0.2750306080879454
 20
0.1068712967114607
 30
0.0
 11
-0.2750306080879454
 21
0.0958712967114934
 31
0.0
  0
LINE
  5
5D5
330
5B5
100
AcDbEntity
  8
SANINDUSA
  6
HIDDEN
100
AcDbLine
 10
-0.2970306080878799
 20
0.1098712967113897
 30
0.0
 11
-0.2970306080878799
 21
0.1058712967114843
 31
0.0
  0
LINE
  5
5D6
330
5B5
100
AcDbEntity
  8
SANINDUSA
  6
HIDDEN
100
AcDbLine
 10
-0.3120306080882074
 20
0.1098712967113897
 30
0.0
 11
-0.3120306080882074
 21
0.1058712967114843
 31
0.0
  0
LINE
  5
5D7
330
5B5
100
AcDbEntity
  8
SANINDUSA
  6
HIDDEN
100
AcDbLine
 10
-0.2970306080878799
 20
0.092871296711337
 30
0.0
 11
-0.2780306080885566
 21
0.092871296711337
 31
0.0
  0
LINE
  5
5D8
330
5B5
100
AcDbEntity
  8
SANINDUSA
  6
HIDDEN
100
AcDbLine
 10
-0.3020306080879891
 20
0.0908712967113843
 30
0.0
 11
-0.2780306080885566
 21
0.0908712967113843
 31
0.0
  0
LINE
  5
5D9
330
5B5
100
AcDbEntity
  8
SANINDUSA
  6
HIDDEN
100
AcDbLine
 10
-0.2970306080878799
 20
0.1058712967114843
 30
0.0
 11
-0.3120306080882074
 21
0.1058712967114843
 31
0.0
  0
LINE
  5
5DA
330
5B5
100
AcDbEntity
  8
SANINDUSA
  6
HIDDEN
100
AcDbLine
 10
-0.3120306080882074
 20
0.0978712967114461
 30
0.0
 11
-0.2970306080878799
 21
0.0978712967114461
 31
0.0
  0
LINE
  5
5DB
330
5B5
100
AcDbEntity
  8
SANINDUSA
  6
HIDDEN
100
AcDbLine
 10
-0.2970306080878799
 20
0.0978719059307878
 30
0.0
 11
-0.3120306080882074
 21
0.0978719059307878
 31
0.0
  0
LINE
  5
5DC
330
5B5
100
AcDbEntity
  8
SANINDUSA
  6
HIDDEN
100
AcDbLine
 10
-0.3120306080882074
 20
0.1057606146293892
 30
0.0
 11
-0.3120306080882074
 21
0.0979928728536379
 31
0.0
  0
LINE
  5
5DD
330
5B5
100
AcDbEntity
  8
SANINDUSA
  6
HIDDEN
100
AcDbLine
 10
-0.3120306080882074
 20
0.1058706874921427
 30
0.0
 11
-0.3120306080882074
 21
0.1058712967114843
 31
0.0
  0
LINE
  5
5DE
330
5B5
100
AcDbEntity
  8
SANINDUSA
  6
HIDDEN
100
AcDbLine
 10
-0.3120306080882074
 20
0.1057606146293892
 30
0.0
 11
-0.3120306080882074
 21
0.1058706874921427
 31
0.0
  0
LINE
  5
5DF
330
5B5
100
AcDbEntity
  8
SANINDUSA
  6
HIDDEN
100
AcDbLine
 10
-0.3120306080882074
 20
0.0978712967114461
 30
0.0
 11
-0.3120306080882074
 21
0.0978719059307878
 31
0.0
  0
LINE
  5
5E0
330
5B5
100
AcDbEntity
  8
SANINDUSA
  6
HIDDEN
100
AcDbLine
 10
-0.3120306080882074
 20
0.0978719059307878
 30
0.0
 11
-0.3120306080882074
 21
0.0979928728536379
 31
0.0
  0
LINE
  5
5E1
330
5B5
100
AcDbEntity
  8
SANINDUSA
  6
HIDDEN
100
AcDbLine
 10
-0.3120306080882074
 20
0.0978712967114461
 30
0.0
 11
-0.3120306080882074
 21
0.0919712059671838
 31
0.0
  0
LINE
  5
5E2
330
5B5
100
AcDbEntity
  8
SANINDUSA
  6
HIDDEN
100
AcDbLine
 10
-0.2970306080878799
 20
0.1057606146293892
 30
0.0
 11
-0.2970306080878799
 21
0.0979928728536379
 31
0.0
  0
LINE
  5
5E3
330
5B5
100
AcDbEntity
  8
SANINDUSA
  6
HIDDEN
100
AcDbLine
 10
-0.2970306080878799
 20
0.1058706874921427
 30
0.0
 11
-0.2970306080878799
 21
0.1058712967114843
 31
0.0
  0
LINE
  5
5E4
330
5B5
100
AcDbEntity
  8
SANINDUSA
  6
HIDDEN
100
AcDbLine
 10
-0.2970306080878799
 20
0.1057606146293892
 30
0.0
 11
-0.2970306080878799
 21
0.1058706874921427
 31
0.0
  0
LINE
  5
5E5
330
5B5
100
AcDbEntity
  8
SANINDUSA
  6
HIDDEN
100
AcDbLine
 10
-0.2970306080878799
 20
0.0978712967114461
 30
0.0
 11
-0.2970306080878799
 21
0.0978719059307878
 31
0.0
  0
LINE
  5
5E6
330
5B5
100
AcDbEntity
  8
SANINDUSA
  6
HIDDEN
100
AcDbLine
 10
-0.2970306080878799
 20
0.0978719059307878
 30
0.0
 11
-0.2970306080878799
 21
0.0979928728536379
 31
0.0
  0
LINE
  5
5E7
330
5B5
100
AcDbEntity
  8
SANINDUSA
  6
HIDDEN
100
AcDbLine
 10
-0.2970306080878799
 20
0.0978712967114461
 30
0.0
 11
-0.2970306080878799
 21
0.092871296711337
 31
0.0
  0
ARC
  5
5E8
330
5B5
100
AcDbEntity
  8
SANINDUSA
  6
HIDDEN
100
AcDbCircle
 10
-0.2780306080885566
 20
0.0958712967114934
 30
0.0
 40
0.003
100
AcDbArc
 50
270.0
 51
0.0
  0
ARC
  5
5E9
330
5B5
100
AcDbEntity
  8
SANINDUSA
  6
HIDDEN
100
AcDbCircle
 10
-0.2780306080885566
 20
0.0958712967114934
 30
0.0
 40
0.005
100
AcDbArc
 50
270.0
 51
0.0
  0
LINE
  5
5EA
330
5B5
100
AcDbEntity
  8
SANINDUSA
  6
HIDDEN
100
AcDbLine
 10
-0.3120306080882074
 20
0.1098712967113897
 30
0.0
 11
-0.2970306080878799
 21
0.1098712967113897
 31
0.0
  0
ARC
  5
5EB
330
5B5
100
AcDbEntity
  8
SANINDUSA
  6
HIDDEN
100
AcDbCircle
 10
-0.27103060808804
 20
0.1068712967114607
 30
0.0
 40
0.002
100
AcDbArc
 50
90.0
 51
180.0
  0
ARC
  5
5EC
330
5B5
100
AcDbEntity
  8
SANINDUSA
  6
HIDDEN
100
AcDbCircle
 10
-0.27103060808804
 20
0.1068712967114607
 30
0.0
 40
0.0040000000000001
100
AcDbArc
 50
90.0
 51
180.0
  0
LINE
  5
5ED
330
5B5
100
AcDbEntity
  8
SANINDUSA
  6
HIDDEN
100
AcDbLine
 10
-0.2280306080883747
 20
0.1128712967113188
 30
0.0
 11
-0.2320306080882801
 21
0.1128712967113188
 31
0.0
  0
LINE
  5
5EE
330
5B5
100
AcDbEntity
  8
SANINDUSA
  6
HIDDEN
100
AcDbLine
 10
-0.2320306080882801
 20
0.1128712967113188
 30
0.0
 11
-0.2320306080882801
 21
0.1108712967113661
 31
0.0
  0
LINE
  5
5EF
330
5B5
100
AcDbEntity
  8
SANINDUSA
  6
HIDDEN
100
AcDbLine
 10
-0.2280306080883747
 20
0.1128712967113188
 30
0.0
 11
-0.2280306080883747
 21
0.1088712967114134
 31
0.0
  0
LINE
  5
5F0
330
5B5
100
AcDbEntity
  8
SANINDUSA
  6
HIDDEN
100
AcDbLine
 10
-0.2280306080883747
 20
-0.0181287032885393
 30
0.0
 11
-0.2280306080883747
 21
-0.0221287032886721
 31
0.0
  0
LINE
  5
5F1
330
5B5
100
AcDbEntity
  8
SANINDUSA
  6
HIDDEN
100
AcDbLine
 10
-0.2640306080884329
 20
-0.0181542044297203
 30
0.0
 11
-0.2640306080884329
 21
-0.0215151632185098
 31
0.0
  0
ARC
  5
5F2
330
5B5
100
AcDbEntity
  8
SANINDUSA
  6
HIDDEN
100
AcDbCircle
 10
-0.2600306080885275
 20
-0.0215151632185098
 30
0.0
 40
0.004
100
AcDbArc
 50
180.0
 51
213.9986946280409
  0
LINE
  5
5F3
330
5B5
100
AcDbEntity
  8
SANINDUSA
  6
HIDDEN
100
AcDbLine
 10
-0.3180306080885202
 20
-0.1048813674701705
 30
0.0
 11
-0.3180306080885202
 21
-0.1893966524810366
 31
0.0
  0
ARC
  5
5F4
330
5B5
100
AcDbEntity
  8
SANINDUSA
  6
HIDDEN
100
AcDbCircle
 10
-0.3380306080880473
 20
-0.1048813674701705
 30
0.0
 40
0.02
100
AcDbArc
 50
0.0
 51
37.28570792801806
  0
LINE
  5
5F5
330
5B5
100
AcDbEntity
  8
SANINDUSA
  6
HIDDEN
100
AcDbLine
 10
-0.3539431004101061
 20
-0.0509676795729774
 30
0.0
 11
-0.3221181157659885
 21
-0.0927655683592548
 31
0.0
  0
ARC
  5
5F6
330
5B5
100
AcDbEntity
  8
SANINDUSA
  6
HIDDEN
100
AcDbCircle
 10
-0.3380306080880473
 20
-0.0388518804618343
 30
0.0
 40
0.02
100
AcDbArc
 50
180.0
 51
217.2857079280181
  0
ARC
  5
5F7
330
5B5
100
AcDbEntity
  8
SANINDUSA
  6
HIDDEN
100
AcDbCircle
 10
-0.3380306080880473
 20
-0.1048813674701705
 30
0.0
 40
0.022
100
AcDbArc
 50
0.0
 51
37.28570792801806
  0
LINE
  5
5F8
330
5B5
100
AcDbEntity
  8
SANINDUSA
  6
HIDDEN
100
AcDbLine
 10
-0.352351851178355
 20
-0.0497560996618631
 30
0.0
 11
-0.3205268665342373
 21
-0.0915539884479131
 31
0.0
  0
ARC
  5
5F9
330
5B5
100
AcDbEntity
  8
SANINDUSA
  6
HIDDEN
100
AcDbCircle
 10
-0.3380306080880473
 20
-0.0388518804618343
 30
0.0
 40
0.018
100
AcDbArc
 50
180.0
 51
217.2857079280181
  0
LINE
  5
5FA
330
5B5
100
AcDbEntity
  8
SANINDUSA
100
AcDbLine
 10
-0.2480306080879018
 20
-0.0246287032884993
 30
0.0
 11
-0.2279851652774596
 21
-0.0241731250428075
 31
0.0
  0
LINE
  5
5FB
330
5B5
100
AcDbEntity
  8
SANINDUSA
100
AcDbLine
 10
-0.2279851652774596
 20
0.1149157184656815
 30
0.0
 11
-0.2480306080879018
 21
0.1153712967113734
 31
0.0
  0
LINE
  5
5FC
330
5B5
100
AcDbEntity
  8
SANINDUSA
100
AcDbLine
 10
-0.2480306080879018
 20
-0.020128703288492
 30
0.0
 11
-0.2480306080879018
 21
-0.0246287032884993
 31
0.0
  0
LINE
  5
5FD
330
5B5
100
AcDbEntity
  8
SANINDUSA
100
AcDbLine
 10
-0.2480306080879018
 20
0.1153712967113734
 30
0.0
 11
-0.2480306080879018
 21
0.1108712967113661
 31
0.0
  0
LINE
  5
5FE
330
5B5
100
AcDbEntity
  8
SANINDUSA
100
AcDbLine
 10
-0.2260306080879673
 20
0.1038712967113042
 30
0.0
 11
-0.2260306080879673
 21
0.0971861471693956
 31
0.0
  0
LINE
  5
5FF
330
5B5
100
AcDbEntity
  8
SANINDUSA
100
AcDbLine
 10
-0.2260306080879673
 20
-0.0064435537465215
 30
0.0
 11
-0.2260306080879673
 21
-0.0131287032886576
 31
0.0
  0
LINE
  5
600
330
5B5
100
AcDbEntity
  8
SANINDUSA
100
AcDbLine
 10
-0.2260306080879673
 20
-0.0221736413718645
 30
0.0
 11
-0.2260306080879673
 21
-0.0131287032886576
 31
0.0
  0
LINE
  5
601
330
5B5
100
AcDbEntity
  8
SANINDUSA
100
AcDbLine
 10
-0.2280306080883747
 20
-0.0141287032886339
 30
0.0
 11
-0.2280306080883747
 21
-0.0221736413718645
 31
0.0
  0
LINE
  5
602
330
5B5
100
AcDbEntity
  8
SANINDUSA
100
AcDbLine
 10
-0.2280306080883747
 20
-0.0221736413718645
 30
0.0
 11
-0.2330078866825715
 21
-0.0222867613399558
 31
0.0
  0
LINE
  5
603
330
5B5
100
AcDbEntity
  8
SANINDUSA
100
AcDbLine
 10
-0.2460306080884038
 20
-0.0215597467770294
 30
0.0
 11
-0.2460306080884038
 21
-0.020128703288492
 31
0.0
  0
LINE
  5
604
330
5B5
100
AcDbEntity
  8
SANINDUSA
100
AcDbLine
 10
-0.2340306080877781
 20
-0.0212870195043706
 30
0.0
 11
-0.2340306080877781
 21
-0.020128703288492
 31
0.0
  0
LINE
  5
605
330
5B5
100
AcDbEntity
  8
SANINDUSA
100
AcDbLine
 10
-0.2360306080881855
 20
-0.020128703288492
 30
0.0
 11
-0.2360306080881855
 21
-0.0213779285952569
 31
0.0
  0
LINE
  5
606
330
5B5
100
AcDbEntity
  8
SANINDUSA
100
AcDbLine
 10
-0.238030608088593
 20
-0.0213779285952569
 30
0.0
 11
-0.238030608088593
 21
-0.020128703288492
 31
0.0
  0
LINE
  5
607
330
5B5
100
AcDbEntity
  8
SANINDUSA
100
AcDbLine
 10
-0.240030608088091
 20
-0.020128703288492
 30
0.0
 11
-0.240030608088091
 21
-0.0214688376861432
 31
0.0
  0
LINE
  5
608
330
5B5
100
AcDbEntity
  8
SANINDUSA
100
AcDbLine
 10
-0.2420306080884984
 20
-0.0214688376861432
 30
0.0
 11
-0.2420306080884984
 21
-0.020128703288492
 31
0.0
  0
LINE
  5
609
330
5B5
100
AcDbEntity
  8
SANINDUSA
100
AcDbLine
 10
-0.2440306080879964
 20
-0.020128703288492
 30
0.0
 11
-0.2440306080879964
 21
-0.0215597467770294
 31
0.0
  0
LINE
  5
60A
330
5B5
100
AcDbEntity
  8
SANINDUSA
100
AcDbLine
 10
-0.2327124466928581
 20
-0.0063256389478283
 30
0.0
 11
-0.2280306080883747
 21
-0.0141287032886339
 31
0.0
  0
LINE
  5
60B
330
5B5
100
AcDbEntity
  8
SANINDUSA
100
AcDbLine
 10
-0.2260306080879673
 20
-0.0131287032886576
 30
0.0
 11
-0.2290252732318549
 21
-0.0063907067146829
 31
0.0
  0
LINE
  5
60C
330
5B5
100
AcDbEntity
  8
SANINDUSA
100
AcDbLine
 10
-0.2280306080883747
 20
0.1129162347945112
 30
0.0
 11
-0.2280306080883747
 21
0.104871296711508
 31
0.0
  0
LINE
  5
60D
330
5B5
100
AcDbEntity
  8
SANINDUSA
100
AcDbLine
 10
-0.2260306080879673
 20
0.1038712967113042
 30
0.0
 11
-0.2260306080879673
 21
0.1129162347945112
 31
0.0
  0
LINE
  5
60E
330
5B5
100
AcDbEntity
  8
SANINDUSA
100
AcDbLine
 10
-0.2280306080883747
 20
0.104871296711508
 30
0.0
 11
-0.2327124466928581
 21
0.097068232370475
 31
0.0
  0
LINE
  5
60F
330
5B5
100
AcDbEntity
  8
SANINDUSA
100
AcDbLine
 10
-0.2290252732318549
 20
0.097133300137557
 30
0.0
 11
-0.2260306080879673
 21
0.1038712967113042
 31
0.0
  0
LINE
  5
610
330
5B5
100
AcDbEntity
  8
SANINDUSA
100
AcDbLine
 10
-0.2330078866825715
 20
0.1130293547626024
 30
0.0
 11
-0.2280306080883747
 21
0.1129162347945112
 31
0.0
  0
LINE
  5
611
330
5B5
100
AcDbEntity
  8
SANINDUSA
100
AcDbLine
 10
-0.2460306080884038
 20
0.1108712967113661
 30
0.0
 11
-0.2460306080884038
 21
0.1123023401999035
 31
0.0
  0
LINE
  5
612
330
5B5
100
AcDbEntity
  8
SANINDUSA
100
AcDbLine
 10
-0.2440306080879964
 20
0.1123023401999035
 30
0.0
 11
-0.2440306080879964
 21
0.1108712967113661
 31
0.0
  0
LINE
  5
613
330
5B5
100
AcDbEntity
  8
SANINDUSA
100
AcDbLine
 10
-0.2420306080884984
 20
0.1108712967113661
 30
0.0
 11
-0.2420306080884984
 21
0.1122114311090172
 31
0.0
  0
LINE
  5
614
330
5B5
100
AcDbEntity
  8
SANINDUSA
100
AcDbLine
 10
-0.240030608088091
 20
0.1122114311090172
 30
0.0
 11
-0.240030608088091
 21
0.1108712967113661
 31
0.0
  0
LINE
  5
615
330
5B5
100
AcDbEntity
  8
SANINDUSA
100
AcDbLine
 10
-0.238030608088593
 20
0.1108712967113661
 30
0.0
 11
-0.238030608088593
 21
0.1121205220181309
 31
0.0
  0
LINE
  5
616
330
5B5
100
AcDbEntity
  8
SANINDUSA
100
AcDbLine
 10
-0.2360306080881855
 20
0.1121205220181309
 30
0.0
 11
-0.2360306080881855
 21
0.1108712967113661
 31
0.0
  0
LINE
  5
617
330
5B5
100
AcDbEntity
  8
SANINDUSA
100
AcDbLine
 10
-0.2340306080877781
 20
0.1108712967113661
 30
0.0
 11
-0.2340306080877781
 21
0.1120296129272447
 31
0.0
  0
ARC
  5
618
330
5B5
100
AcDbEntity
  8
SANINDUSA
100
AcDbCircle
 10
-0.2450306080882001
 20
-0.0215597467770294
 30
0.0
 40
0.0010000000000002
100
AcDbArc
 50
180.0
 51
0.0
  0
ARC
  5
619
330
5B5
100
AcDbEntity
  8
SANINDUSA
100
AcDbCircle
 10
-0.2410306080882947
 20
-0.0214688376861432
 30
0.0
 40
0.0010000000000002
100
AcDbArc
 50
180.0
 51
0.0
  0
ARC
  5
61A
330
5B5
100
AcDbEntity
  8
SANINDUSA
100
AcDbCircle
 10
-0.2370306080883893
 20
-0.0213779285952569
 30
0.0
 40
0.0010000000000002
100
AcDbArc
 50
180.0
 51
0.0
  0
ARC
  5
61B
330
5B5
100
AcDbEntity
  8
SANINDUSA
100
AcDbCircle
 10
-0.2330306080884839
 20
-0.0212870195043706
 30
0.0
 40
0.0010000000000002
100
AcDbArc
 50
180.0
 51
271.301952672039
  0
ARC
  5
61C
330
5B5
100
AcDbEntity
  8
SANINDUSA
100
AcDbCircle
 10
-0.2370306080883893
 20
0.1121205220181309
 30
0.0
 40
0.0010000000000002
100
AcDbArc
 50
0.0
 51
180.0
  0
ARC
  5
61D
330
5B5
100
AcDbEntity
  8
SANINDUSA
100
AcDbCircle
 10
-0.2450306080882001
 20
0.1123023401999035
 30
0.0
 40
0.0010000000000002
100
AcDbArc
 50
0.0
 51
180.0
  0
LINE
  5
61E
330
5B5
100
AcDbEntity
  8
SANINDUSA
100
AcDbLine
 10
-0.2460306080884038
 20
0.1123023401999035
 30
0.0
 11
-0.2460306080884038
 21
0.1108712967113661
 31
0.0
  0
ARC
  5
61F
330
5B5
100
AcDbEntity
  8
SANINDUSA
100
AcDbCircle
 10
-0.2410306080882947
 20
0.1122114311090172
 30
0.0
 40
0.0010000000000002
100
AcDbArc
 50
0.0
 51
180.0
  0
LINE
  5
620
330
5B5
100
AcDbEntity
  8
SANINDUSA
100
AcDbLine
 10
-0.2440306080879964
 20
0.1108712967113661
 30
0.0
 11
-0.2440306080879964
 21
0.1123023401999035
 31
0.0
  0
LINE
  5
621
330
5B5
100
AcDbEntity
  8
SANINDUSA
100
AcDbLine
 10
-0.2420306080884984
 20
0.1122114311090172
 30
0.0
 11
-0.2420306080884984
 21
0.1108712967113661
 31
0.0
  0
LINE
  5
622
330
5B5
100
AcDbEntity
  8
SANINDUSA
100
AcDbLine
 10
-0.240030608088091
 20
0.1108712967113661
 30
0.0
 11
-0.240030608088091
 21
0.1122114311090172
 31
0.0
  0
LINE
  5
623
330
5B5
100
AcDbEntity
  8
SANINDUSA
100
AcDbLine
 10
-0.238030608088593
 20
0.1121205220181309
 30
0.0
 11
-0.238030608088593
 21
0.1108712967113661
 31
0.0
  0
ARC
  5
624
330
5B5
100
AcDbEntity
  8
SANINDUSA
100
AcDbCircle
 10
-0.2330306080884839
 20
0.1120296129272447
 30
0.0
 40
0.0010000000000002
100
AcDbArc
 50
88.69804732796104
 51
180.0
  0
LINE
  5
625
330
5B5
100
AcDbEntity
  8
SANINDUSA
100
AcDbLine
 10
-0.2360306080881855
 20
0.1108712967113661
 30
0.0
 11
-0.2360306080881855
 21
0.1121205220181309
 31
0.0
  0
LINE
  5
626
330
5B5
100
AcDbEntity
  8
SANINDUSA
100
AcDbLine
 10
-0.2340306080877781
 20
0.1120296129272447
 30
0.0
 11
-0.2340306080877781
 21
0.1108712967113661
 31
0.0
  0
ARC
  5
627
330
5B5
100
AcDbEntity
  8
SANINDUSA
100
AcDbCircle
 10
-0.2280306080883747
 20
0.1129162347945112
 30
0.0
 40
0.002
100
AcDbArc
 50
0.0
 51
88.69804732796104
  0
ARC
  5
628
330
5B5
100
AcDbEntity
  8
SANINDUSA
100
AcDbCircle
 10
-0.2280306080883747
 20
-0.0221736413718645
 30
0.0
 40
0.002
100
AcDbArc
 50
271.301952672039
 51
0.0
  0
LINE
  5
629
330
5B5
100
AcDbEntity
  8
SANINDUSA
  6
Continuous
100
AcDbLine
 10
0.2571759601205485
 20
0.049998598943148
 30
0.0
 11
0.2571759601205485
 21
-0.049998598943148
 31
0.0
  0
LINE
  5
62A
330
5B5
100
AcDbEntity
  8
SANINDUSA
100
AcDbLine
 10
0.2641999999996187
 20
-0.0699999999999363
 30
0.0
 11
0.2842454428100609
 21
-0.0695444217542445
 31
0.0
  0
LINE
  5
62B
330
5B5
100
AcDbEntity
  8
SANINDUSA
100
AcDbLine
 10
0.2842454428100609
 20
0.0695444217542445
 30
0.0
 11
0.2641999999996187
 21
0.0699999999999363
 31
0.0
  0
LINE
  5
62C
330
5B5
100
AcDbEntity
  8
SANINDUSA
100
AcDbLine
 10
0.2641999999996187
 20
-0.0629638746470391
 30
0.0
 11
0.2641999999996187
 21
-0.0699999999999363
 31
0.0
  0
LINE
  5
62D
330
5B5
100
AcDbEntity
  8
SANINDUSA
100
AcDbLine
 10
0.2641999999996187
 20
0.0699999999999363
 30
0.0
 11
0.2641999999996187
 21
0.0629638746472665
 31
0.0
  0
LINE
  5
62E
330
5B5
100
AcDbEntity
  8
SANINDUSA
100
AcDbLine
 10
0.2861999999995532
 20
0.0584999999998672
 30
0.0
 11
0.2861999999995532
 21
0.0515109435793875
 31
0.0
  0
LINE
  5
62F
330
5B5
100
AcDbEntity
  8
SANINDUSA
100
AcDbLine
 10
0.2861999999995532
 20
-0.0515109435793875
 30
0.0
 11
0.2861999999995532
 21
-0.0585000000000946
 31
0.0
  0
LINE
  5
630
330
5B5
100
AcDbEntity
  8
SANINDUSA
100
AcDbLine
 10
0.2861999999995532
 20
-0.0675449380833015
 30
0.0
 11
0.2861999999995532
 21
-0.0585000000000946
 31
0.0
  0
LINE
  5
631
330
5B5
100
AcDbEntity
  8
SANINDUSA
100
AcDbLine
 10
0.2842000000000553
 20
-0.059500000000071
 30
0.0
 11
0.2842000000000553
 21
-0.0675449380833015
 31
0.0
  0
LINE
  5
632
330
5B5
100
AcDbEntity
  8
SANINDUSA
100
AcDbLine
 10
0.2842000000000553
 20
-0.0675449380833015
 30
0.0
 11
0.279222721404949
 21
-0.0676580580513928
 31
0.0
  0
LINE
  5
633
330
5B5
100
AcDbEntity
  8
SANINDUSA
100
AcDbLine
 10
0.2662000000000262
 20
-0.0669310434884665
 30
0.0
 11
0.2662000000000262
 21
-0.063890836662722
 31
0.0
  0
LINE
  5
634
330
5B5
100
AcDbEntity
  8
SANINDUSA
100
AcDbLine
 10
0.2681999999995241
 20
-0.0648500063841766
 30
0.0
 11
0.2681999999995241
 21
-0.0669310434884665
 31
0.0
  0
LINE
  5
635
330
5B5
100
AcDbEntity
  8
SANINDUSA
100
AcDbLine
 10
0.2793338659039364
 20
-0.0513897765072216
 30
0.0
 11
0.2842000000000553
 21
-0.059500000000071
 31
0.0
  0
LINE
  5
636
330
5B5
100
AcDbEntity
  8
SANINDUSA
100
AcDbLine
 10
0.2861999999995532
 20
-0.0585000000000946
 30
0.0
 11
0.2830691973867942
 21
-0.0514556941216142
 31
0.0
  0
LINE
  5
637
330
5B5
100
AcDbEntity
  8
SANINDUSA
100
AcDbLine
 10
0.2842000000000553
 20
0.0675449380830742
 30
0.0
 11
0.2842000000000553
 21
0.059500000000071
 31
0.0
  0
LINE
  5
638
330
5B5
100
AcDbEntity
  8
SANINDUSA
100
AcDbLine
 10
0.2861999999995532
 20
0.0584999999998672
 30
0.0
 11
0.2861999999995532
 21
0.0675449380830742
 31
0.0
  0
LINE
  5
639
330
5B5
100
AcDbEntity
  8
SANINDUSA
100
AcDbLine
 10
0.2842000000000553
 20
0.059500000000071
 30
0.0
 11
0.2793338659039364
 21
0.0513897765069942
 31
0.0
  0
LINE
  5
63A
330
5B5
100
AcDbEntity
  8
SANINDUSA
100
AcDbLine
 10
0.2830691973867942
 20
0.0514556941213869
 30
0.0
 11
0.2861999999995532
 21
0.0584999999998672
 31
0.0
  0
LINE
  5
63B
330
5B5
100
AcDbEntity
  8
SANINDUSA
100
AcDbLine
 10
0.279222721404949
 20
0.0676580580511654
 30
0.0
 11
0.2842000000000553
 21
0.0675449380830742
 31
0.0
  0
LINE
  5
63C
330
5B5
100
AcDbEntity
  8
SANINDUSA
100
AcDbLine
 10
0.2662000000000262
 20
0.0638908366629494
 30
0.0
 11
0.2662000000000262
 21
0.0669310434884665
 31
0.0
  0
LINE
  5
63D
330
5B5
100
AcDbEntity
  8
SANINDUSA
100
AcDbLine
 10
0.2681999999995241
 20
0.0669310434884665
 30
0.0
 11
0.2681999999995241
 21
0.0648500063839492
 31
0.0
  0
ARC
  5
63E
330
5B5
100
AcDbEntity
  8
SANINDUSA
100
AcDbCircle
 10
0.2671999999993204
 20
-0.0669310434884665
 30
0.0
 40
0.0010000000000002
100
AcDbArc
 50
180.0
 51
0.0
  0
ARC
  5
63F
330
5B5
100
AcDbEntity
  8
SANINDUSA
100
AcDbCircle
 10
0.2711999999992258
 20
-0.0668401343975802
 30
0.0
 40
0.0010000000000002
100
AcDbArc
 50
180.5639344929796
 51
343.1500899781601
  0
ARC
  5
640
330
5B5
100
AcDbEntity
  8
SANINDUSA
100
AcDbCircle
 10
0.2752000000000407
 20
-0.0667492253066939
 30
0.0
 40
0.0010000000000002
100
AcDbArc
 50
202.3816772040944
 51
337.6183227959056
  0
ARC
  5
641
330
5B5
100
AcDbEntity
  8
SANINDUSA
100
AcDbCircle
 10
0.2791999999999462
 20
-0.0666583162158077
 30
0.0
 40
0.0010000000000002
100
AcDbArc
 50
208.1436502311457
 51
271.301952672039
  0
ARC
  5
642
330
5B5
100
AcDbEntity
  8
SANINDUSA
100
AcDbCircle
 10
0.2752000000000407
 20
0.0667492253066939
 30
0.0
 40
0.0010000000000002
100
AcDbArc
 50
22.38167719202895
 51
157.618322807971
  0
ARC
  5
643
330
5B5
100
AcDbEntity
  8
SANINDUSA
100
AcDbCircle
 10
0.2671999999993204
 20
0.0669310434884665
 30
0.0
 40
0.0010000000000002
100
AcDbArc
 50
0.0
 51
180.0
  0
LINE
  5
644
330
5B5
100
AcDbEntity
  8
SANINDUSA
100
AcDbLine
 10
0.2662000000000262
 20
0.0669310434884665
 30
0.0
 11
0.2662000000000262
 21
0.0638908366629494
 31
0.0
  0
ARC
  5
645
330
5B5
100
AcDbEntity
  8
SANINDUSA
100
AcDbCircle
 10
0.2711999999992258
 20
0.0668401343975802
 30
0.0
 40
0.0010000000000002
100
AcDbArc
 50
16.84991000937676
 51
179.4360655200489
  0
LINE
  5
646
330
5B5
100
AcDbEntity
  8
SANINDUSA
100
AcDbLine
 10
0.2681999999995241
 20
0.0648500063839492
 30
0.0
 11
0.2681999999995241
 21
0.0669310434884665
 31
0.0
  0
ARC
  5
647
330
5B5
100
AcDbEntity
  8
SANINDUSA
100
AcDbCircle
 10
0.2791999999999462
 20
0.0666583162158077
 30
0.0
 40
0.0010000000000002
100
AcDbArc
 50
88.69804732796104
 51
151.8563497803362
  0
ARC
  5
648
330
5B5
100
AcDbEntity
  8
SANINDUSA
100
AcDbCircle
 10
0.2842000000000553
 20
0.0675449380830742
 30
0.0
 40
0.002
100
AcDbArc
 50
0.0
 51
88.69804732796104
  0
ARC
  5
649
330
5B5
100
AcDbEntity
  8
SANINDUSA
100
AcDbCircle
 10
0.2842000000000553
 20
-0.0675449380833015
 30
0.0
 40
0.002
100
AcDbArc
 50
271.301952672039
 51
0.0
  0
LINE
  5
64A
330
5B5
100
AcDbEntity
  8
SANINDUSA
100
AcDbLine
 10
0.271900752518377
 20
0.064679999999953
 30
0.0
 11
0.271900752518377
 21
0.0512586039178586
 31
0.0
  0
LINE
  5
64B
330
5B5
100
AcDbEntity
  8
SANINDUSA
100
AcDbLine
 10
0.271900752518377
 20
-0.051258603918086
 30
0.0
 11
0.271900752518377
 21
-0.0646800000001804
 31
0.0
  0
LINE
  5
64C
330
5B5
100
AcDbEntity
  8
SANINDUSA
100
AcDbLine
 10
0.2655799999993178
 20
0.0548799999999119
 30
0.0
 11
0.2655799999993178
 21
0.051147061226402
 31
0.0
  0
LINE
  5
64D
330
5B5
100
AcDbEntity
  8
SANINDUSA
100
AcDbLine
 10
0.2655799999993178
 20
-0.0511470612266294
 30
0.0
 11
0.2655799999993178
 21
-0.0548800000001393
 31
0.0
  0
LINE
  5
64E
330
5B5
100
AcDbEntity
  8
SANINDUSA
100
AcDbLine
 10
0.2616107525182088
 20
0.0543900000000122
 30
0.0
 11
0.2616107525182088
 21
0.0510770156827221
 31
0.0
  0
LINE
  5
64F
330
5B5
100
AcDbEntity
  8
SANINDUSA
100
AcDbLine
 10
0.2616107525182088
 20
-0.0510770156827221
 30
0.0
 11
0.2616107525182088
 21
-0.0543900000000122
 31
0.0
  0
LINE
  5
650
330
5B5
100
AcDbEntity
  8
SANINDUSA
100
AcDbLine
 10
0.0
 20
-0.0480199999999513
 30
0.0
 11
0.0
 21
0.0480199999999513
 31
0.0
  0
LINE
  5
651
330
5B5
100
AcDbEntity
  8
SANINDUSA
100
AcDbLine
 10
0.000489999999445
 20
0.0475300000000516
 30
0.0
 11
0.000489999999445
 21
-0.0475300000000516
 31
0.0
  0
LINE
  5
652
330
5B5
100
AcDbEntity
  8
SANINDUSA
100
AcDbLine
 10
0.2394558456726372
 20
0.0514954290604237
 30
0.0
 11
0.2680610583383896
 21
0.0647534018573879
 31
0.0
  0
LINE
  5
653
330
5B5
100
AcDbEntity
  8
SANINDUSA
100
AcDbLine
 10
0.2546318585818881
 20
0.0478170353544556
 30
0.0
 11
0.2609177878730406
 21
0.0541029646453808
 31
0.0
  0
LINE
  5
654
330
5B5
100
AcDbEntity
  8
SANINDUSA
100
AcDbLine
 10
0.000489999999445
 20
0.0475300000000516
 30
0.0
 11
0.25393889393672
 21
0.0475300000000516
 31
0.0
  0
LINE
  5
655
330
5B5
100
AcDbEntity
  8
SANINDUSA
100
AcDbLine
 10
0.0082044012569895
 20
0.0514499999999316
 30
0.0
 11
0.2392497954851933
 21
0.0514499999999316
 31
0.0
  0
ARC
  5
656
330
5B5
100
AcDbEntity
  8
SANINDUSA
100
AcDbCircle
 10
0.0082044012569895
 20
0.0166170408240305
 30
0.0
 40
0.0348329591759133
100
AcDbArc
 50
90.0
 51
102.981023069007
  0
ARC
  5
657
330
5B5
100
AcDbEntity
  8
SANINDUSA
100
AcDbCircle
 10
0.000489999999445
 20
0.0500823491029223
 30
0.0
 40
0.0004900000000001
100
AcDbArc
 50
102.981023069007
 51
180.0
  0
LINE
  5
658
330
5B5
100
AcDbEntity
  8
SANINDUSA
100
AcDbLine
 10
0.0
 20
0.0480199999999513
 30
0.0
 11
0.0
 21
0.0500823491029223
 31
0.0
  0
ARC
  5
659
330
5B5
100
AcDbEntity
  8
SANINDUSA
100
AcDbCircle
 10
0.000489999999445
 20
0.0480199999999513
 30
0.0
 40
0.00049
100
AcDbArc
 50
180.0
 51
270.0
  0
ARC
  5
65A
330
5B5
100
AcDbEntity
  8
SANINDUSA
100
AcDbCircle
 10
0.25393889393672
 20
0.0485099999998511
 30
0.0
 40
0.00098
100
AcDbArc
 50
270.0
 51
315.0000000000092
  0
ARC
  5
65B
330
5B5
100
AcDbEntity
  8
SANINDUSA
100
AcDbCircle
 10
0.2392497954851933
 20
0.0519400000000587
 30
0.0
 40
0.00049
100
AcDbArc
 50
270.0
 51
294.8668271162652
  0
ARC
  5
65C
330
5B5
100
AcDbEntity
  8
SANINDUSA
100
AcDbCircle
 10
0.2832199999993463
 20
0.0661499999998796
 30
0.0
 40
0.0009800000000001
100
AcDbArc
 50
0.0
 51
90.0
  0
ARC
  5
65D
330
5B5
100
AcDbEntity
  8
SANINDUSA
100
AcDbCircle
 10
0.2708859292906709
 20
0.0661499999998796
 30
0.0
 40
0.0009799999999999
100
AcDbArc
 50
90.0
 51
135.0000000000092
  0
LINE
  5
65E
330
5B5
100
AcDbEntity
  8
SANINDUSA
100
AcDbLine
 10
0.271900752518377
 20
0.064679999999953
 30
0.0
 11
0.2832199999993463
 21
0.064679999999953
 31
0.0
  0
LINE
  5
65F
330
5B5
100
AcDbEntity
  8
SANINDUSA
100
AcDbLine
 10
0.2708859292906709
 20
0.0671299999999064
 30
0.0
 11
0.2832199999993463
 21
0.0671299999999064
 31
0.0
  0
ARC
  5
660
330
5B5
100
AcDbEntity
  8
SANINDUSA
100
AcDbCircle
 10
0.2616107525182088
 20
0.0534099999999853
 30
0.0
 40
0.00098
100
AcDbArc
 50
90.0
 51
135.0000000000092
  0
LINE
  5
661
330
5B5
100
AcDbEntity
  8
SANINDUSA
100
AcDbLine
 10
0.265065376259372
 20
0.0582505530317121
 30
0.0
 11
0.265065376259372
 21
0.0568646237404664
 31
0.0
  0
LINE
  5
662
330
5B5
100
AcDbEntity
  8
SANINDUSA
100
AcDbLine
 10
0.2650899999998728
 20
0.0543900000000122
 30
0.0
 11
0.2616107525182088
 21
0.0543900000000122
 31
0.0
  0
ARC
  5
663
330
5B5
100
AcDbEntity
  8
SANINDUSA
100
AcDbCircle
 10
0.2650899999998728
 20
0.0548799999999119
 30
0.0
 40
0.0004900000000001
100
AcDbArc
 50
270.0
 51
0.0
  0
LINE
  5
664
330
5B5
100
AcDbEntity
  8
SANINDUSA
100
AcDbLine
 10
0.2655799999993178
 20
0.0561470353543427
 30
0.0
 11
0.2655799999993178
 21
0.0548799999999119
 31
0.0
  0
ARC
  5
665
330
5B5
100
AcDbEntity
  8
SANINDUSA
100
AcDbCircle
 10
0.2650899999998728
 20
0.0561470353543427
 30
0.0
 40
0.0004900000000001
100
AcDbArc
 50
0.0
 51
44.99999999999078
  0
LINE
  5
666
330
5B5
100
AcDbEntity
  8
SANINDUSA
100
AcDbLine
 10
0.265065376259372
 20
0.0568646237404664
 30
0.0
 11
0.2654364823229116
 21
0.0564935176771542
 31
0.0
  0
ARC
  5
667
330
5B5
100
AcDbEntity
  8
SANINDUSA
100
AcDbCircle
 10
0.2657583409045401
 20
0.0575575883860893
 30
0.0
 40
0.00098
100
AcDbArc
 50
135.0000000000092
 51
224.9999999999908
  0
ARC
  5
668
330
5B5
100
AcDbEntity
  8
SANINDUSA
100
AcDbCircle
 10
0.271900752518377
 20
0.0636999999999262
 30
0.0
 40
0.0009799999999999
100
AcDbArc
 50
90.0
 51
135.0000000000092
  0
ARC
  5
669
330
5B5
100
AcDbEntity
  8
SANINDUSA
100
AcDbCircle
 10
0.2678550081509456
 20
0.0651979727970229
 30
0.0
 40
0.00049
100
AcDbArc
 50
294.8668271162652
 51
315.0000000000092
  0
LINE
  5
66A
330
5B5
100
AcDbEntity
  8
SANINDUSA
100
AcDbLine
 10
0.2682014904739844
 20
0.0648514904742115
 30
0.0
 11
0.2701929646455028
 21
0.0668429646455024
 31
0.0
  0
LINE
  5
66B
330
5B5
100
AcDbEntity
  8
SANINDUSA
100
AcDbLine
 10
0.265065376259372
 20
0.0582505530317121
 30
0.0
 11
0.2712077878732089
 21
0.064392964645549
 31
0.0
  0
ARC
  5
66C
330
5B5
100
AcDbEntity
  8
SANINDUSA
100
AcDbCircle
 10
0.2832199999993463
 20
0.0656599999999799
 30
0.0
 40
0.0009800000000001
100
AcDbArc
 50
270.0
 51
0.0
  0
LINE
  5
66D
330
5B5
100
AcDbEntity
  8
SANINDUSA
100
AcDbLine
 10
0.2842000000000553
 20
0.0661499999998796
 30
0.0
 11
0.2842000000000553
 21
0.0656599999999799
 31
0.0
  0
LINE
  5
66E
330
5B5
100
AcDbEntity
  8
SANINDUSA
100
AcDbLine
 10
0.2394558456726372
 20
-0.0514954290604237
 30
0.0
 11
0.2680610583383896
 21
-0.0647534018573879
 31
0.0
  0
LINE
  5
66F
330
5B5
100
AcDbEntity
  8
SANINDUSA
100
AcDbLine
 10
0.2609177878730406
 20
-0.0541029646456082
 30
0.0
 11
0.2546318585818881
 21
-0.0478170353544556
 31
0.0
  0
LINE
  5
670
330
5B5
100
AcDbEntity
  8
SANINDUSA
100
AcDbLine
 10
0.25393889393672
 20
-0.0475300000000516
 30
0.0
 11
0.000489999999445
 21
-0.0475300000000516
 31
0.0
  0
LINE
  5
671
330
5B5
100
AcDbEntity
  8
SANINDUSA
100
AcDbLine
 10
0.2392497954851933
 20
-0.051450000000159
 30
0.0
 11
0.0082044012569895
 21
-0.051450000000159
 31
0.0
  0
ARC
  5
672
330
5B5
100
AcDbEntity
  8
SANINDUSA
100
AcDbCircle
 10
0.0082044012569895
 20
-0.0166170408240305
 30
0.0
 40
0.0348329591759133
100
AcDbArc
 50
257.018976930993
 51
270.0
  0
ARC
  5
673
330
5B5
100
AcDbEntity
  8
SANINDUSA
100
AcDbCircle
 10
0.000489999999445
 20
-0.0500823491031497
 30
0.0
 40
0.00049
100
AcDbArc
 50
180.0
 51
257.018976930993
  0
ARC
  5
674
330
5B5
100
AcDbEntity
  8
SANINDUSA
100
AcDbCircle
 10
0.000489999999445
 20
-0.0480199999999513
 30
0.0
 40
0.00049
100
AcDbArc
 50
90.0
 51
180.0
  0
LINE
  5
675
330
5B5
100
AcDbEntity
  8
SANINDUSA
100
AcDbLine
 10
0.0
 20
-0.0500823491031497
 30
0.0
 11
0.0
 21
-0.0480199999999513
 31
0.0
  0
ARC
  5
676
330
5B5
100
AcDbEntity
  8
SANINDUSA
100
AcDbCircle
 10
0.25393889393672
 20
-0.0485100000000784
 30
0.0
 40
0.00098
100
AcDbArc
 50
44.99999999999078
 51
90.0
  0
ARC
  5
677
330
5B5
100
AcDbEntity
  8
SANINDUSA
100
AcDbCircle
 10
0.2832199999993463
 20
-0.066150000000107
 30
0.0
 40
0.0009800000000001
100
AcDbArc
 50
270.0
 51
0.0
  0
LINE
  5
678
330
5B5
100
AcDbEntity
  8
SANINDUSA
100
AcDbLine
 10
0.2701929646455028
 20
-0.0668429646455024
 30
0.0
 11
0.2682014904739844
 21
-0.0648514904742115
 31
0.0
  0
LINE
  5
679
330
5B5
100
AcDbEntity
  8
SANINDUSA
100
AcDbLine
 10
0.2832199999993463
 20
-0.0646800000001804
 30
0.0
 11
0.271900752518377
 21
-0.0646800000001804
 31
0.0
  0
ARC
  5
67A
330
5B5
100
AcDbEntity
  8
SANINDUSA
100
AcDbCircle
 10
0.271900752518377
 20
-0.0636999999999262
 30
0.0
 40
0.00098
100
AcDbArc
 50
224.9999999999908
 51
270.0
  0
ARC
  5
67B
330
5B5
100
AcDbEntity
  8
SANINDUSA
100
AcDbCircle
 10
0.2678550081509456
 20
-0.0651979727970229
 30
0.0
 40
0.00049
100
AcDbArc
 50
44.99999999999078
 51
65.13317288373476
  0
ARC
  5
67C
330
5B5
100
AcDbEntity
  8
SANINDUSA
100
AcDbCircle
 10
0.2616107525182088
 20
-0.0534099999999853
 30
0.0
 40
0.00098
100
AcDbArc
 50
224.9999999999908
 51
270.0
  0
LINE
  5
67D
330
5B5
100
AcDbEntity
  8
SANINDUSA
100
AcDbLine
 10
0.265065376259372
 20
-0.0568646237404664
 30
0.0
 11
0.265065376259372
 21
-0.0582505530317121
 31
0.0
  0
ARC
  5
67E
330
5B5
100
AcDbEntity
  8
SANINDUSA
100
AcDbCircle
 10
0.2657583409045401
 20
-0.0575575883860893
 30
0.0
 40
0.0009799999999999
100
AcDbArc
 50
135.0000000000092
 51
224.9999999999908
  0
LINE
  5
67F
330
5B5
100
AcDbEntity
  8
SANINDUSA
100
AcDbLine
 10
0.2654364823229116
 20
-0.0564935176773815
 30
0.0
 11
0.265065376259372
 21
-0.0568646237404664
 31
0.0
  0
ARC
  5
680
330
5B5
100
AcDbEntity
  8
SANINDUSA
100
AcDbCircle
 10
0.2650899999998728
 20
-0.0561470353545701
 30
0.0
 40
0.0004900000000001
100
AcDbArc
 50
315.0000000000092
 51
0.0
  0
LINE
  5
681
330
5B5
100
AcDbEntity
  8
SANINDUSA
100
AcDbLine
 10
0.2655799999993178
 20
-0.0548800000001393
 30
0.0
 11
0.2655799999993178
 21
-0.0561470353545701
 31
0.0
  0
ARC
  5
682
330
5B5
100
AcDbEntity
  8
SANINDUSA
100
AcDbCircle
 10
0.2650899999998728
 20
-0.0548800000001393
 30
0.0
 40
0.00049
100
AcDbArc
 50
0.0
 51
90.0
  0
LINE
  5
683
330
5B5
100
AcDbEntity
  8
SANINDUSA
100
AcDbLine
 10
0.2616107525182088
 20
-0.0543900000000122
 30
0.0
 11
0.2650899999998728
 21
-0.0543900000000122
 31
0.0
  0
LINE
  5
684
330
5B5
100
AcDbEntity
  8
SANINDUSA
100
AcDbLine
 10
0.2712077878732089
 20
-0.064392964645549
 30
0.0
 11
0.265065376259372
 21
-0.0582505530317121
 31
0.0
  0
LINE
  5
685
330
5B5
100
AcDbEntity
  8
SANINDUSA
100
AcDbLine
 10
0.2842000000000553
 20
-0.0656599999999799
 30
0.0
 11
0.2842000000000553
 21
-0.066150000000107
 31
0.0
  0
ARC
  5
686
330
5B5
100
AcDbEntity
  8
SANINDUSA
100
AcDbCircle
 10
0.2832199999993463
 20
-0.0656599999999799
 30
0.0
 40
0.0009800000000001
100
AcDbArc
 50
0.0
 51
90.0
  0
LINE
  5
687
330
5B5
100
AcDbEntity
  8
SANINDUSA
100
AcDbLine
 10
0.2832199999993463
 20
-0.0671300000001338
 30
0.0
 11
0.2708859292906709
 21
-0.0671300000001338
 31
0.0
  0
ARC
  5
688
330
5B5
100
AcDbEntity
  8
SANINDUSA
100
AcDbCircle
 10
0.2708859292906709
 20
-0.066150000000107
 30
0.0
 40
0.00098
100
AcDbArc
 50
224.9999999999908
 51
270.0
  0
ENDBLK
  5
68A
330
5B5
100
AcDbEntity
  8
0
100
AcDbBlockEnd
  0
ENDSEC
  0
SECTION
  2
ENTITIES
  0
ARC
  5
307
330
23
100
AcDbEntity
  8
SANINDUSA
100
AcDbCircle
 10
915.2099347776241
 20
1557.009756524982
 30
0.0
 40
1.740022361487701
100
AcDbArc
 50
355.0888483663588
 51
359.3570807395399
  0
ARC
  5
308
330
23
100
AcDbEntity
  8
SANINDUSA
100
AcDbCircle
 10
918.4198175142213
 20
1557.009756523081
 30
0.0
 40
1.740022846379869
100
AcDbArc
 50
180.6429190129522
 51
184.9111501952762
  0
LWPOLYLINE
  5
309
330
23
100
AcDbEntity
  8
SANINDUSA
100
AcDbPolyline
 90
        5
 70
   128
 43
0.0
 10
916.9457192603635
 20
1556.85184419271
 10
916.9473771423756
 20
1556.876807789119
 10
916.9491120416633
 20
1556.916750487755
 10
916.9498994439821
 20
1556.953519216415
 10
916.9499118843001
 20
1556.990296372961
  0
LWPOLYLINE
  5
30A
330
23
100
AcDbEntity
  8
SANINDUSA
100
AcDbPolyline
 90
        5
 70
   128
 43
0.0
 10
916.6798402681806
 20
1556.990296372961
 10
916.6798527084891
 20
1556.953519216415
 10
916.6806401107988
 20
1556.916750487755
 10
916.6823750100764
 20
1556.876807789119
 10
916.6840310974551
 20
1556.85187121535
  0
LWPOLYLINE
  5
30B
330
23
100
AcDbEntity
  8
SANINDUSA
100
AcDbPolyline
 90
        8
 70
   128
 43
0.0
 10
916.7179231624057
 20
1556.531668201386
 10
916.7141325670888
 20
1556.53814422338
 10
916.7107542042431
 20
1556.54487956531
 10
916.7069776568398
 20
1556.554082725073
 10
916.7039801854485
 20
1556.563645402949
 10
916.7025584969614
 20
1556.569740890821
 10
916.7015423002771
 20
1556.575916287052
 10
916.699956092764
 20
1556.588414365255
  0
LWPOLYLINE
  5
30D
330
23
100
AcDbEntity
  8
SANINDUSA
100
AcDbPolyline
 90
        8
 70
   128
 43
0.0
 10
916.9075543321097
 20
1556.525611330547
 10
916.9154255638298
 20
1556.53814422338
 10
916.9188039266755
 20
1556.54487956531
 10
916.9225804740788
 20
1556.554082725073
 10
916.9255779454701
 20
1556.563645402949
 10
916.9269996339572
 20
1556.569740890821
 10
916.9280158306415
 20
1556.575916287052
 10
916.9296020381546
 20
1556.588414365255
  0
LWPOLYLINE
  5
30F
330
23
100
AcDbEntity
  8
SANINDUSA
100
AcDbPolyline
 90
       37
 70
   128
 43
0.0
 10
916.6455470330118
 20
1556.579582399611
 10
916.6459971606228
 20
1556.574819647943
 10
916.6468378348769
 20
1556.568160078559
 10
916.6479204388704
 20
1556.561710280113
 10
916.6493234108214
 20
1556.555043300464
 10
916.6511251357192
 20
1556.547953927957
 10
916.6532308292728
 20
1556.54094361572
 10
916.6556374233786
 20
1556.534024164437
 10
916.6583410546023
 20
1556.527208350624
 10
916.6613372163217
 20
1556.520509084658
 10
916.6646207485891
 20
1556.513939318931
 10
916.6681858424629
 20
1556.50751195032
 10
916.6720260589469
 20
1556.501239720821
 10
916.6761343623827
 20
1556.495135119365
 10
916.6805030705763
 20
1556.489210413665
 10
916.6851240760491
 20
1556.483477318419
 10
916.689988915256
 20
1556.477946961756
 10
916.6950888097623
 20
1556.472629887754
 10
916.7004147564375
 20
1556.467536007516
 10
916.7059379305561
 20
1556.462691439889
 10
916.711642537389
 20
1556.458105785692
 10
916.7175435706761
 20
1556.453764868993
 10
916.7236307644882
 20
1556.449676912947
 10
916.729893216733
 20
1556.445849931778
 10
916.7363193725522
 20
1556.442291680607
 10
916.7428970693794
 20
1556.439009568395
 10
916.7496135978291
 20
1556.436010574797
 10
916.7564556990617
 20
1556.433301202704
 10
916.7634094853173
 20
1556.430887446458
 10
916.7704611047124
 20
1556.428774523199
 10
916.7775965607651
 20
1556.426966973528
 10
916.7848018233561
 20
1556.425468641157
 10
916.7920629387561
 20
1556.424282668546
 10
916.7993661353429
 20
1556.423411508347
 10
916.8059568082721
 20
1556.422912760384
 10
916.8127945561728
 20
1556.422655653393
 10
916.8148752236927
 20
1556.422630194151
  0
LWPOLYLINE
  5
311
330
23
100
AcDbEntity
  8
SANINDUSA
100
AcDbPolyline
 90
       37
 70
   128
 43
0.0
 10
916.8148762855361
 20
1556.42264467767
 10
916.8191374490513
 20
1556.422714662615
 10
916.8258063028044
 20
1556.423034812061
 10
916.8323922249001
 20
1556.423618634003
 10
916.8392198429437
 20
1556.424502848438
 10
916.846456486116
 20
1556.425747844657
 10
916.8536219558358
 20
1556.427300861832
 10
916.8607111209725
 20
1556.429160468305
 10
916.867718329324
 20
1556.431325197297
 10
916.8746362379625
 20
1556.433792982331
 10
916.8814597096375
 20
1556.436562416939
 10
916.8881625760812
 20
1556.439621362548
 10
916.8947403765656
 20
1556.442968777015
 10
916.9011340970783
 20
1556.446577203495
 10
916.9073453212547
 20
1556.450445733153
 10
916.9133792869537
 20
1556.454576395142
 10
916.9192382164931
 20
1556.458970202997
 10
916.9249239581844
 20
1556.463628542067
 10
916.9304411696881
 20
1556.468556310336
 10
916.935748644534
 20
1556.473723819576
 10
916.9407730594905
 20
1556.47905635906
 10
916.9455671685911
 20
1556.484602570234
 10
916.9501219860073
 20
1556.49035274987
 10
916.9544287799563
 20
1556.496296647112
 10
916.9584790718818
 20
1556.502423406711
 10
916.9622647197916
 20
1556.508721614514
 10
916.965777941882
 20
1556.515179250012
 10
916.9690114558418
 20
1556.521783842571
 10
916.9719586056878
 20
1556.528522701619
 10
916.9746133454635
 20
1556.535382912405
 10
916.9769702715157
 20
1556.542351434979
 10
916.9790246401831
 20
1556.549415204585
 10
916.9807723706089
 20
1556.556561230417
 10
916.9822102927545
 20
1556.563778196096
 10
916.9831935047382
 20
1556.570168690689
 10
916.9839583323982
 20
1556.576753710719
 10
916.9842135674628
 20
1556.579581559771
  0
ARC
  5
313
330
23
100
AcDbEntity
  8
SANINDUSA
100
AcDbCircle
 10
916.8147368542237
 20
1556.590448338964
 30
0.0
 40
0.1127090968488497
100
AcDbArc
 50
270.0214581242952
 51
284.6501464466122
  0
LWPOLYLINE
  5
315
330
23
100
AcDbEntity
  8
SANINDUSA
100
AcDbPolyline
 90
       10
 70
   128
 43
0.0
 10
916.8432428130232
 20
1556.481403619581
 10
916.850453315261
 20
1556.483540446342
 10
916.8575074035141
 20
1556.486147668952
 10
916.8665706528612
 20
1556.490312586455
 10
916.8752382876913
 20
1556.495248507123
 10
916.8831622560801
 20
1556.500711776453
 10
916.8906291983075
 20
1556.50683799296
 10
916.8975661563845
 20
1556.513558954283
 10
916.9039001723232
 20
1556.52080645806
 10
916.9075543321097
 20
1556.525611330547
  0
LWPOLYLINE
  5
317
330
23
100
AcDbEntity
  8
SANINDUSA
100
AcDbPolyline
 90
       10
 70
   128
 43
0.0
 10
916.7863153178954
 20
1556.481403619581
 10
916.7791048156576
 20
1556.483540446342
 10
916.7720507274045
 20
1556.486147668952
 10
916.7629874780574
 20
1556.490312586455
 10
916.7543198432273
 20
1556.495248507123
 10
916.7463958748383
 20
1556.500711776453
 10
916.7389289326111
 20
1556.50683799296
 10
916.7319919745342
 20
1556.513558954283
 10
916.7256579585954
 20
1556.52080645806
 10
916.7220037988087
 20
1556.525611330547
  0
ARC
  5
319
330
23
100
AcDbEntity
  8
SANINDUSA
100
AcDbCircle
 10
916.8148212766949
 20
1556.590448338964
 30
0.0
 40
0.1127090968488347
100
AcDbArc
 50
255.3498535533879
 51
269.9785418757048
  0
LINE
  5
31B
330
23
100
AcDbEntity
  8
SANINDUSA
100
AcDbLine
 10
916.7220037988087
 20
1556.525611330547
 30
0.0
 11
916.7179231624057
 21
1556.531668201386
 31
0.0
  0
LWPOLYLINE
  5
31F
330
23
100
AcDbEntity
  8
SANINDUSA
100
AcDbPolyline
 90
        7
 70
   128
 43
0.0
 10
916.6792835362102
 20
1556.848488320002
 10
916.6769578341716
 20
1556.847762730232
 10
916.6657537648719
 20
1556.843937047332
 10
916.6546155619014
 20
1556.839801011398
 10
916.6435327755726
 20
1556.835345509299
 10
916.6328080430766
 20
1556.83071131249
 10
916.6313001695533
 20
1556.830024324352
  0
LWPOLYLINE
  5
321
330
23
100
AcDbEntity
  8
SANINDUSA
100
AcDbPolyline
 90
       10
 70
   128
 43
0.0
 10
916.6254387738458
 20
1556.820501956923
 10
916.626911835797
 20
1556.79123631901
 10
916.628607336564
 20
1556.76084889138
 10
916.6304098121702
 20
1556.733131089231
 10
916.6323464359738
 20
1556.70739299966
 10
916.6347131165887
 20
1556.680063612319
 10
916.6373426572043
 20
1556.653026448623
 10
916.6404489880504
 20
1556.6238676074
 10
916.6441115437363
 20
1556.591907028326
 10
916.6456029293804
 20
1556.579589022476
  0
LWPOLYLINE
  5
327
330
23
100
AcDbEntity
  8
SANINDUSA
100
AcDbPolyline
 90
       10
 70
   128
 43
0.0
 10
916.6935095270268
 20
1556.644675362966
 10
916.6901676931432
 20
1556.678613710125
 10
916.6872318425999
 20
1556.712589590028
 10
916.6869770791024
 20
1556.718273533006
 10
916.6872125657425
 20
1556.723964979963
 10
916.6880752202526
 20
1556.729572228918
 10
916.6897410166207
 20
1556.735384361075
 10
916.6921051211376
 20
1556.740973837057
 10
916.6951138343673
 20
1556.74621851779
 10
916.6951138673642
 20
1556.746218567901
  0
LWPOLYLINE
  5
32A
330
23
100
AcDbEntity
  8
SANINDUSA
100
AcDbPolyline
 90
       10
 70
   128
 43
0.0
 10
916.9360486038918
 20
1556.644675362966
 10
916.9393904377754
 20
1556.678613710125
 10
916.9423262883187
 20
1556.712589590028
 10
916.9425810518163
 20
1556.718273533006
 10
916.9423455651761
 20
1556.723964979963
 10
916.941482910666
 20
1556.729572228918
 10
916.9398171142979
 20
1556.735384361075
 10
916.937453009781
 20
1556.740973837057
 10
916.9344442965513
 20
1556.74621851779
 10
916.9344442635544
 20
1556.746218567901
  0
LWPOLYLINE
  5
32D
330
23
100
AcDbEntity
  8
SANINDUSA
100
AcDbPolyline
 90
       10
 70
   128
 43
0.0
 10
916.9842520804785
 20
1556.579576933977
 10
916.9865168941289
 20
1556.598153053554
 10
916.9897617090866
 20
1556.626659390981
 10
916.9928806643104
 20
1556.656779021677
 10
916.9956857846347
 20
1556.686933790011
 10
916.9979237194866
 20
1556.713890637946
 10
916.9999978500989
 20
1556.742692034831
 10
917.0017226286782
 20
1556.770629619473
 10
917.0033423808659
 20
1556.801130983019
 10
917.0042308227609
 20
1556.820505549695
  0
LINE
  5
32F
330
23
100
AcDbEntity
  8
SANINDUSA
100
AcDbLine
 10
916.8147789797137
 20
1556.715691569817
 30
0.0
 11
916.8404098715653
 21
1556.715691569817
 31
0.0
  0
LWPOLYLINE
  5
330
330
23
100
AcDbEntity
  8
SANINDUSA
100
AcDbPolyline
 90
       15
 70
   128
 43
0.0
 10
916.8232342324333
 20
1556.640691569817
 10
916.8267753488068
 20
1556.640934404043
 10
916.8302727133717
 20
1556.641563265239
 10
916.8336831148268
 20
1556.642570383579
 10
916.8369644163339
 20
1556.643943315725
 10
916.8400760761347
 20
1556.645665098564
 10
916.8429796484602
 20
1556.6477144588
 10
916.8456392585435
 20
1556.650066075788
 10
916.8480220458663
 20
1556.652690894385
 10
916.8500985701628
 20
1556.655556483934
 10
916.8518431751669
 20
1556.658627438961
 10
916.8532343056037
 20
1556.661865816619
 10
916.8542547735155
 20
1556.665231605491
 10
916.8548919706232
 20
1556.668683219946
 10
916.8551380241083
 20
1556.672178013942
  0
LWPOLYLINE
  5
331
330
23
100
AcDbEntity
  8
SANINDUSA
100
AcDbPolyline
 90
        3
 70
   128
 43
0.0
 10
916.8147790654593
 20
1556.623328251901
 10
916.8227523974499
 20
1556.623298656836
 10
916.8307257294465
 20
1556.623211613117
  0
LWPOLYLINE
  5
334
330
23
100
AcDbEntity
  8
SANINDUSA
100
AcDbPolyline
 90
       11
 70
   128
 43
0.0
 10
916.8307257294465
 20
1556.623211613117
 10
916.8350416515991
 20
1556.623321491376
 10
916.8393047433934
 20
1556.624004658527
 10
916.8441301775779
 20
1556.625552426371
 10
916.8486554369904
 20
1556.627900138048
 10
916.8527007704387
 20
1556.631008629724
 10
916.8561602144873
 20
1556.634794835103
 10
916.8590135795732
 20
1556.639364859029
 10
916.8610138444982
 20
1556.644327132116
 10
916.8621705925582
 20
1556.649720711928
 10
916.8624456749707
 20
1556.655127026613
  0
LWPOLYLINE
  5
336
330
23
100
AcDbEntity
  8
SANINDUSA
100
AcDbPolyline
 90
        3
 70
   128
 43
0.0
 10
916.9296020381546
 20
1556.588414365255
 10
916.9314184998938
 20
1556.603304027016
 10
916.9360486038918
 20
1556.644675362966
  0
LWPOLYLINE
  5
339
330
23
100
AcDbEntity
  8
SANINDUSA
100
AcDbPolyline
 90
        3
 70
   128
 43
0.0
 10
916.8623134290523
 20
1556.687522696295
 10
916.8623461552682
 20
1556.702215993379
 10
916.8624655742378
 20
1556.716912832894
  0
LWPOLYLINE
  5
33A
330
23
100
AcDbEntity
  8
SANINDUSA
100
AcDbPolyline
 90
       15
 70
   128
 43
0.0
 10
916.8551380241083
 20
1556.672178013942
 10
916.854821725162
 20
1556.673100379475
 10
916.8545128477065
 20
1556.674372721643
 10
916.8542137261443
 20
1556.675985424468
 10
916.8539266211466
 20
1556.677926299628
 10
916.853653702566
 20
1556.680180678572
 10
916.8533970330395
 20
1556.682731523382
 10
916.8531585523977
 20
1556.685559555543
 10
916.8529400630058
 20
1556.688643401638
 10
916.8527432161406
 20
1556.691959754888
 10
916.8525694995114
 20
1556.695483551292
 10
916.8524202260163
 20
1556.699188159058
 10
916.8522965238194
 20
1556.703045579877
 10
916.8521993278249
 20
1556.707026660523
 10
916.8521440731687
 20
1556.710088671111
  0
LINE
  5
33C
330
23
100
AcDbEntity
  8
SANINDUSA
100
AcDbLine
 10
916.8624456749707
 20
1556.655127026613
 30
0.0
 11
916.8551380241083
 21
1556.672178013942
 31
0.0
  0
LWPOLYLINE
  5
33E
330
23
100
AcDbEntity
  8
SANINDUSA
100
AcDbPolyline
 90
        3
 70
   128
 43
0.0
 10
916.8624456749707
 20
1556.655127026613
 10
916.8623490999296
 20
1556.671285002742
 10
916.862313429053
 20
1556.687522696295
  0
LWPOLYLINE
  5
33F
330
23
100
AcDbEntity
  8
SANINDUSA
100
AcDbPolyline
 90
        5
 70
   128
 43
0.0
 10
916.8404098715653
 20
1556.715691569817
 10
916.8404098763511
 20
1556.715691578581
 10
916.8424480381135
 20
1556.719546739915
 10
916.8462421289701
 20
1556.727364924149
 10
916.8540390908692
 20
1556.74474468512
  0
LWPOLYLINE
  5
340
330
23
100
AcDbEntity
  8
SANINDUSA
100
AcDbPolyline
 90
       10
 70
   128
 43
0.0
 10
916.8552111966631
 20
1556.701207554354
 10
916.8549833429796
 20
1556.70377906969
 10
916.8543107066042
 20
1556.706263704112
 10
916.8533184595647
 20
1556.708380825781
 10
916.8520008391778
 20
1556.710299216724
 10
916.8503742012759
 20
1556.711985851421
 10
916.8485013557599
 20
1556.713385830371
 10
916.8463196745184
 20
1556.714514702273
 10
916.8439793630355
 20
1556.715275555437
 10
916.8404098715653
 20
1556.715691569817
  0
LWPOLYLINE
  5
343
330
23
100
AcDbEntity
  8
SANINDUSA
100
AcDbPolyline
 90
        4
 70
   128
 43
0.0
 10
916.8624655742378
 20
1556.716912832894
 10
916.8606352057777
 20
1556.712614274995
 10
916.8569965768403
 20
1556.704742200883
 10
916.8552111966631
 20
1556.701207554354
  0
LWPOLYLINE
  5
345
330
23
100
AcDbEntity
  8
SANINDUSA
100
AcDbPolyline
 90
       11
 70
   128
 43
0.0
 10
916.7988324014721
 20
1556.623211613117
 10
916.7945164793193
 20
1556.623321491376
 10
916.7902533875253
 20
1556.624004658527
 10
916.7854279533408
 20
1556.625552426371
 10
916.7809026939281
 20
1556.627900138048
 10
916.7768573604799
 20
1556.631008629724
 10
916.7733979164314
 20
1556.634794835103
 10
916.7705445513455
 20
1556.639364859029
 10
916.7685442864204
 20
1556.644327132116
 10
916.7673875383604
 20
1556.649720711928
 10
916.7671124559479
 20
1556.655127026613
  0
LWPOLYLINE
  5
346
330
23
100
AcDbEntity
  8
SANINDUSA
100
AcDbPolyline
 90
       15
 70
   128
 43
0.0
 10
916.8063238984853
 20
1556.640691569817
 10
916.8027827821118
 20
1556.640934404043
 10
916.7992854175469
 20
1556.641563265239
 10
916.7958750160918
 20
1556.642570383579
 10
916.7925937145847
 20
1556.643943315725
 10
916.7894820547839
 20
1556.645665098564
 10
916.7865784824584
 20
1556.6477144588
 10
916.7839188723752
 20
1556.650066075788
 10
916.7815360850523
 20
1556.652690894385
 10
916.7794595607558
 20
1556.655556483934
 10
916.7777149557519
 20
1556.658627438961
 10
916.7763238253149
 20
1556.661865816619
 10
916.7753033574031
 20
1556.665231605491
 10
916.7746661602954
 20
1556.668683219946
 10
916.7744201068101
 20
1556.672178013942
  0
LINE
  5
34A
330
23
100
AcDbEntity
  8
SANINDUSA
100
AcDbLine
 10
916.8147790654593
 20
1556.640691569817
 30
0.0
 11
916.8232342324333
 21
1556.640691569817
 31
0.0
  0
LINE
  5
34B
330
23
100
AcDbEntity
  8
SANINDUSA
100
AcDbLine
 10
916.8147790654593
 20
1556.640691569817
 30
0.0
 11
916.8063238984853
 21
1556.640691569817
 31
0.0
  0
LINE
  5
34C
330
23
100
AcDbEntity
  8
SANINDUSA
100
AcDbLine
 10
916.8147790654593
 20
1556.623328251901
 30
0.0
 11
916.7988324014721
 21
1556.623211613117
 31
0.0
  0
LWPOLYLINE
  5
34D
330
23
100
AcDbEntity
  8
SANINDUSA
100
AcDbPolyline
 90
        3
 70
   128
 43
0.0
 10
916.699956092764
 20
1556.588414365255
 10
916.6981396310248
 20
1556.603304027016
 10
916.6935095270268
 20
1556.644675362966
  0
LWPOLYLINE
  5
350
330
23
100
AcDbEntity
  8
SANINDUSA
100
AcDbPolyline
 90
        3
 70
   128
 43
0.0
 10
916.7672447018663
 20
1556.687522696295
 10
916.7672119756504
 20
1556.702215993379
 10
916.7670925566808
 20
1556.716912832894
  0
LWPOLYLINE
  5
351
330
23
100
AcDbEntity
  8
SANINDUSA
100
AcDbPolyline
 90
       15
 70
   128
 43
0.0
 10
916.7744201068101
 20
1556.672178013942
 10
916.7747364057566
 20
1556.673100379475
 10
916.7750452832121
 20
1556.674372721643
 10
916.7753444047743
 20
1556.675985424468
 10
916.7756315097721
 20
1556.677926299628
 10
916.7759044283526
 20
1556.680180678572
 10
916.7761610978791
 20
1556.682731523382
 10
916.7763995785209
 20
1556.685559555543
 10
916.7766180679128
 20
1556.688643401638
 10
916.776814914778
 20
1556.691959754888
 10
916.7769886314072
 20
1556.695483551292
 10
916.7771379049023
 20
1556.699188159058
 10
916.777261607099
 20
1556.703045579877
 10
916.7773588030938
 20
1556.707026660523
 10
916.7774140577499
 20
1556.710088671111
  0
LINE
  5
353
330
23
100
AcDbEntity
  8
SANINDUSA
100
AcDbLine
 10
916.7671124559479
 20
1556.655127026613
 30
0.0
 11
916.7744201068101
 21
1556.672178013942
 31
0.0
  0
LWPOLYLINE
  5
354
330
23
100
AcDbEntity
  8
SANINDUSA
100
AcDbPolyline
 90
        3
 70
   128
 43
0.0
 10
916.7671124559479
 20
1556.655127026613
 10
916.767209030989
 20
1556.671285002742
 10
916.7672447018656
 20
1556.687522696295
  0
LWPOLYLINE
  5
357
330
23
100
AcDbEntity
  8
SANINDUSA
100
AcDbPolyline
 90
        4
 70
   128
 43
0.0
 10
916.7670925566808
 20
1556.716912832894
 10
916.768922925141
 20
1556.712614274995
 10
916.7725615540783
 20
1556.704742200883
 10
916.7743469342555
 20
1556.701207554354
  0
LWPOLYLINE
  5
358
330
23
100
AcDbEntity
  8
SANINDUSA
100
AcDbPolyline
 90
        5
 70
   128
 43
0.0
 10
916.7891482593532
 20
1556.715691569817
 10
916.7891482545675
 20
1556.715691578581
 10
916.7871100928051
 20
1556.719546739915
 10
916.7833160019485
 20
1556.727364924149
 10
916.7756111241414
 20
1556.744539425748
  0
LWPOLYLINE
  5
359
330
23
100
AcDbEntity
  8
SANINDUSA
100
AcDbPolyline
 90
       10
 70
   128
 43
0.0
 10
916.7743469342555
 20
1556.701207554354
 10
916.774574787939
 20
1556.70377906969
 10
916.7752474243142
 20
1556.706263704112
 10
916.7762396713539
 20
1556.708380825781
 10
916.7775572917408
 20
1556.710299216724
 10
916.7791839296425
 20
1556.711985851421
 10
916.7810567751587
 20
1556.713385830371
 10
916.7832384564002
 20
1556.714514702273
 10
916.785578767883
 20
1556.715275555437
 10
916.7891482593532
 20
1556.715691569817
  0
LINE
  5
35A
330
23
100
AcDbEntity
  8
SANINDUSA
100
AcDbLine
 10
916.8147791512049
 20
1556.715691569817
 30
0.0
 11
916.7891482593532
 21
1556.715691569817
 31
0.0
  0
LWPOLYLINE
  5
35D
330
23
100
AcDbEntity
  8
SANINDUSA
100
AcDbPolyline
 90
        6
 70
   128
 43
0.0
 10
916.8147790509259
 20
1556.754984094665
 10
916.8172865960588
 20
1556.754959617916
 10
916.8239711485805
 20
1556.754673899367
 10
916.83064796928
 20
1556.754119868741
 10
916.8370906814759
 20
1556.753398737344
 10
916.8434975990727
 20
1556.752569540662
  0
ARC
  5
35E
330
23
100
AcDbEntity
  8
SANINDUSA
100
AcDbCircle
 10
916.8147743701036
 20
1556.627595870984
 30
0.0
 40
0.1698861046689409
100
AcDbArc
 50
54.69440438829793
 51
90.0
  0
LWPOLYLINE
  5
361
330
23
100
AcDbEntity
  8
SANINDUSA
100
AcDbPolyline
 90
        9
 70
   128
 43
0.0
 10
916.922344462991
 20
1556.860030635825
 10
916.9085476288644
 20
1556.864244888726
 10
916.8944686627121
 20
1556.867910869045
 10
916.8801597266789
 20
1556.870999194329
 10
916.8652382747316
 20
1556.873548055388
 10
916.8501343650047
 20
1556.875448196079
 10
916.834921988392
 20
1556.876680867468
 10
916.8249141105297
 20
1556.877120430515
 10
916.8148758914261
 20
1556.877267407236
  0
ARC
  5
362
330
23
100
AcDbEntity
  8
SANINDUSA
100
AcDbCircle
 10
916.8148774552722
 20
1556.429035260478
 30
0.0
 40
0.4441915930298609
100
AcDbArc
 50
75.99902483186046
 51
90.0
  0
LWPOLYLINE
  5
364
330
23
100
AcDbEntity
  8
SANINDUSA
100
AcDbPolyline
 90
        6
 70
   128
 43
0.0
 10
916.9984447178556
 20
1556.830010196423
 10
916.9913809057396
 20
1556.833150898401
 10
916.981103707836
 20
1556.837446166899
 10
916.9702256856153
 20
1556.841665822133
 10
916.959039174905
 20
1556.845671299462
 10
916.9504681443696
 20
1556.848485140462
  0
LWPOLYLINE
  5
367
330
23
100
AcDbEntity
  8
SANINDUSA
100
AcDbPolyline
 90
        4
 70
   128
 43
0.0
 10
916.9344442639062
 20
1556.746218567367
 10
916.9344442305574
 20
1556.746218618013
 10
916.9299749991285
 20
1556.752026787876
 10
916.9245801259837
 20
1556.757225450912
  0
ARC
  5
36A
330
23
100
AcDbEntity
  8
SANINDUSA
100
AcDbCircle
 10
916.9944870312434
 20
1556.821104912995
 30
0.0
 40
0.0097622082286326
100
AcDbArc
 50
356.4800383251916
 51
66.03594753060862
  0
LINE
  5
36C
330
23
100
AcDbEntity
  8
SANINDUSA
100
AcDbLine
 10
916.9245801259837
 20
1556.757225450912
 30
0.0
 11
916.91295789135
 21
1556.766236718916
 31
0.0
  0
LINE
  5
36E
330
23
100
AcDbEntity
  8
SANINDUSA
100
AcDbLine
 10
916.931900072501
 20
1556.856856944682
 30
0.0
 11
916.922344462991
 21
1556.860030635825
 31
0.0
  0
LWPOLYLINE
  5
36F
330
23
100
AcDbEntity
  8
SANINDUSA
100
AcDbPolyline
 90
        6
 70
   128
 43
0.0
 10
916.9442334358546
 20
1556.854409668772
 10
916.9440133396211
 20
1556.854957064959
 10
916.9437074951236
 20
1556.856102700739
 10
916.9435346490423
 20
1556.857211370372
 10
916.9434617593372
 20
1556.858462837139
 10
916.9434928256871
 20
1556.859533074865
  0
LWPOLYLINE
  5
370
330
23
100
AcDbEntity
  8
SANINDUSA
100
AcDbPolyline
 90
        7
 70
   128
 43
0.0
 10
916.9504847840943
 20
1556.848538671794
 10
916.9496504499662
 20
1556.848805256661
 10
916.9481218517871
 20
1556.849617706806
 10
916.9467061282572
 20
1556.85073334565
 10
916.9455312335491
 20
1556.852055841134
 10
916.9445701992634
 20
1556.853616504245
 10
916.9442523879913
 20
1556.854416601965
  0
LWPOLYLINE
  5
372
330
23
100
AcDbEntity
  8
SANINDUSA
100
AcDbPolyline
 90
        3
 70
   128
 43
0.0
 10
916.931900072501
 20
1556.856856944682
 10
916.9319194695313
 20
1556.856855548451
 10
916.9346000966909
 20
1556.8568980927
  0
LWPOLYLINE
  5
373
330
23
100
AcDbEntity
  8
SANINDUSA
100
AcDbPolyline
 90
        5
 70
   128
 43
0.0
 10
916.9402198720545
 20
1556.858425549818
 10
916.941488044093
 20
1556.859060542287
 10
916.9424849669168
 20
1556.859742377101
 10
916.9433430321642
 20
1556.860613182289
 10
916.9435819645052
 20
1556.860943723461
  0
LWPOLYLINE
  5
376
330
23
100
AcDbEntity
  8
SANINDUSA
100
AcDbPolyline
 90
        4
 70
   128
 43
0.0
 10
916.9346000966909
 20
1556.8568980927
 10
916.93709447312
 20
1556.857330868297
 10
916.9390224203258
 20
1556.857938714149
 10
916.9402198720545
 20
1556.858425549818
  0
LWPOLYLINE
  5
377
330
23
100
AcDbEntity
  8
SANINDUSA
100
AcDbPolyline
 90
        4
 70
   128
 43
0.0
 10
916.9435689122682
 20
1556.860791745293
 10
916.9435421332609
 20
1556.860400451425
 10
916.9435130650812
 20
1556.859984030185
 10
916.9434928256871
 20
1556.859533074865
  0
CIRCLE
  5
37C
330
23
100
AcDbEntity
  8
SANINDUSA
100
AcDbCircle
 10
916.8897790645567
 20
1556.848845709766
 30
0.0
 40
0.007499999999997
  0
ARC
  5
37F
330
23
100
AcDbEntity
  8
SANINDUSA
100
AcDbCircle
 10
916.8147876160828
 20
1556.627583756964
 30
0.0
 40
0.1698982188390708
100
AcDbArc
 50
90.0
 51
125.304295586945
  0
LWPOLYLINE
  5
381
330
23
100
AcDbEntity
  8
SANINDUSA
100
AcDbPolyline
 90
        6
 70
   128
 43
0.0
 10
916.8147790799928
 20
1556.754984094665
 10
916.8122715348598
 20
1556.754959617916
 10
916.8055869823382
 20
1556.754673899367
 10
916.7989101616385
 20
1556.754119868741
 10
916.7924674494427
 20
1556.753398737344
 10
916.7860605318459
 20
1556.752569540662
  0
LINE
  5
382
330
23
100
AcDbEntity
  8
SANINDUSA
100
AcDbLine
 10
916.704978004935
 20
1556.757225450912
 30
0.0
 11
916.7166002395687
 21
1556.766236718916
 31
0.0
  0
LWPOLYLINE
  5
385
330
23
100
AcDbEntity
  8
SANINDUSA
100
AcDbPolyline
 90
        4
 70
   128
 43
0.0
 10
916.6951138670125
 20
1556.746218567367
 10
916.6951139003613
 20
1556.746218618013
 10
916.6995831317901
 20
1556.752026787876
 10
916.704978004935
 20
1556.757225450912
  0
LWPOLYLINE
  5
388
330
23
100
AcDbEntity
  8
SANINDUSA
100
AcDbPolyline
 90
        9
 70
   128
 43
0.0
 10
916.7074073334719
 20
1556.860030635825
 10
916.72120416428
 20
1556.864244888726
 10
916.7352831275408
 20
1556.867910869045
 10
916.7495920611345
 20
1556.870999194329
 10
916.7645135110662
 20
1556.873548055388
 10
916.7796174192888
 20
1556.875448196079
 10
916.794829794925
 20
1556.876680867468
 10
916.804837672439
 20
1556.877120430515
 10
916.8148758914261
 20
1556.877267407236
  0
ARC
  5
38A
330
23
100
AcDbEntity
  8
SANINDUSA
100
AcDbCircle
 10
916.8148743411903
 20
1556.429035260478
 30
0.0
 40
0.4441915930298609
100
AcDbArc
 50
90.0
 51
104.0009751681395
  0
CIRCLE
  5
38C
330
23
100
AcDbEntity
  8
SANINDUSA
100
AcDbCircle
 10
916.7397790663619
 20
1556.848845709766
 30
0.0
 40
0.0074999999999969
  0
LWPOLYLINE
  5
390
330
23
100
AcDbEntity
  8
SANINDUSA
100
AcDbPolyline
 90
        6
 70
   128
 43
0.0
 10
916.686255149769
 20
1556.859556714157
 10
916.6862894492913
 20
1556.858937854823
 10
916.6862563791333
 20
1556.857658748959
 10
916.6860993201446
 20
1556.856384311974
 10
916.6858151429336
 20
1556.855200532779
 10
916.6855217171258
 20
1556.854403167761
  0
LWPOLYLINE
  5
391
330
23
100
AcDbEntity
  8
SANINDUSA
100
AcDbPolyline
 90
        7
 70
   128
 43
0.0
 10
916.6855128053347
 20
1556.854403208888
 10
916.6854133370462
 20
1556.854109253482
 10
916.6845459357194
 20
1556.852519929191
 10
916.6834371971905
 20
1556.851122880682
 10
916.6821012976877
 20
1556.849945234454
 10
916.6806129316041
 20
1556.849038024029
 10
916.6792668582258
 20
1556.848521281209
  0
LWPOLYLINE
  5
394
330
23
100
AcDbEntity
  8
SANINDUSA
100
AcDbPolyline
 90
        3
 70
   128
 43
0.0
 10
916.6978517253513
 20
1556.856856944682
 10
916.6978323283153
 20
1556.856855548451
 10
916.6951517005456
 20
1556.8568980927
  0
LWPOLYLINE
  5
397
330
23
100
AcDbEntity
  8
SANINDUSA
100
AcDbPolyline
 90
        6
 70
   128
 43
0.0
 10
916.6895319263872
 20
1556.858425549818
 10
916.6882637556064
 20
1556.859060542287
 10
916.6872668342085
 20
1556.859742377101
 10
916.6864087710601
 20
1556.860613182289
 10
916.6862420802054
 20
1556.860843785079
 10
916.6861714864063
 20
1556.860924550154
  0
LWPOLYLINE
  5
399
330
23
100
AcDbEntity
  8
SANINDUSA
100
AcDbPolyline
 90
        4
 70
   128
 43
0.0
 10
916.6951517005456
 20
1556.8568980927
 10
916.6926573240436
 20
1556.857330868297
 10
916.6907293773657
 20
1556.857938714149
 10
916.6895319263872
 20
1556.858425549818
  0
LWPOLYLINE
  5
39B
330
23
100
AcDbEntity
  8
SANINDUSA
100
AcDbPolyline
 90
        4
 70
   128
 43
0.0
 10
916.6861828927348
 20
1556.860791745293
 10
916.6862096725688
 20
1556.860400451425
 10
916.6862387415656
 20
1556.859984030185
 10
916.686255149769
 20
1556.859556714157
  0
LINE
  5
39D
330
23
100
AcDbEntity
  8
SANINDUSA
100
AcDbLine
 10
916.6978517253513
 20
1556.856856944682
 30
0.0
 11
916.7074073334719
 21
1556.860030635825
 31
0.0
  0
ARC
  5
39E
330
23
100
AcDbEntity
  8
SANINDUSA
100
AcDbCircle
 10
916.6354301564824
 20
1556.820917014758
 30
0.0
 40
0.0100000000000001
100
AcDbArc
 50
114.3754107790169
 51
182.3787895516686
  0
ARC
  5
3E3
330
23
100
AcDbEntity
  8
SANINDUSA
  6
Continuous
100
AcDbCircle
 10
918.7861573647293
 20
1556.549857738901
 30
0.0
 40
0.0019999990951178
100
AcDbArc
 50
180.0
 51
269.9976454132827
  0
ARC
  5
3E5
330
23
100
AcDbEntity
  8
SANINDUSA
  6
Continuous
100
AcDbCircle
 10
918.8132663935103
 20
1556.549854449654
 30
0.0
 40
0.0020000050301543
100
AcDbArc
 50
269.9885270257254
 51
352.8750477033355
  0
ARC
  5
3EA
330
23
100
AcDbEntity
  8
SANINDUSA
100
AcDbCircle
 10
919.0389369056582
 20
1556.642860024294
 30
0.0
 40
0.0900000000000742
100
AcDbArc
 50
197.0533633615976
 51
270.0000518301155
  0
ARC
  5
3EB
330
23
100
AcDbEntity
  8
SANINDUSA
100
AcDbCircle
 10
919.0530000871703
 20
1556.642859512405
 30
0.0
 40
0.0900000000000409
100
AcDbArc
 50
269.9999482871324
 51
349.7212284858629
  0
LINE
  5
3ED
330
23
100
AcDbEntity
  8
SANINDUSA
100
AcDbLine
 10
919.2235915769989
 20
1556.719704748381
 30
0.0
 11
919.2267133498239
 21
1556.540859029144
 31
0.0
  0
LINE
  5
3EE
330
23
100
AcDbEntity
  8
SANINDUSA
100
AcDbLine
 10
918.7791410590872
 20
1556.9560906873
 30
0.0
 11
918.7791418735848
 21
1556.542858144987
 31
0.0
  0
LINE
  5
3EF
330
23
100
AcDbEntity
  8
SANINDUSA
100
AcDbLine
 10
919.2386796582288
 20
1556.542893955572
 30
0.0
 11
919.2355894326453
 21
1556.719912865807
 31
0.0
  0
LINE
  5
3F0
330
23
100
AcDbEntity
  8
SANINDUSA
100
AcDbLine
 10
919.2267133498239
 20
1556.540859029144
 30
0.0
 11
918.9284018892145
 21
1556.540858439837
 31
0.0
  0
ARC
  5
3F3
330
23
100
AcDbEntity
  8
SANINDUSA
100
AcDbCircle
 10
918.7811418735847
 20
1556.542858148929
 30
0.0
 40
0.002
100
AcDbArc
 50
180.0001129358481
 51
270.0001129358481
  0
LWPOLYLINE
  5
3F7
330
23
100
AcDbEntity
  8
SANINDUSA
  6
Continuous
100
AcDbPolyline
 90
        3
 70
   128
 43
0.0
 10
918.7861572825386
 20
1556.547857737796
 10
918.7992773921749
 20
1556.547856683929
 10
918.8132659930259
 20
1556.547854437134
  0
LINE
  5
3F9
330
23
100
AcDbEntity
  8
SANINDUSA
100
AcDbLine
 10
919.2266814862998
 20
1556.542684503046
 30
0.0
 11
919.2266784392828
 21
1556.542859046818
 31
0.0
  0
LINE
  5
3FA
330
23
100
AcDbEntity
  8
SANINDUSA
100
AcDbLine
 10
919.2366799668494
 20
1556.540859046818
 30
0.0
 11
919.2267133498239
 21
1556.540859029144
 31
0.0
  0
ARC
  5
3FB
330
23
100
AcDbEntity
  8
SANINDUSA
100
AcDbCircle
 10
919.2366799629073
 20
1556.542859046818
 30
0.0
 40
0.002
100
AcDbArc
 50
270.0001129358481
 51
1.000112936875387
  0
LINE
  5
3FC
330
23
100
AcDbEntity
  8
SANINDUSA
100
AcDbLine
 10
918.9674272171995
 20
1556.935859589642
 30
0.0
 11
919.3021603109604
 21
1556.935859284044
 31
0.0
  0
LINE
  5
3FE
330
23
100
AcDbEntity
  8
SANINDUSA
100
AcDbLine
 10
919.2960471066443
 20
1556.890859293206
 30
0.0
 11
918.9735476504468
 21
1556.890859584286
 31
0.0
  0
ARC
  5
402
330
23
100
AcDbEntity
  8
SANINDUSA
100
AcDbCircle
 10
919.0530000871703
 20
1556.642859512405
 30
0.0
 40
0.0800000000000326
100
AcDbArc
 50
269.9999482871324
 51
349.7212284858629
  0
LWPOLYLINE
  5
405
330
23
100
AcDbEntity
  8
SANINDUSA
100
AcDbPolyline
 90
        9
 70
   128
 43
0.0
 10
918.3803062332815
 20
1556.771069998745
 10
918.390997521978
 20
1556.796733994366
 10
918.4008246456265
 20
1556.822770772487
 10
918.4097540957271
 20
1556.84909169818
 10
918.4177956360539
 20
1556.875726272744
 10
918.4241883097046
 20
1556.899642132415
 10
918.4306827777669
 20
1556.927255528687
 42
0.4836073692163987
 10
918.423868703482
 20
1556.935858148929
 10
918.4000663091143
 20
1556.935858148929
  0
LINE
  5
406
330
23
100
AcDbEntity
  8
SANINDUSA
100
AcDbLine
 10
918.2406426017452
 20
1556.935858148929
 30
0.0
 11
918.4000663091143
 21
1556.935858148929
 31
0.0
  0
LINE
  5
40A
330
23
100
AcDbEntity
  8
SANINDUSA
100
AcDbLine
 10
916.8148758894311
 20
1556.993265770334
 30
0.0
 11
916.9420684076893
 21
1556.993265770334
 31
0.0
  0
LWPOLYLINE
  5
40D
330
23
100
AcDbEntity
  8
SANINDUSA
100
AcDbPolyline
 90
        9
 70
   128
 43
0.0
 10
916.949847595292
 20
1556.990232043119
 10
916.9497957557588
 20
1556.990822068577
 10
916.9496290051814
 20
1556.991390409691
 10
916.9493538434489
 20
1556.991914912691
 10
916.9489809962852
 20
1556.992375132602
 10
916.9485249971645
 20
1556.992753130186
 10
916.9480036207993
 20
1556.993034171209
 10
916.9474371902886
 20
1556.993207300771
 10
916.9468477849287
 20
1556.993265770334
  0
LINE
  5
40E
330
23
100
AcDbEntity
  8
SANINDUSA
100
AcDbLine
 10
916.9420684076893
 20
1556.993265770334
 30
0.0
 11
916.9468477849287
 21
1556.993265770334
 31
0.0
  0
LWPOLYLINE
  5
410
330
23
100
AcDbEntity
  8
SANINDUSA
100
AcDbPolyline
 90
        9
 70
   128
 43
0.0
 10
916.9499118843001
 20
1556.990296372961
 10
916.949849055009
 20
1556.990877280872
 10
916.9496748144684
 20
1556.991434992047
 10
916.9493957722323
 20
1556.991948350548
 10
916.9490225133502
 20
1556.992397882887
 10
916.9485691968384
 20
1556.992766536731
 10
916.9480530185802
 20
1556.993040327746
 10
916.9474935590248
 20
1556.993208870081
 10
916.9469120404324
 20
1556.993265770334
  0
LINE
  5
412
330
23
100
AcDbEntity
  8
SANINDUSA
100
AcDbLine
 10
916.6876833932219
 20
1556.993265770334
 30
0.0
 11
916.8148758894311
 21
1556.993265770334
 31
0.0
  0
LWPOLYLINE
  5
415
330
23
100
AcDbEntity
  8
SANINDUSA
100
AcDbPolyline
 90
        9
 70
   128
 43
0.0
 10
916.6829040219731
 20
1556.993265770334
 10
916.6823146166132
 20
1556.993207300771
 10
916.6817481861025
 20
1556.993034171209
 10
916.6812268097372
 20
1556.992753130186
 10
916.6807708106162
 20
1556.992375132602
 10
916.6803979634526
 20
1556.991914912691
 10
916.6801228017201
 20
1556.991390409691
 10
916.6799560511424
 20
1556.990822068577
 10
916.6799042116094
 20
1556.990232043119
  0
LINE
  5
416
330
23
100
AcDbEntity
  8
SANINDUSA
100
AcDbLine
 10
916.6829040219731
 20
1556.993265770334
 30
0.0
 11
916.6876833932219
 21
1556.993265770334
 31
0.0
  0
LWPOLYLINE
  5
418
330
23
100
AcDbEntity
  8
SANINDUSA
100
AcDbPolyline
 90
        9
 70
   128
 43
0.0
 10
916.6828401120488
 20
1556.993265770334
 10
916.6822585934562
 20
1556.993208870081
 10
916.6816991339008
 20
1556.993040327746
 10
916.6811829556424
 20
1556.992766536731
 10
916.6807296391308
 20
1556.992397882887
 10
916.6803563802485
 20
1556.991948350548
 10
916.6800773380122
 20
1556.991434992047
 10
916.6799030974717
 20
1556.990877280872
 10
916.6798402681806
 20
1556.990296372961
  0
LWPOLYLINE
  5
424
330
23
100
AcDbEntity
  8
SANINDUSA
100
AcDbPolyline
 90
        6
 70
   128
 43
0.0
 10
918.3667581579459
 20
1556.728584660663
 10
918.3667559151531
 20
1556.728624625326
 10
918.3667858314178
 20
1556.734026270551
 10
918.3678047943756
 20
1556.740861696012
 10
918.3687710771073
 20
1556.744319302147
 10
918.3700506009969
 20
1556.7477224932
  0
LINE
  5
425
330
23
100
AcDbEntity
  8
SANINDUSA
100
AcDbLine
 10
918.3756483073672
 20
1556.728010672149
 30
0.0
 11
918.3756428760617
 21
1556.760361906645
 31
0.0
  0
LWPOLYLINE
  5
429
330
23
100
AcDbEntity
  8
SANINDUSA
100
AcDbPolyline
 90
        6
 70
   128
 43
0.0
 10
918.1145272326251
 20
1556.728584546834
 10
918.1145294753816
 20
1556.728624511499
 10
918.1144995542416
 20
1556.734026156697
 10
918.1134805851144
 20
1556.740861581238
 10
918.1125142992621
 20
1556.744319186501
 10
918.1112347723006
 20
1556.7477223764
  0
LINE
  5
42A
330
23
100
AcDbEntity
  8
SANINDUSA
100
AcDbLine
 10
918.1056424870508
 20
1556.760362753306
 30
0.0
 11
918.1056370832944
 21
1556.72801055029
 31
0.0
  0
LWPOLYLINE
  5
42C
330
23
100
AcDbEntity
  8
SANINDUSA
100
AcDbPolyline
 90
       14
 70
   128
 43
0.0
 10
918.146115995985
 20
1556.724326173016
 10
918.1490180690031
 20
1556.723883759206
 10
918.1530707142597
 20
1556.723323755146
 10
918.1582020110463
 20
1556.722786028774
 10
918.1644063223393
 20
1556.722315944204
 10
918.1715913509071
 20
1556.721873668557
 10
918.1796222202049
 20
1556.721465576356
 10
918.1870289461951
 20
1556.721148957145
 10
918.1949371323506
 20
1556.72086009937
 10
918.203240114243
 20
1556.720602624911
 10
918.2134786587061
 20
1556.720341780913
 10
918.2240923230224
 20
1556.720130110918
 10
918.2348813853424
 20
1556.719972618741
 10
918.240640674051
 20
1556.719911982464
  0
LINE
  5
42E
330
23
100
AcDbEntity
  8
SANINDUSA
100
AcDbLine
 10
918.2406427800042
 20
1556.540858148929
 30
0.0
 11
918.1479597189838
 21
1556.540858065275
 31
0.0
  0
LINE
  5
42F
330
23
100
AcDbEntity
  8
SANINDUSA
100
AcDbLine
 10
918.1056271805234
 20
1556.728010551952
 30
0.0
 11
918.1055130523114
 21
1556.542859261579
 31
0.0
  0
ARC
  5
434
330
23
100
AcDbEntity
  8
SANINDUSA
100
AcDbCircle
 10
918.1075130519314
 20
1556.542858028769
 30
0.0
 40
0.002
100
AcDbArc
 50
179.964682590964
 51
270.0000517128676
  0
LINE
  5
436
330
23
100
AcDbEntity
  8
SANINDUSA
100
AcDbLine
 10
918.1479597189838
 20
1556.540858065275
 30
0.0
 11
918.1354267702054
 21
1556.540858053964
 31
0.0
  0
LINE
  5
438
330
23
100
AcDbEntity
  8
SANINDUSA
100
AcDbLine
 10
918.1354267702054
 20
1556.540858053964
 30
0.0
 11
918.1075130537365
 21
1556.540858028769
 31
0.0
  0
LWPOLYLINE
  5
43A
330
23
100
AcDbEntity
  8
SANINDUSA
100
AcDbPolyline
 90
        4
 70
   128
 43
0.0
 10
918.1336665904847
 20
1556.724839154495
 10
918.1395744242664
 20
1556.724607699396
 10
918.1461161323809
 20
1556.724334165687
 10
918.1461161508682
 20
1556.724334164893
  0
LWPOLYLINE
  5
43C
330
23
100
AcDbEntity
  8
SANINDUSA
100
AcDbPolyline
 90
        8
 70
   128
 43
0.0
 10
918.1145272326251
 20
1556.728584546834
 10
918.1153967673033
 20
1556.728373653871
 10
918.1171597778684
 20
1556.727948729936
 10
918.1206581718676
 20
1556.727176868623
 10
918.124616670271
 20
1556.726390336404
 10
918.128923494498
 20
1556.725613909569
 10
918.1336664763163
 20
1556.724833639334
 10
918.133666486981
 20
1556.724833637655
  0
LWPOLYLINE
  5
43D
330
23
100
AcDbEntity
  8
SANINDUSA
100
AcDbPolyline
 90
       14
 70
   128
 43
0.0
 10
918.3351693984295
 20
1556.724326258334
 10
918.3322673258107
 20
1556.723883841904
 10
918.3282146810595
 20
1556.723323834186
 10
918.3230833847582
 20
1556.722786103184
 10
918.3168790738896
 20
1556.722316013013
 10
918.3096940457209
 20
1556.721873730881
 10
918.3016631767916
 20
1556.721465631432
 10
918.294256451087
 20
1556.721149005536
 10
918.2863482651923
 20
1556.720860140623
 10
918.2780452835322
 20
1556.72060265867
 10
918.2678067393046
 20
1556.720341805431
 10
918.2571930751793
 20
1556.720130125856
 10
918.2464040130016
 20
1556.719972623941
 10
918.2406447243451
 20
1556.719911982466
  0
LINE
  5
43F
330
23
100
AcDbEntity
  8
SANINDUSA
100
AcDbLine
 10
918.3333258410247
 20
1556.540858148929
 30
0.0
 11
918.2406427800042
 21
1556.540858148929
 31
0.0
  0
LINE
  5
440
330
23
100
AcDbEntity
  8
SANINDUSA
100
AcDbLine
 10
918.3757725058908
 20
1556.542859383544
 30
0.0
 11
918.3756582105658
 21
1556.728010673819
 31
0.0
  0
LINE
  5
443
330
23
100
AcDbEntity
  8
SANINDUSA
100
AcDbLine
 10
918.3458590177847
 20
1556.540858148929
 30
0.0
 11
918.3333258410247
 21
1556.540858148929
 31
0.0
  0
ARC
  5
446
330
23
100
AcDbEntity
  8
SANINDUSA
100
AcDbCircle
 10
918.3737725062719
 20
1556.542858148929
 30
0.0
 40
0.002
100
AcDbArc
 50
270.0
 51
0.0353691284275165
  0
LINE
  5
449
330
23
100
AcDbEntity
  8
SANINDUSA
100
AcDbLine
 10
918.3737725062719
 20
1556.540858148929
 30
0.0
 11
918.3458590177847
 21
1556.540858148929
 31
0.0
  0
LWPOLYLINE
  5
44B
330
23
100
AcDbEntity
  8
SANINDUSA
100
AcDbPolyline
 90
        4
 70
   128
 43
0.0
 10
918.3476188034669
 20
1556.724839251049
 10
918.341710969894
 20
1556.724607790618
 10
918.3351692620263
 20
1556.724334251004
 10
918.335169243539
 20
1556.724334250211
  0
LWPOLYLINE
  5
44D
330
23
100
AcDbEntity
  8
SANINDUSA
100
AcDbPolyline
 90
        8
 70
   128
 43
0.0
 10
918.3667581579459
 20
1556.728584660663
 10
918.365888623458
 20
1556.728373766915
 10
918.3641256132764
 20
1556.727948841388
 10
918.3606272199739
 20
1556.727176976919
 10
918.3566687222805
 20
1556.726390441126
 10
918.3523618987543
 20
1556.725614010404
 10
918.3476189176401
 20
1556.724833735888
 10
918.3476189069756
 20
1556.72483373421
  0
LWPOLYLINE
  5
44F
330
23
100
AcDbEntity
  8
SANINDUSA
100
AcDbPolyline
 90
        9
 70
   128
 43
0.0
 10
918.2406425912608
 20
1556.959090691247
 10
918.2303845219589
 20
1556.958960383666
 10
918.2201264519189
 20
1556.958569229047
 10
918.204989736531
 20
1556.957512538762
 10
918.189954320122
 20
1556.955895781051
 10
918.1750883643911
 20
1556.953734822637
 10
918.1600139311623
 20
1556.950959150635
 10
918.1451799030149
 20
1556.947644873267
 10
918.1306437311194
 20
1556.943822009366
  0
LWPOLYLINE
  5
451
330
23
100
AcDbEntity
  8
SANINDUSA
100
AcDbPolyline
 90
       16
 70
   128
 43
0.0
 10
918.2406396059555
 20
1556.748110173391
 10
918.240639545958
 20
1556.748110173219
 10
918.2345581496914
 20
1556.748089431627
 10
918.2257836103252
 20
1556.748047325392
 10
918.2170961229349
 20
1556.747990810517
 10
918.2085925994826
 20
1556.747919976178
 10
918.2003699519293
 20
1556.747834911547
 10
918.1915043494775
 20
1556.747721545514
 10
918.1830935667534
 20
1556.747588853568
 10
918.1752562115617
 20
1556.747437030113
 10
918.1668817573816
 20
1556.747233366847
 10
918.1594520356819
 20
1556.747001086203
 10
918.1531104656951
 20
1556.746741293144
 10
918.1481368001204
 20
1556.746465945814
 10
918.1442581130477
 20
1556.746163934228
 10
918.1415431764298
 20
1556.745837603046
  0
LINE
  5
452
330
23
100
AcDbEntity
  8
SANINDUSA
100
AcDbLine
 10
918.2406426017452
 20
1556.935858148929
 30
0.0
 11
918.0812188943765
 21
1556.935858005037
 31
0.0
  0
LWPOLYLINE
  5
455
330
23
100
AcDbEntity
  8
SANINDUSA
100
AcDbPolyline
 90
        9
 70
   128
 43
0.0
 10
918.1009787348072
 20
1556.770981759829
 10
918.0902878070829
 20
1556.796733858659
 10
918.0804606599343
 20
1556.822770627911
 10
918.0715311860769
 20
1556.849091545544
 10
918.0634896217107
 20
1556.875726112849
 10
918.0570969264739
 20
1556.899641966751
 10
918.0506024334883
 20
1556.927255357161
 42
-0.4836073692165285
 10
918.0574165000086
 20
1556.935857983553
 10
918.0812188943765
 20
1556.935858005037
  0
LWPOLYLINE
  5
456
330
23
100
AcDbEntity
  8
SANINDUSA
100
AcDbPolyline
 90
        8
 70
   128
 43
0.0
 10
918.1009787348072
 20
1556.770981759829
 10
918.1010365175586
 20
1556.770849152971
 10
918.1031665832527
 20
1556.765986805628
 10
918.1051464568877
 20
1556.761487154732
 10
918.1072481809687
 20
1556.756722965514
 10
918.1087769118281
 20
1556.753262107403
 10
918.1100630623365
 20
1556.750334926067
 10
918.1111096068166
 20
1556.747927597019
  0
LWPOLYLINE
  5
45C
330
23
100
AcDbEntity
  8
SANINDUSA
100
AcDbPolyline
 90
        6
 70
   128
 43
0.0
 10
918.1291691617305
 20
1556.74550051098
 10
918.1245693017633
 20
1556.745909585869
 10
918.120379497968
 20
1556.74635934909
 10
918.1165020261261
 20
1556.746859771655
 10
918.1130622903056
 20
1556.747393487129
 10
918.1112347723006
 20
1556.7477223764
  0
LWPOLYLINE
  5
45E
330
23
100
AcDbEntity
  8
SANINDUSA
100
AcDbPolyline
 90
        4
 70
   128
 43
0.0
 10
918.1414717910405
 20
1556.745849082084
 10
918.1414717790802
 20
1556.745849081736
 10
918.1348734718474
 20
1556.74565926893
 10
918.1291691617305
 20
1556.74550051098
  0
LWPOLYLINE
  5
463
330
23
100
AcDbEntity
  8
SANINDUSA
100
AcDbPolyline
 90
        3
 70
   128
 43
0.0
 10
918.1124982063426
 20
1556.938221577919
 10
918.1095378208224
 20
1556.936636583397
 10
918.1088242900083
 20
1556.935858029953
  0
LWPOLYLINE
  5
467
330
23
100
AcDbEntity
  8
SANINDUSA
100
AcDbPolyline
 90
        5
 70
   128
 43
0.0
 10
918.1190400805853
 20
1556.940348616349
 10
918.1168481742915
 20
1556.939649648024
 10
918.1150918436232
 20
1556.939079627689
 10
918.1133671695148
 20
1556.938511224939
 10
918.1124982063426
 20
1556.938221577919
  0
LWPOLYLINE
  5
469
330
23
100
AcDbEntity
  8
SANINDUSA
100
AcDbPolyline
 90
        3
 70
   128
 43
0.0
 10
918.1306437311194
 20
1556.943822009366
 10
918.1247637493076
 20
1556.942109313012
 10
918.1190400805853
 20
1556.940348616349
  0
LWPOLYLINE
  5
46A
330
23
100
AcDbEntity
  8
SANINDUSA
100
AcDbPolyline
 90
       16
 70
   128
 43
0.0
 10
918.2406457669921
 20
1556.748110173393
 10
918.2406458269896
 20
1556.748110173222
 10
918.246727223275
 20
1556.748089437119
 10
918.2555017626791
 20
1556.748047338803
 10
918.2641892501203
 20
1556.74799083177
 10
918.2726927736368
 20
1556.747920005105
 10
918.2809154212668
 20
1556.747834947896
 10
918.2897810238209
 20
1556.747721589865
 10
918.2981918066648
 20
1556.74758890551
 10
918.3060291619936
 20
1556.747437089129
 10
918.3144036163575
 20
1556.747233433422
 10
918.3218333382667
 20
1556.747001159484
 10
918.3281749084882
 20
1556.746741372149
 10
918.3331485743112
 20
1556.746466029307
 10
918.3370272616565
 20
1556.746164021222
 10
918.339742198569
 20
1556.745837692491
  0
LWPOLYLINE
  5
46B
330
23
100
AcDbEntity
  8
SANINDUSA
100
AcDbPolyline
 90
        6
 70
   128
 43
0.0
 10
918.3521162135726
 20
1556.745500611593
 10
918.3567160731705
 20
1556.745909690634
 10
918.3609058765599
 20
1556.746359457637
 10
918.3647833479501
 20
1556.746859883701
 10
918.3682230832889
 20
1556.747393602281
 10
918.3700506009969
 20
1556.7477224932
  0
LWPOLYLINE
  5
46C
330
23
100
AcDbEntity
  8
SANINDUSA
100
AcDbPolyline
 90
        5
 70
   128
 43
0.0
 10
918.3700506009969
 20
1556.7477224932
 10
918.3716057131825
 20
1556.751288798642
 10
918.3732121651024
 20
1556.754942164786
 10
918.3765250087727
 20
1556.762453544941
 10
918.3803062332815
 20
1556.771069998745
  0
LWPOLYLINE
  5
46E
330
23
100
AcDbEntity
  8
SANINDUSA
100
AcDbPolyline
 90
        4
 70
   128
 43
0.0
 10
918.339813583948
 20
1556.745849171593
 10
918.3398135959082
 20
1556.745849171245
 10
918.3464119033123
 20
1556.745659364395
 10
918.3521162135726
 20
1556.745500611593
  0
LWPOLYLINE
  5
46F
330
23
100
AcDbEntity
  8
SANINDUSA
100
AcDbPolyline
 90
        9
 70
   128
 43
0.0
 10
918.2406425912608
 20
1556.959090691247
 10
918.2509006606803
 20
1556.958960392925
 10
918.2611587310734
 20
1556.958569247564
 10
918.2762954474149
 20
1556.957512570942
 10
918.2913308652832
 20
1556.955895826801
 10
918.3061968229646
 20
1556.953734881805
 10
918.3212712586986
 20
1556.950959223409
 10
918.3361052898375
 20
1556.947644959429
 10
918.3506414651834
 20
1556.943822108648
  0
LWPOLYLINE
  5
477
330
23
100
AcDbEntity
  8
SANINDUSA
100
AcDbPolyline
 90
        3
 70
   128
 43
0.0
 10
918.3506414651834
 20
1556.943822108648
 10
918.3565214485408
 20
1556.942109417601
 10
918.3622451188524
 20
1556.940348726104
  0
LWPOLYLINE
  5
47A
330
23
100
AcDbEntity
  8
SANINDUSA
100
AcDbPolyline
 90
        3
 70
   128
 43
0.0
 10
918.3724609134825
 20
1556.935858148929
 10
918.3717473819655
 20
1556.936636701729
 10
918.368786995015
 20
1556.93822169358
  0
LWPOLYLINE
  5
47F
330
23
100
AcDbEntity
  8
SANINDUSA
100
AcDbPolyline
 90
        5
 70
   128
 43
0.0
 10
918.3622451188524
 20
1556.940348726104
 10
918.364437025777
 20
1556.939649759758
 10
918.3661933569599
 20
1556.939079741008
 10
918.3679180315813
 20
1556.938511339815
 10
918.368786995015
 20
1556.93822169358
  0
ARC
  5
481
330
23
100
AcDbEntity
  8
SANINDUSA
100
AcDbCircle
 10
918.9228435367901
 20
1556.945020369871
 30
0.0
 40
0.0092290742697887
100
AcDbArc
 50
218.0806936158546
 51
263.0642760981458
  0
LINE
  5
483
330
23
100
AcDbEntity
  8
SANINDUSA
  6
Continuous
100
AcDbLine
 10
918.8191410590871
 20
1556.9450907622
 30
0.0
 11
918.8191410590871
 21
1556.9243581509
 31
0.0
  0
ARC
  5
484
330
23
100
AcDbEntity
  8
SANINDUSA
100
AcDbCircle
 10
918.9674272171995
 20
1556.928359589118
 30
0.0
 40
0.0075000005231149
100
AcDbArc
 50
0.9999522174998384
 51
89.99995287934451
  0
ARC
  5
485
330
23
100
AcDbEntity
  8
SANINDUSA
100
AcDbCircle
 10
918.9049755589239
 20
1556.941858393012
 30
0.0
 40
0.006000000000018
100
AcDbArc
 50
195.0001129370269
 51
269.5814204975233
  0
LWPOLYLINE
  5
486
330
23
100
AcDbEntity
  8
SANINDUSA
100
AcDbPolyline
 90
        8
 70
   128
 43
0.0
 10
918.8211759639001
 20
1556.858323850036
 10
918.9289862885418
 20
1556.855879715106
 42
-0.330130793405528
 10
918.9336882440034
 20
1556.852227506213
 10
918.9373442419444
 20
1556.83915319097
 10
918.9421675028091
 20
1556.824839245344
 10
918.9470553538802
 20
1556.812406130771
 10
918.9524991319368
 20
1556.800246913155
 10
918.9559786233061
 20
1556.793185695237
  0
LINE
  5
488
330
23
100
AcDbEntity
  8
SANINDUSA
  6
Continuous
100
AcDbLine
 10
918.8611410590871
 20
1556.8683581509
 30
0.0
 11
918.9240735497923
 21
1556.8683581509
 31
0.0
  0
LINE
  5
489
330
23
100
AcDbEntity
  8
SANINDUSA
100
AcDbLine
 10
918.8611410601241
 20
1556.923859659504
 30
0.0
 11
918.9645879800194
 21
1556.923859605864
 31
0.0
  0
LINE
  5
490
330
23
100
AcDbEntity
  8
SANINDUSA
  6
Continuous
100
AcDbLine
 10
918.8164109017813
 20
1556.580171260322
 30
0.0
 11
918.7856720245116
 21
1556.572486541005
 31
0.0
  0
LWPOLYLINE
  5
491
330
23
100
AcDbEntity
  8
SANINDUSA
  6
Continuous
100
AcDbPolyline
 90
       11
 70
   128
 43
0.0
 10
918.8060086145238
 20
1556.567262924444
 10
918.7949146845767
 20
1556.564489441957
 42
0.3441549656710466
 10
918.7941572202019
 20
1556.563519284314
 10
918.7941572327698
 20
1556.562689359878
 10
918.7941572554237
 20
1556.561078646872
 10
918.7941572763422
 20
1556.559467933866
 10
918.7941572836171
 20
1556.558857087679
 42
0.4141739494045058
 10
918.7951571602779
 20
1556.557857099596
 10
918.8053214098086
 20
1556.557855845945
 42
0.3782776985915756
 10
918.8063138110248
 20
1556.558731811202
 10
918.8072434280256
 20
1556.566168747209
  0
ARC
  5
492
330
23
100
AcDbEntity
  8
SANINDUSA
  6
Continuous
100
AcDbCircle
 10
918.8062511501488
 20
1556.566292781944
 30
0.0
 40
0.001
100
AcDbArc
 50
352.8749836470585
 51
104.0362434679264
  0
ARC
  5
494
330
23
100
AcDbEntity
  8
SANINDUSA
  6
Continuous
100
AcDbCircle
 10
918.78615709571
 20
1556.570546255623
 30
0.0
 40
0.0020000003571515
100
AcDbArc
 50
104.0362393856645
 51
180.0
  0
LINE
  5
495
330
23
100
AcDbEntity
  8
SANINDUSA
  6
Continuous
100
AcDbLine
 10
918.7841573648981
 20
1556.549857727758
 30
0.0
 11
918.7841570953533
 21
1556.570546215808
 31
0.0
  0
ARC
  5
49A
330
23
100
AcDbEntity
  8
SANINDUSA
  6
Continuous
100
AcDbCircle
 10
918.8168108027156
 20
1556.578209682743
 30
0.0
 40
0.002
100
AcDbArc
 50
352.8749836470585
 51
104.0362434679264
  0
LINE
  5
49B
330
23
100
AcDbEntity
  8
SANINDUSA
  6
Continuous
100
AcDbLine
 10
918.8152509545323
 20
1556.54960638178
 30
0.0
 11
918.8187953584691
 21
1556.577961613274
 31
0.0
  0
LINE
  5
49C
330
23
100
AcDbEntity
  8
SANINDUSA
  6
Continuous
100
AcDbLine
 10
918.8201410590872
 20
1556.9233581509
 30
0.0
 11
918.8471410590871
 21
1556.9233581509
 31
0.0
  0
LINE
  5
49D
330
23
100
AcDbEntity
  8
SANINDUSA
  6
Continuous
100
AcDbLine
 10
918.8201410590872
 20
1556.8683581509
 30
0.0
 11
918.8471410590871
 21
1556.8683581509
 31
0.0
  0
LINE
  5
49E
330
23
100
AcDbEntity
  8
SANINDUSA
100
AcDbLine
 10
918.8191410590871
 20
1556.8678581509
 30
0.0
 11
918.8191410590871
 21
1556.9238581509
 31
0.0
  0
ARC
  5
49F
330
23
100
AcDbEntity
  8
SANINDUSA
  6
Continuous
100
AcDbCircle
 10
918.8211410590872
 20
1556.860323545426
 30
0.0
 40
0.0019999999999999
100
AcDbArc
 50
180.0
 51
269.0000000030781
  0
ARC
  5
4A0
330
23
100
AcDbEntity
  8
SANINDUSA
  6
Continuous
100
AcDbCircle
 10
918.8201410590872
 20
1556.8673581509
 30
0.0
 40
0.0010000000000001
100
AcDbArc
 50
90.0
 51
180.0
  0
LINE
  5
4A1
330
23
100
AcDbEntity
  8
SANINDUSA
  6
Continuous
100
AcDbLine
 10
918.8191410590871
 20
1556.860323545426
 30
0.0
 11
918.8191410590871
 21
1556.8673581509
 31
0.0
  0
ARC
  5
4A2
330
23
100
AcDbEntity
  8
SANINDUSA
  6
Continuous
100
AcDbCircle
 10
918.8201410590872
 20
1556.9243581509
 30
0.0
 40
0.0010000000000001
100
AcDbArc
 50
180.0
 51
270.0
  0
LINE
  5
4A5
330
23
100
AcDbEntity
  8
SANINDUSA
  6
Continuous
100
AcDbLine
 10
918.8581410590872
 20
1556.8783581509
 30
0.0
 11
918.8501410590871
 21
1556.8783581509
 31
0.0
  0
ARC
  5
4A6
330
23
100
AcDbEntity
  8
SANINDUSA
  6
Continuous
100
AcDbCircle
 10
918.8471410590871
 20
1556.8703581509
 30
0.0
 40
0.002
100
AcDbArc
 50
270.0
 51
0.0
  0
LINE
  5
4A7
330
23
100
AcDbEntity
  8
SANINDUSA
  6
Continuous
100
AcDbLine
 10
918.8491410590872
 20
1556.8773581509
 30
0.0
 11
918.8491410590872
 21
1556.8703581509
 31
0.0
  0
ARC
  5
4A8
330
23
100
AcDbEntity
  8
SANINDUSA
  6
Continuous
100
AcDbCircle
 10
918.8501410590871
 20
1556.8773581509
 30
0.0
 40
0.0010000000000001
100
AcDbArc
 50
90.0
 51
180.0
  0
LINE
  5
4A9
330
23
100
AcDbEntity
  8
SANINDUSA
  6
Continuous
100
AcDbLine
 10
918.8591410590872
 20
1556.8773581509
 30
0.0
 11
918.8591410590872
 21
1556.8703581509
 31
0.0
  0
ARC
  5
4AA
330
23
100
AcDbEntity
  8
SANINDUSA
  6
Continuous
100
AcDbCircle
 10
918.8611410590871
 20
1556.8703581509
 30
0.0
 40
0.002
100
AcDbArc
 50
180.0
 51
270.0
  0
ARC
  5
4AB
330
23
100
AcDbEntity
  8
SANINDUSA
  6
Continuous
100
AcDbCircle
 10
918.8581410590872
 20
1556.8773581509
 30
0.0
 40
0.0010000000000002
100
AcDbArc
 50
0.0
 51
90.0
  0
LINE
  5
4AC
330
23
100
AcDbEntity
  8
SANINDUSA
  6
Continuous
100
AcDbLine
 10
918.8501410590871
 20
1556.9133581509
 30
0.0
 11
918.8581410590872
 21
1556.9133581509
 31
0.0
  0
ARC
  5
4AD
330
23
100
AcDbEntity
  8
SANINDUSA
  6
Continuous
100
AcDbCircle
 10
918.8471410590871
 20
1556.9213581509
 30
0.0
 40
0.002
100
AcDbArc
 50
0.0
 51
90.0
  0
ARC
  5
4AE
330
23
100
AcDbEntity
  8
SANINDUSA
  6
Continuous
100
AcDbCircle
 10
918.8501410590871
 20
1556.9143581509
 30
0.0
 40
0.0010000000000001
100
AcDbArc
 50
180.0
 51
270.0
  0
LINE
  5
4AF
330
23
100
AcDbEntity
  8
SANINDUSA
  6
Continuous
100
AcDbLine
 10
918.8491410590872
 20
1556.9213581509
 30
0.0
 11
918.8491410590872
 21
1556.9143581509
 31
0.0
  0
ARC
  5
4B0
330
23
100
AcDbEntity
  8
SANINDUSA
100
AcDbCircle
 10
918.8611410590871
 20
1556.921859659504
 30
0.0
 40
0.002
100
AcDbArc
 50
89.99997029066772
 51
180.0
  0
ARC
  5
4B1
330
23
100
AcDbEntity
  8
SANINDUSA
  6
Continuous
100
AcDbCircle
 10
918.8581410590872
 20
1556.9143581509
 30
0.0
 40
0.0010000000000002
100
AcDbArc
 50
270.0
 51
0.0
  0
LINE
  5
4B2
330
23
100
AcDbEntity
  8
SANINDUSA
  6
Continuous
100
AcDbLine
 10
918.8591410590872
 20
1556.921859659504
 30
0.0
 11
918.8591410590872
 21
1556.9143581509
 31
0.0
  0
LINE
  5
4B3
330
23
100
AcDbEntity
  8
SANINDUSA
100
AcDbLine
 10
918.8841564144198
 20
1556.775858390579
 30
0.0
 11
918.8841565046748
 21
1556.675861308266
 31
0.0
  0
ARC
  5
4B5
330
23
100
AcDbEntity
  8
SANINDUSA
100
AcDbCircle
 10
919.0309603668959
 20
1556.808161945788
 30
0.0
 40
0.0726068069989413
100
AcDbArc
 50
212.6060083649158
 51
255.5359061234734
  0
LWPOLYLINE
  5
4B9
330
23
100
AcDbEntity
  8
SANINDUSA
100
AcDbPolyline
 90
       24
 70
   128
 43
0.0
 10
918.9735476504468
 20
1556.890859584286
 10
918.9388210853863
 20
1556.890859615461
 42
0.4540964601699538
 10
918.936837178197
 20
1556.88860600198
 10
918.9373638758869
 20
1556.884705576716
 10
918.9407662086315
 20
1556.86561178306
 10
918.9455099328711
 20
1556.846757153727
 10
918.951556754931
 20
1556.828280458007
 10
918.9569215596945
 20
1556.814752979361
 10
918.9629669103746
 20
1556.801567341038
 10
918.9696604766041
 20
1556.788773950374
 10
918.9769596712974
 20
1556.776416923281
 10
918.9809700138534
 20
1556.770475342745
 10
918.9856831465776
 20
1556.764922950133
 10
918.9910979660973
 20
1556.759885663078
 10
918.997132926477
 20
1556.755479603274
 10
919.0036668726131
 20
1556.751816982806
 10
919.0227605155826
 20
1556.743932587842
 42
-0.2423128289840848
 10
919.0405321221057
 20
1556.722992387841
 10
919.0418220942369
 20
1556.71743975366
 10
919.0435854981465
 20
1556.707579214436
 10
919.0451168342379
 20
1556.697667839183
 10
919.0466850994257
 20
1556.687768015102
 10
919.0519190805707
 20
1556.655618855865
 10
919.0567161803441
 20
1556.62840884621
  0
ARC
  5
4BD
330
23
100
AcDbEntity
  8
SANINDUSA
100
AcDbCircle
 10
919.0389369056582
 20
1556.642860024294
 30
0.0
 40
0.0800000000000658
100
AcDbArc
 50
197.0533633615976
 51
270.0000495698353
  0
LINE
  5
4BF
330
23
100
AcDbEntity
  8
SANINDUSA
100
AcDbLine
 10
918.9377737556817
 20
1556.665758342424
 30
0.0
 11
918.9528940224121
 21
1556.616466421988
 31
0.0
  0
LINE
  5
4C0
330
23
100
AcDbEntity
  8
SANINDUSA
100
AcDbLine
 10
918.9471552580844
 20
1556.669273909682
 30
0.0
 11
918.9624543436123
 21
1556.619399044636
 31
0.0
  0
LINE
  5
4C1
330
23
100
AcDbEntity
  8
SANINDUSA
100
AcDbLine
 10
918.8851389008819
 20
1556.674844007295
 30
0.0
 11
918.9273615044927
 21
1556.673458025986
 31
0.0
  0
LINE
  5
4C2
330
23
100
AcDbEntity
  8
SANINDUSA
100
AcDbLine
 10
918.8853134159218
 20
1556.684842505451
 30
0.0
 11
918.9283836221106
 21
1556.683405652616
 31
0.0
  0
LINE
  5
4C3
330
23
100
AcDbEntity
  8
SANINDUSA
100
AcDbLine
 10
918.8841565046748
 20
1556.675861308266
 30
0.0
 11
918.8842961167068
 21
1556.683860106732
 31
0.0
  0
ARC
  5
4C4
330
23
100
AcDbEntity
  8
SANINDUSA
100
AcDbCircle
 10
918.8851563531581
 20
1556.675843855782
 30
0.0
 40
0.0010000007892478
100
AcDbArc
 50
178.9999962897681
 51
269.0000082507635
  0
ARC
  5
4C5
330
23
100
AcDbEntity
  8
SANINDUSA
100
AcDbCircle
 10
918.8852959658301
 20
1556.683842656322
 30
0.0
 40
0.0010000013930606
100
AcDbArc
 50
89.00013404453222
 51
179.0001157966541
  0
LWPOLYLINE
  5
4C8
330
23
100
AcDbEntity
  8
SANINDUSA
100
AcDbPolyline
 90
        8
 70
   128
 43
0.0
 10
918.9283836221106
 20
1556.683405652616
 10
918.9317354984657
 20
1556.683061247664
 10
918.9349830518711
 20
1556.682162867439
 10
918.9380319786819
 20
1556.680728387329
 10
918.9407990952183
 20
1556.678805692827
 10
918.9432013347921
 20
1556.676442861665
 10
918.9451760475659
 20
1556.673712617068
 10
918.9471552580844
 20
1556.669273909682
  0
LWPOLYLINE
  5
4C9
330
23
100
AcDbEntity
  8
SANINDUSA
100
AcDbPolyline
 90
        8
 70
   128
 43
0.0
 10
918.9273615044927
 20
1556.673458025986
 10
918.9298783482318
 20
1556.67319942055
 10
918.9314962503699
 20
1556.672751855535
 10
918.9330152001634
 20
1556.672037209562
 10
918.9343937551555
 20
1556.671079338771
 10
918.935590533038
 20
1556.669902193867
 10
918.9364653382616
 20
1556.668692685189
 10
918.9377737556817
 20
1556.665758342424
  0
LWPOLYLINE
  5
4CF
330
23
100
AcDbEntity
  8
SANINDUSA
100
AcDbPolyline
 90
        3
 70
   128
 43
0.0
 10
919.0313147069337
 20
1556.717294427211
 10
919.0407188728954
 20
1556.666927697294
 10
919.0466130293632
 20
1556.628405654749
  0
LINE
  5
4D5
330
23
100
AcDbEntity
  8
SANINDUSA
100
AcDbLine
 10
919.0389369748727
 20
1556.562860024294
 30
0.0
 11
919.0530006174215
 21
1556.562860036988
 31
0.0
  0
LINE
  5
4D6
330
23
100
AcDbEntity
  8
SANINDUSA
100
AcDbLine
 10
919.0389369838985
 20
1556.552860024209
 30
0.0
 11
919.0530006264474
 21
1556.552860036818
 31
0.0
  0
LINE
  5
4D7
330
23
100
AcDbEntity
  8
SANINDUSA
100
AcDbLine
 10
919.0466130293632
 20
1556.628405666745
 30
0.0
 11
919.0567166717514
 21
1556.628405675865
 31
0.0
  0
ARC
  5
4DA
330
23
100
AcDbEntity
  8
SANINDUSA
100
AcDbCircle
 10
919.0065819850902
 20
1556.713648543201
 30
0.0
 40
0.025
100
AcDbArc
 50
8.38565604459492
 51
75.53871376425637
  0
LINE
  5
4E3
330
23
100
AcDbEntity
  8
SANINDUSA
100
AcDbLine
 10
918.9697966908244
 20
1556.769037105188
 30
0.0
 11
918.8853133418792
 21
1556.766877195483
 31
0.0
  0
LINE
  5
4E4
330
23
100
AcDbEntity
  8
SANINDUSA
100
AcDbLine
 10
918.9472442418299
 20
1556.778645055822
 30
0.0
 11
918.8851388087904
 21
1556.776875693324
 31
0.0
  0
LWPOLYLINE
  5
4E5
330
23
100
AcDbEntity
  8
SANINDUSA
100
AcDbPolyline
 90
        7
 70
   128
 43
0.0
 10
918.8841564144198
 20
1556.775858390579
 10
918.8841651333845
 20
1556.776008749648
 10
918.8842649972617
 20
1556.776329327884
 10
918.8844653448684
 20
1556.776598779043
 10
918.884743588195
 20
1556.776786724327
 10
918.88506835705
 20
1556.776871974497
 10
918.8851388087904
 20
1556.776875693324
  0
LINE
  5
4E6
330
23
100
AcDbEntity
  8
SANINDUSA
100
AcDbLine
 10
918.8842960408909
 20
1556.767859592365
 30
0.0
 11
918.8841564144198
 21
1556.775858390579
 31
0.0
  0
ARC
  5
4E7
330
23
100
AcDbEntity
  8
SANINDUSA
100
AcDbCircle
 10
918.8852958895875
 20
1556.767877044171
 30
0.0
 40
0.0010000009907424
100
AcDbArc
 50
180.9999645825152
 51
270.9999924398189
  0
ARC
  5
4E8
330
23
100
AcDbEntity
  8
SANINDUSA
100
AcDbCircle
 10
918.9470698548804
 20
1556.788643427505
 30
0.0
 40
0.009999975790673
100
AcDbArc
 50
270.9999681266065
 51
27.01472103265966
  0
LWPOLYLINE
  5
4EA
330
23
100
AcDbEntity
  8
SANINDUSA
100
AcDbPolyline
 90
        5
 70
   128
 43
0.0
 10
918.9653911375684
 20
1556.900859591479
 10
918.9365260831218
 20
1556.900859617532
 42
0.4544316119783195
 10
918.9266175126642
 20
1556.889510391698
 10
918.9274635418497
 20
1556.883297249357
 10
918.9290035344678
 20
1556.874191968086
  0
ARC
  5
4EB
330
23
100
AcDbEntity
  8
SANINDUSA
100
AcDbCircle
 10
918.9240735497923
 20
1556.8733581509
 30
0.0
 40
0.005
100
AcDbArc
 50
270.0
 51
9.59969146423068
  0
LINE
  5
4EC
330
23
100
AcDbEntity
  8
SANINDUSA
100
AcDbLine
 10
918.9645879804965
 20
1556.923859592204
 30
0.0
 11
918.9653911375684
 21
1556.900859591479
 31
0.0
  0
ARC
  5
4F2
330
23
100
AcDbEntity
  8
SANINDUSA
100
AcDbCircle
 10
918.9735476522519
 20
1556.892859584286
 30
0.0
 40
0.0019999999999996
100
AcDbArc
 50
269.9999482871324
 51
0.9999482826415444
  0
LINE
  5
4F3
330
23
100
AcDbEntity
  8
SANINDUSA
100
AcDbLine
 10
918.9755473476738
 20
1556.892894487294
 30
0.0
 11
918.974926049516
 21
1556.928490476091
 31
0.0
  0
LINE
  5
4F6
330
23
100
AcDbEntity
  8
SANINDUSA
100
AcDbLine
 10
918.8903097871394
 20
1556.959090906418
 30
0.0
 11
918.7821410531739
 21
1556.959090693213
 31
0.0
  0
LINE
  5
4F7
330
23
100
AcDbEntity
  8
SANINDUSA
100
AcDbLine
 10
918.8171410551451
 20
1556.947090762199
 30
0.0
 11
918.7791410768264
 21
1556.9470906873
 31
0.0
  0
ARC
  5
4F8
330
23
100
AcDbEntity
  8
SANINDUSA
100
AcDbCircle
 10
918.7821410590871
 20
1556.956090693213
 30
0.0
 40
0.0030000000000298
100
AcDbArc
 50
90.00011293584808
 51
180.0
  0
ARC
  5
4F9
330
23
100
AcDbEntity
  8
SANINDUSA
100
AcDbCircle
 10
918.8171410590872
 20
1556.9450907622
 30
0.0
 40
0.002
100
AcDbArc
 50
0.0
 51
90.00011292933429
  0
LINE
  5
4FE
330
23
100
AcDbEntity
  8
SANINDUSA
100
AcDbLine
 10
918.9674272171995
 20
1556.935859589642
 30
0.0
 11
918.9049317257708
 21
1556.935858553126
 31
0.0
  0
LINE
  5
4FF
330
23
100
AcDbEntity
  8
SANINDUSA
100
AcDbLine
 10
918.8991800070271
 20
1556.940305467318
 30
0.0
 11
918.8951394235752
 21
1556.955385011163
 31
0.0
  0
LWPOLYLINE
  5
500
330
23
100
AcDbEntity
  8
SANINDUSA
100
AcDbPolyline
 90
       20
 70
   128
 43
0.0
 10
918.9109947220256
 20
1556.942763811469
 10
918.9090233700529
 20
1556.944468048128
 10
918.9063703107199
 20
1556.946764570238
 10
918.9039859226609
 20
1556.948830836382
 10
918.9018691173281
 20
1556.95066689944
 10
918.8999963888049
 20
1556.952292480675
 10
918.8983594957774
 20
1556.953714382553
 10
918.8969615300665
 20
1556.954929594604
 10
918.8958046897536
 20
1556.955935886612
 10
918.8948903658282
 20
1556.956731735769
 10
918.8942191544539
 20
1556.957316318183
 10
918.8937907524588
 20
1556.957689601901
 10
918.8936006155472
 20
1556.957855259286
 10
918.893585670437
 20
1556.95786824182
 10
918.8935685722919
 20
1556.957883000862
 10
918.8935490080327
 20
1556.95789972868
 10
918.8935156439058
 20
1556.957927858747
 10
918.8934804454992
 20
1556.957957001813
 10
918.8933779732206
 20
1556.958038835274
 10
918.8932940989069
 20
1556.958098900707
  0
ARC
  5
502
330
23
100
AcDbEntity
  8
SANINDUSA
100
AcDbCircle
 10
918.8903097969944
 20
1556.954090906418
 30
0.0
 40
0.0050000000001248
100
AcDbArc
 50
15.00011293702688
 51
90.00011292933429
  0
LWPOLYLINE
  5
503
330
23
100
AcDbEntity
  8
SANINDUSA
100
AcDbPolyline
 90
        4
 70
   128
 43
0.0
 10
918.9155789365637
 20
1556.939328147508
 10
918.9129800371505
 20
1556.941161050038
 10
918.9113978732409
 20
1556.942422222851
 10
918.9109784634235
 20
1556.942787329764
  0
ARC
  5
507
330
23
100
AcDbEntity
  8
SANINDUSA
100
AcDbCircle
 10
919.3444307527972
 20
1556.928859245877
 30
0.0
 40
0.007
100
AcDbArc
 50
335.9842651202979
 51
89.99994828713244
  0
ARC
  5
508
330
23
100
AcDbEntity
  8
SANINDUSA
100
AcDbCircle
 10
919.3021675244992
 20
1556.928359281763
 30
0.0
 40
0.0075000057500235
100
AcDbArc
 50
89.99992047330897
 51
178.9999051220183
  0
LWPOLYLINE
  5
509
330
23
100
AcDbEntity
  8
SANINDUSA
100
AcDbPolyline
 90
       17
 70
   128
 43
0.0
 10
919.3192988386268
 20
1556.887946350938
 10
919.3126999466928
 20
1556.875339299847
 10
919.3058965935851
 20
1556.862844608109
 10
919.2988903196553
 20
1556.85046475097
 10
919.2916826206236
 20
1556.83820220372
 10
919.2842750070612
 20
1556.826059431502
 10
919.2764689197396
 20
1556.814125328288
 10
919.2688108953888
 20
1556.804209472918
 10
919.2602892854861
 20
1556.79477814898
 10
919.2509481095321
 20
1556.785941130613
 10
919.2408426842524
 20
1556.777805541757
 10
919.2300567382366
 20
1556.77046646606
 10
919.2186926851917
 20
1556.763998525984
 10
919.2068560092943
 20
1556.758472309661
 10
919.1946641372592
 20
1556.753933002372
 10
919.1822410171269
 20
1556.750401381037
 10
919.1732242117367
 20
1556.748492409396
  0
ARC
  5
50A
330
23
100
AcDbEntity
  8
SANINDUSA
100
AcDbCircle
 10
918.5469850531244
 20
1557.284167389167
 30
0.0
 40
0.8800197710333456
100
AcDbArc
 50
322.472567801645
 51
335.9842651202979
  0
ARC
  5
50B
330
23
100
AcDbEntity
  8
SANINDUSA
100
AcDbCircle
 10
919.1439915441781
 20
1556.908660983082
 30
0.0
 40
0.1728143497820327
100
AcDbArc
 50
280.3419146894977
 51
294.6357535228854
  0
LWPOLYLINE
  5
50D
330
23
100
AcDbEntity
  8
SANINDUSA
100
AcDbPolyline
 90
        9
 70
   128
 43
0.0
 10
919.1732241969361
 20
1556.748492432785
 10
919.1687826222286
 20
1556.747345751168
 10
919.1646642533386
 20
1556.745581964735
 10
919.1608690902667
 20
1556.743201073485
 10
919.157397133012
 20
1556.740203077417
 10
919.1543864165943
 20
1556.736723053758
 10
919.151996587796
 20
1556.732917666649
 10
919.150227646617
 20
1556.728786916089
 10
919.1490795930574
 20
1556.724330802079
  0
LINE
  5
50E
330
23
100
AcDbEntity
  8
SANINDUSA
100
AcDbLine
 10
919.2231130734157
 20
1556.747119557132
 30
0.0
 11
919.2235915769989
 21
1556.719704748381
 31
0.0
  0
ARC
  5
50F
330
23
100
AcDbEntity
  8
SANINDUSA
100
AcDbCircle
 10
919.2805845922631
 20
1556.720698596146
 30
0.0
 40
0.0450020195237998
100
AcDbArc
 50
142.4726839082467
 51
181.0004810734717
  0
LINE
  5
510
330
23
100
AcDbEntity
  8
SANINDUSA
100
AcDbLine
 10
919.1589191011118
 20
1556.722546402841
 30
0.0
 11
919.1415556967774
 21
1556.626800122406
 31
0.0
  0
LINE
  5
511
330
23
100
AcDbEntity
  8
SANINDUSA
100
AcDbLine
 10
919.1490795931306
 20
1556.724330802653
 30
0.0
 11
919.1317161845988
 21
1556.628584499242
 31
0.0
  0
LWPOLYLINE
  5
517
330
23
100
AcDbEntity
  8
SANINDUSA
100
AcDbPolyline
 90
        8
 70
   128
 43
0.0
 10
919.1750155093762
 20
1556.738654180059
 10
919.1717636444664
 20
1556.737771536774
 10
919.1687044331114
 20
1556.736359123782
 10
919.1659280396308
 20
1556.734449850708
 10
919.1635087962639
 20
1556.732104441153
 10
919.1615208911699
 20
1556.729383794124
 10
919.1600143668612
 20
1556.726369814789
 10
919.158919105393
 20
1556.722546426279
  0
ARC
  5
51B
330
23
100
AcDbEntity
  8
SANINDUSA
100
AcDbCircle
 10
919.2181138232546
 20
1556.747032288513
 30
0.0
 40
0.0050000117984237
100
AcDbArc
 50
1.000073131601831
 51
114.6446053373568
  0
LINE
  5
51D
330
23
100
AcDbEntity
  8
SANINDUSA
100
AcDbLine
 10
919.2353786228171
 20
1556.755420640045
 30
0.0
 11
919.245427334714
 21
1556.768767209902
 31
0.0
  0
LINE
  5
51F
330
23
100
AcDbEntity
  8
SANINDUSA
100
AcDbLine
 10
919.2328815663124
 20
1556.760471784443
 30
0.0
 11
919.2330272807263
 21
1556.752123394294
 31
0.0
  0
LINE
  5
521
330
23
100
AcDbEntity
  8
SANINDUSA
100
AcDbLine
 10
919.2353787602099
 20
1556.755420765292
 30
0.0
 11
919.2329993273807
 21
1556.75208075652
 31
0.0
  0
LINE
  5
523
330
23
100
AcDbEntity
  8
SANINDUSA
100
AcDbLine
 10
919.245427334714
 20
1556.768767209902
 30
0.0
 11
919.23288170613
 21
1556.760471811231
 31
0.0
  0
LINE
  5
525
330
23
100
AcDbEntity
  8
SANINDUSA
100
AcDbLine
 10
919.3042035592778
 20
1556.900859285675
 30
0.0
 11
919.3257881678574
 21
1556.900859266193
 31
0.0
  0
LINE
  5
526
330
23
100
AcDbEntity
  8
SANINDUSA
100
AcDbLine
 10
919.3175193171931
 20
1556.890859273656
 30
0.0
 11
919.2960469940762
 21
1556.890859293037
 31
0.0
  0
LINE
  5
527
330
23
100
AcDbEntity
  8
SANINDUSA
100
AcDbLine
 10
919.3050067586911
 20
1556.92385928495
 30
0.0
 11
919.3366914077598
 21
1556.923859256352
 31
0.0
  0
ARC
  5
528
330
23
100
AcDbEntity
  8
SANINDUSA
100
AcDbCircle
 10
919.2960471080619
 20
1556.892859293464
 30
0.0
 40
0.0020000002581729
100
AcDbArc
 50
178.9999558069377
 51
269.9999593931205
  0
LINE
  5
529
330
23
100
AcDbEntity
  8
SANINDUSA
100
AcDbLine
 10
919.2946686612531
 20
1556.92849018733
 30
0.0
 11
919.2940472979099
 21
1556.892894199655
 31
0.0
  0
LINE
  5
52A
330
23
100
AcDbEntity
  8
SANINDUSA
100
AcDbLine
 10
919.3042035592778
 20
1556.900859285675
 30
0.0
 11
919.3050067586911
 21
1556.92385928495
 31
0.0
  0
ARC
  5
52D
330
23
100
AcDbEntity
  8
SANINDUSA
100
AcDbCircle
 10
919.3175193159007
 20
1556.888859273642
 30
0.0
 40
0.0020000000148887
100
AcDbArc
 50
332.8409910818129
 51
89.99996297569728
  0
LWPOLYLINE
  5
52F
330
23
100
AcDbEntity
  8
SANINDUSA
100
AcDbPolyline
 90
        4
 70
   128
 43
0.0
 10
919.3257881678574
 20
1556.900859266193
 10
919.3304947696411
 20
1556.91057464243
 10
919.3336647092635
 20
1556.917297215747
 10
919.3366914077598
 20
1556.923859256352
  0
LINE
  5
530
330
23
100
AcDbEntity
  8
SANINDUSA
100
AcDbLine
 10
919.3021602973933
 20
1556.93585928403
 30
0.0
 11
919.3444307591157
 21
1556.935859245877
 31
0.0
  0
ARC
  5
53D
330
23
100
AcDbEntity
  8
SANINDUSA
100
AcDbCircle
 10
916.8017362866727
 20
1556.72135718699
 30
0.0
 40
0.0349276439384873
100
AcDbArc
 50
116.6671381831623
 51
187.3103971675358
  0
ARC
  5
53E
330
23
100
AcDbEntity
  8
SANINDUSA
100
AcDbCircle
 10
916.8289488889124
 20
1556.721956730711
 30
0.0
 40
0.033894086510792
100
AcDbArc
 50
351.4418262894662
 51
64.58063836689101
  0
LWPOLYLINE
  5
53F
330
23
100
AcDbEntity
  8
SANINDUSA
100
AcDbPolyline
 90
        5
 70
   128
 43
0.0
 10
917.3622925874315
 20
1556.940348226048
 10
917.3352211734234
 20
1556.939649259702
 10
917.3081073322441
 20
1556.939079240952
 10
917.2701166418933
 20
1556.938510839758
 10
917.2320722689557
 20
1556.938221193523
  0
LINE
  5
540
330
23
100
AcDbEntity
  8
SANINDUSA
100
AcDbLine
 10
917.2320722689557
 20
1556.95909019119
 30
0.0
 11
917.3402410029224
 21
1556.95909019119
 31
0.0
  0
LWPOLYLINE
  5
541
330
23
100
AcDbEntity
  8
SANINDUSA
100
AcDbPolyline
 90
       11
 70
   128
 43
0.0
 10
917.6089774766072
 20
1556.540857565219
 10
917.504843156688
 20
1556.540857548378
 10
917.4663283254327
 20
1556.540857543625
 10
917.427628002488
 20
1556.540857539642
 10
917.3888386204849
 20
1556.540857536442
 10
917.3497430601839
 20
1556.540857534014
 10
917.3105968423696
 20
1556.540857532381
 10
917.2713400287069
 20
1556.540857531543
 10
917.2310722689577
 20
1556.540857531504
 42
-0.414213562656604
 10
917.2290722689556
 20
1556.542857531504
 10
917.2290722689556
 20
1556.928738816248
  0
LINE
  5
542
330
23
100
AcDbEntity
  8
SANINDUSA
100
AcDbLine
 10
917.7897272932741
 20
1556.935857648872
 30
0.0
 11
917.6417300913012
 21
1556.935857648872
 31
0.0
  0
LWPOLYLINE
  5
543
330
23
100
AcDbEntity
  8
SANINDUSA
100
AcDbPolyline
 90
       16
 70
   128
 43
0.0
 10
917.6948259037207
 20
1556.748109673337
 10
917.6948259031963
 20
1556.748109673165
 10
917.6945897593896
 20
1556.748088937062
 10
917.6935922070722
 20
1556.748046838747
 10
917.6918284060516
 20
1556.747990331713
 10
917.6893234867121
 20
1556.747919505048
 10
917.6861025794377
 20
1556.747834447839
 10
917.681636071328
 20
1556.747721089809
 10
917.676318601736
 20
1556.747588405453
 10
917.670226282175
 20
1556.747436589072
 10
917.662144350737
 20
1556.747232933365
 10
917.6531372430366
 20
1556.747000659428
 10
917.6433797257846
 20
1556.746740872092
 10
917.6334288985422
 20
1556.746465529251
 10
917.6229675555173
 20
1556.746163521166
 10
917.6121807957288
 20
1556.745837192434
  0
LWPOLYLINE
  5
544
330
23
100
AcDbEntity
  8
SANINDUSA
100
AcDbPolyline
 90
       14
 70
   128
 43
0.0
 10
917.6093734550525
 20
1556.724325758277
 10
917.6198016977858
 20
1556.723883341847
 10
917.629870665573
 20
1556.72332333413
 10
917.6393972961328
 20
1556.722785603127
 10
917.6483189628401
 20
1556.722315512956
 10
917.656519301836
 20
1556.721873230824
 10
917.6638437972531
 20
1556.721465131375
 10
917.6692959535644
 20
1556.721148505479
 10
917.6740340033418
 20
1556.720859640567
 10
917.6779937430101
 20
1556.720602158613
 10
917.6816173318755
 20
1556.720341305374
 10
917.6840842651392
 20
1556.7201296258
 10
917.68534776646
 20
1556.719972123884
 10
917.6855201769255
 20
1556.719911482409
  0
LINE
  5
545
330
23
100
AcDbEntity
  8
SANINDUSA
100
AcDbLine
 10
917.6089774766072
 20
1556.540857648873
 30
0.0
 11
917.6866103584222
 21
1556.540857648873
 31
0.0
  0
ARC
  5
546
330
23
100
AcDbEntity
  8
SANINDUSA
100
AcDbCircle
 10
917.7305154594117
 20
1556.720697116265
 30
0.0
 40
0.0450021407319937
100
AcDbArc
 50
142.4727300366595
 51
181.0003348950633
  0
LINE
  5
547
330
23
100
AcDbEntity
  8
SANINDUSA
100
AcDbLine
 10
917.6886100538125
 20
1556.542892553685
 30
0.0
 11
917.6855201410203
 21
1556.719913539002
 31
0.0
  0
ARC
  5
548
330
23
100
AcDbEntity
  8
SANINDUSA
100
AcDbCircle
 10
917.6866103584222
 20
1556.542857648872
 30
0.0
 40
0.002
100
AcDbArc
 50
270.0
 51
0.9999999968081942
  0
ARC
  5
549
330
23
100
AcDbEntity
  8
SANINDUSA
100
AcDbCircle
 10
916.9969169096434
 20
1557.284167350643
 30
0.0
 40
0.880019771035398
100
AcDbArc
 50
322.4724548674919
 51
335.679477705227
  0
LWPOLYLINE
  5
54A
330
23
100
AcDbEntity
  8
SANINDUSA
100
AcDbPolyline
 90
       11
 70
   128
 43
0.0
 10
917.7988400488315
 20
1556.921739321581
 10
917.7992812846246
 20
1556.922903863181
 10
917.7993876518314
 20
1556.923272860052
 10
917.7995731514581
 20
1556.924107548091
 10
917.7997001066897
 20
1556.9265971835
 10
917.7992090275123
 20
1556.929035740559
 10
917.7981308985534
 20
1556.931278186062
 10
917.7965320920794
 20
1556.933185443335
 10
917.7945123541608
 20
1556.934638544182
 10
917.7921963047587
 20
1556.935548068536
 10
917.7897272932741
 20
1556.935857648872
  0
LWPOLYLINE
  5
54B
330
23
100
AcDbEntity
  8
SANINDUSA
100
AcDbPolyline
 90
        8
 70
   128
 43
0.0
 10
917.4079817629293
 20
1556.728584160606
 10
917.4163880454356
 20
1556.728373266858
 10
917.4323467258076
 20
1556.727948341332
 10
917.4607120984632
 20
1556.727176476862
 10
917.4890165267454
 20
1556.72638994107
 10
917.5165802691706
 20
1556.725613510348
 10
917.5440722099349
 20
1556.724833235832
 10
917.5440722689556
 20
1556.724833234153
  0
LWPOLYLINE
  5
54C
330
23
100
AcDbEntity
  8
SANINDUSA
100
AcDbPolyline
 90
        4
 70
   128
 43
0.0
 10
917.5440723029335
 20
1556.724838750992
 10
917.5767519865351
 20
1556.724607290561
 10
917.609373425757
 20
1556.724333750948
 10
917.6093735135925
 20
1556.724333750154
  0
LWPOLYLINE
  5
54D
330
23
100
AcDbEntity
  8
SANINDUSA
100
AcDbPolyline
 90
        6
 70
   128
 43
0.0
 10
917.5451897682195
 20
1556.745500111537
 10
917.5177014335094
 20
1556.745909190577
 10
917.4901419094528
 20
1556.74635895758
 10
917.4617425592664
 20
1556.746859383645
 10
917.433280571854
 20
1556.747393102224
 10
917.4164206312847
 20
1556.747721993144
  0
LINE
  5
54E
330
23
100
AcDbEntity
  8
SANINDUSA
100
AcDbLine
 10
917.6417300913012
 20
1556.935857648872
 30
0.0
 11
917.4014210245315
 21
1556.935857648872
 31
0.0
  0
LWPOLYLINE
  5
54F
330
23
100
AcDbEntity
  8
SANINDUSA
100
AcDbPolyline
 90
        4
 70
   128
 43
0.0
 10
917.6118646668991
 20
1556.745848671536
 10
917.6118646081043
 20
1556.745848671188
 10
917.5778068868929
 20
1556.745658864338
 10
917.5451897682195
 20
1556.745500111537
  0
LWPOLYLINE
  5
550
330
23
100
AcDbEntity
  8
SANINDUSA
100
AcDbPolyline
 90
        7
 70
   128
 43
0.0
 10
917.3924635819387
 20
1556.924043358763
 10
917.3948747391042
 20
1556.900136979816
 10
917.3972741130794
 20
1556.876391250497
 10
917.3999449336996
 20
1556.850011629821
 10
917.4025957301422
 20
1556.823888937062
 10
917.405217462994
 20
1556.79811965891
 10
917.4078150509823
 20
1556.772668953567
  0
LWPOLYLINE
  5
551
330
23
100
AcDbEntity
  8
SANINDUSA
100
AcDbPolyline
 90
        5
 70
   128
 43
0.0
 10
917.361546293997
 20
1556.930842495853
 10
917.3732546357316
 20
1556.876838595446
 10
917.3851698154457
 20
1556.822963834247
 10
917.3978643118843
 20
1556.76926911912
 10
917.4079817629293
 20
1556.728584160606
  0
LWPOLYLINE
  5
552
330
23
100
AcDbEntity
  8
SANINDUSA
100
AcDbPolyline
 90
        7
 70
   128
 43
0.0
 10
917.4097765845008
 20
1556.750332585813
 10
917.4092268903695
 20
1556.742592239765
 10
917.4085421949284
 20
1556.734758412655
 10
917.4080656649183
 20
1556.729511110928
 10
917.4079963354412
 20
1556.72874547147
 10
917.407986085732
 20
1556.728632027362
 10
917.4079817629293
 20
1556.728584160606
  0
LWPOLYLINE
  5
553
330
23
100
AcDbEntity
  8
SANINDUSA
100
AcDbPolyline
 90
        5
 70
   128
 43
0.0
 10
917.4078150509823
 20
1556.772668953567
 10
917.4092197281966
 20
1556.7630176289
 10
917.4096659872885
 20
1556.758146172356
 10
917.4098518069396
 20
1556.753249603773
 10
917.4097765845008
 20
1556.750332585813
  0
LWPOLYLINE
  5
554
330
23
100
AcDbEntity
  8
SANINDUSA
100
AcDbPolyline
 90
        9
 70
   128
 43
0.0
 10
917.4097765845008
 20
1556.750332585813
 10
917.4105046568127
 20
1556.749925571092
 10
917.4112757684415
 20
1556.749535457045
 10
917.4120833615026
 20
1556.749165561379
 10
917.4129205678566
 20
1556.748819029857
 10
917.413780267519
 20
1556.748498809541
 10
917.4146551492126
 20
1556.748207623729
 10
917.4155377725449
 20
1556.747947948798
 10
917.4164206312847
 20
1556.747721993144
  0
LWPOLYLINE
  5
555
330
23
100
AcDbEntity
  8
SANINDUSA
100
AcDbPolyline
 90
       10
 70
   128
 43
0.0
 10
917.4014210245315
 20
1556.935857648872
 10
917.3996578327662
 20
1556.935668505224
 10
917.3979613403053
 20
1556.935108229343
 10
917.3963957233038
 20
1556.934198015754
 10
917.395020207064
 20
1556.932972296681
 10
917.3938868256177
 20
1556.931477439519
 10
917.3930384533456
 20
1556.929769992817
 10
917.3925071830925
 20
1556.927914547112
 10
917.3923131121378
 20
1556.925981291561
 10
917.3924635819387
 20
1556.924043358763
  0
LINE
  5
556
330
23
100
AcDbEntity
  8
SANINDUSA
100
AcDbLine
 10
917.4014210245315
 20
1556.935857648872
 30
0.0
 11
917.3833632491975
 21
1556.935857648872
 31
0.0
  0
LWPOLYLINE
  5
557
330
23
100
AcDbEntity
  8
SANINDUSA
100
AcDbPolyline
 90
       20
 70
   128
 43
0.0
 10
917.3433868281227
 20
1556.957976516477
 10
917.3434327309076
 20
1556.957938898803
 10
917.3434563129763
 20
1556.957919215624
 10
917.3434747393653
 20
1556.957903663753
 10
917.3434918197672
 20
1556.957889111711
 10
917.3435080865575
 20
1556.957875130848
 10
917.3435221080723
 20
1556.957862990467
 10
917.3435504728901
 20
1556.957838318005
 10
917.3437669871503
 20
1556.957649670455
 10
917.3442279939651
 20
1556.957248013238
 10
917.3449237257052
 20
1556.956642134461
 10
917.3458572367024
 20
1556.955829660261
 10
917.3470291735933
 20
1556.954810324981
 10
917.3484391801453
 20
1556.953584745198
 10
917.3500861354902
 20
1556.952154210333
 10
917.351968150446
 20
1556.950520683784
 10
917.3540831239902
 20
1556.948686335776
 10
917.3564319194262
 20
1556.946651052892
 10
917.3590233622432
 20
1556.944407976583
 10
917.3608955669989
 20
1556.942793409702
  0
LWPOLYLINE
  5
558
330
23
100
AcDbEntity
  8
SANINDUSA
100
AcDbPolyline
 90
        5
 70
   128
 43
0.0
 10
917.3608955669989
 20
1556.942793409702
 10
917.3610735443954
 20
1556.94263683822
 10
917.3627102197466
 20
1556.941476683139
 10
917.3643972478876
 20
1556.940269260245
 10
917.3653521729292
 20
1556.939537213071
  0
LWPOLYLINE
  5
559
330
23
100
AcDbEntity
  8
SANINDUSA
100
AcDbPolyline
 90
        8
 70
   128
 43
0.0
 10
917.3622925874315
 20
1556.940348226048
 10
917.3627275442088
 20
1556.940389171349
 10
917.3631584323043
 20
1556.940385133019
 10
917.3635812210957
 20
1556.940336148834
 10
917.3639919557237
 20
1556.940242677003
 10
917.3643867940855
 20
1556.940105591881
 10
917.3647620427765
 20
1556.939926175794
 10
917.364934147654
 20
1556.939825509178
  0
LWPOLYLINE
  5
55A
330
23
100
AcDbEntity
  8
SANINDUSA
100
AcDbPolyline
 90
        7
 70
   128
 43
0.0
 10
917.3647434555345
 20
1556.939935062834
 10
917.3632774970032
 20
1556.936718856677
 10
917.362595662189
 20
1556.935139134775
 10
917.3617248570009
 20
1556.932813320425
 10
917.3614942542103
 20
1556.931894607112
 10
917.3614515597265
 20
1556.931272834594
 10
917.361546293997
 20
1556.930842495853
  0
LINE
  5
55B
330
23
100
AcDbEntity
  8
SANINDUSA
100
AcDbLine
 10
917.3833632491975
 20
1556.935857648872
 30
0.0
 11
917.3716671077295
 21
1556.935857648872
 31
0.0
  0
LWPOLYLINE
  5
55C
330
23
100
AcDbEntity
  8
SANINDUSA
100
AcDbPolyline
 90
        9
 70
   128
 43
0.0
 10
917.3823511144805
 20
1556.935857716575
 10
917.3823026796556
 20
1556.935857717343
 10
917.381918946468
 20
1556.935857718839
 10
917.3811712411975
 20
1556.935857720219
 10
917.3800980684161
 20
1556.935857721412
 10
917.3787546932928
 20
1556.935857722355
 10
917.3772102956052
 20
1556.935857723
 10
917.3755444071876
 20
1556.935857723315
 10
917.3738428162815
 20
1556.935857723282
  0
LWPOLYLINE
  5
55D
330
23
100
AcDbEntity
  8
SANINDUSA
100
AcDbPolyline
 90
        9
 70
   128
 43
0.0
 10
917.3653521729292
 20
1556.939537213071
 10
917.3658566755515
 20
1556.938647614551
 10
917.3665823852214
 20
1556.937698370225
 10
917.3674298651341
 20
1556.936978169531
 10
917.3682843862488
 20
1556.936500595747
 10
917.3692116917822
 20
1556.936164438238
 10
917.3703275518453
 20
1556.935941655481
 10
917.3715907465917
 20
1556.93585791393
 10
917.3716654060601
 20
1556.935861375232
  0
ARC
  5
55E
330
23
100
AcDbEntity
  8
SANINDUSA
100
AcDbCircle
 10
917.3402410330968
 20
1556.954090392965
 30
0.0
 40
0.0049997982251816
100
AcDbArc
 50
51.01002565487191
 51
90.00034579031208
  0
LINE
  5
55F
330
23
100
AcDbEntity
  8
SANINDUSA
100
AcDbLine
 10
917.2290722689556
 20
1556.545857980882
 30
0.0
 11
917.2290722689556
 21
1556.543857648872
 31
0.0
  0
ARC
  5
560
330
23
100
AcDbEntity
  8
SANINDUSA
100
AcDbCircle
 10
917.2320722689557
 20
1556.95609019119
 30
0.0
 40
0.0030000000000018
100
AcDbArc
 50
90.0
 51
180.0
  0
LWPOLYLINE
  5
561
330
23
100
AcDbEntity
  8
SANINDUSA
100
AcDbPolyline
 90
        9
 70
   128
 43
0.0
 10
917.2320722689557
 20
1556.938221193523
 10
917.2314869979897
 20
1556.938166528023
 10
917.2309242186585
 20
1556.938004632286
 10
917.2304055582566
 20
1556.937741727876
 10
917.2299509486121
 20
1556.937387918061
 10
917.2295778601187
 20
1556.936956799554
 10
917.2293006303581
 20
1556.936464939997
 10
917.2291299131144
 20
1556.935931241278
 10
917.2290722689556
 20
1556.935376213139
  0
LINE
  5
562
330
23
100
AcDbEntity
  8
SANINDUSA
100
AcDbLine
 10
917.2290722689556
 20
1556.935376213139
 30
0.0
 11
917.2290722689556
 21
1556.928738816248
 31
0.0
  0
LINE
  5
563
330
23
100
AcDbEntity
  8
SANINDUSA
100
AcDbLine
 10
917.2290722689556
 20
1556.95609019119
 30
0.0
 11
917.2290722689556
 21
1556.935376213139
 31
0.0
  0
LINE
  5
690
330
23
100
AcDbEntity
  8
SANINDUSA
  6
HIDDEN
100
AcDbLine
 10
918.8404018892148
 20
1556.575607185241
 30
0.0
 11
918.8404018892148
 21
1556.487359849423
 31
0.0
  0
LINE
  5
691
330
23
100
AcDbEntity
  8
SANINDUSA
  6
HIDDEN
100
AcDbLine
 10
918.9264018892151
 20
1556.487359849423
 30
0.0
 11
918.9264018892151
 21
1556.598780898204
 31
0.0
  0
LINE
  5
692
330
23
100
AcDbEntity
  8
SANINDUSA
  6
HIDDEN
100
AcDbLine
 10
918.9284018892145
 20
1556.49109190023
 30
0.0
 11
918.9284018892145
 21
1556.598780901154
 31
0.0
  0
LINE
  5
693
330
23
100
AcDbEntity
  8
SANINDUSA
  6
HIDDEN
100
AcDbLine
 10
918.8404018892148
 20
1556.487359849423
 30
0.0
 11
918.9264018892151
 21
1556.487359849423
 31
0.0
  0
LINE
  5
694
330
23
100
AcDbEntity
  8
SANINDUSA
  6
HIDDEN
100
AcDbLine
 10
918.8384018892143
 20
1556.49109190023
 30
0.0
 11
918.8394018892147
 21
1556.487359849423
 31
0.0
  0
LINE
  5
695
330
23
100
AcDbEntity
  8
SANINDUSA
  6
HIDDEN
100
AcDbLine
 10
918.8394018892147
 20
1556.487359849423
 30
0.0
 11
918.8404018892148
 21
1556.487359849423
 31
0.0
  0
LINE
  5
696
330
23
100
AcDbEntity
  8
SANINDUSA
  6
HIDDEN
100
AcDbLine
 10
918.9264018892151
 20
1556.487359849423
 30
0.0
 11
918.9274018892144
 21
1556.487359849423
 31
0.0
  0
LINE
  5
697
330
23
100
AcDbEntity
  8
SANINDUSA
  6
HIDDEN
100
AcDbLine
 10
918.9274018892144
 20
1556.487359849423
 30
0.0
 11
918.9284018892145
 21
1556.49109190023
 31
0.0
  0
ARC
  5
698
330
23
100
AcDbEntity
  8
SANINDUSA
  6
HIDDEN
100
AcDbCircle
 10
918.854401889215
 20
1556.717359849423
 30
0.0
 40
0.056
100
AcDbArc
 50
100.2865606110578
 51
180.0
  0
ARC
  5
699
330
23
100
AcDbEntity
  8
SANINDUSA
  6
HIDDEN
100
AcDbCircle
 10
918.854401889215
 20
1556.717359849423
 30
0.0
 40
0.0539999999999999
100
AcDbArc
 50
90.0
 51
180.0
  0
LINE
  5
69A
330
23
100
AcDbEntity
  8
SANINDUSA
  6
HIDDEN
100
AcDbLine
 10
918.8004018892149
 20
1556.641636672249
 30
0.0
 11
918.8004018892149
 21
1556.674889271372
 31
0.0
  0
LINE
  5
69B
330
23
100
AcDbEntity
  8
SANINDUSA
  6
HIDDEN
100
AcDbLine
 10
918.7984018892144
 20
1556.641636672249
 30
0.0
 11
918.7984018892144
 21
1556.674889271373
 31
0.0
  0
LINE
  5
69C
330
23
100
AcDbEntity
  8
SANINDUSA
  6
HIDDEN
100
AcDbLine
 10
918.8004018892149
 20
1556.717359849423
 30
0.0
 11
918.8004018892149
 21
1556.674889271372
 31
0.0
  0
LINE
  5
69D
330
23
100
AcDbEntity
  8
SANINDUSA
  6
HIDDEN
100
AcDbLine
 10
918.7984018892144
 20
1556.717359849423
 30
0.0
 11
918.7984018892144
 21
1556.674889271372
 31
0.0
  0
LINE
  5
69E
330
23
100
AcDbEntity
  8
SANINDUSA
  6
HIDDEN
100
AcDbLine
 10
918.8004018892149
 20
1556.674889271372
 30
0.0
 11
918.8004018892184
 21
1556.674889271372
 31
0.0
  0
LINE
  5
69F
330
23
100
AcDbEntity
  8
SANINDUSA
  6
HIDDEN
100
AcDbLine
 10
918.9244018892146
 20
1556.660359849423
 30
0.0
 11
918.9244018892146
 21
1556.658359849422
 31
0.0
  0
LINE
  5
6A0
330
23
100
AcDbEntity
  8
SANINDUSA
  6
HIDDEN
100
AcDbLine
 10
918.8944018892149
 20
1556.658971310786
 30
0.0
 11
918.8944018892149
 21
1556.660359849423
 31
0.0
  0
LINE
  5
6A1
330
23
100
AcDbEntity
  8
SANINDUSA
  6
HIDDEN
100
AcDbLine
 10
918.8930856879649
 20
1556.656736693431
 30
0.0
 11
918.921614967048
 21
1556.614438219094
 31
0.0
  0
LINE
  5
6A2
330
23
100
AcDbEntity
  8
SANINDUSA
  6
HIDDEN
100
AcDbLine
 10
918.8947438140699
 20
1556.657852924979
 30
0.0
 11
918.9232730412783
 21
1556.615556606258
 31
0.0
  0
ARC
  5
6A3
330
23
100
AcDbEntity
  8
SANINDUSA
  6
HIDDEN
100
AcDbCircle
 10
918.8964018892145
 20
1556.658971310786
 30
0.0
 40
0.0020000000000001
100
AcDbArc
 50
180.0
 51
214.0000000001473
  0
ARC
  5
6A4
330
23
100
AcDbEntity
  8
SANINDUSA
  6
HIDDEN
100
AcDbCircle
 10
918.8984020650892
 20
1556.598780921656
 30
0.0
 40
0.0299998176965208
100
AcDbArc
 50
0.0
 51
33.99999865964034
  0
ARC
  5
6A5
330
23
100
AcDbEntity
  8
SANINDUSA
  6
HIDDEN
100
AcDbCircle
 10
918.8984020944769
 20
1556.598780941653
 30
0.0
 40
0.0279997830701829
100
AcDbArc
 50
0.0
 51
33.99999523655256
  0
LINE
  5
6A6
330
23
100
AcDbEntity
  8
SANINDUSA
  6
HIDDEN
100
AcDbLine
 10
918.9244018892146
 20
1556.658359849422
 30
0.0
 11
918.9284018892145
 21
1556.658359849422
 31
0.0
  0
LINE
  5
6A7
330
23
100
AcDbEntity
  8
SANINDUSA
  6
HIDDEN
100
AcDbLine
 10
918.9284018892145
 20
1556.662359849423
 30
0.0
 11
918.8924018892144
 21
1556.662359849423
 31
0.0
  0
LINE
  5
6A8
330
23
100
AcDbEntity
  8
SANINDUSA
  6
HIDDEN
100
AcDbLine
 10
918.9244018892146
 20
1556.660359849423
 30
0.0
 11
918.8944018892149
 21
1556.660359849423
 31
0.0
  0
LINE
  5
6A9
330
23
100
AcDbEntity
  8
SANINDUSA
  6
HIDDEN
100
AcDbLine
 10
918.8924018892144
 20
1556.662334348282
 30
0.0
 11
918.8924018892144
 21
1556.662359849423
 31
0.0
  0
LINE
  5
6AA
330
23
100
AcDbEntity
  8
SANINDUSA
  6
HIDDEN
100
AcDbLine
 10
918.8854018892149
 20
1556.789359849423
 30
0.0
 11
918.9284018892145
 21
1556.789359849423
 31
0.0
  0
LINE
  5
6AB
330
23
100
AcDbEntity
  8
SANINDUSA
  6
HIDDEN
100
AcDbLine
 10
918.8854018892149
 20
1556.791359849423
 30
0.0
 11
918.9244018892146
 21
1556.791359849423
 31
0.0
  0
LINE
  5
6AC
330
23
100
AcDbEntity
  8
SANINDUSA
  6
HIDDEN
100
AcDbLine
 10
918.8834018892144
 20
1556.787359849423
 30
0.0
 11
918.8834018892144
 21
1556.776359849423
 31
0.0
  0
LINE
  5
6AD
330
23
100
AcDbEntity
  8
SANINDUSA
  6
HIDDEN
100
AcDbLine
 10
918.881401889215
 20
1556.787359849423
 30
0.0
 11
918.881401889215
 21
1556.776359849423
 31
0.0
  0
LINE
  5
6AE
330
23
100
AcDbEntity
  8
SANINDUSA
  6
HIDDEN
100
AcDbLine
 10
918.859401889215
 20
1556.790359849423
 30
0.0
 11
918.859401889215
 21
1556.786359849423
 31
0.0
  0
LINE
  5
6AF
330
23
100
AcDbEntity
  8
SANINDUSA
  6
HIDDEN
100
AcDbLine
 10
918.8444018892147
 20
1556.790359849423
 30
0.0
 11
918.8444018892147
 21
1556.786359849423
 31
0.0
  0
LINE
  5
6B0
330
23
100
AcDbEntity
  8
SANINDUSA
  6
HIDDEN
100
AcDbLine
 10
918.859401889215
 20
1556.773359849423
 30
0.0
 11
918.8784018892144
 21
1556.773359849423
 31
0.0
  0
LINE
  5
6B1
330
23
100
AcDbEntity
  8
SANINDUSA
  6
HIDDEN
100
AcDbLine
 10
918.854401889215
 20
1556.771359849423
 30
0.0
 11
918.8784018892144
 21
1556.771359849423
 31
0.0
  0
LINE
  5
6B2
330
23
100
AcDbEntity
  8
SANINDUSA
  6
HIDDEN
100
AcDbLine
 10
918.859401889215
 20
1556.786359849423
 30
0.0
 11
918.8444018892147
 21
1556.786359849423
 31
0.0
  0
LINE
  5
6B3
330
23
100
AcDbEntity
  8
SANINDUSA
  6
HIDDEN
100
AcDbLine
 10
918.8444018892147
 20
1556.778359849423
 30
0.0
 11
918.859401889215
 21
1556.778359849423
 31
0.0
  0
LINE
  5
6B4
330
23
100
AcDbEntity
  8
SANINDUSA
  6
HIDDEN
100
AcDbLine
 10
918.859401889215
 20
1556.778360458642
 30
0.0
 11
918.8444018892147
 21
1556.778360458642
 31
0.0
  0
LINE
  5
6B5
330
23
100
AcDbEntity
  8
SANINDUSA
  6
HIDDEN
100
AcDbLine
 10
918.8444018892147
 20
1556.786249167341
 30
0.0
 11
918.8444018892147
 21
1556.778481425565
 31
0.0
  0
LINE
  5
6B6
330
23
100
AcDbEntity
  8
SANINDUSA
  6
HIDDEN
100
AcDbLine
 10
918.8444018892147
 20
1556.786359240203
 30
0.0
 11
918.8444018892147
 21
1556.786359849423
 31
0.0
  0
LINE
  5
6B7
330
23
100
AcDbEntity
  8
SANINDUSA
  6
HIDDEN
100
AcDbLine
 10
918.8444018892147
 20
1556.786249167341
 30
0.0
 11
918.8444018892147
 21
1556.786359240203
 31
0.0
  0
LINE
  5
6B8
330
23
100
AcDbEntity
  8
SANINDUSA
  6
HIDDEN
100
AcDbLine
 10
918.8444018892147
 20
1556.778359849423
 30
0.0
 11
918.8444018892147
 21
1556.778360458642
 31
0.0
  0
LINE
  5
6B9
330
23
100
AcDbEntity
  8
SANINDUSA
  6
HIDDEN
100
AcDbLine
 10
918.8444018892147
 20
1556.778360458642
 30
0.0
 11
918.8444018892147
 21
1556.778481425565
 31
0.0
  0
LINE
  5
6BA
330
23
100
AcDbEntity
  8
SANINDUSA
  6
HIDDEN
100
AcDbLine
 10
918.8444018892147
 20
1556.778359849423
 30
0.0
 11
918.8444018892147
 21
1556.772459758678
 31
0.0
  0
LINE
  5
6BB
330
23
100
AcDbEntity
  8
SANINDUSA
  6
HIDDEN
100
AcDbLine
 10
918.859401889215
 20
1556.786249167341
 30
0.0
 11
918.859401889215
 21
1556.778481425565
 31
0.0
  0
LINE
  5
6BC
330
23
100
AcDbEntity
  8
SANINDUSA
  6
HIDDEN
100
AcDbLine
 10
918.859401889215
 20
1556.786359240203
 30
0.0
 11
918.859401889215
 21
1556.786359849423
 31
0.0
  0
LINE
  5
6BD
330
23
100
AcDbEntity
  8
SANINDUSA
  6
HIDDEN
100
AcDbLine
 10
918.859401889215
 20
1556.786249167341
 30
0.0
 11
918.859401889215
 21
1556.786359240203
 31
0.0
  0
LINE
  5
6BE
330
23
100
AcDbEntity
  8
SANINDUSA
  6
HIDDEN
100
AcDbLine
 10
918.859401889215
 20
1556.778359849423
 30
0.0
 11
918.859401889215
 21
1556.778360458642
 31
0.0
  0
LINE
  5
6BF
330
23
100
AcDbEntity
  8
SANINDUSA
  6
HIDDEN
100
AcDbLine
 10
918.859401889215
 20
1556.778360458642
 30
0.0
 11
918.859401889215
 21
1556.778481425565
 31
0.0
  0
LINE
  5
6C0
330
23
100
AcDbEntity
  8
SANINDUSA
  6
HIDDEN
100
AcDbLine
 10
918.859401889215
 20
1556.778359849423
 30
0.0
 11
918.859401889215
 21
1556.773359849423
 31
0.0
  0
ARC
  5
6C1
330
23
100
AcDbEntity
  8
SANINDUSA
  6
HIDDEN
100
AcDbCircle
 10
918.8784018892144
 20
1556.776359849423
 30
0.0
 40
0.003
100
AcDbArc
 50
270.0
 51
0.0
  0
ARC
  5
6C2
330
23
100
AcDbEntity
  8
SANINDUSA
  6
HIDDEN
100
AcDbCircle
 10
918.8784018892144
 20
1556.776359849423
 30
0.0
 40
0.005
100
AcDbArc
 50
270.0
 51
0.0
  0
LINE
  5
6C3
330
23
100
AcDbEntity
  8
SANINDUSA
  6
HIDDEN
100
AcDbLine
 10
918.8444018892147
 20
1556.790359849423
 30
0.0
 11
918.859401889215
 21
1556.790359849423
 31
0.0
  0
ARC
  5
6C4
330
23
100
AcDbEntity
  8
SANINDUSA
  6
HIDDEN
100
AcDbCircle
 10
918.8854018892149
 20
1556.787359849423
 30
0.0
 40
0.002
100
AcDbArc
 50
90.0
 51
180.0
  0
ARC
  5
6C5
330
23
100
AcDbEntity
  8
SANINDUSA
  6
HIDDEN
100
AcDbCircle
 10
918.8854018892149
 20
1556.787359849423
 30
0.0
 40
0.0040000000000001
100
AcDbArc
 50
90.0
 51
180.0
  0
LINE
  5
6C6
330
23
100
AcDbEntity
  8
SANINDUSA
  6
HIDDEN
100
AcDbLine
 10
918.9284018892145
 20
1556.793359849423
 30
0.0
 11
918.9244018892146
 21
1556.793359849423
 31
0.0
  0
LINE
  5
6C7
330
23
100
AcDbEntity
  8
SANINDUSA
  6
HIDDEN
100
AcDbLine
 10
918.9244018892146
 20
1556.793359849423
 30
0.0
 11
918.9244018892146
 21
1556.791359849423
 31
0.0
  0
LINE
  5
6C8
330
23
100
AcDbEntity
  8
SANINDUSA
  6
HIDDEN
100
AcDbLine
 10
918.9284018892145
 20
1556.793359849423
 30
0.0
 11
918.9284018892145
 21
1556.789359849423
 31
0.0
  0
LINE
  5
6C9
330
23
100
AcDbEntity
  8
SANINDUSA
  6
HIDDEN
100
AcDbLine
 10
918.9284018892145
 20
1556.662359849423
 30
0.0
 11
918.9284018892145
 21
1556.658359849422
 31
0.0
  0
LINE
  5
6CA
330
23
100
AcDbEntity
  8
SANINDUSA
  6
HIDDEN
100
AcDbLine
 10
918.8924018892144
 20
1556.662334348282
 30
0.0
 11
918.8924018892144
 21
1556.658973389493
 31
0.0
  0
ARC
  5
6CB
330
23
100
AcDbEntity
  8
SANINDUSA
  6
HIDDEN
100
AcDbCircle
 10
918.8964018892145
 20
1556.658973389493
 30
0.0
 40
0.004
100
AcDbArc
 50
180.0
 51
213.9986946280446
  0
LINE
  5
6CC
330
23
100
AcDbEntity
  8
SANINDUSA
  6
HIDDEN
100
AcDbLine
 10
918.8384018892143
 20
1556.575607185241
 30
0.0
 11
918.8384018892143
 21
1556.49109190023
 31
0.0
  0
ARC
  5
6CD
330
23
100
AcDbEntity
  8
SANINDUSA
  6
HIDDEN
100
AcDbCircle
 10
918.8184018892149
 20
1556.575607185241
 30
0.0
 40
0.02
100
AcDbArc
 50
0.0
 51
37.28570792802202
  0
LINE
  5
6CE
330
23
100
AcDbEntity
  8
SANINDUSA
  6
HIDDEN
100
AcDbLine
 10
918.8024893968927
 20
1556.629520873138
 30
0.0
 11
918.8343143815369
 21
1556.587722984352
 31
0.0
  0
ARC
  5
6CF
330
23
100
AcDbEntity
  8
SANINDUSA
  6
HIDDEN
100
AcDbCircle
 10
918.8184018892149
 20
1556.641636672249
 30
0.0
 40
0.02
100
AcDbArc
 50
180.0
 51
217.285707928022
  0
ARC
  5
6D0
330
23
100
AcDbEntity
  8
SANINDUSA
  6
HIDDEN
100
AcDbCircle
 10
918.8184018892149
 20
1556.575607185241
 30
0.0
 40
0.022
100
AcDbArc
 50
0.0
 51
37.28570792802202
  0
LINE
  5
6D1
330
23
100
AcDbEntity
  8
SANINDUSA
  6
HIDDEN
100
AcDbLine
 10
918.8040806461245
 20
1556.630732453049
 30
0.0
 11
918.8359056307687
 21
1556.588934564264
 31
0.0
  0
ARC
  5
6D2
330
23
100
AcDbEntity
  8
SANINDUSA
  6
HIDDEN
100
AcDbCircle
 10
918.8184018892149
 20
1556.641636672249
 30
0.0
 40
0.018
100
AcDbArc
 50
180.0
 51
217.285707928022
  0
LINE
  5
6D3
330
23
100
AcDbEntity
  8
SANINDUSA
100
AcDbLine
 10
918.9084018892151
 20
1556.655859849423
 30
0.0
 11
918.9284473320254
 21
1556.656315427669
 31
0.0
  0
LINE
  5
6D4
330
23
100
AcDbEntity
  8
SANINDUSA
100
AcDbLine
 10
918.9284473320254
 20
1556.795404271177
 30
0.0
 11
918.9084018892151
 21
1556.795859849423
 31
0.0
  0
LINE
  5
6D5
330
23
100
AcDbEntity
  8
SANINDUSA
100
AcDbLine
 10
918.9084018892151
 20
1556.660359849423
 30
0.0
 11
918.9084018892151
 21
1556.655859849423
 31
0.0
  0
LINE
  5
6D6
330
23
100
AcDbEntity
  8
SANINDUSA
100
AcDbLine
 10
918.9084018892151
 20
1556.795859849423
 30
0.0
 11
918.9084018892151
 21
1556.791359849423
 31
0.0
  0
LINE
  5
6D7
330
23
100
AcDbEntity
  8
SANINDUSA
100
AcDbLine
 10
918.9304018892149
 20
1556.784359849423
 30
0.0
 11
918.9304018892149
 21
1556.777674699881
 31
0.0
  0
LINE
  5
6D8
330
23
100
AcDbEntity
  8
SANINDUSA
100
AcDbLine
 10
918.9304018892149
 20
1556.674044998965
 30
0.0
 11
918.9304018892149
 21
1556.667359849423
 31
0.0
  0
LINE
  5
6D9
330
23
100
AcDbEntity
  8
SANINDUSA
100
AcDbLine
 10
918.9304018892149
 20
1556.65831491134
 30
0.0
 11
918.9304018892149
 21
1556.667359849423
 31
0.0
  0
LINE
  5
6DA
330
23
100
AcDbEntity
  8
SANINDUSA
100
AcDbLine
 10
918.9284018892145
 20
1556.666359849423
 30
0.0
 11
918.9284018892145
 21
1556.65831491134
 31
0.0
  0
LINE
  5
6DB
330
23
100
AcDbEntity
  8
SANINDUSA
100
AcDbLine
 10
918.9284018892145
 20
1556.65831491134
 30
0.0
 11
918.9234246106204
 21
1556.658201791371
 31
0.0
  0
LINE
  5
6DC
330
23
100
AcDbEntity
  8
SANINDUSA
100
AcDbLine
 10
918.9104018892145
 20
1556.658928805934
 30
0.0
 11
918.9104018892145
 21
1556.660359849423
 31
0.0
  0
LINE
  5
6DD
330
23
100
AcDbEntity
  8
SANINDUSA
100
AcDbLine
 10
918.9224018892151
 20
1556.659201533207
 30
0.0
 11
918.9224018892151
 21
1556.660359849423
 31
0.0
  0
LINE
  5
6DE
330
23
100
AcDbEntity
  8
SANINDUSA
100
AcDbLine
 10
918.9204018892148
 20
1556.660359849423
 30
0.0
 11
918.9204018892148
 21
1556.659110624116
 31
0.0
  0
LINE
  5
6DF
330
23
100
AcDbEntity
  8
SANINDUSA
100
AcDbLine
 10
918.9184018892143
 20
1556.659110624116
 30
0.0
 11
918.9184018892143
 21
1556.660359849423
 31
0.0
  0
LINE
  5
6E0
330
23
100
AcDbEntity
  8
SANINDUSA
100
AcDbLine
 10
918.9164018892148
 20
1556.660359849423
 30
0.0
 11
918.9164018892148
 21
1556.659019715025
 31
0.0
  0
LINE
  5
6E1
330
23
100
AcDbEntity
  8
SANINDUSA
100
AcDbLine
 10
918.9144018892145
 20
1556.659019715025
 30
0.0
 11
918.9144018892145
 21
1556.660359849423
 31
0.0
  0
LINE
  5
6E2
330
23
100
AcDbEntity
  8
SANINDUSA
100
AcDbLine
 10
918.9124018892149
 20
1556.660359849423
 30
0.0
 11
918.9124018892149
 21
1556.658928805934
 31
0.0
  0
LINE
  5
6E3
330
23
100
AcDbEntity
  8
SANINDUSA
100
AcDbLine
 10
918.92372005061
 20
1556.674162913763
 30
0.0
 11
918.9284018892145
 21
1556.666359849423
 31
0.0
  0
LINE
  5
6E4
330
23
100
AcDbEntity
  8
SANINDUSA
100
AcDbLine
 10
918.9304018892149
 20
1556.667359849423
 30
0.0
 11
918.927407224071
 21
1556.674097845997
 31
0.0
  0
LINE
  5
6E5
330
23
100
AcDbEntity
  8
SANINDUSA
100
AcDbLine
 10
918.9284018892145
 20
1556.793404787506
 30
0.0
 11
918.9284018892145
 21
1556.785359849423
 31
0.0
  0
LINE
  5
6E6
330
23
100
AcDbEntity
  8
SANINDUSA
100
AcDbLine
 10
918.9304018892149
 20
1556.784359849423
 30
0.0
 11
918.9304018892149
 21
1556.793404787506
 31
0.0
  0
LINE
  5
6E7
330
23
100
AcDbEntity
  8
SANINDUSA
100
AcDbLine
 10
918.9284018892145
 20
1556.785359849423
 30
0.0
 11
918.92372005061
 21
1556.777556785082
 31
0.0
  0
LINE
  5
6E8
330
23
100
AcDbEntity
  8
SANINDUSA
100
AcDbLine
 10
918.927407224071
 20
1556.777621852849
 30
0.0
 11
918.9304018892149
 21
1556.784359849423
 31
0.0
  0
LINE
  5
6E9
330
23
100
AcDbEntity
  8
SANINDUSA
100
AcDbLine
 10
918.9234246106204
 20
1556.793517907474
 30
0.0
 11
918.9284018892145
 21
1556.793404787506
 31
0.0
  0
LINE
  5
6EA
330
23
100
AcDbEntity
  8
SANINDUSA
100
AcDbLine
 10
918.9104018892145
 20
1556.791359849423
 30
0.0
 11
918.9104018892145
 21
1556.792790892911
 31
0.0
  0
LINE
  5
6EB
330
23
100
AcDbEntity
  8
SANINDUSA
100
AcDbLine
 10
918.9124018892149
 20
1556.792790892911
 30
0.0
 11
918.9124018892149
 21
1556.791359849423
 31
0.0
  0
LINE
  5
6EC
330
23
100
AcDbEntity
  8
SANINDUSA
100
AcDbLine
 10
918.9144018892145
 20
1556.791359849423
 30
0.0
 11
918.9144018892145
 21
1556.79269998382
 31
0.0
  0
LINE
  5
6ED
330
23
100
AcDbEntity
  8
SANINDUSA
100
AcDbLine
 10
918.9164018892148
 20
1556.79269998382
 30
0.0
 11
918.9164018892148
 21
1556.791359849423
 31
0.0
  0
LINE
  5
6EE
330
23
100
AcDbEntity
  8
SANINDUSA
100
AcDbLine
 10
918.9184018892143
 20
1556.791359849423
 30
0.0
 11
918.9184018892143
 21
1556.792609074729
 31
0.0
  0
LINE
  5
6EF
330
23
100
AcDbEntity
  8
SANINDUSA
100
AcDbLine
 10
918.9204018892148
 20
1556.792609074729
 30
0.0
 11
918.9204018892148
 21
1556.791359849423
 31
0.0
  0
LINE
  5
6F0
330
23
100
AcDbEntity
  8
SANINDUSA
100
AcDbLine
 10
918.9224018892151
 20
1556.791359849423
 30
0.0
 11
918.9224018892151
 21
1556.792518165639
 31
0.0
  0
ARC
  5
6F1
330
23
100
AcDbEntity
  8
SANINDUSA
100
AcDbCircle
 10
918.9114018892148
 20
1556.658928805934
 30
0.0
 40
0.0010000000000002
100
AcDbArc
 50
180.0
 51
0.0
  0
ARC
  5
6F2
330
23
100
AcDbEntity
  8
SANINDUSA
100
AcDbCircle
 10
918.9154018892146
 20
1556.659019715025
 30
0.0
 40
0.0010000000000002
100
AcDbArc
 50
180.0
 51
0.0
  0
ARC
  5
6F3
330
23
100
AcDbEntity
  8
SANINDUSA
100
AcDbCircle
 10
918.9194018892145
 20
1556.659110624116
 30
0.0
 40
0.0010000000000002
100
AcDbArc
 50
180.0
 51
0.0
  0
ARC
  5
6F4
330
23
100
AcDbEntity
  8
SANINDUSA
100
AcDbCircle
 10
918.9234018892145
 20
1556.659201533207
 30
0.0
 40
0.0010000000000002
100
AcDbArc
 50
180.0
 51
271.301952672039
  0
ARC
  5
6F5
330
23
100
AcDbEntity
  8
SANINDUSA
100
AcDbCircle
 10
918.9194018892145
 20
1556.792609074729
 30
0.0
 40
0.0010000000000002
100
AcDbArc
 50
0.0
 51
180.0
  0
ARC
  5
6F6
330
23
100
AcDbEntity
  8
SANINDUSA
100
AcDbCircle
 10
918.9114018892148
 20
1556.792790892911
 30
0.0
 40
0.0010000000000002
100
AcDbArc
 50
0.0
 51
180.0
  0
LINE
  5
6F7
330
23
100
AcDbEntity
  8
SANINDUSA
100
AcDbLine
 10
918.9104018892145
 20
1556.792790892911
 30
0.0
 11
918.9104018892145
 21
1556.791359849423
 31
0.0
  0
ARC
  5
6F8
330
23
100
AcDbEntity
  8
SANINDUSA
100
AcDbCircle
 10
918.9154018892146
 20
1556.79269998382
 30
0.0
 40
0.0010000000000002
100
AcDbArc
 50
0.0
 51
180.0
  0
LINE
  5
6F9
330
23
100
AcDbEntity
  8
SANINDUSA
100
AcDbLine
 10
918.9124018892149
 20
1556.791359849423
 30
0.0
 11
918.9124018892149
 21
1556.792790892911
 31
0.0
  0
LINE
  5
6FA
330
23
100
AcDbEntity
  8
SANINDUSA
100
AcDbLine
 10
918.9144018892145
 20
1556.79269998382
 30
0.0
 11
918.9144018892145
 21
1556.791359849423
 31
0.0
  0
LINE
  5
6FB
330
23
100
AcDbEntity
  8
SANINDUSA
100
AcDbLine
 10
918.9164018892148
 20
1556.791359849423
 30
0.0
 11
918.9164018892148
 21
1556.79269998382
 31
0.0
  0
LINE
  5
6FC
330
23
100
AcDbEntity
  8
SANINDUSA
100
AcDbLine
 10
918.9184018892143
 20
1556.792609074729
 30
0.0
 11
918.9184018892143
 21
1556.791359849423
 31
0.0
  0
ARC
  5
6FD
330
23
100
AcDbEntity
  8
SANINDUSA
100
AcDbCircle
 10
918.9234018892145
 20
1556.792518165639
 30
0.0
 40
0.0010000000000002
100
AcDbArc
 50
88.69804732796104
 51
180.0
  0
LINE
  5
6FE
330
23
100
AcDbEntity
  8
SANINDUSA
100
AcDbLine
 10
918.9204018892148
 20
1556.791359849423
 30
0.0
 11
918.9204018892148
 21
1556.792609074729
 31
0.0
  0
LINE
  5
6FF
330
23
100
AcDbEntity
  8
SANINDUSA
100
AcDbLine
 10
918.9224018892151
 20
1556.792518165639
 30
0.0
 11
918.9224018892151
 21
1556.791359849423
 31
0.0
  0
ARC
  5
700
330
23
100
AcDbEntity
  8
SANINDUSA
100
AcDbCircle
 10
918.9284018892145
 20
1556.793404787506
 30
0.0
 40
0.002
100
AcDbArc
 50
0.0
 51
88.69804732796104
  0
ARC
  5
701
330
23
100
AcDbEntity
  8
SANINDUSA
100
AcDbCircle
 10
918.9284018892145
 20
1556.65831491134
 30
0.0
 40
0.002
100
AcDbArc
 50
271.301952672039
 51
0.0
  0
LINE
  5
764
330
23
100
AcDbEntity
  8
SANINDUSA
100
AcDbLine
 10
918.8384018892143
 20
1556.540858262044
 30
0.0
 11
918.7811418775268
 21
1556.540858148929
 31
0.0
  0
ENDSEC
  0
SECTION
  2
OBJECTS
  0
DICTIONARY
  5
C
330
0
100
AcDbDictionary
281
     1
  3
ACAD_2007HEADERVARS_RT
350
7BC
  3
ACAD_COLOR
350
1C
  3
ACAD_GROUP
350
D
  3
ACAD_LAYOUT
350
1A
  3
ACAD_MATERIAL
350
1B
  3
ACAD_MLEADERSTYLE
350
5AF
  3
ACAD_MLINESTYLE
350
17
  3
ACAD_PLOTSETTINGS
350
19
  3
ACAD_PLOTSTYLENAME
350
E
  3
ACAD_SCALELIST
350
59D
  3
ACAD_TABLESTYLE
350
1D
  3
ACAD_VISUALSTYLE
350
589
  3
ACDB_RECOMPOSE_DATA
350
7BA
  3
AcDbVariableDictionary
350
53A
  3
AEC_PROPERTY_SET_DEFS
350
68B
  3
Autodesk_PNP
350
5B4
  3
DWGPROPS
350
7BB
  0
DICTIONARY
  5
766
330
10
100
AcDbDictionary
280
     1
281
     1
  3
ADSK_XREC_LAYER_RECONCILED
360
767
  0
DICTIONARY
  5
768
330
BB
100
AcDbDictionary
280
     1
281
     1
  3
ADSK_XREC_LAYER_RECONCILED
360
769
  0
DICTIONARY
  5
76A
330
BC
100
AcDbDictionary
280
     1
281
     1
  3
ADSK_XREC_LAYER_RECONCILED
360
76B
  0
DICTIONARY
  5
76C
330
BD
100
AcDbDictionary
280
     1
281
     1
  3
ADSK_XREC_LAYER_RECONCILED
360
76D
  0
DICTIONARY
  5
76E
330
BE
100
AcDbDictionary
280
     1
281
     1
  3
ADSK_XREC_LAYER_RECONCILED
360
76F
  0
DICTIONARY
  5
770
330
BF
100
AcDbDictionary
280
     1
281
     1
  3
ADSK_XREC_LAYER_RECONCILED
360
771
  0
DICTIONARY
  5
772
330
C0
100
AcDbDictionary
280
     1
281
     1
  3
ADSK_XREC_LAYER_RECONCILED
360
773
  0
DICTIONARY
  5
762
330
23
100
AcDbDictionary
280
     1
281
     1
  3
ACAD_SORTENTS
360
763
  0
DICTIONARY
  5
30
330
2F
100
AcDbDictionary
280
     1
281
     1
  3
ACAD_SORTENTS
360
31
  0
DICTIONARY
  5
7BC
102
{ACAD_REACTORS
330
C
102
}
330
C
100
AcDbDictionary
281
     1
  3
DIMFXL
350
7BD
  3
DIMJOGANG
350
7BE
  0
DICTIONARY
  5
1C
102
{ACAD_REACTORS
330
C
102
}
330
C
100
AcDbDictionary
281
     1
  0
DICTIONARY
  5
D
102
{ACAD_REACTORS
330
C
102
}
330
C
100
AcDbDictionary
281
     1
  0
DICTIONARY
  5
1A
102
{ACAD_REACTORS
330
C
102
}
330
C
100
AcDbDictionary
281
     1
  3
Layout1
350
22
  3
Layout2
350
2A
  3
Model
350
26
  0
DICTIONARY
  5
1B
102
{ACAD_REACTORS
330
C
102
}
330
C
100
AcDbDictionary
281
     1
  3
ByBlock
350
579
  3
ByLayer
350
571
  3
Global
350
581
  0
DICTIONARY
  5
5AF
102
{ACAD_REACTORS
330
C
102
}
330
C
100
AcDbDictionary
281
     1
  3
Standard
350
5B0
  0
DICTIONARY
  5
17
102
{ACAD_REACTORS
330
C
102
}
330
C
100
AcDbDictionary
281
     1
  3
Standard
350
18
  0
DICTIONARY
  5
19
102
{ACAD_REACTORS
330
C
102
}
330
C
100
AcDbDictionary
281
     1
  0
ACDBDICTIONARYWDFLT
  5
E
102
{ACAD_REACTORS
330
C
102
}
330
C
100
AcDbDictionary
281
     1
  3
Normal
350
F
100
AcDbDictionaryWithDefault
340
F
  0
DICTIONARY
  5
59D
102
{ACAD_REACTORS
330
C
102
}
330
C
100
AcDbDictionary
281
     1
  3
A0
350
59E
  3
A1
350
59F
  3
A2
350
5A0
  3
A3
350
5A1
  3
A4
350
5A2
  3
A5
350
5A3
  3
A6
350
5A4
  3
A7
350
5A5
  3
A8
350
5A6
  3
A9
350
5A7
  3
B0
350
5A8
  3
B1
350
5A9
  3
B2
350
5AA
  3
B3
350
5AB
  3
B4
350
5AC
  3
B5
350
5AD
  3
B6
350
5AE
  0
DICTIONARY
  5
1D
102
{ACAD_REACTORS
330
C
102
}
330
C
100
AcDbDictionary
281
     1
  3
Standard
350
1E
  0
DICTIONARY
  5
589
102
{ACAD_REACTORS
330
C
102
}
330
C
100
AcDbDictionary
281
     1
  3
2dWireframe
350
58F
  3
3D Hidden
350
591
  3
3dWireframe
350
590
  3
Basic
350
58E
  3
Brighten
350
595
  3
ColorChange
350
599
  3
Conceptual
350
592
  3
Dim
350
594
  3
EdgeColorOff
350
59C
  3
Facepattern
350
598
  3
Flat
350
58A
  3
FlatWithEdges
350
58B
  3
Gouraud
350
58C
  3
GouraudWithEdges
350
58D
  3
JitterOff
350
59A
  3
Linepattern
350
597
  3
OverhangOff
350
59B
  3
Realistic
350
593
  3
Thicken
350
596
  0
XRECORD
  5
7BA
102
{ACAD_REACTORS
330
C
102
}
330
C
100
AcDbXrecord
280
     1
 90
        1
330
1E
  0
DICTIONARY
  5
53A
102
{ACAD_REACTORS
330
C
102
}
330
C
100
AcDbDictionary
281
     1
  3
CANNOSCALE
350
7B4
  3
CMLEADERSTYLE
350
7B3
  3
CTABLESTYLE
350
53B
  3
DIMASSOC
350
56E
  3
HIDETEXT
350
56D
  3
INDEXCTL
350
7B6
  3
PROJECTNAME
350
56F
  3
SORTENTS
350
7B5
  3
XCLIPFRAME
350
7B7
  0
DICTIONARY
  5
68B
102
{ACAD_REACTORS
330
C
102
}
330
C
100
AcDbDictionary
281
     1
  0
DICTIONARY
  5
5B4
102
{ACAD_REACTORS
330
C
102
}
330
C
100
AcDbDictionary
281
     1
  0
XRECORD
  5
7BB
102
{ACAD_REACTORS
330
C
102
}
330
C
100
AcDbXrecord
280
     1
  1
DWGPROPS COOKIE
  2

  3

  4

  6

  7

  8
Julio
  9

300
=
301
=
302
=
303
=
304
=
305
=
306
=
307
=
308
=
309
=
 40
0.0093024884259259
 41
2453797.419882442
 42
2456147.424201563
  1

 90
        0
  0
XRECORD
  5
767
102
{ACAD_REACTORS
330
766
102
}
330
766
100
AcDbXrecord
280
     1
290
     1
  0
XRECORD
  5
769
102
{ACAD_REACTORS
330
768
102
}
330
768
100
AcDbXrecord
280
     1
290
     1
  0
XRECORD
  5
76B
102
{ACAD_REACTORS
330
76A
102
}
330
76A
100
AcDbXrecord
280
     1
290
     1
  0
XRECORD
  5
76D
102
{ACAD_REACTORS
330
76C
102
}
330
76C
100
AcDbXrecord
280
     1
290
     1
  0
XRECORD
  5
76F
102
{ACAD_REACTORS
330
76E
102
}
330
76E
100
AcDbXrecord
280
     1
290
     1
  0
XRECORD
  5
771
102
{ACAD_REACTORS
330
770
102
}
330
770
100
AcDbXrecord
280
     1
290
     1
  0
XRECORD
  5
773
102
{ACAD_REACTORS
330
772
102
}
330
772
100
AcDbXrecord
280
     1
290
     1
  0
SORTENTSTABLE
  5
763
102
{ACAD_REACTORS
330
762
102
}
330
762
100
AcDbSortentsTable
330
23
331
3F0
  5
3F0
331
549
  5
54B
331
412
  5
416
331
55A
  5
55C
331
434
  5
438
331
6A2
  5
6A4
331
691
  5
693
331
456
  5
45E
331
6BB
  5
6BD
331
4EA
  5
4EC
331
39D
  5
39D
331
38C
  5
38C
331
36A
  5
36A
331
359
  5
359
331
6CC
  5
6CE
331
6DD
  5
6DF
331
4B5
  5
4BD
331
6FF
  5
701
331
6EE
  5
6F0
331
51D
  5
521
331
53F
  5
541
331
30B
  5
30B
331
700
  5
764
331
540
  5
542
331
402
  5
406
331
55B
  5
55D
331
54A
  5
54C
331
424
  5
429
331
446
  5
44B
331
692
  5
694
331
4DA
  5
4E4
331
6A3
  5
6A5
331
483
  5
485
331
4EB
  5
4F2
331
6BC
  5
6BE
331
6CD
  5
6CF
331
4A5
  5
4A7
331
6EF
  5
6F1
331
6DE
  5
6E0
331
52F
  5
53D
331
50D
  5
50F
331
494
  5
49A
331
39E
  5
39E
331
37C
  5
37C
331
35A
  5
35A
331
6F0
  5
6F2
331
4C8
  5
4CF
331
701
  5
765
331
530
  5
53E
331
541
  5
543
331
54B
  5
54D
331
55C
  5
55E
331
693
  5
695
331
436
  5
43A
331
425
  5
42A
331
6A4
  5
6A6
331
484
  5
486
331
6BD
  5
6BF
331
495
  5
49B
331
4EC
  5
4F3
331
36C
  5
36C
331
34A
  5
34A
331
339
  5
339
331
6CE
  5
6D0
331
4A6
  5
4A8
331
6DF
  5
6E1
331
50E
  5
510
331
51F
  5
523
331
30D
  5
30D
331
6E0
  5
6E2
331
6F1
  5
6F3
331
4C9
  5
4D5
331
542
  5
544
331
3F3
  5
3F9
331
54C
  5
54E
331
55D
  5
55F
331
415
  5
418
331
694
  5
696
331
463
  5
469
331
6BE
  5
6C0
331
6A5
  5
6A7
331
4FE
  5
500
331
6CF
  5
6D1
331
4A7
  5
4A9
331
485
  5
488
331
34B
  5
34B
331
33A
  5
33A
331
50F
  5
511
331
31F
  5
31F
331
6D0
  5
6D2
331
4A8
  5
4AA
331
510
  5
517
331
6E1
  5
6E3
331
4B9
  5
4BF
331
6F2
  5
6F4
331
521
  5
525
331
543
  5
545
331
3E3
  5
3E3
331
405
  5
40A
331
54D
  5
54F
331
416
  5
424
331
55E
  5
560
331
438
  5
43C
331
695
  5
697
331
449
  5
44D
331
6BF
  5
6C1
331
6A6
  5
6A8
331
486
  5
489
331
390
  5
390
331
37F
  5
37F
331
36E
  5
36E
331
35D
  5
35D
331
34C
  5
34C
331
32A
  5
32A
331
4FF
  5
502
331
30F
  5
30F
331
6C0
  5
6C2
331
500
  5
503
331
6D1
  5
6D3
331
4A9
  5
4AB
331
6F3
  5
6F5
331
6E2
  5
6E4
331
511
  5
51B
331
544
  5
546
331
406
  5
40D
331
54E
  5
550
331
55F
  5
561
331
6A7
  5
6A9
331
696
  5
698
331
391
  5
391
331
36F
  5
36F
331
35E
  5
35E
331
34D
  5
34D
331
33C
  5
33C
331
321
  5
321
331
6B0
  5
6B2
331
488
  5
490
331
6C1
  5
6C3
331
6A8
  5
6AA
331
6E3
  5
6E5
331
6D2
  5
6D4
331
4AA
  5
4AC
331
6F4
  5
6F6
331
523
  5
526
331
54F
  5
551
331
545
  5
547
331
418
  5
425
331
3E5
  5
3E5
331
560
  5
562
331
429
  5
42C
331
44B
  5
44F
331
43A
  5
43D
331
697
  5
699
331
477
  5
47F
331
764
  5
3F7
331
381
  5
381
331
370
  5
370
331
311
  5
311
331
698
  5
69A
331
6B1
  5
6B3
331
489
  5
491
331
6A9
  5
6AB
331
6C2
  5
6C4
331
502
  5
507
331
6F5
  5
6F7
331
6E4
  5
6E6
331
6D3
  5
6D5
331
4AB
  5
4AD
331
49A
  5
49C
331
546
  5
548
331
561
  5
563
331
550
  5
552
331
3F7
  5
3FA
331
42A
  5
42E
331
467
  5
46A
331
382
  5
382
331
33E
  5
33E
331
32D
  5
32D
331
6B2
  5
6B4
331
699
  5
69B
331
6AA
  5
6AC
331
4F2
  5
4F6
331
6C3
  5
6C5
331
49B
  5
49D
331
503
  5
508
331
6D4
  5
6D6
331
4AC
  5
4AE
331
6E5
  5
6E7
331
4BD
  5
4C0
331
6F6
  5
6F8
331
525
  5
527
331
547
  5
549
331
551
  5
553
331
562
  5
690
331
43C
  5
43F
331
44D
  5
451
331
394
  5
394
331
372
  5
372
331
361
  5
361
331
350
  5
350
331
33F
  5
33F
331
313
  5
313
331
6B3
  5
6B5
331
69A
  5
69C
331
47A
  5
481
331
469
  5
46B
331
6AB
  5
6AD
331
6C4
  5
6C6
331
49C
  5
49E
331
6E6
  5
6E8
331
6D5
  5
6D7
331
4AD
  5
4AF
331
6F7
  5
6F9
331
4CF
  5
4D6
331
526
  5
528
331
4F3
  5
4F7
331
3F9
  5
3FB
331
40A
  5
40E
331
552
  5
554
331
563
  5
691
331
43D
  5
440
331
42C
  5
42F
331
373
  5
373
331
362
  5
362
331
351
  5
351
331
340
  5
340
331
32F
  5
32F
331
69B
  5
69D
331
46A
  5
46C
331
6B4
  5
6B6
331
4E3
  5
4E5
331
6AC
  5
6AE
331
6C5
  5
6C7
331
49D
  5
49F
331
6D6
  5
6D8
331
4AE
  5
4B0
331
6E7
  5
6E9
331
4BF
  5
4C1
331
6F8
  5
6FA
331
527
  5
529
331
553
  5
555
331
3FA
  5
3FC
331
44F
  5
452
331
385
  5
385
331
330
  5
330
331
315
  5
315
331
69C
  5
69E
331
46B
  5
46E
331
6B5
  5
6B7
331
4E4
  5
4E6
331
6AD
  5
6AF
331
6C6
  5
6C8
331
6D7
  5
6D9
331
4AF
  5
4B1
331
49E
  5
4A0
331
517
  5
51D
331
6E8
  5
6EA
331
4C0
  5
4C2
331
6F9
  5
6FB
331
528
  5
52A
331
3FB
  5
3FE
331
3EA
  5
3EA
331
554
  5
556
331
43F
  5
443
331
42E
  5
434
331
397
  5
397
331
364
  5
364
331
353
  5
353
331
331
  5
331
331
327
  5
327
331
69D
  5
69F
331
46C
  5
46F
331
451
  5
455
331
440
  5
446
331
6B6
  5
6B8
331
4E5
  5
4E7
331
4F6
  5
4F8
331
6C7
  5
6C9
331
49F
  5
4A1
331
6AE
  5
6B0
331
507
  5
509
331
6D8
  5
6DA
331
4B0
  5
4B2
331
6E9
  5
6EB
331
4C1
  5
4C3
331
6FA
  5
6FC
331
529
  5
52D
331
3EB
  5
3EB
331
3FC
  5
402
331
555
  5
557
331
40D
  5
410
331
42F
  5
436
331
376
  5
376
331
354
  5
354
331
343
  5
343
331
317
  5
317
331
69E
  5
6A0
331
4D5
  5
4D7
331
45C
  5
463
331
452
  5
456
331
6B7
  5
6B9
331
4E6
  5
4E8
331
399
  5
399
331
388
  5
388
331
6AF
  5
6B1
331
4F7
  5
4F9
331
6C8
  5
6CA
331
4A0
  5
4A2
331
508
  5
50A
331
6D9
  5
6DB
331
6EA
  5
6EC
331
4C2
  5
4C4
331
6FB
  5
6FD
331
556
  5
558
331
40E
  5
412
331
52A
  5
52F
331
4B1
  5
4B3
331
377
  5
377
331
307
  5
307
331
4D6
  5
4DA
331
46E
  5
477
331
69F
  5
6A1
331
47F
  5
483
331
4E7
  5
4EA
331
6B8
  5
6BA
331
490
  5
492
331
4F8
  5
4FE
331
6C9
  5
6CB
331
4A1
  5
4A5
331
509
  5
50B
331
6DA
  5
6DC
331
4B2
  5
4B5
331
6FC
  5
6FE
331
6EB
  5
6ED
331
4C3
  5
4C5
331
3ED
  5
3ED
331
3FE
  5
405
331
557
  5
559
331
367
  5
367
331
345
  5
345
331
334
  5
334
331
319
  5
319
331
308
  5
308
331
558
  5
55A
331
410
  5
415
331
443
  5
449
331
6A0
  5
6A2
331
4D7
  5
4E3
331
46F
  5
47A
331
45E
  5
467
331
4E8
  5
4EB
331
6B9
  5
6BB
331
491
  5
494
331
39B
  5
39B
331
38A
  5
38A
331
4F9
  5
4FF
331
6CA
  5
6CC
331
4A2
  5
4A6
331
50A
  5
50D
331
6DB
  5
6DD
331
51B
  5
51F
331
6FD
  5
6FF
331
6EC
  5
6EE
331
53D
  5
53F
331
4C4
  5
4C8
331
4B3
  5
4B9
331
3EE
  5
3EE
331
357
  5
357
331
346
  5
346
331
309
  5
309
331
559
  5
55B
331
548
  5
54A
331
690
  5
692
331
455
  5
45C
331
6A1
  5
6A3
331
481
  5
484
331
6BA
  5
6BC
331
492
  5
495
331
358
  5
358
331
6CB
  5
6CD
331
6DC
  5
6DE
331
50B
  5
50E
331
6ED
  5
6EF
331
4C5
  5
4C9
331
6FE
  5
700
331
52D
  5
530
331
53E
  5
540
331
3EF
  5
3EF
331
336
  5
336
331
31B
  5
31B
331
30A
  5
30A
  0
SORTENTSTABLE
  5
31
102
{ACAD_REACTORS
330
30
102
}
330
30
100
AcDbSortentsTable
330
2F
331
82
  5
2BD
331
AF
  5
2EB
331
88
  5
2C3
331
83
  5
2BE
331
B0
  5
2EC
331
89
  5
2C4
331
84
  5
2BF
331
B1
  5
2ED
331
8A
  5
2C5
331
85
  5
2C0
331
B2
  5
2EE
331
8B
  5
2C6
331
86
  5
2C1
331
B3
  5
2CB
331
8C
  5
2C7
331
87
  5
2C2
331
B4
  5
2B9
331
8D
  5
2C8
331
8E
  5
2C9
331
8F
  5
2CA
331
90
  5
2CC
331
91
  5
2CD
331
98
  5
2D4
331
92
  5
2CE
331
99
  5
2D5
331
93
  5
2CF
331
9A
  5
2D6
331
94
  5
2D0
331
9B
  5
2D7
331
95
  5
2D1
331
9C
  5
2D8
331
96
  5
2D2
331
97
  5
2D3
331
9D
  5
2D9
331
9E
  5
2DA
331
9F
  5
2DB
331
A0
  5
2DC
331
A1
  5
2DD
331
A2
  5
2DE
331
A8
  5
2E4
331
A3
  5
2DF
331
A9
  5
2E5
331
A4
  5
2E0
331
AA
  5
2E6
331
A5
  5
2E1
331
AB
  5
2E7
331
A6
  5
2E2
331
7F
  5
2BA
331
AC
  5
2E8
331
A7
  5
2E3
331
80
  5
2BB
331
AD
  5
2E9
331
81
  5
2BC
331
AE
  5
2EA
  0
XRECORD
  5
7BD
102
{ACAD_REACTORS
330
7BC
102
}
330
7BC
100
AcDbXrecord
280
     1
 40
4.0
  0
XRECORD
  5
7BE
102
{ACAD_REACTORS
330
7BC
102
}
330
7BC
100
AcDbXrecord
280
     1
 40
1.570796326794896
  0
LAYOUT
  5
22
102
{ACAD_XDICTIONARY
360
7C0
102
}
102
{ACAD_REACTORS
330
1A
102
}
330
1A
100
AcDbPlotSettings
  1

  2
HP DesignJet 500PS42+HPGL2 Card
  4

  6

 40
0.0
 41
0.0
 42
0.0
 43
0.0
 44
0.0
 45
0.0
 46
0.0
 47
0.0
 48
0.0
 49
0.0
140
0.0
141
0.0
142
1.0
143
1.0
 70
   688
 72
     0
 73
     0
 74
     5
  7
C:\Documents and Settings\Julio\Application Data\Autodesk\AutoCAD 2006\R16.2\enu\Plot Styles\sanindusa.ctb
 75
    16
147
1.0
148
0.0
149
0.0
100
AcDbLayout
  1
Layout1
 70
     1
 71
     1
 10
0.0
 20
0.0
 11
420.0
 21
297.0
 12
0.0
 22
0.0
 32
0.0
 14
1.000000000000000E+20
 24
1.000000000000000E+20
 34
1.000000000000000E+20
 15
-1.000000000000000E+20
 25
-1.000000000000000E+20
 35
-1.000000000000000E+20
146
0.0
 13
0.0
 23
0.0
 33
0.0
 16
1.0
 26
0.0
 36
0.0
 17
0.0
 27
1.0
 37
0.0
 76
     0
330
1F
  0
LAYOUT
  5
2A
102
{ACAD_XDICTIONARY
360
7C4
102
}
102
{ACAD_REACTORS
330
1A
102
}
330
1A
100
AcDbPlotSettings
  1

  2
HP DesignJet 500PS42+HPGL2 Card
  4

  6

 40
0.0
 41
0.0
 42
0.0
 43
0.0
 44
0.0
 45
0.0
 46
0.0
 47
0.0
 48
0.0
 49
0.0
140
0.0
141
0.0
142
1.0
143
1.0
 70
   688
 72
     0
 73
     0
 74
     5
  7
C:\Documents and Settings\Julio\Application Data\Autodesk\AutoCAD 2006\R16.2\enu\Plot Styles\sanindusa.ctb
 75
    16
147
1.0
148
0.0
149
0.0
100
AcDbLayout
  1
Layout2
 70
     1
 71
     2
 10
0.0
 20
0.0
 11
12.0
 21
9.0
 12
0.0
 22
0.0
 32
0.0
 14
0.0
 24
0.0
 34
0.0
 15
0.0
 25
0.0
 35
0.0
146
0.0
 13
0.0
 23
0.0
 33
0.0
 16
1.0
 26
0.0
 36
0.0
 17
0.0
 27
1.0
 37
0.0
 76
     0
330
27
  0
LAYOUT
  5
26
102
{ACAD_XDICTIONARY
360
7C2
102
}
102
{ACAD_REACTORS
330
1A
102
}
330
1A
100
AcDbPlotSettings
  1

  2
HP DesignJet 500PS42+HPGL2 Card
  4

  6

 40
0.0
 41
0.0
 42
0.0
 43
0.0
 44
0.0
 45
0.0
 46
0.0
 47
0.0
 48
0.0
 49
0.0
140
0.0
141
0.0
142
1.0
143
1.0
 70
  1712
 72
     0
 73
     0
 74
     0
  7
C:\Documents and Settings\Julio\Application Data\Autodesk\AutoCAD 2006\R16.2\enu\Plot Styles\sanindusa.ctb
 75
     0
147
1.0
148
0.0
149
0.0
100
AcDbLayout
  1
Model
 70
     1
 71
     0
 10
0.0
 20
0.0
 11
12.0
 21
9.0
 12
0.0
 22
0.0
 32
0.0
 14
0.0
 24
0.0
 34
0.0
 15
0.0
 25
0.0
 35
0.0
146
0.0
 13
0.0
 23
0.0
 33
0.0
 16
1.0
 26
0.0
 36
0.0
 17
0.0
 27
1.0
 37
0.0
 76
     0
330
23
331
565
  0
MATERIAL
  5
579
102
{ACAD_XDICTIONARY
360
57A
102
}
102
{ACAD_REACTORS
330
1B
102
}
330
1B
100
AcDbMaterial
  1
ByBlock
 72
     0
 43
0.0008202099737533
 43
0.0
 43
0.0
 43
0.0
 43
0.0
 43
0.0008202099737533
 43
0.0
 43
0.0
 43
0.0
 43
0.0
 43
1.0
 43
0.0
 43
0.0
 43
0.0
 43
0.0
 43
1.0
 77
     0
 47
0.0008202099737533
 47
0.0
 47
0.0
 47
0.0
 47
0.0
 47
0.0008202099737533
 47
0.0
 47
0.0
 47
0.0
 47
0.0
 47
1.0
 47
0.0
 47
0.0
 47
0.0
 47
0.0
 47
1.0
171
     0
 49
0.0008202099737533
 49
0.0
 49
0.0
 49
0.0
 49
0.0
 49
0.0008202099737533
 49
0.0
 49
0.0
 49
0.0
 49
0.0
 49
1.0
 49
0.0
 49
0.0
 49
0.0
 49
0.0
 49
1.0
175
     0
142
0.0008202099737533
142
0.0
142
0.0
142
0.0
142
0.0
142
0.0008202099737533
142
0.0
142
0.0
142
0.0
142
0.0
142
1.0
142
0.0
142
0.0
142
0.0
142
0.0
142
1.0
179
     0
144
0.0008202099737533
144
0.0
144
0.0
144
0.0
144
0.0
144
0.0008202099737533
144
0.0
144
0.0
144
0.0
144
0.0
144
1.0
144
0.0
144
0.0
144
0.0
144
0.0
144
1.0
147
0.0008202099737533
147
0.0
147
0.0
147
0.0
147
0.0
147
0.0008202099737533
147
0.0
147
0.0
147
0.0
147
0.0
147
1.0
147
0.0
147
0.0
147
0.0
147
0.0
147
1.0
  0
MATERIAL
  5
571
102
{ACAD_XDICTIONARY
360
572
102
}
102
{ACAD_REACTORS
330
1B
102
}
330
1B
100
AcDbMaterial
  1
ByLayer
 72
     0
 43
0.0008202099737533
 43
0.0
 43
0.0
 43
0.0
 43
0.0
 43
0.0008202099737533
 43
0.0
 43
0.0
 43
0.0
 43
0.0
 43
1.0
 43
0.0
 43
0.0
 43
0.0
 43
0.0
 43
1.0
 77
     0
 47
0.0008202099737533
 47
0.0
 47
0.0
 47
0.0
 47
0.0
 47
0.0008202099737533
 47
0.0
 47
0.0
 47
0.0
 47
0.0
 47
1.0
 47
0.0
 47
0.0
 47
0.0
 47
0.0
 47
1.0
171
     0
 49
0.0008202099737533
 49
0.0
 49
0.0
 49
0.0
 49
0.0
 49
0.0008202099737533
 49
0.0
 49
0.0
 49
0.0
 49
0.0
 49
1.0
 49
0.0
 49
0.0
 49
0.0
 49
0.0
 49
1.0
175
     0
142
0.0008202099737533
142
0.0
142
0.0
142
0.0
142
0.0
142
0.0008202099737533
142
0.0
142
0.0
142
0.0
142
0.0
142
1.0
142
0.0
142
0.0
142
0.0
142
0.0
142
1.0
179
     0
144
0.0008202099737533
144
0.0
144
0.0
144
0.0
144
0.0
144
0.0008202099737533
144
0.0
144
0.0
144
0.0
144
0.0
144
1.0
144
0.0
144
0.0
144
0.0
144
0.0
144
1.0
147
0.0008202099737533
147
0.0
147
0.0
147
0.0
147
0.0
147
0.0008202099737533
147
0.0
147
0.0
147
0.0
147
0.0
147
1.0
147
0.0
147
0.0
147
0.0
147
0.0
147
1.0
  0
MATERIAL
  5
581
102
{ACAD_XDICTIONARY
360
582
102
}
102
{ACAD_REACTORS
330
1B
102
}
330
1B
100
AcDbMaterial
  1
Global
 72
     0
 43
0.0008202099737533
 43
0.0
 43
0.0
 43
0.0
 43
0.0
 43
0.0008202099737533
 43
0.0
 43
0.0
 43
0.0
 43
0.0
 43
1.0
 43
0.0
 43
0.0
 43
0.0
 43
0.0
 43
1.0
 77
     0
 47
0.0008202099737533
 47
0.0
 47
0.0
 47
0.0
 47
0.0
 47
0.0008202099737533
 47
0.0
 47
0.0
 47
0.0
 47
0.0
 47
1.0
 47
0.0
 47
0.0
 47
0.0
 47
0.0
 47
1.0
171
     0
 49
0.0008202099737533
 49
0.0
 49
0.0
 49
0.0
 49
0.0
 49
0.0008202099737533
 49
0.0
 49
0.0
 49
0.0
 49
0.0
 49
1.0
 49
0.0
 49
0.0
 49
0.0
 49
0.0
 49
1.0
175
     0
142
0.0008202099737533
142
0.0
142
0.0
142
0.0
142
0.0
142
0.0008202099737533
142
0.0
142
0.0
142
0.0
142
0.0
142
1.0
142
0.0
142
0.0
142
0.0
142
0.0
142
1.0
179
     0
144
0.0008202099737533
144
0.0
144
0.0
144
0.0
144
0.0
144
0.0008202099737533
144
0.0
144
0.0
144
0.0
144
0.0
144
1.0
144
0.0
144
0.0
144
0.0
144
0.0
144
1.0
147
0.0008202099737533
147
0.0
147
0.0
147
0.0
147
0.0
147
0.0008202099737533
147
0.0
147
0.0
147
0.0
147
0.0
147
1.0
147
0.0
147
0.0
147
0.0
147
0.0
147
1.0
  0
MLEADERSTYLE
  5
5B0
102
{ACAD_REACTORS
330
5AF
102
}
330
5AF
100
AcDbMLeaderStyle
170
     2
171
     1
172
     0
 90
        2
 40
0.0
 41
0.0
173
     1
 91
-1056964608
340
14
 92
       -2
290
     1
 42
2.0
291
     1
 43
0.36
  3
Standard
 44
4.0
300

342
11
174
     1
178
     6
175
     1
176
     0
 93
-1056964608
 45
4.0
292
     0
297
     0
 46
4.0
 94
-1056964608
 47
1.0
 49
1.0
140
1.0
293
     1
141
0.0
294
     1
177
     0
142
1.0
295
     0
296
     0
143
0.125
1001
ACAD_MLEADERVER
1070
     2
  0
MLINESTYLE
  5
18
102
{ACAD_REACTORS
330
17
102
}
330
17
100
AcDbMlineStyle
  2
STANDARD
 70
     0
  3

 62
   256
 51
90.0
 52
90.0
 71
     2
 49
0.5
 62
   256
  6
BYLAYER
 49
-0.5
 62
   256
  6
BYLAYER
  0
ACDBPLACEHOLDER
  5
F
102
{ACAD_REACTORS
330
E
102
}
330
E
  0
SCALE
  5
59E
102
{ACAD_REACTORS
330
59D
102
}
330
59D
100
AcDbScale
 70
     0
300
1:1
140
1.0
141
1.0
290
     1
  0
SCALE
  5
59F
102
{ACAD_REACTORS
330
59D
102
}
330
59D
100
AcDbScale
 70
     0
300
1:2
140
1.0
141
2.0
290
     0
  0
SCALE
  5
5A0
102
{ACAD_REACTORS
330
59D
102
}
330
59D
100
AcDbScale
 70
     0
300
1:4
140
1.0
141
4.0
290
     0
  0
SCALE
  5
5A1
102
{ACAD_REACTORS
330
59D
102
}
330
59D
100
AcDbScale
 70
     0
300
1:5
140
1.0
141
5.0
290
     0
  0
SCALE
  5
5A2
102
{ACAD_REACTORS
330
59D
102
}
330
59D
100
AcDbScale
 70
     0
300
1:8
140
1.0
141
8.0
290
     0
  0
SCALE
  5
5A3
102
{ACAD_REACTORS
330
59D
102
}
330
59D
100
AcDbScale
 70
     0
300
1:10
140
1.0
141
10.0
290
     0
  0
SCALE
  5
5A4
102
{ACAD_REACTORS
330
59D
102
}
330
59D
100
AcDbScale
 70
     0
300
1:16
140
1.0
141
16.0
290
     0
  0
SCALE
  5
5A5
102
{ACAD_REACTORS
330
59D
102
}
330
59D
100
AcDbScale
 70
     0
300
1:20
140
1.0
141
20.0
290
     0
  0
SCALE
  5
5A6
102
{ACAD_REACTORS
330
59D
102
}
330
59D
100
AcDbScale
 70
     0
300
1:30
140
1.0
141
30.0
290
     0
  0
SCALE
  5
5A7
102
{ACAD_REACTORS
330
59D
102
}
330
59D
100
AcDbScale
 70
     0
300
1:40
140
1.0
141
40.0
290
     0
  0
SCALE
  5
5A8
102
{ACAD_REACTORS
330
59D
102
}
330
59D
100
AcDbScale
 70
     0
300
1:50
140
1.0
141
50.0
290
     0
  0
SCALE
  5
5A9
102
{ACAD_REACTORS
330
59D
102
}
330
59D
100
AcDbScale
 70
     0
300
1:100
140
1.0
141
100.0
290
     0
  0
SCALE
  5
5AA
102
{ACAD_REACTORS
330
59D
102
}
330
59D
100
AcDbScale
 70
     0
300
2:1
140
2.0
141
1.0
290
     0
  0
SCALE
  5
5AB
102
{ACAD_REACTORS
330
59D
102
}
330
59D
100
AcDbScale
 70
     0
300
4:1
140
4.0
141
1.0
290
     0
  0
SCALE
  5
5AC
102
{ACAD_REACTORS
330
59D
102
}
330
59D
100
AcDbScale
 70
     0
300
8:1
140
8.0
141
1.0
290
     0
  0
SCALE
  5
5AD
102
{ACAD_REACTORS
330
59D
102
}
330
59D
100
AcDbScale
 70
     0
300
10:1
140
10.0
141
1.0
290
     0
  0
SCALE
  5
5AE
102
{ACAD_REACTORS
330
59D
102
}
330
59D
100
AcDbScale
 70
     0
300
100:1
140
100.0
141
1.0
290
     0
  0
TABLESTYLE
  5
1E
102
{ACAD_XDICTIONARY
360
7B8
102
}
102
{ACAD_REACTORS
330
1D
102
}
330
1D
100
AcDbTableStyle
  3
Standard
 70
     0
 71
     0
 40
1.5
 41
1.5
280
     0
281
     0
  7
Standard
140
4.5
170
     2
 62
     0
 63
     7
283
     0
274
    -2
284
     1
 64
     0
275
    -2
285
     1
 65
     0
276
    -2
286
     1
 66
     0
277
    -2
287
     1
 67
     0
278
    -2
288
     1
 68
     0
279
    -2
289
     1
 69
     0
  7
Standard
140
6.0
170
     5
 62
     0
 63
     7
283
     0
274
    -2
284
     1
 64
     0
275
    -2
285
     1
 65
     0
276
    -2
286
     1
 66
     0
277
    -2
287
     1
 67
     0
278
    -2
288
     1
 68
     0
279
    -2
289
     1
 69
     0
  7
Standard
140
4.5
170
     5
 62
     0
 63
     7
283
     0
274
    -2
284
     1
 64
     0
275
    -2
285
     1
 65
     0
276
    -2
286
     1
 66
     0
277
    -2
287
     1
 67
     0
278
    -2
288
     1
 68
     0
279
    -2
289
     1
 69
     0
  0
VISUALSTYLE
  5
58F
102
{ACAD_XDICTIONARY
360
7D3
102
}
102
{ACAD_REACTORS
330
589
102
}
330
589
100
AcDbVisualStyle
  2
2dWireframe
 70
     4
 71
     0
 72
     2
 73
     0
 90
        0
 40
-0.6
 41
-30.0
 62
     5
 63
     7
 74
     1
 91
        4
 64
     7
 65
   257
 75
     1
175
     1
 42
1.0
 92
        0
 66
   257
 43
1.0
 76
     1
 77
     6
 78
     2
 67
     7
 79
     5
170
     0
171
     0
290
     0
174
     0
 93
        1
 44
0.0
173
     0
291
     0
 45
0.0
1001
ACAD
1000
AcDbSavedByObjectVersion
1070
     0
  0
VISUALSTYLE
  5
591
102
{ACAD_XDICTIONARY
360
7D7
102
}
102
{ACAD_REACTORS
330
589
102
}
330
589
100
AcDbVisualStyle
  2
3D Hidden
 70
     6
 71
     1
 72
     2
 73
     2
 90
        0
 40
-0.6
 41
-30.0
 62
     5
 63
     7
 74
     2
 91
        2
 64
     7
 65
   257
 75
     2
175
     1
 42
179.0
 92
        0
 66
   257
 43
1.0
 76
     1
 77
     6
 78
     2
 67
     7
 79
     3
170
     0
171
     0
290
     0
174
     0
 93
        1
 44
0.0
173
     0
291
     0
 45
0.0
1001
ACAD
1000
AcDbSavedByObjectVersion
1070
     0
  0
VISUALSTYLE
  5
590
102
{ACAD_XDICTIONARY
360
7D5
102
}
102
{ACAD_REACTORS
330
589
102
}
330
589
100
AcDbVisualStyle
  2
3dWireframe
 70
     5
 71
     0
 72
     2
 73
     0
 90
        0
 40
-0.6
 41
-30.0
 62
     5
 63
     7
 74
     1
 91
        4
 64
     7
 65
   257
 75
     1
175
     1
 42
1.0
 92
        0
 66
   257
 43
1.0
 76
     1
 77
     6
 78
     2
 67
     7
 79
     5
170
     0
171
     0
290
     0
174
     0
 93
        1
 44
0.0
173
     0
291
     0
 45
0.0
1001
ACAD
1000
AcDbSavedByObjectVersion
1070
     0
  0
VISUALSTYLE
  5
58E
102
{ACAD_XDICTIONARY
360
7D1
102
}
102
{ACAD_REACTORS
330
589
102
}
330
589
100
AcDbVisualStyle
  2
Basic
 70
     7
 71
     1
 72
     0
 73
     1
 90
        0
 40
-0.6
 41
-30.0
 62
     5
 63
     7
 74
     0
 91
        4
 64
     7
 65
   257
 75
     1
175
     1
 42
1.0
 92
        8
 66
     7
 43
1.0
 76
     1
 77
     6
 78
     2
 67
     7
 79
     5
170
     0
171
     0
290
     0
174
     0
 93
        1
 44
0.0
173
     0
291
     1
 45
0.0
1001
ACAD
1000
AcDbSavedByObjectVersion
1070
     0
  0
VISUALSTYLE
  5
595
102
{ACAD_XDICTIONARY
360
7DF
102
}
102
{ACAD_REACTORS
330
589
102
}
330
589
100
AcDbVisualStyle
  2
Brighten
 70
    12
 71
     2
 72
     2
 73
     0
 90
        0
 40
-0.6
 41
-30.0
 62
     5
 63
     7
 74
     1
 91
        4
 64
     7
 65
   257
 75
     1
175
     1
 42
1.0
 92
        8
 66
     7
 43
1.0
 76
     1
 77
     6
 78
     2
 67
     7
 79
     5
170
     0
171
     0
290
     0
174
     0
 93
        1
 44
50.0
173
     0
291
     1
 45
0.0
1001
ACAD
1000
AcDbSavedByObjectVersion
1070
     0
  0
VISUALSTYLE
  5
599
102
{ACAD_XDICTIONARY
360
7E7
102
}
102
{ACAD_REACTORS
330
589
102
}
330
589
100
AcDbVisualStyle
  2
ColorChange
 70
    16
 71
     2
 72
     2
 73
     3
 90
        0
 40
-0.6
 41
-30.0
 62
     5
 63
     8
 74
     1
 91
        4
 64
     7
 65
   257
 75
     1
175
     1
 42
1.0
 92
        8
 66
     8
 43
1.0
 76
     1
 77
     6
 78
     2
 67
     7
 79
     5
170
     0
171
     0
290
     0
174
     0
 93
        1
 44
0.0
173
     0
291
     1
 45
0.0
1001
ACAD
1000
AcDbSavedByObjectVersion
1070
     0
  0
VISUALSTYLE
  5
592
102
{ACAD_XDICTIONARY
360
7D9
102
}
102
{ACAD_REACTORS
330
589
102
}
330
589
100
AcDbVisualStyle
  2
Conceptual
 70
     9
 71
     3
 72
     2
 73
     0
 90
        0
 40
-0.6
 41
-30.0
 62
     5
 63
     7
 74
     2
 91
        2
 64
     7
 65
   257
 75
     1
175
     1
 42
179.0
 92
        8
 66
     7
 43
1.0
 76
     1
 77
     6
 78
     2
 67
     7
 79
     3
170
     0
171
     0
290
     0
174
     0
 93
        1
 44
0.0
173
     0
291
     0
 45
0.0
1001
ACAD
1000
AcDbSavedByObjectVersion
1070
     0
  0
VISUALSTYLE
  5
594
102
{ACAD_XDICTIONARY
360
7DD
102
}
102
{ACAD_REACTORS
330
589
102
}
330
589
100
AcDbVisualStyle
  2
Dim
 70
    11
 71
     2
 72
     2
 73
     0
 90
        0
 40
-0.6
 41
-30.0
 62
     5
 63
     7
 74
     1
 91
        4
 64
     7
 65
   257
 75
     1
175
     1
 42
1.0
 92
        8
 66
     7
 43
1.0
 76
     1
 77
     6
 78
     2
 67
     7
 79
     5
170
     0
171
     0
290
     0
174
     0
 93
        1
 44
-50.0
173
     0
291
     1
 45
0.0
1001
ACAD
1000
AcDbSavedByObjectVersion
1070
     0
  0
VISUALSTYLE
  5
59C
102
{ACAD_XDICTIONARY
360
7ED
102
}
102
{ACAD_REACTORS
330
589
102
}
330
589
100
AcDbVisualStyle
  2
EdgeColorOff
 70
    22
 71
     2
 72
     2
 73
     0
 90
        0
 40
-0.6
 41
-30.0
 62
     5
 63
     7
 74
     1
 91
        4
 64
     7
 65
   257
 75
     1
175
     1
 42
1.0
 92
        8
 66
     7
 43
1.0
 76
     1
 77
     6
 78
     2
 67
     7
 79
     5
170
     0
171
     0
290
     0
174
     0
 93
        1
 44
0.0
173
     0
291
     1
 45
0.0
1001
ACAD
1000
AcDbSavedByObjectVersion
1070
     0
  0
VISUALSTYLE
  5
598
102
{ACAD_XDICTIONARY
360
7E5
102
}
102
{ACAD_REACTORS
330
589
102
}
330
589
100
AcDbVisualStyle
  2
Facepattern
 70
    15
 71
     2
 72
     2
 73
     0
 90
        0
 40
-0.6
 41
-30.0
 62
     5
 63
     7
 74
     1
 91
        4
 64
     7
 65
   257
 75
     1
175
     1
 42
1.0
 92
        8
 66
     7
 43
1.0
 76
     1
 77
     6
 78
     2
 67
     7
 79
     5
170
     0
171
     0
290
     0
174
     0
 93
        1
 44
0.0
173
     0
291
     1
 45
0.0
1001
ACAD
1000
AcDbSavedByObjectVersion
1070
     0
  0
VISUALSTYLE
  5
58A
102
{ACAD_XDICTIONARY
360
7C9
102
}
102
{ACAD_REACTORS
330
589
102
}
330
589
100
AcDbVisualStyle
  2
Flat
 70
     0
 71
     2
 72
     1
 73
     1
 90
        2
 40
-0.6
 41
30.0
 62
     5
 63
     7
 74
     0
 91
        4
 64
     7
 65
   257
 75
     1
175
     1
 42
1.0
 92
        8
 66
     7
 43
1.0
 76
     1
 77
     6
 78
     2
 67
     7
 79
     5
170
     0
171
     0
290
     0
174
     0
 93
       13
 44
0.0
173
     0
291
     1
 45
0.0
1001
ACAD
1000
AcDbSavedByObjectVersion
1070
     0
  0
VISUALSTYLE
  5
58B
102
{ACAD_XDICTIONARY
360
7CB
102
}
102
{ACAD_REACTORS
330
589
102
}
330
589
100
AcDbVisualStyle
  2
FlatWithEdges
 70
     1
 71
     2
 72
     1
 73
     1
 90
        2
 40
-0.6
 41
30.0
 62
     5
 63
     7
 74
     1
 91
        4
 64
     7
 65
   257
 75
     1
175
     1
 42
1.0
 92
        0
 66
   257
 43
1.0
 76
     1
 77
     6
 78
     2
 67
     7
 79
     5
170
     0
171
     0
290
     0
174
     0
 93
       13
 44
0.0
173
     0
291
     1
 45
0.0
1001
ACAD
1000
AcDbSavedByObjectVersion
1070
     0
  0
VISUALSTYLE
  5
58C
102
{ACAD_XDICTIONARY
360
7CD
102
}
102
{ACAD_REACTORS
330
589
102
}
330
589
100
AcDbVisualStyle
  2
Gouraud
 70
     2
 71
     2
 72
     2
 73
     1
 90
        2
 40
-0.6
 41
30.0
 62
     5
 63
     7
 74
     0
 91
        4
 64
     7
 65
   257
 75
     1
175
     1
 42
1.0
 92
        0
 66
     7
 43
1.0
 76
     1
 77
     6
 78
     2
 67
     7
 79
     5
170
     0
171
     0
290
     0
174
     0
 93
       13
 44
0.0
173
     0
291
     1
 45
0.0
1001
ACAD
1000
AcDbSavedByObjectVersion
1070
     0
  0
VISUALSTYLE
  5
58D
102
{ACAD_XDICTIONARY
360
7CF
102
}
102
{ACAD_REACTORS
330
589
102
}
330
589
100
AcDbVisualStyle
  2
GouraudWithEdges
 70
     3
 71
     2
 72
     2
 73
     1
 90
        2
 40
-0.6
 41
30.0
 62
     5
 63
     7
 74
     1
 91
        4
 64
     7
 65
   257
 75
     1
175
     1
 42
1.0
 92
        0
 66
   257
 43
1.0
 76
     1
 77
     6
 78
     2
 67
     7
 79
     5
170
     0
171
     0
290
     0
174
     0
 93
       13
 44
0.0
173
     0
291
     1
 45
0.0
1001
ACAD
1000
AcDbSavedByObjectVersion
1070
     0
  0
VISUALSTYLE
  5
59A
102
{ACAD_XDICTIONARY
360
7E9
102
}
102
{ACAD_REACTORS
330
589
102
}
330
589
100
AcDbVisualStyle
  2
JitterOff
 70
    20
 71
     2
 72
     2
 73
     0
 90
        0
 40
-0.6
 41
-30.0
 62
     5
 63
     7
 74
     1
 91
        4
 64
     7
 65
   257
 75
     1
175
     1
 42
1.0
 92
       10
 66
     7
 43
1.0
 76
     1
 77
     6
 78
     2
 67
     7
 79
     5
170
     0
171
     0
290
     0
174
     0
 93
        1
 44
0.0
173
     0
291
     1
 45
0.0
1001
ACAD
1000
AcDbSavedByObjectVersion
1070
     0
  0
VISUALSTYLE
  5
597
102
{ACAD_XDICTIONARY
360
7E3
102
}
102
{ACAD_REACTORS
330
589
102
}
330
589
100
AcDbVisualStyle
  2
Linepattern
 70
    14
 71
     2
 72
     2
 73
     0
 90
        0
 40
-0.6
 41
-30.0
 62
     5
 63
     7
 74
     1
 91
        4
 64
     7
 65
   257
 75
     7
175
     7
 42
1.0
 92
        8
 66
     7
 43
1.0
 76
     1
 77
     6
 78
     2
 67
     7
 79
     5
170
     0
171
     0
290
     0
174
     0
 93
        1
 44
0.0
173
     0
291
     1
 45
0.0
1001
ACAD
1000
AcDbSavedByObjectVersion
1070
     0
  0
VISUALSTYLE
  5
59B
102
{ACAD_XDICTIONARY
360
7EB
102
}
102
{ACAD_REACTORS
330
589
102
}
330
589
100
AcDbVisualStyle
  2
OverhangOff
 70
    21
 71
     2
 72
     2
 73
     0
 90
        0
 40
-0.6
 41
-30.0
 62
     5
 63
     7
 74
     1
 91
        4
 64
     7
 65
   257
 75
     1
175
     1
 42
1.0
 92
        9
 66
     7
 43
1.0
 76
     1
 77
     6
 78
     2
 67
     7
 79
     5
170
     0
171
     0
290
     0
174
     0
 93
        1
 44
0.0
173
     0
291
     1
 45
0.0
1001
ACAD
1000
AcDbSavedByObjectVersion
1070
     0
  0
VISUALSTYLE
  5
593
102
{ACAD_XDICTIONARY
360
7DB
102
}
102
{ACAD_REACTORS
330
589
102
}
330
589
100
AcDbVisualStyle
  2
Realistic
 70
     8
 71
     2
 72
     2
 73
     0
 90
        0
 40
-0.6
 41
-30.0
 62
     5
 63
     7
 74
     1
 91
        0
 64
     7
 65
   257
 75
     1
175
     1
 42
1.0
 92
        8
 66
     8
 43
1.0
 76
     1
 77
     6
 78
     2
 67
     7
 79
     5
170
     0
171
     0
290
     0
174
     0
 93
       13
 44
0.0
173
     0
291
     0
 45
0.0
1001
ACAD
1000
AcDbSavedByObjectVersion
1070
     0
  0
VISUALSTYLE
  5
596
102
{ACAD_XDICTIONARY
360
7E1
102
}
102
{ACAD_REACTORS
330
589
102
}
330
589
100
AcDbVisualStyle
  2
Thicken
 70
    13
 71
     2
 72
     2
 73
     0
 90
        0
 40
-0.6
 41
-30.0
 62
     5
 63
     7
 74
     1
 91
        4
 64
     7
 65
   257
 75
     1
175
     1
 42
1.0
 92
       12
 66
     7
 43
1.0
 76
     1
 77
     6
 78
     2
 67
     7
 79
     5
170
     0
171
     0
290
     0
174
     0
 93
        1
 44
0.0
173
     0
291
     1
 45
0.0
1001
ACAD
1000
AcDbSavedByObjectVersion
1070
     0
  0
DICTIONARYVAR
  5
7B4
102
{ACAD_REACTORS
330
53A
102
}
330
53A
100
DictionaryVariables
280
     0
  1
1:1
  0
DICTIONARYVAR
  5
7B3
102
{ACAD_REACTORS
330
53A
102
}
330
53A
100
DictionaryVariables
280
     0
  1
STANDARD
  0
DICTIONARYVAR
  5
53B
102
{ACAD_REACTORS
330
53A
102
}
330
53A
100
DictionaryVariables
280
     0
  1
STANDARD
  0
DICTIONARYVAR
  5
56E
102
{ACAD_REACTORS
330
53A
102
}
330
53A
100
DictionaryVariables
280
     0
  1
2
  0
DICTIONARYVAR
  5
56D
102
{ACAD_REACTORS
330
53A
102
}
330
53A
100
DictionaryVariables
280
     0
  1
1
  0
DICTIONARYVAR
  5
7B6
102
{ACAD_REACTORS
330
53A
102
}
330
53A
100
DictionaryVariables
280
     0
  1
0
  0
DICTIONARYVAR
  5
56F
102
{ACAD_REACTORS
330
53A
102
}
330
53A
100
DictionaryVariables
280
     0
  1

  0
DICTIONARYVAR
  5
7B5
102
{ACAD_REACTORS
330
53A
102
}
330
53A
100
DictionaryVariables
280
     0
  1
127
  0
DICTIONARYVAR
  5
7B7
102
{ACAD_REACTORS
330
53A
102
}
330
53A
100
DictionaryVariables
280
     0
  1
2
  0
DICTIONARY
  5
7C0
330
22
100
AcDbDictionary
280
     1
281
     1
  3
ACAD_XREC_ROUNDTRIP
360
7C1
  0
DICTIONARY
  5
7C4
330
2A
100
AcDbDictionary
280
     1
281
     1
  3
ACAD_XREC_ROUNDTRIP
360
7C5
  0
DICTIONARY
  5
7C2
330
26
100
AcDbDictionary
280
     1
281
     1
  3
ACAD_XREC_ROUNDTRIP
360
7C3
  0
DICTIONARY
  5
57A
330
579
100
AcDbDictionary
280
     1
281
     1
  3
ACAD_XREC_ROUNDTRIP
360
7C7
  3
BUMPTILE
360
57C
  3
DIFFUSETILE
360
57B
  3
OPACITYTILE
360
57F
  3
REFLECTIONTILE
360
57E
  3
REFRACTIONTILE
360
580
  3
SPECULARTILE
360
57D
  0
DICTIONARY
  5
572
330
571
100
AcDbDictionary
280
     1
281
     1
  3
ACAD_XREC_ROUNDTRIP
360
7C6
  3
BUMPTILE
360
574
  3
DIFFUSETILE
360
573
  3
OPACITYTILE
360
577
  3
REFLECTIONTILE
360
576
  3
REFRACTIONTILE
360
578
  3
SPECULARTILE
360
575
  0
DICTIONARY
  5
582
330
581
100
AcDbDictionary
280
     1
281
     1
  3
ACAD_XREC_ROUNDTRIP
360
7C8
  3
BUMPTILE
360
584
  3
DIFFUSETILE
360
583
  3
OPACITYTILE
360
587
  3
REFLECTIONTILE
360
586
  3
REFRACTIONTILE
360
588
  3
SPECULARTILE
360
585
  0
DICTIONARY
  5
7B8
330
1E
100
AcDbDictionary
280
     1
281
     1
  3
ACAD_ROUNDTRIP_2008_TABLESTYLE_CELLSTYLEMAP
360
7B9
  3
ACAD_XREC_ROUNDTRIP
360
7BF
  0
DICTIONARY
  5
7D3
330
58F
100
AcDbDictionary
280
     1
281
     1
  3
ACAD_XREC_ROUNDTRIP
360
7D4
  0
DICTIONARY
  5
7D7
330
591
100
AcDbDictionary
280
     1
281
     1
  3
ACAD_XREC_ROUNDTRIP
360
7D8
  0
DICTIONARY
  5
7D5
330
590
100
AcDbDictionary
280
     1
281
     1
  3
ACAD_XREC_ROUNDTRIP
360
7D6
  0
DICTIONARY
  5
7D1
330
58E
100
AcDbDictionary
280
     1
281
     1
  3
ACAD_XREC_ROUNDTRIP
360
7D2
  0
DICTIONARY
  5
7DF
330
595
100
AcDbDictionary
280
     1
281
     1
  3
ACAD_XREC_ROUNDTRIP
360
7E0
  0
DICTIONARY
  5
7E7
330
599
100
AcDbDictionary
280
     1
281
     1
  3
ACAD_XREC_ROUNDTRIP
360
7E8
  0
DICTIONARY
  5
7D9
330
592
100
AcDbDictionary
280
     1
281
     1
  3
ACAD_XREC_ROUNDTRIP
360
7DA
  0
DICTIONARY
  5
7DD
330
594
100
AcDbDictionary
280
     1
281
     1
  3
ACAD_XREC_ROUNDTRIP
360
7DE
  0
DICTIONARY
  5
7ED
330
59C
100
AcDbDictionary
280
     1
281
     1
  3
ACAD_XREC_ROUNDTRIP
360
7EE
  0
DICTIONARY
  5
7E5
330
598
100
AcDbDictionary
280
     1
281
     1
  3
ACAD_XREC_ROUNDTRIP
360
7E6
  0
DICTIONARY
  5
7C9
330
58A
100
AcDbDictionary
280
     1
281
     1
  3
ACAD_XREC_ROUNDTRIP
360
7CA
  0
DICTIONARY
  5
7CB
330
58B
100
AcDbDictionary
280
     1
281
     1
  3
ACAD_XREC_ROUNDTRIP
360
7CC
  0
DICTIONARY
  5
7CD
330
58C
100
AcDbDictionary
280
     1
281
     1
  3
ACAD_XREC_ROUNDTRIP
360
7CE
  0
DICTIONARY
  5
7CF
330
58D
100
AcDbDictionary
280
     1
281
     1
  3
ACAD_XREC_ROUNDTRIP
360
7D0
  0
DICTIONARY
  5
7E9
330
59A
100
AcDbDictionary
280
     1
281
     1
  3
ACAD_XREC_ROUNDTRIP
360
7EA
  0
DICTIONARY
  5
7E3
330
597
100
AcDbDictionary
280
     1
281
     1
  3
ACAD_XREC_ROUNDTRIP
360
7E4
  0
DICTIONARY
  5
7EB
330
59B
100
AcDbDictionary
280
     1
281
     1
  3
ACAD_XREC_ROUNDTRIP
360
7EC
  0
DICTIONARY
  5
7DB
330
593
100
AcDbDictionary
280
     1
281
     1
  3
ACAD_XREC_ROUNDTRIP
360
7DC
  0
DICTIONARY
  5
7E1
330
596
100
AcDbDictionary
280
     1
281
     1
  3
ACAD_XREC_ROUNDTRIP
360
7E2
  0
XRECORD
  5
7C1
102
{ACAD_REACTORS
330
7C0
102
}
330
7C0
100
AcDbXrecord
280
     1
102
SHADEPLOT
 70
     0
102
SHADEPLOTRESLEVEL
 70
     2
102
SHADEPLOTCUSTOMDPI
 70
   300
  0
XRECORD
  5
7C5
102
{ACAD_REACTORS
330
7C4
102
}
330
7C4
100
AcDbXrecord
280
     1
102
SHADEPLOT
 70
     0
102
SHADEPLOTRESLEVEL
 70
     2
102
SHADEPLOTCUSTOMDPI
 70
   300
  0
XRECORD
  5
7C3
102
{ACAD_REACTORS
330
7C2
102
}
330
7C2
100
AcDbXrecord
280
     1
102
SHADEPLOT
 70
     0
102
SHADEPLOTRESLEVEL
 70
     2
102
SHADEPLOTCUSTOMDPI
 70
   300
  0
XRECORD
  5
7C7
102
{ACAD_REACTORS
330
57A
102
}
330
57A
100
AcDbXrecord
280
     1
102
MATERIAL
148
0.0
149
0.0
149
0.0
 93
        0
 94
      127
282
     0
 72
     0
 77
     0
171
     0
175
     0
179
     0
273
     0
  0
XRECORD
  5
57C
102
{ACAD_REACTORS
330
57A
102
}
330
57A
100
AcDbXrecord
280
     1
270
     1
271
     1
  0
XRECORD
  5
57B
102
{ACAD_REACTORS
330
57A
102
}
330
57A
100
AcDbXrecord
280
     1
270
     1
271
     1
  0
XRECORD
  5
57F
102
{ACAD_REACTORS
330
57A
102
}
330
57A
100
AcDbXrecord
280
     1
270
     1
271
     1
  0
XRECORD
  5
57E
102
{ACAD_REACTORS
330
57A
102
}
330
57A
100
AcDbXrecord
280
     1
270
     1
271
     1
  0
XRECORD
  5
580
102
{ACAD_REACTORS
330
57A
102
}
330
57A
100
AcDbXrecord
280
     1
270
     1
271
     1
  0
XRECORD
  5
57D
102
{ACAD_REACTORS
330
57A
102
}
330
57A
100
AcDbXrecord
280
     1
270
     1
271
     1
  0
XRECORD
  5
7C6
102
{ACAD_REACTORS
330
572
102
}
330
572
100
AcDbXrecord
280
     1
102
MATERIAL
148
0.0
149
0.0
149
0.0
 93
        0
 94
      127
282
     0
 72
     0
 77
     0
171
     0
175
     0
179
     0
273
     0
  0
XRECORD
  5
574
102
{ACAD_REACTORS
330
572
102
}
330
572
100
AcDbXrecord
280
     1
270
     1
271
     1
  0
XRECORD
  5
573
102
{ACAD_REACTORS
330
572
102
}
330
572
100
AcDbXrecord
280
     1
270
     1
271
     1
  0
XRECORD
  5
577
102
{ACAD_REACTORS
330
572
102
}
330
572
100
AcDbXrecord
280
     1
270
     1
271
     1
  0
XRECORD
  5
576
102
{ACAD_REACTORS
330
572
102
}
330
572
100
AcDbXrecord
280
     1
270
     1
271
     1
  0
XRECORD
  5
578
102
{ACAD_REACTORS
330
572
102
}
330
572
100
AcDbXrecord
280
     1
270
     1
271
     1
  0
XRECORD
  5
575
102
{ACAD_REACTORS
330
572
102
}
330
572
100
AcDbXrecord
280
     1
270
     1
271
     1
  0
XRECORD
  5
7C8
102
{ACAD_REACTORS
330
582
102
}
330
582
100
AcDbXrecord
280
     1
102
MATERIAL
148
0.0
149
0.0
149
0.0
 93
        0
 94
      127
282
     0
 72
     0
 77
     0
171
     0
175
     0
179
     0
273
     0
  0
XRECORD
  5
584
102
{ACAD_REACTORS
330
582
102
}
330
582
100
AcDbXrecord
280
     1
270
     1
271
     1
  0
XRECORD
  5
583
102
{ACAD_REACTORS
330
582
102
}
330
582
100
AcDbXrecord
280
     1
270
     1
271
     1
  0
XRECORD
  5
587
102
{ACAD_REACTORS
330
582
102
}
330
582
100
AcDbXrecord
280
     1
270
     1
271
     1
  0
XRECORD
  5
586
102
{ACAD_REACTORS
330
582
102
}
330
582
100
AcDbXrecord
280
     1
270
     1
271
     1
  0
XRECORD
  5
588
102
{ACAD_REACTORS
330
582
102
}
330
582
100
AcDbXrecord
280
     1
270
     1
271
     1
  0
XRECORD
  5
585
102
{ACAD_REACTORS
330
582
102
}
330
582
100
AcDbXrecord
280
     1
270
     1
271
     1
  0
CELLSTYLEMAP
  5
7B9
102
{ACAD_REACTORS
330
7B8
102
}
330
7B8
100
AcDbCellStyleMap
 90
        3
300
CELLSTYLE
  1
TABLEFORMAT_BEGIN
 90
        5
170
     1
 91
        0
 92
    32768
 62
   257
 93
        1
300
CONTENTFORMAT
  1
CONTENTFORMAT_BEGIN
 90
        0
 91
        0
 92
        4
 93
        0
300

 40
0.0
140
1.0
 94
        5
 62
     0
340
11
144
6.0
309
CONTENTFORMAT_END
171
     1
301
MARGIN
  1
CELLMARGIN_BEGIN
 40
1.5
 40
1.5
 40
1.5
 40
1.5
 40
0.18
 40
0.18
309
CELLMARGIN_END
 94
        6
 95
        1
302
GRIDFORMAT
  1
GRIDFORMAT_BEGIN
 90
        0
 91
        1
 62
     0
 92
       -2
340
0
 93
        0
 40
0.045
309
GRIDFORMAT_END
 95
        2
302
GRIDFORMAT
  1
GRIDFORMAT_BEGIN
 90
        0
 91
        1
 62
     0
 92
       -2
340
0
 93
        0
 40
0.045
309
GRIDFORMAT_END
 95
        4
302
GRIDFORMAT
  1
GRIDFORMAT_BEGIN
 90
        0
 91
        1
 62
     0
 92
       -2
340
0
 93
        0
 40
0.045
309
GRIDFORMAT_END
 95
        8
302
GRIDFORMAT
  1
GRIDFORMAT_BEGIN
 90
        0
 91
        1
 62
     0
 92
       -2
340
0
 93
        0
 40
0.045
309
GRIDFORMAT_END
 95
       16
302
GRIDFORMAT
  1
GRIDFORMAT_BEGIN
 90
        0
 91
        1
 62
     0
 92
       -2
340
0
 93
        0
 40
0.045
309
GRIDFORMAT_END
 95
       32
302
GRIDFORMAT
  1
GRIDFORMAT_BEGIN
 90
        0
 91
        1
 62
     0
 92
       -2
340
0
 93
        0
 40
0.045
309
GRIDFORMAT_END
309
TABLEFORMAT_END
  1
CELLSTYLE_BEGIN
 90
        1
 91
        1
300
_TITLE
309
CELLSTYLE_END
300
CELLSTYLE
  1
TABLEFORMAT_BEGIN
 90
        5
170
     1
 91
        0
 92
        0
 62
   257
 93
        1
300
CONTENTFORMAT
  1
CONTENTFORMAT_BEGIN
 90
        0
 91
        0
 92
        4
 93
        0
300

 40
0.0
140
1.0
 94
        5
 62
     0
340
11
144
4.5
309
CONTENTFORMAT_END
171
     1
301
MARGIN
  1
CELLMARGIN_BEGIN
 40
1.5
 40
1.5
 40
1.5
 40
1.5
 40
0.18
 40
0.18
309
CELLMARGIN_END
 94
        6
 95
        1
302
GRIDFORMAT
  1
GRIDFORMAT_BEGIN
 90
        0
 91
        1
 62
     0
 92
       -2
340
0
 93
        0
 40
0.045
309
GRIDFORMAT_END
 95
        2
302
GRIDFORMAT
  1
GRIDFORMAT_BEGIN
 90
        0
 91
        1
 62
     0
 92
       -2
340
0
 93
        0
 40
0.045
309
GRIDFORMAT_END
 95
        4
302
GRIDFORMAT
  1
GRIDFORMAT_BEGIN
 90
        0
 91
        1
 62
     0
 92
       -2
340
0
 93
        0
 40
0.045
309
GRIDFORMAT_END
 95
        8
302
GRIDFORMAT
  1
GRIDFORMAT_BEGIN
 90
        0
 91
        1
 62
     0
 92
       -2
340
0
 93
        0
 40
0.045
309
GRIDFORMAT_END
 95
       16
302
GRIDFORMAT
  1
GRIDFORMAT_BEGIN
 90
        0
 91
        1
 62
     0
 92
       -2
340
0
 93
        0
 40
0.045
309
GRIDFORMAT_END
 95
       32
302
GRIDFORMAT
  1
GRIDFORMAT_BEGIN
 90
        0
 91
        1
 62
     0
 92
       -2
340
0
 93
        0
 40
0.045
309
GRIDFORMAT_END
309
TABLEFORMAT_END
  1
CELLSTYLE_BEGIN
 90
        2
 91
        1
300
_HEADER
309
CELLSTYLE_END
300
CELLSTYLE
  1
TABLEFORMAT_BEGIN
 90
        5
170
     1
 91
        0
 92
        0
 62
   257
 93
        1
300
CONTENTFORMAT
  1
CONTENTFORMAT_BEGIN
 90
        0
 91
        0
 92
        4
 93
        0
300

 40
0.0
140
1.0
 94
        2
 62
     0
340
11
144
4.5
309
CONTENTFORMAT_END
171
     1
301
MARGIN
  1
CELLMARGIN_BEGIN
 40
1.5
 40
1.5
 40
1.5
 40
1.5
 40
0.18
 40
0.18
309
CELLMARGIN_END
 94
        6
 95
        1
302
GRIDFORMAT
  1
GRIDFORMAT_BEGIN
 90
        0
 91
        1
 62
     0
 92
       -2
340
0
 93
        0
 40
0.045
309
GRIDFORMAT_END
 95
        2
302
GRIDFORMAT
  1
GRIDFORMAT_BEGIN
 90
        0
 91
        1
 62
     0
 92
       -2
340
0
 93
        0
 40
0.045
309
GRIDFORMAT_END
 95
        4
302
GRIDFORMAT
  1
GRIDFORMAT_BEGIN
 90
        0
 91
        1
 62
     0
 92
       -2
340
0
 93
        0
 40
0.045
309
GRIDFORMAT_END
 95
        8
302
GRIDFORMAT
  1
GRIDFORMAT_BEGIN
 90
        0
 91
        1
 62
     0
 92
       -2
340
0
 93
        0
 40
0.045
309
GRIDFORMAT_END
 95
       16
302
GRIDFORMAT
  1
GRIDFORMAT_BEGIN
 90
        0
 91
        1
 62
     0
 92
       -2
340
0
 93
        0
 40
0.045
309
GRIDFORMAT_END
 95
       32
302
GRIDFORMAT
  1
GRIDFORMAT_BEGIN
 90
        0
 91
        1
 62
     0
 92
       -2
340
0
 93
        0
 40
0.045
309
GRIDFORMAT_END
309
TABLEFORMAT_END
  1
CELLSTYLE_BEGIN
 90
        3
 91
        2
300
_DATA
309
CELLSTYLE_END
  0
XRECORD
  5
7BF
102
{ACAD_REACTORS
330
7B8
102
}
330
7B8
100
AcDbXrecord
280
     1
102
ACAD_ROUNDTRIP_PRE2007_TABLESTYLE
 90
        4
 91
        0
  1

 92
        4
 93
        0
  2

 94
        4
 95
        0
  3

  0
XRECORD
  5
7D4
102
{ACAD_REACTORS
330
7D3
102
}
330
7D3
100
AcDbXrecord
280
     1
102
RTVSPropertyOp0
 70
     1
102
RTVSPropertyOp1
 70
     1
102
RTVSPropertyOp2
 70
     1
102
RTVSPropertyOp3
 70
     1
102
RTVSPropertyOp4
 70
     1
102
RTVSPropertyOp5
 70
     1
102
RTVSPropertyOp6
 70
     1
102
RTVSPropertyOp7
 70
     1
102
RTVSPropertyOp8
 70
     1
102
RTVSPropertyOp9
 70
     1
102
RTVSPropertyOp10
 70
     1
102
RTVSPropertyOp11
 70
     1
102
RTVSPropertyOp12
 70
     1
102
RTVSPropertyOp13
 70
     1
102
RTVSPropertyOp14
 70
     1
102
RTVSPropertyOp15
 70
     1
102
RTVSPropertyOp16
 70
     1
102
RTVSPropertyOp17
 70
     1
102
RTVSPropertyOp18
 70
     1
102
RTVSPropertyOp19
 70
     1
102
RTVSPropertyOp20
 70
     1
102
RTVSPropertyOp21
 70
     1
102
RTVSPropertyOp22
 70
     1
102
RTVSPropertyOp23
 70
     1
102
RTVSPropertyOp24
 70
     1
102
RTVSPropertyOp25
 70
     1
102
RTVSPropertyOp26
 70
     1
102
RTVSPropertyOp27
 70
     1
  0
XRECORD
  5
7D8
102
{ACAD_REACTORS
330
7D7
102
}
330
7D7
100
AcDbXrecord
280
     1
102
RTVSPropertyOp0
 70
     1
102
RTVSPropertyOp1
 70
     1
102
RTVSPropertyOp2
 70
     1
102
RTVSPropertyOp3
 70
     1
102
RTVSPropertyOp4
 70
     1
102
RTVSPropertyOp5
 70
     1
102
RTVSPropertyOp6
 70
     1
102
RTVSPropertyOp7
 70
     1
102
RTVSPropertyOp8
 70
     1
102
RTVSPropertyOp9
 70
     1
102
RTVSPropertyOp10
 70
     1
102
RTVSPropertyOp11
 70
     1
102
RTVSPropertyOp12
 70
     1
102
RTVSPropertyOp13
 70
     1
102
RTVSPropertyOp14
 70
     1
102
RTVSPropertyOp15
 70
     1
102
RTVSPropertyOp16
 70
     1
102
RTVSPropertyOp17
 70
     1
102
RTVSPropertyOp18
 70
     1
102
RTVSPropertyOp19
 70
     1
102
RTVSPropertyOp20
 70
     1
102
RTVSPropertyOp21
 70
     1
102
RTVSPropertyOp22
 70
     1
102
RTVSPropertyOp23
 70
     1
102
RTVSPropertyOp24
 70
     1
102
RTVSPropertyOp25
 70
     1
102
RTVSPropertyOp26
 70
     1
102
RTVSPropertyOp27
 70
     1
  0
XRECORD
  5
7D6
102
{ACAD_REACTORS
330
7D5
102
}
330
7D5
100
AcDbXrecord
280
     1
102
RTVSPropertyOp0
 70
     1
102
RTVSPropertyOp1
 70
     1
102
RTVSPropertyOp2
 70
     1
102
RTVSPropertyOp3
 70
     1
102
RTVSPropertyOp4
 70
     1
102
RTVSPropertyOp5
 70
     1
102
RTVSPropertyOp6
 70
     1
102
RTVSPropertyOp7
 70
     1
102
RTVSPropertyOp8
 70
     1
102
RTVSPropertyOp9
 70
     1
102
RTVSPropertyOp10
 70
     1
102
RTVSPropertyOp11
 70
     1
102
RTVSPropertyOp12
 70
     1
102
RTVSPropertyOp13
 70
     1
102
RTVSPropertyOp14
 70
     1
102
RTVSPropertyOp15
 70
     1
102
RTVSPropertyOp16
 70
     1
102
RTVSPropertyOp17
 70
     1
102
RTVSPropertyOp18
 70
     1
102
RTVSPropertyOp19
 70
     1
102
RTVSPropertyOp20
 70
     1
102
RTVSPropertyOp21
 70
     1
102
RTVSPropertyOp22
 70
     1
102
RTVSPropertyOp23
 70
     1
102
RTVSPropertyOp24
 70
     1
102
RTVSPropertyOp25
 70
     1
102
RTVSPropertyOp26
 70
     1
102
RTVSPropertyOp27
 70
     1
  0
XRECORD
  5
7D2
102
{ACAD_REACTORS
330
7D1
102
}
330
7D1
100
AcDbXrecord
280
     1
102
RTVSPropertyOp0
 70
     1
102
RTVSPropertyOp1
 70
     1
102
RTVSPropertyOp2
 70
     1
102
RTVSPropertyOp3
 70
     1
102
RTVSPropertyOp4
 70
     1
102
RTVSPropertyOp5
 70
     1
102
RTVSPropertyOp6
 70
     1
102
RTVSPropertyOp7
 70
     1
102
RTVSPropertyOp8
 70
     1
102
RTVSPropertyOp9
 70
     1
102
RTVSPropertyOp10
 70
     1
102
RTVSPropertyOp11
 70
     1
102
RTVSPropertyOp12
 70
     1
102
RTVSPropertyOp13
 70
     1
102
RTVSPropertyOp14
 70
     1
102
RTVSPropertyOp15
 70
     1
102
RTVSPropertyOp16
 70
     1
102
RTVSPropertyOp17
 70
     1
102
RTVSPropertyOp18
 70
     1
102
RTVSPropertyOp19
 70
     1
102
RTVSPropertyOp20
 70
     1
102
RTVSPropertyOp21
 70
     1
102
RTVSPropertyOp22
 70
     1
102
RTVSPropertyOp23
 70
     1
102
RTVSPropertyOp24
 70
     1
102
RTVSPropertyOp25
 70
     1
102
RTVSPropertyOp26
 70
     1
102
RTVSPropertyOp27
 70
     1
  0
XRECORD
  5
7E0
102
{ACAD_REACTORS
330
7DF
102
}
330
7DF
100
AcDbXrecord
280
     1
102
RTVSPropertyOp0
 70
     1
102
RTVSPropertyOp1
 70
     1
102
RTVSPropertyOp2
 70
     1
102
RTVSPropertyOp3
 70
     1
102
RTVSPropertyOp4
 70
     1
102
RTVSPropertyOp5
 70
     1
102
RTVSPropertyOp6
 70
     1
102
RTVSPropertyOp7
 70
     1
102
RTVSPropertyOp8
 70
     1
102
RTVSPropertyOp9
 70
     1
102
RTVSPropertyOp10
 70
     1
102
RTVSPropertyOp11
 70
     1
102
RTVSPropertyOp12
 70
     1
102
RTVSPropertyOp13
 70
     1
102
RTVSPropertyOp14
 70
     1
102
RTVSPropertyOp15
 70
     1
102
RTVSPropertyOp16
 70
     1
102
RTVSPropertyOp17
 70
     1
102
RTVSPropertyOp18
 70
     1
102
RTVSPropertyOp19
 70
     1
102
RTVSPropertyOp20
 70
     1
102
RTVSPropertyOp21
 70
     1
102
RTVSPropertyOp22
 70
     1
102
RTVSPropertyOp23
 70
     1
102
RTVSPropertyOp24
 70
     1
102
RTVSPropertyOp25
 70
     1
102
RTVSPropertyOp26
 70
     1
102
RTVSPropertyOp27
 70
     1
  0
XRECORD
  5
7E8
102
{ACAD_REACTORS
330
7E7
102
}
330
7E7
100
AcDbXrecord
280
     1
102
RTVSPropertyOp0
 70
     1
102
RTVSPropertyOp1
 70
     1
102
RTVSPropertyOp2
 70
     1
102
RTVSPropertyOp3
 70
     1
102
RTVSPropertyOp4
 70
     1
102
RTVSPropertyOp5
 70
     1
102
RTVSPropertyOp6
 70
     1
102
RTVSPropertyOp7
 70
     1
102
RTVSPropertyOp8
 70
     1
102
RTVSPropertyOp9
 70
     1
102
RTVSPropertyOp10
 70
     1
102
RTVSPropertyOp11
 70
     1
102
RTVSPropertyOp12
 70
     1
102
RTVSPropertyOp13
 70
     1
102
RTVSPropertyOp14
 70
     1
102
RTVSPropertyOp15
 70
     1
102
RTVSPropertyOp16
 70
     1
102
RTVSPropertyOp17
 70
     1
102
RTVSPropertyOp18
 70
     1
102
RTVSPropertyOp19
 70
     1
102
RTVSPropertyOp20
 70
     1
102
RTVSPropertyOp21
 70
     1
102
RTVSPropertyOp22
 70
     1
102
RTVSPropertyOp23
 70
     1
102
RTVSPropertyOp24
 70
     1
102
RTVSPropertyOp25
 70
     1
102
RTVSPropertyOp26
 70
     1
102
RTVSPropertyOp27
 70
     1
  0
XRECORD
  5
7DA
102
{ACAD_REACTORS
330
7D9
102
}
330
7D9
100
AcDbXrecord
280
     1
102
RTVSPropertyOp0
 70
     1
102
RTVSPropertyOp1
 70
     1
102
RTVSPropertyOp2
 70
     1
102
RTVSPropertyOp3
 70
     1
102
RTVSPropertyOp4
 70
     1
102
RTVSPropertyOp5
 70
     1
102
RTVSPropertyOp6
 70
     1
102
RTVSPropertyOp7
 70
     1
102
RTVSPropertyOp8
 70
     1
102
RTVSPropertyOp9
 70
     1
102
RTVSPropertyOp10
 70
     1
102
RTVSPropertyOp11
 70
     1
102
RTVSPropertyOp12
 70
     1
102
RTVSPropertyOp13
 70
     1
102
RTVSPropertyOp14
 70
     1
102
RTVSPropertyOp15
 70
     1
102
RTVSPropertyOp16
 70
     1
102
RTVSPropertyOp17
 70
     1
102
RTVSPropertyOp18
 70
     1
102
RTVSPropertyOp19
 70
     1
102
RTVSPropertyOp20
 70
     1
102
RTVSPropertyOp21
 70
     1
102
RTVSPropertyOp22
 70
     1
102
RTVSPropertyOp23
 70
     1
102
RTVSPropertyOp24
 70
     1
102
RTVSPropertyOp25
 70
     1
102
RTVSPropertyOp26
 70
     1
102
RTVSPropertyOp27
 70
     1
  0
XRECORD
  5
7DE
102
{ACAD_REACTORS
330
7DD
102
}
330
7DD
100
AcDbXrecord
280
     1
102
RTVSPropertyOp0
 70
     1
102
RTVSPropertyOp1
 70
     1
102
RTVSPropertyOp2
 70
     1
102
RTVSPropertyOp3
 70
     1
102
RTVSPropertyOp4
 70
     1
102
RTVSPropertyOp5
 70
     1
102
RTVSPropertyOp6
 70
     1
102
RTVSPropertyOp7
 70
     1
102
RTVSPropertyOp8
 70
     1
102
RTVSPropertyOp9
 70
     1
102
RTVSPropertyOp10
 70
     1
102
RTVSPropertyOp11
 70
     1
102
RTVSPropertyOp12
 70
     1
102
RTVSPropertyOp13
 70
     1
102
RTVSPropertyOp14
 70
     1
102
RTVSPropertyOp15
 70
     1
102
RTVSPropertyOp16
 70
     1
102
RTVSPropertyOp17
 70
     1
102
RTVSPropertyOp18
 70
     1
102
RTVSPropertyOp19
 70
     1
102
RTVSPropertyOp20
 70
     1
102
RTVSPropertyOp21
 70
     1
102
RTVSPropertyOp22
 70
     1
102
RTVSPropertyOp23
 70
     1
102
RTVSPropertyOp24
 70
     1
102
RTVSPropertyOp25
 70
     1
102
RTVSPropertyOp26
 70
     1
102
RTVSPropertyOp27
 70
     1
  0
XRECORD
  5
7EE
102
{ACAD_REACTORS
330
7ED
102
}
330
7ED
100
AcDbXrecord
280
     1
102
RTVSPropertyOp0
 70
     0
102
RTVSPropertyOp1
 70
     0
102
RTVSPropertyOp2
 70
     0
102
RTVSPropertyOp3
 70
     0
102
RTVSPropertyOp4
 70
     0
102
RTVSPropertyOp5
 70
     0
102
RTVSPropertyOp6
 70
     0
102
RTVSPropertyOp7
 70
     0
102
RTVSPropertyOp8
 70
     0
102
RTVSPropertyOp9
 70
     0
102
RTVSPropertyOp10
 70
     0
102
RTVSPropertyOp11
 70
     0
102
RTVSPropertyOp12
 70
     0
102
RTVSPropertyOp13
 70
     0
102
RTVSPropertyOp14
 70
     2
102
RTVSPropertyOp15
 70
     0
102
RTVSPropertyOp16
 70
     0
102
RTVSPropertyOp17
 70
     0
102
RTVSPropertyOp18
 70
     0
102
RTVSPropertyOp19
 70
     0
102
RTVSPropertyOp20
 70
     0
102
RTVSPropertyOp21
 70
     0
102
RTVSPropertyOp22
 70
     0
102
RTVSPropertyOp23
 70
     0
102
RTVSPropertyOp24
 70
     0
102
RTVSPropertyOp25
 70
     0
102
RTVSPropertyOp26
 70
     0
102
RTVSPropertyOp27
 70
     0
  0
XRECORD
  5
7E6
102
{ACAD_REACTORS
330
7E5
102
}
330
7E5
100
AcDbXrecord
280
     1
102
RTVSPropertyOp0
 70
     1
102
RTVSPropertyOp1
 70
     1
102
RTVSPropertyOp2
 70
     1
102
RTVSPropertyOp3
 70
     1
102
RTVSPropertyOp4
 70
     1
102
RTVSPropertyOp5
 70
     1
102
RTVSPropertyOp6
 70
     1
102
RTVSPropertyOp7
 70
     1
102
RTVSPropertyOp8
 70
     1
102
RTVSPropertyOp9
 70
     1
102
RTVSPropertyOp10
 70
     1
102
RTVSPropertyOp11
 70
     1
102
RTVSPropertyOp12
 70
     1
102
RTVSPropertyOp13
 70
     1
102
RTVSPropertyOp14
 70
     1
102
RTVSPropertyOp15
 70
     1
102
RTVSPropertyOp16
 70
     1
102
RTVSPropertyOp17
 70
     1
102
RTVSPropertyOp18
 70
     1
102
RTVSPropertyOp19
 70
     1
102
RTVSPropertyOp20
 70
     1
102
RTVSPropertyOp21
 70
     1
102
RTVSPropertyOp22
 70
     1
102
RTVSPropertyOp23
 70
     1
102
RTVSPropertyOp24
 70
     1
102
RTVSPropertyOp25
 70
     1
102
RTVSPropertyOp26
 70
     1
102
RTVSPropertyOp27
 70
     1
  0
XRECORD
  5
7CA
102
{ACAD_REACTORS
330
7C9
102
}
330
7C9
100
AcDbXrecord
280
     1
102
RTVSPropertyOp0
 70
     1
102
RTVSPropertyOp1
 70
     1
102
RTVSPropertyOp2
 70
     1
102
RTVSPropertyOp3
 70
     1
102
RTVSPropertyOp4
 70
     1
102
RTVSPropertyOp5
 70
     1
102
RTVSPropertyOp6
 70
     1
102
RTVSPropertyOp7
 70
     1
102
RTVSPropertyOp8
 70
     1
102
RTVSPropertyOp9
 70
     1
102
RTVSPropertyOp10
 70
     1
102
RTVSPropertyOp11
 70
     1
102
RTVSPropertyOp12
 70
     1
102
RTVSPropertyOp13
 70
     1
102
RTVSPropertyOp14
 70
     1
102
RTVSPropertyOp15
 70
     1
102
RTVSPropertyOp16
 70
     1
102
RTVSPropertyOp17
 70
     1
102
RTVSPropertyOp18
 70
     1
102
RTVSPropertyOp19
 70
     1
102
RTVSPropertyOp20
 70
     1
102
RTVSPropertyOp21
 70
     1
102
RTVSPropertyOp22
 70
     1
102
RTVSPropertyOp23
 70
     1
102
RTVSPropertyOp24
 70
     1
102
RTVSPropertyOp25
 70
     1
102
RTVSPropertyOp26
 70
     1
102
RTVSPropertyOp27
 70
     1
  0
XRECORD
  5
7CC
102
{ACAD_REACTORS
330
7CB
102
}
330
7CB
100
AcDbXrecord
280
     1
102
RTVSPropertyOp0
 70
     1
102
RTVSPropertyOp1
 70
     1
102
RTVSPropertyOp2
 70
     1
102
RTVSPropertyOp3
 70
     1
102
RTVSPropertyOp4
 70
     1
102
RTVSPropertyOp5
 70
     1
102
RTVSPropertyOp6
 70
     1
102
RTVSPropertyOp7
 70
     1
102
RTVSPropertyOp8
 70
     1
102
RTVSPropertyOp9
 70
     1
102
RTVSPropertyOp10
 70
     1
102
RTVSPropertyOp11
 70
     1
102
RTVSPropertyOp12
 70
     1
102
RTVSPropertyOp13
 70
     1
102
RTVSPropertyOp14
 70
     1
102
RTVSPropertyOp15
 70
     1
102
RTVSPropertyOp16
 70
     1
102
RTVSPropertyOp17
 70
     1
102
RTVSPropertyOp18
 70
     1
102
RTVSPropertyOp19
 70
     1
102
RTVSPropertyOp20
 70
     1
102
RTVSPropertyOp21
 70
     1
102
RTVSPropertyOp22
 70
     1
102
RTVSPropertyOp23
 70
     1
102
RTVSPropertyOp24
 70
     1
102
RTVSPropertyOp25
 70
     1
102
RTVSPropertyOp26
 70
     1
102
RTVSPropertyOp27
 70
     1
  0
XRECORD
  5
7CE
102
{ACAD_REACTORS
330
7CD
102
}
330
7CD
100
AcDbXrecord
280
     1
102
RTVSPropertyOp0
 70
     1
102
RTVSPropertyOp1
 70
     1
102
RTVSPropertyOp2
 70
     1
102
RTVSPropertyOp3
 70
     1
102
RTVSPropertyOp4
 70
     1
102
RTVSPropertyOp5
 70
     1
102
RTVSPropertyOp6
 70
     1
102
RTVSPropertyOp7
 70
     1
102
RTVSPropertyOp8
 70
     1
102
RTVSPropertyOp9
 70
     1
102
RTVSPropertyOp10
 70
     1
102
RTVSPropertyOp11
 70
     1
102
RTVSPropertyOp12
 70
     1
102
RTVSPropertyOp13
 70
     1
102
RTVSPropertyOp14
 70
     1
102
RTVSPropertyOp15
 70
     1
102
RTVSPropertyOp16
 70
     1
102
RTVSPropertyOp17
 70
     1
102
RTVSPropertyOp18
 70
     1
102
RTVSPropertyOp19
 70
     1
102
RTVSPropertyOp20
 70
     1
102
RTVSPropertyOp21
 70
     1
102
RTVSPropertyOp22
 70
     1
102
RTVSPropertyOp23
 70
     1
102
RTVSPropertyOp24
 70
     1
102
RTVSPropertyOp25
 70
     1
102
RTVSPropertyOp26
 70
     1
102
RTVSPropertyOp27
 70
     1
  0
XRECORD
  5
7D0
102
{ACAD_REACTORS
330
7CF
102
}
330
7CF
100
AcDbXrecord
280
     1
102
RTVSPropertyOp0
 70
     1
102
RTVSPropertyOp1
 70
     1
102
RTVSPropertyOp2
 70
     1
102
RTVSPropertyOp3
 70
     1
102
RTVSPropertyOp4
 70
     1
102
RTVSPropertyOp5
 70
     1
102
RTVSPropertyOp6
 70
     1
102
RTVSPropertyOp7
 70
     1
102
RTVSPropertyOp8
 70
     1
102
RTVSPropertyOp9
 70
     1
102
RTVSPropertyOp10
 70
     1
102
RTVSPropertyOp11
 70
     1
102
RTVSPropertyOp12
 70
     1
102
RTVSPropertyOp13
 70
     1
102
RTVSPropertyOp14
 70
     1
102
RTVSPropertyOp15
 70
     1
102
RTVSPropertyOp16
 70
     1
102
RTVSPropertyOp17
 70
     1
102
RTVSPropertyOp18
 70
     1
102
RTVSPropertyOp19
 70
     1
102
RTVSPropertyOp20
 70
     1
102
RTVSPropertyOp21
 70
     1
102
RTVSPropertyOp22
 70
     1
102
RTVSPropertyOp23
 70
     1
102
RTVSPropertyOp24
 70
     1
102
RTVSPropertyOp25
 70
     1
102
RTVSPropertyOp26
 70
     1
102
RTVSPropertyOp27
 70
     1
  0
XRECORD
  5
7EA
102
{ACAD_REACTORS
330
7E9
102
}
330
7E9
100
AcDbXrecord
280
     1
102
RTVSPropertyOp0
 70
     0
102
RTVSPropertyOp1
 70
     0
102
RTVSPropertyOp2
 70
     0
102
RTVSPropertyOp3
 70
     0
102
RTVSPropertyOp4
 70
     0
102
RTVSPropertyOp5
 70
     0
102
RTVSPropertyOp6
 70
     0
102
RTVSPropertyOp7
 70
     0
102
RTVSPropertyOp8
 70
     0
102
RTVSPropertyOp9
 70
     0
102
RTVSPropertyOp10
 70
     0
102
RTVSPropertyOp11
 70
     0
102
RTVSPropertyOp12
 70
     0
102
RTVSPropertyOp13
 70
     0
102
RTVSPropertyOp14
 70
     2
102
RTVSPropertyOp15
 70
     0
102
RTVSPropertyOp16
 70
     0
102
RTVSPropertyOp17
 70
     0
102
RTVSPropertyOp18
 70
     0
102
RTVSPropertyOp19
 70
     0
102
RTVSPropertyOp20
 70
     0
102
RTVSPropertyOp21
 70
     0
102
RTVSPropertyOp22
 70
     0
102
RTVSPropertyOp23
 70
     0
102
RTVSPropertyOp24
 70
     0
102
RTVSPropertyOp25
 70
     0
102
RTVSPropertyOp26
 70
     0
102
RTVSPropertyOp27
 70
     0
  0
XRECORD
  5
7E4
102
{ACAD_REACTORS
330
7E3
102
}
330
7E3
100
AcDbXrecord
280
     1
102
RTVSPropertyOp0
 70
     1
102
RTVSPropertyOp1
 70
     1
102
RTVSPropertyOp2
 70
     1
102
RTVSPropertyOp3
 70
     1
102
RTVSPropertyOp4
 70
     1
102
RTVSPropertyOp5
 70
     1
102
RTVSPropertyOp6
 70
     1
102
RTVSPropertyOp7
 70
     1
102
RTVSPropertyOp8
 70
     1
102
RTVSPropertyOp9
 70
     1
102
RTVSPropertyOp10
 70
     1
102
RTVSPropertyOp11
 70
     1
102
RTVSPropertyOp12
 70
     1
102
RTVSPropertyOp13
 70
     1
102
RTVSPropertyOp14
 70
     1
102
RTVSPropertyOp15
 70
     1
102
RTVSPropertyOp16
 70
     1
102
RTVSPropertyOp17
 70
     1
102
RTVSPropertyOp18
 70
     1
102
RTVSPropertyOp19
 70
     1
102
RTVSPropertyOp20
 70
     1
102
RTVSPropertyOp21
 70
     1
102
RTVSPropertyOp22
 70
     1
102
RTVSPropertyOp23
 70
     1
102
RTVSPropertyOp24
 70
     1
102
RTVSPropertyOp25
 70
     1
102
RTVSPropertyOp26
 70
     1
102
RTVSPropertyOp27
 70
     1
  0
XRECORD
  5
7EC
102
{ACAD_REACTORS
330
7EB
102
}
330
7EB
100
AcDbXrecord
280
     1
102
RTVSPropertyOp0
 70
     0
102
RTVSPropertyOp1
 70
     0
102
RTVSPropertyOp2
 70
     0
102
RTVSPropertyOp3
 70
     0
102
RTVSPropertyOp4
 70
     0
102
RTVSPropertyOp5
 70
     0
102
RTVSPropertyOp6
 70
     0
102
RTVSPropertyOp7
 70
     0
102
RTVSPropertyOp8
 70
     0
102
RTVSPropertyOp9
 70
     0
102
RTVSPropertyOp10
 70
     0
102
RTVSPropertyOp11
 70
     0
102
RTVSPropertyOp12
 70
     0
102
RTVSPropertyOp13
 70
     0
102
RTVSPropertyOp14
 70
     2
102
RTVSPropertyOp15
 70
     0
102
RTVSPropertyOp16
 70
     0
102
RTVSPropertyOp17
 70
     0
102
RTVSPropertyOp18
 70
     0
102
RTVSPropertyOp19
 70
     0
102
RTVSPropertyOp20
 70
     0
102
RTVSPropertyOp21
 70
     0
102
RTVSPropertyOp22
 70
     0
102
RTVSPropertyOp23
 70
     0
102
RTVSPropertyOp24
 70
     0
102
RTVSPropertyOp25
 70
     0
102
RTVSPropertyOp26
 70
     0
102
RTVSPropertyOp27
 70
     0
  0
XRECORD
  5
7DC
102
{ACAD_REACTORS
330
7DB
102
}
330
7DB
100
AcDbXrecord
280
     1
102
RTVSPropertyOp0
 70
     1
102
RTVSPropertyOp1
 70
     1
102
RTVSPropertyOp2
 70
     1
102
RTVSPropertyOp3
 70
     1
102
RTVSPropertyOp4
 70
     1
102
RTVSPropertyOp5
 70
     1
102
RTVSPropertyOp6
 70
     1
102
RTVSPropertyOp7
 70
     1
102
RTVSPropertyOp8
 70
     1
102
RTVSPropertyOp9
 70
     1
102
RTVSPropertyOp10
 70
     1
102
RTVSPropertyOp11
 70
     1
102
RTVSPropertyOp12
 70
     1
102
RTVSPropertyOp13
 70
     1
102
RTVSPropertyOp14
 70
     1
102
RTVSPropertyOp15
 70
     1
102
RTVSPropertyOp16
 70
     1
102
RTVSPropertyOp17
 70
     1
102
RTVSPropertyOp18
 70
     1
102
RTVSPropertyOp19
 70
     1
102
RTVSPropertyOp20
 70
     1
102
RTVSPropertyOp21
 70
     1
102
RTVSPropertyOp22
 70
     1
102
RTVSPropertyOp23
 70
     1
102
RTVSPropertyOp24
 70
     1
102
RTVSPropertyOp25
 70
     1
102
RTVSPropertyOp26
 70
     1
102
RTVSPropertyOp27
 70
     1
  0
XRECORD
  5
7E2
102
{ACAD_REACTORS
330
7E1
102
}
330
7E1
100
AcDbXrecord
280
     1
102
RTVSPropertyOp0
 70
     1
102
RTVSPropertyOp1
 70
     1
102
RTVSPropertyOp2
 70
     1
102
RTVSPropertyOp3
 70
     1
102
RTVSPropertyOp4
 70
     1
102
RTVSPropertyOp5
 70
     1
102
RTVSPropertyOp6
 70
     1
102
RTVSPropertyOp7
 70
     1
102
RTVSPropertyOp8
 70
     1
102
RTVSPropertyOp9
 70
     1
102
RTVSPropertyOp10
 70
     1
102
RTVSPropertyOp11
 70
     1
102
RTVSPropertyOp12
 70
     1
102
RTVSPropertyOp13
 70
     1
102
RTVSPropertyOp14
 70
     1
102
RTVSPropertyOp15
 70
     1
102
RTVSPropertyOp16
 70
     1
102
RTVSPropertyOp17
 70
     1
102
RTVSPropertyOp18
 70
     1
102
RTVSPropertyOp19
 70
     1
102
RTVSPropertyOp20
 70
     1
102
RTVSPropertyOp21
 70
     1
102
RTVSPropertyOp22
 70
     1
102
RTVSPropertyOp23
 70
     1
102
RTVSPropertyOp24
 70
     1
102
RTVSPropertyOp25
 70
     1
102
RTVSPropertyOp26
 70
     1
102
RTVSPropertyOp27
 70
     1
  0
ENDSEC
  0
EOF
