  0
SECTION
  2
HEADER
  9
$ACADVER
  1
AC1015
  9
$ACADMAINTVER
 70
    20
  9
$DWGCODEPAGE
  3
ANSI_1252
  9
$INSBASE
 10
0.0
 20
0.0
 30
0.0
  9
$EXTMIN
 10
4642.959006353784
 20
-69.61112569347079
 30
0.0
  9
$EXTMAX
 10
6590.252378994418
 20
224.8008373416692
 30
0.0
  9
$LIMMIN
 10
0.0
 20
0.0
  9
$LIMMAX
 10
420.0
 20
297.0
  9
$ORTHOMODE
 70
     1
  9
$REGENMODE
 70
     1
  9
$FILLMODE
 70
     1
  9
$QTEXTMODE
 70
     0
  9
$MIRRTEXT
 70
     1
  9
$LTSCALE
 40
1.0
  9
$ATTMODE
 70
     1
  9
$TEXTSIZE
 40
2.5
  9
$TRACEWID
 40
1.0
  9
$TEXTSTYLE
  7
Standard
  9
$CLAYER
  8
0
  9
$CELTYPE
  6
ByLayer
  9
$CECOLOR
 62
   256
  9
$CELTSCALE
 40
1.0
  9
$DISPSILH
 70
     0
  9
$DIMSCALE
 40
1.0
  9
$DIMASZ
 40
2.5
  9
$DIMEXO
 40
0.625
  9
$DIMDLI
 40
3.75
  9
$DIMRND
 40
0.0
  9
$DIMDLE
 40
0.0
  9
$DIMEXE
 40
1.25
  9
$DIMTP
 40
0.0
  9
$DIMTM
 40
0.0
  9
$DIMTXT
 40
2.5
  9
$DIMCEN
 40
2.5
  9
$DIMTSZ
 40
0.0
  9
$DIMTOL
 70
     0
  9
$DIMLIM
 70
     0
  9
$DIMTIH
 70
     0
  9
$DIMTOH
 70
     0
  9
$DIMSE1
 70
     0
  9
$DIMSE2
 70
     0
  9
$DIMTAD
 70
     1
  9
$DIMZIN
 70
     8
  9
$DIMBLK
  1

  9
$DIMASO
 70
     1
  9
$DIMSHO
 70
     1
  9
$DIMPOST
  1

  9
$DIMAPOST
  1

  9
$DIMALT
 70
     0
  9
$DIMALTD
 70
     3
  9
$DIMALTF
 40
0.03937007874016
  9
$DIMLFAC
 40
1.0
  9
$DIMTOFL
 70
     1
  9
$DIMTVP
 40
0.0
  9
$DIMTIX
 70
     0
  9
$DIMSOXD
 70
     0
  9
$DIMSAH
 70
     0
  9
$DIMBLK1
  1

  9
$DIMBLK2
  1

  9
$DIMSTYLE
  2
ISO-25
  9
$DIMCLRD
 70
     0
  9
$DIMCLRE
 70
     0
  9
$DIMCLRT
 70
     0
  9
$DIMTFAC
 40
1.0
  9
$DIMGAP
 40
0.625
  9
$DIMJUST
 70
     0
  9
$DIMSD1
 70
     0
  9
$DIMSD2
 70
     0
  9
$DIMTOLJ
 70
     0
  9
$DIMTZIN
 70
     8
  9
$DIMALTZ
 70
     0
  9
$DIMALTTZ
 70
     0
  9
$DIMUPT
 70
     0
  9
$DIMDEC
 70
     2
  9
$DIMTDEC
 70
     2
  9
$DIMALTU
 70
     2
  9
$DIMALTTD
 70
     3
  9
$DIMTXSTY
  7
Standard
  9
$DIMAUNIT
 70
     0
  9
$DIMADEC
 70
     0
  9
$DIMALTRND
 40
0.0
  9
$DIMAZIN
 70
     0
  9
$DIMDSEP
 70
    44
  9
$DIMATFIT
 70
     3
  9
$DIMFRAC
 70
     0
  9
$DIMLDRBLK
  1

  9
$DIMLUNIT
 70
     2
  9
$DIMLWD
 70
    -2
  9
$DIMLWE
 70
    -2
  9
$DIMTMOVE
 70
     0
  9
$LUNITS
 70
     2
  9
$LUPREC
 70
     4
  9
$SKETCHINC
 40
1.0
  9
$FILLETRAD
 40
0.0
  9
$AUNITS
 70
     0
  9
$AUPREC
 70
     0
  9
$MENU
  1
.
  9
$ELEVATION
 40
0.0
  9
$PELEVATION
 40
0.0
  9
$THICKNESS
 40
0.0
  9
$LIMCHECK
 70
     0
  9
$CHAMFERA
 40
10.0
  9
$CHAMFERB
 40
10.0
  9
$CHAMFERC
 40
20.0
  9
$CHAMFERD
 40
0.0
  9
$SKPOLY
 70
     0
  9
$TDCREATE
 40
2453032.424529074
  9
$TDUCREATE
 40
2453032.382862407
  9
$TDUPDATE
 40
2456148.460330220
  9
$TDUUPDATE
 40
2456148.418663554
  9
$TDINDWG
 40
0.0106342245
  9
$TDUSRTIMER
 40
0.0106342245
  9
$USRTIMER
 70
     1
  9
$ANGBASE
 50
0.0
  9
$ANGDIR
 70
     0
  9
$PDMODE
 70
     0
  9
$PDSIZE
 40
0.0
  9
$PLINEWID
 40
0.0
  9
$SPLFRAME
 70
     0
  9
$SPLINETYPE
 70
     6
  9
$SPLINESEGS
 70
     8
  9
$HANDSEED
  5
6F0
  9
$SURFTAB1
 70
     6
  9
$SURFTAB2
 70
     6
  9
$SURFTYPE
 70
     6
  9
$SURFU
 70
     6
  9
$SURFV
 70
     6
  9
$UCSBASE
  2

  9
$UCSNAME
  2

  9
$UCSORG
 10
0.0
 20
0.0
 30
0.0
  9
$UCSXDIR
 10
1.0
 20
0.0
 30
0.0
  9
$UCSYDIR
 10
0.0
 20
1.0
 30
0.0
  9
$UCSORTHOREF
  2

  9
$UCSORTHOVIEW
 70
     0
  9
$UCSORGTOP
 10
0.0
 20
0.0
 30
0.0
  9
$UCSORGBOTTOM
 10
0.0
 20
0.0
 30
0.0
  9
$UCSORGLEFT
 10
0.0
 20
0.0
 30
0.0
  9
$UCSORGRIGHT
 10
0.0
 20
0.0
 30
0.0
  9
$UCSORGFRONT
 10
0.0
 20
0.0
 30
0.0
  9
$UCSORGBACK
 10
0.0
 20
0.0
 30
0.0
  9
$PUCSBASE
  2

  9
$PUCSNAME
  2

  9
$PUCSORG
 10
0.0
 20
0.0
 30
0.0
  9
$PUCSXDIR
 10
1.0
 20
0.0
 30
0.0
  9
$PUCSYDIR
 10
0.0
 20
1.0
 30
0.0
  9
$PUCSORTHOREF
  2

  9
$PUCSORTHOVIEW
 70
     0
  9
$PUCSORGTOP
 10
0.0
 20
0.0
 30
0.0
  9
$PUCSORGBOTTOM
 10
0.0
 20
0.0
 30
0.0
  9
$PUCSORGLEFT
 10
0.0
 20
0.0
 30
0.0
  9
$PUCSORGRIGHT
 10
0.0
 20
0.0
 30
0.0
  9
$PUCSORGFRONT
 10
0.0
 20
0.0
 30
0.0
  9
$PUCSORGBACK
 10
0.0
 20
0.0
 30
0.0
  9
$USERI1
 70
     0
  9
$USERI2
 70
     0
  9
$USERI3
 70
     0
  9
$USERI4
 70
     0
  9
$USERI5
 70
     0
  9
$USERR1
 40
0.0
  9
$USERR2
 40
0.0
  9
$USERR3
 40
0.0
  9
$USERR4
 40
0.0
  9
$USERR5
 40
0.0
  9
$WORLDVIEW
 70
     1
  9
$SHADEDGE
 70
     3
  9
$SHADEDIF
 70
    70
  9
$TILEMODE
 70
     1
  9
$MAXACTVP
 70
    64
  9
$PINSBASE
 10
0.0
 20
0.0
 30
0.0
  9
$PLIMCHECK
 70
     0
  9
$PEXTMIN
 10
1.000000000000000E+20
 20
1.000000000000000E+20
 30
1.000000000000000E+20
  9
$PEXTMAX
 10
-1.000000000000000E+20
 20
-1.000000000000000E+20
 30
-1.000000000000000E+20
  9
$PLIMMIN
 10
0.0
 20
0.0
  9
$PLIMMAX
 10
420.0
 20
297.0
  9
$UNITMODE
 70
     0
  9
$VISRETAIN
 70
     1
  9
$PLINEGEN
 70
     0
  9
$PSLTSCALE
 70
     1
  9
$TREEDEPTH
 70
  3020
  9
$CMLSTYLE
  2
Standard
  9
$CMLJUST
 70
     0
  9
$CMLSCALE
 40
20.0
  9
$PROXYGRAPHICS
 70
     1
  9
$MEASUREMENT
 70
     1
  9
$CELWEIGHT
370
    -1
  9
$ENDCAPS
280
     0
  9
$JOINSTYLE
280
     0
  9
$LWDISPLAY
290
     0
  9
$INSUNITS
 70
     4
  9
$HYPERLINKBASE
  1

  9
$STYLESHEET
  1

  9
$XEDIT
290
     1
  9
$CEPSNTYPE
380
     0
  9
$PSTYLEMODE
290
     1
  9
$FINGERPRINTGUID
  2
{AE9FBA9D-53C3-4B91-B133-D24BDC752E5B}
  9
$VERSIONGUID
  2
{5ADCF833-3E8F-4077-B609-2F3626C49A5B}
  9
$EXTNAMES
290
     1
  9
$PSVPSCALE
 40
0.0
  9
$OLESTARTUP
290
     0
  0
ENDSEC
  0
SECTION
  2
CLASSES
  0
CLASS
  1
ACDBDICTIONARYWDFLT
  2
AcDbDictionaryWithDefault
  3
ObjectDBX Classes
 90
        0
280
     0
281
     0
  0
CLASS
  1
ACDBPLACEHOLDER
  2
AcDbPlaceHolder
  3
ObjectDBX Classes
 90
        0
280
     0
281
     0
  0
CLASS
  1
LAYOUT
  2
AcDbLayout
  3
ObjectDBX Classes
 90
        0
280
     0
281
     0
  0
CLASS
  1
DIMASSOC
  2
AcDbDimAssoc
  3
"AcDbDimAssoc|Product Desc:     AcDim ARX App For Dimension|Company:          Autodesk, Inc.|WEB Address:      www.autodesk.com"
 90
    32768
280
     0
281
     0
  0
CLASS
  1
DICTIONARYVAR
  2
AcDbDictionaryVar
  3
ObjectDBX Classes
 90
        0
280
     0
281
     0
  0
CLASS
  1
MATERIAL
  2
AcDbMaterial
  3
ObjectDBX Classes
 90
     1153
280
     0
281
     0
  0
CLASS
  1
VISUALSTYLE
  2
AcDbVisualStyle
  3
ObjectDBX Classes
 90
     4095
280
     0
281
     0
  0
CLASS
  1
TABLESTYLE
  2
AcDbTableStyle
  3
ObjectDBX Classes
 90
     4095
280
     0
281
     0
  0
CLASS
  1
SCALE
  2
AcDbScale
  3
ObjectDBX Classes
 90
     1153
280
     0
281
     0
  0
CLASS
  1
MLEADERSTYLE
  2
AcDbMLeaderStyle
  3
ACDB_MLEADERSTYLE_CLASS
 90
     4095
280
     0
281
     0
  0
CLASS
  1
CELLSTYLEMAP
  2
AcDbCellStyleMap
  3
ObjectDBX Classes
 90
     1152
280
     0
281
     0
  0
ENDSEC
  0
SECTION
  2
TABLES
  0
TABLE
  2
VPORT
  5
8
330
0
100
AcDbSymbolTable
 70
     1
  0
VPORT
  5
65B
330
8
100
AcDbSymbolTableRecord
100
AcDbViewportTableRecord
  2
*Active
 70
     0
 10
0.0
 20
0.0
 11
1.0
 21
1.0
 12
5667.739835094626
 22
37.93507659488034
 13
0.0
 23
0.0
 14
10.0
 24
10.0
 15
10.0
 25
10.0
 16
0.0
 26
0.0
 36
1.0
 17
0.0
 27
0.0
 37
0.0
 40
1389.519205464763
 41
1.645464025026068
 42
50.0
 43
0.0
 44
0.0
 50
0.0
 51
0.0
 71
     0
 72
   100
 73
     1
 74
     3
 75
     0
 76
     0
 77
     0
 78
     0
281
     0
 65
     1
110
0.0
120
0.0
130
0.0
111
1.0
121
0.0
131
0.0
112
0.0
122
1.0
132
0.0
 79
     0
146
0.0
  0
ENDTAB
  0
TABLE
  2
LTYPE
  5
5
330
0
100
AcDbSymbolTable
 70
     2
  0
LTYPE
  5
14
330
5
100
AcDbSymbolTableRecord
100
AcDbLinetypeTableRecord
  2
ByBlock
 70
     0
  3

 72
    65
 73
     0
 40
0.0
  0
LTYPE
  5
15
330
5
100
AcDbSymbolTableRecord
100
AcDbLinetypeTableRecord
  2
ByLayer
 70
     0
  3

 72
    65
 73
     0
 40
0.0
  0
LTYPE
  5
16
330
5
100
AcDbSymbolTableRecord
100
AcDbLinetypeTableRecord
  2
Continuous
 70
     0
  3
Solid line
 72
    65
 73
     0
 40
0.0
  0
LTYPE
  5
101
330
5
100
AcDbSymbolTableRecord
100
AcDbLinetypeTableRecord
  2
DASHDOT
 70
     0
  3
Dash dot __ . __ . __ . __ . __ . __ . __ . __
 72
    65
 73
     4
 40
25.4
 49
12.7
 74
     0
 49
-6.349999999999999
 74
     0
 49
0.0
 74
     0
 49
-6.349999999999999
 74
     0
  0
ENDTAB
  0
TABLE
  2
LAYER
  5
2
330
0
100
AcDbSymbolTable
 70
     7
  0
LAYER
  5
10
102
{ACAD_XDICTIONARY
360
6A5
102
}
330
2
100
AcDbSymbolTableRecord
100
AcDbLayerTableRecord
  2
0
 70
     0
 62
     7
  6
Continuous
370
    -3
390
F
  0
LAYER
  5
102
102
{ACAD_XDICTIONARY
360
6A7
102
}
330
2
100
AcDbSymbolTableRecord
100
AcDbLayerTableRecord
  2
cen
 70
     0
 62
     7
  6
DASHDOT
370
    -3
390
F
  0
LAYER
  5
103
102
{ACAD_XDICTIONARY
360
6A9
102
}
330
2
100
AcDbSymbolTableRecord
100
AcDbLayerTableRecord
  2
hatch
 70
     0
 62
     9
  6
Continuous
370
    -3
390
F
  0
LAYER
  5
104
102
{ACAD_XDICTIONARY
360
6AB
102
}
330
2
100
AcDbSymbolTableRecord
100
AcDbLayerTableRecord
  2
9
 70
     0
 62
     9
  6
Continuous
370
    -3
390
F
  0
LAYER
  5
105
102
{ACAD_XDICTIONARY
360
6AD
102
}
330
2
100
AcDbSymbolTableRecord
100
AcDbLayerTableRecord
  2
cotas
 70
     0
 62
     1
  6
Continuous
370
    -3
390
F
  0
LAYER
  5
106
330
2
100
AcDbSymbolTableRecord
100
AcDbLayerTableRecord
  2
Defpoints
 70
     0
 62
     7
  6
Continuous
290
     0
370
    -3
390
F
  0
LAYER
  5
107
102
{ACAD_XDICTIONARY
360
6AF
102
}
330
2
100
AcDbSymbolTableRecord
100
AcDbLayerTableRecord
  2
indusa
 70
     0
 62
     3
  6
Continuous
370
    -3
390
F
  0
ENDTAB
  0
TABLE
  2
STYLE
  5
3
330
0
100
AcDbSymbolTable
 70
     2
  0
STYLE
  5
11
330
3
100
AcDbSymbolTableRecord
100
AcDbTextStyleTableRecord
  2
Standard
 70
     0
 40
0.0
 41
1.0
 50
0.0
 71
     0
 42
2.5
  3
txt
  4

  0
STYLE
  5
108
330
3
100
AcDbSymbolTableRecord
100
AcDbTextStyleTableRecord
  2
SANINDUSA
 70
     0
 40
0.0
 41
1.0
 50
0.0
 71
     0
 42
2.5
  3
verdana.TTF
  4

1001
ACAD
1000
Verdana
1071
       34
  0
ENDTAB
  0
TABLE
  2
VIEW
  5
6
330
0
100
AcDbSymbolTable
 70
     0
  0
ENDTAB
  0
TABLE
  2
UCS
  5
7
330
0
100
AcDbSymbolTable
 70
     0
  0
ENDTAB
  0
TABLE
  2
APPID
  5
9
330
0
100
AcDbSymbolTable
 70
     3
  0
APPID
  5
12
330
9
100
AcDbSymbolTableRecord
100
AcDbRegAppTableRecord
  2
ACAD
 70
     0
  0
APPID
  5
515
330
9
100
AcDbSymbolTableRecord
100
AcDbRegAppTableRecord
  2
DCO15
 70
     0
  0
APPID
  5
6EF
330
9
100
AcDbSymbolTableRecord
100
AcDbRegAppTableRecord
  2
ACAD_MLEADERVER
 70
     0
  0
ENDTAB
  0
TABLE
  2
DIMSTYLE
  5
A
330
0
100
AcDbSymbolTable
 70
     3
100
AcDbDimStyleTable
 71
     0
  0
DIMSTYLE
105
27
330
A
100
AcDbSymbolTableRecord
100
AcDbDimStyleTableRecord
  2
ISO-25
 70
     0
 41
2.5
 42
0.625
 43
3.75
 44
1.25
 73
     0
 74
     0
 77
     1
 78
     8
140
2.5
141
2.5
143
0.03937007874016
147
0.625
171
     3
172
     1
271
     2
272
     2
274
     3
278
    44
283
     0
284
     8
340
11
  0
DIMSTYLE
105
109
330
A
100
AcDbSymbolTableRecord
100
AcDbDimStyleTableRecord
  2
SANINDUSA
 70
     0
 41
10.0
 42
4.0
 43
4.0
 44
4.0
 73
     0
 74
     0
 77
     1
 78
     8
140
10.0
141
0.0
143
0.03937007874016
147
5.0
171
     3
172
     1
176
   256
177
   256
178
   256
179
     1
271
     1
272
     1
274
     3
278
    44
283
     0
284
     8
340
108
371
    -1
372
    -1
  0
DIMSTYLE
105
491
330
A
100
AcDbSymbolTableRecord
100
AcDbDimStyleTableRecord
  2
STANDARD
 70
     0
289
     0
340
11
  0
ENDTAB
  0
TABLE
  2
BLOCK_RECORD
  5
1
330
0
100
AcDbSymbolTable
 70
    37
  0
BLOCK_RECORD
  5
1F
330
1
100
AcDbSymbolTableRecord
100
AcDbBlockTableRecord
  2
*Model_Space
340
22
  0
BLOCK_RECORD
  5
1B
330
1
100
AcDbSymbolTableRecord
100
AcDbBlockTableRecord
  2
*Paper_Space
340
1E
  0
BLOCK_RECORD
  5
23
330
1
100
AcDbSymbolTableRecord
100
AcDbBlockTableRecord
  2
*Paper_Space0
340
26
  0
BLOCK_RECORD
  5
483
330
1
100
AcDbSymbolTableRecord
100
AcDbBlockTableRecord
  2
SW_CENTERMARK0
340
0
  0
BLOCK_RECORD
  5
48A
330
1
100
AcDbSymbolTableRecord
100
AcDbBlockTableRecord
  2
SW_CENTERMARK1
340
0
  0
ENDTAB
  0
ENDSEC
  0
SECTION
  2
BLOCKS
  0
BLOCK
  5
20
330
1F
100
AcDbEntity
  8
0
100
AcDbBlockBegin
  2
*Model_Space
 70
     0
 10
0.0
 20
0.0
 30
0.0
  3
*Model_Space
  1

  0
ENDBLK
  5
21
330
1F
100
AcDbEntity
  8
0
100
AcDbBlockEnd
  0
BLOCK
  5
1C
330
1B
100
AcDbEntity
 67
     1
  8
0
100
AcDbBlockBegin
  2
*Paper_Space
 70
     0
 10
0.0
 20
0.0
 30
0.0
  3
*Paper_Space
  1

  0
ENDBLK
  5
1D
330
1B
100
AcDbEntity
 67
     1
  8
0
100
AcDbBlockEnd
  0
BLOCK
  5
24
330
23
100
AcDbEntity
 67
     1
  8
0
100
AcDbBlockBegin
  2
*Paper_Space0
 70
     0
 10
0.0
 20
0.0
 30
0.0
  3
*Paper_Space0
  1

  0
ENDBLK
  5
25
330
23
100
AcDbEntity
 67
     1
  8
0
100
AcDbBlockEnd
  0
BLOCK
  5
488
330
483
100
AcDbEntity
  8
0
 62
     0
100
AcDbBlockBegin
  2
SW_CENTERMARK0
 70
     0
 10
0.0
 20
0.0
 30
0.0
  3
SW_CENTERMARK0
  1

  0
LINE
  5
484
330
483
100
AcDbEntity
  8
0
  6
Continuous
 62
     7
100
AcDbLine
 10
340.2510078392876
 20
248.8929000992799
 30
0.0
 11
340.2510078392876
 21
249.3929000992799
 31
0.0
  0
LINE
  5
485
330
483
100
AcDbEntity
  8
0
  6
Continuous
 62
     7
100
AcDbLine
 10
340.2510078392876
 20
248.8929000992799
 30
0.0
 11
339.7510078392876
 21
248.8929000992799
 31
0.0
  0
LINE
  5
486
330
483
100
AcDbEntity
  8
0
  6
Continuous
 62
     7
100
AcDbLine
 10
340.2510078392876
 20
248.8929000992799
 30
0.0
 11
340.2510078392876
 21
248.3929000992799
 31
0.0
  0
LINE
  5
487
330
483
100
AcDbEntity
  8
0
  6
Continuous
 62
     7
100
AcDbLine
 10
340.2510078392876
 20
248.8929000992799
 30
0.0
 11
340.7510078392876
 21
248.8929000992799
 31
0.0
  0
ENDBLK
  5
489
330
483
100
AcDbEntity
  8
0
100
AcDbBlockEnd
  0
BLOCK
  5
48F
330
48A
100
AcDbEntity
  8
0
 62
     0
100
AcDbBlockBegin
  2
SW_CENTERMARK1
 70
     0
 10
0.0
 20
0.0
 30
0.0
  3
SW_CENTERMARK1
  1

  0
LINE
  5
48B
330
48A
100
AcDbEntity
  8
0
  6
Continuous
 62
     7
100
AcDbLine
 10
339.6510078392877
 20
219.0929000992801
 30
0.0
 11
339.6510078392877
 21
219.59290009928
 31
0.0
  0
LINE
  5
48C
330
48A
100
AcDbEntity
  8
0
  6
Continuous
 62
     7
100
AcDbLine
 10
339.6510078392877
 20
219.0929000992801
 30
0.0
 11
339.1510078392877
 21
219.0929000992801
 31
0.0
  0
LINE
  5
48D
330
48A
100
AcDbEntity
  8
0
  6
Continuous
 62
     7
100
AcDbLine
 10
339.6510078392877
 20
219.0929000992801
 30
0.0
 11
339.6510078392877
 21
218.5929000992801
 31
0.0
  0
LINE
  5
48E
330
48A
100
AcDbEntity
  8
0
  6
Continuous
 62
     7
100
AcDbLine
 10
339.6510078392877
 20
219.0929000992801
 30
0.0
 11
340.1510078392877
 21
219.0929000992801
 31
0.0
  0
ENDBLK
  5
490
330
48A
100
AcDbEntity
  8
0
100
AcDbBlockEnd
  0
ENDSEC
  0
SECTION
  2
ENTITIES
  0
CIRCLE
  5
51F
330
1F
100
AcDbEntity
  8
indusa
100
AcDbCircle
 10
4892.072374138989
 20
67.80083734166874
 30
0.0
 40
121.801336350207
  0
LINE
  5
520
330
1F
100
AcDbEntity
  8
indusa
100
AcDbLine
 10
4643.659269980561
 20
217.2504153258999
 30
0.0
 11
4773.887985839252
 21
-2.301150239940398
 31
0.0
  0
CIRCLE
  5
521
330
1F
100
AcDbEntity
  8
indusa
100
AcDbCircle
 10
4892.072374138989
 20
67.80083734166942
 30
0.0
 40
98.26724709118856
  0
ARC
  5
522
330
1F
100
AcDbEntity
  8
indusa
100
AcDbCircle
 10
4892.072374138989
 20
67.80083734166874
 30
0.0
 40
137.4119630351395
100
AcDbArc
 50
210.6746279650268
 51
30.67462796502684
  0
ARC
  5
523
330
1F
100
AcDbEntity
  8
indusa
100
AcDbCircle
 10
4892.072374138989
 20
67.80083734166942
 30
0.0
 40
24.00000000000018
100
AcDbArc
 50
191.1904570860725
 51
106.6616962701205
  0
ARC
  5
524
330
1F
100
AcDbEntity
  8
indusa
100
AcDbCircle
 10
4892.072374138989
 20
67.80083734167011
 30
0.0
 40
23.99999999999931
100
AcDbArc
 50
119.2114924119049
 51
177.4329257940092
  0
LWPOLYLINE
  5
526
330
1F
100
AcDbEntity
  8
indusa
100
AcDbPolyline
 90
        6
 70
   128
 43
0.0
 10
4868.100432173177
 20
66.64066563554388
 10
4868.091835416031
 20
66.8345234399394
 10
4868.080169175685
 20
67.18919937783676
 10
4868.072644195727
 20
67.68698370520633
 10
4868.078648642323
 20
68.34959666105624
 10
4868.096458779924
 20
68.87577115124395
  0
LWPOLYLINE
  5
527
330
1F
100
AcDbEntity
  8
indusa
100
AcDbPolyline
 90
        3
 70
   128
 43
0.0
 10
4868.528674319053
 20
63.14313417500534
 10
4868.244755958691
 20
64.92949412743292
 10
4868.100432173177
 20
66.64066563554388
  0
LWPOLYLINE
  5
52B
330
1F
100
AcDbEntity
  8
indusa
100
AcDbPolyline
 90
       38
 70
   128
 43
0.0
 10
4800.89760067594
 20
138.395996452572
 10
4801.025151541749
 20
138.6981242870993
 10
4801.391171579922
 20
139.7491831187446
 10
4801.510558952535
 20
140.5165519074585
 10
4801.371679392817
 20
140.9837671455448
 10
4800.981173896395
 20
141.1413555449028
 10
4800.337662871431
 20
140.9787094054618
 10
4799.471528041507
 20
140.4978877753424
 10
4798.391381570996
 20
139.6878166131407
 10
4797.150171006875
 20
138.5713781365527
 10
4795.792715404276
 20
137.1686006785821
 10
4794.366169190779
 20
135.5108123793848
 10
4792.963090599588
 20
133.6909603888396
 10
4791.591573378838
 20
131.7163761600384
 10
4790.342775401252
 20
129.716161891477
 10
4789.203027919548
 20
127.6836717050739
 10
4788.213516104106
 20
125.6992807263791
 10
4787.379986394973
 20
123.7993053066825
 10
4786.703710495439
 20
121.9984674783213
 10
4786.209957019642
 20
120.3912944971448
 10
4785.828659651014
 20
118.551147608362
 10
4785.775132479942
 20
117.5362554415624
 10
4785.913394875845
 20
116.8710910202671
 10
4786.23832080155
 20
116.5836808490824
 10
4786.739255195606
 20
116.6820652649924
 10
4787.397244978934
 20
117.1619236288293
 10
4788.205501889293
 20
118.0026048999052
 10
4789.133473990283
 20
119.1573650691707
 10
4790.178273518569
 20
120.5971554227219
 10
4791.313669491692
 20
122.2651353303431
 10
4792.523952322702
 20
124.1158157032046
 10
4793.783464455451
 20
126.0928308565699
 10
4795.060762153679
 20
128.1360030908608
 10
4796.323091775608
 20
130.1885433096145
 10
4797.530181766481
 20
132.1903410808786
 10
4798.643253243707
 20
134.0892549610257
 10
4799.621277130745
 20
135.8345663017521
 10
4800.89760067594
 20
138.395996452572
  0
LINE
  5
52C
330
1F
100
AcDbEntity
  8
indusa
100
AcDbLine
 10
4810.770116993957
 20
224.8008373416692
 30
0.0
 11
4647.959006353784
 21
224.8008373416692
 31
0.0
  0
LINE
  5
52D
330
1F
100
AcDbEntity
  8
indusa
100
AcDbLine
 10
4956.027646921929
 20
222.3516478582351
 30
0.0
 11
4991.343553402215
 21
162.812839493286
 31
0.0
  0
ARC
  5
52E
330
1F
100
AcDbEntity
  8
indusa
100
AcDbCircle
 10
4892.072374138989
 20
67.80083734166874
 30
0.0
 40
137.4119630351392
100
AcDbArc
 50
30.67462796502684
 51
61.20721045067988
  0
LWPOLYLINE
  5
52F
330
1F
100
AcDbEntity
  8
indusa
100
AcDbPolyline
 90
        3
 70
   128
 43
0.0
 10
4882.351064739013
 20
89.7438577251521
 10
4883.783553525884
 20
90.32405764525311
 10
4885.311760954294
 20
90.82895296946139
  0
LWPOLYLINE
  5
530
330
1F
100
AcDbEntity
  8
indusa
100
AcDbPolyline
 90
        6
 70
   128
 43
0.0
 10
4880.359540369235
 20
88.74861825235575
 10
4881.073731292794
 20
89.13226616258635
 10
4881.73235561812
 20
89.4591848545358
 10
4882.114610791479
 20
89.63757128049314
 10
4882.335923106205
 20
89.73714334988789
 10
4882.351064739013
 20
89.7438577251521
  0
LINE
  5
531
330
1F
100
AcDbEntity
  8
indusa
100
AcDbLine
 10
4951.727255578274
 20
224.8008373416692
 30
0.0
 11
4810.770116993957
 21
224.8008373416692
 31
0.0
  0
LWPOLYLINE
  5
532
330
1F
100
AcDbEntity
  8
indusa
100
AcDbPolyline
 90
       16
 70
   128
 43
0.0
 10
4831.185073296046
 20
185.3834234285559
 10
4831.339585685797
 20
185.4759370496781
 10
4838.327194292586
 20
189.37287364595
 10
4847.305062202521
 20
193.606863303547
 10
4856.589647738946
 20
197.1548453309574
 10
4866.102190844795
 20
199.9789472396542
 10
4876.095520282143
 20
202.1009418900324
 10
4886.25795916461
 20
203.4182547464466
 10
4896.490436550884
 20
203.917362839532
 10
4906.693881499653
 20
203.5847431999246
 10
4916.806730685475
 20
202.4127103375249
 10
4926.823149974737
 20
200.4167345335864
 10
4936.647799908756
 20
197.6239477215356
 10
4946.185341028832
 20
194.0614818347999
 10
4953.30305377933
 20
190.8076596148507
 10
4960.211361922732
 20
187.1277691068067
  0
ARC
  5
533
330
1F
100
AcDbEntity
  8
indusa
100
AcDbCircle
 10
4951.727255578274
 20
219.8008373416692
 30
0.0
 40
5.0
100
AcDbArc
 50
30.67462796503269
 51
90.0
  0
CIRCLE
  5
534
330
1F
100
AcDbEntity
  8
indusa
100
AcDbCircle
 10
4736.408462087062
 20
164.8124741697443
 30
0.0
 40
17.49999999999993
  0
ARC
  5
535
330
1F
100
AcDbEntity
  8
indusa
100
AcDbCircle
 10
4647.959006353784
 20
219.8008373416692
 30
0.0
 40
5.0
100
AcDbArc
 50
90.0
 51
210.6746279650268
  0
LINE
  5
543
330
1F
100
AcDbEntity
  8
indusa
100
AcDbLine
 10
5647.273777652578
 20
40.86096207923413
 30
0.0
 11
5636.891062195612
 21
155.223727052315
 31
0.0
  0
LINE
  5
544
330
1F
100
AcDbEntity
  8
indusa
100
AcDbLine
 10
6010.801704790801
 20
155.2882237634072
 30
0.0
 11
6001.868799297348
 21
40.88856707762341
 31
0.0
  0
LINE
  5
545
330
1F
100
AcDbEntity
  8
indusa
100
AcDbLine
 10
5775.449396924335
 20
39.04842975193594
 30
0.0
 11
5999.87519855363
 21
39.04842975193754
 31
0.0
  0
ARC
  5
54D
330
1F
100
AcDbEntity
  8
indusa
100
AcDbCircle
 10
5999.875198553628
 20
41.0484297519373
 30
0.0
 40
2.000000000000028
100
AcDbArc
 50
270.0
 51
355.4153809942672
  0
LINE
  5
54E
330
1F
100
AcDbEntity
  8
indusa
100
AcDbLine
 10
5649.683646894488
 20
39.04842975193526
 30
0.0
 11
5775.449396924335
 21
39.04842975193594
 31
0.0
  0
LINE
  5
54F
330
1F
100
AcDbEntity
  8
indusa
100
AcDbLine
 10
5844.203939796695
 20
28.54332717976797
 30
0.0
 11
5914.238545270467
 21
28.54332717976865
 31
0.0
  0
LINE
  5
550
330
1F
100
AcDbEntity
  8
indusa
100
AcDbLine
 10
5915.404609781056
 20
39.0484297519364
 30
0.0
 11
5915.238392965624
 21
29.52587477333134
 31
0.0
  0
ARC
  5
551
330
1F
100
AcDbEntity
  8
indusa
100
AcDbCircle
 10
5914.238545270467
 20
29.5433271797682
 30
0.0
 40
1.000000000000186
100
AcDbArc
 50
270.0
 51
358.9999999999917
  0
LINE
  5
552
330
1F
100
AcDbEntity
  8
indusa
100
AcDbLine
 10
5843.204092101541
 20
29.5258747733302
 30
0.0
 11
5843.143188532979
 21
33.01503787939589
 31
0.0
  0
ARC
  5
553
330
1F
100
AcDbEntity
  8
indusa
100
AcDbCircle
 10
5844.203939796695
 20
29.5433271797682
 30
0.0
 40
1.000000000000188
100
AcDbArc
 50
181.0000000000148
 51
270.0
  0
LWPOLYLINE
  5
554
330
1F
100
AcDbEntity
  8
indusa
100
AcDbPolyline
 90
        3
 70
   128
 43
0.0
 10
5839.352130596346
 20
36.15025292304233
 10
5826.554862995365
 20
38.11431273900178
 10
5820.465520935716
 20
39.0484297519364
  0
LWPOLYLINE
  5
555
330
1F
100
AcDbEntity
  8
indusa
100
AcDbPolyline
 90
        8
 70
   128
 43
0.0
 10
5843.148021938787
 20
32.69783600854078
 10
5843.083722269064
 20
32.97964601525462
 10
5842.906208025882
 20
33.47203105977849
 10
5842.535351299851
 20
34.14413671835485
 10
5841.886250852449
 20
34.9103572793191
 10
5840.998856845502
 20
35.57163852496467
 10
5839.935373058076
 20
36.02229590094146
 10
5839.344742079936
 20
36.11128384190772
  0
LINE
  5
556
330
1F
100
AcDbEntity
  8
indusa
100
AcDbLine
 10
5649.264972236665
 20
39.04842975193458
 30
0.0
 11
5649.683646894488
 21
39.04842975193458
 31
0.0
  0
ARC
  5
557
330
1F
100
AcDbEntity
  8
indusa
100
AcDbCircle
 10
5649.264972236665
 20
41.04842975193458
 30
0.0
 40
2.000000000000086
100
AcDbArc
 50
185.3784487860825
 51
270.0
  0
LINE
  5
558
330
1F
100
AcDbEntity
  8
indusa
100
AcDbLine
 10
5763.788496801587
 20
158.0268775447069
 30
0.0
 11
6013.433150831249
 21
158.0268775446314
 31
0.0
  0
LINE
  5
559
330
1F
100
AcDbEntity
  8
indusa
100
AcDbLine
 10
6011.633205568719
 20
198.0484297519377
 30
0.0
 11
5765.336590607066
 21
198.0484297519355
 31
0.0
  0
ARC
  5
55E
330
1F
100
AcDbEntity
  8
indusa
100
AcDbCircle
 10
6011.633205568719
 20
193.0484297519377
 30
0.0
 40
5.000000000000078
100
AcDbArc
 50
358.9999999999917
 51
90.0
  0
LINE
  5
55F
330
1F
100
AcDbEntity
  8
indusa
100
AcDbLine
 10
6016.632444044502
 20
192.96116771975
 30
0.0
 11
6016.073738842221
 21
160.9529681181676
 31
0.0
  0
ARC
  5
560
330
1F
100
AcDbEntity
  8
indusa
100
AcDbCircle
 10
6013.07419575675
 20
161.0053253374805
 30
0.0
 40
3.0000000000392
100
AcDbArc
 50
276.8720011397304
 51
358.999999957092
  0
ARC
  5
561
330
1F
100
AcDbEntity
  8
indusa
100
AcDbCircle
 10
6013.792105906382
 20
155.0484297519371
 30
0.0
 40
2.999999999999927
100
AcDbArc
 50
96.87200115203882
 51
175.4153809942933
  0
LINE
  5
562
330
1F
100
AcDbEntity
  8
indusa
100
AcDbLine
 10
5633.728848831722
 20
158.0268775447065
 30
0.0
 11
5763.788496801587
 21
158.0268775447069
 31
0.0
  0
LINE
  5
563
330
1F
100
AcDbEntity
  8
indusa
100
AcDbLine
 10
5765.336590607066
 20
198.0484297519355
 30
0.0
 11
5635.107874748376
 21
198.0484297519343
 31
0.0
  0
ARC
  5
564
330
1F
100
AcDbEntity
  8
indusa
100
AcDbCircle
 10
5635.107874748374
 20
193.0484297519364
 30
0.0
 40
4.999999999997974
100
AcDbArc
 50
90.0
 51
181.1626433496918
  0
LINE
  5
565
330
1F
100
AcDbEntity
  8
indusa
100
AcDbLine
 10
5630.758810326509
 20
160.9235954276613
 30
0.0
 11
5630.108904121596
 21
192.9469769423043
 31
0.0
  0
LWPOLYLINE
  5
566
330
1F
100
AcDbEntity
  8
indusa
100
AcDbPolyline
 90
        7
 70
   128
 43
0.0
 10
5636.891062195612
 20
155.223727052315
 10
5636.858913567964
 20
155.4377265044116
 10
5636.544385608194
 20
156.1960874758036
 10
5635.940749415663
 20
156.8917390699358
 10
5635.048757471789
 20
157.486350239592
 10
5633.821284988507
 20
157.917246766399
 10
5633.318079412703
 20
158.0035255698182
  0
LWPOLYLINE
  5
567
330
1F
100
AcDbEntity
  8
indusa
100
AcDbPolyline
 90
        3
 70
   128
 43
0.0
 10
5633.367422055339
 20
158.0126889725012
 10
5633.443033079743
 20
158.0197418857814
 10
5633.728848831722
 20
158.0268775447065
  0
LWPOLYLINE
  5
568
330
1F
100
AcDbEntity
  8
indusa
100
AcDbPolyline
 90
        9
 70
   128
 43
0.0
 10
5630.774397237214
 20
160.9162644175922
 10
5630.834295324118
 20
160.3917877957236
 10
5630.985246048103
 20
159.8854942120882
 10
5631.222558827244
 20
159.4131160293501
 10
5631.53885949993
 20
158.9893317366835
 10
5631.924319466604
 20
158.6273098363155
 10
5632.366961099688
 20
158.3382996507999
 10
5632.85302993156
 20
158.131281766104
 10
5633.367422055339
 20
158.0126889725012
  0
LINE
  5
569
330
1F
100
AcDbEntity
  8
indusa
100
AcDbLine
 10
6485.970077406811
 20
76.20377161095473
 30
0.0
 11
6478.626603724108
 21
70.0420111045845
 31
0.0
  0
LWPOLYLINE
  5
56A
330
1F
100
AcDbEntity
  8
indusa
100
AcDbPolyline
 90
       14
 70
   128
 43
0.0
 10
6559.46398372201
 20
71.00114536151534
 10
6559.897656837778
 20
71.2109072501654
 10
6563.484301835204
 20
74.8154104802544
 10
6565.426866060002
 20
78.88299077983595
 10
6565.85679232104
 20
80.79354295456971
 10
6566.925094428045
 20
87.17691035076347
 42
-0.9579928397231103
 10
6568.908178060524
 20
86.93191736785673
 10
6566.184719110861
 20
52.96849831546921
 42
-0.3909667080826304
 10
6565.187918746964
 20
52.04842975193276
 10
6564.32258627524
 20
52.04842975193276
 42
-0.3563938477828621
 10
6563.342790456856
 20
52.84842936624579
 10
6560.786508307801
 20
65.3715780174474
 10
6559.257905889078
 20
69.31240128113302
 10
6559.139337288295
 20
69.4510832363186
  0
LINE
  5
56B
330
1F
100
AcDbEntity
  8
indusa
100
AcDbLine
 10
6584.421633233316
 20
155.2882237634024
 30
0.0
 11
6575.488716570202
 21
43.88856707762113
 31
0.0
  0
LINE
  5
56C
330
1F
100
AcDbEntity
  8
indusa
100
AcDbLine
 10
6296.973060829671
 20
185.4343276676867
 30
0.0
 11
6313.734435187882
 21
56.21266963410687
 31
0.0
  0
LINE
  5
56D
330
1F
100
AcDbEntity
  8
indusa
100
AcDbLine
 10
6321.300612088851
 20
59.46670932413997
 30
0.0
 11
6304.633986555781
 21
188.0484297519332
 31
0.0
  0
LINE
  5
56E
330
1F
100
AcDbEntity
  8
indusa
100
AcDbLine
 10
6328.377291862579
 20
66.54332717976456
 30
0.0
 11
6321.807618182127
 21
148.4717084392481
 31
0.0
  0
LWPOLYLINE
  5
56F
330
1F
100
AcDbEntity
  8
indusa
100
AcDbPolyline
 90
        3
 70
   128
 43
0.0
 10
6427.056044943518
 20
70.04201110458495
 10
6424.345200176593
 20
72.31661748331351
 10
6419.712571260814
 20
76.20377161095404
  0
LINE
  5
570
330
1F
100
AcDbEntity
  8
indusa
100
AcDbLine
 10
6174.852134300994
 20
43.89056556865614
 30
0.0
 11
6166.031368943523
 21
155.2932199909945
 31
0.0
  0
LWPOLYLINE
  5
571
330
1F
100
AcDbEntity
  8
indusa
100
AcDbPolyline
 90
       24
 70
   128
 43
0.0
 10
6209.747411301523
 20
185.2189612044418
 10
6209.378734406773
 20
179.1131504717447
 10
6209.035820074958
 20
172.8618291756101
 10
6208.719747610157
 20
166.4846730077159
 10
6208.431511833161
 20
160.0017537181128
 10
6208.172019950309
 20
153.4334759404954
 10
6207.942088698093
 20
146.8005129697166
 10
6207.742441772555
 20
140.1237416937516
 10
6207.573707551467
 20
133.4241768848034
 10
6207.43641711655
 20
126.7229050564805
 10
6207.331002581934
 20
120.0410180951343
 10
6207.257795734111
 20
113.3995468743227
 10
6207.217026987613
 20
106.8193950612561
 10
6207.208824659849
 20
100.3212733236749
 10
6207.233214567188
 20
93.92563414413814
 10
6207.290119943738
 20
87.65260744697014
 10
6207.379361682937
 20
81.52193724040888
 10
6207.500658901297
 20
75.55291947343619
 10
6207.653629822462
 20
69.76434130282143
 10
6207.837792978824
 20
64.17442196157924
 10
6208.052568726927
 20
58.80075541493067
 10
6208.297281071871
 20
53.66025498426677
 10
6208.571159794921
 20
48.76910011337248
 10
6208.873342877796
 20
44.142685444545
  0
LINE
  5
572
330
1F
100
AcDbEntity
  8
indusa
100
AcDbLine
 10
6209.218631254956
 20
42.04842975193275
 30
0.0
 11
6328.733700724853
 21
42.04842975193275
 31
0.0
  0
LINE
  5
573
330
1F
100
AcDbEntity
  8
indusa
100
AcDbLine
 10
6427.842131501534
 20
31.54332717976547
 30
0.0
 11
6477.840517166095
 21
31.54332717976547
 31
0.0
  0
LINE
  5
574
330
1F
100
AcDbEntity
  8
indusa
100
AcDbLine
 10
6546.258625421606
 20
66.54332717976547
 30
0.0
 11
6499.278789700975
 21
66.54332717976547
 31
0.0
  0
LINE
  5
575
330
1F
100
AcDbEntity
  8
indusa
100
AcDbLine
 10
6489.083781448671
 20
42.04842975193412
 30
0.0
 11
6556.97412371572
 21
42.04842975193275
 31
0.0
  0
LINE
  5
576
330
1F
100
AcDbEntity
  8
indusa
100
AcDbLine
 10
6555.014528204965
 20
43.64842975193266
 30
0.0
 11
6551.157615670565
 21
62.54332717976592
 31
0.0
  0
LINE
  5
577
330
1F
100
AcDbEntity
  8
indusa
100
AcDbLine
 10
6573.495113107945
 20
42.04842975193275
 30
0.0
 11
6556.97412371572
 21
42.04842975193275
 31
0.0
  0
ARC
  5
578
330
1F
100
AcDbEntity
  8
indusa
100
AcDbCircle
 10
6573.495113950397
 20
44.04843178447879
 30
0.0
 40
2.000002032545059
100
AcDbArc
 50
269.9999758654699
 51
355.4153272485301
  0
LWPOLYLINE
  5
579
330
1F
100
AcDbEntity
  8
indusa
100
AcDbPolyline
 90
        6
 70
   128
 43
0.0
 10
6555.014528204965
 20
43.64842975193312
 10
6555.257290419612
 20
43.02251816350588
 10
6555.693652698971
 20
42.51207036901462
 10
6556.274378311755
 20
42.17483475719689
 10
6556.933995733114
 20
42.04883235470322
 10
6556.97412371572
 20
42.04842975193344
  0
ARC
  5
57A
330
1F
100
AcDbEntity
  8
indusa
100
AcDbCircle
 10
6559.89941018326
 20
70.10092105788647
 30
0.0
 40
1.0
100
AcDbArc
 50
115.8124333720368
 51
220.5293754310913
  0
LWPOLYLINE
  5
57B
330
1F
100
AcDbEntity
  8
indusa
100
AcDbPolyline
 90
        6
 70
   128
 43
0.0
 10
6551.157615670565
 20
62.54332717976592
 10
6550.550553080738
 20
64.10836878064071
 10
6549.459569327829
 20
65.38442128468421
 10
6548.007703748266
 20
66.22742142465142
 10
6546.358640546916
 20
66.5423267817772
 10
6546.258625421606
 20
66.54332717976547
  0
ARC
  5
57C
330
1F
100
AcDbEntity
  8
indusa
100
AcDbCircle
 10
6477.840498175699
 20
32.54334182244122
 30
0.0
 40
1.000014642856661
100
AcDbArc
 50
180.0008389512494
 51
270.0010880534808
  0
LWPOLYLINE
  5
57D
330
1F
100
AcDbEntity
  8
indusa
100
AcDbPolyline
 90
        7
 70
   128
 43
0.0
 10
6487.858050811772
 20
31.54332717976501
 10
6487.990948385887
 20
31.55219711065627
 10
6488.311537108287
 20
31.65206018228344
 10
6488.580996739442
 20
31.85241036894002
 10
6488.768945737994
 20
32.13065654894888
 10
6488.854195881915
 20
32.45542521645746
 10
6488.857914504314
 20
32.52587477332725
  0
LINE
  5
57E
330
1F
100
AcDbEntity
  8
indusa
100
AcDbLine
 10
6477.840517166095
 20
31.54332717976547
 30
0.0
 11
6487.858050811772
 21
31.54332717976456
 31
0.0
  0
LINE
  5
57F
330
1F
100
AcDbEntity
  8
indusa
100
AcDbLine
 10
6488.857914504314
 20
32.5258747733277
 30
0.0
 11
6489.280193516954
 21
56.7178512441377
 31
0.0
  0
LWPOLYLINE
  5
580
330
1F
100
AcDbEntity
  8
indusa
100
AcDbPolyline
 90
        7
 70
   128
 43
0.0
 10
6499.278789700975
 20
66.54332717976547
 10
6498.966015662308
 20
66.53843469514242
 10
6495.675155970056
 20
65.87146136678473
 10
6492.790567582883
 20
64.15278770777366
 10
6490.63749094373
 20
61.57618648053119
 10
6489.458681579083
 20
58.43218005863161
 10
6489.280193516954
 20
56.71785124413815
  0
LINE
  5
581
330
1F
100
AcDbEntity
  8
indusa
100
AcDbLine
 10
6476.840483532949
 20
32.54332717976456
 30
0.0
 11
6476.840483532949
 21
66.21178888898964
 31
0.0
  0
LWPOLYLINE
  5
582
330
1F
100
AcDbEntity
  8
indusa
100
AcDbPolyline
 90
        4
 70
   128
 43
0.0
 10
6478.626603724108
 20
70.0420111045845
 10
6477.54008522019
 20
68.76254750582177
 10
6476.938169446746
 20
67.19529444676379
 10
6476.840483532949
 20
66.21178888898964
  0
LWPOLYLINE
  5
583
330
1F
100
AcDbEntity
  8
indusa
100
AcDbPolyline
 90
        4
 70
   128
 43
0.0
 10
6318.046219820324
 20
51.8978283883838
 10
6357.124526942451
 20
46.80080173378189
 10
6386.633679903759
 20
42.95188725642503
 10
6412.43387546446
 20
39.58673435826597
  0
LWPOLYLINE
  5
584
330
1F
100
AcDbEntity
  8
indusa
100
AcDbPolyline
 90
        4
 70
   128
 43
0.0
 10
6416.571274020346
 20
47.04637234145877
 10
6392.349844883482
 20
50.20410023278498
 10
6365.405684252703
 20
53.71678400365897
 10
6321.300612088851
 20
59.46670932413997
  0
LINE
  5
585
330
1F
100
AcDbEntity
  8
indusa
100
AcDbLine
 10
6427.613994531538
 20
66.5433271797541
 30
0.0
 11
6328.377291862579
 21
66.54332717976456
 31
0.0
  0
LINE
  5
586
330
1F
100
AcDbEntity
  8
indusa
100
AcDbLine
 10
6332.469364681621
 20
42.04842975193275
 30
0.0
 11
6356.331429486427
 21
42.04842975193412
 31
0.0
  0
LWPOLYLINE
  5
587
330
1F
100
AcDbEntity
  8
indusa
100
AcDbPolyline
 90
        7
 70
   128
 43
0.0
 10
6427.842131501534
 20
31.54332717976547
 10
6427.957700461313
 20
31.55002728447596
 10
6428.279994366038
 20
31.64427839763801
 10
6428.552920442455
 20
31.83989796554568
 10
6428.745702825043
 20
32.11482565153926
 10
6428.836608661152
 20
32.43805759452823
 10
6428.842165134676
 20
32.54332717976524
  0
ARC
  5
588
330
1F
100
AcDbEntity
  8
indusa
100
AcDbCircle
 10
6417.824588756937
 20
32.54333419967963
 30
0.0
 40
1.000007019955051
100
AcDbArc
 50
181.0003952492935
 51
270.0005213259445
  0
LINE
  5
589
330
1F
100
AcDbEntity
  8
indusa
100
AcDbLine
 10
6417.824597855854
 20
31.54332717976456
 30
0.0
 11
6427.842131501534
 21
31.54332717976547
 31
0.0
  0
LINE
  5
58A
330
1F
100
AcDbEntity
  8
indusa
100
AcDbLine
 10
6381.70304324768
 20
42.04842975193275
 30
0.0
 11
6393.486599446713
 21
42.04842975193412
 31
0.0
  0
LINE
  5
58B
330
1F
100
AcDbEntity
  8
indusa
100
AcDbLine
 10
6427.971406029914
 20
45.5601451359247
 30
0.0
 11
6416.571274020346
 21
47.04637234145809
 31
0.0
  0
LINE
  5
58C
330
1F
100
AcDbEntity
  8
indusa
100
AcDbLine
 10
6428.842165134676
 20
44.568526450705
 30
0.0
 11
6428.842165134676
 21
32.54332717976456
 31
0.0
  0
LWPOLYLINE
  5
58D
330
1F
100
AcDbEntity
  8
indusa
100
AcDbPolyline
 90
        6
 70
   128
 43
0.0
 10
6428.842165134676
 20
44.568526450705
 10
6428.785794280956
 20
44.89952624868294
 10
6428.623039109455
 20
45.19320824202907
 10
6428.372245106422
 20
45.41646937514485
 10
6428.061678773949
 20
45.54413836106403
 10
6427.971406029914
 20
45.56014513592515
  0
LWPOLYLINE
  5
58E
330
1F
100
AcDbEntity
  8
indusa
100
AcDbPolyline
 90
        6
 70
   128
 43
0.0
 10
6416.786505304798
 20
34.71597057867655
 10
6416.475808055951
 20
36.36581634940274
 10
6415.636518848986
 20
37.81981611680919
 10
6414.363251357838
 20
38.9140590727119
 10
6412.799539659038
 20
39.52517416946591
 10
6412.43387546446
 20
39.58673435826597
  0
LINE
  5
58F
330
1F
100
AcDbEntity
  8
indusa
100
AcDbLine
 10
6416.786505304798
 20
34.715970578677
 30
0.0
 11
6416.824734163312
 21
32.5258747733277
 31
0.0
  0
LWPOLYLINE
  5
590
330
1F
100
AcDbEntity
  8
indusa
100
AcDbPolyline
 90
        3
 70
   128
 43
0.0
 10
6428.556993172937
 20
67.8762117524592
 10
6427.81734319785
 20
69.24455752717847
 10
6427.056044943518
 20
70.04201110458495
  0
LWPOLYLINE
  5
591
330
1F
100
AcDbEntity
  8
indusa
100
AcDbPolyline
 90
        8
 70
   128
 43
0.0
 10
6427.613994531538
 20
66.5433271797541
 10
6427.727560440806
 20
66.54979630165428
 10
6428.050043331559
 20
66.64339734211023
 10
6428.323362992199
 20
66.83846604578377
 10
6428.516699257325
 20
67.11300431654478
 10
6428.608256752093
 20
67.43605233299206
 10
6428.58772067935
 20
67.7711866193664
 10
6428.556993172937
 20
67.8762117524592
  0
LINE
  5
592
330
1F
100
AcDbEntity
  8
indusa
100
AcDbLine
 10
6359.384959111213
 20
42.04842975193275
 30
0.0
 11
6381.70304324768
 21
42.04842975193275
 31
0.0
  0
LINE
  5
593
330
1F
100
AcDbEntity
  8
indusa
100
AcDbLine
 10
6357.068365711875
 20
42.04842975193412
 30
0.0
 11
6359.384959111213
 21
42.04842975193275
 31
0.0
  0
LINE
  5
594
330
1F
100
AcDbEntity
  8
indusa
100
AcDbLine
 10
6356.331429486427
 20
42.04842975193412
 30
0.0
 11
6357.068365711875
 21
42.04842975193412
 31
0.0
  0
ARC
  5
595
330
1F
100
AcDbEntity
  8
indusa
100
AcDbCircle
 10
6318.692897218706
 20
56.8558333986158
 30
0.0
 40
5.000000533909165
100
AcDbArc
 50
187.3905906884863
 51
262.568806870574
  0
LINE
  5
596
330
1F
100
AcDbEntity
  8
indusa
100
AcDbLine
 10
6328.733700724853
 20
42.04842975193275
 30
0.0
 11
6332.469364681621
 21
42.04842975193275
 31
0.0
  0
LINE
  5
597
330
1F
100
AcDbEntity
  8
indusa
100
AcDbLine
 10
6178.457499195357
 20
42.04842975193275
 30
0.0
 11
6190.774742922162
 21
42.04842975193412
 31
0.0
  0
LINE
  5
598
330
1F
100
AcDbEntity
  8
indusa
100
AcDbLine
 10
6206.147500051397
 20
42.04842975193048
 30
0.0
 11
6190.774742922162
 21
42.04842975193412
 31
0.0
  0
LWPOLYLINE
  5
599
330
1F
100
AcDbEntity
  8
indusa
100
AcDbPolyline
 90
        6
 70
   128
 43
0.0
 10
6206.147500051397
 20
42.04842975193116
 10
6207.147500051401
 20
42.20185258357457
 10
6208.148689101416
 20
42.72375105728213
 10
6208.60475531967
 20
43.21012345911538
 10
6208.82740109046
 20
43.68623452555482
 10
6208.873342877796
 20
44.142685444545
  0
LINE
  5
59A
330
1F
100
AcDbEntity
  8
indusa
100
AcDbLine
 10
6206.147500051397
 20
42.04842975193048
 30
0.0
 11
6209.218631254956
 21
42.04842975193275
 31
0.0
  0
LINE
  5
59B
330
1F
100
AcDbEntity
  8
indusa
100
AcDbLine
 10
6176.845894291477
 20
42.04842975193412
 30
0.0
 11
6178.457499195357
 21
42.04842975193275
 31
0.0
  0
ARC
  5
59C
330
1F
100
AcDbEntity
  8
indusa
100
AcDbCircle
 10
6176.845894291474
 20
44.04842975193389
 30
0.0
 40
2.000000000000324
100
AcDbArc
 50
184.7921854621657
 51
270.0
  0
LINE
  5
59D
330
1F
100
AcDbEntity
  8
indusa
100
AcDbLine
 10
6254.344642948092
 20
188.0484297519332
 30
0.0
 11
6213.262558096534
 21
188.0484297519332
 31
0.0
  0
LINE
  5
59E
330
1F
100
AcDbEntity
  8
indusa
100
AcDbLine
 10
6165.273426310234
 20
198.0484297519332
 30
0.0
 11
6254.344642948092
 21
198.0484297519332
 31
0.0
  0
LINE
  5
59F
330
1F
100
AcDbEntity
  8
indusa
100
AcDbLine
 10
6579.573918018749
 20
198.0484297519332
 30
0.0
 11
6326.108730648876
 21
198.0484297519332
 31
0.0
  0
LINE
  5
5A0
330
1F
100
AcDbEntity
  8
indusa
100
AcDbLine
 10
6556.03979244923
 20
82.71802073636434
 30
0.0
 11
6574.642495013579
 21
193.8737361953348
 31
0.0
  0
LINE
  5
5A1
330
1F
100
AcDbEntity
  8
indusa
100
AcDbLine
 10
6492.398052480925
 20
78.54332717976501
 30
0.0
 11
6551.10836607796
 21
78.54332717976365
 31
0.0
  0
LWPOLYLINE
  5
5A2
330
1F
100
AcDbEntity
  8
indusa
100
AcDbPolyline
 90
        6
 70
   128
 43
0.0
 10
6551.10836607796
 20
78.54332717976433
 10
6552.498928000453
 20
78.74058364003656
 10
6554.010281803596
 20
79.47160527047287
 10
6555.194464482518
 20
80.6616841029894
 10
6555.91796827622
 20
82.1766454825787
 10
6556.03979244923
 20
82.71802073636479
  0
LWPOLYLINE
  5
5A3
330
1F
100
AcDbEntity
  8
indusa
100
AcDbPolyline
 90
        4
 70
   128
 43
0.0
 10
6492.398052480925
 20
78.54332717976501
 10
6491.037312345577
 20
78.45031641671369
 10
6487.834667321829
 20
77.44142377515515
 10
6485.970077406811
 20
76.20377161095518
  0
LWPOLYLINE
  5
5A4
330
1F
100
AcDbEntity
  8
indusa
100
AcDbPolyline
 90
        7
 70
   128
 43
0.0
 10
6590.252378994418
 20
192.9611677197466
 10
6590.208114499869
 20
193.71793133996
 10
6589.7071882055
 20
195.320313109912
 10
6588.704102397631
 20
196.6665577982388
 10
6587.31194639453
 20
197.6048872732093
 10
6585.687674010596
 20
198.0295115881546
 10
6585.253134974272
 20
198.0484297519325
  0
ARC
  5
5A5
330
1F
100
AcDbEntity
  8
indusa
100
AcDbCircle
 10
6587.412035811201
 20
155.0484279527712
 30
0.0
 40
3.000001601433686
100
AcDbArc
 50
96.87196774805888
 51
175.4153489750768
  0
LINE
  5
5A6
330
1F
100
AcDbEntity
  8
indusa
100
AcDbLine
 10
6590.252378994418
 20
192.9611677197466
 30
0.0
 11
6589.693673192616
 21
160.9529681181642
 31
0.0
  0
LWPOLYLINE
  5
5A7
330
1F
100
AcDbEntity
  8
indusa
100
AcDbPolyline
 90
        6
 70
   128
 43
0.0
 10
6587.053082280917
 20
158.0268775447051
 10
6588.01722866001
 20
158.3128533542593
 10
6588.833868784927
 20
158.9025856005361
 10
6589.409268626249
 20
159.7293860150051
 10
6589.678556305546
 20
160.7000383101052
 10
6589.693673192616
 20
160.9529681181642
  0
LWPOLYLINE
  5
5A8
330
1F
100
AcDbEntity
  8
indusa
100
AcDbPolyline
 90
        6
 70
   128
 43
0.0
 10
6579.573918018749
 20
198.0484297519336
 10
6578.183356139679
 20
197.8511729860855
 10
6576.672004891626
 20
197.1201519746058
 10
6575.487823411595
 20
195.9300741110395
 10
6574.764319605185
 20
194.4151131529678
 10
6574.642495013579
 20
193.8737361953348
  0
LINE
  5
5A9
330
1F
100
AcDbEntity
  8
indusa
100
AcDbLine
 10
6579.573918018749
 20
198.0484297519332
 30
0.0
 11
6585.253134974272
 21
198.0484297519332
 31
0.0
  0
LWPOLYLINE
  5
5AA
330
1F
100
AcDbEntity
  8
indusa
100
AcDbPolyline
 90
       20
 70
   128
 43
0.0
 10
6338.597535168874
 20
148.7165190246588
 10
6338.585326884096
 20
148.956084952539
 10
6338.554367812083
 20
149.5672295183652
 10
6338.497069168872
 20
150.5843984867123
 10
6338.406178924431
 20
151.9544740688326
 10
6338.13772975197
 20
155.0894468943369
 10
6338.086536678048
 20
155.5946566698384
 10
6337.842446793331
 20
157.7556112633755
 10
6337.538684031695
 20
160.0591300314967
 10
6337.174060257341
 20
162.455026191073
 10
6336.759217074488
 20
164.8636882554928
 10
6336.298583480619
 20
167.2556616635359
 10
6335.816874276579
 20
169.5318693649761
 10
6335.327250259854
 20
171.6626100732186
 10
6334.862596279124
 20
173.5532673020269
 10
6334.450400780617
 20
175.1414297827335
 10
6334.114169500744
 20
176.3850531814802
 10
6333.883434283316
 20
177.2163119904975
 10
6333.761197968851
 20
177.6517192899713
 10
6333.745205570274
 20
177.7103833440209
  0
ARC
  5
5AB
330
1F
100
AcDbEntity
  8
indusa
100
AcDbCircle
 10
6337.771270861087
 20
87.01184881227812
 30
0.0
 40
1.0
100
AcDbArc
 50
9.500810834558818
 51
184.5846246540021
  0
ARC
  5
5AC
330
1F
100
AcDbEntity
  8
indusa
100
AcDbCircle
 10
6338.530532748186
 20
77.54332717976365
 30
0.0
 40
1.0
100
AcDbArc
 50
184.5846246540021
 51
270.0
  0
LWPOLYLINE
  5
5AD
330
1F
100
AcDbEntity
  8
indusa
100
AcDbPolyline
 90
        6
 70
   128
 43
0.0
 10
6338.597535168874
 20
148.7165190246588
 10
6338.487263975388
 20
149.0337940195417
 10
6338.278185698811
 20
149.2966823276646
 10
6337.99389586299
 20
149.475510028023
 10
6337.666505725344
 20
149.5501143051177
 10
6337.611237154741
 20
149.5516441186704
  0
LINE
  5
5AE
330
1F
100
AcDbEntity
  8
indusa
100
AcDbLine
 10
6338.597535168874
 20
148.7165190246595
 30
0.0
 11
6349.642856218397
 21
82.71802073636434
 31
0.0
  0
LINE
  5
5AF
330
1F
100
AcDbEntity
  8
indusa
100
AcDbLine
 10
6354.574282589665
 20
78.54332717976501
 30
0.0
 11
6413.284596186699
 21
78.54332717976501
 31
0.0
  0
LWPOLYLINE
  5
5B0
330
1F
100
AcDbEntity
  8
indusa
100
AcDbPolyline
 90
        4
 70
   128
 43
0.0
 10
6419.712571260814
 20
76.20377161095404
 10
6416.814774880316
 20
77.89951183494384
 10
6413.518741052628
 20
78.54058568418338
 10
6413.284596186699
 20
78.54332717976546
  0
LWPOLYLINE
  5
5B1
330
1F
100
AcDbEntity
  8
indusa
100
AcDbPolyline
 90
        6
 70
   128
 43
0.0
 10
6349.642856218397
 20
82.71802073636434
 10
6350.193929550045
 20
81.13239706514276
 10
6351.238886098039
 20
79.81838755446813
 10
6352.659882808295
 20
78.9243350276364
 10
6354.296715513685
 20
78.55103744063524
 10
6354.574282589665
 20
78.54332717976501
  0
LWPOLYLINE
  5
5B2
330
1F
100
AcDbEntity
  8
indusa
100
AcDbPolyline
 90
        4
 70
   128
 43
0.0
 10
6339.919554518584
 20
80.23367345914937
 10
6340.7404746041
 20
77.8716097463531
 42
-0.5159427128940728
 10
6339.795895038117
 20
76.54332717976365
 10
6338.530532748186
 20
76.54332717976365
  0
LINE
  5
5B3
330
1F
100
AcDbEntity
  8
indusa
100
AcDbLine
 10
6338.757554126816
 20
87.17691037577253
 30
0.0
 11
6339.919554518584
 21
80.23367345914824
 31
0.0
  0
LINE
  5
5B4
330
1F
100
AcDbEntity
  8
indusa
100
AcDbLine
 10
6337.533732384205
 20
77.46339574434125
 30
0.0
 11
6336.774470497108
 21
86.93191737685571
 31
0.0
  0
LINE
  5
5B5
330
1F
100
AcDbEntity
  8
indusa
100
AcDbLine
 10
6337.611237154742
 20
149.5516441186704
 30
0.0
 11
6322.804432738338
 21
149.5519122466406
 31
0.0
  0
ARC
  5
5B6
330
1F
100
AcDbEntity
  8
indusa
100
AcDbCircle
 10
6322.804526343279
 20
148.5517925823091
 30
0.0
 40
1.000119668712863
100
AcDbArc
 50
90.00536252640721
 51
184.5928514951448
  0
LINE
  5
5B7
330
1F
100
AcDbEntity
  8
indusa
100
AcDbLine
 10
6255.344829219169
 20
197.0484297519327
 30
0.0
 11
6255.344829219173
 21
189.0484297519332
 31
0.0
  0
LINE
  5
5B8
330
1F
100
AcDbEntity
  8
indusa
100
AcDbLine
 10
6290.337938438104
 20
189.0484297519323
 30
0.0
 11
6290.337938438104
 21
197.0484297519327
 31
0.0
  0
LINE
  5
5B9
330
1F
100
AcDbEntity
  8
indusa
100
AcDbLine
 10
6331.040153654043
 20
193.8737361953339
 30
0.0
 11
6333.745205570274
 21
177.7103833440209
 31
0.0
  0
LINE
  5
5BA
330
1F
100
AcDbEntity
  8
indusa
100
AcDbLine
 10
6318.634040027472
 20
188.0484297519332
 30
0.0
 11
6304.633986555781
 21
188.0484297519332
 31
0.0
  0
LWPOLYLINE
  5
5BB
330
1F
100
AcDbEntity
  8
indusa
100
AcDbPolyline
 90
        6
 70
   128
 43
0.0
 10
6319.482684202125
 20
177.4652479208413
 10
6319.565367991385
 20
177.1396638294396
 10
6319.751162806017
 20
176.8598025368266
 10
6320.019111095882
 20
176.6572433452769
 10
6320.338942698636
 20
176.5548432582908
 10
6320.479583950202
 20
176.5449041819873
  0
LWPOLYLINE
  5
5BC
330
1F
100
AcDbEntity
  8
indusa
100
AcDbPolyline
 90
        7
 70
   128
 43
0.0
 10
6332.759051157388
 20
176.5451287031971
 10
6333.089975514156
 20
176.6014921285972
 10
6333.383588707302
 20
176.7642156032115
 10
6333.606806587166
 20
177.014954639057
 10
6333.734494725763
 20
177.3254967055744
 10
6333.752223633717
 20
177.6608795600651
 10
6333.745205570274
 20
177.7103833440209
  0
LINE
  5
5BD
330
1F
100
AcDbEntity
  8
indusa
100
AcDbLine
 10
6320.4795839502
 20
176.5449041819873
 30
0.0
 11
6332.759051157391
 21
176.5451287031964
 31
0.0
  0
LINE
  5
5BE
330
1F
100
AcDbEntity
  8
indusa
100
AcDbLine
 10
6319.482684202125
 20
177.465247920842
 30
0.0
 11
6318.634040027472
 21
188.0484297519332
 31
0.0
  0
ARC
  5
5BF
330
1F
100
AcDbEntity
  8
indusa
100
AcDbCircle
 10
6291.338020459519
 20
189.0485117712813
 30
0.0
 40
1.00008202477987
100
AcDbArc
 50
180.0046989769687
 51
270.0059725757939
  0
LINE
  5
5C0
330
1F
100
AcDbEntity
  8
indusa
100
AcDbLine
 10
6293.997983303274
 20
188.0484297519332
 30
0.0
 11
6291.338124709182
 21
188.0484297519318
 31
0.0
  0
ARC
  5
5C1
330
1F
100
AcDbEntity
  8
indusa
100
AcDbCircle
 10
6293.997983546287
 20
185.0484293610783
 30
0.0
 40
3.000000390856189
100
AcDbArc
 50
7.390591436389049
 51
90.00000464119567
  0
LWPOLYLINE
  5
5C2
330
1F
100
AcDbEntity
  8
indusa
100
AcDbPolyline
 90
        7
 70
   128
 43
0.0
 10
6254.344642948092
 20
188.0484297519332
 10
6254.460119577323
 20
188.0551171749681
 10
6254.782515606546
 20
188.1493542708039
 10
6255.055534881074
 20
188.3449968714297
 10
6255.248365019919
 20
188.6199569698886
 10
6255.339275080057
 20
188.9431907116017
 10
6255.344829219173
 20
189.0484297519332
  0
LINE
  5
5C3
330
1F
100
AcDbEntity
  8
indusa
100
AcDbLine
 10
6291.338124709184
 20
198.0484297519341
 30
0.0
 11
6254.344642948092
 21
198.0484297519332
 31
0.0
  0
LINE
  5
5C4
330
1F
100
AcDbEntity
  8
indusa
100
AcDbLine
 10
6291.338124709184
 20
198.0484297519341
 30
0.0
 11
6326.108730648876
 21
198.0484297519332
 31
0.0
  0
LWPOLYLINE
  5
5C5
330
1F
100
AcDbEntity
  8
indusa
100
AcDbPolyline
 90
        6
 70
   128
 43
0.0
 10
6331.040153654043
 20
193.8737361953339
 10
6330.489080338819
 20
195.4593603882614
 10
6329.444123583471
 20
196.7733703798329
 10
6328.023126799624
 20
197.6674227946051
 10
6326.386295018403
 20
198.0407196288114
 10
6326.108730648876
 20
198.0484297519332
  0
LWPOLYLINE
  5
5C6
330
1F
100
AcDbEntity
  8
indusa
100
AcDbPolyline
 90
        7
 70
   128
 43
0.0
 10
6291.338124709184
 20
198.0484297519336
 10
6291.222648079951
 20
198.0417423288976
 10
6290.900252050731
 20
197.9475052330627
 10
6290.6272327762
 20
197.751862632436
 10
6290.434402637355
 20
197.4769025339782
 10
6290.343492577217
 20
197.1536687922633
 10
6290.337938438104
 20
197.0484297519327
  0
ARC
  5
5C7
330
1F
100
AcDbEntity
  8
indusa
100
AcDbCircle
 10
6254.344747197754
 20
197.0483477325887
 30
0.0
 40
1.000082024779296
100
AcDbArc
 50
0.0046989769230781
 51
90.00597257581995
  0
ARC
  5
5C8
330
1F
100
AcDbEntity
  8
indusa
100
AcDbCircle
 10
6165.273426310234
 20
193.0484297519359
 30
0.0
 40
5.000000000000205
100
AcDbArc
 50
90.0
 51
180.9874223338716
  0
LWPOLYLINE
  5
5C9
330
1F
100
AcDbEntity
  8
indusa
100
AcDbPolyline
 90
        6
 70
   128
 43
0.0
 10
6213.262558096534
 20
188.0484297519332
 10
6211.762558096532
 20
187.7855874904675
 10
6210.793070166547
 20
187.2243404022487
 10
6210.076725761574
 20
186.3565865231511
 10
6209.765252149076
 20
185.4019965938472
 10
6209.747411301523
 20
185.2189612044418
  0
LWPOLYLINE
  5
5CA
330
1F
100
AcDbEntity
  8
indusa
100
AcDbPolyline
 90
        4
 70
   128
 43
0.0
 10
6160.274168798999
 20
192.9622651631001
 10
6160.458528709785
 20
182.3408924487579
 10
6160.645383298361
 20
171.7250674859418
 10
6160.83463575229
 20
161.1202905085048
  0
LWPOLYLINE
  5
5CB
330
1F
100
AcDbEntity
  8
indusa
100
AcDbPolyline
 90
        2
 70
   128
 43
0.0
 10
6163.265558959636
 20
158.1070406082148
 10
6164.561583291679
 20
157.6370854010619
  0
LWPOLYLINE
  5
5CC
330
1F
100
AcDbEntity
  8
indusa
100
AcDbPolyline
 90
        6
 70
   128
 43
0.0
 10
6166.031368943523
 20
155.2932199909945
 10
6165.994131509344
 20
155.5857278243383
 10
6165.823968559891
 20
156.1870322141648
 10
6165.485386422168
 20
156.8141109559395
 10
6164.983680146379
 20
157.3648543743326
 10
6164.561583291679
 20
157.6370854010619
  0
LWPOLYLINE
  5
5CD
330
1F
100
AcDbEntity
  8
indusa
100
AcDbPolyline
 90
        5
 70
   128
 43
0.0
 10
6160.83463575229
 20
161.1202905085048
 10
6161.031069830926
 20
160.0764756871239
 10
6161.562844616219
 20
159.1567306809646
 10
6162.365518244503
 20
158.4701181871263
 10
6163.26555895966
 20
158.1070406082068
  0
LINE
  5
616
330
1F
100
AcDbEntity
  8
indusa
  6
Continuous
100
AcDbLine
 10
5199.895182526799
 20
42.04842975193241
 30
0.0
 11
5411.922669180174
 21
42.04842975193412
 31
0.0
  0
LINE
  5
619
330
1F
100
AcDbEntity
  8
indusa
  6
Continuous
100
AcDbLine
 10
5199.572887286197
 20
158.0268775447042
 30
0.0
 11
5418.83942263091
 21
158.0268775447053
 31
0.0
  0
LINE
  5
61B
330
1F
100
AcDbEntity
  8
indusa
  6
Continuous
100
AcDbLine
 10
5417.921158769765
 20
198.0484297519343
 30
0.0
 11
5198.369593203927
 21
198.0484297519326
 31
0.0
  0
ARC
  5
61E
330
1F
100
AcDbEntity
  8
indusa
  6
Continuous
100
AcDbCircle
 10
5198.369593203927
 20
193.0484297519326
 30
0.0
 40
5.0
100
AcDbArc
 50
90.0
 51
180.0
  0
LINE
  5
620
330
1F
100
AcDbEntity
  8
indusa
  6
Continuous
100
AcDbLine
 10
5193.369593203926
 20
155.687880449184
 30
0.0
 11
5193.369593203926
 21
44.0484297519323
 31
0.0
  0
LINE
  5
623
330
1F
100
AcDbEntity
  8
indusa
  6
Continuous
100
AcDbLine
 10
5195.369593203924
 20
42.04842975193241
 30
0.0
 11
5199.895182526799
 21
42.04842975193241
 31
0.0
  0
ARC
  5
624
330
1F
100
AcDbEntity
  8
indusa
  6
Continuous
100
AcDbCircle
 10
5195.369593203924
 20
44.0484297519323
 30
0.0
 40
1.999999999999886
100
AcDbArc
 50
180.0
 51
270.0
  0
LINE
  5
627
330
1F
100
AcDbEntity
  8
indusa
  6
Continuous
100
AcDbLine
 10
5193.369593203926
 20
193.0484297519326
 30
0.0
 11
5193.369593203926
 21
162.5823663746781
 31
0.0
  0
LINE
  5
629
330
1F
100
AcDbEntity
  8
indusa
  6
Continuous
100
AcDbLine
 10
5193.369593203926
 20
162.5823663746781
 30
0.0
 11
5193.369593203926
 21
155.687880449184
 31
0.0
  0
LWPOLYLINE
  5
62B
330
1F
100
AcDbEntity
  8
indusa
  6
Continuous
100
AcDbPolyline
 90
        8
 70
   128
 43
0.0
 10
5193.369593203926
 20
162.5823663746781
 10
5193.369612723842
 20
162.5701961232534
 10
5193.377347131452
 20
162.3392217685774
 10
5193.809942143141
 20
160.7564901665854
 10
5194.881334750627
 20
159.3438797593877
 10
5196.174363658899
 20
158.4838157994484
 10
5197.411181604173
 20
158.0869233657485
 10
5198.762163295357
 20
158.0126889724989
  0
LWPOLYLINE
  5
62F
330
1F
100
AcDbEntity
  8
indusa
  6
Continuous
100
AcDbPolyline
 90
        3
 70
   128
 43
0.0
 10
5198.762163295357
 20
158.0126889724989
 10
5198.983353175597
 20
158.0197418857797
 10
5199.572887286197
 20
158.0268775447042
  0
ARC
  5
634
330
1F
100
AcDbEntity
  8
indusa
  6
Continuous
100
AcDbCircle
 10
5482.781556239062
 20
193.0484297519343
 30
0.0
 40
5.000000000000072
100
AcDbArc
 50
358.9999999999912
 51
90.0
  0
LWPOLYLINE
  5
635
330
1F
100
AcDbEntity
  8
indusa
  6
Continuous
100
AcDbPolyline
 90
        3
 70
   128
 43
0.0
 10
5317.385354178866
 20
39.18019482888167
 10
5307.859343781776
 20
41.52162016163299
 10
5305.714146122457
 20
42.04842975193355
  0
LINE
  5
637
330
1F
100
AcDbEntity
  8
indusa
  6
Continuous
100
AcDbLine
 10
5320.25197209036
 20
31.54332717976513
 30
0.0
 11
5385.386895940811
 21
31.5433271797657
 31
0.0
  0
LWPOLYLINE
  5
639
330
1F
100
AcDbEntity
  8
indusa
  6
Continuous
100
AcDbPolyline
 90
        6
 70
   128
 43
0.0
 10
5344.50863153452
 20
34.30852301866889
 10
5346.573786886786
 20
34.42182157683431
 10
5349.686384524154
 20
35.50084388630421
 10
5351.996930680063
 20
37.24122104784112
 10
5353.610784924769
 20
39.44938593472114
 10
5354.505300015819
 20
42.14936096616622
  0
LWPOLYLINE
  5
63A
330
1F
100
AcDbEntity
  8
indusa
  6
Continuous
100
AcDbPolyline
 90
        7
 70
   128
 43
0.0
 10
5321.102962930729
 20
34.30946885398623
 10
5323.878762802107
 20
34.52196066633189
 10
5327.104396889215
 20
34.65913569328006
 10
5331.928469388419
 20
34.71513376456255
 10
5337.412930089647
 20
34.62151059416624
 10
5340.893564706
 20
34.49258860249711
 10
5344.50863153452
 20
34.30852301866889
  0
LWPOLYLINE
  5
63B
330
1F
100
AcDbEntity
  8
indusa
  6
Continuous
100
AcDbPolyline
 90
        7
 70
   128
 43
0.0
 10
5344.036828000423
 20
39.17928191039562
 10
5339.963512678029
 20
39.36167933290688
 10
5335.957404863868
 20
39.49226108087044
 10
5329.881978093237
 20
39.58533417234844
 10
5324.219600998379
 20
39.52987186977635
 10
5320.599847247233
 20
39.39542285035668
 10
5317.385354178866
 20
39.18019482888167
  0
LWPOLYLINE
  5
63C
330
1F
100
AcDbEntity
  8
indusa
  6
Continuous
100
AcDbPolyline
 90
        9
 70
   128
 43
0.0
 10
5321.102962930729
 20
34.30946885398623
 10
5320.999420456335
 20
35.1979900706159
 10
5320.769219663205
 20
36.05526358249802
 10
5320.419732317989
 20
36.85383674620778
 10
5319.962150124786
 20
37.56813669146891
 10
5319.411126330903
 20
38.1752892463602
 10
5318.784306482978
 20
38.65585144155841
 10
5318.101763360047
 20
38.9944341364868
 10
5317.385354178866
 20
39.18019482888167
  0
LINE
  5
63D
330
1F
100
AcDbEntity
  8
indusa
  6
Continuous
100
AcDbLine
 10
5315.352290467042
 20
31.54332717976513
 30
0.0
 11
5320.25197209036
 21
31.54332717976513
 31
0.0
  0
LWPOLYLINE
  5
63F
330
1F
100
AcDbEntity
  8
indusa
  6
Continuous
100
AcDbPolyline
 90
        6
 70
   128
 43
0.0
 10
5316.912682728501
 20
39.29637409615292
 10
5316.845360236368
 20
38.76687096895648
 10
5317.711988923576
 20
36.46269548440626
 10
5319.206826734628
 20
34.76190768639083
 10
5320.111668681281
 20
34.37648428048488
 10
5321.102962930729
 20
34.30946885398623
  0
ARC
  5
642
330
1F
100
AcDbEntity
  8
indusa
  6
Continuous
100
AcDbCircle
 10
5315.352290467042
 20
32.54332717976536
 30
0.0
 40
1.000000000000188
100
AcDbArc
 50
181.0000000000152
 51
270.0
  0
LINE
  5
643
330
1F
100
AcDbEntity
  8
indusa
  6
Continuous
100
AcDbLine
 10
5314.224655453451
 20
39.84680534325332
 30
0.0
 11
5314.352442771885
 21
32.52587477332793
 31
0.0
  0
LWPOLYLINE
  5
644
330
1F
100
AcDbEntity
  8
indusa
  6
Continuous
100
AcDbPolyline
 90
        9
 70
   128
 43
0.0
 10
5344.50863153452
 20
34.30852301866889
 10
5344.536970012924
 20
35.19708548530514
 10
5344.538369641629
 20
36.05439588344109
 10
5344.512785595677
 20
36.85299771519237
 10
5344.461037237931
 20
37.56731470205762
 10
5344.3847818779
 20
38.17446989902135
 10
5344.286461694212
 20
38.65501835893508
 10
5344.169225520616
 20
38.99356988263503
 10
5344.036828000423
 20
39.17928191039562
  0
LINE
  5
645
330
1F
100
AcDbEntity
  8
indusa
  6
Continuous
100
AcDbLine
 10
5332.43789909936
 20
42.04842975193355
 30
0.0
 11
5344.036828000423
 21
39.17928191039562
 31
0.0
  0
LWPOLYLINE
  5
646
330
1F
100
AcDbEntity
  8
indusa
  6
Continuous
100
AcDbPolyline
 90
        7
 70
   128
 43
0.0
 10
5350.675915663489
 20
42.04842975193355
 10
5350.628693113851
 20
41.90651680439043
 10
5350.357871185558
 20
41.46794104995035
 10
5349.244134260682
 20
40.4121564423998
 10
5347.627151165477
 20
39.61657435518203
 10
5345.45976175055
 20
39.17481038016558
 10
5344.036828000423
 20
39.17928191039562
  0
ARC
  5
647
330
1F
100
AcDbEntity
  8
indusa
  6
Continuous
100
AcDbCircle
 10
5385.386895940811
 20
32.54332717976593
 30
0.0
 40
1.000000000000188
100
AcDbArc
 50
270.0
 51
358.9999999999847
  0
LINE
  5
648
330
1F
100
AcDbEntity
  8
indusa
  6
Continuous
100
AcDbLine
 10
5386.386743635969
 20
32.52587477332793
 30
0.0
 11
5386.552960451401
 21
42.04842975193412
 31
0.0
  0
LINE
  5
64A
330
1F
100
AcDbEntity
  8
indusa
  6
Continuous
100
AcDbLine
 10
5473.017149967692
 20
43.8885670776217
 30
0.0
 11
5481.950055461145
 21
155.2882237634038
 31
0.0
  0
LINE
  5
64B
330
1F
100
AcDbEntity
  8
indusa
  6
Continuous
100
AcDbLine
 10
5411.922669180174
 20
42.04842975193412
 30
0.0
 11
5471.023549223971
 21
42.04842975193469
 31
0.0
  0
ARC
  5
64E
330
1F
100
AcDbEntity
  8
indusa
  6
Continuous
100
AcDbCircle
 10
5471.023549223971
 20
44.04842975193457
 30
0.0
 40
2.000000000000028
100
AcDbArc
 50
270.0
 51
355.4153809942691
  0
LINE
  5
650
330
1F
100
AcDbEntity
  8
indusa
  6
Continuous
100
AcDbLine
 10
5418.83942263091
 20
158.0268775447053
 30
0.0
 11
5484.581501501595
 21
158.026877544628
 31
0.0
  0
LINE
  5
656
330
1F
100
AcDbEntity
  8
indusa
  6
Continuous
100
AcDbLine
 10
5487.222089512563
 20
160.9529681181653
 30
0.0
 11
5487.780794714847
 21
192.9611677197478
 31
0.0
  0
ARC
  5
657
330
1F
100
AcDbEntity
  8
indusa
  6
Continuous
100
AcDbCircle
 10
5484.940456576726
 20
155.0484297519348
 30
0.0
 40
2.999999999999916
100
AcDbArc
 50
96.87200115203845
 51
175.415380994295
  0
ARC
  5
658
330
1F
100
AcDbEntity
  8
indusa
  6
Continuous
100
AcDbCircle
 10
5484.222546427097
 20
161.005325337477
 30
0.0
 40
3.000000000039059
100
AcDbArc
 50
276.8720011397561
 51
358.9999999572416
  0
LINE
  5
659
330
1F
100
AcDbEntity
  8
indusa
  6
Continuous
100
AcDbLine
 10
5482.781556239062
 20
198.0484297519343
 30
0.0
 11
5417.921158769765
 21
198.0484297519343
 31
0.0
  0
ENDSEC
  0
SECTION
  2
OBJECTS
  0
DICTIONARY
  5
C
330
0
100
AcDbDictionary
281
     1
  3
ACAD_COLOR
350
68A
  3
ACAD_GROUP
350
D
  3
ACAD_LAYOUT
350
1A
  3
ACAD_MATERIAL
350
65D
  3
ACAD_MLEADERSTYLE
350
69F
  3
ACAD_MLINESTYLE
350
17
  3
ACAD_PLOTSETTINGS
350
19
  3
ACAD_PLOTSTYLENAME
350
E
  3
ACAD_SCALELIST
350
68D
  3
ACAD_TABLESTYLE
350
68B
  3
ACAD_VISUALSTYLE
350
676
  3
ACDB_RECOMPOSE_DATA
350
6B9
  3
AcDbVariableDictionary
350
518
  3
ASE_INDEX_DICTIONARY
350
514
  3
DWGPROPS
350
6BA
  0
DICTIONARY
  5
6A5
330
10
100
AcDbDictionary
280
     1
281
     1
  3
ADSK_XREC_LAYER_RECONCILED
360
6A6
  0
DICTIONARY
  5
6A7
330
102
100
AcDbDictionary
280
     1
281
     1
  3
ADSK_XREC_LAYER_RECONCILED
360
6A8
  0
DICTIONARY
  5
6A9
330
103
100
AcDbDictionary
280
     1
281
     1
  3
ADSK_XREC_LAYER_RECONCILED
360
6AA
  0
DICTIONARY
  5
6AB
330
104
100
AcDbDictionary
280
     1
281
     1
  3
ADSK_XREC_LAYER_RECONCILED
360
6AC
  0
DICTIONARY
  5
6AD
330
105
100
AcDbDictionary
280
     1
281
     1
  3
ADSK_XREC_LAYER_RECONCILED
360
6AE
  0
DICTIONARY
  5
6AF
330
107
100
AcDbDictionary
280
     1
281
     1
  3
ADSK_XREC_LAYER_RECONCILED
360
6B0
  0
DICTIONARY
  5
68A
102
{ACAD_REACTORS
330
C
102
}
330
C
100
AcDbDictionary
281
     1
  0
DICTIONARY
  5
D
102
{ACAD_REACTORS
330
C
102
}
330
C
100
AcDbDictionary
281
     1
  0
DICTIONARY
  5
1A
102
{ACAD_REACTORS
330
C
102
}
330
C
100
AcDbDictionary
281
     1
  3
Layout1
350
1E
  3
Layout2
350
26
  3
Model
350
22
  0
DICTIONARY
  5
65D
102
{ACAD_REACTORS
330
C
102
}
330
C
100
AcDbDictionary
281
     1
  3
ByBlock
350
666
  3
ByLayer
350
65E
  3
Global
350
66E
  0
DICTIONARY
  5
69F
102
{ACAD_REACTORS
330
C
102
}
330
C
100
AcDbDictionary
281
     1
  3
Standard
350
6A0
  0
DICTIONARY
  5
17
102
{ACAD_REACTORS
330
C
102
}
330
C
100
AcDbDictionary
281
     1
  3
Standard
350
18
  0
DICTIONARY
  5
19
102
{ACAD_REACTORS
330
C
102
}
330
C
100
AcDbDictionary
281
     1
  0
ACDBDICTIONARYWDFLT
  5
E
102
{ACAD_REACTORS
330
C
102
}
330
C
100
AcDbDictionary
281
     1
  3
Normal
350
F
100
AcDbDictionaryWithDefault
340
F
  0
DICTIONARY
  5
68D
102
{ACAD_REACTORS
330
C
102
}
330
C
100
AcDbDictionary
281
     1
  3
A0
350
68E
  3
A1
350
68F
  3
A2
350
690
  3
A3
350
691
  3
A4
350
692
  3
A5
350
693
  3
A6
350
694
  3
A7
350
695
  3
A8
350
696
  3
A9
350
697
  3
B0
350
698
  3
B1
350
699
  3
B2
350
69A
  3
B3
350
69B
  3
B4
350
69C
  3
B5
350
69D
  3
B6
350
69E
  0
DICTIONARY
  5
68B
102
{ACAD_REACTORS
330
C
102
}
330
C
100
AcDbDictionary
281
     1
  3
Standard
350
68C
  0
DICTIONARY
  5
676
102
{ACAD_REACTORS
330
C
102
}
330
C
100
AcDbDictionary
281
     1
  3
2dWireframe
350
67C
  3
3D Hidden
350
67E
  3
3dWireframe
350
67D
  3
Basic
350
67B
  3
Brighten
350
682
  3
ColorChange
350
686
  3
Conceptual
350
67F
  3
Dim
350
681
  3
EdgeColorOff
350
689
  3
Facepattern
350
685
  3
Flat
350
677
  3
FlatWithEdges
350
678
  3
Gouraud
350
679
  3
GouraudWithEdges
350
67A
  3
JitterOff
350
687
  3
Linepattern
350
684
  3
OverhangOff
350
688
  3
Realistic
350
680
  3
Thicken
350
683
  0
XRECORD
  5
6B9
102
{ACAD_REACTORS
330
C
102
}
330
C
100
AcDbXrecord
280
     1
 90
        1
330
68C
  0
DICTIONARY
  5
518
102
{ACAD_REACTORS
330
C
102
}
330
C
100
AcDbDictionary
281
     1
  3
CANNOSCALE
350
6B3
  3
CMLEADERSTYLE
350
6B2
  3
CTABLESTYLE
350
6B1
  3
DIMASSOC
350
51A
  3
HIDETEXT
350
519
  3
INDEXCTL
350
6B5
  3
SORTENTS
350
6B4
  3
XCLIPFRAME
350
6B6
  0
DICTIONARY
  5
514
102
{ACAD_REACTORS
330
C
102
}
330
C
100
AcDbDictionary
281
     1
  3
ASEBlockHierarchyIndexRecord
350
516
1001
DCO15
1040
1488601280.203
  0
XRECORD
  5
6BA
102
{ACAD_REACTORS
330
C
102
}
330
C
100
AcDbXrecord
280
     1
  1
DWGPROPS COOKIE
  2

  3

  4

  6

  7

  8
Julio
  9

300
=
301
=
302
=
303
=
304
=
305
=
306
=
307
=
308
=
309
=
 40
0.0106340393518519
 41
2453032.424529074
 42
2456148.46033022
  1

 90
        0
  0
XRECORD
  5
6A6
102
{ACAD_REACTORS
330
6A5
102
}
330
6A5
100
AcDbXrecord
280
     1
290
     1
  0
XRECORD
  5
6A8
102
{ACAD_REACTORS
330
6A7
102
}
330
6A7
100
AcDbXrecord
280
     1
290
     1
  0
XRECORD
  5
6AA
102
{ACAD_REACTORS
330
6A9
102
}
330
6A9
100
AcDbXrecord
280
     1
290
     1
  0
XRECORD
  5
6AC
102
{ACAD_REACTORS
330
6AB
102
}
330
6AB
100
AcDbXrecord
280
     1
290
     1
  0
XRECORD
  5
6AE
102
{ACAD_REACTORS
330
6AD
102
}
330
6AD
100
AcDbXrecord
280
     1
290
     1
  0
XRECORD
  5
6B0
102
{ACAD_REACTORS
330
6AF
102
}
330
6AF
100
AcDbXrecord
280
     1
290
     1
  0
LAYOUT
  5
1E
102
{ACAD_XDICTIONARY
360
6BB
102
}
102
{ACAD_REACTORS
330
1A
102
}
330
1A
100
AcDbPlotSettings
  1

  2
PLOTER 500
  4

  6

 40
0.0
 41
0.0
 42
0.0
 43
0.0
 44
0.0
 45
0.0
 46
0.0
 47
0.0
 48
0.0
 49
0.0
140
0.0
141
0.0
142
1.0
143
1.0
 70
   688
 72
     0
 73
     0
 74
     5
  7
C:\Program Files\Autodesk\MDT6\Plot Styles\Sanindusa.ctb
 75
    16
147
1.0
148
0.0
149
0.0
100
AcDbLayout
  1
Layout1
 70
     1
 71
     1
 10
0.0
 20
0.0
 11
420.0
 21
297.0
 12
0.0
 22
0.0
 32
0.0
 14
1.000000000000000E+20
 24
1.000000000000000E+20
 34
1.000000000000000E+20
 15
-1.000000000000000E+20
 25
-1.000000000000000E+20
 35
-1.000000000000000E+20
146
0.0
 13
0.0
 23
0.0
 33
0.0
 16
1.0
 26
0.0
 36
0.0
 17
0.0
 27
1.0
 37
0.0
 76
     0
330
1B
  0
LAYOUT
  5
26
102
{ACAD_XDICTIONARY
360
6BF
102
}
102
{ACAD_REACTORS
330
1A
102
}
330
1A
100
AcDbPlotSettings
  1

  2
PLOTER 500
  4

  6

 40
0.0
 41
0.0
 42
0.0
 43
0.0
 44
0.0
 45
0.0
 46
0.0
 47
0.0
 48
0.0
 49
0.0
140
0.0
141
0.0
142
1.0
143
1.0
 70
   688
 72
     0
 73
     0
 74
     5
  7
C:\Program Files\Autodesk\MDT6\Plot Styles\Sanindusa.ctb
 75
    16
147
1.0
148
0.0
149
0.0
100
AcDbLayout
  1
Layout2
 70
     1
 71
     2
 10
0.0
 20
0.0
 11
12.0
 21
9.0
 12
0.0
 22
0.0
 32
0.0
 14
0.0
 24
0.0
 34
0.0
 15
0.0
 25
0.0
 35
0.0
146
0.0
 13
0.0
 23
0.0
 33
0.0
 16
1.0
 26
0.0
 36
0.0
 17
0.0
 27
1.0
 37
0.0
 76
     0
330
23
  0
LAYOUT
  5
22
102
{ACAD_XDICTIONARY
360
6BD
102
}
102
{ACAD_REACTORS
330
1A
102
}
330
1A
100
AcDbPlotSettings
  1

  2
PLOTER 500
  4

  6

 40
0.0
 41
0.0
 42
0.0
 43
0.0
 44
0.0
 45
0.0
 46
0.0
 47
0.0
 48
0.0
 49
0.0
140
0.0
141
0.0
142
1.0
143
1.0
 70
  1712
 72
     0
 73
     0
 74
     0
  7
C:\Program Files\Autodesk\MDT6\Plot Styles\Sanindusa.ctb
 75
     0
147
1.0
148
0.0
149
0.0
100
AcDbLayout
  1
Model
 70
     1
 71
     0
 10
0.0
 20
0.0
 11
12.0
 21
9.0
 12
0.0
 22
0.0
 32
0.0
 14
0.0
 24
0.0
 34
0.0
 15
0.0
 25
0.0
 35
0.0
146
0.0
 13
0.0
 23
0.0
 33
0.0
 16
1.0
 26
0.0
 36
0.0
 17
0.0
 27
1.0
 37
0.0
 76
     0
330
1F
331
65B
  0
MATERIAL
  5
666
102
{ACAD_XDICTIONARY
360
667
102
}
102
{ACAD_REACTORS
330
65D
102
}
330
65D
100
AcDbMaterial
  1
ByBlock
 72
     0
 43
0.0008202099737533
 43
0.0
 43
0.0
 43
0.0
 43
0.0
 43
0.0008202099737533
 43
0.0
 43
0.0
 43
0.0
 43
0.0
 43
1.0
 43
0.0
 43
0.0
 43
0.0
 43
0.0
 43
1.0
 77
     0
 47
0.0008202099737533
 47
0.0
 47
0.0
 47
0.0
 47
0.0
 47
0.0008202099737533
 47
0.0
 47
0.0
 47
0.0
 47
0.0
 47
1.0
 47
0.0
 47
0.0
 47
0.0
 47
0.0
 47
1.0
171
     0
 49
0.0008202099737533
 49
0.0
 49
0.0
 49
0.0
 49
0.0
 49
0.0008202099737533
 49
0.0
 49
0.0
 49
0.0
 49
0.0
 49
1.0
 49
0.0
 49
0.0
 49
0.0
 49
0.0
 49
1.0
175
     0
142
0.0008202099737533
142
0.0
142
0.0
142
0.0
142
0.0
142
0.0008202099737533
142
0.0
142
0.0
142
0.0
142
0.0
142
1.0
142
0.0
142
0.0
142
0.0
142
0.0
142
1.0
179
     0
144
0.0008202099737533
144
0.0
144
0.0
144
0.0
144
0.0
144
0.0008202099737533
144
0.0
144
0.0
144
0.0
144
0.0
144
1.0
144
0.0
144
0.0
144
0.0
144
0.0
144
1.0
147
0.0008202099737533
147
0.0
147
0.0
147
0.0
147
0.0
147
0.0008202099737533
147
0.0
147
0.0
147
0.0
147
0.0
147
1.0
147
0.0
147
0.0
147
0.0
147
0.0
147
1.0
  0
MATERIAL
  5
65E
102
{ACAD_XDICTIONARY
360
65F
102
}
102
{ACAD_REACTORS
330
65D
102
}
330
65D
100
AcDbMaterial
  1
ByLayer
 72
     0
 43
0.0008202099737533
 43
0.0
 43
0.0
 43
0.0
 43
0.0
 43
0.0008202099737533
 43
0.0
 43
0.0
 43
0.0
 43
0.0
 43
1.0
 43
0.0
 43
0.0
 43
0.0
 43
0.0
 43
1.0
 77
     0
 47
0.0008202099737533
 47
0.0
 47
0.0
 47
0.0
 47
0.0
 47
0.0008202099737533
 47
0.0
 47
0.0
 47
0.0
 47
0.0
 47
1.0
 47
0.0
 47
0.0
 47
0.0
 47
0.0
 47
1.0
171
     0
 49
0.0008202099737533
 49
0.0
 49
0.0
 49
0.0
 49
0.0
 49
0.0008202099737533
 49
0.0
 49
0.0
 49
0.0
 49
0.0
 49
1.0
 49
0.0
 49
0.0
 49
0.0
 49
0.0
 49
1.0
175
     0
142
0.0008202099737533
142
0.0
142
0.0
142
0.0
142
0.0
142
0.0008202099737533
142
0.0
142
0.0
142
0.0
142
0.0
142
1.0
142
0.0
142
0.0
142
0.0
142
0.0
142
1.0
179
     0
144
0.0008202099737533
144
0.0
144
0.0
144
0.0
144
0.0
144
0.0008202099737533
144
0.0
144
0.0
144
0.0
144
0.0
144
1.0
144
0.0
144
0.0
144
0.0
144
0.0
144
1.0
147
0.0008202099737533
147
0.0
147
0.0
147
0.0
147
0.0
147
0.0008202099737533
147
0.0
147
0.0
147
0.0
147
0.0
147
1.0
147
0.0
147
0.0
147
0.0
147
0.0
147
1.0
  0
MATERIAL
  5
66E
102
{ACAD_XDICTIONARY
360
66F
102
}
102
{ACAD_REACTORS
330
65D
102
}
330
65D
100
AcDbMaterial
  1
Global
 72
     0
 43
0.0008202099737533
 43
0.0
 43
0.0
 43
0.0
 43
0.0
 43
0.0008202099737533
 43
0.0
 43
0.0
 43
0.0
 43
0.0
 43
1.0
 43
0.0
 43
0.0
 43
0.0
 43
0.0
 43
1.0
 77
     0
 47
0.0008202099737533
 47
0.0
 47
0.0
 47
0.0
 47
0.0
 47
0.0008202099737533
 47
0.0
 47
0.0
 47
0.0
 47
0.0
 47
1.0
 47
0.0
 47
0.0
 47
0.0
 47
0.0
 47
1.0
171
     0
 49
0.0008202099737533
 49
0.0
 49
0.0
 49
0.0
 49
0.0
 49
0.0008202099737533
 49
0.0
 49
0.0
 49
0.0
 49
0.0
 49
1.0
 49
0.0
 49
0.0
 49
0.0
 49
0.0
 49
1.0
175
     0
142
0.0008202099737533
142
0.0
142
0.0
142
0.0
142
0.0
142
0.0008202099737533
142
0.0
142
0.0
142
0.0
142
0.0
142
1.0
142
0.0
142
0.0
142
0.0
142
0.0
142
1.0
179
     0
144
0.0008202099737533
144
0.0
144
0.0
144
0.0
144
0.0
144
0.0008202099737533
144
0.0
144
0.0
144
0.0
144
0.0
144
1.0
144
0.0
144
0.0
144
0.0
144
0.0
144
1.0
147
0.0008202099737533
147
0.0
147
0.0
147
0.0
147
0.0
147
0.0008202099737533
147
0.0
147
0.0
147
0.0
147
0.0
147
1.0
147
0.0
147
0.0
147
0.0
147
0.0
147
1.0
  0
MLEADERSTYLE
  5
6A0
102
{ACAD_REACTORS
330
69F
102
}
330
69F
100
AcDbMLeaderStyle
170
     2
171
     1
172
     0
 90
        2
 40
0.0
 41
0.0
173
     1
 91
-1056964608
340
14
 92
       -2
290
     1
 42
2.0
291
     1
 43
0.36
  3
Standard
 44
4.0
300

342
11
174
     1
178
     6
175
     1
176
     0
 93
-1056964608
 45
4.0
292
     0
297
     0
 46
4.0
 94
-1056964608
 47
1.0
 49
1.0
140
1.0
293
     1
141
0.0
294
     1
177
     0
142
1.0
295
     0
296
     0
143
0.125
1001
ACAD_MLEADERVER
1070
     2
  0
MLINESTYLE
  5
18
102
{ACAD_REACTORS
330
17
102
}
330
17
100
AcDbMlineStyle
  2
STANDARD
 70
     0
  3

 62
   256
 51
90.0
 52
90.0
 71
     2
 49
0.5
 62
   256
  6
BYLAYER
 49
-0.5
 62
   256
  6
BYLAYER
  0
ACDBPLACEHOLDER
  5
F
102
{ACAD_REACTORS
330
E
102
}
330
E
  0
SCALE
  5
68E
102
{ACAD_REACTORS
330
68D
102
}
330
68D
100
AcDbScale
 70
     0
300
1:1
140
1.0
141
1.0
290
     1
  0
SCALE
  5
68F
102
{ACAD_REACTORS
330
68D
102
}
330
68D
100
AcDbScale
 70
     0
300
1:2
140
1.0
141
2.0
290
     0
  0
SCALE
  5
690
102
{ACAD_REACTORS
330
68D
102
}
330
68D
100
AcDbScale
 70
     0
300
1:4
140
1.0
141
4.0
290
     0
  0
SCALE
  5
691
102
{ACAD_REACTORS
330
68D
102
}
330
68D
100
AcDbScale
 70
     0
300
1:5
140
1.0
141
5.0
290
     0
  0
SCALE
  5
692
102
{ACAD_REACTORS
330
68D
102
}
330
68D
100
AcDbScale
 70
     0
300
1:8
140
1.0
141
8.0
290
     0
  0
SCALE
  5
693
102
{ACAD_REACTORS
330
68D
102
}
330
68D
100
AcDbScale
 70
     0
300
1:10
140
1.0
141
10.0
290
     0
  0
SCALE
  5
694
102
{ACAD_REACTORS
330
68D
102
}
330
68D
100
AcDbScale
 70
     0
300
1:16
140
1.0
141
16.0
290
     0
  0
SCALE
  5
695
102
{ACAD_REACTORS
330
68D
102
}
330
68D
100
AcDbScale
 70
     0
300
1:20
140
1.0
141
20.0
290
     0
  0
SCALE
  5
696
102
{ACAD_REACTORS
330
68D
102
}
330
68D
100
AcDbScale
 70
     0
300
1:30
140
1.0
141
30.0
290
     0
  0
SCALE
  5
697
102
{ACAD_REACTORS
330
68D
102
}
330
68D
100
AcDbScale
 70
     0
300
1:40
140
1.0
141
40.0
290
     0
  0
SCALE
  5
698
102
{ACAD_REACTORS
330
68D
102
}
330
68D
100
AcDbScale
 70
     0
300
1:50
140
1.0
141
50.0
290
     0
  0
SCALE
  5
699
102
{ACAD_REACTORS
330
68D
102
}
330
68D
100
AcDbScale
 70
     0
300
1:100
140
1.0
141
100.0
290
     0
  0
SCALE
  5
69A
102
{ACAD_REACTORS
330
68D
102
}
330
68D
100
AcDbScale
 70
     0
300
2:1
140
2.0
141
1.0
290
     0
  0
SCALE
  5
69B
102
{ACAD_REACTORS
330
68D
102
}
330
68D
100
AcDbScale
 70
     0
300
4:1
140
4.0
141
1.0
290
     0
  0
SCALE
  5
69C
102
{ACAD_REACTORS
330
68D
102
}
330
68D
100
AcDbScale
 70
     0
300
8:1
140
8.0
141
1.0
290
     0
  0
SCALE
  5
69D
102
{ACAD_REACTORS
330
68D
102
}
330
68D
100
AcDbScale
 70
     0
300
10:1
140
10.0
141
1.0
290
     0
  0
SCALE
  5
69E
102
{ACAD_REACTORS
330
68D
102
}
330
68D
100
AcDbScale
 70
     0
300
100:1
140
100.0
141
1.0
290
     0
  0
TABLESTYLE
  5
68C
102
{ACAD_XDICTIONARY
360
6B7
102
}
102
{ACAD_REACTORS
330
68B
102
}
330
68B
100
AcDbTableStyle
  3
Standard
 70
     0
 71
     0
 40
1.5
 41
1.5
280
     0
281
     0
  7
Standard
140
4.5
170
     2
 62
     0
 63
     7
283
     0
274
    -2
284
     1
 64
     0
275
    -2
285
     1
 65
     0
276
    -2
286
     1
 66
     0
277
    -2
287
     1
 67
     0
278
    -2
288
     1
 68
     0
279
    -2
289
     1
 69
     0
  7
Standard
140
6.0
170
     5
 62
     0
 63
     7
283
     0
274
    -2
284
     1
 64
     0
275
    -2
285
     1
 65
     0
276
    -2
286
     1
 66
     0
277
    -2
287
     1
 67
     0
278
    -2
288
     1
 68
     0
279
    -2
289
     1
 69
     0
  7
Standard
140
4.5
170
     5
 62
     0
 63
     7
283
     0
274
    -2
284
     1
 64
     0
275
    -2
285
     1
 65
     0
276
    -2
286
     1
 66
     0
277
    -2
287
     1
 67
     0
278
    -2
288
     1
 68
     0
279
    -2
289
     1
 69
     0
  0
VISUALSTYLE
  5
67C
102
{ACAD_XDICTIONARY
360
6D2
102
}
102
{ACAD_REACTORS
330
676
102
}
330
676
100
AcDbVisualStyle
  2
2dWireframe
 70
     4
 71
     0
 72
     2
 73
     0
 90
        0
 40
-0.6
 41
-30.0
 62
     5
 63
     7
 74
     1
 91
        4
 64
     7
 65
   257
 75
     1
175
     1
 42
1.0
 92
        0
 66
   257
 43
1.0
 76
     1
 77
     6
 78
     2
 67
     7
 79
     5
170
     0
171
     0
290
     0
174
     0
 93
        1
 44
0.0
173
     0
291
     0
 45
0.0
1001
ACAD
1000
AcDbSavedByObjectVersion
1070
     0
  0
VISUALSTYLE
  5
67E
102
{ACAD_XDICTIONARY
360
6D6
102
}
102
{ACAD_REACTORS
330
676
102
}
330
676
100
AcDbVisualStyle
  2
3D Hidden
 70
     6
 71
     1
 72
     2
 73
     2
 90
        0
 40
-0.6
 41
-30.0
 62
     5
 63
     7
 74
     2
 91
        2
 64
     7
 65
   257
 75
     2
175
     1
 42
179.0
 92
        0
 66
   257
 43
1.0
 76
     1
 77
     6
 78
     2
 67
     7
 79
     3
170
     0
171
     0
290
     0
174
     0
 93
        1
 44
0.0
173
     0
291
     0
 45
0.0
1001
ACAD
1000
AcDbSavedByObjectVersion
1070
     0
  0
VISUALSTYLE
  5
67D
102
{ACAD_XDICTIONARY
360
6D4
102
}
102
{ACAD_REACTORS
330
676
102
}
330
676
100
AcDbVisualStyle
  2
3dWireframe
 70
     5
 71
     0
 72
     2
 73
     0
 90
        0
 40
-0.6
 41
-30.0
 62
     5
 63
     7
 74
     1
 91
        4
 64
     7
 65
   257
 75
     1
175
     1
 42
1.0
 92
        0
 66
   257
 43
1.0
 76
     1
 77
     6
 78
     2
 67
     7
 79
     5
170
     0
171
     0
290
     0
174
     0
 93
        1
 44
0.0
173
     0
291
     0
 45
0.0
1001
ACAD
1000
AcDbSavedByObjectVersion
1070
     0
  0
VISUALSTYLE
  5
67B
102
{ACAD_XDICTIONARY
360
6D0
102
}
102
{ACAD_REACTORS
330
676
102
}
330
676
100
AcDbVisualStyle
  2
Basic
 70
     7
 71
     1
 72
     0
 73
     1
 90
        0
 40
-0.6
 41
-30.0
 62
     5
 63
     7
 74
     0
 91
        4
 64
     7
 65
   257
 75
     1
175
     1
 42
1.0
 92
        8
 66
     7
 43
1.0
 76
     1
 77
     6
 78
     2
 67
     7
 79
     5
170
     0
171
     0
290
     0
174
     0
 93
        1
 44
0.0
173
     0
291
     1
 45
0.0
1001
ACAD
1000
AcDbSavedByObjectVersion
1070
     0
  0
VISUALSTYLE
  5
682
102
{ACAD_XDICTIONARY
360
6DE
102
}
102
{ACAD_REACTORS
330
676
102
}
330
676
100
AcDbVisualStyle
  2
Brighten
 70
    12
 71
     2
 72
     2
 73
     0
 90
        0
 40
-0.6
 41
-30.0
 62
     5
 63
     7
 74
     1
 91
        4
 64
     7
 65
   257
 75
     1
175
     1
 42
1.0
 92
        8
 66
     7
 43
1.0
 76
     1
 77
     6
 78
     2
 67
     7
 79
     5
170
     0
171
     0
290
     0
174
     0
 93
        1
 44
50.0
173
     0
291
     1
 45
0.0
1001
ACAD
1000
AcDbSavedByObjectVersion
1070
     0
  0
VISUALSTYLE
  5
686
102
{ACAD_XDICTIONARY
360
6E6
102
}
102
{ACAD_REACTORS
330
676
102
}
330
676
100
AcDbVisualStyle
  2
ColorChange
 70
    16
 71
     2
 72
     2
 73
     3
 90
        0
 40
-0.6
 41
-30.0
 62
     5
 63
     8
 74
     1
 91
        4
 64
     7
 65
   257
 75
     1
175
     1
 42
1.0
 92
        8
 66
     8
 43
1.0
 76
     1
 77
     6
 78
     2
 67
     7
 79
     5
170
     0
171
     0
290
     0
174
     0
 93
        1
 44
0.0
173
     0
291
     1
 45
0.0
1001
ACAD
1000
AcDbSavedByObjectVersion
1070
     0
  0
VISUALSTYLE
  5
67F
102
{ACAD_XDICTIONARY
360
6D8
102
}
102
{ACAD_REACTORS
330
676
102
}
330
676
100
AcDbVisualStyle
  2
Conceptual
 70
     9
 71
     3
 72
     2
 73
     0
 90
        0
 40
-0.6
 41
-30.0
 62
     5
 63
     7
 74
     2
 91
        2
 64
     7
 65
   257
 75
     1
175
     1
 42
179.0
 92
        8
 66
     7
 43
1.0
 76
     1
 77
     6
 78
     2
 67
     7
 79
     3
170
     0
171
     0
290
     0
174
     0
 93
        1
 44
0.0
173
     0
291
     0
 45
0.0
1001
ACAD
1000
AcDbSavedByObjectVersion
1070
     0
  0
VISUALSTYLE
  5
681
102
{ACAD_XDICTIONARY
360
6DC
102
}
102
{ACAD_REACTORS
330
676
102
}
330
676
100
AcDbVisualStyle
  2
Dim
 70
    11
 71
     2
 72
     2
 73
     0
 90
        0
 40
-0.6
 41
-30.0
 62
     5
 63
     7
 74
     1
 91
        4
 64
     7
 65
   257
 75
     1
175
     1
 42
1.0
 92
        8
 66
     7
 43
1.0
 76
     1
 77
     6
 78
     2
 67
     7
 79
     5
170
     0
171
     0
290
     0
174
     0
 93
        1
 44
-50.0
173
     0
291
     1
 45
0.0
1001
ACAD
1000
AcDbSavedByObjectVersion
1070
     0
  0
VISUALSTYLE
  5
689
102
{ACAD_XDICTIONARY
360
6EC
102
}
102
{ACAD_REACTORS
330
676
102
}
330
676
100
AcDbVisualStyle
  2
EdgeColorOff
 70
    22
 71
     2
 72
     2
 73
     0
 90
        0
 40
-0.6
 41
-30.0
 62
     5
 63
     7
 74
     1
 91
        4
 64
     7
 65
   257
 75
     1
175
     1
 42
1.0
 92
        8
 66
     7
 43
1.0
 76
     1
 77
     6
 78
     2
 67
     7
 79
     5
170
     0
171
     0
290
     0
174
     0
 93
        1
 44
0.0
173
     0
291
     1
 45
0.0
1001
ACAD
1000
AcDbSavedByObjectVersion
1070
     0
  0
VISUALSTYLE
  5
685
102
{ACAD_XDICTIONARY
360
6E4
102
}
102
{ACAD_REACTORS
330
676
102
}
330
676
100
AcDbVisualStyle
  2
Facepattern
 70
    15
 71
     2
 72
     2
 73
     0
 90
        0
 40
-0.6
 41
-30.0
 62
     5
 63
     7
 74
     1
 91
        4
 64
     7
 65
   257
 75
     1
175
     1
 42
1.0
 92
        8
 66
     7
 43
1.0
 76
     1
 77
     6
 78
     2
 67
     7
 79
     5
170
     0
171
     0
290
     0
174
     0
 93
        1
 44
0.0
173
     0
291
     1
 45
0.0
1001
ACAD
1000
AcDbSavedByObjectVersion
1070
     0
  0
VISUALSTYLE
  5
677
102
{ACAD_XDICTIONARY
360
6C8
102
}
102
{ACAD_REACTORS
330
676
102
}
330
676
100
AcDbVisualStyle
  2
Flat
 70
     0
 71
     2
 72
     1
 73
     1
 90
        2
 40
-0.6
 41
30.0
 62
     5
 63
     7
 74
     0
 91
        4
 64
     7
 65
   257
 75
     1
175
     1
 42
1.0
 92
        8
 66
     7
 43
1.0
 76
     1
 77
     6
 78
     2
 67
     7
 79
     5
170
     0
171
     0
290
     0
174
     0
 93
       13
 44
0.0
173
     0
291
     1
 45
0.0
1001
ACAD
1000
AcDbSavedByObjectVersion
1070
     0
  0
VISUALSTYLE
  5
678
102
{ACAD_XDICTIONARY
360
6CA
102
}
102
{ACAD_REACTORS
330
676
102
}
330
676
100
AcDbVisualStyle
  2
FlatWithEdges
 70
     1
 71
     2
 72
     1
 73
     1
 90
        2
 40
-0.6
 41
30.0
 62
     5
 63
     7
 74
     1
 91
        4
 64
     7
 65
   257
 75
     1
175
     1
 42
1.0
 92
        0
 66
   257
 43
1.0
 76
     1
 77
     6
 78
     2
 67
     7
 79
     5
170
     0
171
     0
290
     0
174
     0
 93
       13
 44
0.0
173
     0
291
     1
 45
0.0
1001
ACAD
1000
AcDbSavedByObjectVersion
1070
     0
  0
VISUALSTYLE
  5
679
102
{ACAD_XDICTIONARY
360
6CC
102
}
102
{ACAD_REACTORS
330
676
102
}
330
676
100
AcDbVisualStyle
  2
Gouraud
 70
     2
 71
     2
 72
     2
 73
     1
 90
        2
 40
-0.6
 41
30.0
 62
     5
 63
     7
 74
     0
 91
        4
 64
     7
 65
   257
 75
     1
175
     1
 42
1.0
 92
        0
 66
     7
 43
1.0
 76
     1
 77
     6
 78
     2
 67
     7
 79
     5
170
     0
171
     0
290
     0
174
     0
 93
       13
 44
0.0
173
     0
291
     1
 45
0.0
1001
ACAD
1000
AcDbSavedByObjectVersion
1070
     0
  0
VISUALSTYLE
  5
67A
102
{ACAD_XDICTIONARY
360
6CE
102
}
102
{ACAD_REACTORS
330
676
102
}
330
676
100
AcDbVisualStyle
  2
GouraudWithEdges
 70
     3
 71
     2
 72
     2
 73
     1
 90
        2
 40
-0.6
 41
30.0
 62
     5
 63
     7
 74
     1
 91
        4
 64
     7
 65
   257
 75
     1
175
     1
 42
1.0
 92
        0
 66
   257
 43
1.0
 76
     1
 77
     6
 78
     2
 67
     7
 79
     5
170
     0
171
     0
290
     0
174
     0
 93
       13
 44
0.0
173
     0
291
     1
 45
0.0
1001
ACAD
1000
AcDbSavedByObjectVersion
1070
     0
  0
VISUALSTYLE
  5
687
102
{ACAD_XDICTIONARY
360
6E8
102
}
102
{ACAD_REACTORS
330
676
102
}
330
676
100
AcDbVisualStyle
  2
JitterOff
 70
    20
 71
     2
 72
     2
 73
     0
 90
        0
 40
-0.6
 41
-30.0
 62
     5
 63
     7
 74
     1
 91
        4
 64
     7
 65
   257
 75
     1
175
     1
 42
1.0
 92
       10
 66
     7
 43
1.0
 76
     1
 77
     6
 78
     2
 67
     7
 79
     5
170
     0
171
     0
290
     0
174
     0
 93
        1
 44
0.0
173
     0
291
     1
 45
0.0
1001
ACAD
1000
AcDbSavedByObjectVersion
1070
     0
  0
VISUALSTYLE
  5
684
102
{ACAD_XDICTIONARY
360
6E2
102
}
102
{ACAD_REACTORS
330
676
102
}
330
676
100
AcDbVisualStyle
  2
Linepattern
 70
    14
 71
     2
 72
     2
 73
     0
 90
        0
 40
-0.6
 41
-30.0
 62
     5
 63
     7
 74
     1
 91
        4
 64
     7
 65
   257
 75
     7
175
     7
 42
1.0
 92
        8
 66
     7
 43
1.0
 76
     1
 77
     6
 78
     2
 67
     7
 79
     5
170
     0
171
     0
290
     0
174
     0
 93
        1
 44
0.0
173
     0
291
     1
 45
0.0
1001
ACAD
1000
AcDbSavedByObjectVersion
1070
     0
  0
VISUALSTYLE
  5
688
102
{ACAD_XDICTIONARY
360
6EA
102
}
102
{ACAD_REACTORS
330
676
102
}
330
676
100
AcDbVisualStyle
  2
OverhangOff
 70
    21
 71
     2
 72
     2
 73
     0
 90
        0
 40
-0.6
 41
-30.0
 62
     5
 63
     7
 74
     1
 91
        4
 64
     7
 65
   257
 75
     1
175
     1
 42
1.0
 92
        9
 66
     7
 43
1.0
 76
     1
 77
     6
 78
     2
 67
     7
 79
     5
170
     0
171
     0
290
     0
174
     0
 93
        1
 44
0.0
173
     0
291
     1
 45
0.0
1001
ACAD
1000
AcDbSavedByObjectVersion
1070
     0
  0
VISUALSTYLE
  5
680
102
{ACAD_XDICTIONARY
360
6DA
102
}
102
{ACAD_REACTORS
330
676
102
}
330
676
100
AcDbVisualStyle
  2
Realistic
 70
     8
 71
     2
 72
     2
 73
     0
 90
        0
 40
-0.6
 41
-30.0
 62
     5
 63
     7
 74
     1
 91
        0
 64
     7
 65
   257
 75
     1
175
     1
 42
1.0
 92
        8
 66
     8
 43
1.0
 76
     1
 77
     6
 78
     2
 67
     7
 79
     5
170
     0
171
     0
290
     0
174
     0
 93
       13
 44
0.0
173
     0
291
     0
 45
0.0
1001
ACAD
1000
AcDbSavedByObjectVersion
1070
     0
  0
VISUALSTYLE
  5
683
102
{ACAD_XDICTIONARY
360
6E0
102
}
102
{ACAD_REACTORS
330
676
102
}
330
676
100
AcDbVisualStyle
  2
Thicken
 70
    13
 71
     2
 72
     2
 73
     0
 90
        0
 40
-0.6
 41
-30.0
 62
     5
 63
     7
 74
     1
 91
        4
 64
     7
 65
   257
 75
     1
175
     1
 42
1.0
 92
       12
 66
     7
 43
1.0
 76
     1
 77
     6
 78
     2
 67
     7
 79
     5
170
     0
171
     0
290
     0
174
     0
 93
        1
 44
0.0
173
     0
291
     1
 45
0.0
1001
ACAD
1000
AcDbSavedByObjectVersion
1070
     0
  0
DICTIONARYVAR
  5
6B3
102
{ACAD_REACTORS
330
518
102
}
330
518
100
DictionaryVariables
280
     0
  1
1:1
  0
DICTIONARYVAR
  5
6B2
102
{ACAD_REACTORS
330
518
102
}
330
518
100
DictionaryVariables
280
     0
  1
STANDARD
  0
DICTIONARYVAR
  5
6B1
102
{ACAD_REACTORS
330
518
102
}
330
518
100
DictionaryVariables
280
     0
  1
STANDARD
  0
DICTIONARYVAR
  5
51A
102
{ACAD_REACTORS
330
518
102
}
330
518
100
DictionaryVariables
280
     0
  1
2
  0
DICTIONARYVAR
  5
519
102
{ACAD_REACTORS
330
518
102
}
330
518
100
DictionaryVariables
280
     0
  1
1
  0
DICTIONARYVAR
  5
6B5
102
{ACAD_REACTORS
330
518
102
}
330
518
100
DictionaryVariables
280
     0
  1
0
  0
DICTIONARYVAR
  5
6B4
102
{ACAD_REACTORS
330
518
102
}
330
518
100
DictionaryVariables
280
     0
  1
127
  0
DICTIONARYVAR
  5
6B6
102
{ACAD_REACTORS
330
518
102
}
330
518
100
DictionaryVariables
280
     0
  1
2
  0
XRECORD
  5
516
102
{ACAD_REACTORS
330
514
102
}
330
514
100
AcDbXrecord
280
     1
  0
DICTIONARY
  5
6BB
330
1E
100
AcDbDictionary
280
     1
281
     1
  3
ACAD_XREC_ROUNDTRIP
360
6BC
  0
DICTIONARY
  5
6BF
330
26
100
AcDbDictionary
280
     1
281
     1
  3
ACAD_XREC_ROUNDTRIP
360
6C0
  0
DICTIONARY
  5
6BD
330
22
100
AcDbDictionary
280
     1
281
     1
  3
ACAD_XREC_ROUNDTRIP
360
6BE
  0
DICTIONARY
  5
667
330
666
100
AcDbDictionary
280
     1
281
     1
  3
ACAD_XREC_ROUNDTRIP
360
6C6
  3
BUMPTILE
360
669
  3
DIFFUSETILE
360
668
  3
OPACITYTILE
360
66C
  3
REFLECTIONTILE
360
66B
  3
REFRACTIONTILE
360
66D
  3
SPECULARTILE
360
66A
  0
DICTIONARY
  5
65F
330
65E
100
AcDbDictionary
280
     1
281
     1
  3
ACAD_XREC_ROUNDTRIP
360
6C5
  3
BUMPTILE
360
661
  3
DIFFUSETILE
360
660
  3
OPACITYTILE
360
664
  3
REFLECTIONTILE
360
663
  3
REFRACTIONTILE
360
665
  3
SPECULARTILE
360
662
  0
DICTIONARY
  5
66F
330
66E
100
AcDbDictionary
280
     1
281
     1
  3
ACAD_XREC_ROUNDTRIP
360
6C7
  3
BUMPTILE
360
671
  3
DIFFUSETILE
360
670
  3
OPACITYTILE
360
674
  3
REFLECTIONTILE
360
673
  3
REFRACTIONTILE
360
675
  3
SPECULARTILE
360
672
  0
DICTIONARY
  5
6B7
330
68C
100
AcDbDictionary
280
     1
281
     1
  3
ACAD_ROUNDTRIP_2008_TABLESTYLE_CELLSTYLEMAP
360
6B8
  3
ACAD_XREC_ROUNDTRIP
360
6EE
  0
DICTIONARY
  5
6D2
330
67C
100
AcDbDictionary
280
     1
281
     1
  3
ACAD_XREC_ROUNDTRIP
360
6D3
  0
DICTIONARY
  5
6D6
330
67E
100
AcDbDictionary
280
     1
281
     1
  3
ACAD_XREC_ROUNDTRIP
360
6D7
  0
DICTIONARY
  5
6D4
330
67D
100
AcDbDictionary
280
     1
281
     1
  3
ACAD_XREC_ROUNDTRIP
360
6D5
  0
DICTIONARY
  5
6D0
330
67B
100
AcDbDictionary
280
     1
281
     1
  3
ACAD_XREC_ROUNDTRIP
360
6D1
  0
DICTIONARY
  5
6DE
330
682
100
AcDbDictionary
280
     1
281
     1
  3
ACAD_XREC_ROUNDTRIP
360
6DF
  0
DICTIONARY
  5
6E6
330
686
100
AcDbDictionary
280
     1
281
     1
  3
ACAD_XREC_ROUNDTRIP
360
6E7
  0
DICTIONARY
  5
6D8
330
67F
100
AcDbDictionary
280
     1
281
     1
  3
ACAD_XREC_ROUNDTRIP
360
6D9
  0
DICTIONARY
  5
6DC
330
681
100
AcDbDictionary
280
     1
281
     1
  3
ACAD_XREC_ROUNDTRIP
360
6DD
  0
DICTIONARY
  5
6EC
330
689
100
AcDbDictionary
280
     1
281
     1
  3
ACAD_XREC_ROUNDTRIP
360
6ED
  0
DICTIONARY
  5
6E4
330
685
100
AcDbDictionary
280
     1
281
     1
  3
ACAD_XREC_ROUNDTRIP
360
6E5
  0
DICTIONARY
  5
6C8
330
677
100
AcDbDictionary
280
     1
281
     1
  3
ACAD_XREC_ROUNDTRIP
360
6C9
  0
DICTIONARY
  5
6CA
330
678
100
AcDbDictionary
280
     1
281
     1
  3
ACAD_XREC_ROUNDTRIP
360
6CB
  0
DICTIONARY
  5
6CC
330
679
100
AcDbDictionary
280
     1
281
     1
  3
ACAD_XREC_ROUNDTRIP
360
6CD
  0
DICTIONARY
  5
6CE
330
67A
100
AcDbDictionary
280
     1
281
     1
  3
ACAD_XREC_ROUNDTRIP
360
6CF
  0
DICTIONARY
  5
6E8
330
687
100
AcDbDictionary
280
     1
281
     1
  3
ACAD_XREC_ROUNDTRIP
360
6E9
  0
DICTIONARY
  5
6E2
330
684
100
AcDbDictionary
280
     1
281
     1
  3
ACAD_XREC_ROUNDTRIP
360
6E3
  0
DICTIONARY
  5
6EA
330
688
100
AcDbDictionary
280
     1
281
     1
  3
ACAD_XREC_ROUNDTRIP
360
6EB
  0
DICTIONARY
  5
6DA
330
680
100
AcDbDictionary
280
     1
281
     1
  3
ACAD_XREC_ROUNDTRIP
360
6DB
  0
DICTIONARY
  5
6E0
330
683
100
AcDbDictionary
280
     1
281
     1
  3
ACAD_XREC_ROUNDTRIP
360
6E1
  0
XRECORD
  5
6BC
102
{ACAD_REACTORS
330
6BB
102
}
330
6BB
100
AcDbXrecord
280
     1
102
SHADEPLOT
 70
     0
102
SHADEPLOTRESLEVEL
 70
     2
102
SHADEPLOTCUSTOMDPI
 70
   300
  0
XRECORD
  5
6C0
102
{ACAD_REACTORS
330
6BF
102
}
330
6BF
100
AcDbXrecord
280
     1
102
SHADEPLOT
 70
     0
102
SHADEPLOTRESLEVEL
 70
     2
102
SHADEPLOTCUSTOMDPI
 70
   300
  0
XRECORD
  5
6BE
102
{ACAD_REACTORS
330
6BD
102
}
330
6BD
100
AcDbXrecord
280
     1
102
SHADEPLOT
 70
     0
102
SHADEPLOTRESLEVEL
 70
     2
102
SHADEPLOTCUSTOMDPI
 70
   300
  0
XRECORD
  5
6C6
102
{ACAD_REACTORS
330
667
102
}
330
667
100
AcDbXrecord
280
     1
102
MATERIAL
148
0.0
149
0.0
149
0.0
 93
        0
 94
      127
282
     0
 72
     0
 77
     0
171
     0
175
     0
179
     0
273
     0
  0
XRECORD
  5
669
102
{ACAD_REACTORS
330
667
102
}
330
667
100
AcDbXrecord
280
     1
270
     1
271
     1
  0
XRECORD
  5
668
102
{ACAD_REACTORS
330
667
102
}
330
667
100
AcDbXrecord
280
     1
270
     1
271
     1
  0
XRECORD
  5
66C
102
{ACAD_REACTORS
330
667
102
}
330
667
100
AcDbXrecord
280
     1
270
     1
271
     1
  0
XRECORD
  5
66B
102
{ACAD_REACTORS
330
667
102
}
330
667
100
AcDbXrecord
280
     1
270
     1
271
     1
  0
XRECORD
  5
66D
102
{ACAD_REACTORS
330
667
102
}
330
667
100
AcDbXrecord
280
     1
270
     1
271
     1
  0
XRECORD
  5
66A
102
{ACAD_REACTORS
330
667
102
}
330
667
100
AcDbXrecord
280
     1
270
     1
271
     1
  0
XRECORD
  5
6C5
102
{ACAD_REACTORS
330
65F
102
}
330
65F
100
AcDbXrecord
280
     1
102
MATERIAL
148
0.0
149
0.0
149
0.0
 93
        0
 94
      127
282
     0
 72
     0
 77
     0
171
     0
175
     0
179
     0
273
     0
  0
XRECORD
  5
661
102
{ACAD_REACTORS
330
65F
102
}
330
65F
100
AcDbXrecord
280
     1
270
     1
271
     1
  0
XRECORD
  5
660
102
{ACAD_REACTORS
330
65F
102
}
330
65F
100
AcDbXrecord
280
     1
270
     1
271
     1
  0
XRECORD
  5
664
102
{ACAD_REACTORS
330
65F
102
}
330
65F
100
AcDbXrecord
280
     1
270
     1
271
     1
  0
XRECORD
  5
663
102
{ACAD_REACTORS
330
65F
102
}
330
65F
100
AcDbXrecord
280
     1
270
     1
271
     1
  0
XRECORD
  5
665
102
{ACAD_REACTORS
330
65F
102
}
330
65F
100
AcDbXrecord
280
     1
270
     1
271
     1
  0
XRECORD
  5
662
102
{ACAD_REACTORS
330
65F
102
}
330
65F
100
AcDbXrecord
280
     1
270
     1
271
     1
  0
XRECORD
  5
6C7
102
{ACAD_REACTORS
330
66F
102
}
330
66F
100
AcDbXrecord
280
     1
102
MATERIAL
148
0.0
149
0.0
149
0.0
 93
        0
 94
      127
282
     0
 72
     0
 77
     0
171
     0
175
     0
179
     0
273
     0
  0
XRECORD
  5
671
102
{ACAD_REACTORS
330
66F
102
}
330
66F
100
AcDbXrecord
280
     1
270
     1
271
     1
  0
XRECORD
  5
670
102
{ACAD_REACTORS
330
66F
102
}
330
66F
100
AcDbXrecord
280
     1
270
     1
271
     1
  0
XRECORD
  5
674
102
{ACAD_REACTORS
330
66F
102
}
330
66F
100
AcDbXrecord
280
     1
270
     1
271
     1
  0
XRECORD
  5
673
102
{ACAD_REACTORS
330
66F
102
}
330
66F
100
AcDbXrecord
280
     1
270
     1
271
     1
  0
XRECORD
  5
675
102
{ACAD_REACTORS
330
66F
102
}
330
66F
100
AcDbXrecord
280
     1
270
     1
271
     1
  0
XRECORD
  5
672
102
{ACAD_REACTORS
330
66F
102
}
330
66F
100
AcDbXrecord
280
     1
270
     1
271
     1
  0
CELLSTYLEMAP
  5
6B8
102
{ACAD_REACTORS
330
6B7
102
}
330
6B7
100
AcDbCellStyleMap
 90
        3
300
CELLSTYLE
  1
TABLEFORMAT_BEGIN
 90
        5
170
     1
 91
        0
 92
    32768
 62
   257
 93
        1
300
CONTENTFORMAT
  1
CONTENTFORMAT_BEGIN
 90
        0
 91
        0
 92
      512
 93
        0
300

 40
0.0
140
1.0
 94
        5
 62
     0
340
11
144
6.0
309
CONTENTFORMAT_END
171
     1
301
MARGIN
  1
CELLMARGIN_BEGIN
 40
1.5
 40
1.5
 40
1.5
 40
1.5
 40
4.5
 40
4.5
309
CELLMARGIN_END
 94
        6
 95
        1
302
GRIDFORMAT
  1
GRIDFORMAT_BEGIN
 90
        0
 91
        1
 62
     0
 92
       -2
340
0
 93
        0
 40
1.125
309
GRIDFORMAT_END
 95
        2
302
GRIDFORMAT
  1
GRIDFORMAT_BEGIN
 90
        0
 91
        1
 62
     0
 92
       -2
340
0
 93
        0
 40
1.125
309
GRIDFORMAT_END
 95
        4
302
GRIDFORMAT
  1
GRIDFORMAT_BEGIN
 90
        0
 91
        1
 62
     0
 92
       -2
340
0
 93
        0
 40
1.125
309
GRIDFORMAT_END
 95
        8
302
GRIDFORMAT
  1
GRIDFORMAT_BEGIN
 90
        0
 91
        1
 62
     0
 92
       -2
340
0
 93
        0
 40
1.125
309
GRIDFORMAT_END
 95
       16
302
GRIDFORMAT
  1
GRIDFORMAT_BEGIN
 90
        0
 91
        1
 62
     0
 92
       -2
340
0
 93
        0
 40
1.125
309
GRIDFORMAT_END
 95
       32
302
GRIDFORMAT
  1
GRIDFORMAT_BEGIN
 90
        0
 91
        1
 62
     0
 92
       -2
340
0
 93
        0
 40
1.125
309
GRIDFORMAT_END
309
TABLEFORMAT_END
  1
CELLSTYLE_BEGIN
 90
        1
 91
        1
300
_TITLE
309
CELLSTYLE_END
300
CELLSTYLE
  1
TABLEFORMAT_BEGIN
 90
        5
170
     1
 91
        0
 92
        0
 62
   257
 93
        1
300
CONTENTFORMAT
  1
CONTENTFORMAT_BEGIN
 90
        0
 91
        0
 92
      512
 93
        0
300

 40
0.0
140
1.0
 94
        5
 62
     0
340
11
144
4.5
309
CONTENTFORMAT_END
171
     1
301
MARGIN
  1
CELLMARGIN_BEGIN
 40
1.5
 40
1.5
 40
1.5
 40
1.5
 40
4.5
 40
4.5
309
CELLMARGIN_END
 94
        6
 95
        1
302
GRIDFORMAT
  1
GRIDFORMAT_BEGIN
 90
        0
 91
        1
 62
     0
 92
       -2
340
0
 93
        0
 40
1.125
309
GRIDFORMAT_END
 95
        2
302
GRIDFORMAT
  1
GRIDFORMAT_BEGIN
 90
        0
 91
        1
 62
     0
 92
       -2
340
0
 93
        0
 40
1.125
309
GRIDFORMAT_END
 95
        4
302
GRIDFORMAT
  1
GRIDFORMAT_BEGIN
 90
        0
 91
        1
 62
     0
 92
       -2
340
0
 93
        0
 40
1.125
309
GRIDFORMAT_END
 95
        8
302
GRIDFORMAT
  1
GRIDFORMAT_BEGIN
 90
        0
 91
        1
 62
     0
 92
       -2
340
0
 93
        0
 40
1.125
309
GRIDFORMAT_END
 95
       16
302
GRIDFORMAT
  1
GRIDFORMAT_BEGIN
 90
        0
 91
        1
 62
     0
 92
       -2
340
0
 93
        0
 40
1.125
309
GRIDFORMAT_END
 95
       32
302
GRIDFORMAT
  1
GRIDFORMAT_BEGIN
 90
        0
 91
        1
 62
     0
 92
       -2
340
0
 93
        0
 40
1.125
309
GRIDFORMAT_END
309
TABLEFORMAT_END
  1
CELLSTYLE_BEGIN
 90
        2
 91
        1
300
_HEADER
309
CELLSTYLE_END
300
CELLSTYLE
  1
TABLEFORMAT_BEGIN
 90
        5
170
     1
 91
        0
 92
        0
 62
   257
 93
        1
300
CONTENTFORMAT
  1
CONTENTFORMAT_BEGIN
 90
        0
 91
        0
 92
      512
 93
        0
300

 40
0.0
140
1.0
 94
        2
 62
     0
340
11
144
4.5
309
CONTENTFORMAT_END
171
     1
301
MARGIN
  1
CELLMARGIN_BEGIN
 40
1.5
 40
1.5
 40
1.5
 40
1.5
 40
4.5
 40
4.5
309
CELLMARGIN_END
 94
        6
 95
        1
302
GRIDFORMAT
  1
GRIDFORMAT_BEGIN
 90
        0
 91
        1
 62
     0
 92
       -2
340
0
 93
        0
 40
1.125
309
GRIDFORMAT_END
 95
        2
302
GRIDFORMAT
  1
GRIDFORMAT_BEGIN
 90
        0
 91
        1
 62
     0
 92
       -2
340
0
 93
        0
 40
1.125
309
GRIDFORMAT_END
 95
        4
302
GRIDFORMAT
  1
GRIDFORMAT_BEGIN
 90
        0
 91
        1
 62
     0
 92
       -2
340
0
 93
        0
 40
1.125
309
GRIDFORMAT_END
 95
        8
302
GRIDFORMAT
  1
GRIDFORMAT_BEGIN
 90
        0
 91
        1
 62
     0
 92
       -2
340
0
 93
        0
 40
1.125
309
GRIDFORMAT_END
 95
       16
302
GRIDFORMAT
  1
GRIDFORMAT_BEGIN
 90
        0
 91
        1
 62
     0
 92
       -2
340
0
 93
        0
 40
1.125
309
GRIDFORMAT_END
 95
       32
302
GRIDFORMAT
  1
GRIDFORMAT_BEGIN
 90
        0
 91
        1
 62
     0
 92
       -2
340
0
 93
        0
 40
1.125
309
GRIDFORMAT_END
309
TABLEFORMAT_END
  1
CELLSTYLE_BEGIN
 90
        3
 91
        2
300
_DATA
309
CELLSTYLE_END
  0
XRECORD
  5
6EE
102
{ACAD_REACTORS
330
6B7
102
}
330
6B7
100
AcDbXrecord
280
     1
102
ACAD_ROUNDTRIP_PRE2007_TABLESTYLE
 90
      512
 91
        0
  1

 92
      512
 93
        0
  2

 94
      512
 95
        0
  3

  0
XRECORD
  5
6D3
102
{ACAD_REACTORS
330
6D2
102
}
330
6D2
100
AcDbXrecord
280
     1
102
RTVSPropertyOp0
 70
     1
102
RTVSPropertyOp1
 70
     1
102
RTVSPropertyOp2
 70
     1
102
RTVSPropertyOp3
 70
     1
102
RTVSPropertyOp4
 70
     1
102
RTVSPropertyOp5
 70
     1
102
RTVSPropertyOp6
 70
     1
102
RTVSPropertyOp7
 70
     1
102
RTVSPropertyOp8
 70
     1
102
RTVSPropertyOp9
 70
     1
102
RTVSPropertyOp10
 70
     1
102
RTVSPropertyOp11
 70
     1
102
RTVSPropertyOp12
 70
     1
102
RTVSPropertyOp13
 70
     1
102
RTVSPropertyOp14
 70
     1
102
RTVSPropertyOp15
 70
     1
102
RTVSPropertyOp16
 70
     1
102
RTVSPropertyOp17
 70
     1
102
RTVSPropertyOp18
 70
     1
102
RTVSPropertyOp19
 70
     1
102
RTVSPropertyOp20
 70
     1
102
RTVSPropertyOp21
 70
     1
102
RTVSPropertyOp22
 70
     1
102
RTVSPropertyOp23
 70
     1
102
RTVSPropertyOp24
 70
     1
102
RTVSPropertyOp25
 70
     1
102
RTVSPropertyOp26
 70
     1
102
RTVSPropertyOp27
 70
     1
  0
XRECORD
  5
6D7
102
{ACAD_REACTORS
330
6D6
102
}
330
6D6
100
AcDbXrecord
280
     1
102
RTVSPropertyOp0
 70
     1
102
RTVSPropertyOp1
 70
     1
102
RTVSPropertyOp2
 70
     1
102
RTVSPropertyOp3
 70
     1
102
RTVSPropertyOp4
 70
     1
102
RTVSPropertyOp5
 70
     1
102
RTVSPropertyOp6
 70
     1
102
RTVSPropertyOp7
 70
     1
102
RTVSPropertyOp8
 70
     1
102
RTVSPropertyOp9
 70
     1
102
RTVSPropertyOp10
 70
     1
102
RTVSPropertyOp11
 70
     1
102
RTVSPropertyOp12
 70
     1
102
RTVSPropertyOp13
 70
     1
102
RTVSPropertyOp14
 70
     1
102
RTVSPropertyOp15
 70
     1
102
RTVSPropertyOp16
 70
     1
102
RTVSPropertyOp17
 70
     1
102
RTVSPropertyOp18
 70
     1
102
RTVSPropertyOp19
 70
     1
102
RTVSPropertyOp20
 70
     1
102
RTVSPropertyOp21
 70
     1
102
RTVSPropertyOp22
 70
     1
102
RTVSPropertyOp23
 70
     1
102
RTVSPropertyOp24
 70
     1
102
RTVSPropertyOp25
 70
     1
102
RTVSPropertyOp26
 70
     1
102
RTVSPropertyOp27
 70
     1
  0
XRECORD
  5
6D5
102
{ACAD_REACTORS
330
6D4
102
}
330
6D4
100
AcDbXrecord
280
     1
102
RTVSPropertyOp0
 70
     1
102
RTVSPropertyOp1
 70
     1
102
RTVSPropertyOp2
 70
     1
102
RTVSPropertyOp3
 70
     1
102
RTVSPropertyOp4
 70
     1
102
RTVSPropertyOp5
 70
     1
102
RTVSPropertyOp6
 70
     1
102
RTVSPropertyOp7
 70
     1
102
RTVSPropertyOp8
 70
     1
102
RTVSPropertyOp9
 70
     1
102
RTVSPropertyOp10
 70
     1
102
RTVSPropertyOp11
 70
     1
102
RTVSPropertyOp12
 70
     1
102
RTVSPropertyOp13
 70
     1
102
RTVSPropertyOp14
 70
     1
102
RTVSPropertyOp15
 70
     1
102
RTVSPropertyOp16
 70
     1
102
RTVSPropertyOp17
 70
     1
102
RTVSPropertyOp18
 70
     1
102
RTVSPropertyOp19
 70
     1
102
RTVSPropertyOp20
 70
     1
102
RTVSPropertyOp21
 70
     1
102
RTVSPropertyOp22
 70
     1
102
RTVSPropertyOp23
 70
     1
102
RTVSPropertyOp24
 70
     1
102
RTVSPropertyOp25
 70
     1
102
RTVSPropertyOp26
 70
     1
102
RTVSPropertyOp27
 70
     1
  0
XRECORD
  5
6D1
102
{ACAD_REACTORS
330
6D0
102
}
330
6D0
100
AcDbXrecord
280
     1
102
RTVSPropertyOp0
 70
     1
102
RTVSPropertyOp1
 70
     1
102
RTVSPropertyOp2
 70
     1
102
RTVSPropertyOp3
 70
     1
102
RTVSPropertyOp4
 70
     1
102
RTVSPropertyOp5
 70
     1
102
RTVSPropertyOp6
 70
     1
102
RTVSPropertyOp7
 70
     1
102
RTVSPropertyOp8
 70
     1
102
RTVSPropertyOp9
 70
     1
102
RTVSPropertyOp10
 70
     1
102
RTVSPropertyOp11
 70
     1
102
RTVSPropertyOp12
 70
     1
102
RTVSPropertyOp13
 70
     1
102
RTVSPropertyOp14
 70
     1
102
RTVSPropertyOp15
 70
     1
102
RTVSPropertyOp16
 70
     1
102
RTVSPropertyOp17
 70
     1
102
RTVSPropertyOp18
 70
     1
102
RTVSPropertyOp19
 70
     1
102
RTVSPropertyOp20
 70
     1
102
RTVSPropertyOp21
 70
     1
102
RTVSPropertyOp22
 70
     1
102
RTVSPropertyOp23
 70
     1
102
RTVSPropertyOp24
 70
     1
102
RTVSPropertyOp25
 70
     1
102
RTVSPropertyOp26
 70
     1
102
RTVSPropertyOp27
 70
     1
  0
XRECORD
  5
6DF
102
{ACAD_REACTORS
330
6DE
102
}
330
6DE
100
AcDbXrecord
280
     1
102
RTVSPropertyOp0
 70
     1
102
RTVSPropertyOp1
 70
     1
102
RTVSPropertyOp2
 70
     1
102
RTVSPropertyOp3
 70
     1
102
RTVSPropertyOp4
 70
     1
102
RTVSPropertyOp5
 70
     1
102
RTVSPropertyOp6
 70
     1
102
RTVSPropertyOp7
 70
     1
102
RTVSPropertyOp8
 70
     1
102
RTVSPropertyOp9
 70
     1
102
RTVSPropertyOp10
 70
     1
102
RTVSPropertyOp11
 70
     1
102
RTVSPropertyOp12
 70
     1
102
RTVSPropertyOp13
 70
     1
102
RTVSPropertyOp14
 70
     1
102
RTVSPropertyOp15
 70
     1
102
RTVSPropertyOp16
 70
     1
102
RTVSPropertyOp17
 70
     1
102
RTVSPropertyOp18
 70
     1
102
RTVSPropertyOp19
 70
     1
102
RTVSPropertyOp20
 70
     1
102
RTVSPropertyOp21
 70
     1
102
RTVSPropertyOp22
 70
     1
102
RTVSPropertyOp23
 70
     1
102
RTVSPropertyOp24
 70
     1
102
RTVSPropertyOp25
 70
     1
102
RTVSPropertyOp26
 70
     1
102
RTVSPropertyOp27
 70
     1
  0
XRECORD
  5
6E7
102
{ACAD_REACTORS
330
6E6
102
}
330
6E6
100
AcDbXrecord
280
     1
102
RTVSPropertyOp0
 70
     1
102
RTVSPropertyOp1
 70
     1
102
RTVSPropertyOp2
 70
     1
102
RTVSPropertyOp3
 70
     1
102
RTVSPropertyOp4
 70
     1
102
RTVSPropertyOp5
 70
     1
102
RTVSPropertyOp6
 70
     1
102
RTVSPropertyOp7
 70
     1
102
RTVSPropertyOp8
 70
     1
102
RTVSPropertyOp9
 70
     1
102
RTVSPropertyOp10
 70
     1
102
RTVSPropertyOp11
 70
     1
102
RTVSPropertyOp12
 70
     1
102
RTVSPropertyOp13
 70
     1
102
RTVSPropertyOp14
 70
     1
102
RTVSPropertyOp15
 70
     1
102
RTVSPropertyOp16
 70
     1
102
RTVSPropertyOp17
 70
     1
102
RTVSPropertyOp18
 70
     1
102
RTVSPropertyOp19
 70
     1
102
RTVSPropertyOp20
 70
     1
102
RTVSPropertyOp21
 70
     1
102
RTVSPropertyOp22
 70
     1
102
RTVSPropertyOp23
 70
     1
102
RTVSPropertyOp24
 70
     1
102
RTVSPropertyOp25
 70
     1
102
RTVSPropertyOp26
 70
     1
102
RTVSPropertyOp27
 70
     1
  0
XRECORD
  5
6D9
102
{ACAD_REACTORS
330
6D8
102
}
330
6D8
100
AcDbXrecord
280
     1
102
RTVSPropertyOp0
 70
     1
102
RTVSPropertyOp1
 70
     1
102
RTVSPropertyOp2
 70
     1
102
RTVSPropertyOp3
 70
     1
102
RTVSPropertyOp4
 70
     1
102
RTVSPropertyOp5
 70
     1
102
RTVSPropertyOp6
 70
     1
102
RTVSPropertyOp7
 70
     1
102
RTVSPropertyOp8
 70
     1
102
RTVSPropertyOp9
 70
     1
102
RTVSPropertyOp10
 70
     1
102
RTVSPropertyOp11
 70
     1
102
RTVSPropertyOp12
 70
     1
102
RTVSPropertyOp13
 70
     1
102
RTVSPropertyOp14
 70
     1
102
RTVSPropertyOp15
 70
     1
102
RTVSPropertyOp16
 70
     1
102
RTVSPropertyOp17
 70
     1
102
RTVSPropertyOp18
 70
     1
102
RTVSPropertyOp19
 70
     1
102
RTVSPropertyOp20
 70
     1
102
RTVSPropertyOp21
 70
     1
102
RTVSPropertyOp22
 70
     1
102
RTVSPropertyOp23
 70
     1
102
RTVSPropertyOp24
 70
     1
102
RTVSPropertyOp25
 70
     1
102
RTVSPropertyOp26
 70
     1
102
RTVSPropertyOp27
 70
     1
  0
XRECORD
  5
6DD
102
{ACAD_REACTORS
330
6DC
102
}
330
6DC
100
AcDbXrecord
280
     1
102
RTVSPropertyOp0
 70
     1
102
RTVSPropertyOp1
 70
     1
102
RTVSPropertyOp2
 70
     1
102
RTVSPropertyOp3
 70
     1
102
RTVSPropertyOp4
 70
     1
102
RTVSPropertyOp5
 70
     1
102
RTVSPropertyOp6
 70
     1
102
RTVSPropertyOp7
 70
     1
102
RTVSPropertyOp8
 70
     1
102
RTVSPropertyOp9
 70
     1
102
RTVSPropertyOp10
 70
     1
102
RTVSPropertyOp11
 70
     1
102
RTVSPropertyOp12
 70
     1
102
RTVSPropertyOp13
 70
     1
102
RTVSPropertyOp14
 70
     1
102
RTVSPropertyOp15
 70
     1
102
RTVSPropertyOp16
 70
     1
102
RTVSPropertyOp17
 70
     1
102
RTVSPropertyOp18
 70
     1
102
RTVSPropertyOp19
 70
     1
102
RTVSPropertyOp20
 70
     1
102
RTVSPropertyOp21
 70
     1
102
RTVSPropertyOp22
 70
     1
102
RTVSPropertyOp23
 70
     1
102
RTVSPropertyOp24
 70
     1
102
RTVSPropertyOp25
 70
     1
102
RTVSPropertyOp26
 70
     1
102
RTVSPropertyOp27
 70
     1
  0
XRECORD
  5
6ED
102
{ACAD_REACTORS
330
6EC
102
}
330
6EC
100
AcDbXrecord
280
     1
102
RTVSPropertyOp0
 70
     0
102
RTVSPropertyOp1
 70
     0
102
RTVSPropertyOp2
 70
     0
102
RTVSPropertyOp3
 70
     0
102
RTVSPropertyOp4
 70
     0
102
RTVSPropertyOp5
 70
     0
102
RTVSPropertyOp6
 70
     0
102
RTVSPropertyOp7
 70
     0
102
RTVSPropertyOp8
 70
     0
102
RTVSPropertyOp9
 70
     0
102
RTVSPropertyOp10
 70
     0
102
RTVSPropertyOp11
 70
     0
102
RTVSPropertyOp12
 70
     0
102
RTVSPropertyOp13
 70
     0
102
RTVSPropertyOp14
 70
     2
102
RTVSPropertyOp15
 70
     0
102
RTVSPropertyOp16
 70
     0
102
RTVSPropertyOp17
 70
     0
102
RTVSPropertyOp18
 70
     0
102
RTVSPropertyOp19
 70
     0
102
RTVSPropertyOp20
 70
     0
102
RTVSPropertyOp21
 70
     0
102
RTVSPropertyOp22
 70
     0
102
RTVSPropertyOp23
 70
     0
102
RTVSPropertyOp24
 70
     0
102
RTVSPropertyOp25
 70
     0
102
RTVSPropertyOp26
 70
     0
102
RTVSPropertyOp27
 70
     0
  0
XRECORD
  5
6E5
102
{ACAD_REACTORS
330
6E4
102
}
330
6E4
100
AcDbXrecord
280
     1
102
RTVSPropertyOp0
 70
     1
102
RTVSPropertyOp1
 70
     1
102
RTVSPropertyOp2
 70
     1
102
RTVSPropertyOp3
 70
     1
102
RTVSPropertyOp4
 70
     1
102
RTVSPropertyOp5
 70
     1
102
RTVSPropertyOp6
 70
     1
102
RTVSPropertyOp7
 70
     1
102
RTVSPropertyOp8
 70
     1
102
RTVSPropertyOp9
 70
     1
102
RTVSPropertyOp10
 70
     1
102
RTVSPropertyOp11
 70
     1
102
RTVSPropertyOp12
 70
     1
102
RTVSPropertyOp13
 70
     1
102
RTVSPropertyOp14
 70
     1
102
RTVSPropertyOp15
 70
     1
102
RTVSPropertyOp16
 70
     1
102
RTVSPropertyOp17
 70
     1
102
RTVSPropertyOp18
 70
     1
102
RTVSPropertyOp19
 70
     1
102
RTVSPropertyOp20
 70
     1
102
RTVSPropertyOp21
 70
     1
102
RTVSPropertyOp22
 70
     1
102
RTVSPropertyOp23
 70
     1
102
RTVSPropertyOp24
 70
     1
102
RTVSPropertyOp25
 70
     1
102
RTVSPropertyOp26
 70
     1
102
RTVSPropertyOp27
 70
     1
  0
XRECORD
  5
6C9
102
{ACAD_REACTORS
330
6C8
102
}
330
6C8
100
AcDbXrecord
280
     1
102
RTVSPropertyOp0
 70
     1
102
RTVSPropertyOp1
 70
     1
102
RTVSPropertyOp2
 70
     1
102
RTVSPropertyOp3
 70
     1
102
RTVSPropertyOp4
 70
     1
102
RTVSPropertyOp5
 70
     1
102
RTVSPropertyOp6
 70
     1
102
RTVSPropertyOp7
 70
     1
102
RTVSPropertyOp8
 70
     1
102
RTVSPropertyOp9
 70
     1
102
RTVSPropertyOp10
 70
     1
102
RTVSPropertyOp11
 70
     1
102
RTVSPropertyOp12
 70
     1
102
RTVSPropertyOp13
 70
     1
102
RTVSPropertyOp14
 70
     1
102
RTVSPropertyOp15
 70
     1
102
RTVSPropertyOp16
 70
     1
102
RTVSPropertyOp17
 70
     1
102
RTVSPropertyOp18
 70
     1
102
RTVSPropertyOp19
 70
     1
102
RTVSPropertyOp20
 70
     1
102
RTVSPropertyOp21
 70
     1
102
RTVSPropertyOp22
 70
     1
102
RTVSPropertyOp23
 70
     1
102
RTVSPropertyOp24
 70
     1
102
RTVSPropertyOp25
 70
     1
102
RTVSPropertyOp26
 70
     1
102
RTVSPropertyOp27
 70
     1
  0
XRECORD
  5
6CB
102
{ACAD_REACTORS
330
6CA
102
}
330
6CA
100
AcDbXrecord
280
     1
102
RTVSPropertyOp0
 70
     1
102
RTVSPropertyOp1
 70
     1
102
RTVSPropertyOp2
 70
     1
102
RTVSPropertyOp3
 70
     1
102
RTVSPropertyOp4
 70
     1
102
RTVSPropertyOp5
 70
     1
102
RTVSPropertyOp6
 70
     1
102
RTVSPropertyOp7
 70
     1
102
RTVSPropertyOp8
 70
     1
102
RTVSPropertyOp9
 70
     1
102
RTVSPropertyOp10
 70
     1
102
RTVSPropertyOp11
 70
     1
102
RTVSPropertyOp12
 70
     1
102
RTVSPropertyOp13
 70
     1
102
RTVSPropertyOp14
 70
     1
102
RTVSPropertyOp15
 70
     1
102
RTVSPropertyOp16
 70
     1
102
RTVSPropertyOp17
 70
     1
102
RTVSPropertyOp18
 70
     1
102
RTVSPropertyOp19
 70
     1
102
RTVSPropertyOp20
 70
     1
102
RTVSPropertyOp21
 70
     1
102
RTVSPropertyOp22
 70
     1
102
RTVSPropertyOp23
 70
     1
102
RTVSPropertyOp24
 70
     1
102
RTVSPropertyOp25
 70
     1
102
RTVSPropertyOp26
 70
     1
102
RTVSPropertyOp27
 70
     1
  0
XRECORD
  5
6CD
102
{ACAD_REACTORS
330
6CC
102
}
330
6CC
100
AcDbXrecord
280
     1
102
RTVSPropertyOp0
 70
     1
102
RTVSPropertyOp1
 70
     1
102
RTVSPropertyOp2
 70
     1
102
RTVSPropertyOp3
 70
     1
102
RTVSPropertyOp4
 70
     1
102
RTVSPropertyOp5
 70
     1
102
RTVSPropertyOp6
 70
     1
102
RTVSPropertyOp7
 70
     1
102
RTVSPropertyOp8
 70
     1
102
RTVSPropertyOp9
 70
     1
102
RTVSPropertyOp10
 70
     1
102
RTVSPropertyOp11
 70
     1
102
RTVSPropertyOp12
 70
     1
102
RTVSPropertyOp13
 70
     1
102
RTVSPropertyOp14
 70
     1
102
RTVSPropertyOp15
 70
     1
102
RTVSPropertyOp16
 70
     1
102
RTVSPropertyOp17
 70
     1
102
RTVSPropertyOp18
 70
     1
102
RTVSPropertyOp19
 70
     1
102
RTVSPropertyOp20
 70
     1
102
RTVSPropertyOp21
 70
     1
102
RTVSPropertyOp22
 70
     1
102
RTVSPropertyOp23
 70
     1
102
RTVSPropertyOp24
 70
     1
102
RTVSPropertyOp25
 70
     1
102
RTVSPropertyOp26
 70
     1
102
RTVSPropertyOp27
 70
     1
  0
XRECORD
  5
6CF
102
{ACAD_REACTORS
330
6CE
102
}
330
6CE
100
AcDbXrecord
280
     1
102
RTVSPropertyOp0
 70
     1
102
RTVSPropertyOp1
 70
     1
102
RTVSPropertyOp2
 70
     1
102
RTVSPropertyOp3
 70
     1
102
RTVSPropertyOp4
 70
     1
102
RTVSPropertyOp5
 70
     1
102
RTVSPropertyOp6
 70
     1
102
RTVSPropertyOp7
 70
     1
102
RTVSPropertyOp8
 70
     1
102
RTVSPropertyOp9
 70
     1
102
RTVSPropertyOp10
 70
     1
102
RTVSPropertyOp11
 70
     1
102
RTVSPropertyOp12
 70
     1
102
RTVSPropertyOp13
 70
     1
102
RTVSPropertyOp14
 70
     1
102
RTVSPropertyOp15
 70
     1
102
RTVSPropertyOp16
 70
     1
102
RTVSPropertyOp17
 70
     1
102
RTVSPropertyOp18
 70
     1
102
RTVSPropertyOp19
 70
     1
102
RTVSPropertyOp20
 70
     1
102
RTVSPropertyOp21
 70
     1
102
RTVSPropertyOp22
 70
     1
102
RTVSPropertyOp23
 70
     1
102
RTVSPropertyOp24
 70
     1
102
RTVSPropertyOp25
 70
     1
102
RTVSPropertyOp26
 70
     1
102
RTVSPropertyOp27
 70
     1
  0
XRECORD
  5
6E9
102
{ACAD_REACTORS
330
6E8
102
}
330
6E8
100
AcDbXrecord
280
     1
102
RTVSPropertyOp0
 70
     0
102
RTVSPropertyOp1
 70
     0
102
RTVSPropertyOp2
 70
     0
102
RTVSPropertyOp3
 70
     0
102
RTVSPropertyOp4
 70
     0
102
RTVSPropertyOp5
 70
     0
102
RTVSPropertyOp6
 70
     0
102
RTVSPropertyOp7
 70
     0
102
RTVSPropertyOp8
 70
     0
102
RTVSPropertyOp9
 70
     0
102
RTVSPropertyOp10
 70
     0
102
RTVSPropertyOp11
 70
     0
102
RTVSPropertyOp12
 70
     0
102
RTVSPropertyOp13
 70
     0
102
RTVSPropertyOp14
 70
     2
102
RTVSPropertyOp15
 70
     0
102
RTVSPropertyOp16
 70
     0
102
RTVSPropertyOp17
 70
     0
102
RTVSPropertyOp18
 70
     0
102
RTVSPropertyOp19
 70
     0
102
RTVSPropertyOp20
 70
     0
102
RTVSPropertyOp21
 70
     0
102
RTVSPropertyOp22
 70
     0
102
RTVSPropertyOp23
 70
     0
102
RTVSPropertyOp24
 70
     0
102
RTVSPropertyOp25
 70
     0
102
RTVSPropertyOp26
 70
     0
102
RTVSPropertyOp27
 70
     0
  0
XRECORD
  5
6E3
102
{ACAD_REACTORS
330
6E2
102
}
330
6E2
100
AcDbXrecord
280
     1
102
RTVSPropertyOp0
 70
     1
102
RTVSPropertyOp1
 70
     1
102
RTVSPropertyOp2
 70
     1
102
RTVSPropertyOp3
 70
     1
102
RTVSPropertyOp4
 70
     1
102
RTVSPropertyOp5
 70
     1
102
RTVSPropertyOp6
 70
     1
102
RTVSPropertyOp7
 70
     1
102
RTVSPropertyOp8
 70
     1
102
RTVSPropertyOp9
 70
     1
102
RTVSPropertyOp10
 70
     1
102
RTVSPropertyOp11
 70
     1
102
RTVSPropertyOp12
 70
     1
102
RTVSPropertyOp13
 70
     1
102
RTVSPropertyOp14
 70
     1
102
RTVSPropertyOp15
 70
     1
102
RTVSPropertyOp16
 70
     1
102
RTVSPropertyOp17
 70
     1
102
RTVSPropertyOp18
 70
     1
102
RTVSPropertyOp19
 70
     1
102
RTVSPropertyOp20
 70
     1
102
RTVSPropertyOp21
 70
     1
102
RTVSPropertyOp22
 70
     1
102
RTVSPropertyOp23
 70
     1
102
RTVSPropertyOp24
 70
     1
102
RTVSPropertyOp25
 70
     1
102
RTVSPropertyOp26
 70
     1
102
RTVSPropertyOp27
 70
     1
  0
XRECORD
  5
6EB
102
{ACAD_REACTORS
330
6EA
102
}
330
6EA
100
AcDbXrecord
280
     1
102
RTVSPropertyOp0
 70
     0
102
RTVSPropertyOp1
 70
     0
102
RTVSPropertyOp2
 70
     0
102
RTVSPropertyOp3
 70
     0
102
RTVSPropertyOp4
 70
     0
102
RTVSPropertyOp5
 70
     0
102
RTVSPropertyOp6
 70
     0
102
RTVSPropertyOp7
 70
     0
102
RTVSPropertyOp8
 70
     0
102
RTVSPropertyOp9
 70
     0
102
RTVSPropertyOp10
 70
     0
102
RTVSPropertyOp11
 70
     0
102
RTVSPropertyOp12
 70
     0
102
RTVSPropertyOp13
 70
     0
102
RTVSPropertyOp14
 70
     2
102
RTVSPropertyOp15
 70
     0
102
RTVSPropertyOp16
 70
     0
102
RTVSPropertyOp17
 70
     0
102
RTVSPropertyOp18
 70
     0
102
RTVSPropertyOp19
 70
     0
102
RTVSPropertyOp20
 70
     0
102
RTVSPropertyOp21
 70
     0
102
RTVSPropertyOp22
 70
     0
102
RTVSPropertyOp23
 70
     0
102
RTVSPropertyOp24
 70
     0
102
RTVSPropertyOp25
 70
     0
102
RTVSPropertyOp26
 70
     0
102
RTVSPropertyOp27
 70
     0
  0
XRECORD
  5
6DB
102
{ACAD_REACTORS
330
6DA
102
}
330
6DA
100
AcDbXrecord
280
     1
102
RTVSPropertyOp0
 70
     1
102
RTVSPropertyOp1
 70
     1
102
RTVSPropertyOp2
 70
     1
102
RTVSPropertyOp3
 70
     1
102
RTVSPropertyOp4
 70
     1
102
RTVSPropertyOp5
 70
     1
102
RTVSPropertyOp6
 70
     1
102
RTVSPropertyOp7
 70
     1
102
RTVSPropertyOp8
 70
     1
102
RTVSPropertyOp9
 70
     1
102
RTVSPropertyOp10
 70
     1
102
RTVSPropertyOp11
 70
     1
102
RTVSPropertyOp12
 70
     1
102
RTVSPropertyOp13
 70
     1
102
RTVSPropertyOp14
 70
     1
102
RTVSPropertyOp15
 70
     1
102
RTVSPropertyOp16
 70
     1
102
RTVSPropertyOp17
 70
     1
102
RTVSPropertyOp18
 70
     1
102
RTVSPropertyOp19
 70
     1
102
RTVSPropertyOp20
 70
     1
102
RTVSPropertyOp21
 70
     1
102
RTVSPropertyOp22
 70
     1
102
RTVSPropertyOp23
 70
     1
102
RTVSPropertyOp24
 70
     1
102
RTVSPropertyOp25
 70
     1
102
RTVSPropertyOp26
 70
     1
102
RTVSPropertyOp27
 70
     1
  0
XRECORD
  5
6E1
102
{ACAD_REACTORS
330
6E0
102
}
330
6E0
100
AcDbXrecord
280
     1
102
RTVSPropertyOp0
 70
     1
102
RTVSPropertyOp1
 70
     1
102
RTVSPropertyOp2
 70
     1
102
RTVSPropertyOp3
 70
     1
102
RTVSPropertyOp4
 70
     1
102
RTVSPropertyOp5
 70
     1
102
RTVSPropertyOp6
 70
     1
102
RTVSPropertyOp7
 70
     1
102
RTVSPropertyOp8
 70
     1
102
RTVSPropertyOp9
 70
     1
102
RTVSPropertyOp10
 70
     1
102
RTVSPropertyOp11
 70
     1
102
RTVSPropertyOp12
 70
     1
102
RTVSPropertyOp13
 70
     1
102
RTVSPropertyOp14
 70
     1
102
RTVSPropertyOp15
 70
     1
102
RTVSPropertyOp16
 70
     1
102
RTVSPropertyOp17
 70
     1
102
RTVSPropertyOp18
 70
     1
102
RTVSPropertyOp19
 70
     1
102
RTVSPropertyOp20
 70
     1
102
RTVSPropertyOp21
 70
     1
102
RTVSPropertyOp22
 70
     1
102
RTVSPropertyOp23
 70
     1
102
RTVSPropertyOp24
 70
     1
102
RTVSPropertyOp25
 70
     1
102
RTVSPropertyOp26
 70
     1
102
RTVSPropertyOp27
 70
     1
  0
ENDSEC
  0
EOF
