  0
SECTION
  2
HEADER
  9
$ACADVER
  1
AC1015
  9
$ACADMAINTVER
 70
    20
  9
$DWGCODEPAGE
  3
ANSI_1252
  9
$INSBASE
 10
0.0
 20
0.0
 30
0.0
  9
$EXTMIN
 10
792.6797201884481
 20
976.798539502567
 30
0.0
  9
$EXTMAX
 10
795.2431876706044
 20
977.318539502567
 30
0.0
  9
$LIMMIN
 10
0.0
 20
0.0
  9
$LIMMAX
 10
420.0
 20
297.0
  9
$ORTHOMODE
 70
     1
  9
$REGENMODE
 70
     1
  9
$FILLMODE
 70
     1
  9
$QTEXTMODE
 70
     0
  9
$MIRRTEXT
 70
     1
  9
$LTSCALE
 40
1.0
  9
$ATTMODE
 70
     1
  9
$TEXTSIZE
 40
2.5
  9
$TRACEWID
 40
1.0
  9
$TEXTSTYLE
  7
SANINDUSA
  9
$CLAYER
  8
0
  9
$CELTYPE
  6
ByLayer
  9
$CECOLOR
 62
   256
  9
$CELTSCALE
 40
1.0
  9
$DISPSILH
 70
     0
  9
$DIMSCALE
 40
1.0
  9
$DIMASZ
 40
2.0
  9
$DIMEXO
 40
1.0
  9
$DIMDLI
 40
1.0
  9
$DIMRND
 40
0.0
  9
$DIMDLE
 40
0.0
  9
$DIMEXE
 40
1.0
  9
$DIMTP
 40
0.0
  9
$DIMTM
 40
0.0
  9
$DIMTXT
 40
2.0
  9
$DIMCEN
 40
0.0
  9
$DIMTSZ
 40
0.0
  9
$DIMTOL
 70
     0
  9
$DIMLIM
 70
     0
  9
$DIMTIH
 70
     0
  9
$DIMTOH
 70
     0
  9
$DIMSE1
 70
     0
  9
$DIMSE2
 70
     0
  9
$DIMTAD
 70
     1
  9
$DIMZIN
 70
     8
  9
$DIMBLK
  1

  9
$DIMASO
 70
     1
  9
$DIMSHO
 70
     1
  9
$DIMPOST
  1

  9
$DIMAPOST
  1

  9
$DIMALT
 70
     0
  9
$DIMALTD
 70
     3
  9
$DIMALTF
 40
0.03937007874016
  9
$DIMLFAC
 40
1.0
  9
$DIMTOFL
 70
     1
  9
$DIMTVP
 40
0.0
  9
$DIMTIX
 70
     0
  9
$DIMSOXD
 70
     0
  9
$DIMSAH
 70
     0
  9
$DIMBLK1
  1

  9
$DIMBLK2
  1

  9
$DIMSTYLE
  2
SANINDUSA
  9
$DIMCLRD
 70
   256
  9
$DIMCLRE
 70
   256
  9
$DIMCLRT
 70
   256
  9
$DIMTFAC
 40
1.0
  9
$DIMGAP
 40
1.0
  9
$DIMJUST
 70
     0
  9
$DIMSD1
 70
     0
  9
$DIMSD2
 70
     0
  9
$DIMTOLJ
 70
     0
  9
$DIMTZIN
 70
     8
  9
$DIMALTZ
 70
     0
  9
$DIMALTTZ
 70
     0
  9
$DIMUPT
 70
     0
  9
$DIMDEC
 70
     1
  9
$DIMTDEC
 70
     1
  9
$DIMALTU
 70
     2
  9
$DIMALTTD
 70
     3
  9
$DIMTXSTY
  7
SANINDUSA
  9
$DIMAUNIT
 70
     0
  9
$DIMADEC
 70
     1
  9
$DIMALTRND
 40
0.0
  9
$DIMAZIN
 70
     0
  9
$DIMDSEP
 70
    44
  9
$DIMATFIT
 70
     3
  9
$DIMFRAC
 70
     0
  9
$DIMLDRBLK
  1

  9
$DIMLUNIT
 70
     2
  9
$DIMLWD
 70
    -1
  9
$DIMLWE
 70
    -1
  9
$DIMTMOVE
 70
     0
  9
$LUNITS
 70
     2
  9
$LUPREC
 70
     4
  9
$SKETCHINC
 40
1.0
  9
$FILLETRAD
 40
0.0
  9
$AUNITS
 70
     0
  9
$AUPREC
 70
     0
  9
$MENU
  1
.
  9
$ELEVATION
 40
0.0
  9
$PELEVATION
 40
0.0
  9
$THICKNESS
 40
0.0
  9
$LIMCHECK
 70
     0
  9
$CHAMFERA
 40
10.0
  9
$CHAMFERB
 40
10.0
  9
$CHAMFERC
 40
20.0
  9
$CHAMFERD
 40
0.0
  9
$SKPOLY
 70
     0
  9
$TDCREATE
 40
2453480.629681713
  9
$TDUCREATE
 40
2453480.588015047
  9
$TDUPDATE
 40
2456148.594265764
  9
$TDUUPDATE
 40
2456148.552599097
  9
$TDINDWG
 40
0.0164174537
  9
$TDUSRTIMER
 40
0.0164174537
  9
$USRTIMER
 70
     1
  9
$ANGBASE
 50
0.0
  9
$ANGDIR
 70
     0
  9
$PDMODE
 70
     0
  9
$PDSIZE
 40
0.0
  9
$PLINEWID
 40
0.0
  9
$SPLFRAME
 70
     0
  9
$SPLINETYPE
 70
     6
  9
$SPLINESEGS
 70
     8
  9
$HANDSEED
  5
5DAE
  9
$SURFTAB1
 70
     6
  9
$SURFTAB2
 70
     6
  9
$SURFTYPE
 70
     6
  9
$SURFU
 70
     6
  9
$SURFV
 70
     6
  9
$UCSBASE
  2

  9
$UCSNAME
  2

  9
$UCSORG
 10
0.0
 20
0.0
 30
0.0
  9
$UCSXDIR
 10
1.0
 20
0.0
 30
0.0
  9
$UCSYDIR
 10
0.0
 20
1.0
 30
0.0
  9
$UCSORTHOREF
  2

  9
$UCSORTHOVIEW
 70
     0
  9
$UCSORGTOP
 10
0.0
 20
0.0
 30
0.0
  9
$UCSORGBOTTOM
 10
0.0
 20
0.0
 30
0.0
  9
$UCSORGLEFT
 10
0.0
 20
0.0
 30
0.0
  9
$UCSORGRIGHT
 10
0.0
 20
0.0
 30
0.0
  9
$UCSORGFRONT
 10
0.0
 20
0.0
 30
0.0
  9
$UCSORGBACK
 10
0.0
 20
0.0
 30
0.0
  9
$PUCSBASE
  2

  9
$PUCSNAME
  2

  9
$PUCSORG
 10
0.0
 20
0.0
 30
0.0
  9
$PUCSXDIR
 10
1.0
 20
0.0
 30
0.0
  9
$PUCSYDIR
 10
0.0
 20
1.0
 30
0.0
  9
$PUCSORTHOREF
  2

  9
$PUCSORTHOVIEW
 70
     0
  9
$PUCSORGTOP
 10
0.0
 20
0.0
 30
0.0
  9
$PUCSORGBOTTOM
 10
0.0
 20
0.0
 30
0.0
  9
$PUCSORGLEFT
 10
0.0
 20
0.0
 30
0.0
  9
$PUCSORGRIGHT
 10
0.0
 20
0.0
 30
0.0
  9
$PUCSORGFRONT
 10
0.0
 20
0.0
 30
0.0
  9
$PUCSORGBACK
 10
0.0
 20
0.0
 30
0.0
  9
$USERI1
 70
     0
  9
$USERI2
 70
     0
  9
$USERI3
 70
     0
  9
$USERI4
 70
     0
  9
$USERI5
 70
     0
  9
$USERR1
 40
0.0
  9
$USERR2
 40
0.0
  9
$USERR3
 40
0.0
  9
$USERR4
 40
0.0
  9
$USERR5
 40
0.0
  9
$WORLDVIEW
 70
     1
  9
$SHADEDGE
 70
     3
  9
$SHADEDIF
 70
    70
  9
$TILEMODE
 70
     1
  9
$MAXACTVP
 70
    64
  9
$PINSBASE
 10
0.0
 20
0.0
 30
0.0
  9
$PLIMCHECK
 70
     0
  9
$PEXTMIN
 10
1.000000000000000E+20
 20
1.000000000000000E+20
 30
1.000000000000000E+20
  9
$PEXTMAX
 10
-1.000000000000000E+20
 20
-1.000000000000000E+20
 30
-1.000000000000000E+20
  9
$PLIMMIN
 10
0.0
 20
0.0
  9
$PLIMMAX
 10
420.0
 20
297.0
  9
$UNITMODE
 70
     0
  9
$VISRETAIN
 70
     1
  9
$PLINEGEN
 70
     0
  9
$PSLTSCALE
 70
     1
  9
$TREEDEPTH
 70
  3020
  9
$CMLSTYLE
  2
Standard
  9
$CMLJUST
 70
     0
  9
$CMLSCALE
 40
20.0
  9
$PROXYGRAPHICS
 70
     1
  9
$MEASUREMENT
 70
     1
  9
$CELWEIGHT
370
    -1
  9
$ENDCAPS
280
     0
  9
$JOINSTYLE
280
     0
  9
$LWDISPLAY
290
     0
  9
$INSUNITS
 70
     4
  9
$HYPERLINKBASE
  1

  9
$STYLESHEET
  1
monochrome.ctb
  9
$XEDIT
290
     1
  9
$CEPSNTYPE
380
     0
  9
$PSTYLEMODE
290
     1
  9
$FINGERPRINTGUID
  2
{B98A73AA-52AA-4C10-B469-C0E7150AC31F}
  9
$VERSIONGUID
  2
{0265B4F6-CAC8-480B-B1CB-B4A36D15EE71}
  9
$EXTNAMES
290
     1
  9
$PSVPSCALE
 40
0.0
  9
$OLESTARTUP
290
     0
  0
ENDSEC
  0
SECTION
  2
CLASSES
  0
CLASS
  1
ACDBDICTIONARYWDFLT
  2
AcDbDictionaryWithDefault
  3
ObjectDBX Classes
 90
        0
280
     0
281
     0
  0
CLASS
  1
ACDBPLACEHOLDER
  2
AcDbPlaceHolder
  3
ObjectDBX Classes
 90
        0
280
     0
281
     0
  0
CLASS
  1
LAYOUT
  2
AcDbLayout
  3
ObjectDBX Classes
 90
        0
280
     0
281
     0
  0
CLASS
  1
DICTIONARYVAR
  2
AcDbDictionaryVar
  3
ObjectDBX Classes
 90
        0
280
     0
281
     0
  0
CLASS
  1
DIMASSOC
  2
AcDbDimAssoc
  3
"AcDbDimAssoc|Product Desc:     AcDim ARX App For Dimension|Company:          Autodesk, Inc.|WEB Address:      www.autodesk.com"
 90
    32768
280
     0
281
     0
  0
CLASS
  1
MATERIAL
  2
AcDbMaterial
  3
ObjectDBX Classes
 90
     1153
280
     0
281
     0
  0
CLASS
  1
VISUALSTYLE
  2
AcDbVisualStyle
  3
ObjectDBX Classes
 90
     4095
280
     0
281
     0
  0
CLASS
  1
TABLESTYLE
  2
AcDbTableStyle
  3
ObjectDBX Classes
 90
     4095
280
     0
281
     0
  0
CLASS
  1
SCALE
  2
AcDbScale
  3
ObjectDBX Classes
 90
     1153
280
     0
281
     0
  0
CLASS
  1
MLEADERSTYLE
  2
AcDbMLeaderStyle
  3
ACDB_MLEADERSTYLE_CLASS
 90
     4095
280
     0
281
     0
  0
CLASS
  1
CELLSTYLEMAP
  2
AcDbCellStyleMap
  3
ObjectDBX Classes
 90
     1152
280
     0
281
     0
  0
ENDSEC
  0
SECTION
  2
TABLES
  0
TABLE
  2
VPORT
  5
8
330
0
100
AcDbSymbolTable
 70
     1
  0
VPORT
  5
5CEA
330
8
100
AcDbSymbolTableRecord
100
AcDbViewportTableRecord
  2
*Active
 70
     0
 10
0.0
 20
0.0
 11
1.0
 21
1.0
 12
794.0327863356246
 22
977.0589190727148
 13
0.0
 23
0.0
 14
10.0
 24
10.0
 15
10.0
 25
10.0
 16
0.0
 26
0.0
 36
1.0
 17
0.0
 27
0.0
 37
0.0
 40
1.649933279341009
 41
1.645464025026068
 42
50.0
 43
0.0
 44
0.0
 50
0.0
 51
0.0
 71
     0
 72
   100
 73
     1
 74
     2
 75
     0
 76
     0
 77
     0
 78
     0
281
     0
 65
     1
110
0.0
120
0.0
130
0.0
111
1.0
121
0.0
131
0.0
112
0.0
122
1.0
132
0.0
 79
     0
146
0.0
  0
ENDTAB
  0
TABLE
  2
LTYPE
  5
5
330
0
100
AcDbSymbolTable
 70
     3
  0
LTYPE
  5
14
330
5
100
AcDbSymbolTableRecord
100
AcDbLinetypeTableRecord
  2
ByBlock
 70
     0
  3

 72
    65
 73
     0
 40
0.0
  0
LTYPE
  5
15
330
5
100
AcDbSymbolTableRecord
100
AcDbLinetypeTableRecord
  2
ByLayer
 70
     0
  3

 72
    65
 73
     0
 40
0.0
  0
LTYPE
  5
16
330
5
100
AcDbSymbolTableRecord
100
AcDbLinetypeTableRecord
  2
Continuous
 70
     0
  3
Solid line
 72
    65
 73
     0
 40
0.0
  0
LTYPE
  5
2D
330
5
100
AcDbSymbolTableRecord
100
AcDbLinetypeTableRecord
  2
DASHDOT
 70
     0
  3
Dash dot __ . __ . __ . __ . __ . __ . __ . __
 72
    65
 73
     4
 40
25.4
 49
12.7
 74
     0
 49
-6.349999999999999
 74
     0
 49
0.0
 74
     0
 49
-6.349999999999999
 74
     0
  0
LTYPE
  5
2E
330
5
100
AcDbSymbolTableRecord
100
AcDbLinetypeTableRecord
  2
HIDDEN
 70
     0
  3
Hidden __ __ __ __ __ __ __ __ __ __ __ __ __ _
 72
    65
 73
     2
 40
9.524999999999998
 49
6.349999999999999
 74
     0
 49
-3.174999999999999
 74
     0
  0
ENDTAB
  0
TABLE
  2
LAYER
  5
2
330
0
100
AcDbSymbolTable
 70
    18
  0
LAYER
  5
10
102
{ACAD_XDICTIONARY
360
5D35
102
}
330
2
100
AcDbSymbolTableRecord
100
AcDbLayerTableRecord
  2
0
 70
     0
 62
     7
  6
Continuous
370
    -3
390
F
  0
LAYER
  5
2F
102
{ACAD_XDICTIONARY
360
5D37
102
}
330
2
100
AcDbSymbolTableRecord
100
AcDbLayerTableRecord
  2
1
 70
     0
 62
     1
  6
Continuous
370
    -3
390
F
  0
LAYER
  5
30
102
{ACAD_XDICTIONARY
360
5D39
102
}
330
2
100
AcDbSymbolTableRecord
100
AcDbLayerTableRecord
  2
2
 70
     0
 62
     2
  6
Continuous
370
    -3
390
F
  0
LAYER
  5
31
102
{ACAD_XDICTIONARY
360
5D3B
102
}
330
2
100
AcDbSymbolTableRecord
100
AcDbLayerTableRecord
  2
3
 70
     0
 62
     3
  6
Continuous
370
    -3
390
F
  0
LAYER
  5
32
102
{ACAD_XDICTIONARY
360
5D3D
102
}
330
2
100
AcDbSymbolTableRecord
100
AcDbLayerTableRecord
  2
4
 70
     0
 62
     4
  6
Continuous
370
    -3
390
F
  0
LAYER
  5
33
102
{ACAD_XDICTIONARY
360
5D3F
102
}
330
2
100
AcDbSymbolTableRecord
100
AcDbLayerTableRecord
  2
5
 70
     0
 62
     5
  6
Continuous
370
    -3
390
F
  0
LAYER
  5
34
102
{ACAD_XDICTIONARY
360
5D41
102
}
330
2
100
AcDbSymbolTableRecord
100
AcDbLayerTableRecord
  2
6
 70
     0
 62
     6
  6
Continuous
370
    -3
390
F
  0
LAYER
  5
35
102
{ACAD_XDICTIONARY
360
5D43
102
}
330
2
100
AcDbSymbolTableRecord
100
AcDbLayerTableRecord
  2
7
 70
     0
 62
     7
  6
Continuous
370
    -3
390
F
  0
LAYER
  5
36
102
{ACAD_XDICTIONARY
360
5D45
102
}
330
2
100
AcDbSymbolTableRecord
100
AcDbLayerTableRecord
  2
cen
 70
     0
 62
     7
  6
DASHDOT
370
    -3
390
F
  0
LAYER
  5
37
102
{ACAD_XDICTIONARY
360
5D47
102
}
330
2
100
AcDbSymbolTableRecord
100
AcDbLayerTableRecord
  2
hid
 70
     0
 62
     7
  6
HIDDEN
370
    -3
390
F
  0
LAYER
  5
5D6
102
{ACAD_XDICTIONARY
360
5D49
102
}
330
2
100
AcDbSymbolTableRecord
100
AcDbLayerTableRecord
  2
hatch
 70
     0
 62
     9
  6
Continuous
370
    -3
390
F
  0
LAYER
  5
8AF
102
{ACAD_XDICTIONARY
360
5D4B
102
}
330
2
100
AcDbSymbolTableRecord
100
AcDbLayerTableRecord
  2
9
 70
     0
 62
     9
  6
Continuous
370
    -3
390
F
  0
LAYER
  5
8F8
102
{ACAD_XDICTIONARY
360
5D4D
102
}
330
2
100
AcDbSymbolTableRecord
100
AcDbLayerTableRecord
  2
leg fin
 70
     0
 62
     9
  6
Continuous
370
    -3
390
F
  0
LAYER
  5
91D
102
{ACAD_XDICTIONARY
360
5D4F
102
}
330
2
100
AcDbSymbolTableRecord
100
AcDbLayerTableRecord
  2
cotas
 70
     0
 62
     1
  6
Continuous
370
    -3
390
F
  0
LAYER
  5
92F
330
2
100
AcDbSymbolTableRecord
100
AcDbLayerTableRecord
  2
Defpoints
 70
     0
 62
     7
  6
Continuous
290
     0
370
    -3
390
F
  0
LAYER
  5
BA5
102
{ACAD_XDICTIONARY
360
5D51
102
}
330
2
100
AcDbSymbolTableRecord
100
AcDbLayerTableRecord
  2
BLOCKS
 70
     0
 62
     3
  6
Continuous
370
    -3
390
F
  0
LAYER
  5
DA5
102
{ACAD_XDICTIONARY
360
5D53
102
}
330
2
100
AcDbSymbolTableRecord
100
AcDbLayerTableRecord
  2
INDUSA
 70
     0
 62
     3
  6
Continuous
370
    -3
390
F
  0
LAYER
  5
195E
102
{ACAD_XDICTIONARY
360
5D55
102
}
330
2
100
AcDbSymbolTableRecord
100
AcDbLayerTableRecord
  2
SANINDUSA
 70
     0
 62
     3
  6
Continuous
370
    -3
390
F
  0
ENDTAB
  0
TABLE
  2
STYLE
  5
3
330
0
100
AcDbSymbolTable
 70
     4
  0
STYLE
  5
11
330
3
100
AcDbSymbolTableRecord
100
AcDbTextStyleTableRecord
  2
Standard
 70
     0
 40
0.0
 41
1.0
 50
0.0
 71
     0
 42
2.5
  3
Avgardn.ttf
  4

1001
ACAD
1000
AvantGarde Bk BT
1071
       34
  0
STYLE
  5
2C
330
3
100
AcDbSymbolTableRecord
100
AcDbTextStyleTableRecord
  2

 70
     1
 40
0.0
 41
1.0
 50
0.0
 71
     0
 42
2.5
  3
ltypeshp.shx
  4

  0
STYLE
  5
91F
330
3
100
AcDbSymbolTableRecord
100
AcDbTextStyleTableRecord
  2
SANINDUSA
 70
     0
 40
0.0
 41
1.0
 50
0.0
 71
     0
 42
2.5
  3
verdana.TTF
  4

1001
ACAD
1000
Verdana
1071
       34
  0
STYLE
  5
BA6
330
3
100
AcDbSymbolTableRecord
100
AcDbTextStyleTableRecord
  2
cotas
 70
     0
 40
2.0
 41
0.8
 50
0.0
 71
     0
 42
2.0
  3
ISOCP.shx
  4

  0
ENDTAB
  0
TABLE
  2
VIEW
  5
6
330
0
100
AcDbSymbolTable
 70
     0
  0
ENDTAB
  0
TABLE
  2
UCS
  5
7
330
0
100
AcDbSymbolTable
 70
     0
  0
ENDTAB
  0
TABLE
  2
APPID
  5
9
330
0
100
AcDbSymbolTable
 70
     3
  0
APPID
  5
12
330
9
100
AcDbSymbolTableRecord
100
AcDbRegAppTableRecord
  2
ACAD
 70
     0
  0
APPID
  5
3A
330
9
100
AcDbSymbolTableRecord
100
AcDbRegAppTableRecord
  2
DCO15
 70
     0
  0
APPID
  5
5DAD
330
9
100
AcDbSymbolTableRecord
100
AcDbRegAppTableRecord
  2
ACAD_MLEADERVER
 70
     0
  0
ENDTAB
  0
TABLE
  2
DIMSTYLE
  5
A
330
0
100
AcDbSymbolTable
 70
     3
100
AcDbDimStyleTable
 71
     1
340
921
  0
DIMSTYLE
105
45
330
A
100
AcDbSymbolTableRecord
100
AcDbDimStyleTableRecord
  2
STANDARD
 70
     0
289
     0
340
11
  0
DIMSTYLE
105
921
330
A
100
AcDbSymbolTableRecord
100
AcDbDimStyleTableRecord
  2
SANINDUSA
 70
     0
 41
2.0
 42
1.0
 43
1.0
 44
1.0
 73
     0
 74
     0
 77
     1
 78
     8
140
2.0
141
0.0
143
0.03937007874016
147
1.0
171
     3
172
     1
176
   256
177
   256
178
   256
179
     1
271
     1
272
     1
274
     3
278
    44
283
     0
284
     8
340
91F
371
    -1
372
    -1
  0
DIMSTYLE
105
DA6
330
A
100
AcDbSymbolTableRecord
100
AcDbDimStyleTableRecord
  2
ISO-25
 70
     0
 41
2.5
 42
0.625
 43
3.75
 44
1.25
 73
     0
 74
     0
 77
     1
 78
     8
140
2.5
141
2.5
143
0.03937007874016
147
0.625
171
     3
172
     1
271
     2
272
     2
274
     3
278
    44
283
     0
284
     8
340
11
  0
ENDTAB
  0
TABLE
  2
BLOCK_RECORD
  5
1
330
0
100
AcDbSymbolTable
 70
    89
  0
BLOCK_RECORD
  5
1F
330
1
100
AcDbSymbolTableRecord
100
AcDbBlockTableRecord
  2
*Model_Space
340
22
  0
BLOCK_RECORD
  5
1B
330
1
100
AcDbSymbolTableRecord
100
AcDbBlockTableRecord
  2
*Paper_Space
340
1E
  0
BLOCK_RECORD
  5
23
330
1
100
AcDbSymbolTableRecord
100
AcDbBlockTableRecord
  2
*Paper_Space0
340
26
  0
BLOCK_RECORD
  5
919
330
1
100
AcDbSymbolTableRecord
100
AcDbBlockTableRecord
  2
_DotSmall
340
0
  0
BLOCK_RECORD
  5
922
330
1
100
AcDbSymbolTableRecord
100
AcDbBlockTableRecord
  2
base para cotas
340
0
310
2800000020000000200000000100080000000000000400000000000000000000000000000000000000000000000080000080000000808000800000008000800080800000C0C0C000C0DCC000F0CAA6000020400000206000002080000020A0000020C0000020E00000400000004020000040400000406000004080000040A0
310
000040C0000040E00000600000006020000060400000606000006080000060A0000060C0000060E00000800000008020000080400000806000008080000080A0000080C0000080E00000A0000000A0200000A0400000A0600000A0800000A0A00000A0C00000A0E00000C0000000C0200000C0400000C0600000C0800000C0
310
A00000C0C00000C0E00000E0000000E0200000E0400000E0600000E0800000E0A00000E0C00000E0E00040000000400020004000400040006000400080004000A0004000C0004000E00040200000402020004020400040206000402080004020A0004020C0004020E000404000004040200040404000404060004040800040
310
40A0004040C0004040E00040600000406020004060400040606000406080004060A0004060C0004060E00040800000408020004080400040806000408080004080A0004080C0004080E00040A0000040A0200040A0400040A0600040A0800040A0A00040A0C00040A0E00040C0000040C0200040C0400040C0600040C08000
310
40C0A00040C0C00040C0E00040E0000040E0200040E0400040E0600040E0800040E0A00040E0C00040E0E00080000000800020008000400080006000800080008000A0008000C0008000E00080200000802020008020400080206000802080008020A0008020C0008020E00080400000804020008040400080406000804080
310
008040A0008040C0008040E00080600000806020008060400080606000806080008060A0008060C0008060E00080800000808020008080400080806000808080008080A0008080C0008080E00080A0000080A0200080A0400080A0600080A0800080A0A00080A0C00080A0E00080C0000080C0200080C0400080C0600080C0
310
800080C0A00080C0C00080C0E00080E0000080E0200080E0400080E0600080E0800080E0A00080E0C00080E0E000C0000000C0002000C0004000C0006000C0008000C000A000C000C000C000E000C0200000C0202000C0204000C0206000C0208000C020A000C020C000C020E000C0400000C0402000C0404000C0406000C0
310
408000C040A000C040C000C040E000C0600000C0602000C0604000C0606000C0608000C060A000C060C000C060E000C0800000C0802000C0804000C0806000C0808000C080A000C080C000C080E000C0A00000C0A02000C0A04000C0A06000C0A08000C0A0A000C0A0C000C0A0E000C0C00000C0C02000C0C04000C0C06000
310
C0C08000C0C0A000F0FBFF00A4A0A000808080000000FF0000FF000000FFFF00FF000000FF00FF00FFFF0000FFFFFF00A4A4A4A4A4A4A4A4A4A4A4A4A4A4A4A4A4A4A4A4A4A4A4A4A4A4A4A4A4A4A4A4A4A4A4A4A4A4A4A4A4A4A4A4A4A4A4A4A4A4A4A4A4A4A4A4A4A4A4A4A4A4A4A4A4A4A4A4A4A4A4A4A4A4A4A4A4A4A4
310
A4A4A4A4A4A4A4A4A4A4A4A4A4A4A4A4A4A4A4A4A4A4A4A4A4A4A4A4A4A4A4A4A4A4A4A4A4A4A4A4A4A4A4A4A4A4A4A4A4A4A4A4A4A4A4A4A4A4A4A4A4A4A4A4A4A4A4A4A4A4A4A4A4A4A4A4A4A4A4A4A4A4A4A4A4A4A4A4A4A4A4A4A4A4A4A4A4A4A4A4A4A4A4A4A4A4A4A4A4A4A4A4A4A4A4A4A4A4A4A4A4A4A4A4A4A4A4
310
A4A4A4A4A4A4A4A4A4A4A4A4A4A4A4A4A4A4A4A4A4A4A4A4A4A4A4A4A4A4A4A4A4A4A4A4A4A4A4A4A4A4A4A4A4A4A4A4A4A4A4A4A4A4A4A4A4A4A4A4A4A4A4A4A4A4A4A4A4A4A4A4A4A4A4A4A4A4A4A4A4A4A4A4A4A4A4A4A4A4A4A4A4A4A4A4A4A4A4A4A4A4A4A4A4A4A4A4A4A4A4A4A4A4A4A4A4A4A4A4A4A4A4A4A4A4A4
310
A4A4A4A4A4A4A4A4A4A4A4A4A4A4A4A4A4A4A4A4A4A4A4A4A4A4A4A4A4A4A4A4A4A4A4A4A4A4A4A4A4A4A4A4A4A4A4A4A4A4A4A4A4A4A4A4A4A4A4A4A4A4A4A4A4A4A4A4A4A4A4A4A4A4A4A4A4A4A4A4A4A4A4A4A4A4A4A4A4A4A4A4A4A4A4A4A4A4A4A4A4A4A4A4A4A4A4A4A4A4A4A4A4A4A4A4F9F9F9F9F9F9F9F9F9F9F9
310
F9F9F9F9F9F9F9F9F9F9F9F9F9F9F9F9F9F9F9A4A4F9F9F9F9F9F9F9F9F9F9F9F9F9F9F9F9F9F9F9F9F9F9F9F9F9F9F9F9F9F9A4A4F9F9F9F9F9F9F9F9F9F9F9F9F9F9F9F9F9F9F9F9F9F9F9F9F9F9F9F9F9F9A4A4F9A4A4A4A4A4A4A4A4A4A4A4A4A4A4A4A4A4A4A4A4A4A4A4A4A4A4A4A4F9A4A4A4A4A4A4A4A4A4A4A4A4
310
A4A4A4A4A4A4A4A4A4A4A4A4A4A4A4A4A4A4A4A4A4A4A4A4A4A4A4A4A4A4A4A4A4A4A4A4A4A4A4A4A4A4A4A4A4A4A4A4A4A4A4A4A4A4A4A4A4A4A4A4A4A4A4A4A4A4A4A4A4A4A4A4A4A4A4A4A4A4A4A4A4A4A4A4A4A4A4A4A4A4A4A4A4A4A4A4A4A4A4A4A4A4A4A4A4A4A4A4A4A4A4A4A4A4A4A4A4A4A4A4A4A4A4A4A4A4A4
310
A4A4A4A4A4A4A4A4A4A4A4A4A4A4A4A4A4A4A4A4A4A4A4A4A4A4A4A4A4A4A4A4A4A4A4A4A4A4A4A4A4A4A4A4A4A4A4A4A4A4A4A4A4A4A4A4A4A4A4A4A4A4A4A4A4A4A4A4A4A4A4A4A4A4A4A4A4A4A4A4A4A4A4A4A4A4A4A4A4A4A4A4A4A4A4A4A4A4A4A4A4A4A4A4A4A4A4A4A4A4A4A4A4A4A4A4A4A4A4A4A4A4A4A4A4A4A4
310
A4A4A4A4A4A4A4A4A4A4A4A4A4A4A4A4A4A4A4A4A4A4A4A4A4A4A4A4A4A4A4A4A4A4A4A4A4A4A4A4A4A4A4A4A4A4A4A4A4A4A4A4A4A4A4A4A4A4A4A4A4A4A4A4A4A4A4A4A4A4A4A4A4A4A4A4A4A4A4A4A4A4A4A4A4A4A4A4A4A4A4A4A4A4A4A4A4A4A4A4A4A4A4A4A4A4A4A4A4A4A4A4A4A4A4A4A4A4A4A4A4A4A4A4A4A4A4
310
A4A4A4A4A4A4A4A4A4A4A4A4A4A4A4A4A4A4A4A4A4A4A4A4A4A4A4A4A4A4A4A4A4A4A4A4A4A4A4A4A4A4A4A4A4A4A4A4A4A4A4A4A4A4A4A4
1001
ACAD
1000
DesignCenter Data
1002
{
1070
     1
1070
     4
1002
}
  0
BLOCK_RECORD
  5
AA8
330
1
100
AcDbSymbolTableRecord
100
AcDbBlockTableRecord
  2
_CLOSED
340
0
  0
BLOCK_RECORD
  5
BA7
330
1
100
AcDbSymbolTableRecord
100
AcDbBlockTableRecord
  2
112770PL
340
0
  0
ENDTAB
  0
ENDSEC
  0
SECTION
  2
BLOCKS
  0
BLOCK
  5
20
330
1F
100
AcDbEntity
  8
0
100
AcDbBlockBegin
  2
*Model_Space
 70
     0
 10
0.0
 20
0.0
 30
0.0
  3
*Model_Space
  1

  0
ENDBLK
  5
21
330
1F
100
AcDbEntity
  8
0
100
AcDbBlockEnd
  0
BLOCK
  5
1C
330
1B
100
AcDbEntity
 67
     1
  8
0
100
AcDbBlockBegin
  2
*Paper_Space
 70
     0
 10
0.0
 20
0.0
 30
0.0
  3
*Paper_Space
  1

  0
ENDBLK
  5
1D
330
1B
100
AcDbEntity
 67
     1
  8
0
100
AcDbBlockEnd
  0
BLOCK
  5
24
330
23
100
AcDbEntity
 67
     1
  8
0
100
AcDbBlockBegin
  2
*Paper_Space0
 70
     0
 10
0.0
 20
0.0
 30
0.0
  3
*Paper_Space0
  1

  0
ENDBLK
  5
25
330
23
100
AcDbEntity
 67
     1
  8
0
100
AcDbBlockEnd
  0
BLOCK
  5
91B
330
919
100
AcDbEntity
  8
0
100
AcDbBlockBegin
  2
_DotSmall
 70
     0
 10
0.0
 20
0.0
 30
0.0
  3
_DotSmall
  1

  0
LWPOLYLINE
  5
91A
330
919
100
AcDbEntity
  8
0
  6
ByBlock
 62
     0
100
AcDbPolyline
 90
        2
 70
     1
 43
0.5
 10
-0.0625
 20
0.0
 42
1.0
 10
0.0625
 20
0.0
 42
1.0
  0
ENDBLK
  5
91C
330
919
100
AcDbEntity
  8
0
100
AcDbBlockEnd
  0
BLOCK
  5
92A
330
922
100
AcDbEntity
  8
0
100
AcDbBlockBegin
  2
base para cotas
 70
     0
 10
0.0
 20
0.0
 30
0.0
  3
base para cotas
  1

  0
LINE
  5
B36
330
922
100
AcDbEntity
  8
cotas
100
AcDbLine
 10
0.0
 20
-30.0
 30
0.0
 11
327.1260136525398
 21
-30.0
 31
0.0
  0
LINE
  5
B37
330
922
100
AcDbEntity
  8
cotas
100
AcDbLine
 10
0.0
 20
-25.0
 30
0.0
 11
327.1260136525398
 21
-25.0
 31
0.0
  0
LINE
  5
B38
330
922
100
AcDbEntity
  8
cotas
100
AcDbLine
 10
0.0
 20
-20.0
 30
0.0
 11
327.1260136525398
 21
-20.0
 31
0.0
  0
LINE
  5
B39
330
922
100
AcDbEntity
  8
cotas
100
AcDbLine
 10
0.0
 20
-15.0
 30
0.0
 11
327.1260136525398
 21
-15.0
 31
0.0
  0
LINE
  5
B3A
330
922
100
AcDbEntity
  8
cotas
100
AcDbLine
 10
0.0
 20
-10.0
 30
0.0
 11
327.1260136525398
 21
-10.0
 31
0.0
  0
LINE
  5
B3B
330
922
100
AcDbEntity
  8
cotas
100
AcDbLine
 10
0.0
 20
0.0
 30
0.0
 11
0.0
 21
-30.0
 31
0.0
  0
LINE
  5
B3C
330
922
100
AcDbEntity
  8
cotas
100
AcDbLine
 10
327.1260136525398
 20
-30.0
 30
0.0
 11
327.1260136525398
 21
0.0
 31
0.0
  0
ENDBLK
  5
92B
330
922
100
AcDbEntity
  8
0
100
AcDbBlockEnd
  0
BLOCK
  5
AAD
330
AA8
100
AcDbEntity
  8
0
100
AcDbBlockBegin
  2
_CLOSED
 70
     0
 10
0.0
 20
0.0
 30
0.0
  3
_CLOSED
  1

  0
LINE
  5
AA9
330
AA8
100
AcDbEntity
  8
0
100
AcDbLine
 10
-1.0
 20
0.166667
 30
0.0
 11
0.0
 21
0.0
 31
0.0
  0
LINE
  5
AAA
330
AA8
100
AcDbEntity
  8
0
100
AcDbLine
 10
0.0
 20
0.0
 30
0.0
 11
-1.0
 21
-0.166667
 31
0.0
  0
LINE
  5
AAB
330
AA8
100
AcDbEntity
  8
0
100
AcDbLine
 10
-1.0
 20
0.166667
 30
0.0
 11
-1.0
 21
-0.166667
 31
0.0
  0
LINE
  5
AAC
330
AA8
100
AcDbEntity
  8
0
100
AcDbLine
 10
0.0
 20
0.0
 30
0.0
 11
-1.0
 21
0.0
 31
0.0
  0
ENDBLK
  5
AAE
330
AA8
100
AcDbEntity
  8
0
100
AcDbBlockEnd
  0
BLOCK
  5
BC8
330
BA7
100
AcDbEntity
  8
0
100
AcDbBlockBegin
  2
112770PL
 70
     0
 10
0.0
 20
0.0
 30
0.0
  3
112770PL
  1

  0
ARC
  5
BA8
330
BA7
100
AcDbEntity
  8
BLOCKS
  6
Continuous
100
AcDbCircle
 10
0.411308886361582
 20
-0.0049999999999955
 30
0.0
 40
0.0050000000000001
100
AcDbArc
 50
11.67622529042118
 51
90.0
  0
LWPOLYLINE
  5
BA9
330
BA7
100
AcDbEntity
  8
BLOCKS
  6
Continuous
100
AcDbPolyline
 90
       10
 70
   128
 43
0.0
 10
0.1940498936170326
 20
-0.117642577044918
 10
0.1945906861930991
 20
-0.1181950423382648
 10
0.1948339387477091
 20
-0.1186285240051791
 10
0.1949108925054708
 20
-0.1190117924171375
 10
0.1948523049855277
 20
-0.119388914103605
 10
0.1946127610314972
 20
-0.1198134318536461
 10
0.1939729423178534
 20
-0.1203738910047071
 10
0.1915501646187505
 20
-0.1213759283424622
 10
0.1874475117150024
 20
-0.12214629833299
 10
0.1832328832020841
 20
-0.1224308103196142
  0
LWPOLYLINE
  5
BAA
330
BA7
100
AcDbEntity
  8
BLOCKS
  6
Continuous
100
AcDbPolyline
 90
        5
 70
   128
 43
0.0
 10
0.1290201213353368
 20
-0.0209601725284222
 10
0.1338905629843549
 20
-0.0216493683504348
 10
0.1399839484613341
 20
-0.0229308275484402
 10
0.1430001398294399
 20
-0.0238249742381424
 10
0.1459497767544809
 20
-0.0249824648813535
  0
LWPOLYLINE
  5
BAB
330
BA7
100
AcDbEntity
  8
BLOCKS
  6
Continuous
100
AcDbPolyline
 90
       14
 70
   128
 43
0.0
 10
0.1271162997083167
 20
-0.0296510050329755
 10
0.1338396100647179
 20
-0.0350199034927675
 10
0.1403367910603475
 20
-0.0406607999146684
 10
0.146596865351633
 20
-0.0465641636948328
 10
0.1526092561997513
 20
-0.0527200207764156
 10
0.1583638053406622
 20
-0.0591179705013121
 10
0.1638507901480199
 20
-0.0657472031825967
 10
0.1690609400600834
 20
-0.0725965183681262
 10
0.1739854522428715
 20
-0.0796543437642834
 10
0.1786160064630013
 20
-0.0869087547880202
 10
0.1829447791451849
 20
-0.0943474947140965
 10
0.1869644565905793
 20
-0.1019579953834716
 10
0.1906682473337179
 20
-0.1097273984379228
 10
0.1940498936170326
 20
-0.117642577044918
  0
LWPOLYLINE
  5
BAC
330
BA7
100
AcDbEntity
  8
BLOCKS
  6
Continuous
100
AcDbPolyline
 90
        3
 70
   128
 43
0.0
 10
0.111022113353477
 20
-0.0281047929516092
 10
0.1190692065308968
 20
-0.0284578974358817
 10
0.1271162997083167
 20
-0.0296510050329755
  0
LWPOLYLINE
  5
BAD
330
BA7
100
AcDbEntity
  8
BLOCKS
  6
Continuous
100
AcDbPolyline
 90
        3
 70
   128
 43
0.0
 10
0.1290201213353276
 20
-0.0209601725284222
 10
0.1201183571070425
 20
-0.0196348837040921
 10
0.111022113353477
 20
-0.019226893959318
  0
LWPOLYLINE
  5
BAE
330
BA7
100
AcDbEntity
  8
BLOCKS
  6
Continuous
100
AcDbPolyline
 90
        6
 70
   128
 43
0.0
 10
0.0129842575858339
 20
-0.1241970605117228
 10
0.013227173802573
 20
-0.1243192887362704
 10
0.0134890514753198
 20
-0.1245841051575201
 10
0.0134015698003196
 20
-0.1248506502258249
 10
0.0129669945070265
 20
-0.1251120205639188
 10
0.0124358094315477
 20
-0.1252959144755471
  0
LWPOLYLINE
  5
BAF
330
BA7
100
AcDbEntity
  8
BLOCKS
  6
Continuous
100
AcDbPolyline
 90
        3
 70
   128
 43
0.0
 10
0.0125700188467846
 20
-0.124120686695004
 10
0.0126643601157531
 20
-0.1241579708652387
 10
0.0127046044228092
 20
-0.1241795021356018
  0
LWPOLYLINE
  5
BB0
330
BA7
100
AcDbEntity
  8
BLOCKS
  6
Continuous
100
AcDbPolyline
 90
        6
 70
   128
 43
0.0
 10
-0.0129512351762122
 20
-0.1251186492687714
 10
-0.0129669945070208
 20
-0.1251120205639188
 10
-0.0134015698003231
 20
-0.1248506502258249
 10
-0.0134890514753141
 20
-0.1245841051575201
 10
-0.0132271738025674
 20
-0.1243192887362704
 10
-0.0131326012584913
 20
-0.1242667716797575
  0
LWPOLYLINE
  5
BB1
330
BA7
100
AcDbEntity
  8
BLOCKS
  6
Continuous
100
AcDbPolyline
 90
        9
 70
   128
 43
0.0
 10
0.0000000000000028
 20
-0.126308441212683
 10
-0.0021655522915779
 20
-0.1262869758371687
 10
-0.0042750179163221
 20
-0.1262231356525797
 10
-0.0062737628225904
 20
-0.1261185740861595
 10
-0.0081100205672072
 20
-0.125975999227561
 10
-0.0097362330391451
 20
-0.1257991036907208
 10
-0.0111102821895628
 20
-0.1255924689771325
 10
-0.0121965808672366
 20
-0.1253614468173339
 10
-0.0129512351762122
 20
-0.1251186492687714
  0
LWPOLYLINE
  5
BB2
330
BA7
100
AcDbEntity
  8
BLOCKS
  6
Continuous
100
AcDbPolyline
 90
        3
 70
   128
 43
0.0
 10
-0.012703812460847
 20
-0.1241754995991971
 10
-0.012711485142724
 20
-0.1241835188668176
 10
-0.0126512899445214
 20
-0.1241551035672148
  0
LWPOLYLINE
  5
BB3
330
BA7
100
AcDbEntity
  8
BLOCKS
  6
Continuous
100
AcDbPolyline
 90
        9
 70
   128
 43
0.0
 10
0.0124358094315477
 20
-0.1252959144755471
 10
0.0121965808672422
 20
-0.1253614468173339
 10
0.0111102821895594
 20
-0.1255924689771325
 10
0.0097362330391417
 20
-0.1257991036907208
 10
0.0081100205672129
 20
-0.125975999227561
 10
0.006273762822596
 20
-0.1261185740861595
 10
0.0042750179163187
 20
-0.1262231356525797
 10
0.0021655522915836
 20
-0.1262869758371687
 10
0.0000000000000028
 20
-0.126308441212683
  0
LWPOLYLINE
  5
BB4
330
BA7
100
AcDbEntity
  8
BLOCKS
  6
Continuous
100
AcDbPolyline
 90
       18
 70
   128
 43
0.0
 10
-0.0131326012584913
 20
-0.1242667716797575
 10
-0.012622719276248
 20
-0.1240630595682762
 10
-0.0116913429510868
 20
-0.1238220538543976
 10
-0.0104571669846763
 20
-0.1236025135160378
 10
-0.0089521558862515
 20
-0.1234101245326326
 10
-0.0072152886527209
 20
-0.1232498696777986
 10
-0.0052915492331039
 20
-0.1231258994680968
 10
-0.003230761467882
 20
-0.1230414246668408
 10
-0.00108629867768
 20
-0.1229986331270118
 10
0.0010862986776766
 20
-0.1229986331270118
 10
0.0032307614678786
 20
-0.1230414246668408
 10
0.0052915492331096
 20
-0.1231258994680968
 10
0.0072152886527266
 20
-0.1232498696777964
 10
0.0089521558862572
 20
-0.1234101245326326
 10
0.0104571669846729
 20
-0.1236025135160378
 10
0.0116913429510925
 20
-0.1238220538543976
 10
0.0126227192762536
 20
-0.1240630595682762
 10
0.0129842575858339
 20
-0.1241970605117228
  0
LWPOLYLINE
  5
BB5
330
BA7
100
AcDbEntity
  8
BLOCKS
  6
Continuous
100
AcDbPolyline
 90
       38
 70
   128
 43
0.0
 10
0.0000000000000028
 20
-0.0750348994967033
 10
-0.0012544534853777
 20
-0.0749976275800725
 10
-0.004543962757013
 20
-0.0745380969354176
 10
-0.0077190371905243
 20
-0.073565043621403
 10
-0.0104925981921832
 20
-0.0722062019673115
 10
-0.013021300171983
 20
-0.0704347695315494
 10
-0.0151028952619771
 20
-0.0684201709478919
 10
-0.0168435461626876
 20
-0.0661060481225638
 10
-0.0181516793699456
 20
-0.0636086196612075
 10
-0.0190374176583527
 20
-0.0609329827496879
 10
-0.0194610325346884
 20
-0.0581435744336852
 10
-0.0194116208437816
 20
-0.0553227835153996
 10
-0.0187772503732384
 20
-0.0521789145715627
 10
-0.017565726784157
 20
-0.0492234300150824
 10
-0.0158391296916915
 20
-0.0465343906381929
 10
-0.01347859478619
 20
-0.0440293334307137
 10
-0.0107043352729551
 20
-0.0419885847620242
 10
-0.0075146537855352
 20
-0.0404268972925627
 10
-0.0041023959202875
 20
-0.0394376063736434
 10
0.0000000000000028
 20
-0.0390348994967019
 10
0.002790733798459
 20
-0.0392201255773023
 10
0.0064319856599951
 20
-0.0400444482825435
 10
0.0098652516900466
 20
-0.0415076458904798
 10
0.0124681443365654
 20
-0.0431959552933665
 10
0.0147667073277745
 20
-0.0452777790683774
 10
0.0175208532333119
 20
-0.0491323921893525
 10
0.0186266009904131
 20
-0.0517127862274026
 10
0.0192961259021405
 20
-0.0544383729389927
 10
0.0194952636545196
 20
-0.0573267340336304
 10
0.0191950427956755
 20
-0.060206392667991
 10
0.0183190377692637
 20
-0.0631978590020356
 10
0.0169196799245521
 20
-0.0659844849730678
 10
0.0148680573597659
 20
-0.0686788271398348
 10
0.0123604358243876
 20
-0.0709578367592656
 10
0.0091804752108084
 20
-0.0729129339072858
 10
0.0056935229531547
 20
-0.0742508205724914
 10
0.0028737072737141
 20
-0.0748376527684411
 10
0.0000000000000028
 20
-0.0750348994967033
  0
CIRCLE
  5
BB6
330
BA7
100
AcDbEntity
  8
BLOCKS
  6
Continuous
100
AcDbCircle
 10
0.0
 20
-0.2049999999999983
 30
0.0
 40
0.025
  0
CIRCLE
  5
BB7
330
BA7
100
AcDbEntity
  8
BLOCKS
  6
Continuous
100
AcDbCircle
 10
0.0
 20
-0.2049999999999983
 30
0.0
 40
0.025
  0
LWPOLYLINE
  5
BB8
330
BA7
100
AcDbEntity
  8
BLOCKS
  6
Continuous
100
AcDbPolyline
 90
        4
 70
   128
 43
0.0
 10
-0.0391120133357771
 20
-0.1355055319939436
 10
0.0000000000000028
 20
-0.1355306455372909
 10
0.0321577411889604
 20
-0.1355131908412102
 10
0.0391120133357828
 20
-0.1355055319939436
  0
LWPOLYLINE
  5
BB9
330
BA7
100
AcDbEntity
  8
BLOCKS
  6
Continuous
100
AcDbPolyline
 90
        5
 70
   128
 43
0.0
 10
-0.1290201213353401
 20
-0.0209601725284267
 10
-0.1338905629843583
 20
-0.0216493683504393
 10
-0.1399839484613284
 20
-0.0229308275484425
 10
-0.1430001398294343
 20
-0.0238249742381447
 10
-0.1459497767544752
 20
-0.0249824648813535
  0
LWPOLYLINE
  5
BBA
330
BA7
100
AcDbEntity
  8
BLOCKS
  6
Continuous
100
AcDbPolyline
 90
       10
 70
   128
 43
0.0
 10
-0.1940498936170269
 20
-0.1176425770449225
 10
-0.1945906861930843
 20
-0.1181950423382693
 10
-0.1948339387477125
 20
-0.1186285240051814
 10
-0.1949108925054651
 20
-0.1190117924171375
 10
-0.194852304985522
 20
-0.1193889141036095
 10
-0.1946127610314824
 20
-0.1198134318536506
 10
-0.1939729423178477
 20
-0.1203738910047116
 10
-0.1915501646187539
 20
-0.1213759283424667
 10
-0.1874475117149967
 20
-0.1221462983329923
 10
-0.1832328832020784
 20
-0.1224308103196165
  0
LWPOLYLINE
  5
BBB
330
BA7
100
AcDbEntity
  8
BLOCKS
  6
Continuous
100
AcDbPolyline
 90
       14
 70
   128
 43
0.0
 10
-0.127116299708311
 20
-0.0296510050329778
 10
-0.1338396100647122
 20
-0.0350199034927698
 10
-0.140336791060351
 20
-0.0406607999146684
 10
-0.1465968653516364
 20
-0.0465641636948328
 10
-0.1526092561997456
 20
-0.0527200207764202
 10
-0.1583638053406565
 20
-0.0591179705013121
 10
-0.1638507901480142
 20
-0.0657472031825989
 10
-0.1690609400600869
 20
-0.0725965183681262
 10
-0.1739854522428749
 20
-0.0796543437642856
 10
-0.1786160064630047
 20
-0.0869087547880224
 10
-0.1829447791451793
 20
-0.0943474947140965
 10
-0.1869644565905827
 20
-0.1019579953834761
 10
-0.1906682473337213
 20
-0.1097273984379228
 10
-0.1940498936170269
 20
-0.1176425770449225
  0
LWPOLYLINE
  5
BBC
330
BA7
100
AcDbEntity
  8
BLOCKS
  6
Continuous
100
AcDbPolyline
 90
        9
 70
   128
 43
0.0
 10
-0.1832328832020784
 20
-0.1224308103196165
 10
-0.1447483660223378
 20
-0.1262575873947037
 10
-0.1253412166492916
 20
-0.1281472224398533
 10
-0.1057539357344166
 20
-0.1300089532471873
 10
-0.0897243771466191
 20
-0.1314842839596406
 10
-0.0734229720363118
 20
-0.1329143610944459
 10
-0.0622837334934292
 20
-0.1338368868363602
 10
-0.0508770263810374
 20
-0.1347098653459613
 10
-0.0391120133357771
 20
-0.1355055319939459
  0
LWPOLYLINE
  5
BBD
330
BA7
100
AcDbEntity
  8
BLOCKS
  6
Continuous
100
AcDbPolyline
 90
        3
 70
   128
 43
0.0
 10
-0.1110221133534804
 20
-0.0281047929516092
 10
-0.1190692065308912
 20
-0.0284578974358863
 10
-0.127116299708311
 20
-0.0296510050329778
  0
LWPOLYLINE
  5
BBE
330
BA7
100
AcDbEntity
  8
BLOCKS
  6
Continuous
100
AcDbPolyline
 90
        3
 70
   128
 43
0.0
 10
-0.129020121335331
 20
-0.0209601725284267
 10
-0.1201183571070459
 20
-0.0196348837040921
 10
-0.1110221133534804
 20
-0.019226893959318
  0
ARC
  5
BBF
330
BA7
100
AcDbEntity
  8
BLOCKS
  6
Continuous
100
AcDbCircle
 10
-0.4113088863615741
 20
-0.0050000000000023
 30
0.0
 40
0.005
100
AcDbArc
 50
90.0
 51
168.3237747095721
  0
LWPOLYLINE
  5
BC0
330
BA7
100
AcDbEntity
  8
BLOCKS
  6
Continuous
100
AcDbPolyline
 90
        9
 70
   128
 43
0.0
 10
0.1832328832020841
 20
-0.1224308103196142
 10
0.1447483660223526
 20
-0.1262575873947014
 10
0.1253412166492882
 20
-0.1281472224398533
 10
0.1057539357344223
 20
-0.130008953247185
 10
0.0897243771466248
 20
-0.1314842839596361
 10
0.0734229720363084
 20
-0.1329143610944459
 10
0.0622837334934349
 20
-0.1338368868363557
 10
0.050877026381034
 20
-0.1347098653459568
 10
0.0391120133357828
 20
-0.1355055319939436
  0
LINE
  5
BC1
330
BA7
100
AcDbEntity
  8
BLOCKS
  6
Continuous
100
AcDbLine
 10
-0.1940498936170269
 20
-0.1176425770449225
 30
0.0
 11
0.1940498936170343
 21
-0.117642577044918
 31
0.0
  0
LINE
  5
BC2
330
BA7
100
AcDbEntity
  8
BLOCKS
  6
Continuous
100
AcDbLine
 10
0.1110221133534782
 20
-0.0281047929516046
 30
0.0
 11
-0.1110221133534782
 21
-0.0281047929516092
 31
0.0
  0
LINE
  5
BC3
330
BA7
100
AcDbEntity
  8
BLOCKS
  6
Continuous
100
AcDbLine
 10
-0.1110221133534782
 20
-0.0192268939593169
 30
0.0
 11
0.1110221133534782
 21
-0.0192268939593134
 31
0.0
  0
LINE
  5
BC4
330
BA7
100
AcDbEntity
  8
BLOCKS
  6
Continuous
100
AcDbLine
 10
-0.4113088863615741
 20
-0.0000000000000034
 30
0.0
 11
0.411308886361582
 21
0.0000000000000034
 31
0.0
  0
ARC
  5
BC5
330
BA7
100
AcDbEntity
  8
BLOCKS
  6
Continuous
100
AcDbCircle
 10
0.0
 20
-0.2049999999999983
 30
0.0
 40
0.2317491106452715
100
AcDbArc
 50
129.0335182193071
 51
50.96648178069372
  0
ARC
  5
BC6
330
BA7
100
AcDbEntity
  8
BLOCKS
  6
Continuous
100
AcDbCircle
 10
0.0
 20
-0.2049999999999983
 30
0.0
 40
0.0777210258301168
100
AcDbArc
 50
116.6047435268858
 51
63.39200871856128
  0
ARC
  5
BC7
330
BA7
100
AcDbEntity
  8
BLOCKS
  6
Continuous
100
AcDbCircle
 10
0.0
 20
-0.0899999999999989
 30
0.0
 40
0.4250000000000006
100
AcDbArc
 50
168.3237747095731
 51
11.67622529042778
  0
ENDBLK
  5
BC9
330
BA7
100
AcDbEntity
  8
0
100
AcDbBlockEnd
  0
ENDSEC
  0
SECTION
  2
ENTITIES
  0
ARC
  5
10F0
330
1F
100
AcDbEntity
  8
SANINDUSA
  6
Continuous
100
AcDbCircle
 10
794.4028104396843
 20
977.1447102326531
 30
0.0
 40
0.005
100
AcDbArc
 50
0.0
 51
90.0
  0
ARC
  5
10F1
330
1F
100
AcDbEntity
  8
SANINDUSA
  6
Continuous
100
AcDbCircle
 10
794.4038104396843
 20
977.113399296593
 30
0.0
 40
0.0040000000000026
100
AcDbArc
 50
286.026731389721
 51
0.0
  0
ARC
  5
10F2
330
1F
100
AcDbEntity
  8
SANINDUSA
  6
Continuous
100
AcDbCircle
 10
794.4060191261098
 20
977.1057102326532
 30
0.0
 40
0.004
100
AcDbArc
 50
106.0267313899609
 51
167.4711922908405
  0
LINE
  5
10F3
330
1F
100
AcDbEntity
  8
SANINDUSA
  6
Continuous
100
AcDbLine
 10
794.4078104396843
 20
977.113399296593
 30
0.0
 11
794.4078104396843
 21
977.1447102326531
 31
0.0
  0
ARC
  5
10F6
330
1F
100
AcDbEntity
  8
SANINDUSA
  6
Continuous
100
AcDbCircle
 10
794.3412060964716
 20
976.841710232653
 30
0.0
 40
0.0020000000000003
100
AcDbArc
 50
270.0
 51
347.4711922908406
  0
ARC
  5
10F7
330
1F
100
AcDbEntity
  8
SANINDUSA
  6
Continuous
100
AcDbCircle
 10
794.084414782897
 20
976.841710232653
 30
0.0
 40
0.002
100
AcDbArc
 50
192.5288077091594
 51
270.0
  0
LINE
  5
10F9
330
1F
100
AcDbEntity
  8
SANINDUSA
  6
Continuous
100
AcDbLine
 10
794.3412060964716
 20
976.8397102326529
 30
0.0
 11
794.084414782897
 21
976.8397102326529
 31
0.0
  0
LINE
  5
10FA
330
1F
100
AcDbEntity
  8
SANINDUSA
  6
Continuous
100
AcDbLine
 10
794.343158470592
 20
976.8412763717375
 30
0.0
 11
794.4021143778691
 21
977.1065779544843
 31
0.0
  0
ARC
  5
10FC
330
1F
100
AcDbEntity
  8
SANINDUSA
  6
Continuous
100
AcDbCircle
 10
794.0228104396843
 20
977.1447102326531
 30
0.0
 40
0.005
100
AcDbArc
 50
90.0
 51
180.0
  0
ARC
  5
10FD
330
1F
100
AcDbEntity
  8
SANINDUSA
  6
Continuous
100
AcDbCircle
 10
794.0218104396843
 20
977.113399296593
 30
0.0
 40
0.0040000000000027
100
AcDbArc
 50
180.0
 51
253.973268610279
  0
ARC
  5
10FE
330
1F
100
AcDbEntity
  8
SANINDUSA
  6
Continuous
100
AcDbCircle
 10
794.0196017532589
 20
977.1057102326532
 30
0.0
 40
0.0040000000000003
100
AcDbArc
 50
12.52880770915945
 51
73.97326861003907
  0
LINE
  5
10FF
330
1F
100
AcDbEntity
  8
SANINDUSA
  6
Continuous
100
AcDbLine
 10
794.0178104396843
 20
977.1447102326531
 30
0.0
 11
794.0178104396843
 21
977.113399296593
 31
0.0
  0
LINE
  5
1100
330
1F
100
AcDbEntity
  8
SANINDUSA
  6
Continuous
100
AcDbLine
 10
794.0235065014996
 20
977.1065779544843
 30
0.0
 11
794.0824624087767
 21
976.8412763717375
 31
0.0
  0
LINE
  5
1101
330
1F
100
AcDbEntity
  8
SANINDUSA
  6
Continuous
100
AcDbLine
 10
794.404914782897
 20
977.1095547646231
 30
0.0
 11
794.0207060964715
 21
977.1095547646231
 31
0.0
  0
LINE
  5
1104
330
1F
100
AcDbEntity
  8
SANINDUSA
  6
Continuous
100
AcDbLine
 10
794.0228104396843
 20
977.1497102326531
 30
0.0
 11
794.4028104396843
 21
977.1497102326531
 31
0.0
  0
ARC
  5
1149
330
1F
100
AcDbEntity
  8
SANINDUSA
  6
Continuous
100
AcDbCircle
 10
795.2309681261472
 20
977.118690709053
 30
0.0
 40
0.001
100
AcDbArc
 50
90.0
 51
167.4711922908405
  0
ARC
  5
114A
330
1F
100
AcDbEntity
  8
SANINDUSA
  6
Continuous
100
AcDbCircle
 10
795.2321876706045
 20
977.120690709053
 30
0.0
 40
0.001
100
AcDbArc
 50
270.0
 51
0.0
  0
ARC
  5
114B
330
1F
100
AcDbEntity
  8
SANINDUSA
  6
Continuous
100
AcDbCircle
 10
795.2321876706045
 20
977.138690709053
 30
0.0
 40
0.001
100
AcDbArc
 50
0.0
 51
90.0
  0
ARC
  5
114C
330
1F
100
AcDbEntity
  8
SANINDUSA
  6
Continuous
100
AcDbCircle
 10
795.2179571976419
 20
977.138690709053
 30
0.0
 40
0.001
100
AcDbArc
 50
90.0
 51
172.999999999994
  0
ARC
  5
114D
330
1F
100
AcDbEntity
  8
SANINDUSA
  6
Continuous
100
AcDbCircle
 10
795.2381876706044
 20
977.1446907090531
 30
0.0
 40
0.005
100
AcDbArc
 50
0.0
 51
90.0
  0
ARC
  5
114E
330
1F
100
AcDbEntity
  8
SANINDUSA
  6
Continuous
100
AcDbCircle
 10
795.2391876706045
 20
977.113379772993
 30
0.0
 40
0.0040000000000028
100
AcDbArc
 50
286.026731389721
 51
0.0
  0
ARC
  5
114F
330
1F
100
AcDbEntity
  8
SANINDUSA
  6
Continuous
100
AcDbCircle
 10
795.2413963570299
 20
977.105690709053
 30
0.0
 40
0.0040000000000006
100
AcDbArc
 50
106.0267313899609
 51
167.4711922908405
  0
LINE
  5
1150
330
1F
100
AcDbEntity
  8
SANINDUSA
  6
Continuous
100
AcDbLine
 10
795.2331876706044
 20
977.120690709053
 30
0.0
 11
795.2331876706044
 21
977.138690709053
 31
0.0
  0
LINE
  5
1151
330
1F
100
AcDbEntity
  8
SANINDUSA
  6
Continuous
100
AcDbLine
 10
795.2431876706044
 20
977.1446907090531
 30
0.0
 11
795.2431876706044
 21
977.113379772993
 31
0.0
  0
LWPOLYLINE
  5
1152
330
1F
100
AcDbEntity
  8
SANINDUSA
  6
Continuous
100
AcDbPolyline
 90
        6
 70
   128
 43
0.0
 10
795.2126513266347
 20
977.1496907090531
 10
795.2109948504385
 20
977.149408635249
 10
795.2095251256938
 20
977.1485941217086
 10
795.2084082656006
 20
977.1473391835909
 10
795.2077703144269
 20
977.1457859344334
 10
795.2076860784725
 20
977.1452997558643
  0
LINE
  5
1154
330
1F
100
AcDbEntity
  8
SANINDUSA
  6
Continuous
100
AcDbLine
 10
795.2309681261472
 20
977.119690709053
 30
0.0
 11
795.2321876706045
 21
977.119690709053
 31
0.0
  0
LINE
  5
1155
330
1F
100
AcDbEntity
  8
SANINDUSA
  6
Continuous
100
AcDbLine
 10
795.2321876706045
 20
977.1396907090531
 30
0.0
 11
795.2179571976419
 21
977.1396907090531
 31
0.0
  0
LINE
  5
1156
330
1F
100
AcDbEntity
  8
SANINDUSA
  6
Continuous
100
AcDbLine
 10
795.2126513266346
 20
977.1496907090531
 30
0.0
 11
795.2381876706044
 21
977.1496907090531
 31
0.0
  0
LWPOLYLINE
  5
1158
330
1F
100
AcDbEntity
  8
SANINDUSA
  6
Continuous
100
AcDbPolyline
 90
        5
 70
   128
 43
0.0
 10
795.1634928901957
 20
977.0016385641525
 10
795.1635978052633
 20
977.0029775462429
 10
795.1641400167147
 20
977.0042063208219
 10
795.1650583942654
 20
977.0051863527076
 10
795.1662069823206
 20
977.0057932174271
  0
LWPOLYLINE
  5
1159
330
1F
100
AcDbEntity
  8
SANINDUSA
  6
Continuous
100
AcDbPolyline
 90
        6
 70
   128
 43
0.0
 10
795.1523681676873
 20
977.002916982656
 10
795.1527028159269
 20
977.0028895424514
 10
795.1530095167801
 20
977.0027528786464
 10
795.1532536920575
 20
977.0025223990465
 10
795.1534078128514
 20
977.0022240884706
 10
795.1534509665711
 20
977.0020096854237
  0
LINE
  5
115A
330
1F
100
AcDbEntity
  8
SANINDUSA
  6
Continuous
100
AcDbLine
 10
795.1471619914581
 20
977.002690709053
 30
0.0
 11
795.1523682514364
 21
977.0029169899499
 31
0.0
  0
LWPOLYLINE
  5
115D
330
1F
100
AcDbEntity
  8
SANINDUSA
  6
Continuous
100
AcDbPolyline
 90
       13
 70
   128
 43
0.0
 10
795.1969935731447
 20
977.058215870182
 10
795.1959069039385
 20
977.052296165657
 10
795.194127129873
 20
977.0465925157768
 10
795.1916542509484
 20
977.0411049205414
 10
795.1885565169283
 20
977.0359601028836
 10
795.1848889108652
 20
977.0312594724154
 10
795.1806514327592
 20
977.0270030291367
 10
795.1759407393683
 20
977.0232769531666
 10
795.170853045295
 20
977.0201670301869
 10
795.1653883505391
 20
977.0176732601974
 10
795.1596543242867
 20
977.0158389273442
 10
795.1537839996314
 20
977.0147171222143
 10
795.1477773765732
 20
977.014307844808
  0
LWPOLYLINE
  5
115E
330
1F
100
AcDbEntity
  8
SANINDUSA
  6
Continuous
100
AcDbPolyline
 90
        9
 70
   128
 43
0.0
 10
795.1662069030081
 20
977.0057931908821
 10
795.1739832314753
 20
977.0090153231004
 10
795.1812292136419
 20
977.0132989209356
 10
795.1878152861344
 20
977.0185562583277
 10
795.1935956543751
 20
977.0246884153303
 10
795.19846887271
 20
977.0315731798662
 10
795.2023233425745
 20
977.0390759363206
 10
795.2051015980734
 20
977.0470736813702
 10
795.2067207245408
 20
977.0553839815518
  0
LINE
  5
115F
330
1F
100
AcDbEntity
  8
SANINDUSA
  6
Continuous
100
AcDbLine
 10
795.1969935225689
 20
977.0582158763854
 30
0.0
 11
795.2076860784725
 21
977.1452997558645
 31
0.0
  0
LINE
  5
1160
330
1F
100
AcDbEntity
  8
SANINDUSA
  6
Continuous
100
AcDbLine
 10
795.2169646514902
 20
977.1388125783964
 30
0.0
 11
795.2067209051372
 21
977.0553839593773
 31
0.0
  0
LWPOLYLINE
  5
1161
330
1F
100
AcDbEntity
  8
SANINDUSA
  6
Continuous
100
AcDbPolyline
 90
        6
 70
   128
 43
0.0
 10
794.8886892627364
 20
977.1452997558643
 10
794.8882079000347
 20
977.146907656258
 10
794.8872214979568
 20
977.1482655977646
 10
794.8858409505825
 20
977.1492209472988
 10
794.8842212782892
 20
977.1496659453092
 10
794.8837240145743
 20
977.1496907090531
  0
LWPOLYLINE
  5
1163
330
1F
100
AcDbEntity
  8
SANINDUSA
  6
Continuous
100
AcDbPolyline
 90
       20
 70
   128
 43
0.0
 10
794.8911386100803
 20
977.1257297787622
 10
794.8912663657344
 20
977.1252927847289
 10
794.8914432152387
 20
977.1244967373778
 10
794.8916681840192
 20
977.1233586630192
 10
794.8919334421459
 20
977.121917815376
 10
794.8922326682251
 20
977.1201933643508
 10
794.8925492971018
 20
977.118251289476
 10
794.8928894684028
 20
977.1160005397454
 10
794.8932162850854
 20
977.1136327340144
 10
794.8934985524933
 20
977.1113588292729
 10
794.8937481286583
 20
977.1091078536146
 10
794.8939593584237
 20
977.1069453493153
 10
794.894131946863
 20
977.1049310919451
 10
794.8942654650119
 20
977.1031387835913
 10
794.8943632927515
 20
977.1016033336573
 10
794.8944260009612
 20
977.1003785317558
 10
794.89445320086
 20
977.0994888639522
 10
794.8943971751779
 20
977.0988125550044
 10
794.8943971732988
 20
977.0988125548647
 10
794.8943971732988
 20
977.0988125548647
  0
LWPOLYLINE
  5
1164
330
1F
100
AcDbEntity
  8
SANINDUSA
  6
Continuous
100
AcDbPolyline
 90
        6
 70
   128
 43
0.0
 10
794.8900889450058
 20
977.124690709053
 10
794.8904202592034
 20
977.1247471259005
 10
794.8907142211282
 20
977.1249100383331
 10
794.8909375906183
 20
977.1251610342087
 10
794.8910651615662
 20
977.1254716710002
 10
794.8910819991049
 20
977.1258124819684
  0
LWPOLYLINE
  5
1165
330
1F
100
AcDbEntity
  8
SANINDUSA
  6
Continuous
100
AcDbPolyline
 90
        6
 70
   128
 43
0.0
 10
794.8943971732988
 20
977.0988125548647
 10
794.8943009071907
 20
977.0991341174584
 10
794.8941036375317
 20
977.0994056910668
 10
794.8938275488523
 20
977.099596747732
 10
794.8935036267502
 20
977.0996857521152
 10
794.8934041281623
 20
977.099690709053
  0
ARC
  5
1166
330
1F
100
AcDbEntity
  8
SANINDUSA
  6
Continuous
100
AcDbCircle
 10
794.8853445456541
 20
977.0986907090529
 30
0.0
 40
0.0010000000000001
100
AcDbArc
 50
90.0
 51
187.000000000006
  0
LINE
  5
1167
330
1F
100
AcDbEntity
  8
SANINDUSA
  6
Continuous
100
AcDbLine
 10
794.8934041281623
 20
977.099690709053
 30
0.0
 11
794.8853445456541
 21
977.099690709053
 31
0.0
  0
LINE
  5
1168
330
1F
100
AcDbEntity
  8
SANINDUSA
  6
Continuous
100
AcDbLine
 10
794.8886892627364
 20
977.1452997558645
 30
0.0
 11
794.8910819991049
 21
977.1258124819684
 31
0.0
  0
ARC
  5
1169
330
1F
100
AcDbEntity
  8
SANINDUSA
  6
Continuous
100
AcDbCircle
 10
794.8775334183025
 20
977.137690709053
 30
0.0
 40
0.0019999999999999
100
AcDbArc
 50
7.000000000006003
 51
90.0
  0
LINE
  5
116A
330
1F
100
AcDbEntity
  8
SANINDUSA
  6
Continuous
100
AcDbLine
 10
794.8775334183025
 20
977.1396907090531
 30
0.0
 11
794.8675429918518
 21
977.1396907090531
 31
0.0
  0
ARC
  5
116B
330
1F
100
AcDbEntity
  8
SANINDUSA
  6
Continuous
100
AcDbCircle
 10
794.8675429918518
 20
977.137690709053
 30
0.0
 40
0.0020000000000001
100
AcDbArc
 50
90.0
 51
189.3280926346473
  0
ARC
  5
116C
330
1F
100
AcDbEntity
  8
SANINDUSA
  6
Continuous
100
AcDbCircle
 10
794.8581876706044
 20
977.1446907090531
 30
0.0
 40
0.0050000000000001
100
AcDbArc
 50
90.0
 51
153.6122000387616
  0
LINE
  5
1172
330
1F
100
AcDbEntity
  8
SANINDUSA
  6
Continuous
100
AcDbLine
 10
794.8501254128562
 20
977.1446907090531
 30
0.0
 11
794.8341876706044
 21
977.1446907090531
 31
0.0
  0
ARC
  5
1173
330
1F
100
AcDbEntity
  8
SANINDUSA
  6
Continuous
100
AcDbCircle
 10
794.8341876706044
 20
977.143690709053
 30
0.0
 40
0.0010000000000008
100
AcDbArc
 50
90.00000000005213
 51
180.0
  0
ARC
  5
1174
330
1F
100
AcDbEntity
  8
SANINDUSA
  6
Continuous
100
AcDbCircle
 10
794.8501254128562
 20
977.1486907090531
 30
0.0
 40
0.0040000000000001
100
AcDbArc
 50
270.0
 51
333.6122000387617
  0
ARC
  5
1175
330
1F
100
AcDbEntity
  8
SANINDUSA
  6
Continuous
100
AcDbCircle
 10
794.8820293625097
 20
977.1256907090529
 30
0.0
 40
0.0009999999999999
100
AcDbArc
 50
187.0000000000568
 51
270.0
  0
ARC
  5
1176
330
1F
100
AcDbEntity
  8
SANINDUSA
  6
Continuous
100
AcDbCircle
 10
794.8551261249083
 20
977.127690709053
 30
0.0
 40
0.0040000000000001
100
AcDbArc
 50
9.431010840077766
 51
90.0
  0
ARC
  5
1177
330
1F
100
AcDbEntity
  8
SANINDUSA
  6
Continuous
100
AcDbCircle
 10
794.8341876706044
 20
977.132690709053
 30
0.0
 40
0.0009999999999999
100
AcDbArc
 50
180.0
 51
270.0
  0
LWPOLYLINE
  5
117C
330
1F
100
AcDbEntity
  8
SANINDUSA
  6
Continuous
100
AcDbPolyline
 90
        4
 70
   128
 43
0.0
 10
794.8252552907825
 20
977.1052065314325
 10
794.8259259655112
 20
977.106120771014
 10
794.8263691691805
 20
977.1068229393117
 10
794.8265570076819
 20
977.1071831036492
  0
LWPOLYLINE
  5
117F
330
1F
100
AcDbEntity
  8
SANINDUSA
  6
Continuous
100
AcDbPolyline
 90
        4
 70
   128
 43
0.0
 10
794.8259538383616
 20
977.1072793827087
 10
794.8261989053563
 20
977.1072962989741
 10
794.8264435015957
 20
977.1073299015109
 10
794.8266872184449
 20
977.107380134181
  0
LWPOLYLINE
  5
1180
330
1F
100
AcDbEntity
  8
SANINDUSA
  6
Continuous
100
AcDbPolyline
 90
        3
 70
   128
 43
0.0
 10
794.8265570076819
 20
977.1071831036492
 10
794.8266857568058
 20
977.1073779193736
 10
794.8266872184449
 20
977.107380134181
  0
LINE
  5
1181
330
1F
100
AcDbEntity
  8
SANINDUSA
  6
Continuous
100
AcDbLine
 10
794.8341876706044
 20
977.1316907090531
 30
0.0
 11
794.8551261249083
 21
977.1316907090531
 31
0.0
  0
LINE
  5
1183
330
1F
100
AcDbEntity
  8
SANINDUSA
  6
Continuous
100
AcDbLine
 10
794.8266872184449
 20
977.1073801341811
 30
0.0
 11
794.8623516864223
 21
977.1086018542401
 31
0.0
  0
LINE
  5
1184
330
1F
100
AcDbEntity
  8
SANINDUSA
  6
Continuous
100
AcDbLine
 10
794.8331876706045
 20
977.132690709053
 30
0.0
 11
794.8331876706045
 21
977.143690709053
 31
0.0
  0
LINE
  5
1185
330
1F
100
AcDbEntity
  8
SANINDUSA
  6
Continuous
100
AcDbLine
 10
794.8810368163581
 20
977.1255688397097
 30
0.0
 11
794.8795185106058
 21
977.1379344477399
 31
0.0
  0
LWPOLYLINE
  5
1186
330
1F
100
AcDbEntity
  8
SANINDUSA
  6
Continuous
100
AcDbPolyline
 90
       19
 70
   128
 43
0.0
 10
794.8843477510558
 20
977.0986746919509
 10
794.884334874606
 20
977.0989918486932
 10
794.8843017016411
 20
977.0997375832671
 10
794.8842467539066
 20
977.1008340314722
 10
794.8841648486593
 20
977.1022469565744
 10
794.8840504858882
 20
977.1039361310934
 10
794.8838994122967
 20
977.1058530363005
 10
794.8837071216151
 20
977.1079559272587
 10
794.8834752131373
 20
977.1101726662717
 10
794.8832035897472
 20
977.1124612644074
 10
794.8829024006619
 20
977.1147349500623
 10
794.8825814685326
 20
977.1169291020902
 10
794.8822549643904
 20
977.1189828879933
 10
794.8819360318374
 20
977.1208489380741
 10
794.8816435044435
 20
977.1224629063151
 10
794.8813947775824
 20
977.1237720957518
 10
794.8812031464005
 20
977.1247457912709
 10
794.8810795782844
 20
977.1253596746742
 10
794.8810368163581
 20
977.1255688397095
  0
LINE
  5
1187
330
1F
100
AcDbEntity
  8
SANINDUSA
  6
Continuous
100
AcDbLine
 10
794.8820293625097
 20
977.124690709053
 30
0.0
 11
794.8900889450058
 21
977.124690709053
 31
0.0
  0
LINE
  5
1188
330
1F
100
AcDbEntity
  8
SANINDUSA
  6
Continuous
100
AcDbLine
 10
794.8581876706044
 20
977.1496907090531
 30
0.0
 11
794.8837240145742
 21
977.1496907090531
 31
0.0
  0
ARC
  5
1189
330
1F
100
AcDbEntity
  8
SANINDUSA
  6
Continuous
100
AcDbCircle
 10
794.9975640351757
 20
977.0071110163573
 30
0.0
 40
0.0050000000000001
100
AcDbArc
 50
91.49999999998966
 51
129.9999999999926
  0
LINE
  5
118A
330
1F
100
AcDbEntity
  8
SANINDUSA
  6
Continuous
100
AcDbLine
 10
794.9974331504342
 20
977.0121093029823
 30
0.0
 11
795.0482095205061
 21
977.0134389290264
 31
0.0
  0
ARC
  5
118B
330
1F
100
AcDbEntity
  8
SANINDUSA
  6
Continuous
100
AcDbCircle
 10
795.0057774329102
 20
976.997690709053
 30
0.0
 40
0.0050000000000003
100
AcDbArc
 50
90.0
 51
175.1009075462252
  0
LINE
  5
118C
330
1F
100
AcDbEntity
  8
SANINDUSA
  6
Continuous
100
AcDbLine
 10
794.9982660647923
 20
976.9686053079118
 30
0.0
 11
795.000795699665
 21
976.9981177147597
 31
0.0
  0
LINE
  5
118D
330
1F
100
AcDbEntity
  8
SANINDUSA
  6
Continuous
100
AcDbLine
 10
794.9866876706045
 20
976.992690709053
 30
0.0
 11
794.9876876706045
 21
976.992690709053
 31
0.0
  0
ARC
  5
118E
330
1F
100
AcDbEntity
  8
SANINDUSA
  6
Continuous
100
AcDbCircle
 10
794.9866876706045
 20
976.9936907090531
 30
0.0
 40
0.0010000000000002
100
AcDbArc
 50
180.0
 51
270.0
  0
LINE
  5
118F
330
1F
100
AcDbEntity
  8
SANINDUSA
  6
Continuous
100
AcDbLine
 10
794.9856876706044
 20
976.9936907090531
 30
0.0
 11
794.9856876706044
 21
977.0013410613817
 31
0.0
  0
ARC
  5
1190
330
1F
100
AcDbEntity
  8
SANINDUSA
  6
Continuous
100
AcDbCircle
 10
794.9906876706044
 20
977.0013410613817
 30
0.0
 40
0.005
100
AcDbArc
 50
129.9999999999926
 51
180.0
  0
ARC
  5
1191
330
1F
100
AcDbEntity
  8
SANINDUSA
  6
Continuous
100
AcDbCircle
 10
794.9866876706045
 20
976.9766907090531
 30
0.0
 40
0.0010000000000002
100
AcDbArc
 50
90.0
 51
180.0
  0
LINE
  5
1192
330
1F
100
AcDbEntity
  8
SANINDUSA
  6
Continuous
100
AcDbLine
 10
794.9876871591091
 20
976.977690709053
 30
0.0
 11
794.9866876706045
 21
976.977690709053
 31
0.0
  0
LWPOLYLINE
  5
1193
330
1F
100
AcDbEntity
  8
SANINDUSA
  6
Continuous
100
AcDbPolyline
 90
        7
 70
   128
 43
0.0
 10
794.9886871382318
 20
976.978690709053
 10
794.9886169279986
 20
976.9783226143434
 10
794.9885229951348
 20
976.978141352947
 10
794.9883942511278
 20
976.9779836022719
 10
794.988236052302
 20
976.97785456184
 10
794.9880552461338
 20
976.9777609207519
 10
794.9876871591091
 20
976.977690709053
  0
LINE
  5
1194
330
1F
100
AcDbEntity
  8
SANINDUSA
  6
Continuous
100
AcDbLine
 10
794.9886876706044
 20
976.991690709053
 30
0.0
 11
794.9886876706044
 21
976.978690709053
 31
0.0
  0
ARC
  5
1195
330
1F
100
AcDbEntity
  8
SANINDUSA
  6
Continuous
100
AcDbCircle
 10
794.9876876706045
 20
976.991690709053
 30
0.0
 40
0.0010000000000002
100
AcDbArc
 50
0.0
 51
90.0
  0
LINE
  5
1196
330
1F
100
AcDbEntity
  8
SANINDUSA
  6
Continuous
100
AcDbLine
 10
794.9406876706044
 20
977.0013410613817
 30
0.0
 11
794.9406876706044
 21
976.9936907090531
 31
0.0
  0
LINE
  5
11A2
330
1F
100
AcDbEntity
  8
SANINDUSA
  6
Continuous
100
AcDbLine
 10
794.9866876706045
 20
976.9676907090531
 30
0.0
 11
794.9972697181433
 21
976.9676907090531
 31
0.0
  0
ARC
  5
11A3
330
1F
100
AcDbEntity
  8
SANINDUSA
  6
Continuous
100
AcDbCircle
 10
794.9866876706045
 20
976.968690709053
 30
0.0
 40
0.0010000000000002
100
AcDbArc
 50
180.0
 51
270.0
  0
LINE
  5
11A4
330
1F
100
AcDbEntity
  8
SANINDUSA
  6
Continuous
100
AcDbLine
 10
794.9856876706044
 20
976.9766907090531
 30
0.0
 11
794.9856876706044
 21
976.968690709053
 31
0.0
  0
LINE
  5
11A5
330
1F
100
AcDbEntity
  8
SANINDUSA
  6
Continuous
100
AcDbLine
 10
794.9406876706044
 20
976.968690709053
 30
0.0
 11
794.9406876706044
 21
976.9766907090531
 31
0.0
  0
ARC
  5
11A6
330
1F
100
AcDbEntity
  8
SANINDUSA
  6
Continuous
100
AcDbCircle
 10
794.9972697181433
 20
976.968690709053
 30
0.0
 40
0.0009999999999999
100
AcDbArc
 50
270.0
 51
355.1009075461467
  0
LINE
  5
11A7
330
1F
100
AcDbEntity
  8
SANINDUSA
  6
Continuous
100
AcDbLine
 10
794.9943500971272
 20
977.010941238573
 30
0.0
 11
794.987473732556
 21
977.0051712835973
 31
0.0
  0
LWPOLYLINE
  5
11AA
330
1F
100
AcDbEntity
  8
SANINDUSA
  6
Continuous
100
AcDbPolyline
 90
       10
 70
   128
 43
0.0
 10
794.9309714867988
 20
977.0104123436448
 10
794.9267435895852
 20
977.0108311983646
 10
794.9226163793444
 20
977.0118394924592
 10
794.9179368087376
 20
977.01379545672
 10
794.9136500254959
 20
977.016506089067
 10
794.9098942007472
 20
977.0198944629463
 10
794.9067562344636
 20
977.0238618702299
 10
794.9043360956259
 20
977.0283002529401
 10
794.9026901734567
 20
977.0330801231331
 10
794.9020063354867
 20
977.0367463972158
  0
LINE
  5
11AD
330
1F
100
AcDbEntity
  8
SANINDUSA
  6
Continuous
100
AcDbLine
 10
794.9389016086529
 20
977.0051712835973
 30
0.0
 11
794.9340473815197
 21
977.0092444637944
 31
0.0
  0
LINE
  5
11AE
330
1F
100
AcDbEntity
  8
SANINDUSA
  6
Continuous
100
AcDbLine
 10
794.9269627659227
 20
976.992690709053
 30
0.0
 11
794.9396876706044
 21
976.992690709053
 31
0.0
  0
ARC
  5
11AF
330
1F
100
AcDbEntity
  8
SANINDUSA
  6
Continuous
100
AcDbCircle
 10
794.9269627659227
 20
976.9936907090531
 30
0.0
 40
0.0009999999999999
100
AcDbArc
 50
184.8990924540624
 51
270.0
  0
LINE
  5
11B0
330
1F
100
AcDbEntity
  8
SANINDUSA
  6
Continuous
100
AcDbLine
 10
794.9251876706044
 20
977.002690709053
 30
0.0
 11
794.9259664192737
 21
976.9936053079117
 31
0.0
  0
LINE
  5
11B1
330
1F
100
AcDbEntity
  8
SANINDUSA
  6
Continuous
100
AcDbLine
 10
794.9376876706044
 20
976.977690709053
 30
0.0
 11
794.9268901181047
 21
976.9828288215503
 31
0.0
  0
ARC
  5
11B2
330
1F
100
AcDbEntity
  8
SANINDUSA
  6
Continuous
100
AcDbCircle
 10
794.9239454417152
 20
976.9703455979074
 30
0.0
 40
0.0040000000000001
100
AcDbArc
 50
4.899092453827075
 51
80.81607081124039
  0
LINE
  5
11B3
330
1F
100
AcDbEntity
  8
SANINDUSA
  6
Continuous
100
AcDbLine
 10
794.9396876706044
 20
976.977690709053
 30
0.0
 11
794.9376876706044
 21
976.977690709053
 31
0.0
  0
ARC
  5
11BC
330
1F
100
AcDbEntity
  8
SANINDUSA
  6
Continuous
100
AcDbCircle
 10
794.8913145879727
 20
976.9929711894459
 30
0.0
 40
0.0020000000000001
100
AcDbArc
 50
189.3280926346473
 51
257.1866321975678
  0
ARC
  5
11BD
330
1F
100
AcDbEntity
  8
SANINDUSA
  6
Continuous
100
AcDbCircle
 10
794.8856341665674
 20
976.976539643223
 30
0.0
 40
0.004
100
AcDbArc
 50
80.81607081124039
 51
128.0000000000129
  0
LINE
  5
11C2
330
1F
100
AcDbEntity
  8
SANINDUSA
  6
Continuous
100
AcDbLine
 10
794.9268901181047
 20
976.9828288215503
 30
0.0
 11
794.8908710359611
 21
976.9910209941702
 31
0.0
  0
LINE
  5
11C3
330
1F
100
AcDbEntity
  8
SANINDUSA
  6
Continuous
100
AcDbLine
 10
794.8862725837714
 20
976.9804883675075
 30
0.0
 11
794.924583858919
 21
976.9742943221917
 31
0.0
  0
LINE
  5
11C6
330
1F
100
AcDbEntity
  8
SANINDUSA
  6
Continuous
100
AcDbLine
 10
794.9291056230657
 20
976.9676907090531
 30
0.0
 11
794.9396876706044
 21
976.9676907090531
 31
0.0
  0
ARC
  5
11C7
330
1F
100
AcDbEntity
  8
SANINDUSA
  6
Continuous
100
AcDbCircle
 10
794.9291056230657
 20
976.968690709053
 30
0.0
 40
0.0009999999999999
100
AcDbArc
 50
184.8990924540624
 51
270.0
  0
LINE
  5
11C8
330
1F
100
AcDbEntity
  8
SANINDUSA
  6
Continuous
100
AcDbLine
 10
794.9279308283113
 20
976.9706872024729
 30
0.0
 11
794.9281092764165
 21
976.9686053079118
 31
0.0
  0
ARC
  5
11C9
330
1F
100
AcDbEntity
  8
SANINDUSA
  6
Continuous
100
AcDbCircle
 10
794.8696821983786
 20
976.9716907090531
 30
0.0
 40
0.0020000000000001
100
AcDbArc
 50
270.0
 51
308.0000000000129
  0
LINE
  5
11CA
330
1F
100
AcDbEntity
  8
SANINDUSA
  6
Continuous
100
AcDbLine
 10
794.8696821983786
 20
976.9696907090532
 30
0.0
 11
794.8599365829056
 21
976.9696907090532
 31
0.0
  0
ARC
  5
11CB
330
1F
100
AcDbEntity
  8
SANINDUSA
  6
Continuous
100
AcDbCircle
 10
794.8599365829056
 20
976.9716907090531
 30
0.0
 40
0.0020000000000001
100
AcDbArc
 50
128.0000000000129
 51
270.0
  0
LINE
  5
11CC
330
1F
100
AcDbEntity
  8
SANINDUSA
  6
Continuous
100
AcDbLine
 10
794.858705259955
 20
976.9732667305602
 30
0.0
 11
794.8799577509725
 21
976.9898709963197
 31
0.0
  0
ARC
  5
11CD
330
1F
100
AcDbEntity
  8
SANINDUSA
  6
Continuous
100
AcDbCircle
 10
794.8774951050711
 20
976.993023039334
 30
0.0
 40
0.0039999999999999
100
AcDbArc
 50
308.0000000000129
 51
9.431010840077766
  0
LINE
  5
11E6
330
1F
100
AcDbEntity
  8
SANINDUSA
  6
Continuous
100
AcDbLine
 10
794.8831715206662
 20
976.9796916862375
 30
0.0
 11
794.8709135213293
 21
976.9701146875458
 31
0.0
  0
ARC
  5
11E8
330
1F
100
AcDbEntity
  8
SANINDUSA
  6
Continuous
100
AcDbCircle
 10
794.9315764136951
 20
977.0421772125919
 30
0.0
 40
0.0399999999999999
100
AcDbArc
 50
187.000000000006
 51
260.8094381771369
  0
LWPOLYLINE
  5
11E9
330
1F
100
AcDbEntity
  8
SANINDUSA
  6
Continuous
100
AcDbPolyline
 90
        5
 70
   128
 43
0.0
 10
794.9340473815198
 20
977.0092444637944
 10
794.9333691418802
 20
977.0097235616812
 10
794.9325983728906
 20
977.0100923873824
 10
794.9318096971026
 20
977.0103180134135
 10
794.9309714867988
 20
977.0104123436448
  0
ARC
  5
11EE
330
1F
100
AcDbEntity
  8
SANINDUSA
  6
Continuous
100
AcDbCircle
 10
794.9396876706044
 20
976.9936907090531
 30
0.0
 40
0.0009999999999999
100
AcDbArc
 50
270.0
 51
0.0
  0
ARC
  5
11EF
330
1F
100
AcDbEntity
  8
SANINDUSA
  6
Continuous
100
AcDbCircle
 10
794.9356876706044
 20
977.0013410613817
 30
0.0
 40
0.005
100
AcDbArc
 50
0.0
 51
50.00000000000742
  0
ARC
  5
11F0
330
1F
100
AcDbEntity
  8
SANINDUSA
  6
Continuous
100
AcDbCircle
 10
794.9396876706044
 20
976.9766907090531
 30
0.0
 40
0.0010000000000001
100
AcDbArc
 50
0.0
 51
90.0
  0
ARC
  5
11F1
330
1F
100
AcDbEntity
  8
SANINDUSA
  6
Continuous
100
AcDbCircle
 10
794.9396876706044
 20
976.968690709053
 30
0.0
 40
0.0009999999999999
100
AcDbArc
 50
270.0
 51
0.0
  0
LINE
  5
11F3
330
1F
100
AcDbEntity
  8
SANINDUSA
  6
Continuous
100
AcDbLine
 10
794.9866876706045
 20
976.9676907090531
 30
0.0
 11
794.9396876706044
 21
976.9676907090531
 31
0.0
  0
LINE
  5
11F8
330
1F
100
AcDbEntity
  8
SANINDUSA
  6
Continuous
100
AcDbLine
 10
794.8943971732987
 20
977.0988125548647
 30
0.0
 11
794.9020177668764
 21
977.0367478007818
 31
0.0
  0
LINE
  5
11F9
330
1F
100
AcDbEntity
  8
SANINDUSA
  6
Continuous
100
AcDbLine
 10
794.8918745676294
 20
977.0373024388558
 30
0.0
 11
794.8843519995024
 21
977.0985688397097
 31
0.0
  0
LINE
  5
11FA
330
1F
100
AcDbEntity
  8
SANINDUSA
  6
Continuous
100
AcDbLine
 10
794.8893410352487
 20
976.9926470141141
 30
0.0
 11
794.8655694391278
 21
977.1373665337213
 31
0.0
  0
LINE
  5
11FB
330
1F
100
AcDbEntity
  8
SANINDUSA
  6
Continuous
100
AcDbLine
 10
794.8590720593817
 20
977.1283461487005
 30
0.0
 11
794.8814410395446
 21
976.9936784789814
 31
0.0
  0
LINE
  5
1200
330
1F
100
AcDbEntity
  8
SANINDUSA
  6
Continuous
100
AcDbLine
 10
794.8837240145742
 20
977.1496907090531
 30
0.0
 11
795.2126513266346
 21
977.1496907090531
 31
0.0
  0
LINE
  5
1202
330
1F
100
AcDbEntity
  8
SANINDUSA
  6
Continuous
100
AcDbLine
 10
795.0482095205061
 20
977.0134389290264
 30
0.0
 11
795.1477773765756
 21
977.0143078445427
 31
0.0
  0
LINE
  5
1203
330
1F
100
AcDbEntity
  8
SANINDUSA
  6
Continuous
100
AcDbLine
 10
795.1471619914581
 20
977.002690709053
 30
0.0
 11
795.0057774329102
 21
977.002690709053
 31
0.0
  0
ARC
  5
1205
330
1F
100
AcDbEntity
  8
SANINDUSA
  6
Continuous
100
AcDbCircle
 10
794.7971876706044
 20
977.143690709053
 30
0.0
 40
0.0009999999999999
100
AcDbArc
 50
0.0
 51
90.0
  0
ARC
  5
1206
330
1F
100
AcDbEntity
  8
SANINDUSA
  6
Continuous
100
AcDbCircle
 10
794.7971876706044
 20
977.132690709053
 30
0.0
 40
0.0010000000000002
100
AcDbArc
 50
270.000000000026
 51
0.0
  0
LINE
  5
1208
330
1F
100
AcDbEntity
  8
SANINDUSA
  6
Continuous
100
AcDbLine
 10
794.7981876706044
 20
977.143690709053
 30
0.0
 11
794.7981876706044
 21
977.132690709053
 31
0.0
  0
LINE
  5
1209
330
1F
100
AcDbEntity
  8
SANINDUSA
  6
Continuous
100
AcDbLine
 10
794.7231876706045
 20
977.142690709053
 30
0.0
 11
794.7231876706045
 21
977.133690709053
 31
0.0
  0
ARC
  5
120A
330
1F
100
AcDbEntity
  8
SANINDUSA
  6
Continuous
100
AcDbCircle
 10
794.7251876706044
 20
977.142690709053
 30
0.0
 40
0.0020000000000002
100
AcDbArc
 50
90.0
 51
180.0
  0
ARC
  5
120B
330
1F
100
AcDbEntity
  8
SANINDUSA
  6
Continuous
100
AcDbCircle
 10
794.7551876706044
 20
977.1028069545883
 30
0.0
 40
0.002
100
AcDbArc
 50
92.00000000000366
 51
180.0
  0
ARC
  5
120C
330
1F
100
AcDbEntity
  8
SANINDUSA
  6
Continuous
100
AcDbCircle
 10
794.7511876706045
 20
977.0966697096874
 30
0.0
 40
0.0020000000000002
100
AcDbArc
 50
272.0000000000037
 51
0.0
  0
LINE
  5
121D
330
1F
100
AcDbEntity
  8
SANINDUSA
  6
Continuous
100
AcDbLine
 10
794.7231876706045
 20
977.1143738602292
 30
0.0
 11
794.7231876706045
 21
977.1264552249386
 31
0.0
  0
LINE
  5
121F
330
1F
100
AcDbEntity
  8
SANINDUSA
  6
Continuous
100
AcDbLine
 10
794.7231876706045
 20
977.1035562530295
 30
0.0
 11
794.7231876706045
 21
977.1143738602292
 31
0.0
  0
LINE
  5
1220
330
1F
100
AcDbEntity
  8
SANINDUSA
  6
Continuous
100
AcDbLine
 10
794.7512574695978
 20
977.0946709280334
 30
0.0
 11
794.7251178716109
 21
977.0937581131574
 31
0.0
  0
ARC
  5
1222
330
1F
100
AcDbEntity
  8
SANINDUSA
  6
Continuous
100
AcDbCircle
 10
794.7251876706044
 20
977.133690709053
 30
0.0
 40
0.0020000000000002
100
AcDbArc
 50
180.0
 51
270.0
  0
LINE
  5
1223
330
1F
100
AcDbEntity
  8
SANINDUSA
  6
Continuous
100
AcDbLine
 10
794.7231876706045
 20
977.1264552249386
 30
0.0
 11
794.7231876706045
 21
977.133690709053
 31
0.0
  0
LINE
  5
1224
330
1F
100
AcDbEntity
  8
SANINDUSA
  6
Continuous
100
AcDbLine
 10
794.7971876706044
 20
977.1446907090531
 30
0.0
 11
794.7251876706044
 21
977.1446907090531
 31
0.0
  0
LINE
  5
1225
330
1F
100
AcDbEntity
  8
SANINDUSA
  6
Continuous
100
AcDbLine
 10
794.7251876706044
 20
977.1316907090531
 30
0.0
 11
794.7971876706044
 21
977.1316907090531
 31
0.0
  0
LINE
  5
1226
330
1F
100
AcDbEntity
  8
SANINDUSA
  6
Continuous
100
AcDbLine
 10
794.8214649622602
 20
977.1071226277014
 30
0.0
 11
794.7551178716111
 21
977.1048057362422
 31
0.0
  0
LWPOLYLINE
  5
1229
330
1F
100
AcDbEntity
  8
SANINDUSA
  6
Continuous
100
AcDbPolyline
 90
        6
 70
   128
 43
0.0
 10
794.8231954718462
 20
977.0160404099131
 10
794.8232009579499
 20
977.0160598723093
 10
794.8236900475628
 20
977.0181652614329
 10
794.8239676968584
 20
977.0203301959369
 10
794.8240047331254
 20
977.0217766403245
 10
794.8238918671791
 20
977.023224951038
  0
LWPOLYLINE
  5
122A
330
1F
100
AcDbEntity
  8
SANINDUSA
  6
Continuous
100
AcDbPolyline
 90
        6
 70
   128
 43
0.0
 10
794.8231954718462
 20
977.0160404099131
 10
794.8229238178376
 20
977.018961577872
 10
794.8221328407021
 20
977.0217299532266
 10
794.8208536972487
 20
977.0240609672372
 10
794.8191237003705
 20
977.0257090081404
 10
794.8182577694678
 20
977.0261293628953
  0
LWPOLYLINE
  5
122B
330
1F
100
AcDbEntity
  8
SANINDUSA
  6
Continuous
100
AcDbPolyline
 90
        9
 70
   128
 43
0.0
 10
794.7531876706045
 20
977.0298942263323
 10
794.7532244162375
 20
977.02951594094
 10
794.7533333028953
 20
977.029151555884
 10
794.7535103294685
 20
977.0288144607237
 10
794.7537489910038
 20
977.0285170422344
 10
794.7540405177318
 20
977.0282702292465
 10
794.7543741973183
 20
977.0280830910598
 10
794.7547377684958
 20
977.0279625041855
 10
794.7551178716111
 20
977.0279128996643
  0
LWPOLYLINE
  5
122C
330
1F
100
AcDbEntity
  8
SANINDUSA
  6
Continuous
100
AcDbPolyline
 90
        9
 70
   128
 43
0.0
 10
794.7512574695979
 20
977.0380639969737
 10
794.7516375727132
 20
977.038014576583
 10
794.7520011438906
 20
977.0378944373232
 10
794.7523348234772
 20
977.0377079937878
 10
794.7526263502052
 20
977.037462096962
 10
794.7528650117403
 20
977.037165782481
 10
794.7530420383136
 20
977.0368299386076
 10
794.7531509249714
 20
977.0364669061377
 10
794.7531876706045
 20
977.036090024929
  0
LWPOLYLINE
  5
1235
330
1F
100
AcDbEntity
  8
SANINDUSA
  6
Continuous
100
AcDbPolyline
 90
        9
 70
   128
 43
0.0
 10
794.7231876706045
 20
977.0408195927315
 10
794.7232244162376
 20
977.0404409225681
 10
794.7233333028953
 20
977.0400761668799
 10
794.7235103294685
 20
977.0397387288452
 10
794.7237489910038
 20
977.0394410078385
 10
794.7240405177317
 20
977.0391939438063
 10
794.7243741973182
 20
977.0390066152732
 10
794.7247377684958
 20
977.0388859057444
 10
794.7251178716111
 20
977.0388362507683
  0
LINE
  5
1238
330
1F
100
AcDbEntity
  8
SANINDUSA
  6
Continuous
100
AcDbLine
 10
794.7231876706045
 20
977.02873228547
 30
0.0
 11
794.7231876706045
 21
977.0408195927315
 31
0.0
  0
LWPOLYLINE
  5
1239
330
1F
100
AcDbEntity
  8
SANINDUSA
  6
Continuous
100
AcDbPolyline
 90
        3
 70
   128
 43
0.0
 10
794.7251178716111
 20
977.0388362507683
 10
794.7431626929994
 20
977.0382995560288
 10
794.7512574695979
 20
977.0380639969737
  0
LINE
  5
123B
330
1F
100
AcDbEntity
  8
SANINDUSA
  6
Continuous
100
AcDbLine
 10
794.7231876706045
 20
977.0408195927315
 30
0.0
 11
794.7231876706045
 21
977.0917593315035
 31
0.0
  0
LWPOLYLINE
  5
123C
330
1F
100
AcDbEntity
  8
SANINDUSA
  6
Continuous
100
AcDbPolyline
 90
        3
 70
   128
 43
0.0
 10
794.7551178716111
 20
977.0279128996643
 10
794.7731606317298
 20
977.0273871069315
 10
794.8182577694678
 20
977.0261293628953
  0
LWPOLYLINE
  5
123E
330
1F
100
AcDbEntity
  8
SANINDUSA
  6
Continuous
100
AcDbPolyline
 90
       22
 70
   128
 43
0.0
 10
794.8182577694678
 20
977.0261293628953
 10
794.8165327407519
 20
977.0270372200176
 10
794.8142534330314
 20
977.0287678800785
 10
794.8120631586115
 20
977.0310668889401
 10
794.8100072336528
 20
977.0339060553764
 10
794.8081051912582
 20
977.0372994168139
 10
794.8063930105465
 20
977.0412085198504
 10
794.804920367985
 20
977.0455583343146
 10
794.8038411349731
 20
977.049762938949
 10
794.8029922569075
 20
977.0542454768005
 10
794.8024000059985
 20
977.058907194309
 10
794.8020355265907
 20
977.0653815990701
 10
794.8021738413025
 20
977.0718843772003
 10
794.8027757186824
 20
977.0779211783429
 10
794.8038037792537
 20
977.0836426649236
 10
794.8052605476375
 20
977.0890200046645
 10
794.8070699520131
 20
977.0938118344359
 10
794.8093519989684
 20
977.098215217723
 10
794.8119076134049
 20
977.1017768383238
 10
794.8149604932186
 20
977.1046660251441
 10
794.8181807215155
 20
977.1064552681107
 10
794.8214649622602
 20
977.1071226277012
  0
LINE
  5
1241
330
1F
100
AcDbEntity
  8
SANINDUSA
  6
Continuous
100
AcDbLine
 10
794.8238918671791
 20
977.023224951038
 30
0.0
 11
794.8238918671791
 21
977.0976151640768
 31
0.0
  0
LINE
  5
1242
330
1F
100
AcDbEntity
  8
SANINDUSA
  6
Continuous
100
AcDbLine
 10
794.7531876706045
 20
977.0298942263323
 30
0.0
 11
794.7531876706045
 21
977.1028069545883
 31
0.0
  0
ARC
  5
1245
330
1F
100
AcDbEntity
  8
SANINDUSA
  6
Continuous
100
AcDbCircle
 10
794.7251876706044
 20
977.0917593315035
 30
0.0
 40
0.0020000000000002
100
AcDbArc
 50
92.00000000000366
 51
180.0
  0
LINE
  5
1246
330
1F
100
AcDbEntity
  8
SANINDUSA
  6
Continuous
100
AcDbLine
 10
794.7231876706045
 20
977.0917593315035
 30
0.0
 11
794.7231876706045
 21
977.1035562530295
 31
0.0
  0
LWPOLYLINE
  5
1247
330
1F
100
AcDbEntity
  8
SANINDUSA
  6
Continuous
100
AcDbPolyline
 90
       20
 70
   128
 43
0.0
 10
794.7971876706044
 20
977.1446907090531
 10
794.797290083246
 20
977.1446882412387
 10
794.7978652839997
 20
977.1446746351569
 10
794.7989698845985
 20
977.144649717559
 10
794.8005110807705
 20
977.1446176131593
 10
794.8025336314586
 20
977.1445801876408
 10
794.8048677284465
 20
977.1445436372363
 10
794.8075811450617
 20
977.1445100913705
 10
794.810446065991
 20
977.1444851107862
 10
794.8135452028714
 20
977.1444701616012
 10
794.8166151740921
 20
977.1444677250052
 10
794.8197469958192
 20
977.1444779274679
 10
794.8226776272829
 20
977.1444990803686
 10
794.8254911279255
 20
977.1445299439246
 10
794.8279524007115
 20
977.1445654226159
 10
794.8301310252916
 20
977.1446034280355
 10
794.8318453624085
 20
977.1446376915925
 10
794.8331435096414
 20
977.1446661899789
 10
794.8339172139228
 20
977.1446842215835
 10
794.8341876706044
 20
977.1446907090531
  0
LWPOLYLINE
  5
1248
330
1F
100
AcDbEntity
  8
SANINDUSA
  6
Continuous
100
AcDbPolyline
 90
       20
 70
   128
 43
0.0
 10
794.8341876706044
 20
977.1316907090531
 10
794.8340846858976
 20
977.1316881979737
 10
794.8334946883153
 20
977.1316740472094
 10
794.8324031493378
 20
977.13164917895
 10
794.8308337260909
 20
977.1316161315114
 10
794.8288379514941
 20
977.1315788074051
 10
794.8264653443933
 20
977.1315413285631
 10
794.8237893876938
 20
977.131507890763
 10
794.8208801796466
 20
977.1314824056064
 10
794.8178247503314
 20
977.1314675219901
 10
794.814710178147
 20
977.1314652244729
 10
794.8116230931607
 20
977.1314754237449
 10
794.8086524690885
 20
977.1314972904411
 10
794.8058796890702
 20
977.1315280897582
 10
794.8033872703541
 20
977.1315645418615
 10
794.8012409989554
 20
977.1316024530078
 10
794.7995076068364
 20
977.131637526044
 10
794.7982300688427
 20
977.1316659389823
 10
794.7974520004786
 20
977.1316842510415
 10
794.7971876706044
 20
977.1316907090531
  0
LWPOLYLINE
  5
124B
330
1F
100
AcDbEntity
  8
SANINDUSA
  6
Continuous
100
AcDbPolyline
 90
        4
 70
   128
 43
0.0
 10
794.8238918671791
 20
977.0976151640766
 10
794.823989120153
 20
977.0997595160549
 10
794.8242897754436
 20
977.1018975205583
 10
794.8252552907825
 20
977.1052065314325
  0
LINE
  5
1251
330
1F
100
AcDbEntity
  8
SANINDUSA
  6
Continuous
100
AcDbLine
 10
794.8214649622602
 20
977.1071226277014
 30
0.0
 11
794.8259538383614
 21
977.1072793827087
 31
0.0
  0
ARC
  5
1254
330
1F
100
AcDbEntity
  8
SANINDUSA
  6
Continuous
100
AcDbCircle
 10
795.1760495577326
 20
976.8853864678732
 30
0.0
 40
0.0020000000000002
100
AcDbArc
 50
185.1846908584824
 51
347.4711922908406
  0
ARC
  5
1255
330
1F
100
AcDbEntity
  8
SANINDUSA
  6
Continuous
100
AcDbCircle
 10
795.1765833273918
 20
976.841690709053
 30
0.0
 40
0.0020000000000003
100
AcDbArc
 50
270.0
 51
347.4711922908406
  0
ARC
  5
1256
330
1F
100
AcDbEntity
  8
SANINDUSA
  6
Continuous
100
AcDbCircle
 10
795.1697731170038
 20
976.841690709053
 30
0.0
 40
0.002
100
AcDbArc
 50
185.1021652523517
 51
270.0
  0
LINE
  5
1257
330
1F
100
AcDbEntity
  8
SANINDUSA
  6
Continuous
100
AcDbLine
 10
795.1765833273918
 20
976.8396907090531
 30
0.0
 11
795.1697731170038
 21
976.8396907090531
 31
0.0
  0
LINE
  5
125B
330
1F
100
AcDbEntity
  8
SANINDUSA
  6
Continuous
100
AcDbLine
 10
794.9609838651424
 20
976.8396907090531
 30
0.0
 11
794.9547306707856
 21
976.8396907090531
 31
0.0
  0
ARC
  5
125C
330
1F
100
AcDbEntity
  8
SANINDUSA
  6
Continuous
100
AcDbCircle
 10
794.8260895041203
 20
976.8676907090529
 30
0.0
 40
0.0019999999999999
100
AcDbArc
 50
349.9999999999965
 51
90.0
  0
LINE
  5
125D
330
1F
100
AcDbEntity
  8
SANINDUSA
  6
Continuous
100
AcDbLine
 10
794.8280591196263
 20
976.8673434126977
 30
0.0
 11
794.8243534686023
 21
976.8463276214152
 31
0.0
  0
LINE
  5
1263
330
1F
100
AcDbEntity
  8
SANINDUSA
  6
Continuous
100
AcDbLine
 10
794.9547306707856
 20
976.8396907090531
 30
0.0
 11
794.8257876644551
 21
976.8396907090531
 31
0.0
  0
LINE
  5
1265
330
1F
100
AcDbEntity
  8
SANINDUSA
  6
Continuous
100
AcDbLine
 10
795.1697731170038
 20
976.8396907090531
 30
0.0
 11
794.9609838651424
 21
976.8396907090531
 31
0.0
  0
ARC
  5
1266
330
1F
100
AcDbEntity
  8
SANINDUSA
  6
Continuous
100
AcDbCircle
 10
794.8087263646377
 20
976.8718106642371
 30
0.0
 40
0.01
100
AcDbArc
 50
278.0000000000149
 51
339.9201384335583
  0
ARC
  5
1267
330
1F
100
AcDbEntity
  8
SANINDUSA
  6
Continuous
100
AcDbCircle
 10
794.819996944449
 20
976.8676907090529
 30
0.0
 40
0.0020000000000003
100
AcDbArc
 50
90.0
 51
159.9201384335582
  0
LINE
  5
126E
330
1F
100
AcDbEntity
  8
SANINDUSA
  6
Continuous
100
AcDbLine
 10
794.7681829660838
 20
976.8542757467276
 30
0.0
 11
794.768183147624
 21
976.8466871392083
 31
0.0
  0
LWPOLYLINE
  5
126F
330
1F
100
AcDbEntity
  8
SANINDUSA
  6
Continuous
100
AcDbPolyline
 90
        6
 70
   128
 43
0.0
 10
794.7699046238325
 20
976.8562563486545
 10
794.7692647437578
 20
976.8560525686204
 10
794.7687283868425
 20
976.8556484719752
 10
794.7683560238571
 20
976.8550896179155
 10
794.7681896359925
 20
976.8544390140347
 10
794.7681829660839
 20
976.8542757467276
  0
LINE
  5
1271
330
1F
100
AcDbEntity
  8
SANINDUSA
  6
Continuous
100
AcDbLine
 10
794.7699046238325
 20
976.8562563486545
 30
0.0
 11
794.8101180956473
 21
976.8619079835495
 31
0.0
  0
LINE
  5
1278
330
1F
100
AcDbEntity
  8
SANINDUSA
  6
Continuous
100
AcDbLine
 10
794.7231876706045
 20
976.8551401065357
 30
0.0
 11
794.7231876706045
 21
976.8597884384639
 31
0.0
  0
LWPOLYLINE
  5
127A
330
1F
100
AcDbEntity
  8
SANINDUSA
  6
Continuous
100
AcDbPolyline
 90
        7
 70
   128
 43
0.0
 10
794.7249845820841
 20
976.8559332242908
 10
794.7253505972114
 20
976.8554650444256
 10
794.7275040872611
 20
976.8536366241036
 10
794.7293776518725
 20
976.8526760514388
 10
794.7313167068204
 20
976.8520346836718
 10
794.7343723595228
 20
976.8515607773059
 10
794.7373753484339
 20
976.8516846571376
  0
LINE
  5
127C
330
1F
100
AcDbEntity
  8
SANINDUSA
  6
Continuous
100
AcDbLine
 10
794.7373753484339
 20
976.8516846571378
 30
0.0
 11
794.7695490151347
 21
976.8562063711113
 31
0.0
  0
LINE
  5
1284
330
1F
100
AcDbEntity
  8
SANINDUSA
  6
Continuous
100
AcDbLine
 10
794.7701828514627
 20
976.8446871564448
 30
0.0
 11
794.8223832018193
 21
976.8446748809815
 31
0.0
  0
LINE
  5
1289
330
1F
100
AcDbEntity
  8
SANINDUSA
  6
Continuous
100
AcDbLine
 10
794.7265083717899
 20
976.8396907090531
 30
0.0
 11
794.7251876706044
 21
976.8396907090531
 31
0.0
  0
ARC
  5
128A
330
1F
100
AcDbEntity
  8
SANINDUSA
  6
Continuous
100
AcDbCircle
 10
794.7251876706044
 20
976.841690709053
 30
0.0
 40
0.0019999999999999
100
AcDbArc
 50
180.0
 51
270.0
  0
LWPOLYLINE
  5
128C
330
1F
100
AcDbEntity
  8
SANINDUSA
  6
Continuous
100
AcDbPolyline
 90
       13
 70
   128
 43
0.0
 10
794.7701828514627
 20
976.8446871564448
 10
794.7699764708719
 20
976.8446374581776
 10
794.7693478253182
 20
976.8445302666608
 10
794.7682796580776
 20
976.8443643966371
 10
794.7667830792253
 20
976.8441439896591
 10
794.7640484328348
 20
976.8437600163919
 10
794.7605421223491
 20
976.8432920505325
 10
794.7561519008956
 20
976.8427365863352
 10
794.7510038589573
 20
976.8421233440394
 10
794.745729548312
 20
976.8415345444443
 10
794.739898535097
 20
976.8409278503566
 10
794.7334472296907
 20
976.8403090863586
 10
794.7264970577896
 20
976.8397023954898
  0
LINE
  5
128D
330
1F
100
AcDbEntity
  8
SANINDUSA
  6
Continuous
100
AcDbLine
 10
794.8222147522609
 20
976.8396907090531
 30
0.0
 11
794.7265083717899
 21
976.8396907090531
 31
0.0
  0
LWPOLYLINE
  5
128E
330
1F
100
AcDbEntity
  8
SANINDUSA
  6
Continuous
100
AcDbPolyline
 90
        6
 70
   128
 43
0.0
 10
794.768183147624
 20
976.8466871392082
 10
794.7682959013501
 20
976.8460251238558
 10
794.7686214297748
 20
976.8454377492174
 10
794.769123032191
 20
976.8449912376706
 10
794.7697441549583
 20
976.844735931305
 10
794.7701828514627
 20
976.8446871564448
  0
LINE
  5
1291
330
1F
100
AcDbEntity
  8
SANINDUSA
  6
Continuous
100
AcDbLine
 10
794.7231876706045
 20
976.841690709053
 30
0.0
 11
794.7231876706045
 21
976.8551401065357
 31
0.0
  0
LWPOLYLINE
  5
1292
330
1F
100
AcDbEntity
  8
SANINDUSA
  6
Continuous
100
AcDbPolyline
 90
        6
 70
   128
 43
0.0
 10
794.8223832018193
 20
976.8446748809815
 10
794.8230452434609
 20
976.8447874118917
 10
794.82363271679
 20
976.8451127379288
 10
794.8240793967116
 20
976.8456141853702
 10
794.824334923135
 20
976.8462352291976
 10
794.8243534686023
 20
976.846327621415
  0
LINE
  5
1293
330
1F
100
AcDbEntity
  8
SANINDUSA
  6
Continuous
100
AcDbLine
 10
794.819996944449
 20
976.869690709053
 30
0.0
 11
794.8260895041203
 21
976.869690709053
 31
0.0
  0
LINE
  5
1297
330
1F
100
AcDbEntity
  8
SANINDUSA
  6
Continuous
100
AcDbLine
 10
794.8257876644551
 20
976.8396907090531
 30
0.0
 11
794.8222147522609
 21
976.8396907090531
 31
0.0
  0
LINE
  5
1298
330
1F
100
AcDbEntity
  8
SANINDUSA
  6
Continuous
100
AcDbLine
 10
795.1780019318529
 20
976.8849526069574
 30
0.0
 11
795.229991939087
 21
977.1189076395108
 31
0.0
  0
LINE
  5
1299
330
1F
100
AcDbEntity
  8
SANINDUSA
  6
Continuous
100
AcDbLine
 10
795.1634928901957
 20
977.0016385641525
 30
0.0
 11
795.1740577405733
 21
976.8852057349096
 31
0.0
  0
LINE
  5
129A
330
1F
100
AcDbEntity
  8
SANINDUSA
  6
Continuous
100
AcDbLine
 10
795.2374916087892
 20
977.1065584308843
 30
0.0
 11
795.1785357015121
 21
976.8412568481373
 31
0.0
  0
LINE
  5
129B
330
1F
100
AcDbEntity
  8
SANINDUSA
  6
Continuous
100
AcDbLine
 10
795.1534509665711
 20
977.0020096854237
 30
0.0
 11
795.1677810415932
 21
976.8415128451771
 31
0.0
  0
LINE
  5
12A5
330
1F
100
AcDbEntity
  8
SANINDUSA
  6
Continuous
100
AcDbLine
 10
794.7231876706045
 20
976.8597884384639
 30
0.0
 11
794.7231876706045
 21
977.02873228547
 31
0.0
  0
LINE
  5
12A7
330
1F
100
AcDbEntity
  8
SANINDUSA
100
AcDbLine
 10
792.7543994315604
 20
977.318539502567
 30
0.0
 11
792.9950409453359
 21
977.318539502567
 31
0.0
  0
ARC
  5
12AA
330
1F
100
AcDbEntity
  8
SANINDUSA
100
AcDbCircle
 10
792.8747201884481
 20
976.9935395025671
 30
0.0
 40
0.1950000000000001
100
AcDbArc
 50
113.2223917317108
 51
66.77760826828915
  0
LWPOLYLINE
  5
12AE
330
1F
100
AcDbEntity
  8
SANINDUSA
100
AcDbPolyline
 90
       40
 70
   128
 43
0.0
 10
792.8747201884482
 20
976.8340410946988
 10
792.8871502458154
 20
976.834824112795
 10
792.899559732372
 20
976.8364323268933
 10
792.9118225927543
 20
976.8389306439697
 10
792.9238127715986
 20
976.8423839710003
 10
792.9354042135412
 20
976.8468572149615
 10
792.947359991965
 20
976.8527791761252
 10
792.9587973397713
 20
976.8597472599092
 10
792.9695966004455
 20
976.8676707094511
 10
792.9796381174735
 20
976.8764587678887
 10
792.9888787961098
 20
976.8860801230038
 10
792.9973034972905
 20
976.8964848436139
 10
793.0048350986887
 20
976.9075548180685
 10
793.0113964779774
 20
976.9191719347169
 10
793.016974721497
 20
976.931332419922
 10
793.0215480791343
 20
976.9439538261432
 10
793.0250802688305
 20
976.9569059874017
 10
793.0275350085273
 20
976.9700587377185
 10
793.0287966072541
 20
976.9817690235301
 10
793.02921863314
 20
976.9935395025669
 10
793.0287531551349
 20
977.0057819442373
 10
793.0273679096282
 20
977.018006740065
 10
793.025079679383
 20
977.030112553974
 10
793.021905247162
 20
977.041998049888
 10
793.0178613957284
 20
977.0535618917307
 10
793.0122589249434
 20
977.0661719583355
 10
793.0055753494392
 20
977.0783025418165
 10
792.9978832226248
 20
977.0898184444559
 10
792.9892550979086
 20
977.1005844685364
 10
792.9799235814928
 20
977.1103328716225
 10
792.9697483302327
 20
977.1192746815902
 10
792.9588430995303
 20
977.1273078771608
 10
792.9473216447876
 20
977.1343304370551
 10
792.9355992887573
 20
977.1401276577535
 10
792.9233774110411
 20
977.1449165314486
 10
792.9107918559802
 20
977.1486416297076
 10
792.8979784679165
 20
977.1512475240976
 10
792.8894408239848
 20
977.1522813056567
 10
792.8808545521357
 20
977.1528240932791
 10
792.8747201884482
 20
977.1530379104349
  0
LINE
  5
12AF
330
1F
100
AcDbEntity
  8
SANINDUSA
100
AcDbLine
 10
792.9987261064925
 20
977.3164582249673
 30
0.0
 11
792.9920308083913
 21
977.1514539556763
 31
0.0
  0
LWPOLYLINE
  5
12B1
330
1F
100
AcDbEntity
  8
SANINDUSA
100
AcDbPolyline
 90
        9
 70
   128
 43
0.0
 10
792.9935886566886
 20
977.1481205080565
 10
792.9932280953972
 20
977.1484337558606
 10
792.9929074562514
 20
977.1487877638772
 10
792.9926313127102
 20
977.1491774826886
 10
792.9924036035656
 20
977.1495973535131
 10
792.9922275767633
 20
977.1500413874944
 10
792.9921057430736
 20
977.1505032511228
 10
792.9920398402799
 20
977.1509763565742
 10
792.9920308083914
 20
977.1514539556761
  0
LWPOLYLINE
  5
12B5
330
1F
100
AcDbEntity
  8
SANINDUSA
100
AcDbPolyline
 90
        9
 70
   128
 43
0.0
 10
792.996728018567
 20
977.318539502567
 10
792.9971281093226
 20
977.3184990652081
 10
792.9975120214646
 20
977.318379388312
 10
792.9978642306004
 20
977.318185311296
 10
792.9981704943226
 20
977.3179246821221
 10
792.9984184281352
 20
977.3176080399457
 10
792.9985980062497
 20
977.3172481889401
 10
792.9987019670016
 20
977.3168596805291
 10
792.9987261064925
 20
977.3164582249673
  0
LINE
  5
12B7
330
1F
100
AcDbEntity
  8
SANINDUSA
100
AcDbLine
 10
792.9950409453359
 20
977.318539502567
 30
0.0
 11
792.996728018567
 21
977.318539502567
 31
0.0
  0
LWPOLYLINE
  5
12BB
330
1F
100
AcDbEntity
  8
SANINDUSA
100
AcDbPolyline
 90
       45
 70
   128
 43
0.0
 10
792.8747201884482
 20
976.8340410946988
 10
792.8670894117405
 20
976.8343205532525
 10
792.8594727833078
 20
976.834829096122
 10
792.8518816782249
 20
976.8357667168842
 10
792.8443563069598
 20
976.8371407385014
 10
792.8369166700153
 20
976.8388952010351
 10
792.8295714991596
 20
976.8410104565452
 10
792.8217231563385
 20
976.8437195732564
 10
792.8140361633551
 20
976.8468572149615
 10
792.8022745493088
 20
976.8526630150008
 10
792.7909714280501
 20
976.8595085926083
 10
792.7804496344236
 20
976.8671737909071
 10
792.7698022594228
 20
976.8764587678887
 10
792.7606957666355
 20
976.8859152218622
 10
792.7523520187921
 20
976.8961703290436
 10
792.7449867763705
 20
976.9069256006186
 10
792.7380438989189
 20
976.9191719347169
 10
792.7325354693558
 20
976.9311412045142
 10
792.7279898541245
 20
976.943602028672
 10
792.7245108933274
 20
976.9562187464094
 10
792.7219053683691
 20
976.9700587377185
 10
792.7206455633347
 20
976.9817388744415
 10
792.7202217437564
 20
976.9935395025669
 10
792.7209074363826
 20
977.0085450998578
 10
792.7217715482537
 20
977.0160717945374
 10
792.7229813514578
 20
977.0235506971488
 10
792.7263618981958
 20
977.0380564093963
 10
792.7287759889377
 20
977.0458745927895
 10
792.7315789811679
 20
977.0535618917307
 10
792.7370714122633
 20
977.0659702880664
 10
792.7436354903481
 20
977.0779570693227
 10
792.7510829868444
 20
977.0891849558546
 10
792.7601852789877
 20
977.1005844685364
 10
792.7693449103636
 20
977.1101816791484
 10
792.7793587824464
 20
977.1190298461107
 10
792.7899376907372
 20
977.1268760358919
 10
792.8021187321087
 20
977.1343304370551
 10
792.8136376761387
 20
977.1400453884462
 10
792.8256021175658
 20
977.1447556657792
 10
792.8379215651314
 20
977.1484420004812
 10
792.8446593350538
 20
977.1500024134224
 10
792.8514619089798
 20
977.1512475240976
 10
792.8599995529115
 20
977.1522813056567
 10
792.8685858247606
 20
977.1528240932791
 10
792.8747201884482
 20
977.1530379104349
  0
CIRCLE
  5
12BD
330
1F
100
AcDbEntity
  8
SANINDUSA
100
AcDbCircle
 10
792.8747201884481
 20
977.0785395025669
 30
0.0
 40
0.0225
  0
LWPOLYLINE
  5
12BF
330
1F
100
AcDbEntity
  8
SANINDUSA
100
AcDbPolyline
 90
        4
 70
   128
 43
0.0
 10
792.8865018149823
 20
977.1052110535759
 10
792.8816828228187
 20
977.1068304530283
 10
792.876512223622
 20
977.1076270419603
 10
792.8747201884482
 20
977.1076797916517
  0
LWPOLYLINE
  5
12C0
330
1F
100
AcDbEntity
  8
SANINDUSA
100
AcDbPolyline
 90
       35
 70
   128
 43
0.0
 10
792.8629385619154
 20
977.1052110535725
 10
792.8588096547962
 20
977.1030526232726
 10
792.8550618835782
 20
977.1002851353165
 10
792.851540547801
 20
977.096668051926
 10
792.8486690984571
 20
977.0925165248746
 10
792.8465327488128
 20
977.0879288255246
 10
792.8451887630907
 20
977.0830500251841
 10
792.8446853440911
 20
977.0779994798214
 10
792.8450295531629
 20
977.0729356355028
 10
792.846227419847
 20
977.0679890335458
 10
792.8482334320693
 20
977.0633113192863
 10
792.8510072817372
 20
977.0590329654561
 10
792.854457591606
 20
977.0552784388195
 10
792.85880509612
 20
977.0519683590544
 10
792.8636765127996
 20
977.0494925833094
 10
792.8679336841338
 20
977.048160164869
 10
792.8723411975592
 20
977.0474719870849
 10
792.8747201884482
 20
977.0473770760441
 10
792.8785817598964
 20
977.0476288668566
 10
792.8823787672983
 20
977.0483755000915
 10
792.8871309459787
 20
977.0500788226851
 10
792.8915330103844
 20
977.0525495267561
 10
792.895468310783
 20
977.0557379551894
 10
792.8988184306059
 20
977.0595362050634
 10
792.9014738295592
 20
977.0638297569947
 10
792.9033822219272
 20
977.0685032805273
 10
792.9043784209174
 20
977.0727399281447
 10
792.9047584186774
 20
977.0770754691358
 10
792.9044024508045
 20
977.082148025015
 10
792.9032051101895
 20
977.0870901968169
 10
792.9011933208983
 20
977.0917485840678
 10
792.8984326175211
 20
977.0960063784277
 10
792.895000945622
 20
977.0997262045424
 10
792.8909971763704
 20
977.1028223334056
 10
792.8865018149809
 20
977.1052110535725
  0
LWPOLYLINE
  5
12C3
330
1F
100
AcDbEntity
  8
SANINDUSA
100
AcDbPolyline
 90
        4
 70
   128
 43
0.0
 10
792.862938561914
 20
977.1052110535759
 10
792.8677575540777
 20
977.1068304530283
 10
792.8729281532743
 20
977.1076270419603
 10
792.8747201884482
 20
977.1076797916517
  0
LWPOLYLINE
  5
12CA
330
1F
100
AcDbEntity
  8
SANINDUSA
100
AcDbPolyline
 90
        9
 70
   128
 43
0.0
 10
792.8747201884482
 20
977.148323045009
 10
792.8786271248583
 20
977.1482658667327
 10
792.880561409938
 20
977.1482928345491
 10
792.8823310240967
 20
977.148355188352
 10
792.8838886824352
 20
977.1484525421596
 10
792.8851861979176
 20
977.1485855854857
 10
792.8861882242954
 20
977.1487576528613
 10
792.8868628850795
 20
977.148968556385
 10
792.8870253002704
 20
977.1490932630729
  0
LWPOLYLINE
  5
12CB
330
1F
100
AcDbEntity
  8
SANINDUSA
100
AcDbPolyline
 90
       39
 70
   128
 43
0.0
 10
792.8747201884482
 20
977.2085395025669
 10
792.8776573571316
 20
977.2087895364165
 10
792.8805117189551
 20
977.2095256243311
 10
792.8832004954566
 20
977.2107335305088
 10
792.8856502852486
 20
977.2123726454324
 10
792.8856555651971
 20
977.2123768697548
 10
792.8877924965234
 20
977.2144075138603
 10
792.889561059134
 20
977.2167659618578
 10
792.8909053678875
 20
977.2193890643471
 10
792.8917937103713
 20
977.2221996003368
 10
792.8921942449993
 20
977.2251199183337
 10
792.8921024395869
 20
977.2280661612334
 10
792.8915134127037
 20
977.2309563899472
 10
792.8904506251472
 20
977.2337078375398
 10
792.8889384710114
 20
977.2362389528648
 10
792.8870255328996
 20
977.2384825125698
 10
792.8847614550583
 20
977.2403699377209
 10
792.8822144228059
 20
977.2418536244645
 10
792.8794534272979
 20
977.242885415557
 10
792.8765590206012
 20
977.2434426257438
 10
792.8747201884482
 20
977.2435395025668
 10
792.8706963037411
 20
977.2430706021165
 10
792.8678947361632
 20
977.2421516562197
 10
792.8652856420304
 20
977.2407785437124
 10
792.8624071052628
 20
977.2384748546919
 10
792.8604959926888
 20
977.2362307076948
 10
792.8589856316623
 20
977.2336993800301
 10
792.8579249220033
 20
977.2309494279156
 10
792.8573373469158
 20
977.2280610911156
 10
792.8572464269079
 20
977.2251143507888
 10
792.8576479944745
 20
977.2221937005795
 10
792.8585377205211
 20
977.2193824759023
 10
792.859883666415
 20
977.2167590061384
 10
792.861653618356
 20
977.2144010701012
 10
792.8637918826995
 20
977.2123712132277
 10
792.866242572822
 20
977.2107320417839
 10
792.868932299416
 20
977.2095243476917
 10
792.8717849208723
 20
977.2087892081604
 10
792.8747201884482
 20
977.2085395025669
  0
LWPOLYLINE
  5
12CE
330
1F
100
AcDbEntity
  8
SANINDUSA
100
AcDbPolyline
 90
       13
 70
   128
 43
0.0
 10
792.9516089002706
 20
977.1727408585727
 10
792.9376006760239
 20
977.1780580466277
 10
792.9231522528083
 20
977.1822276597928
 10
792.9084113621659
 20
977.1852613172491
 10
792.8935257356384
 20
977.1871706381771
 10
792.8829319884844
 20
977.1878575041188
 10
792.8747201884482
 20
977.1880185346493
 10
792.858654615884
 20
977.1874000366183
 10
792.842664086265
 20
977.1855309039825
 10
792.8269066142726
 20
977.1823906789265
 10
792.8135354328428
 20
977.1786211431477
 10
792.8056139400499
 20
977.1758637226474
 10
792.7978314766257
 20
977.1727408585727
  0
LWPOLYLINE
  5
12D2
330
1F
100
AcDbEntity
  8
SANINDUSA
100
AcDbPolyline
 90
        9
 70
   128
 43
0.0
 10
792.8747201884482
 20
977.148323045009
 10
792.870813252038
 20
977.1482658667327
 10
792.8688789669583
 20
977.1482928345491
 10
792.8671093527997
 20
977.148355188352
 10
792.8655516944611
 20
977.1484525421596
 10
792.8642541789789
 20
977.1485855854857
 10
792.8632521526009
 20
977.1487576528613
 10
792.8625774918169
 20
977.148968556385
 10
792.862415076626
 20
977.1490932630729
  0
LINE
  5
12D5
330
1F
100
AcDbEntity
  8
SANINDUSA
100
AcDbLine
 10
792.7507142704038
 20
977.3164582249673
 30
0.0
 11
792.757409568505
 21
977.1514539556763
 31
0.0
  0
LWPOLYLINE
  5
12D7
330
1F
100
AcDbEntity
  8
SANINDUSA
100
AcDbPolyline
 90
        9
 70
   128
 43
0.0
 10
792.7559531604806
 20
977.1482011621605
 10
792.7562122814991
 20
977.1484337558606
 10
792.7565329206449
 20
977.1487877638772
 10
792.7568090641863
 20
977.1491774826886
 10
792.7570367733307
 20
977.1495973535131
 10
792.757212800133
 20
977.1500413874944
 10
792.7573346338227
 20
977.1505032511228
 10
792.7574005366164
 20
977.1509763565742
 10
792.757409568505
 20
977.1514539556761
  0
LWPOLYLINE
  5
12DB
330
1F
100
AcDbEntity
  8
SANINDUSA
100
AcDbPolyline
 90
        9
 70
   128
 43
0.0
 10
792.7527123583293
 20
977.318539502567
 10
792.7523122675737
 20
977.3184990652081
 10
792.7519283554317
 20
977.318379388312
 10
792.7515761462959
 20
977.318185311296
 10
792.7512698825738
 20
977.3179246821221
 10
792.7510219487612
 20
977.3176080399457
 10
792.7508423706466
 20
977.3172481889401
 10
792.7507384098947
 20
977.3168596805291
 10
792.7507142704038
 20
977.3164582249673
  0
LINE
  5
12DD
330
1F
100
AcDbEntity
  8
SANINDUSA
100
AcDbLine
 10
792.7543994315604
 20
977.318539502567
 30
0.0
 11
792.7527123583293
 21
977.318539502567
 31
0.0
  0
LINE
  5
166A
330
1F
100
AcDbEntity
  8
SANINDUSA
100
AcDbLine
 10
793.5897288160588
 20
976.8397102326529
 30
0.0
 11
793.7856522818846
 21
976.8397102326529
 31
0.0
  0
LINE
  5
1670
330
1F
100
AcDbEntity
  8
SANINDUSA
100
AcDbLine
 10
793.8472566250973
 20
977.1497102326531
 30
0.0
 11
793.4672566250973
 21
977.1497102326531
 31
0.0
  0
LINE
  5
1672
330
1F
100
AcDbEntity
  8
SANINDUSA
100
AcDbLine
 10
793.5090821904823
 20
977.1095547646231
 30
0.0
 11
793.84936096831
 21
977.1095547646231
 31
0.0
  0
LINE
  5
1673
330
1F
100
AcDbEntity
  8
SANINDUSA
100
AcDbLine
 10
793.8465605632821
 20
977.1065779544843
 30
0.0
 11
793.787604656005
 21
976.8412763717375
 31
0.0
  0
ARC
  5
1674
330
1F
100
AcDbEntity
  8
SANINDUSA
100
AcDbCircle
 10
793.7856522818846
 20
976.841710232653
 30
0.0
 40
0.0019999999999999
100
AcDbArc
 50
270.0
 51
347.4711922908406
  0
LINE
  5
1675
330
1F
100
AcDbEntity
  8
SANINDUSA
100
AcDbLine
 10
793.8522566250974
 20
977.1447102326531
 30
0.0
 11
793.8522566250974
 21
977.113399296593
 31
0.0
  0
ARC
  5
1676
330
1F
100
AcDbEntity
  8
SANINDUSA
100
AcDbCircle
 10
793.8504653115228
 20
977.1057102326532
 30
0.0
 40
0.004
100
AcDbArc
 50
106.0267313899609
 51
167.4711922908405
  0
ARC
  5
1677
330
1F
100
AcDbEntity
  8
SANINDUSA
100
AcDbCircle
 10
793.8482566250974
 20
977.113399296593
 30
0.0
 40
0.0040000000000026
100
AcDbArc
 50
286.026731389721
 51
0.000000000000007
  0
ARC
  5
1678
330
1F
100
AcDbEntity
  8
SANINDUSA
100
AcDbCircle
 10
793.8472566250973
 20
977.1447102326531
 30
0.0
 40
0.005
100
AcDbArc
 50
0.000000000000007
 51
90.0
  0
LINE
  5
167B
330
1F
100
AcDbEntity
  8
SANINDUSA
100
AcDbLine
 10
793.3322566250973
 20
977.1311886465234
 30
0.0
 11
793.3322566250973
 21
976.841710232653
 31
0.0
  0
LWPOLYLINE
  5
167D
330
1F
100
AcDbEntity
  8
SANINDUSA
100
AcDbPolyline
 90
        7
 70
   128
 43
0.0
 10
793.5029860163228
 20
977.1057746871022
 10
793.5210445313185
 20
977.0391112979508
 10
793.5399366765253
 20
976.9726702263085
 10
793.5497806480681
 20
976.9397048168478
 10
793.5600201243285
 20
976.9068557395753
 10
793.5707854481588
 20
976.8741518398778
 10
793.5822683956088
 20
976.8416780054284
  0
ARC
  5
167F
330
1F
100
AcDbEntity
  8
SANINDUSA
  6
Continuous
100
AcDbCircle
 10
793.3642566250973
 20
977.0407102326529
 30
0.0
 40
0.002
100
AcDbArc
 50
180.0
 51
270.0
  0
LWPOLYLINE
  5
1680
330
1F
100
AcDbEntity
  8
SANINDUSA
  6
Continuous
100
AcDbPolyline
 90
        9
 70
   128
 43
0.0
 10
793.4096479451484
 20
977.038710232653
 10
793.4100373105102
 20
977.0387487214875
 10
793.4104116896531
 20
977.038862706601
 10
793.41075667316
 20
977.0390478008389
 10
793.4110589830178
 20
977.0392968801401
 10
793.4113069836726
 20
977.0396003577321
 10
793.4114911298679
 20
977.0399465531166
 10
793.4116043340316
 20
977.0403221416364
 10
793.4116422390671
 20
977.0407126673271
  0
LWPOLYLINE
  5
1681
330
1F
100
AcDbEntity
  8
SANINDUSA
  6
Continuous
100
AcDbPolyline
 90
       10
 70
   128
 43
0.0
 10
793.4119492302436
 20
977.0366482128778
 10
793.4119445459072
 20
977.0373507658341
 10
793.4119306381568
 20
977.0380335316891
 10
793.4119079382644
 20
977.0386753382304
 10
793.4118771501419
 20
977.0392562833723
 10
793.4118392285129
 20
977.0397583523099
 10
793.4117953493073
 20
977.0401659761471
 10
793.4117468731963
 20
977.0404665146822
 10
793.4116953033987
 20
977.040650648372
 10
793.4116422390671
 20
977.0407126673271
  0
LINE
  5
1685
330
1F
100
AcDbEntity
  8
SANINDUSA
  6
Continuous
100
AcDbLine
 10
793.3622566250974
 20
977.033710232653
 30
0.0
 11
793.3622566250974
 21
977.0987102326531
 31
0.0
  0
LINE
  5
1686
330
1F
100
AcDbEntity
  8
SANINDUSA
  6
Continuous
100
AcDbLine
 10
793.4121108356229
 20
977.098716319338
 30
0.0
 11
793.4121108356229
 21
977.033716319338
 31
0.0
  0
LINE
  5
168C
330
1F
100
AcDbEntity
  8
SANINDUSA
100
AcDbLine
 10
793.3342566250973
 20
976.8397102326529
 30
0.0
 11
793.5821871180092
 21
976.8397102326529
 31
0.0
  0
LWPOLYLINE
  5
168E
330
1F
100
AcDbEntity
  8
SANINDUSA
100
AcDbPolyline
 90
        9
 70
   128
 43
0.0
 10
793.5821871180092
 20
976.8397102326529
 10
793.5822028159175
 20
976.8397478801356
 10
793.5822179228392
 20
976.8398594052506
 10
793.5822318700364
 20
976.8400406093581
 10
793.5822441324326
 20
976.8402846705797
 10
793.5822542483792
 20
976.8405824006249
 10
793.5822618370364
 20
976.8409225907065
 10
793.5822666127103
 20
976.8412924335247
 10
793.5822683956088
 20
976.8416780054284
  0
LINE
  5
1690
330
1F
100
AcDbEntity
  8
SANINDUSA
100
AcDbLine
 10
793.5821871180092
 20
976.8397102326529
 30
0.0
 11
793.5897288160588
 21
976.8397102326529
 31
0.0
  0
ARC
  5
1694
330
1F
100
AcDbEntity
  8
SANINDUSA
100
AcDbCircle
 10
793.3342566250973
 20
976.841710232653
 30
0.0
 40
0.0019999999999999
100
AcDbArc
 50
180.0
 51
270.0
  0
LWPOLYLINE
  5
1698
330
1F
100
AcDbEntity
  8
SANINDUSA
  6
Continuous
100
AcDbPolyline
 90
        9
 70
   128
 43
0.0
 10
793.3672566250974
 20
977.028710232653
 10
793.3662811734873
 20
977.028806306251
 10
793.3653432079355
 20
977.0290908349904
 10
793.3644787739323
 20
977.0295528845915
 10
793.3637210911914
 20
977.030174698747
 10
793.3630992770359
 20
977.0309323814879
 10
793.3626372274347
 20
977.0317968154913
 10
793.3623526986954
 20
977.0327347810429
 10
793.3622566250974
 20
977.033710232653
  0
LINE
  5
169A
330
1F
100
AcDbEntity
  8
SANINDUSA
  6
Continuous
100
AcDbLine
 10
793.4070981294277
 20
977.028710232653
 30
0.0
 11
793.3672566250974
 21
977.028710232653
 31
0.0
  0
LINE
  5
169C
330
1F
100
AcDbEntity
  8
SANINDUSA
  6
Continuous
100
AcDbLine
 10
793.4096479451484
 20
977.038710232653
 30
0.0
 11
793.3642566250973
 21
977.038710232653
 31
0.0
  0
LINE
  5
16A0
330
1F
100
AcDbEntity
  8
SANINDUSA
  6
Continuous
100
AcDbLine
 10
793.4119492302436
 20
977.033716319338
 30
0.0
 11
793.4119492302436
 21
977.0366482128778
 31
0.0
  0
LWPOLYLINE
  5
16A8
330
1F
100
AcDbEntity
  8
SANINDUSA
  6
Continuous
100
AcDbPolyline
 90
       10
 70
   128
 43
0.0
 10
793.412110835623
 20
977.033716319338
 10
793.4120342713072
 20
977.0328473204639
 10
793.4118077521145
 20
977.0320045812912
 10
793.4114381713606
 20
977.031213747626
 10
793.4109367759376
 20
977.0304988857128
 10
793.4103188240536
 20
977.029881749863
 10
793.409603120904
 20
977.0293811204382
 10
793.4088114463995
 20
977.0290122323364
 10
793.407967892373
 20
977.028786311371
 10
793.4070981294278
 20
977.028710232653
  0
LWPOLYLINE
  5
16A9
330
1F
100
AcDbEntity
  8
SANINDUSA
  6
Continuous
100
AcDbPolyline
 90
       10
 70
   128
 43
0.0
 10
793.406951936276
 20
977.028710232653
 10
793.4078197938353
 20
977.028786311371
 10
793.4086613523102
 20
977.0290122323364
 10
793.4094510018249
 20
977.0293811204382
 10
793.4101647121706
 20
977.029881749863
 10
793.4107807640797
 20
977.0304988857128
 10
793.4112804101766
 20
977.031213747626
 10
793.4116484454872
 20
977.0320045812912
 10
793.4118736701501
 20
977.0328473204639
 10
793.4119492302436
 20
977.033716319338
  0
LINE
  5
16B3
330
1F
100
AcDbEntity
  8
SANINDUSA
100
AcDbLine
 10
793.4946293682994
 20
977.1361837582089
 30
0.0
 11
793.3342566250973
 21
977.1351716935637
 31
0.0
  0
LINE
  5
16B4
330
1F
100
AcDbEntity
  8
SANINDUSA
100
AcDbLine
 10
793.4432566250973
 20
977.1447102326531
 30
0.0
 11
793.459194367349
 21
977.1447102326531
 31
0.0
  0
LWPOLYLINE
  5
16B5
330
1F
100
AcDbEntity
  8
SANINDUSA
100
AcDbPolyline
 90
        6
 70
   128
 43
0.0
 10
793.5026756196077
 20
977.1321270104389
 10
793.5024587799309
 20
977.1344181524893
 10
793.5018090600666
 20
977.1364566453554
 10
793.5007760648164
 20
977.1381846961666
 10
793.4992992691528
 20
977.1395483654682
 10
793.4978982578833
 20
977.1401393270696
  0
LWPOLYLINE
  5
16B7
330
1F
100
AcDbEntity
  8
SANINDUSA
100
AcDbPolyline
 90
        9
 70
   128
 43
0.0
 10
793.4978982578833
 20
977.1401393270696
 10
793.4977902277262
 20
977.1394065761056
 10
793.4975735929861
 20
977.138699001874
 10
793.497255797058
 20
977.1380409160558
 10
793.4968477591541
 20
977.1374549299492
 10
793.4963634991279
 20
977.1369611775647
 10
793.4958196557637
 20
977.1365766238362
 10
793.4952349150814
 20
977.1363144817202
 10
793.4946293682994
 20
977.1361837582087
  0
LINE
  5
16B9
330
1F
100
AcDbEntity
  8
SANINDUSA
100
AcDbLine
 10
793.502440046937
 20
977.1120976984816
 30
0.0
 11
793.5026756196077
 21
977.1321270104389
 31
0.0
  0
LWPOLYLINE
  5
16BA
330
1F
100
AcDbEntity
  8
SANINDUSA
100
AcDbPolyline
 90
        3
 70
   128
 43
0.0
 10
793.5051420556998
 20
977.1089039655672
 10
793.5068527295092
 20
977.1094004535019
 10
793.5090821904823
 20
977.1095547646229
  0
LWPOLYLINE
  5
16C1
330
1F
100
AcDbEntity
  8
SANINDUSA
100
AcDbPolyline
 90
        9
 70
   128
 43
0.0
 10
793.5030081447232
 20
977.1077258510812
 10
793.5030031927379
 20
977.1075007534816
 10
793.5029988360184
 20
977.1072683244398
 10
793.502995092404
 20
977.1070295156565
 10
793.502991977223
 20
977.1067853049553
 10
793.5029895032309
 20
977.1065366922774
 10
793.5029876805578
 20
977.1062846955894
 10
793.5029865166665
 20
977.106030346713
 10
793.5029860163228
 20
977.1057746871022
  0
LWPOLYLINE
  5
16C2
330
1F
100
AcDbEntity
  8
SANINDUSA
100
AcDbPolyline
 90
        4
 70
   128
 43
0.0
 10
793.5030081447232
 20
977.1077258510812
 10
793.5044258174968
 20
977.1085441757717
 10
793.5050031723215
 20
977.1088363466487
 10
793.5051420556998
 20
977.1089039655672
  0
LWPOLYLINE
  5
16C4
330
1F
100
AcDbEntity
  8
SANINDUSA
100
AcDbPolyline
 90
        9
 70
   128
 43
0.0
 10
793.502440046937
 20
977.1120976984816
 10
793.5026184746362
 20
977.111606362571
 10
793.5028535559012
 20
977.1111243136717
 10
793.5031408473311
 20
977.1106606632566
 10
793.5034749186719
 20
977.1102241750378
 10
793.5038494554568
 20
977.1098230993205
 10
793.504257378359
 20
977.1094650170585
 10
793.5046909770025
 20
977.1091566965619
 10
793.5051420556998
 20
977.1089039655672
  0
LWPOLYLINE
  5
16C8
330
1F
100
AcDbEntity
  8
SANINDUSA
100
AcDbPolyline
 90
        5
 70
   128
 43
0.0
 10
793.4978982578833
 20
977.1401393270696
 10
793.4922921127464
 20
977.1413791166118
 10
793.4871118009625
 20
977.1425609613466
 10
793.4823503754718
 20
977.1436777892864
 10
793.4780552690916
 20
977.1447102326529
  0
LWPOLYLINE
  5
16CA
330
1F
100
AcDbEntity
  8
SANINDUSA
100
AcDbPolyline
 90
        8
 70
   128
 43
0.0
 10
793.4780552690916
 20
977.1447102326529
 10
793.4727380810365
 20
977.1454453788907
 10
793.4685684678714
 20
977.1460485707633
 10
793.4655348104151
 20
977.1465051158779
 10
793.4636254894871
 20
977.1468003218412
 10
793.4629386235455
 20
977.1469072729964
 10
793.4627775930151
 20
977.1469324548752
 10
793.4627776019767
 20
977.1469324534738
  0
LWPOLYLINE
  5
16CC
330
1F
100
AcDbEntity
  8
SANINDUSA
100
AcDbPolyline
 90
        7
 70
   128
 43
0.0
 10
793.4591936307482
 20
977.1447325549853
 10
793.4597843402757
 20
977.1447539803252
 10
793.4605419703221
 20
977.1449440719251
 10
793.4614228225512
 20
977.1453884879894
 10
793.4621605840218
 20
977.1460266606625
 10
793.4627549046641
 20
977.1468874398051
 10
793.4627715478056
 20
977.1469345899152
  0
ARC
  5
16CD
330
1F
100
AcDbEntity
  8
SANINDUSA
100
AcDbCircle
 10
793.4672566250973
 20
977.1447102326531
 30
0.0
 40
0.005
100
AcDbArc
 50
90.0
 51
153.6293801581964
  0
LINE
  5
16CE
330
1F
100
AcDbEntity
  8
SANINDUSA
100
AcDbLine
 10
793.3322566250973
 20
977.142710232653
 30
0.0
 11
793.3322566250973
 21
977.1331965460486
 31
0.0
  0
ARC
  5
16D2
330
1F
100
AcDbEntity
  8
SANINDUSA
  6
Continuous
100
AcDbCircle
 10
793.3642566250973
 20
977.0917102326531
 30
0.0
 40
0.002
100
AcDbArc
 50
90.0
 51
180.0
  0
LWPOLYLINE
  5
16D4
330
1F
100
AcDbEntity
  8
SANINDUSA
  6
Continuous
100
AcDbPolyline
 90
       10
 70
   128
 43
0.0
 10
793.3622566250974
 20
977.0987102326531
 10
793.3623325863322
 20
977.0995784735413
 10
793.3625581619934
 20
977.1004203333697
 10
793.3629264980784
 20
977.101210232653
 10
793.3634264028818
 20
977.1019241707014
 10
793.3640426870489
 20
977.1025404548685
 10
793.3647566250973
 20
977.103040359672
 10
793.3655465243807
 20
977.1034086957568
 10
793.366388384209
 20
977.1036342714181
 10
793.3672566250974
 20
977.103710232653
  0
LWPOLYLINE
  5
16D5
330
1F
100
AcDbEntity
  8
SANINDUSA
  6
Continuous
100
AcDbPolyline
 90
       27
 70
   128
 43
0.0
 10
793.410021584718
 20
977.0407126673271
 10
793.409788707905
 20
977.0408985910375
 10
793.4095587730015
 20
977.0414536509825
 10
793.4093351329764
 20
977.0423697531384
 10
793.4091210490044
 20
977.0436335386728
 10
793.4089196429123
 20
977.0452265787467
 10
793.4087338516542
 20
977.0471256432486
 10
793.4085663844853
 20
977.0493030395419
 10
793.4084196834536
 20
977.0517270162853
 10
793.4082958877909
 20
977.0543622264399
 10
793.4081968027165
 20
977.0571702427075
 10
793.4081238731139
 20
977.0601101178877
 10
793.408078162461
 20
977.0631389819804
 10
793.408060337322
 20
977.066212667327
 10
793.4080706576277
 20
977.0692863526734
 10
793.4081089728846
 20
977.0723152167663
 10
793.40817472437
 20
977.0752550919466
 10
793.4082669532793
 20
977.0780631082141
 10
793.4083843147075
 20
977.0806983183685
 10
793.4085250972603
 20
977.0831222951121
 10
793.4086872480112
 20
977.0852996914053
 10
793.4088684024373
 20
977.0871987559072
 10
793.4090659188989
 20
977.0887917959811
 10
793.4092769171614
 20
977.0900555815154
 10
793.4094983203948
 20
977.0909716836714
 10
793.4097269000417
 20
977.0915267436166
 10
793.4099593228959
 20
977.0917126673269
  0
LINE
  5
16D6
330
1F
100
AcDbEntity
  8
SANINDUSA
  6
Continuous
100
AcDbLine
 10
793.4116422390671
 20
977.0407126673271
 30
0.0
 11
793.4100215847179
 21
977.0407126673271
 31
0.0
  0
LINE
  5
16D8
330
1F
100
AcDbEntity
  8
SANINDUSA
  6
Continuous
100
AcDbLine
 10
793.3672566250974
 20
977.103710232653
 30
0.0
 11
793.4071151684463
 21
977.103710232653
 31
0.0
  0
LINE
  5
16DB
330
1F
100
AcDbEntity
  8
SANINDUSA
  6
Continuous
100
AcDbLine
 10
793.3642566250973
 20
977.0937102326531
 30
0.0
 11
793.4096576817304
 21
977.0937102326531
 31
0.0
  0
LINE
  5
16E1
330
1F
100
AcDbEntity
  8
SANINDUSA
  6
Continuous
100
AcDbLine
 10
793.4099593228959
 20
977.0917126673271
 30
0.0
 11
793.4116519756492
 21
977.0917126673271
 31
0.0
  0
LWPOLYLINE
  5
16E4
330
1F
100
AcDbEntity
  8
SANINDUSA
  6
Continuous
100
AcDbPolyline
 90
        9
 70
   128
 43
0.0
 10
793.4116519756492
 20
977.0917126673269
 10
793.4117102206973
 20
977.0917879622922
 10
793.4117660896869
 20
977.0920110125222
 10
793.4118174792915
 20
977.0923734207373
 10
793.4118624548216
 20
977.0928615431806
 10
793.4118993230619
 20
977.0934570032705
 10
793.4119266960158
 20
977.094137383434
 10
793.4119435431605
 20
977.0948770690704
 10
793.4119492302436
 20
977.0956482128777
  0
LINE
  5
16E6
330
1F
100
AcDbEntity
  8
SANINDUSA
  6
Continuous
100
AcDbLine
 10
793.4119492302436
 20
977.0956482128779
 30
0.0
 11
793.4119492302436
 21
977.098716319338
 31
0.0
  0
LWPOLYLINE
  5
16EA
330
1F
100
AcDbEntity
  8
SANINDUSA
  6
Continuous
100
AcDbPolyline
 90
        9
 70
   128
 43
0.0
 10
793.4071151684464
 20
977.103710232653
 10
793.4080905252395
 20
977.1036143074299
 10
793.4090281306112
 20
977.1033302124202
 10
793.4098920085596
 20
977.1028688483744
 10
793.4106490120108
 20
977.1022479178725
 10
793.4112700946748
 20
977.1014912460731
 10
793.4117314255543
 20
977.1006278665405
 10
793.4120153033424
 20
977.0996909072247
 10
793.412110835623
 20
977.098716319338
  0
LWPOLYLINE
  5
16EB
330
1F
100
AcDbEntity
  8
SANINDUSA
  6
Continuous
100
AcDbPolyline
 90
        9
 70
   128
 43
0.0
 10
793.4119492302436
 20
977.098716319338
 10
793.4118529537204
 20
977.0996909072247
 10
793.4115687648183
 20
977.1006278665405
 10
793.4111075678905
 20
977.1014912460731
 10
793.4104870591046
 20
977.1022479178725
 10
793.4097310474379
 20
977.1028688483744
 10
793.4088685411255
 20
977.1033302124202
 10
793.4079326346116
 20
977.1036143074299
 10
793.4069592387126
 20
977.103710232653
  0
LINE
  5
16F4
330
1F
100
AcDbEntity
  8
SANINDUSA
100
AcDbLine
 10
793.3322566250973
 20
977.1331965460486
 30
0.0
 11
793.3322566250973
 21
977.1311886465234
 31
0.0
  0
LWPOLYLINE
  5
16F6
330
1F
100
AcDbEntity
  8
SANINDUSA
100
AcDbPolyline
 90
        9
 70
   128
 43
0.0
 10
793.3322566250974
 20
977.1331965460486
 10
793.3322950545366
 20
977.1335818782134
 10
793.3324088660323
 20
977.133952402279
 10
793.3325936858728
 20
977.1342938792137
 10
793.332842411535
 20
977.1345931862503
 10
793.3331454846313
 20
977.1348388211871
 10
793.3334912582327
 20
977.1350213444113
 10
793.3338664444534
 20
977.1351337416579
 10
793.3342566250973
 20
977.1351716935635
  0
LINE
  5
16F7
330
1F
100
AcDbEntity
  8
SANINDUSA
100
AcDbLine
 10
793.3342566250973
 20
977.1447102326531
 30
0.0
 11
793.4062566250974
 21
977.1447102326531
 31
0.0
  0
LWPOLYLINE
  5
16F8
330
1F
100
AcDbEntity
  8
SANINDUSA
100
AcDbPolyline
 90
       21
 70
   128
 43
0.0
 10
793.406318422939
 20
977.1447087435243
 10
793.4063590377388
 20
977.1447077648387
 10
793.4069342384925
 20
977.1446941587569
 10
793.4080388390914
 20
977.1446692411592
 10
793.4095800352634
 20
977.1446371367595
 10
793.4116025859515
 20
977.1445997112408
 10
793.4139366829395
 20
977.1445631608365
 10
793.4166500995545
 20
977.1445296149705
 10
793.4195150204839
 20
977.1445046343863
 10
793.4226141573642
 20
977.1444896852012
 10
793.4256841285851
 20
977.1444872486052
 10
793.4288159503121
 20
977.144497451068
 10
793.4317465817757
 20
977.1445186039686
 10
793.4345600824184
 20
977.1445494675246
 10
793.4370213552043
 20
977.1445849462157
 10
793.4391999797845
 20
977.1446229516355
 10
793.4409143169014
 20
977.1446572151925
 10
793.4422124641343
 20
977.1446857135789
 10
793.4429861684158
 20
977.1447037451835
 10
793.4432566250974
 20
977.1447102326529
 10
793.4432566250974
 20
977.1447102326529
  0
LINE
  5
16F9
330
1F
100
AcDbEntity
  8
SANINDUSA
100
AcDbLine
 10
793.4065006912398
 20
977.144704414097
 30
0.0
 11
793.4062566250974
 21
977.1447102326531
 31
0.0
  0
ARC
  5
16FA
330
1F
100
AcDbEntity
  8
SANINDUSA
100
AcDbCircle
 10
793.3342566250973
 20
977.142710232653
 30
0.0
 40
0.0019999999999999
100
AcDbArc
 50
90.0
 51
180.0
  0
LINE
  5
5CE9
330
1F
100
AcDbEntity
  8
SANINDUSA
100
AcDbLine
 10
794.9322040349966
 20
977.0102052003981
 30
0.0
 11
794.9974331504342
 21
977.0121093029823
 31
0.0
  0
ENDSEC
  0
SECTION
  2
OBJECTS
  0
DICTIONARY
  5
C
330
0
100
AcDbDictionary
281
     1
  3
ACAD_COLOR
350
5D19
  3
ACAD_GROUP
350
D
  3
ACAD_LAYOUT
350
1A
  3
ACAD_MATERIAL
350
5CEC
  3
ACAD_MLEADERSTYLE
350
5D2E
  3
ACAD_MLINESTYLE
350
17
  3
ACAD_PLOTSETTINGS
350
19
  3
ACAD_PLOTSTYLENAME
350
E
  3
ACAD_SCALELIST
350
5D1C
  3
ACAD_TABLESTYLE
350
5D1A
  3
ACAD_VISUALSTYLE
350
5D05
  3
ACDB_RECOMPOSE_DATA
350
5D5F
  3
AcDbVariableDictionary
350
3D
  3
ASE_INDEX_DICTIONARY
350
BCC
  3
DWGPROPS
350
5D60
  0
DICTIONARY
  5
5D35
330
10
100
AcDbDictionary
280
     1
281
     1
  3
ADSK_XREC_LAYER_RECONCILED
360
5D36
  0
DICTIONARY
  5
5D37
330
2F
100
AcDbDictionary
280
     1
281
     1
  3
ADSK_XREC_LAYER_RECONCILED
360
5D38
  0
DICTIONARY
  5
5D39
330
30
100
AcDbDictionary
280
     1
281
     1
  3
ADSK_XREC_LAYER_RECONCILED
360
5D3A
  0
DICTIONARY
  5
5D3B
330
31
100
AcDbDictionary
280
     1
281
     1
  3
ADSK_XREC_LAYER_RECONCILED
360
5D3C
  0
DICTIONARY
  5
5D3D
330
32
100
AcDbDictionary
280
     1
281
     1
  3
ADSK_XREC_LAYER_RECONCILED
360
5D3E
  0
DICTIONARY
  5
5D3F
330
33
100
AcDbDictionary
280
     1
281
     1
  3
ADSK_XREC_LAYER_RECONCILED
360
5D40
  0
DICTIONARY
  5
5D41
330
34
100
AcDbDictionary
280
     1
281
     1
  3
ADSK_XREC_LAYER_RECONCILED
360
5D42
  0
DICTIONARY
  5
5D43
330
35
100
AcDbDictionary
280
     1
281
     1
  3
ADSK_XREC_LAYER_RECONCILED
360
5D44
  0
DICTIONARY
  5
5D45
330
36
100
AcDbDictionary
280
     1
281
     1
  3
ADSK_XREC_LAYER_RECONCILED
360
5D46
  0
DICTIONARY
  5
5D47
330
37
100
AcDbDictionary
280
     1
281
     1
  3
ADSK_XREC_LAYER_RECONCILED
360
5D48
  0
DICTIONARY
  5
5D49
330
5D6
100
AcDbDictionary
280
     1
281
     1
  3
ADSK_XREC_LAYER_RECONCILED
360
5D4A
  0
DICTIONARY
  5
5D4B
330
8AF
100
AcDbDictionary
280
     1
281
     1
  3
ADSK_XREC_LAYER_RECONCILED
360
5D4C
  0
DICTIONARY
  5
5D4D
330
8F8
100
AcDbDictionary
280
     1
281
     1
  3
ADSK_XREC_LAYER_RECONCILED
360
5D4E
  0
DICTIONARY
  5
5D4F
330
91D
100
AcDbDictionary
280
     1
281
     1
  3
ADSK_XREC_LAYER_RECONCILED
360
5D50
  0
DICTIONARY
  5
5D51
330
BA5
100
AcDbDictionary
280
     1
281
     1
  3
ADSK_XREC_LAYER_RECONCILED
360
5D52
  0
DICTIONARY
  5
5D53
330
DA5
100
AcDbDictionary
280
     1
281
     1
  3
ADSK_XREC_LAYER_RECONCILED
360
5D54
  0
DICTIONARY
  5
5D55
330
195E
100
AcDbDictionary
280
     1
281
     1
  3
ADSK_XREC_LAYER_RECONCILED
360
5D56
  0
DICTIONARY
  5
5D19
102
{ACAD_REACTORS
330
C
102
}
330
C
100
AcDbDictionary
281
     1
  0
DICTIONARY
  5
D
102
{ACAD_REACTORS
330
C
102
}
330
C
100
AcDbDictionary
281
     1
  0
DICTIONARY
  5
1A
102
{ACAD_REACTORS
330
C
102
}
330
C
100
AcDbDictionary
281
     1
  3
Layout1
350
1E
  3
Layout2
350
26
  3
Model
350
22
  0
DICTIONARY
  5
5CEC
102
{ACAD_REACTORS
330
C
102
}
330
C
100
AcDbDictionary
281
     1
  3
ByBlock
350
5CF5
  3
ByLayer
350
5CED
  3
Global
350
5CFD
  0
DICTIONARY
  5
5D2E
102
{ACAD_REACTORS
330
C
102
}
330
C
100
AcDbDictionary
281
     1
  3
Standard
350
5D2F
  0
DICTIONARY
  5
17
102
{ACAD_REACTORS
330
C
102
}
330
C
100
AcDbDictionary
281
     1
  3
Standard
350
18
  0
DICTIONARY
  5
19
102
{ACAD_REACTORS
330
C
102
}
330
C
100
AcDbDictionary
281
     1
  0
ACDBDICTIONARYWDFLT
  5
E
102
{ACAD_REACTORS
330
C
102
}
330
C
100
AcDbDictionary
281
     1
  3
Normal
350
F
100
AcDbDictionaryWithDefault
340
F
  0
DICTIONARY
  5
5D1C
102
{ACAD_REACTORS
330
C
102
}
330
C
100
AcDbDictionary
281
     1
  3
A0
350
5D1D
  3
A1
350
5D1E
  3
A2
350
5D1F
  3
A3
350
5D20
  3
A4
350
5D21
  3
A5
350
5D22
  3
A6
350
5D23
  3
A7
350
5D24
  3
A8
350
5D25
  3
A9
350
5D26
  3
B0
350
5D27
  3
B1
350
5D28
  3
B2
350
5D29
  3
B3
350
5D2A
  3
B4
350
5D2B
  3
B5
350
5D2C
  3
B6
350
5D2D
  0
DICTIONARY
  5
5D1A
102
{ACAD_REACTORS
330
C
102
}
330
C
100
AcDbDictionary
281
     1
  3
Standard
350
5D1B
  0
DICTIONARY
  5
5D05
102
{ACAD_REACTORS
330
C
102
}
330
C
100
AcDbDictionary
281
     1
  3
2dWireframe
350
5D0B
  3
3D Hidden
350
5D0D
  3
3dWireframe
350
5D0C
  3
Basic
350
5D0A
  3
Brighten
350
5D11
  3
ColorChange
350
5D15
  3
Conceptual
350
5D0E
  3
Dim
350
5D10
  3
EdgeColorOff
350
5D18
  3
Facepattern
350
5D14
  3
Flat
350
5D06
  3
FlatWithEdges
350
5D07
  3
Gouraud
350
5D08
  3
GouraudWithEdges
350
5D09
  3
JitterOff
350
5D16
  3
Linepattern
350
5D13
  3
OverhangOff
350
5D17
  3
Realistic
350
5D0F
  3
Thicken
350
5D12
  0
XRECORD
  5
5D5F
102
{ACAD_REACTORS
330
C
102
}
330
C
100
AcDbXrecord
280
     1
 90
        1
330
5D1B
  0
DICTIONARY
  5
3D
102
{ACAD_REACTORS
330
C
102
}
330
C
100
AcDbDictionary
281
     1
  3
CANNOSCALE
350
5D59
  3
CMLEADERSTYLE
350
5D58
  3
CTABLESTYLE
350
5D57
  3
DIMASSOC
350
3F
  3
HIDETEXT
350
3E
  3
INDEXCTL
350
5D5B
  3
SORTENTS
350
5D5A
  3
XCLIPFRAME
350
5D5C
  0
DICTIONARY
  5
BCC
102
{ACAD_REACTORS
330
C
102
}
330
C
100
AcDbDictionary
281
     1
  3
ASEBlockHierarchyIndexRecord
350
BCD
1001
DCO15
1040
1757841040.562
  0
XRECORD
  5
5D60
102
{ACAD_REACTORS
330
C
102
}
330
C
100
AcDbXrecord
280
     1
  1
DWGPROPS COOKIE
  2

  3

  4

  6

  7

  8
Julio
  9

300
=
301
=
302
=
303
=
304
=
305
=
306
=
307
=
308
=
309
=
 40
0.0164170949074074
 41
2453480.629681713
 42
2456148.594265764
  1

 90
        0
  0
XRECORD
  5
5D36
102
{ACAD_REACTORS
330
5D35
102
}
330
5D35
100
AcDbXrecord
280
     1
290
     1
  0
XRECORD
  5
5D38
102
{ACAD_REACTORS
330
5D37
102
}
330
5D37
100
AcDbXrecord
280
     1
290
     1
  0
XRECORD
  5
5D3A
102
{ACAD_REACTORS
330
5D39
102
}
330
5D39
100
AcDbXrecord
280
     1
290
     1
  0
XRECORD
  5
5D3C
102
{ACAD_REACTORS
330
5D3B
102
}
330
5D3B
100
AcDbXrecord
280
     1
290
     1
  0
XRECORD
  5
5D3E
102
{ACAD_REACTORS
330
5D3D
102
}
330
5D3D
100
AcDbXrecord
280
     1
290
     1
  0
XRECORD
  5
5D40
102
{ACAD_REACTORS
330
5D3F
102
}
330
5D3F
100
AcDbXrecord
280
     1
290
     1
  0
XRECORD
  5
5D42
102
{ACAD_REACTORS
330
5D41
102
}
330
5D41
100
AcDbXrecord
280
     1
290
     1
  0
XRECORD
  5
5D44
102
{ACAD_REACTORS
330
5D43
102
}
330
5D43
100
AcDbXrecord
280
     1
290
     1
  0
XRECORD
  5
5D46
102
{ACAD_REACTORS
330
5D45
102
}
330
5D45
100
AcDbXrecord
280
     1
290
     1
  0
XRECORD
  5
5D48
102
{ACAD_REACTORS
330
5D47
102
}
330
5D47
100
AcDbXrecord
280
     1
290
     1
  0
XRECORD
  5
5D4A
102
{ACAD_REACTORS
330
5D49
102
}
330
5D49
100
AcDbXrecord
280
     1
290
     1
  0
XRECORD
  5
5D4C
102
{ACAD_REACTORS
330
5D4B
102
}
330
5D4B
100
AcDbXrecord
280
     1
290
     1
  0
XRECORD
  5
5D4E
102
{ACAD_REACTORS
330
5D4D
102
}
330
5D4D
100
AcDbXrecord
280
     1
290
     1
  0
XRECORD
  5
5D50
102
{ACAD_REACTORS
330
5D4F
102
}
330
5D4F
100
AcDbXrecord
280
     1
290
     1
  0
XRECORD
  5
5D52
102
{ACAD_REACTORS
330
5D51
102
}
330
5D51
100
AcDbXrecord
280
     1
290
     1
  0
XRECORD
  5
5D54
102
{ACAD_REACTORS
330
5D53
102
}
330
5D53
100
AcDbXrecord
280
     1
290
     1
  0
XRECORD
  5
5D56
102
{ACAD_REACTORS
330
5D55
102
}
330
5D55
100
AcDbXrecord
280
     1
290
     1
  0
LAYOUT
  5
1E
102
{ACAD_XDICTIONARY
360
5D61
102
}
102
{ACAD_REACTORS
330
1A
102
}
330
1A
100
AcDbPlotSettings
  1

  2
Ploter HP500
  4

  6

 40
0.0
 41
0.0
 42
0.0
 43
0.0
 44
0.0
 45
0.0
 46
0.0
 47
0.0
 48
0.0
 49
0.0
140
0.0
141
0.0
142
1.0
143
1.0
 70
   688
 72
     0
 73
     0
 74
     5
  7
monochrome.ctb
 75
    16
147
1.0
148
0.0
149
0.0
100
AcDbLayout
  1
Layout1
 70
     1
 71
     1
 10
0.0
 20
0.0
 11
420.0
 21
297.0
 12
0.0
 22
0.0
 32
0.0
 14
1.000000000000000E+20
 24
1.000000000000000E+20
 34
1.000000000000000E+20
 15
-1.000000000000000E+20
 25
-1.000000000000000E+20
 35
-1.000000000000000E+20
146
0.0
 13
0.0
 23
0.0
 33
0.0
 16
1.0
 26
0.0
 36
0.0
 17
0.0
 27
1.0
 37
0.0
 76
     0
330
1B
  0
LAYOUT
  5
26
102
{ACAD_XDICTIONARY
360
5D65
102
}
102
{ACAD_REACTORS
330
1A
102
}
330
1A
100
AcDbPlotSettings
  1

  2
Ploter HP500
  4

  6

 40
0.0
 41
0.0
 42
0.0
 43
0.0
 44
0.0
 45
0.0
 46
0.0
 47
0.0
 48
0.0
 49
0.0
140
0.0
141
0.0
142
1.0
143
1.0
 70
   688
 72
     0
 73
     0
 74
     5
  7
monochrome.ctb
 75
    16
147
1.0
148
0.0
149
0.0
100
AcDbLayout
  1
Layout2
 70
     1
 71
     2
 10
0.0
 20
0.0
 11
12.0
 21
9.0
 12
0.0
 22
0.0
 32
0.0
 14
0.0
 24
0.0
 34
0.0
 15
0.0
 25
0.0
 35
0.0
146
0.0
 13
0.0
 23
0.0
 33
0.0
 16
1.0
 26
0.0
 36
0.0
 17
0.0
 27
1.0
 37
0.0
 76
     0
330
23
  0
LAYOUT
  5
22
102
{ACAD_XDICTIONARY
360
5D63
102
}
102
{ACAD_REACTORS
330
1A
102
}
330
1A
100
AcDbPlotSettings
  1

  2
Ploter HP500
  4
User268
  6

 40
4.995333194732666
 41
16.97565841674804
 42
4.995330810546875
 43
16.97567749023437
 44
209.9733276367187
 45
296.9259948730469
 46
0.0
 47
0.0
 48
0.0
 49
0.0
140
0.0
141
0.0
142
1.0
143
1.0
 70
 11952
 72
     1
 73
     1
 74
     0
  7

 75
     0
147
1.0
148
-427.5957866592534
149
7.362384574453926
100
AcDbLayout
  1
Model
 70
     1
 71
     0
 10
0.0
 20
0.0
 11
12.0
 21
9.0
 12
0.0
 22
0.0
 32
0.0
 14
0.0
 24
0.0
 34
0.0
 15
0.0
 25
0.0
 35
0.0
146
0.0
 13
0.0
 23
0.0
 33
0.0
 16
1.0
 26
0.0
 36
0.0
 17
0.0
 27
1.0
 37
0.0
 76
     0
330
1F
331
5CEA
  0
MATERIAL
  5
5CF5
102
{ACAD_XDICTIONARY
360
5CF6
102
}
102
{ACAD_REACTORS
330
5CEC
102
}
330
5CEC
100
AcDbMaterial
  1
ByBlock
 72
     0
 43
0.0008202099737533
 43
0.0
 43
0.0
 43
0.0
 43
0.0
 43
0.0008202099737533
 43
0.0
 43
0.0
 43
0.0
 43
0.0
 43
1.0
 43
0.0
 43
0.0
 43
0.0
 43
0.0
 43
1.0
 77
     0
 47
0.0008202099737533
 47
0.0
 47
0.0
 47
0.0
 47
0.0
 47
0.0008202099737533
 47
0.0
 47
0.0
 47
0.0
 47
0.0
 47
1.0
 47
0.0
 47
0.0
 47
0.0
 47
0.0
 47
1.0
171
     0
 49
0.0008202099737533
 49
0.0
 49
0.0
 49
0.0
 49
0.0
 49
0.0008202099737533
 49
0.0
 49
0.0
 49
0.0
 49
0.0
 49
1.0
 49
0.0
 49
0.0
 49
0.0
 49
0.0
 49
1.0
175
     0
142
0.0008202099737533
142
0.0
142
0.0
142
0.0
142
0.0
142
0.0008202099737533
142
0.0
142
0.0
142
0.0
142
0.0
142
1.0
142
0.0
142
0.0
142
0.0
142
0.0
142
1.0
179
     0
144
0.0008202099737533
144
0.0
144
0.0
144
0.0
144
0.0
144
0.0008202099737533
144
0.0
144
0.0
144
0.0
144
0.0
144
1.0
144
0.0
144
0.0
144
0.0
144
0.0
144
1.0
147
0.0008202099737533
147
0.0
147
0.0
147
0.0
147
0.0
147
0.0008202099737533
147
0.0
147
0.0
147
0.0
147
0.0
147
1.0
147
0.0
147
0.0
147
0.0
147
0.0
147
1.0
  0
MATERIAL
  5
5CED
102
{ACAD_XDICTIONARY
360
5CEE
102
}
102
{ACAD_REACTORS
330
5CEC
102
}
330
5CEC
100
AcDbMaterial
  1
ByLayer
 72
     0
 43
0.0008202099737533
 43
0.0
 43
0.0
 43
0.0
 43
0.0
 43
0.0008202099737533
 43
0.0
 43
0.0
 43
0.0
 43
0.0
 43
1.0
 43
0.0
 43
0.0
 43
0.0
 43
0.0
 43
1.0
 77
     0
 47
0.0008202099737533
 47
0.0
 47
0.0
 47
0.0
 47
0.0
 47
0.0008202099737533
 47
0.0
 47
0.0
 47
0.0
 47
0.0
 47
1.0
 47
0.0
 47
0.0
 47
0.0
 47
0.0
 47
1.0
171
     0
 49
0.0008202099737533
 49
0.0
 49
0.0
 49
0.0
 49
0.0
 49
0.0008202099737533
 49
0.0
 49
0.0
 49
0.0
 49
0.0
 49
1.0
 49
0.0
 49
0.0
 49
0.0
 49
0.0
 49
1.0
175
     0
142
0.0008202099737533
142
0.0
142
0.0
142
0.0
142
0.0
142
0.0008202099737533
142
0.0
142
0.0
142
0.0
142
0.0
142
1.0
142
0.0
142
0.0
142
0.0
142
0.0
142
1.0
179
     0
144
0.0008202099737533
144
0.0
144
0.0
144
0.0
144
0.0
144
0.0008202099737533
144
0.0
144
0.0
144
0.0
144
0.0
144
1.0
144
0.0
144
0.0
144
0.0
144
0.0
144
1.0
147
0.0008202099737533
147
0.0
147
0.0
147
0.0
147
0.0
147
0.0008202099737533
147
0.0
147
0.0
147
0.0
147
0.0
147
1.0
147
0.0
147
0.0
147
0.0
147
0.0
147
1.0
  0
MATERIAL
  5
5CFD
102
{ACAD_XDICTIONARY
360
5CFE
102
}
102
{ACAD_REACTORS
330
5CEC
102
}
330
5CEC
100
AcDbMaterial
  1
Global
 72
     0
 43
0.0008202099737533
 43
0.0
 43
0.0
 43
0.0
 43
0.0
 43
0.0008202099737533
 43
0.0
 43
0.0
 43
0.0
 43
0.0
 43
1.0
 43
0.0
 43
0.0
 43
0.0
 43
0.0
 43
1.0
 77
     0
 47
0.0008202099737533
 47
0.0
 47
0.0
 47
0.0
 47
0.0
 47
0.0008202099737533
 47
0.0
 47
0.0
 47
0.0
 47
0.0
 47
1.0
 47
0.0
 47
0.0
 47
0.0
 47
0.0
 47
1.0
171
     0
 49
0.0008202099737533
 49
0.0
 49
0.0
 49
0.0
 49
0.0
 49
0.0008202099737533
 49
0.0
 49
0.0
 49
0.0
 49
0.0
 49
1.0
 49
0.0
 49
0.0
 49
0.0
 49
0.0
 49
1.0
175
     0
142
0.0008202099737533
142
0.0
142
0.0
142
0.0
142
0.0
142
0.0008202099737533
142
0.0
142
0.0
142
0.0
142
0.0
142
1.0
142
0.0
142
0.0
142
0.0
142
0.0
142
1.0
179
     0
144
0.0008202099737533
144
0.0
144
0.0
144
0.0
144
0.0
144
0.0008202099737533
144
0.0
144
0.0
144
0.0
144
0.0
144
1.0
144
0.0
144
0.0
144
0.0
144
0.0
144
1.0
147
0.0008202099737533
147
0.0
147
0.0
147
0.0
147
0.0
147
0.0008202099737533
147
0.0
147
0.0
147
0.0
147
0.0
147
1.0
147
0.0
147
0.0
147
0.0
147
0.0
147
1.0
  0
MLEADERSTYLE
  5
5D2F
102
{ACAD_REACTORS
330
5D2E
102
}
330
5D2E
100
AcDbMLeaderStyle
170
     2
171
     1
172
     0
 90
        2
 40
0.0
 41
0.0
173
     1
 91
-1056964608
340
14
 92
       -2
290
     1
 42
2.0
291
     1
 43
0.36
  3
Standard
 44
4.0
300

342
11
174
     1
178
     6
175
     1
176
     0
 93
-1056964608
 45
4.0
292
     0
297
     0
 46
4.0
 94
-1056964608
 47
1.0
 49
1.0
140
1.0
293
     1
141
0.0
294
     1
177
     0
142
1.0
295
     0
296
     0
143
0.125
1001
ACAD_MLEADERVER
1070
     2
  0
MLINESTYLE
  5
18
102
{ACAD_REACTORS
330
17
102
}
330
17
100
AcDbMlineStyle
  2
STANDARD
 70
     0
  3

 62
   256
 51
90.0
 52
90.0
 71
     2
 49
0.5
 62
   256
  6
BYLAYER
 49
-0.5
 62
   256
  6
BYLAYER
  0
ACDBPLACEHOLDER
  5
F
102
{ACAD_REACTORS
330
E
102
}
330
E
  0
SCALE
  5
5D1D
102
{ACAD_REACTORS
330
5D1C
102
}
330
5D1C
100
AcDbScale
 70
     0
300
1:1
140
1.0
141
1.0
290
     1
  0
SCALE
  5
5D1E
102
{ACAD_REACTORS
330
5D1C
102
}
330
5D1C
100
AcDbScale
 70
     0
300
1:2
140
1.0
141
2.0
290
     0
  0
SCALE
  5
5D1F
102
{ACAD_REACTORS
330
5D1C
102
}
330
5D1C
100
AcDbScale
 70
     0
300
1:4
140
1.0
141
4.0
290
     0
  0
SCALE
  5
5D20
102
{ACAD_REACTORS
330
5D1C
102
}
330
5D1C
100
AcDbScale
 70
     0
300
1:5
140
1.0
141
5.0
290
     0
  0
SCALE
  5
5D21
102
{ACAD_REACTORS
330
5D1C
102
}
330
5D1C
100
AcDbScale
 70
     0
300
1:8
140
1.0
141
8.0
290
     0
  0
SCALE
  5
5D22
102
{ACAD_REACTORS
330
5D1C
102
}
330
5D1C
100
AcDbScale
 70
     0
300
1:10
140
1.0
141
10.0
290
     0
  0
SCALE
  5
5D23
102
{ACAD_REACTORS
330
5D1C
102
}
330
5D1C
100
AcDbScale
 70
     0
300
1:16
140
1.0
141
16.0
290
     0
  0
SCALE
  5
5D24
102
{ACAD_REACTORS
330
5D1C
102
}
330
5D1C
100
AcDbScale
 70
     0
300
1:20
140
1.0
141
20.0
290
     0
  0
SCALE
  5
5D25
102
{ACAD_REACTORS
330
5D1C
102
}
330
5D1C
100
AcDbScale
 70
     0
300
1:30
140
1.0
141
30.0
290
     0
  0
SCALE
  5
5D26
102
{ACAD_REACTORS
330
5D1C
102
}
330
5D1C
100
AcDbScale
 70
     0
300
1:40
140
1.0
141
40.0
290
     0
  0
SCALE
  5
5D27
102
{ACAD_REACTORS
330
5D1C
102
}
330
5D1C
100
AcDbScale
 70
     0
300
1:50
140
1.0
141
50.0
290
     0
  0
SCALE
  5
5D28
102
{ACAD_REACTORS
330
5D1C
102
}
330
5D1C
100
AcDbScale
 70
     0
300
1:100
140
1.0
141
100.0
290
     0
  0
SCALE
  5
5D29
102
{ACAD_REACTORS
330
5D1C
102
}
330
5D1C
100
AcDbScale
 70
     0
300
2:1
140
2.0
141
1.0
290
     0
  0
SCALE
  5
5D2A
102
{ACAD_REACTORS
330
5D1C
102
}
330
5D1C
100
AcDbScale
 70
     0
300
4:1
140
4.0
141
1.0
290
     0
  0
SCALE
  5
5D2B
102
{ACAD_REACTORS
330
5D1C
102
}
330
5D1C
100
AcDbScale
 70
     0
300
8:1
140
8.0
141
1.0
290
     0
  0
SCALE
  5
5D2C
102
{ACAD_REACTORS
330
5D1C
102
}
330
5D1C
100
AcDbScale
 70
     0
300
10:1
140
10.0
141
1.0
290
     0
  0
SCALE
  5
5D2D
102
{ACAD_REACTORS
330
5D1C
102
}
330
5D1C
100
AcDbScale
 70
     0
300
100:1
140
100.0
141
1.0
290
     0
  0
TABLESTYLE
  5
5D1B
102
{ACAD_XDICTIONARY
360
5D5D
102
}
102
{ACAD_REACTORS
330
5D1A
102
}
330
5D1A
100
AcDbTableStyle
  3
Standard
 70
     0
 71
     0
 40
1.5
 41
1.5
280
     0
281
     0
  7
Standard
140
4.5
170
     2
 62
     0
 63
     7
283
     0
274
    -2
284
     1
 64
     0
275
    -2
285
     1
 65
     0
276
    -2
286
     1
 66
     0
277
    -2
287
     1
 67
     0
278
    -2
288
     1
 68
     0
279
    -2
289
     1
 69
     0
  7
Standard
140
6.0
170
     5
 62
     0
 63
     7
283
     0
274
    -2
284
     1
 64
     0
275
    -2
285
     1
 65
     0
276
    -2
286
     1
 66
     0
277
    -2
287
     1
 67
     0
278
    -2
288
     1
 68
     0
279
    -2
289
     1
 69
     0
  7
Standard
140
4.5
170
     5
 62
     0
 63
     7
283
     0
274
    -2
284
     1
 64
     0
275
    -2
285
     1
 65
     0
276
    -2
286
     1
 66
     0
277
    -2
287
     1
 67
     0
278
    -2
288
     1
 68
     0
279
    -2
289
     1
 69
     0
  0
VISUALSTYLE
  5
5D0B
102
{ACAD_XDICTIONARY
360
5D90
102
}
102
{ACAD_REACTORS
330
5D05
102
}
330
5D05
100
AcDbVisualStyle
  2
2dWireframe
 70
     4
 71
     0
 72
     2
 73
     0
 90
        0
 40
-0.6
 41
-30.0
 62
     5
 63
     7
 74
     1
 91
        4
 64
     7
 65
   257
 75
     1
175
     1
 42
1.0
 92
        0
 66
   257
 43
1.0
 76
     1
 77
     6
 78
     2
 67
     7
 79
     5
170
     0
171
     0
290
     0
174
     0
 93
        1
 44
0.0
173
     0
291
     0
 45
0.0
1001
ACAD
1000
AcDbSavedByObjectVersion
1070
     0
  0
VISUALSTYLE
  5
5D0D
102
{ACAD_XDICTIONARY
360
5D94
102
}
102
{ACAD_REACTORS
330
5D05
102
}
330
5D05
100
AcDbVisualStyle
  2
3D Hidden
 70
     6
 71
     1
 72
     2
 73
     2
 90
        0
 40
-0.6
 41
-30.0
 62
     5
 63
     7
 74
     2
 91
        2
 64
     7
 65
   257
 75
     2
175
     1
 42
179.0
 92
        0
 66
   257
 43
1.0
 76
     1
 77
     6
 78
     2
 67
     7
 79
     3
170
     0
171
     0
290
     0
174
     0
 93
        1
 44
0.0
173
     0
291
     0
 45
0.0
1001
ACAD
1000
AcDbSavedByObjectVersion
1070
     0
  0
VISUALSTYLE
  5
5D0C
102
{ACAD_XDICTIONARY
360
5D92
102
}
102
{ACAD_REACTORS
330
5D05
102
}
330
5D05
100
AcDbVisualStyle
  2
3dWireframe
 70
     5
 71
     0
 72
     2
 73
     0
 90
        0
 40
-0.6
 41
-30.0
 62
     5
 63
     7
 74
     1
 91
        4
 64
     7
 65
   257
 75
     1
175
     1
 42
1.0
 92
        0
 66
   257
 43
1.0
 76
     1
 77
     6
 78
     2
 67
     7
 79
     5
170
     0
171
     0
290
     0
174
     0
 93
        1
 44
0.0
173
     0
291
     0
 45
0.0
1001
ACAD
1000
AcDbSavedByObjectVersion
1070
     0
  0
VISUALSTYLE
  5
5D0A
102
{ACAD_XDICTIONARY
360
5D8E
102
}
102
{ACAD_REACTORS
330
5D05
102
}
330
5D05
100
AcDbVisualStyle
  2
Basic
 70
     7
 71
     1
 72
     0
 73
     1
 90
        0
 40
-0.6
 41
-30.0
 62
     5
 63
     7
 74
     0
 91
        4
 64
     7
 65
   257
 75
     1
175
     1
 42
1.0
 92
        8
 66
     7
 43
1.0
 76
     1
 77
     6
 78
     2
 67
     7
 79
     5
170
     0
171
     0
290
     0
174
     0
 93
        1
 44
0.0
173
     0
291
     1
 45
0.0
1001
ACAD
1000
AcDbSavedByObjectVersion
1070
     0
  0
VISUALSTYLE
  5
5D11
102
{ACAD_XDICTIONARY
360
5D9C
102
}
102
{ACAD_REACTORS
330
5D05
102
}
330
5D05
100
AcDbVisualStyle
  2
Brighten
 70
    12
 71
     2
 72
     2
 73
     0
 90
        0
 40
-0.6
 41
-30.0
 62
     5
 63
     7
 74
     1
 91
        4
 64
     7
 65
   257
 75
     1
175
     1
 42
1.0
 92
        8
 66
     7
 43
1.0
 76
     1
 77
     6
 78
     2
 67
     7
 79
     5
170
     0
171
     0
290
     0
174
     0
 93
        1
 44
50.0
173
     0
291
     1
 45
0.0
1001
ACAD
1000
AcDbSavedByObjectVersion
1070
     0
  0
VISUALSTYLE
  5
5D15
102
{ACAD_XDICTIONARY
360
5DA4
102
}
102
{ACAD_REACTORS
330
5D05
102
}
330
5D05
100
AcDbVisualStyle
  2
ColorChange
 70
    16
 71
     2
 72
     2
 73
     3
 90
        0
 40
-0.6
 41
-30.0
 62
     5
 63
     8
 74
     1
 91
        4
 64
     7
 65
   257
 75
     1
175
     1
 42
1.0
 92
        8
 66
     8
 43
1.0
 76
     1
 77
     6
 78
     2
 67
     7
 79
     5
170
     0
171
     0
290
     0
174
     0
 93
        1
 44
0.0
173
     0
291
     1
 45
0.0
1001
ACAD
1000
AcDbSavedByObjectVersion
1070
     0
  0
VISUALSTYLE
  5
5D0E
102
{ACAD_XDICTIONARY
360
5D96
102
}
102
{ACAD_REACTORS
330
5D05
102
}
330
5D05
100
AcDbVisualStyle
  2
Conceptual
 70
     9
 71
     3
 72
     2
 73
     0
 90
        0
 40
-0.6
 41
-30.0
 62
     5
 63
     7
 74
     2
 91
        2
 64
     7
 65
   257
 75
     1
175
     1
 42
179.0
 92
        8
 66
     7
 43
1.0
 76
     1
 77
     6
 78
     2
 67
     7
 79
     3
170
     0
171
     0
290
     0
174
     0
 93
        1
 44
0.0
173
     0
291
     0
 45
0.0
1001
ACAD
1000
AcDbSavedByObjectVersion
1070
     0
  0
VISUALSTYLE
  5
5D10
102
{ACAD_XDICTIONARY
360
5D9A
102
}
102
{ACAD_REACTORS
330
5D05
102
}
330
5D05
100
AcDbVisualStyle
  2
Dim
 70
    11
 71
     2
 72
     2
 73
     0
 90
        0
 40
-0.6
 41
-30.0
 62
     5
 63
     7
 74
     1
 91
        4
 64
     7
 65
   257
 75
     1
175
     1
 42
1.0
 92
        8
 66
     7
 43
1.0
 76
     1
 77
     6
 78
     2
 67
     7
 79
     5
170
     0
171
     0
290
     0
174
     0
 93
        1
 44
-50.0
173
     0
291
     1
 45
0.0
1001
ACAD
1000
AcDbSavedByObjectVersion
1070
     0
  0
VISUALSTYLE
  5
5D18
102
{ACAD_XDICTIONARY
360
5DAA
102
}
102
{ACAD_REACTORS
330
5D05
102
}
330
5D05
100
AcDbVisualStyle
  2
EdgeColorOff
 70
    22
 71
     2
 72
     2
 73
     0
 90
        0
 40
-0.6
 41
-30.0
 62
     5
 63
     7
 74
     1
 91
        4
 64
     7
 65
   257
 75
     1
175
     1
 42
1.0
 92
        8
 66
     7
 43
1.0
 76
     1
 77
     6
 78
     2
 67
     7
 79
     5
170
     0
171
     0
290
     0
174
     0
 93
        1
 44
0.0
173
     0
291
     1
 45
0.0
1001
ACAD
1000
AcDbSavedByObjectVersion
1070
     0
  0
VISUALSTYLE
  5
5D14
102
{ACAD_XDICTIONARY
360
5DA2
102
}
102
{ACAD_REACTORS
330
5D05
102
}
330
5D05
100
AcDbVisualStyle
  2
Facepattern
 70
    15
 71
     2
 72
     2
 73
     0
 90
        0
 40
-0.6
 41
-30.0
 62
     5
 63
     7
 74
     1
 91
        4
 64
     7
 65
   257
 75
     1
175
     1
 42
1.0
 92
        8
 66
     7
 43
1.0
 76
     1
 77
     6
 78
     2
 67
     7
 79
     5
170
     0
171
     0
290
     0
174
     0
 93
        1
 44
0.0
173
     0
291
     1
 45
0.0
1001
ACAD
1000
AcDbSavedByObjectVersion
1070
     0
  0
VISUALSTYLE
  5
5D06
102
{ACAD_XDICTIONARY
360
5D86
102
}
102
{ACAD_REACTORS
330
5D05
102
}
330
5D05
100
AcDbVisualStyle
  2
Flat
 70
     0
 71
     2
 72
     1
 73
     1
 90
        2
 40
-0.6
 41
30.0
 62
     5
 63
     7
 74
     0
 91
        4
 64
     7
 65
   257
 75
     1
175
     1
 42
1.0
 92
        8
 66
     7
 43
1.0
 76
     1
 77
     6
 78
     2
 67
     7
 79
     5
170
     0
171
     0
290
     0
174
     0
 93
       13
 44
0.0
173
     0
291
     1
 45
0.0
1001
ACAD
1000
AcDbSavedByObjectVersion
1070
     0
  0
VISUALSTYLE
  5
5D07
102
{ACAD_XDICTIONARY
360
5D88
102
}
102
{ACAD_REACTORS
330
5D05
102
}
330
5D05
100
AcDbVisualStyle
  2
FlatWithEdges
 70
     1
 71
     2
 72
     1
 73
     1
 90
        2
 40
-0.6
 41
30.0
 62
     5
 63
     7
 74
     1
 91
        4
 64
     7
 65
   257
 75
     1
175
     1
 42
1.0
 92
        0
 66
   257
 43
1.0
 76
     1
 77
     6
 78
     2
 67
     7
 79
     5
170
     0
171
     0
290
     0
174
     0
 93
       13
 44
0.0
173
     0
291
     1
 45
0.0
1001
ACAD
1000
AcDbSavedByObjectVersion
1070
     0
  0
VISUALSTYLE
  5
5D08
102
{ACAD_XDICTIONARY
360
5D8A
102
}
102
{ACAD_REACTORS
330
5D05
102
}
330
5D05
100
AcDbVisualStyle
  2
Gouraud
 70
     2
 71
     2
 72
     2
 73
     1
 90
        2
 40
-0.6
 41
30.0
 62
     5
 63
     7
 74
     0
 91
        4
 64
     7
 65
   257
 75
     1
175
     1
 42
1.0
 92
        0
 66
     7
 43
1.0
 76
     1
 77
     6
 78
     2
 67
     7
 79
     5
170
     0
171
     0
290
     0
174
     0
 93
       13
 44
0.0
173
     0
291
     1
 45
0.0
1001
ACAD
1000
AcDbSavedByObjectVersion
1070
     0
  0
VISUALSTYLE
  5
5D09
102
{ACAD_XDICTIONARY
360
5D8C
102
}
102
{ACAD_REACTORS
330
5D05
102
}
330
5D05
100
AcDbVisualStyle
  2
GouraudWithEdges
 70
     3
 71
     2
 72
     2
 73
     1
 90
        2
 40
-0.6
 41
30.0
 62
     5
 63
     7
 74
     1
 91
        4
 64
     7
 65
   257
 75
     1
175
     1
 42
1.0
 92
        0
 66
   257
 43
1.0
 76
     1
 77
     6
 78
     2
 67
     7
 79
     5
170
     0
171
     0
290
     0
174
     0
 93
       13
 44
0.0
173
     0
291
     1
 45
0.0
1001
ACAD
1000
AcDbSavedByObjectVersion
1070
     0
  0
VISUALSTYLE
  5
5D16
102
{ACAD_XDICTIONARY
360
5DA6
102
}
102
{ACAD_REACTORS
330
5D05
102
}
330
5D05
100
AcDbVisualStyle
  2
JitterOff
 70
    20
 71
     2
 72
     2
 73
     0
 90
        0
 40
-0.6
 41
-30.0
 62
     5
 63
     7
 74
     1
 91
        4
 64
     7
 65
   257
 75
     1
175
     1
 42
1.0
 92
       10
 66
     7
 43
1.0
 76
     1
 77
     6
 78
     2
 67
     7
 79
     5
170
     0
171
     0
290
     0
174
     0
 93
        1
 44
0.0
173
     0
291
     1
 45
0.0
1001
ACAD
1000
AcDbSavedByObjectVersion
1070
     0
  0
VISUALSTYLE
  5
5D13
102
{ACAD_XDICTIONARY
360
5DA0
102
}
102
{ACAD_REACTORS
330
5D05
102
}
330
5D05
100
AcDbVisualStyle
  2
Linepattern
 70
    14
 71
     2
 72
     2
 73
     0
 90
        0
 40
-0.6
 41
-30.0
 62
     5
 63
     7
 74
     1
 91
        4
 64
     7
 65
   257
 75
     7
175
     7
 42
1.0
 92
        8
 66
     7
 43
1.0
 76
     1
 77
     6
 78
     2
 67
     7
 79
     5
170
     0
171
     0
290
     0
174
     0
 93
        1
 44
0.0
173
     0
291
     1
 45
0.0
1001
ACAD
1000
AcDbSavedByObjectVersion
1070
     0
  0
VISUALSTYLE
  5
5D17
102
{ACAD_XDICTIONARY
360
5DA8
102
}
102
{ACAD_REACTORS
330
5D05
102
}
330
5D05
100
AcDbVisualStyle
  2
OverhangOff
 70
    21
 71
     2
 72
     2
 73
     0
 90
        0
 40
-0.6
 41
-30.0
 62
     5
 63
     7
 74
     1
 91
        4
 64
     7
 65
   257
 75
     1
175
     1
 42
1.0
 92
        9
 66
     7
 43
1.0
 76
     1
 77
     6
 78
     2
 67
     7
 79
     5
170
     0
171
     0
290
     0
174
     0
 93
        1
 44
0.0
173
     0
291
     1
 45
0.0
1001
ACAD
1000
AcDbSavedByObjectVersion
1070
     0
  0
VISUALSTYLE
  5
5D0F
102
{ACAD_XDICTIONARY
360
5D98
102
}
102
{ACAD_REACTORS
330
5D05
102
}
330
5D05
100
AcDbVisualStyle
  2
Realistic
 70
     8
 71
     2
 72
     2
 73
     0
 90
        0
 40
-0.6
 41
-30.0
 62
     5
 63
     7
 74
     1
 91
        0
 64
     7
 65
   257
 75
     1
175
     1
 42
1.0
 92
        8
 66
     8
 43
1.0
 76
     1
 77
     6
 78
     2
 67
     7
 79
     5
170
     0
171
     0
290
     0
174
     0
 93
       13
 44
0.0
173
     0
291
     0
 45
0.0
1001
ACAD
1000
AcDbSavedByObjectVersion
1070
     0
  0
VISUALSTYLE
  5
5D12
102
{ACAD_XDICTIONARY
360
5D9E
102
}
102
{ACAD_REACTORS
330
5D05
102
}
330
5D05
100
AcDbVisualStyle
  2
Thicken
 70
    13
 71
     2
 72
     2
 73
     0
 90
        0
 40
-0.6
 41
-30.0
 62
     5
 63
     7
 74
     1
 91
        4
 64
     7
 65
   257
 75
     1
175
     1
 42
1.0
 92
       12
 66
     7
 43
1.0
 76
     1
 77
     6
 78
     2
 67
     7
 79
     5
170
     0
171
     0
290
     0
174
     0
 93
        1
 44
0.0
173
     0
291
     1
 45
0.0
1001
ACAD
1000
AcDbSavedByObjectVersion
1070
     0
  0
DICTIONARYVAR
  5
5D59
102
{ACAD_REACTORS
330
3D
102
}
330
3D
100
DictionaryVariables
280
     0
  1
1:1
  0
DICTIONARYVAR
  5
5D58
102
{ACAD_REACTORS
330
3D
102
}
330
3D
100
DictionaryVariables
280
     0
  1
STANDARD
  0
DICTIONARYVAR
  5
5D57
102
{ACAD_REACTORS
330
3D
102
}
330
3D
100
DictionaryVariables
280
     0
  1
STANDARD
  0
DICTIONARYVAR
  5
3F
102
{ACAD_REACTORS
330
3D
102
}
330
3D
100
DictionaryVariables
280
     0
  1
2
  0
DICTIONARYVAR
  5
3E
102
{ACAD_REACTORS
330
3D
102
}
330
3D
100
DictionaryVariables
280
     0
  1
1
  0
DICTIONARYVAR
  5
5D5B
102
{ACAD_REACTORS
330
3D
102
}
330
3D
100
DictionaryVariables
280
     0
  1
0
  0
DICTIONARYVAR
  5
5D5A
102
{ACAD_REACTORS
330
3D
102
}
330
3D
100
DictionaryVariables
280
     0
  1
127
  0
DICTIONARYVAR
  5
5D5C
102
{ACAD_REACTORS
330
3D
102
}
330
3D
100
DictionaryVariables
280
     0
  1
2
  0
XRECORD
  5
BCD
102
{ACAD_REACTORS
330
BCC
102
}
330
BCC
100
AcDbXrecord
280
     1
  0
DICTIONARY
  5
5D61
330
1E
100
AcDbDictionary
280
     1
281
     1
  3
ACAD_XREC_ROUNDTRIP
360
5D62
  0
DICTIONARY
  5
5D65
330
26
100
AcDbDictionary
280
     1
281
     1
  3
ACAD_XREC_ROUNDTRIP
360
5D66
  0
DICTIONARY
  5
5D63
330
22
100
AcDbDictionary
280
     1
281
     1
  3
ACAD_XREC_ROUNDTRIP
360
5D64
  0
DICTIONARY
  5
5CF6
330
5CF5
100
AcDbDictionary
280
     1
281
     1
  3
ACAD_XREC_ROUNDTRIP
360
5D84
  3
BUMPTILE
360
5CF8
  3
DIFFUSETILE
360
5CF7
  3
OPACITYTILE
360
5CFB
  3
REFLECTIONTILE
360
5CFA
  3
REFRACTIONTILE
360
5CFC
  3
SPECULARTILE
360
5CF9
  0
DICTIONARY
  5
5CEE
330
5CED
100
AcDbDictionary
280
     1
281
     1
  3
ACAD_XREC_ROUNDTRIP
360
5D83
  3
BUMPTILE
360
5CF0
  3
DIFFUSETILE
360
5CEF
  3
OPACITYTILE
360
5CF3
  3
REFLECTIONTILE
360
5CF2
  3
REFRACTIONTILE
360
5CF4
  3
SPECULARTILE
360
5CF1
  0
DICTIONARY
  5
5CFE
330
5CFD
100
AcDbDictionary
280
     1
281
     1
  3
ACAD_XREC_ROUNDTRIP
360
5D85
  3
BUMPTILE
360
5D00
  3
DIFFUSETILE
360
5CFF
  3
OPACITYTILE
360
5D03
  3
REFLECTIONTILE
360
5D02
  3
REFRACTIONTILE
360
5D04
  3
SPECULARTILE
360
5D01
  0
DICTIONARY
  5
5D5D
330
5D1B
100
AcDbDictionary
280
     1
281
     1
  3
ACAD_ROUNDTRIP_2008_TABLESTYLE_CELLSTYLEMAP
360
5D5E
  3
ACAD_XREC_ROUNDTRIP
360
5DAC
  0
DICTIONARY
  5
5D90
330
5D0B
100
AcDbDictionary
280
     1
281
     1
  3
ACAD_XREC_ROUNDTRIP
360
5D91
  0
DICTIONARY
  5
5D94
330
5D0D
100
AcDbDictionary
280
     1
281
     1
  3
ACAD_XREC_ROUNDTRIP
360
5D95
  0
DICTIONARY
  5
5D92
330
5D0C
100
AcDbDictionary
280
     1
281
     1
  3
ACAD_XREC_ROUNDTRIP
360
5D93
  0
DICTIONARY
  5
5D8E
330
5D0A
100
AcDbDictionary
280
     1
281
     1
  3
ACAD_XREC_ROUNDTRIP
360
5D8F
  0
DICTIONARY
  5
5D9C
330
5D11
100
AcDbDictionary
280
     1
281
     1
  3
ACAD_XREC_ROUNDTRIP
360
5D9D
  0
DICTIONARY
  5
5DA4
330
5D15
100
AcDbDictionary
280
     1
281
     1
  3
ACAD_XREC_ROUNDTRIP
360
5DA5
  0
DICTIONARY
  5
5D96
330
5D0E
100
AcDbDictionary
280
     1
281
     1
  3
ACAD_XREC_ROUNDTRIP
360
5D97
  0
DICTIONARY
  5
5D9A
330
5D10
100
AcDbDictionary
280
     1
281
     1
  3
ACAD_XREC_ROUNDTRIP
360
5D9B
  0
DICTIONARY
  5
5DAA
330
5D18
100
AcDbDictionary
280
     1
281
     1
  3
ACAD_XREC_ROUNDTRIP
360
5DAB
  0
DICTIONARY
  5
5DA2
330
5D14
100
AcDbDictionary
280
     1
281
     1
  3
ACAD_XREC_ROUNDTRIP
360
5DA3
  0
DICTIONARY
  5
5D86
330
5D06
100
AcDbDictionary
280
     1
281
     1
  3
ACAD_XREC_ROUNDTRIP
360
5D87
  0
DICTIONARY
  5
5D88
330
5D07
100
AcDbDictionary
280
     1
281
     1
  3
ACAD_XREC_ROUNDTRIP
360
5D89
  0
DICTIONARY
  5
5D8A
330
5D08
100
AcDbDictionary
280
     1
281
     1
  3
ACAD_XREC_ROUNDTRIP
360
5D8B
  0
DICTIONARY
  5
5D8C
330
5D09
100
AcDbDictionary
280
     1
281
     1
  3
ACAD_XREC_ROUNDTRIP
360
5D8D
  0
DICTIONARY
  5
5DA6
330
5D16
100
AcDbDictionary
280
     1
281
     1
  3
ACAD_XREC_ROUNDTRIP
360
5DA7
  0
DICTIONARY
  5
5DA0
330
5D13
100
AcDbDictionary
280
     1
281
     1
  3
ACAD_XREC_ROUNDTRIP
360
5DA1
  0
DICTIONARY
  5
5DA8
330
5D17
100
AcDbDictionary
280
     1
281
     1
  3
ACAD_XREC_ROUNDTRIP
360
5DA9
  0
DICTIONARY
  5
5D98
330
5D0F
100
AcDbDictionary
280
     1
281
     1
  3
ACAD_XREC_ROUNDTRIP
360
5D99
  0
DICTIONARY
  5
5D9E
330
5D12
100
AcDbDictionary
280
     1
281
     1
  3
ACAD_XREC_ROUNDTRIP
360
5D9F
  0
XRECORD
  5
5D62
102
{ACAD_REACTORS
330
5D61
102
}
330
5D61
100
AcDbXrecord
280
     1
102
SHADEPLOT
 70
     0
102
SHADEPLOTRESLEVEL
 70
     2
102
SHADEPLOTCUSTOMDPI
 70
   300
  0
XRECORD
  5
5D66
102
{ACAD_REACTORS
330
5D65
102
}
330
5D65
100
AcDbXrecord
280
     1
102
SHADEPLOT
 70
     0
102
SHADEPLOTRESLEVEL
 70
     2
102
SHADEPLOTCUSTOMDPI
 70
   300
  0
XRECORD
  5
5D64
102
{ACAD_REACTORS
330
5D63
102
}
330
5D63
100
AcDbXrecord
280
     1
102
SHADEPLOT
 70
     0
102
SHADEPLOTRESLEVEL
 70
     2
102
SHADEPLOTCUSTOMDPI
 70
   300
  0
XRECORD
  5
5D84
102
{ACAD_REACTORS
330
5CF6
102
}
330
5CF6
100
AcDbXrecord
280
     1
102
MATERIAL
148
0.0
149
0.0
149
0.0
 93
        0
 94
      127
282
     0
 72
     0
 77
     0
171
     0
175
     0
179
     0
273
     0
  0
XRECORD
  5
5CF8
102
{ACAD_REACTORS
330
5CF6
102
}
330
5CF6
100
AcDbXrecord
280
     1
270
     1
271
     1
  0
XRECORD
  5
5CF7
102
{ACAD_REACTORS
330
5CF6
102
}
330
5CF6
100
AcDbXrecord
280
     1
270
     1
271
     1
  0
XRECORD
  5
5CFB
102
{ACAD_REACTORS
330
5CF6
102
}
330
5CF6
100
AcDbXrecord
280
     1
270
     1
271
     1
  0
XRECORD
  5
5CFA
102
{ACAD_REACTORS
330
5CF6
102
}
330
5CF6
100
AcDbXrecord
280
     1
270
     1
271
     1
  0
XRECORD
  5
5CFC
102
{ACAD_REACTORS
330
5CF6
102
}
330
5CF6
100
AcDbXrecord
280
     1
270
     1
271
     1
  0
XRECORD
  5
5CF9
102
{ACAD_REACTORS
330
5CF6
102
}
330
5CF6
100
AcDbXrecord
280
     1
270
     1
271
     1
  0
XRECORD
  5
5D83
102
{ACAD_REACTORS
330
5CEE
102
}
330
5CEE
100
AcDbXrecord
280
     1
102
MATERIAL
148
0.0
149
0.0
149
0.0
 93
        0
 94
      127
282
     0
 72
     0
 77
     0
171
     0
175
     0
179
     0
273
     0
  0
XRECORD
  5
5CF0
102
{ACAD_REACTORS
330
5CEE
102
}
330
5CEE
100
AcDbXrecord
280
     1
270
     1
271
     1
  0
XRECORD
  5
5CEF
102
{ACAD_REACTORS
330
5CEE
102
}
330
5CEE
100
AcDbXrecord
280
     1
270
     1
271
     1
  0
XRECORD
  5
5CF3
102
{ACAD_REACTORS
330
5CEE
102
}
330
5CEE
100
AcDbXrecord
280
     1
270
     1
271
     1
  0
XRECORD
  5
5CF2
102
{ACAD_REACTORS
330
5CEE
102
}
330
5CEE
100
AcDbXrecord
280
     1
270
     1
271
     1
  0
XRECORD
  5
5CF4
102
{ACAD_REACTORS
330
5CEE
102
}
330
5CEE
100
AcDbXrecord
280
     1
270
     1
271
     1
  0
XRECORD
  5
5CF1
102
{ACAD_REACTORS
330
5CEE
102
}
330
5CEE
100
AcDbXrecord
280
     1
270
     1
271
     1
  0
XRECORD
  5
5D85
102
{ACAD_REACTORS
330
5CFE
102
}
330
5CFE
100
AcDbXrecord
280
     1
102
MATERIAL
148
0.0
149
0.0
149
0.0
 93
        0
 94
      127
282
     0
 72
     0
 77
     0
171
     0
175
     0
179
     0
273
     0
  0
XRECORD
  5
5D00
102
{ACAD_REACTORS
330
5CFE
102
}
330
5CFE
100
AcDbXrecord
280
     1
270
     1
271
     1
  0
XRECORD
  5
5CFF
102
{ACAD_REACTORS
330
5CFE
102
}
330
5CFE
100
AcDbXrecord
280
     1
270
     1
271
     1
  0
XRECORD
  5
5D03
102
{ACAD_REACTORS
330
5CFE
102
}
330
5CFE
100
AcDbXrecord
280
     1
270
     1
271
     1
  0
XRECORD
  5
5D02
102
{ACAD_REACTORS
330
5CFE
102
}
330
5CFE
100
AcDbXrecord
280
     1
270
     1
271
     1
  0
XRECORD
  5
5D04
102
{ACAD_REACTORS
330
5CFE
102
}
330
5CFE
100
AcDbXrecord
280
     1
270
     1
271
     1
  0
XRECORD
  5
5D01
102
{ACAD_REACTORS
330
5CFE
102
}
330
5CFE
100
AcDbXrecord
280
     1
270
     1
271
     1
  0
CELLSTYLEMAP
  5
5D5E
102
{ACAD_REACTORS
330
5D5D
102
}
330
5D5D
100
AcDbCellStyleMap
 90
        3
300
CELLSTYLE
  1
TABLEFORMAT_BEGIN
 90
        5
170
     1
 91
        0
 92
    32768
 62
   257
 93
        1
300
CONTENTFORMAT
  1
CONTENTFORMAT_BEGIN
 90
        0
 91
        0
 92
      512
 93
        0
300

 40
0.0
140
1.0
 94
        5
 62
     0
340
11
144
6.0
309
CONTENTFORMAT_END
171
     1
301
MARGIN
  1
CELLMARGIN_BEGIN
 40
1.5
 40
1.5
 40
1.5
 40
1.5
 40
4.5
 40
4.5
309
CELLMARGIN_END
 94
        6
 95
        1
302
GRIDFORMAT
  1
GRIDFORMAT_BEGIN
 90
        0
 91
        1
 62
     0
 92
       -2
340
0
 93
        0
 40
1.125
309
GRIDFORMAT_END
 95
        2
302
GRIDFORMAT
  1
GRIDFORMAT_BEGIN
 90
        0
 91
        1
 62
     0
 92
       -2
340
0
 93
        0
 40
1.125
309
GRIDFORMAT_END
 95
        4
302
GRIDFORMAT
  1
GRIDFORMAT_BEGIN
 90
        0
 91
        1
 62
     0
 92
       -2
340
0
 93
        0
 40
1.125
309
GRIDFORMAT_END
 95
        8
302
GRIDFORMAT
  1
GRIDFORMAT_BEGIN
 90
        0
 91
        1
 62
     0
 92
       -2
340
0
 93
        0
 40
1.125
309
GRIDFORMAT_END
 95
       16
302
GRIDFORMAT
  1
GRIDFORMAT_BEGIN
 90
        0
 91
        1
 62
     0
 92
       -2
340
0
 93
        0
 40
1.125
309
GRIDFORMAT_END
 95
       32
302
GRIDFORMAT
  1
GRIDFORMAT_BEGIN
 90
        0
 91
        1
 62
     0
 92
       -2
340
0
 93
        0
 40
1.125
309
GRIDFORMAT_END
309
TABLEFORMAT_END
  1
CELLSTYLE_BEGIN
 90
        1
 91
        1
300
_TITLE
309
CELLSTYLE_END
300
CELLSTYLE
  1
TABLEFORMAT_BEGIN
 90
        5
170
     1
 91
        0
 92
        0
 62
   257
 93
        1
300
CONTENTFORMAT
  1
CONTENTFORMAT_BEGIN
 90
        0
 91
        0
 92
      512
 93
        0
300

 40
0.0
140
1.0
 94
        5
 62
     0
340
11
144
4.5
309
CONTENTFORMAT_END
171
     1
301
MARGIN
  1
CELLMARGIN_BEGIN
 40
1.5
 40
1.5
 40
1.5
 40
1.5
 40
4.5
 40
4.5
309
CELLMARGIN_END
 94
        6
 95
        1
302
GRIDFORMAT
  1
GRIDFORMAT_BEGIN
 90
        0
 91
        1
 62
     0
 92
       -2
340
0
 93
        0
 40
1.125
309
GRIDFORMAT_END
 95
        2
302
GRIDFORMAT
  1
GRIDFORMAT_BEGIN
 90
        0
 91
        1
 62
     0
 92
       -2
340
0
 93
        0
 40
1.125
309
GRIDFORMAT_END
 95
        4
302
GRIDFORMAT
  1
GRIDFORMAT_BEGIN
 90
        0
 91
        1
 62
     0
 92
       -2
340
0
 93
        0
 40
1.125
309
GRIDFORMAT_END
 95
        8
302
GRIDFORMAT
  1
GRIDFORMAT_BEGIN
 90
        0
 91
        1
 62
     0
 92
       -2
340
0
 93
        0
 40
1.125
309
GRIDFORMAT_END
 95
       16
302
GRIDFORMAT
  1
GRIDFORMAT_BEGIN
 90
        0
 91
        1
 62
     0
 92
       -2
340
0
 93
        0
 40
1.125
309
GRIDFORMAT_END
 95
       32
302
GRIDFORMAT
  1
GRIDFORMAT_BEGIN
 90
        0
 91
        1
 62
     0
 92
       -2
340
0
 93
        0
 40
1.125
309
GRIDFORMAT_END
309
TABLEFORMAT_END
  1
CELLSTYLE_BEGIN
 90
        2
 91
        1
300
_HEADER
309
CELLSTYLE_END
300
CELLSTYLE
  1
TABLEFORMAT_BEGIN
 90
        5
170
     1
 91
        0
 92
        0
 62
   257
 93
        1
300
CONTENTFORMAT
  1
CONTENTFORMAT_BEGIN
 90
        0
 91
        0
 92
      512
 93
        0
300

 40
0.0
140
1.0
 94
        2
 62
     0
340
11
144
4.5
309
CONTENTFORMAT_END
171
     1
301
MARGIN
  1
CELLMARGIN_BEGIN
 40
1.5
 40
1.5
 40
1.5
 40
1.5
 40
4.5
 40
4.5
309
CELLMARGIN_END
 94
        6
 95
        1
302
GRIDFORMAT
  1
GRIDFORMAT_BEGIN
 90
        0
 91
        1
 62
     0
 92
       -2
340
0
 93
        0
 40
1.125
309
GRIDFORMAT_END
 95
        2
302
GRIDFORMAT
  1
GRIDFORMAT_BEGIN
 90
        0
 91
        1
 62
     0
 92
       -2
340
0
 93
        0
 40
1.125
309
GRIDFORMAT_END
 95
        4
302
GRIDFORMAT
  1
GRIDFORMAT_BEGIN
 90
        0
 91
        1
 62
     0
 92
       -2
340
0
 93
        0
 40
1.125
309
GRIDFORMAT_END
 95
        8
302
GRIDFORMAT
  1
GRIDFORMAT_BEGIN
 90
        0
 91
        1
 62
     0
 92
       -2
340
0
 93
        0
 40
1.125
309
GRIDFORMAT_END
 95
       16
302
GRIDFORMAT
  1
GRIDFORMAT_BEGIN
 90
        0
 91
        1
 62
     0
 92
       -2
340
0
 93
        0
 40
1.125
309
GRIDFORMAT_END
 95
       32
302
GRIDFORMAT
  1
GRIDFORMAT_BEGIN
 90
        0
 91
        1
 62
     0
 92
       -2
340
0
 93
        0
 40
1.125
309
GRIDFORMAT_END
309
TABLEFORMAT_END
  1
CELLSTYLE_BEGIN
 90
        3
 91
        2
300
_DATA
309
CELLSTYLE_END
  0
XRECORD
  5
5DAC
102
{ACAD_REACTORS
330
5D5D
102
}
330
5D5D
100
AcDbXrecord
280
     1
102
ACAD_ROUNDTRIP_PRE2007_TABLESTYLE
 90
      512
 91
        0
  1

 92
      512
 93
        0
  2

 94
      512
 95
        0
  3

  0
XRECORD
  5
5D91
102
{ACAD_REACTORS
330
5D90
102
}
330
5D90
100
AcDbXrecord
280
     1
102
RTVSPropertyOp0
 70
     1
102
RTVSPropertyOp1
 70
     1
102
RTVSPropertyOp2
 70
     1
102
RTVSPropertyOp3
 70
     1
102
RTVSPropertyOp4
 70
     1
102
RTVSPropertyOp5
 70
     1
102
RTVSPropertyOp6
 70
     1
102
RTVSPropertyOp7
 70
     1
102
RTVSPropertyOp8
 70
     1
102
RTVSPropertyOp9
 70
     1
102
RTVSPropertyOp10
 70
     1
102
RTVSPropertyOp11
 70
     1
102
RTVSPropertyOp12
 70
     1
102
RTVSPropertyOp13
 70
     1
102
RTVSPropertyOp14
 70
     1
102
RTVSPropertyOp15
 70
     1
102
RTVSPropertyOp16
 70
     1
102
RTVSPropertyOp17
 70
     1
102
RTVSPropertyOp18
 70
     1
102
RTVSPropertyOp19
 70
     1
102
RTVSPropertyOp20
 70
     1
102
RTVSPropertyOp21
 70
     1
102
RTVSPropertyOp22
 70
     1
102
RTVSPropertyOp23
 70
     1
102
RTVSPropertyOp24
 70
     1
102
RTVSPropertyOp25
 70
     1
102
RTVSPropertyOp26
 70
     1
102
RTVSPropertyOp27
 70
     1
  0
XRECORD
  5
5D95
102
{ACAD_REACTORS
330
5D94
102
}
330
5D94
100
AcDbXrecord
280
     1
102
RTVSPropertyOp0
 70
     1
102
RTVSPropertyOp1
 70
     1
102
RTVSPropertyOp2
 70
     1
102
RTVSPropertyOp3
 70
     1
102
RTVSPropertyOp4
 70
     1
102
RTVSPropertyOp5
 70
     1
102
RTVSPropertyOp6
 70
     1
102
RTVSPropertyOp7
 70
     1
102
RTVSPropertyOp8
 70
     1
102
RTVSPropertyOp9
 70
     1
102
RTVSPropertyOp10
 70
     1
102
RTVSPropertyOp11
 70
     1
102
RTVSPropertyOp12
 70
     1
102
RTVSPropertyOp13
 70
     1
102
RTVSPropertyOp14
 70
     1
102
RTVSPropertyOp15
 70
     1
102
RTVSPropertyOp16
 70
     1
102
RTVSPropertyOp17
 70
     1
102
RTVSPropertyOp18
 70
     1
102
RTVSPropertyOp19
 70
     1
102
RTVSPropertyOp20
 70
     1
102
RTVSPropertyOp21
 70
     1
102
RTVSPropertyOp22
 70
     1
102
RTVSPropertyOp23
 70
     1
102
RTVSPropertyOp24
 70
     1
102
RTVSPropertyOp25
 70
     1
102
RTVSPropertyOp26
 70
     1
102
RTVSPropertyOp27
 70
     1
  0
XRECORD
  5
5D93
102
{ACAD_REACTORS
330
5D92
102
}
330
5D92
100
AcDbXrecord
280
     1
102
RTVSPropertyOp0
 70
     1
102
RTVSPropertyOp1
 70
     1
102
RTVSPropertyOp2
 70
     1
102
RTVSPropertyOp3
 70
     1
102
RTVSPropertyOp4
 70
     1
102
RTVSPropertyOp5
 70
     1
102
RTVSPropertyOp6
 70
     1
102
RTVSPropertyOp7
 70
     1
102
RTVSPropertyOp8
 70
     1
102
RTVSPropertyOp9
 70
     1
102
RTVSPropertyOp10
 70
     1
102
RTVSPropertyOp11
 70
     1
102
RTVSPropertyOp12
 70
     1
102
RTVSPropertyOp13
 70
     1
102
RTVSPropertyOp14
 70
     1
102
RTVSPropertyOp15
 70
     1
102
RTVSPropertyOp16
 70
     1
102
RTVSPropertyOp17
 70
     1
102
RTVSPropertyOp18
 70
     1
102
RTVSPropertyOp19
 70
     1
102
RTVSPropertyOp20
 70
     1
102
RTVSPropertyOp21
 70
     1
102
RTVSPropertyOp22
 70
     1
102
RTVSPropertyOp23
 70
     1
102
RTVSPropertyOp24
 70
     1
102
RTVSPropertyOp25
 70
     1
102
RTVSPropertyOp26
 70
     1
102
RTVSPropertyOp27
 70
     1
  0
XRECORD
  5
5D8F
102
{ACAD_REACTORS
330
5D8E
102
}
330
5D8E
100
AcDbXrecord
280
     1
102
RTVSPropertyOp0
 70
     1
102
RTVSPropertyOp1
 70
     1
102
RTVSPropertyOp2
 70
     1
102
RTVSPropertyOp3
 70
     1
102
RTVSPropertyOp4
 70
     1
102
RTVSPropertyOp5
 70
     1
102
RTVSPropertyOp6
 70
     1
102
RTVSPropertyOp7
 70
     1
102
RTVSPropertyOp8
 70
     1
102
RTVSPropertyOp9
 70
     1
102
RTVSPropertyOp10
 70
     1
102
RTVSPropertyOp11
 70
     1
102
RTVSPropertyOp12
 70
     1
102
RTVSPropertyOp13
 70
     1
102
RTVSPropertyOp14
 70
     1
102
RTVSPropertyOp15
 70
     1
102
RTVSPropertyOp16
 70
     1
102
RTVSPropertyOp17
 70
     1
102
RTVSPropertyOp18
 70
     1
102
RTVSPropertyOp19
 70
     1
102
RTVSPropertyOp20
 70
     1
102
RTVSPropertyOp21
 70
     1
102
RTVSPropertyOp22
 70
     1
102
RTVSPropertyOp23
 70
     1
102
RTVSPropertyOp24
 70
     1
102
RTVSPropertyOp25
 70
     1
102
RTVSPropertyOp26
 70
     1
102
RTVSPropertyOp27
 70
     1
  0
XRECORD
  5
5D9D
102
{ACAD_REACTORS
330
5D9C
102
}
330
5D9C
100
AcDbXrecord
280
     1
102
RTVSPropertyOp0
 70
     1
102
RTVSPropertyOp1
 70
     1
102
RTVSPropertyOp2
 70
     1
102
RTVSPropertyOp3
 70
     1
102
RTVSPropertyOp4
 70
     1
102
RTVSPropertyOp5
 70
     1
102
RTVSPropertyOp6
 70
     1
102
RTVSPropertyOp7
 70
     1
102
RTVSPropertyOp8
 70
     1
102
RTVSPropertyOp9
 70
     1
102
RTVSPropertyOp10
 70
     1
102
RTVSPropertyOp11
 70
     1
102
RTVSPropertyOp12
 70
     1
102
RTVSPropertyOp13
 70
     1
102
RTVSPropertyOp14
 70
     1
102
RTVSPropertyOp15
 70
     1
102
RTVSPropertyOp16
 70
     1
102
RTVSPropertyOp17
 70
     1
102
RTVSPropertyOp18
 70
     1
102
RTVSPropertyOp19
 70
     1
102
RTVSPropertyOp20
 70
     1
102
RTVSPropertyOp21
 70
     1
102
RTVSPropertyOp22
 70
     1
102
RTVSPropertyOp23
 70
     1
102
RTVSPropertyOp24
 70
     1
102
RTVSPropertyOp25
 70
     1
102
RTVSPropertyOp26
 70
     1
102
RTVSPropertyOp27
 70
     1
  0
XRECORD
  5
5DA5
102
{ACAD_REACTORS
330
5DA4
102
}
330
5DA4
100
AcDbXrecord
280
     1
102
RTVSPropertyOp0
 70
     1
102
RTVSPropertyOp1
 70
     1
102
RTVSPropertyOp2
 70
     1
102
RTVSPropertyOp3
 70
     1
102
RTVSPropertyOp4
 70
     1
102
RTVSPropertyOp5
 70
     1
102
RTVSPropertyOp6
 70
     1
102
RTVSPropertyOp7
 70
     1
102
RTVSPropertyOp8
 70
     1
102
RTVSPropertyOp9
 70
     1
102
RTVSPropertyOp10
 70
     1
102
RTVSPropertyOp11
 70
     1
102
RTVSPropertyOp12
 70
     1
102
RTVSPropertyOp13
 70
     1
102
RTVSPropertyOp14
 70
     1
102
RTVSPropertyOp15
 70
     1
102
RTVSPropertyOp16
 70
     1
102
RTVSPropertyOp17
 70
     1
102
RTVSPropertyOp18
 70
     1
102
RTVSPropertyOp19
 70
     1
102
RTVSPropertyOp20
 70
     1
102
RTVSPropertyOp21
 70
     1
102
RTVSPropertyOp22
 70
     1
102
RTVSPropertyOp23
 70
     1
102
RTVSPropertyOp24
 70
     1
102
RTVSPropertyOp25
 70
     1
102
RTVSPropertyOp26
 70
     1
102
RTVSPropertyOp27
 70
     1
  0
XRECORD
  5
5D97
102
{ACAD_REACTORS
330
5D96
102
}
330
5D96
100
AcDbXrecord
280
     1
102
RTVSPropertyOp0
 70
     1
102
RTVSPropertyOp1
 70
     1
102
RTVSPropertyOp2
 70
     1
102
RTVSPropertyOp3
 70
     1
102
RTVSPropertyOp4
 70
     1
102
RTVSPropertyOp5
 70
     1
102
RTVSPropertyOp6
 70
     1
102
RTVSPropertyOp7
 70
     1
102
RTVSPropertyOp8
 70
     1
102
RTVSPropertyOp9
 70
     1
102
RTVSPropertyOp10
 70
     1
102
RTVSPropertyOp11
 70
     1
102
RTVSPropertyOp12
 70
     1
102
RTVSPropertyOp13
 70
     1
102
RTVSPropertyOp14
 70
     1
102
RTVSPropertyOp15
 70
     1
102
RTVSPropertyOp16
 70
     1
102
RTVSPropertyOp17
 70
     1
102
RTVSPropertyOp18
 70
     1
102
RTVSPropertyOp19
 70
     1
102
RTVSPropertyOp20
 70
     1
102
RTVSPropertyOp21
 70
     1
102
RTVSPropertyOp22
 70
     1
102
RTVSPropertyOp23
 70
     1
102
RTVSPropertyOp24
 70
     1
102
RTVSPropertyOp25
 70
     1
102
RTVSPropertyOp26
 70
     1
102
RTVSPropertyOp27
 70
     1
  0
XRECORD
  5
5D9B
102
{ACAD_REACTORS
330
5D9A
102
}
330
5D9A
100
AcDbXrecord
280
     1
102
RTVSPropertyOp0
 70
     1
102
RTVSPropertyOp1
 70
     1
102
RTVSPropertyOp2
 70
     1
102
RTVSPropertyOp3
 70
     1
102
RTVSPropertyOp4
 70
     1
102
RTVSPropertyOp5
 70
     1
102
RTVSPropertyOp6
 70
     1
102
RTVSPropertyOp7
 70
     1
102
RTVSPropertyOp8
 70
     1
102
RTVSPropertyOp9
 70
     1
102
RTVSPropertyOp10
 70
     1
102
RTVSPropertyOp11
 70
     1
102
RTVSPropertyOp12
 70
     1
102
RTVSPropertyOp13
 70
     1
102
RTVSPropertyOp14
 70
     1
102
RTVSPropertyOp15
 70
     1
102
RTVSPropertyOp16
 70
     1
102
RTVSPropertyOp17
 70
     1
102
RTVSPropertyOp18
 70
     1
102
RTVSPropertyOp19
 70
     1
102
RTVSPropertyOp20
 70
     1
102
RTVSPropertyOp21
 70
     1
102
RTVSPropertyOp22
 70
     1
102
RTVSPropertyOp23
 70
     1
102
RTVSPropertyOp24
 70
     1
102
RTVSPropertyOp25
 70
     1
102
RTVSPropertyOp26
 70
     1
102
RTVSPropertyOp27
 70
     1
  0
XRECORD
  5
5DAB
102
{ACAD_REACTORS
330
5DAA
102
}
330
5DAA
100
AcDbXrecord
280
     1
102
RTVSPropertyOp0
 70
     0
102
RTVSPropertyOp1
 70
     0
102
RTVSPropertyOp2
 70
     0
102
RTVSPropertyOp3
 70
     0
102
RTVSPropertyOp4
 70
     0
102
RTVSPropertyOp5
 70
     0
102
RTVSPropertyOp6
 70
     0
102
RTVSPropertyOp7
 70
     0
102
RTVSPropertyOp8
 70
     0
102
RTVSPropertyOp9
 70
     0
102
RTVSPropertyOp10
 70
     0
102
RTVSPropertyOp11
 70
     0
102
RTVSPropertyOp12
 70
     0
102
RTVSPropertyOp13
 70
     0
102
RTVSPropertyOp14
 70
     2
102
RTVSPropertyOp15
 70
     0
102
RTVSPropertyOp16
 70
     0
102
RTVSPropertyOp17
 70
     0
102
RTVSPropertyOp18
 70
     0
102
RTVSPropertyOp19
 70
     0
102
RTVSPropertyOp20
 70
     0
102
RTVSPropertyOp21
 70
     0
102
RTVSPropertyOp22
 70
     0
102
RTVSPropertyOp23
 70
     0
102
RTVSPropertyOp24
 70
     0
102
RTVSPropertyOp25
 70
     0
102
RTVSPropertyOp26
 70
     0
102
RTVSPropertyOp27
 70
     0
  0
XRECORD
  5
5DA3
102
{ACAD_REACTORS
330
5DA2
102
}
330
5DA2
100
AcDbXrecord
280
     1
102
RTVSPropertyOp0
 70
     1
102
RTVSPropertyOp1
 70
     1
102
RTVSPropertyOp2
 70
     1
102
RTVSPropertyOp3
 70
     1
102
RTVSPropertyOp4
 70
     1
102
RTVSPropertyOp5
 70
     1
102
RTVSPropertyOp6
 70
     1
102
RTVSPropertyOp7
 70
     1
102
RTVSPropertyOp8
 70
     1
102
RTVSPropertyOp9
 70
     1
102
RTVSPropertyOp10
 70
     1
102
RTVSPropertyOp11
 70
     1
102
RTVSPropertyOp12
 70
     1
102
RTVSPropertyOp13
 70
     1
102
RTVSPropertyOp14
 70
     1
102
RTVSPropertyOp15
 70
     1
102
RTVSPropertyOp16
 70
     1
102
RTVSPropertyOp17
 70
     1
102
RTVSPropertyOp18
 70
     1
102
RTVSPropertyOp19
 70
     1
102
RTVSPropertyOp20
 70
     1
102
RTVSPropertyOp21
 70
     1
102
RTVSPropertyOp22
 70
     1
102
RTVSPropertyOp23
 70
     1
102
RTVSPropertyOp24
 70
     1
102
RTVSPropertyOp25
 70
     1
102
RTVSPropertyOp26
 70
     1
102
RTVSPropertyOp27
 70
     1
  0
XRECORD
  5
5D87
102
{ACAD_REACTORS
330
5D86
102
}
330
5D86
100
AcDbXrecord
280
     1
102
RTVSPropertyOp0
 70
     1
102
RTVSPropertyOp1
 70
     1
102
RTVSPropertyOp2
 70
     1
102
RTVSPropertyOp3
 70
     1
102
RTVSPropertyOp4
 70
     1
102
RTVSPropertyOp5
 70
     1
102
RTVSPropertyOp6
 70
     1
102
RTVSPropertyOp7
 70
     1
102
RTVSPropertyOp8
 70
     1
102
RTVSPropertyOp9
 70
     1
102
RTVSPropertyOp10
 70
     1
102
RTVSPropertyOp11
 70
     1
102
RTVSPropertyOp12
 70
     1
102
RTVSPropertyOp13
 70
     1
102
RTVSPropertyOp14
 70
     1
102
RTVSPropertyOp15
 70
     1
102
RTVSPropertyOp16
 70
     1
102
RTVSPropertyOp17
 70
     1
102
RTVSPropertyOp18
 70
     1
102
RTVSPropertyOp19
 70
     1
102
RTVSPropertyOp20
 70
     1
102
RTVSPropertyOp21
 70
     1
102
RTVSPropertyOp22
 70
     1
102
RTVSPropertyOp23
 70
     1
102
RTVSPropertyOp24
 70
     1
102
RTVSPropertyOp25
 70
     1
102
RTVSPropertyOp26
 70
     1
102
RTVSPropertyOp27
 70
     1
  0
XRECORD
  5
5D89
102
{ACAD_REACTORS
330
5D88
102
}
330
5D88
100
AcDbXrecord
280
     1
102
RTVSPropertyOp0
 70
     1
102
RTVSPropertyOp1
 70
     1
102
RTVSPropertyOp2
 70
     1
102
RTVSPropertyOp3
 70
     1
102
RTVSPropertyOp4
 70
     1
102
RTVSPropertyOp5
 70
     1
102
RTVSPropertyOp6
 70
     1
102
RTVSPropertyOp7
 70
     1
102
RTVSPropertyOp8
 70
     1
102
RTVSPropertyOp9
 70
     1
102
RTVSPropertyOp10
 70
     1
102
RTVSPropertyOp11
 70
     1
102
RTVSPropertyOp12
 70
     1
102
RTVSPropertyOp13
 70
     1
102
RTVSPropertyOp14
 70
     1
102
RTVSPropertyOp15
 70
     1
102
RTVSPropertyOp16
 70
     1
102
RTVSPropertyOp17
 70
     1
102
RTVSPropertyOp18
 70
     1
102
RTVSPropertyOp19
 70
     1
102
RTVSPropertyOp20
 70
     1
102
RTVSPropertyOp21
 70
     1
102
RTVSPropertyOp22
 70
     1
102
RTVSPropertyOp23
 70
     1
102
RTVSPropertyOp24
 70
     1
102
RTVSPropertyOp25
 70
     1
102
RTVSPropertyOp26
 70
     1
102
RTVSPropertyOp27
 70
     1
  0
XRECORD
  5
5D8B
102
{ACAD_REACTORS
330
5D8A
102
}
330
5D8A
100
AcDbXrecord
280
     1
102
RTVSPropertyOp0
 70
     1
102
RTVSPropertyOp1
 70
     1
102
RTVSPropertyOp2
 70
     1
102
RTVSPropertyOp3
 70
     1
102
RTVSPropertyOp4
 70
     1
102
RTVSPropertyOp5
 70
     1
102
RTVSPropertyOp6
 70
     1
102
RTVSPropertyOp7
 70
     1
102
RTVSPropertyOp8
 70
     1
102
RTVSPropertyOp9
 70
     1
102
RTVSPropertyOp10
 70
     1
102
RTVSPropertyOp11
 70
     1
102
RTVSPropertyOp12
 70
     1
102
RTVSPropertyOp13
 70
     1
102
RTVSPropertyOp14
 70
     1
102
RTVSPropertyOp15
 70
     1
102
RTVSPropertyOp16
 70
     1
102
RTVSPropertyOp17
 70
     1
102
RTVSPropertyOp18
 70
     1
102
RTVSPropertyOp19
 70
     1
102
RTVSPropertyOp20
 70
     1
102
RTVSPropertyOp21
 70
     1
102
RTVSPropertyOp22
 70
     1
102
RTVSPropertyOp23
 70
     1
102
RTVSPropertyOp24
 70
     1
102
RTVSPropertyOp25
 70
     1
102
RTVSPropertyOp26
 70
     1
102
RTVSPropertyOp27
 70
     1
  0
XRECORD
  5
5D8D
102
{ACAD_REACTORS
330
5D8C
102
}
330
5D8C
100
AcDbXrecord
280
     1
102
RTVSPropertyOp0
 70
     1
102
RTVSPropertyOp1
 70
     1
102
RTVSPropertyOp2
 70
     1
102
RTVSPropertyOp3
 70
     1
102
RTVSPropertyOp4
 70
     1
102
RTVSPropertyOp5
 70
     1
102
RTVSPropertyOp6
 70
     1
102
RTVSPropertyOp7
 70
     1
102
RTVSPropertyOp8
 70
     1
102
RTVSPropertyOp9
 70
     1
102
RTVSPropertyOp10
 70
     1
102
RTVSPropertyOp11
 70
     1
102
RTVSPropertyOp12
 70
     1
102
RTVSPropertyOp13
 70
     1
102
RTVSPropertyOp14
 70
     1
102
RTVSPropertyOp15
 70
     1
102
RTVSPropertyOp16
 70
     1
102
RTVSPropertyOp17
 70
     1
102
RTVSPropertyOp18
 70
     1
102
RTVSPropertyOp19
 70
     1
102
RTVSPropertyOp20
 70
     1
102
RTVSPropertyOp21
 70
     1
102
RTVSPropertyOp22
 70
     1
102
RTVSPropertyOp23
 70
     1
102
RTVSPropertyOp24
 70
     1
102
RTVSPropertyOp25
 70
     1
102
RTVSPropertyOp26
 70
     1
102
RTVSPropertyOp27
 70
     1
  0
XRECORD
  5
5DA7
102
{ACAD_REACTORS
330
5DA6
102
}
330
5DA6
100
AcDbXrecord
280
     1
102
RTVSPropertyOp0
 70
     0
102
RTVSPropertyOp1
 70
     0
102
RTVSPropertyOp2
 70
     0
102
RTVSPropertyOp3
 70
     0
102
RTVSPropertyOp4
 70
     0
102
RTVSPropertyOp5
 70
     0
102
RTVSPropertyOp6
 70
     0
102
RTVSPropertyOp7
 70
     0
102
RTVSPropertyOp8
 70
     0
102
RTVSPropertyOp9
 70
     0
102
RTVSPropertyOp10
 70
     0
102
RTVSPropertyOp11
 70
     0
102
RTVSPropertyOp12
 70
     0
102
RTVSPropertyOp13
 70
     0
102
RTVSPropertyOp14
 70
     2
102
RTVSPropertyOp15
 70
     0
102
RTVSPropertyOp16
 70
     0
102
RTVSPropertyOp17
 70
     0
102
RTVSPropertyOp18
 70
     0
102
RTVSPropertyOp19
 70
     0
102
RTVSPropertyOp20
 70
     0
102
RTVSPropertyOp21
 70
     0
102
RTVSPropertyOp22
 70
     0
102
RTVSPropertyOp23
 70
     0
102
RTVSPropertyOp24
 70
     0
102
RTVSPropertyOp25
 70
     0
102
RTVSPropertyOp26
 70
     0
102
RTVSPropertyOp27
 70
     0
  0
XRECORD
  5
5DA1
102
{ACAD_REACTORS
330
5DA0
102
}
330
5DA0
100
AcDbXrecord
280
     1
102
RTVSPropertyOp0
 70
     1
102
RTVSPropertyOp1
 70
     1
102
RTVSPropertyOp2
 70
     1
102
RTVSPropertyOp3
 70
     1
102
RTVSPropertyOp4
 70
     1
102
RTVSPropertyOp5
 70
     1
102
RTVSPropertyOp6
 70
     1
102
RTVSPropertyOp7
 70
     1
102
RTVSPropertyOp8
 70
     1
102
RTVSPropertyOp9
 70
     1
102
RTVSPropertyOp10
 70
     1
102
RTVSPropertyOp11
 70
     1
102
RTVSPropertyOp12
 70
     1
102
RTVSPropertyOp13
 70
     1
102
RTVSPropertyOp14
 70
     1
102
RTVSPropertyOp15
 70
     1
102
RTVSPropertyOp16
 70
     1
102
RTVSPropertyOp17
 70
     1
102
RTVSPropertyOp18
 70
     1
102
RTVSPropertyOp19
 70
     1
102
RTVSPropertyOp20
 70
     1
102
RTVSPropertyOp21
 70
     1
102
RTVSPropertyOp22
 70
     1
102
RTVSPropertyOp23
 70
     1
102
RTVSPropertyOp24
 70
     1
102
RTVSPropertyOp25
 70
     1
102
RTVSPropertyOp26
 70
     1
102
RTVSPropertyOp27
 70
     1
  0
XRECORD
  5
5DA9
102
{ACAD_REACTORS
330
5DA8
102
}
330
5DA8
100
AcDbXrecord
280
     1
102
RTVSPropertyOp0
 70
     0
102
RTVSPropertyOp1
 70
     0
102
RTVSPropertyOp2
 70
     0
102
RTVSPropertyOp3
 70
     0
102
RTVSPropertyOp4
 70
     0
102
RTVSPropertyOp5
 70
     0
102
RTVSPropertyOp6
 70
     0
102
RTVSPropertyOp7
 70
     0
102
RTVSPropertyOp8
 70
     0
102
RTVSPropertyOp9
 70
     0
102
RTVSPropertyOp10
 70
     0
102
RTVSPropertyOp11
 70
     0
102
RTVSPropertyOp12
 70
     0
102
RTVSPropertyOp13
 70
     0
102
RTVSPropertyOp14
 70
     2
102
RTVSPropertyOp15
 70
     0
102
RTVSPropertyOp16
 70
     0
102
RTVSPropertyOp17
 70
     0
102
RTVSPropertyOp18
 70
     0
102
RTVSPropertyOp19
 70
     0
102
RTVSPropertyOp20
 70
     0
102
RTVSPropertyOp21
 70
     0
102
RTVSPropertyOp22
 70
     0
102
RTVSPropertyOp23
 70
     0
102
RTVSPropertyOp24
 70
     0
102
RTVSPropertyOp25
 70
     0
102
RTVSPropertyOp26
 70
     0
102
RTVSPropertyOp27
 70
     0
  0
XRECORD
  5
5D99
102
{ACAD_REACTORS
330
5D98
102
}
330
5D98
100
AcDbXrecord
280
     1
102
RTVSPropertyOp0
 70
     1
102
RTVSPropertyOp1
 70
     1
102
RTVSPropertyOp2
 70
     1
102
RTVSPropertyOp3
 70
     1
102
RTVSPropertyOp4
 70
     1
102
RTVSPropertyOp5
 70
     1
102
RTVSPropertyOp6
 70
     1
102
RTVSPropertyOp7
 70
     1
102
RTVSPropertyOp8
 70
     1
102
RTVSPropertyOp9
 70
     1
102
RTVSPropertyOp10
 70
     1
102
RTVSPropertyOp11
 70
     1
102
RTVSPropertyOp12
 70
     1
102
RTVSPropertyOp13
 70
     1
102
RTVSPropertyOp14
 70
     1
102
RTVSPropertyOp15
 70
     1
102
RTVSPropertyOp16
 70
     1
102
RTVSPropertyOp17
 70
     1
102
RTVSPropertyOp18
 70
     1
102
RTVSPropertyOp19
 70
     1
102
RTVSPropertyOp20
 70
     1
102
RTVSPropertyOp21
 70
     1
102
RTVSPropertyOp22
 70
     1
102
RTVSPropertyOp23
 70
     1
102
RTVSPropertyOp24
 70
     1
102
RTVSPropertyOp25
 70
     1
102
RTVSPropertyOp26
 70
     1
102
RTVSPropertyOp27
 70
     1
  0
XRECORD
  5
5D9F
102
{ACAD_REACTORS
330
5D9E
102
}
330
5D9E
100
AcDbXrecord
280
     1
102
RTVSPropertyOp0
 70
     1
102
RTVSPropertyOp1
 70
     1
102
RTVSPropertyOp2
 70
     1
102
RTVSPropertyOp3
 70
     1
102
RTVSPropertyOp4
 70
     1
102
RTVSPropertyOp5
 70
     1
102
RTVSPropertyOp6
 70
     1
102
RTVSPropertyOp7
 70
     1
102
RTVSPropertyOp8
 70
     1
102
RTVSPropertyOp9
 70
     1
102
RTVSPropertyOp10
 70
     1
102
RTVSPropertyOp11
 70
     1
102
RTVSPropertyOp12
 70
     1
102
RTVSPropertyOp13
 70
     1
102
RTVSPropertyOp14
 70
     1
102
RTVSPropertyOp15
 70
     1
102
RTVSPropertyOp16
 70
     1
102
RTVSPropertyOp17
 70
     1
102
RTVSPropertyOp18
 70
     1
102
RTVSPropertyOp19
 70
     1
102
RTVSPropertyOp20
 70
     1
102
RTVSPropertyOp21
 70
     1
102
RTVSPropertyOp22
 70
     1
102
RTVSPropertyOp23
 70
     1
102
RTVSPropertyOp24
 70
     1
102
RTVSPropertyOp25
 70
     1
102
RTVSPropertyOp26
 70
     1
102
RTVSPropertyOp27
 70
     1
  0
ENDSEC
  0
EOF
