  0
SECTION
  2
HEADER
  9
$ACADVER
  1
AC1015
  9
$ACADMAINTVER
 70
    20
  9
$DWGCODEPAGE
  3
ANSI_1252
  9
$INSBASE
 10
0.0
 20
0.0
 30
0.0
  9
$EXTMIN
 10
278.6710093809465
 20
136.6128354379931
 30
0.0
  9
$EXTMAX
 10
281.1927003152698
 20
137.1477956331783
 30
0.0
  9
$LIMMIN
 10
0.0
 20
0.0
  9
$LIMMAX
 10
0.0
 20
0.0
  9
$ORTHOMODE
 70
     0
  9
$REGENMODE
 70
     1
  9
$FILLMODE
 70
     1
  9
$QTEXTMODE
 70
     0
  9
$MIRRTEXT
 70
     1
  9
$LTSCALE
 40
1.0
  9
$ATTMODE
 70
     1
  9
$TEXTSIZE
 40
0.0
  9
$TRACEWID
 40
0.05
  9
$TEXTSTYLE
  7
STANDARD
  9
$CLAYER
  8
INDUSA
  9
$CELTYPE
  6
CONTINUOUS
  9
$CECOLOR
 62
   256
  9
$CELTSCALE
 40
1.0
  9
$DISPSILH
 70
     0
  9
$DIMSCALE
 40
1.0
  9
$DIMASZ
 40
5.994399999999999
  9
$DIMEXO
 40
0.9905999999999998
  9
$DIMDLI
 40
0.38
  9
$DIMRND
 40
0.0
  9
$DIMDLE
 40
0.9905999999999998
  9
$DIMEXE
 40
0.18
  9
$DIMTP
 40
0.0
  9
$DIMTM
 40
0.0
  9
$DIMTXT
 40
6.349999999999999
  9
$DIMCEN
 40
0.09
  9
$DIMTSZ
 40
0.0
  9
$DIMTOL
 70
     0
  9
$DIMLIM
 70
     0
  9
$DIMTIH
 70
     1
  9
$DIMTOH
 70
     1
  9
$DIMSE1
 70
     0
  9
$DIMSE2
 70
     0
  9
$DIMTAD
 70
     1
  9
$DIMZIN
 70
     0
  9
$DIMBLK
  1

  9
$DIMASO
 70
     1
  9
$DIMSHO
 70
     1
  9
$DIMPOST
  1

  9
$DIMAPOST
  1

  9
$DIMALT
 70
     0
  9
$DIMALTD
 70
     2
  9
$DIMALTF
 40
0.0394
  9
$DIMLFAC
 40
1.0
  9
$DIMTOFL
 70
     0
  9
$DIMTVP
 40
0.0
  9
$DIMTIX
 70
     0
  9
$DIMSOXD
 70
     0
  9
$DIMSAH
 70
     0
  9
$DIMBLK1
  1

  9
$DIMBLK2
  1

  9
$DIMSTYLE
  2
STANDARD
  9
$DIMCLRD
 70
     0
  9
$DIMCLRE
 70
     0
  9
$DIMCLRT
 70
     0
  9
$DIMTFAC
 40
1.0
  9
$DIMGAP
 40
0.9905999999999998
  9
$DIMJUST
 70
     0
  9
$DIMSD1
 70
     0
  9
$DIMSD2
 70
     0
  9
$DIMTOLJ
 70
     1
  9
$DIMTZIN
 70
     0
  9
$DIMALTZ
 70
     0
  9
$DIMALTTZ
 70
     0
  9
$DIMUPT
 70
     0
  9
$DIMDEC
 70
     4
  9
$DIMTDEC
 70
     4
  9
$DIMALTU
 70
     2
  9
$DIMALTTD
 70
     2
  9
$DIMTXSTY
  7
STANDARD
  9
$DIMAUNIT
 70
     0
  9
$DIMADEC
 70
     0
  9
$DIMALTRND
 40
0.0
  9
$DIMAZIN
 70
     0
  9
$DIMDSEP
 70
    46
  9
$DIMATFIT
 70
     3
  9
$DIMFRAC
 70
     0
  9
$DIMLDRBLK
  1

  9
$DIMLUNIT
 70
     2
  9
$DIMLWD
 70
    -2
  9
$DIMLWE
 70
    -2
  9
$DIMTMOVE
 70
     0
  9
$LUNITS
 70
     2
  9
$LUPREC
 70
     2
  9
$SKETCHINC
 40
0.1
  9
$FILLETRAD
 40
0.0
  9
$AUNITS
 70
     0
  9
$AUPREC
 70
     2
  9
$MENU
  1
acad
  9
$ELEVATION
 40
0.0
  9
$PELEVATION
 40
0.0
  9
$THICKNESS
 40
0.0
  9
$LIMCHECK
 70
     0
  9
$CHAMFERA
 40
0.0
  9
$CHAMFERB
 40
0.0
  9
$CHAMFERC
 40
0.0
  9
$CHAMFERD
 40
0.0
  9
$SKPOLY
 70
     0
  9
$TDCREATE
 40
2444972.041666667
  9
$TDUCREATE
 40
2444972.000000000
  9
$TDUPDATE
 40
2456148.459496157
  9
$TDUUPDATE
 40
2456148.417829491
  9
$TDINDWG
 40
0.0076904398
  9
$TDUSRTIMER
 40
0.0076904398
  9
$USRTIMER
 70
     1
  9
$ANGBASE
 50
0.0
  9
$ANGDIR
 70
     0
  9
$PDMODE
 70
     0
  9
$PDSIZE
 40
-1.0
  9
$PLINEWID
 40
0.0
  9
$SPLFRAME
 70
     0
  9
$SPLINETYPE
 70
     6
  9
$SPLINESEGS
 70
     8
  9
$HANDSEED
  5
CB3
  9
$SURFTAB1
 70
     6
  9
$SURFTAB2
 70
     6
  9
$SURFTYPE
 70
     6
  9
$SURFU
 70
     6
  9
$SURFV
 70
     6
  9
$UCSBASE
  2

  9
$UCSNAME
  2

  9
$UCSORG
 10
0.0
 20
0.0
 30
0.0
  9
$UCSXDIR
 10
1.0
 20
0.0
 30
0.0
  9
$UCSYDIR
 10
0.0
 20
1.0
 30
0.0
  9
$UCSORTHOREF
  2

  9
$UCSORTHOVIEW
 70
     0
  9
$UCSORGTOP
 10
0.0
 20
0.0
 30
0.0
  9
$UCSORGBOTTOM
 10
0.0
 20
0.0
 30
0.0
  9
$UCSORGLEFT
 10
0.0
 20
0.0
 30
0.0
  9
$UCSORGRIGHT
 10
0.0
 20
0.0
 30
0.0
  9
$UCSORGFRONT
 10
0.0
 20
0.0
 30
0.0
  9
$UCSORGBACK
 10
0.0
 20
0.0
 30
0.0
  9
$PUCSBASE
  2

  9
$PUCSNAME
  2

  9
$PUCSORG
 10
0.0
 20
0.0
 30
0.0
  9
$PUCSXDIR
 10
1.0
 20
0.0
 30
0.0
  9
$PUCSYDIR
 10
0.0
 20
1.0
 30
0.0
  9
$PUCSORTHOREF
  2

  9
$PUCSORTHOVIEW
 70
     0
  9
$PUCSORGTOP
 10
0.0
 20
0.0
 30
0.0
  9
$PUCSORGBOTTOM
 10
0.0
 20
0.0
 30
0.0
  9
$PUCSORGLEFT
 10
0.0
 20
0.0
 30
0.0
  9
$PUCSORGRIGHT
 10
0.0
 20
0.0
 30
0.0
  9
$PUCSORGFRONT
 10
0.0
 20
0.0
 30
0.0
  9
$PUCSORGBACK
 10
0.0
 20
0.0
 30
0.0
  9
$USERI1
 70
     0
  9
$USERI2
 70
     0
  9
$USERI3
 70
     0
  9
$USERI4
 70
     0
  9
$USERI5
 70
     0
  9
$USERR1
 40
0.0
  9
$USERR2
 40
0.0
  9
$USERR3
 40
0.0
  9
$USERR4
 40
0.0
  9
$USERR5
 40
0.0
  9
$WORLDVIEW
 70
     1
  9
$SHADEDGE
 70
     3
  9
$SHADEDIF
 70
    70
  9
$TILEMODE
 70
     1
  9
$MAXACTVP
 70
    16
  9
$PINSBASE
 10
0.0
 20
0.0
 30
0.0
  9
$PLIMCHECK
 70
     0
  9
$PEXTMIN
 10
1.000000000000000E+20
 20
1.000000000000000E+20
 30
1.000000000000000E+20
  9
$PEXTMAX
 10
-1.000000000000000E+20
 20
-1.000000000000000E+20
 30
-1.000000000000000E+20
  9
$PLIMMIN
 10
0.0
 20
0.0
  9
$PLIMMAX
 10
12.0
 20
9.0
  9
$UNITMODE
 70
     0
  9
$VISRETAIN
 70
     0
  9
$PLINEGEN
 70
     1
  9
$PSLTSCALE
 70
     1
  9
$TREEDEPTH
 70
  3020
  9
$CMLSTYLE
  2
STANDARD
  9
$CMLJUST
 70
     0
  9
$CMLSCALE
 40
1.0
  9
$PROXYGRAPHICS
 70
     1
  9
$MEASUREMENT
 70
     0
  9
$CELWEIGHT
370
    -1
  9
$ENDCAPS
280
     0
  9
$JOINSTYLE
280
     0
  9
$LWDISPLAY
290
     0
  9
$INSUNITS
 70
     0
  9
$HYPERLINKBASE
  1

  9
$STYLESHEET
  1

  9
$XEDIT
290
     1
  9
$CEPSNTYPE
380
     0
  9
$PSTYLEMODE
290
     1
  9
$FINGERPRINTGUID
  2
{8EA04947-60F1-4C15-93D4-1AF56B2D8E5D}
  9
$VERSIONGUID
  2
{38738599-E450-4529-8A1C-7A21BC5DBA0C}
  9
$EXTNAMES
290
     1
  9
$PSVPSCALE
 40
0.0
  9
$OLESTARTUP
290
     0
  0
ENDSEC
  0
SECTION
  2
CLASSES
  0
CLASS
  1
IMAGE
  2
AcDbRasterImage
  3
ISM
 90
    34943
280
     0
281
     1
  0
CLASS
  1
DICTIONARYVAR
  2
AcDbDictionaryVar
  3
ObjectDBX Classes
 90
        0
280
     0
281
     0
  0
CLASS
  1
RASTERVARIABLES
  2
AcDbRasterVariables
  3
ISM
 90
    32768
280
     0
281
     0
  0
CLASS
  1
IMAGEDEF
  2
AcDbRasterImageDef
  3
ISM
 90
    32768
280
     0
281
     0
  0
CLASS
  1
IMAGEDEF_REACTOR
  2
AcDbRasterImageDefReactor
  3
ISM
 90
    32769
280
     0
281
     0
  0
CLASS
  1
IDBUFFER
  2
AcDbIdBuffer
  3
ObjectDBX Classes
 90
    32768
280
     0
281
     0
  0
CLASS
  1
SPATIAL_FILTER
  2
AcDbSpatialFilter
  3
ObjectDBX Classes
 90
    32768
280
     0
281
     0
  0
CLASS
  1
SORTENTSTABLE
  2
AcDbSortentsTable
  3
ObjectDBX Classes
 90
    32768
280
     0
281
     0
  0
CLASS
  1
LAYER_INDEX
  2
AcDbLayerIndex
  3
ObjectDBX Classes
 90
    32768
280
     0
281
     0
  0
CLASS
  1
SPATIAL_INDEX
  2
AcDbSpatialIndex
  3
ObjectDBX Classes
 90
    32768
280
     0
281
     0
  0
CLASS
  1
OBJECT_PTR
  2
CAseDLPNTableRecord
  3
ASE-LPNTableRecord
 90
    32769
280
     0
281
     0
  0
CLASS
  1
LAYOUT
  2
AcDbLayout
  3
ObjectDBX Classes
 90
        0
280
     0
281
     0
  0
CLASS
  1
PLOTSETTINGS
  2
AcDbPlotSettings
  3
ObjectDBX Classes
 90
    32768
280
     0
281
     0
  0
CLASS
  1
ACDBDICTIONARYWDFLT
  2
AcDbDictionaryWithDefault
  3
ObjectDBX Classes
 90
        0
280
     0
281
     0
  0
CLASS
  1
ACDBPLACEHOLDER
  2
AcDbPlaceHolder
  3
ObjectDBX Classes
 90
        0
280
     0
281
     0
  0
CLASS
  1
VBA_PROJECT
  2
AcDbVbaProject
  3
acad
 90
    32768
280
     0
281
     0
  0
CLASS
  1
WIPEOUT
  2
AcDbWipeout
  3
WipeOut|AutoCAD Express Tool|expresstools@autodesk.com
 90
    32768
280
     0
281
     1
  0
CLASS
  1
WIPEOUTVARIABLES
  2
AcDbWipeoutVariables
  3
WipeOut|AutoCAD Express Tool|expresstools@autodesk.com
 90
    32768
280
     0
281
     0
  0
CLASS
  1
RTEXT
  2
RText
  3
RText|AutoCAD Express Tool|expresstools@autodesk.com
 90
    32768
280
     0
281
     1
  0
CLASS
  1
ARCALIGNEDTEXT
  2
AcDbArcAlignedText
  3
ATEXT|AutoCAD Express Tool|expresstools@autodesk.com
 90
    32768
280
     0
281
     1
  0
CLASS
  1
MATERIAL
  2
AcDbMaterial
  3
ObjectDBX Classes
 90
     1153
280
     0
281
     0
  0
CLASS
  1
VISUALSTYLE
  2
AcDbVisualStyle
  3
ObjectDBX Classes
 90
     4095
280
     0
281
     0
  0
CLASS
  1
TABLESTYLE
  2
AcDbTableStyle
  3
ObjectDBX Classes
 90
     4095
280
     0
281
     0
  0
CLASS
  1
SCALE
  2
AcDbScale
  3
ObjectDBX Classes
 90
     1153
280
     0
281
     0
  0
CLASS
  1
MLEADERSTYLE
  2
AcDbMLeaderStyle
  3
ACDB_MLEADERSTYLE_CLASS
 90
     4095
280
     0
281
     0
  0
CLASS
  1
CELLSTYLEMAP
  2
AcDbCellStyleMap
  3
ObjectDBX Classes
 90
     1152
280
     0
281
     0
  0
ENDSEC
  0
SECTION
  2
TABLES
  0
TABLE
  2
VPORT
  5
7
330
0
100
AcDbSymbolTable
 70
     1
  0
VPORT
  5
C1C
330
7
100
AcDbSymbolTableRecord
100
AcDbViewportTableRecord
  2
*Active
 70
     0
 10
0.0
 20
0.0
 11
1.0
 21
1.0
 12
279.9318548481082
 22
136.8803155355857
 13
0.0
 23
0.0
 14
1.0
 24
1.0
 15
0.0
 25
0.0
 16
0.0
 26
0.0
 36
1.0
 17
0.0
 27
0.0
 37
0.0
 40
1.53833148983909
 41
1.645464025026068
 42
50.0
 43
0.0
 44
0.0
 50
0.0
 51
0.0
 71
     0
 72
  2000
 73
     1
 74
     1
 75
     0
 76
     0
 77
     0
 78
     0
281
     0
 65
     1
110
0.0
120
0.0
130
0.0
111
1.0
121
0.0
131
0.0
112
0.0
122
1.0
132
0.0
 79
     0
146
0.0
  0
ENDTAB
  0
TABLE
  2
LTYPE
  5
4
330
0
100
AcDbSymbolTable
 70
     6
  0
LTYPE
  5
11
330
4
100
AcDbSymbolTableRecord
100
AcDbLinetypeTableRecord
  2
BYBLOCK
 70
     0
  3

 72
    65
 73
     0
 40
0.0
  0
LTYPE
  5
12
330
4
100
AcDbSymbolTableRecord
100
AcDbLinetypeTableRecord
  2
BYLAYER
 70
     0
  3

 72
    65
 73
     0
 40
0.0
  0
LTYPE
  5
13
330
4
100
AcDbSymbolTableRecord
100
AcDbLinetypeTableRecord
  2
CONTINUOUS
 70
     0
  3
Solid line
 72
    65
 73
     0
 40
0.0
  0
LTYPE
  5
1E
330
4
100
AcDbSymbolTableRecord
100
AcDbLinetypeTableRecord
  2
HIDDEN
 70
     0
  3
Hidden __ __ __ __ __ __ __ __ __ __ __ __ __ __
 72
    65
 73
     2
 40
1.905
 49
1.27
 74
     0
 49
-0.635
 74
     0
  0
LTYPE
  5
1F
330
4
100
AcDbSymbolTableRecord
100
AcDbLinetypeTableRecord
  2
PHANTOM
 70
     0
  3
Phantom ______  __  __  ______  __  __  ______
 72
    65
 73
     6
 40
12.7
 49
6.349999999999999
 74
     0
 49
-1.27
 74
     0
 49
1.27
 74
     0
 49
-1.27
 74
     0
 49
1.27
 74
     0
 49
-1.27
 74
     0
  0
LTYPE
  5
20
330
4
100
AcDbSymbolTableRecord
100
AcDbLinetypeTableRecord
  2
CENTER
 70
     0
  3
Center ____ _ ____ _ ____ _ ____ _ ____ _ ____
 72
    65
 73
     4
 40
10.16
 49
6.349999999999999
 74
     0
 49
-1.27
 74
     0
 49
1.27
 74
     0
 49
-1.27
 74
     0
  0
LTYPE
  5
21
330
4
100
AcDbSymbolTableRecord
100
AcDbLinetypeTableRecord
  2
CENTERX2
 70
     0
  3
Center (2x) ________  __  ________  __  _____
 72
    65
 73
     4
 40
20.32
 49
12.7
 74
     0
 49
-2.54
 74
     0
 49
2.54
 74
     0
 49
-2.54
 74
     0
  0
LTYPE
  5
22
330
4
100
AcDbSymbolTableRecord
100
AcDbLinetypeTableRecord
  2
DOT2
 70
     0
  3
Dot (.5x) ........................................
 72
    65
 73
     2
 40
0.635
 49
0.0
 74
     0
 49
-0.635
 74
     0
  0
ENDTAB
  0
TABLE
  2
LAYER
  5
2
330
0
100
AcDbSymbolTable
 70
     4
  0
LAYER
  5
14
102
{ACAD_XDICTIONARY
360
C74
102
}
330
2
100
AcDbSymbolTableRecord
100
AcDbLayerTableRecord
  2
0
 70
     0
 62
     7
  6
CONTINUOUS
370
    -3
390
BE8
  0
LAYER
  5
26
330
2
100
AcDbSymbolTableRecord
100
AcDbLayerTableRecord
  2
DEFPOINTS
 70
     0
 62
     7
  6
CONTINUOUS
290
     0
370
    -3
390
BE8
  0
LAYER
  5
27
102
{ACAD_XDICTIONARY
360
C76
102
}
330
2
100
AcDbSymbolTableRecord
100
AcDbLayerTableRecord
  2
FORMAT
 70
     0
 62
     7
  6
CONTINUOUS
370
    -3
390
BE8
  0
LAYER
  5
BEF
102
{ACAD_XDICTIONARY
360
C78
102
}
330
2
100
AcDbSymbolTableRecord
100
AcDbLayerTableRecord
  2
INDUSA
 70
     0
 62
     3
  6
CONTINUOUS
370
    -3
390
BE8
  0
ENDTAB
  0
TABLE
  2
STYLE
  5
3
330
0
100
AcDbSymbolTable
 70
     2
  0
STYLE
  5
17
330
3
100
AcDbSymbolTableRecord
100
AcDbTextStyleTableRecord
  2
STANDARD
 70
     0
 40
0.0
 41
1.0
 50
0.0
 71
     0
 42
0.0
  3
txt
  4

  0
STYLE
  5
68
330
3
100
AcDbSymbolTableRecord
100
AcDbTextStyleTableRecord
  2
SLDTEXTSTYLE0
 70
     0
 40
0.0
 41
0.75
 50
0.0
 71
     0
 42
0.0
  3
txt
  4

  0
ENDTAB
  0
TABLE
  2
VIEW
  5
5
330
0
100
AcDbSymbolTable
 70
     0
  0
ENDTAB
  0
TABLE
  2
UCS
  5
6
330
0
100
AcDbSymbolTable
 70
     0
  0
ENDTAB
  0
TABLE
  2
APPID
  5
8
330
0
100
AcDbSymbolTable
 70
     3
  0
APPID
  5
16
330
8
100
AcDbSymbolTableRecord
100
AcDbRegAppTableRecord
  2
ACAD
 70
     0
  0
APPID
  5
C10
330
8
100
AcDbSymbolTableRecord
100
AcDbRegAppTableRecord
  2
DCO15
 70
     0
  0
APPID
  5
CB2
330
8
100
AcDbSymbolTableRecord
100
AcDbRegAppTableRecord
  2
ACAD_MLEADERVER
 70
     0
  0
ENDTAB
  0
TABLE
  2
DIMSTYLE
  5
9
330
0
100
AcDbSymbolTable
 70
     1
100
AcDbDimStyleTable
 71
     1
340
18
  0
DIMSTYLE
105
18
330
9
100
AcDbSymbolTableRecord
100
AcDbDimStyleTableRecord
  2
STANDARD
 70
     0
289
     0
340
17
  0
ENDTAB
  0
TABLE
  2
BLOCK_RECORD
  5
1
330
0
100
AcDbSymbolTable
 70
    30
  0
BLOCK_RECORD
  5
A
330
1
100
AcDbSymbolTableRecord
100
AcDbBlockTableRecord
  2
*MODEL_SPACE
340
BEB
  0
BLOCK_RECORD
  5
B
330
1
100
AcDbSymbolTableRecord
100
AcDbBlockTableRecord
  2
*PAPER_SPACE
340
BEC
  0
BLOCK_RECORD
  5
8C
330
1
100
AcDbSymbolTableRecord
100
AcDbBlockTableRecord
  2
NOTE35
340
0
102
{BLKREFS
331
8F
102
}
  0
BLOCK_RECORD
  5
90
330
1
100
AcDbSymbolTableRecord
100
AcDbBlockTableRecord
  2
NOTE36
340
0
102
{BLKREFS
331
93
102
}
  0
BLOCK_RECORD
  5
95
330
1
100
AcDbSymbolTableRecord
100
AcDbBlockTableRecord
  2
NOTE38
340
0
102
{BLKREFS
331
98
102
}
  0
BLOCK_RECORD
  5
99
330
1
100
AcDbSymbolTableRecord
100
AcDbBlockTableRecord
  2
NOTE39
340
0
102
{BLKREFS
331
9C
102
}
  0
BLOCK_RECORD
  5
9D
330
1
100
AcDbSymbolTableRecord
100
AcDbBlockTableRecord
  2
NOTE40
340
0
102
{BLKREFS
331
A0
102
}
  0
BLOCK_RECORD
  5
A1
330
1
100
AcDbSymbolTableRecord
100
AcDbBlockTableRecord
  2
NOTE41
340
0
102
{BLKREFS
331
A4
102
}
  0
BLOCK_RECORD
  5
A5
330
1
100
AcDbSymbolTableRecord
100
AcDbBlockTableRecord
  2
NOTE42
340
0
102
{BLKREFS
331
A8
102
}
  0
BLOCK_RECORD
  5
A9
330
1
100
AcDbSymbolTableRecord
100
AcDbBlockTableRecord
  2
NOTE43
340
0
102
{BLKREFS
331
AC
102
}
  0
BLOCK_RECORD
  5
AD
330
1
100
AcDbSymbolTableRecord
100
AcDbBlockTableRecord
  2
NOTE44
340
0
102
{BLKREFS
331
B0
102
}
  0
BLOCK_RECORD
  5
B1
330
1
100
AcDbSymbolTableRecord
100
AcDbBlockTableRecord
  2
NOTE45
340
0
102
{BLKREFS
331
B4
102
}
  0
BLOCK_RECORD
  5
B5
330
1
100
AcDbSymbolTableRecord
100
AcDbBlockTableRecord
  2
NOTE46
340
0
102
{BLKREFS
331
B8
102
}
  0
BLOCK_RECORD
  5
B9
330
1
100
AcDbSymbolTableRecord
100
AcDbBlockTableRecord
  2
NOTE47
340
0
102
{BLKREFS
331
BC
102
}
  0
BLOCK_RECORD
  5
BD
330
1
100
AcDbSymbolTableRecord
100
AcDbBlockTableRecord
  2
NOTE48
340
0
102
{BLKREFS
331
C0
102
}
  0
BLOCK_RECORD
  5
C2
330
1
100
AcDbSymbolTableRecord
100
AcDbBlockTableRecord
  2
NOTE50
340
0
102
{BLKREFS
331
C5
102
}
  0
BLOCK_RECORD
  5
C6
330
1
100
AcDbSymbolTableRecord
100
AcDbBlockTableRecord
  2
NOTE51
340
0
102
{BLKREFS
331
C9
102
}
  0
BLOCK_RECORD
  5
427
330
1
100
AcDbSymbolTableRecord
100
AcDbBlockTableRecord
  2
SW_CENTERMARK0
340
0
  0
BLOCK_RECORD
  5
430
330
1
100
AcDbSymbolTableRecord
100
AcDbBlockTableRecord
  2
SW_CENTERMARK1
340
0
  0
BLOCK_RECORD
  5
439
330
1
100
AcDbSymbolTableRecord
100
AcDbBlockTableRecord
  2
SW_CENTERMARK2
340
0
  0
BLOCK_RECORD
  5
910
330
1
100
AcDbSymbolTableRecord
100
AcDbBlockTableRecord
  2
SW_CENTERMARK3
340
0
  0
BLOCK_RECORD
  5
919
330
1
100
AcDbSymbolTableRecord
100
AcDbBlockTableRecord
  2
SW_CENTERMARK4
340
0
  0
BLOCK_RECORD
  5
922
330
1
100
AcDbSymbolTableRecord
100
AcDbBlockTableRecord
  2
SW_CENTERMARK5
340
0
  0
BLOCK_RECORD
  5
92B
330
1
100
AcDbSymbolTableRecord
100
AcDbBlockTableRecord
  2
SW_CENTERMARK6
340
0
  0
BLOCK_RECORD
  5
934
330
1
100
AcDbSymbolTableRecord
100
AcDbBlockTableRecord
  2
SW_CENTERMARK7
340
0
  0
BLOCK_RECORD
  5
93D
330
1
100
AcDbSymbolTableRecord
100
AcDbBlockTableRecord
  2
SW_CENTERMARK8
340
0
  0
BLOCK_RECORD
  5
946
330
1
100
AcDbSymbolTableRecord
100
AcDbBlockTableRecord
  2
SW_CENTERMARK9
340
0
  0
BLOCK_RECORD
  5
94F
330
1
100
AcDbSymbolTableRecord
100
AcDbBlockTableRecord
  2
SW_CENTERMARK10
340
0
  0
BLOCK_RECORD
  5
958
330
1
100
AcDbSymbolTableRecord
100
AcDbBlockTableRecord
  2
SW_CENTERMARK11
340
0
  0
BLOCK_RECORD
  5
961
330
1
100
AcDbSymbolTableRecord
100
AcDbBlockTableRecord
  2
SW_CENTERMARK12
340
0
  0
BLOCK_RECORD
  5
BDB
330
1
100
AcDbSymbolTableRecord
100
AcDbBlockTableRecord
  2
SW_CENTERMARK13
340
0
  0
BLOCK_RECORD
  5
BF0
330
1
100
AcDbSymbolTableRecord
100
AcDbBlockTableRecord
  2
11021PL
340
0
  0
ENDTAB
  0
ENDSEC
  0
SECTION
  2
BLOCKS
  0
BLOCK
  5
D
330
A
100
AcDbEntity
  8
0
100
AcDbBlockBegin
  2
*MODEL_SPACE
 70
     0
 10
0.0
 20
0.0
 30
0.0
  3
*MODEL_SPACE
  1

  0
ENDBLK
  5
E
330
A
100
AcDbEntity
  8
0
100
AcDbBlockEnd
  0
BLOCK
  5
F
330
B
100
AcDbEntity
 67
     1
  8
0
100
AcDbBlockBegin
  2
*PAPER_SPACE
 70
     0
 10
0.0
 20
0.0
 30
0.0
  3
*PAPER_SPACE
  1

  0
ENDBLK
  5
10
330
B
100
AcDbEntity
 67
     1
  8
0
100
AcDbBlockEnd
  0
BLOCK
  5
8D
330
8C
100
AcDbEntity
  8
0
 62
     0
100
AcDbBlockBegin
  2
NOTE35
 70
     0
 10
0.0
 20
0.0
 30
0.0
  3
NOTE35
  1

  0
ENDBLK
  5
8E
330
8C
100
AcDbEntity
  8
0
100
AcDbBlockEnd
  0
BLOCK
  5
91
330
90
100
AcDbEntity
  8
0
 62
     0
100
AcDbBlockBegin
  2
NOTE36
 70
     0
 10
0.0
 20
0.0
 30
0.0
  3
NOTE36
  1

  0
ENDBLK
  5
92
330
90
100
AcDbEntity
  8
0
100
AcDbBlockEnd
  0
BLOCK
  5
96
330
95
100
AcDbEntity
  8
0
 62
     0
100
AcDbBlockBegin
  2
NOTE38
 70
     0
 10
0.0
 20
0.0
 30
0.0
  3
NOTE38
  1

  0
ENDBLK
  5
97
330
95
100
AcDbEntity
  8
0
100
AcDbBlockEnd
  0
BLOCK
  5
9A
330
99
100
AcDbEntity
  8
0
 62
     0
100
AcDbBlockBegin
  2
NOTE39
 70
     0
 10
0.0
 20
0.0
 30
0.0
  3
NOTE39
  1

  0
ENDBLK
  5
9B
330
99
100
AcDbEntity
  8
0
100
AcDbBlockEnd
  0
BLOCK
  5
9E
330
9D
100
AcDbEntity
  8
0
 62
     0
100
AcDbBlockBegin
  2
NOTE40
 70
     0
 10
0.0
 20
0.0
 30
0.0
  3
NOTE40
  1

  0
ENDBLK
  5
9F
330
9D
100
AcDbEntity
  8
0
100
AcDbBlockEnd
  0
BLOCK
  5
A2
330
A1
100
AcDbEntity
  8
0
 62
     0
100
AcDbBlockBegin
  2
NOTE41
 70
     0
 10
0.0
 20
0.0
 30
0.0
  3
NOTE41
  1

  0
ENDBLK
  5
A3
330
A1
100
AcDbEntity
  8
0
100
AcDbBlockEnd
  0
BLOCK
  5
A6
330
A5
100
AcDbEntity
  8
0
 62
     0
100
AcDbBlockBegin
  2
NOTE42
 70
     0
 10
0.0
 20
0.0
 30
0.0
  3
NOTE42
  1

  0
ENDBLK
  5
A7
330
A5
100
AcDbEntity
  8
0
100
AcDbBlockEnd
  0
BLOCK
  5
AA
330
A9
100
AcDbEntity
  8
0
 62
     0
100
AcDbBlockBegin
  2
NOTE43
 70
     0
 10
0.0
 20
0.0
 30
0.0
  3
NOTE43
  1

  0
ENDBLK
  5
AB
330
A9
100
AcDbEntity
  8
0
100
AcDbBlockEnd
  0
BLOCK
  5
AE
330
AD
100
AcDbEntity
  8
0
 62
     0
100
AcDbBlockBegin
  2
NOTE44
 70
     0
 10
0.0
 20
0.0
 30
0.0
  3
NOTE44
  1

  0
ENDBLK
  5
AF
330
AD
100
AcDbEntity
  8
0
100
AcDbBlockEnd
  0
BLOCK
  5
B2
330
B1
100
AcDbEntity
  8
0
 62
     0
100
AcDbBlockBegin
  2
NOTE45
 70
     0
 10
0.0
 20
0.0
 30
0.0
  3
NOTE45
  1

  0
ENDBLK
  5
B3
330
B1
100
AcDbEntity
  8
0
100
AcDbBlockEnd
  0
BLOCK
  5
B6
330
B5
100
AcDbEntity
  8
0
 62
     0
100
AcDbBlockBegin
  2
NOTE46
 70
     0
 10
0.0
 20
0.0
 30
0.0
  3
NOTE46
  1

  0
ENDBLK
  5
B7
330
B5
100
AcDbEntity
  8
0
100
AcDbBlockEnd
  0
BLOCK
  5
BA
330
B9
100
AcDbEntity
  8
0
 62
     0
100
AcDbBlockBegin
  2
NOTE47
 70
     0
 10
0.0
 20
0.0
 30
0.0
  3
NOTE47
  1

  0
ENDBLK
  5
BB
330
B9
100
AcDbEntity
  8
0
100
AcDbBlockEnd
  0
BLOCK
  5
BE
330
BD
100
AcDbEntity
  8
0
 62
     0
100
AcDbBlockBegin
  2
NOTE48
 70
     0
 10
0.0
 20
0.0
 30
0.0
  3
NOTE48
  1

  0
ENDBLK
  5
BF
330
BD
100
AcDbEntity
  8
0
100
AcDbBlockEnd
  0
BLOCK
  5
C3
330
C2
100
AcDbEntity
  8
0
 62
     0
100
AcDbBlockBegin
  2
NOTE50
 70
     0
 10
0.0
 20
0.0
 30
0.0
  3
NOTE50
  1

  0
ENDBLK
  5
C4
330
C2
100
AcDbEntity
  8
0
100
AcDbBlockEnd
  0
BLOCK
  5
C7
330
C6
100
AcDbEntity
  8
0
 62
     0
100
AcDbBlockBegin
  2
NOTE51
 70
     0
 10
0.0
 20
0.0
 30
0.0
  3
NOTE51
  1

  0
ENDBLK
  5
C8
330
C6
100
AcDbEntity
  8
0
100
AcDbBlockEnd
  0
BLOCK
  5
428
330
427
100
AcDbEntity
  8
0
 62
     0
100
AcDbBlockBegin
  2
SW_CENTERMARK0
 70
     0
 10
0.0
 20
0.0
 30
0.0
  3
SW_CENTERMARK0
  1

  0
LINE
  5
429
330
427
100
AcDbEntity
  8
0
  6
Continuous
 62
     7
100
AcDbLine
 10
259.6536924039053
 20
321.054358547655
 30
0.0
 11
259.6536924039053
 21
321.554358547655
 31
0.0
  0
LINE
  5
42A
330
427
100
AcDbEntity
  8
0
  6
Continuous
 62
     7
100
AcDbLine
 10
259.6536924039053
 20
321.054358547655
 30
0.0
 11
259.1536924039053
 21
321.054358547655
 31
0.0
  0
LINE
  5
42B
330
427
100
AcDbEntity
  8
0
  6
Continuous
 62
     7
100
AcDbLine
 10
259.6536924039053
 20
321.054358547655
 30
0.0
 11
259.6536924039053
 21
320.554358547655
 31
0.0
  0
LINE
  5
42C
330
427
100
AcDbEntity
  8
0
  6
Continuous
 62
     7
100
AcDbLine
 10
259.6536924039053
 20
321.054358547655
 30
0.0
 11
260.1536924039053
 21
321.054358547655
 31
0.0
  0
ENDBLK
  5
42E
330
427
100
AcDbEntity
  8
0
100
AcDbBlockEnd
  0
BLOCK
  5
431
330
430
100
AcDbEntity
  8
0
 62
     0
100
AcDbBlockBegin
  2
SW_CENTERMARK1
 70
     0
 10
0.0
 20
0.0
 30
0.0
  3
SW_CENTERMARK1
  1

  0
LINE
  5
432
330
430
100
AcDbEntity
  8
0
  6
Continuous
 62
     7
100
AcDbLine
 10
259.6536924039051
 20
338.0543585476551
 30
0.0
 11
259.6536924039051
 21
338.554358547655
 31
0.0
  0
LINE
  5
433
330
430
100
AcDbEntity
  8
0
  6
Continuous
 62
     7
100
AcDbLine
 10
259.6536924039051
 20
338.0543585476551
 30
0.0
 11
259.1536924039051
 21
338.0543585476551
 31
0.0
  0
LINE
  5
434
330
430
100
AcDbEntity
  8
0
  6
Continuous
 62
     7
100
AcDbLine
 10
259.6536924039051
 20
338.0543585476551
 30
0.0
 11
259.6536924039051
 21
337.5543585476551
 31
0.0
  0
LINE
  5
435
330
430
100
AcDbEntity
  8
0
  6
Continuous
 62
     7
100
AcDbLine
 10
259.6536924039051
 20
338.0543585476551
 30
0.0
 11
260.1536924039051
 21
338.0543585476551
 31
0.0
  0
ENDBLK
  5
437
330
430
100
AcDbEntity
  8
0
100
AcDbBlockEnd
  0
BLOCK
  5
43A
330
439
100
AcDbEntity
  8
0
 62
     0
100
AcDbBlockBegin
  2
SW_CENTERMARK2
 70
     0
 10
0.0
 20
0.0
 30
0.0
  3
SW_CENTERMARK2
  1

  0
LINE
  5
43B
330
439
100
AcDbEntity
  8
0
  6
Continuous
 62
     7
100
AcDbLine
 10
259.6536924039049
 20
367.5543585476551
 30
0.0
 11
259.6536924039049
 21
368.0543585476551
 31
0.0
  0
LINE
  5
43C
330
439
100
AcDbEntity
  8
0
  6
Continuous
 62
     7
100
AcDbLine
 10
259.6536924039049
 20
367.5543585476551
 30
0.0
 11
259.1536924039049
 21
367.5543585476551
 31
0.0
  0
LINE
  5
43D
330
439
100
AcDbEntity
  8
0
  6
Continuous
 62
     7
100
AcDbLine
 10
259.6536924039049
 20
367.5543585476551
 30
0.0
 11
259.6536924039049
 21
367.0543585476551
 31
0.0
  0
LINE
  5
43E
330
439
100
AcDbEntity
  8
0
  6
Continuous
 62
     7
100
AcDbLine
 10
259.6536924039049
 20
367.5543585476551
 30
0.0
 11
260.1536924039049
 21
367.5543585476551
 31
0.0
  0
LINE
  5
43F
330
439
100
AcDbEntity
  8
0
  6
Continuous
 62
     7
100
AcDbLine
 10
259.6536924039049
 20
368.5543585476551
 30
0.0
 11
259.6536924039049
 21
371.5543585476552
 31
0.0
  0
LINE
  5
440
330
439
100
AcDbEntity
  8
0
  6
Continuous
 62
     7
100
AcDbLine
 10
258.6536924039049
 20
367.5543585476551
 30
0.0
 11
255.6536924039047
 21
367.5543585476551
 31
0.0
  0
LINE
  5
441
330
439
100
AcDbEntity
  8
0
  6
Continuous
 62
     7
100
AcDbLine
 10
259.6536924039049
 20
366.5543585476551
 30
0.0
 11
259.6536924039049
 21
363.554358547655
 31
0.0
  0
LINE
  5
442
330
439
100
AcDbEntity
  8
0
  6
Continuous
 62
     7
100
AcDbLine
 10
260.6536924039049
 20
367.5543585476551
 30
0.0
 11
263.653692403905
 21
367.5543585476551
 31
0.0
  0
ENDBLK
  5
444
330
439
100
AcDbEntity
  8
0
100
AcDbBlockEnd
  0
BLOCK
  5
911
330
910
100
AcDbEntity
  8
0
 62
     0
100
AcDbBlockBegin
  2
SW_CENTERMARK3
 70
     0
 10
0.0
 20
0.0
 30
0.0
  3
SW_CENTERMARK3
  1

  0
LINE
  5
912
330
910
100
AcDbEntity
  8
0
  6
Continuous
 62
     7
100
AcDbLine
 10
406.6370760233455
 20
190.583664411569
 30
0.0
 11
406.6370760233455
 21
191.083664411569
 31
0.0
  0
LINE
  5
913
330
910
100
AcDbEntity
  8
0
  6
Continuous
 62
     7
100
AcDbLine
 10
406.6370760233455
 20
190.583664411569
 30
0.0
 11
406.1370760233455
 21
190.583664411569
 31
0.0
  0
LINE
  5
914
330
910
100
AcDbEntity
  8
0
  6
Continuous
 62
     7
100
AcDbLine
 10
406.6370760233455
 20
190.583664411569
 30
0.0
 11
406.6370760233455
 21
190.083664411569
 31
0.0
  0
LINE
  5
915
330
910
100
AcDbEntity
  8
0
  6
Continuous
 62
     7
100
AcDbLine
 10
406.6370760233455
 20
190.583664411569
 30
0.0
 11
407.1370760233455
 21
190.583664411569
 31
0.0
  0
ENDBLK
  5
917
330
910
100
AcDbEntity
  8
0
100
AcDbBlockEnd
  0
BLOCK
  5
91A
330
919
100
AcDbEntity
  8
0
 62
     0
100
AcDbBlockBegin
  2
SW_CENTERMARK4
 70
     0
 10
0.0
 20
0.0
 30
0.0
  3
SW_CENTERMARK4
  1

  0
LINE
  5
91B
330
919
100
AcDbEntity
  8
0
  6
Continuous
 62
     7
100
AcDbLine
 10
391.8301682398001
 20
182.0349189061557
 30
0.0
 11
391.8301682398001
 21
182.5349189061557
 31
0.0
  0
LINE
  5
91C
330
919
100
AcDbEntity
  8
0
  6
Continuous
 62
     7
100
AcDbLine
 10
391.8301682398001
 20
182.0349189061557
 30
0.0
 11
391.3301682398
 21
182.0349189061557
 31
0.0
  0
LINE
  5
91D
330
919
100
AcDbEntity
  8
0
  6
Continuous
 62
     7
100
AcDbLine
 10
391.8301682398001
 20
182.0349189061557
 30
0.0
 11
391.8301682398001
 21
181.5349189061557
 31
0.0
  0
LINE
  5
91E
330
919
100
AcDbEntity
  8
0
  6
Continuous
 62
     7
100
AcDbLine
 10
391.8301682398001
 20
182.0349189061557
 30
0.0
 11
392.3301682398001
 21
182.0349189061557
 31
0.0
  0
ENDBLK
  5
920
330
919
100
AcDbEntity
  8
0
100
AcDbBlockEnd
  0
BLOCK
  5
923
330
922
100
AcDbEntity
  8
0
 62
     0
100
AcDbBlockBegin
  2
SW_CENTERMARK5
 70
     0
 10
0.0
 20
0.0
 30
0.0
  3
SW_CENTERMARK5
  1

  0
LINE
  5
924
330
922
100
AcDbEntity
  8
0
  6
Continuous
 62
     7
100
AcDbLine
 10
406.7280033469635
 20
191.383664411569
 30
0.0
 11
406.7280033469635
 21
191.883664411569
 31
0.0
  0
LINE
  5
925
330
922
100
AcDbEntity
  8
0
  6
Continuous
 62
     7
100
AcDbLine
 10
406.7280033469635
 20
191.383664411569
 30
0.0
 11
406.2280033469635
 21
191.383664411569
 31
0.0
  0
LINE
  5
926
330
922
100
AcDbEntity
  8
0
  6
Continuous
 62
     7
100
AcDbLine
 10
406.7280033469635
 20
191.383664411569
 30
0.0
 11
406.7280033469635
 21
190.883664411569
 31
0.0
  0
LINE
  5
927
330
922
100
AcDbEntity
  8
0
  6
Continuous
 62
     7
100
AcDbLine
 10
406.7280033469635
 20
191.383664411569
 30
0.0
 11
407.2280033469635
 21
191.383664411569
 31
0.0
  0
ENDBLK
  5
929
330
922
100
AcDbEntity
  8
0
100
AcDbBlockEnd
  0
BLOCK
  5
92C
330
92B
100
AcDbEntity
  8
0
 62
     0
100
AcDbBlockBegin
  2
SW_CENTERMARK6
 70
     0
 10
0.0
 20
0.0
 30
0.0
  3
SW_CENTERMARK6
  1

  0
LINE
  5
92D
330
92B
100
AcDbEntity
  8
0
  6
Continuous
 62
     7
100
AcDbLine
 10
418.5209344185977
 20
220.9752292876846
 30
0.0
 11
418.5209344185977
 21
221.4752292876847
 31
0.0
  0
LINE
  5
92E
330
92B
100
AcDbEntity
  8
0
  6
Continuous
 62
     7
100
AcDbLine
 10
418.5209344185977
 20
220.9752292876846
 30
0.0
 11
418.0209344185978
 21
220.9752292876846
 31
0.0
  0
LINE
  5
92F
330
92B
100
AcDbEntity
  8
0
  6
Continuous
 62
     7
100
AcDbLine
 10
418.5209344185977
 20
220.9752292876846
 30
0.0
 11
418.5209344185977
 21
220.4752292876846
 31
0.0
  0
LINE
  5
930
330
92B
100
AcDbEntity
  8
0
  6
Continuous
 62
     7
100
AcDbLine
 10
418.5209344185977
 20
220.9752292876846
 30
0.0
 11
419.0209344185977
 21
220.9752292876846
 31
0.0
  0
ENDBLK
  5
932
330
92B
100
AcDbEntity
  8
0
100
AcDbBlockEnd
  0
BLOCK
  5
935
330
934
100
AcDbEntity
  8
0
 62
     0
100
AcDbBlockBegin
  2
SW_CENTERMARK7
 70
     0
 10
0.0
 20
0.0
 30
0.0
  3
SW_CENTERMARK7
  1

  0
LINE
  5
936
330
934
100
AcDbEntity
  8
0
  6
Continuous
 62
     7
100
AcDbLine
 10
414.056455359818
 20
227.5187987898362
 30
0.0
 11
414.056455359818
 21
228.0187987898361
 31
0.0
  0
LINE
  5
937
330
934
100
AcDbEntity
  8
0
  6
Continuous
 62
     7
100
AcDbLine
 10
414.056455359818
 20
227.5187987898362
 30
0.0
 11
413.556455359818
 21
227.5187987898362
 31
0.0
  0
LINE
  5
938
330
934
100
AcDbEntity
  8
0
  6
Continuous
 62
     7
100
AcDbLine
 10
414.056455359818
 20
227.5187987898362
 30
0.0
 11
414.056455359818
 21
227.0187987898362
 31
0.0
  0
LINE
  5
939
330
934
100
AcDbEntity
  8
0
  6
Continuous
 62
     7
100
AcDbLine
 10
414.056455359818
 20
227.5187987898362
 30
0.0
 11
414.5564553598179
 21
227.5187987898362
 31
0.0
  0
ENDBLK
  5
93B
330
934
100
AcDbEntity
  8
0
100
AcDbBlockEnd
  0
BLOCK
  5
93E
330
93D
100
AcDbEntity
  8
0
 62
     0
100
AcDbBlockBegin
  2
SW_CENTERMARK8
 70
     0
 10
0.0
 20
0.0
 30
0.0
  3
SW_CENTERMARK8
  1

  0
LINE
  5
93F
330
93D
100
AcDbEntity
  8
0
  6
Continuous
 62
     7
100
AcDbLine
 10
417.3703567110281
 20
218.8690073290953
 30
0.0
 11
417.3703567110281
 21
219.3690073290953
 31
0.0
  0
LINE
  5
940
330
93D
100
AcDbEntity
  8
0
  6
Continuous
 62
     7
100
AcDbLine
 10
417.3703567110281
 20
218.8690073290953
 30
0.0
 11
416.8703567110281
 21
218.8690073290953
 31
0.0
  0
LINE
  5
941
330
93D
100
AcDbEntity
  8
0
  6
Continuous
 62
     7
100
AcDbLine
 10
417.3703567110281
 20
218.8690073290953
 30
0.0
 11
417.3703567110281
 21
218.3690073290953
 31
0.0
  0
LINE
  5
942
330
93D
100
AcDbEntity
  8
0
  6
Continuous
 62
     7
100
AcDbLine
 10
417.3703567110281
 20
218.8690073290953
 30
0.0
 11
417.8703567110281
 21
218.8690073290953
 31
0.0
  0
ENDBLK
  5
944
330
93D
100
AcDbEntity
  8
0
100
AcDbBlockEnd
  0
BLOCK
  5
947
330
946
100
AcDbEntity
  8
0
 62
     0
100
AcDbBlockBegin
  2
SW_CENTERMARK9
 70
     0
 10
0.0
 20
0.0
 30
0.0
  3
SW_CENTERMARK9
  1

  0
LINE
  5
948
330
946
100
AcDbEntity
  8
0
  6
Continuous
 62
     7
100
AcDbLine
 10
423.9846686928519
 20
221.1442302348295
 30
0.0
 11
423.9846686928519
 21
221.6442302348295
 31
0.0
  0
LINE
  5
949
330
946
100
AcDbEntity
  8
0
  6
Continuous
 62
     7
100
AcDbLine
 10
423.9846686928519
 20
221.1442302348295
 30
0.0
 11
423.4846686928519
 21
221.1442302348295
 31
0.0
  0
LINE
  5
94A
330
946
100
AcDbEntity
  8
0
  6
Continuous
 62
     7
100
AcDbLine
 10
423.9846686928519
 20
221.1442302348295
 30
0.0
 11
423.9846686928519
 21
220.6442302348295
 31
0.0
  0
LINE
  5
94B
330
946
100
AcDbEntity
  8
0
  6
Continuous
 62
     7
100
AcDbLine
 10
423.9846686928519
 20
221.1442302348295
 30
0.0
 11
424.4846686928519
 21
221.1442302348295
 31
0.0
  0
ENDBLK
  5
94D
330
946
100
AcDbEntity
  8
0
100
AcDbBlockEnd
  0
BLOCK
  5
950
330
94F
100
AcDbEntity
  8
0
 62
     0
100
AcDbBlockBegin
  2
SW_CENTERMARK10
 70
     0
 10
0.0
 20
0.0
 30
0.0
  3
SW_CENTERMARK10
  1

  0
LINE
  5
951
330
94F
100
AcDbEntity
  8
0
  6
Continuous
 62
     7
100
AcDbLine
 10
443.9690190751531
 20
222.7442302348295
 30
0.0
 11
443.9690190751531
 21
223.2442302348295
 31
0.0
  0
LINE
  5
952
330
94F
100
AcDbEntity
  8
0
  6
Continuous
 62
     7
100
AcDbLine
 10
443.9690190751531
 20
222.7442302348295
 30
0.0
 11
443.4690190751531
 21
222.7442302348295
 31
0.0
  0
LINE
  5
953
330
94F
100
AcDbEntity
  8
0
  6
Continuous
 62
     7
100
AcDbLine
 10
443.9690190751531
 20
222.7442302348295
 30
0.0
 11
443.9690190751531
 21
222.2442302348295
 31
0.0
  0
LINE
  5
954
330
94F
100
AcDbEntity
  8
0
  6
Continuous
 62
     7
100
AcDbLine
 10
443.9690190751531
 20
222.7442302348295
 30
0.0
 11
444.4690190751531
 21
222.7442302348295
 31
0.0
  0
ENDBLK
  5
956
330
94F
100
AcDbEntity
  8
0
100
AcDbBlockEnd
  0
BLOCK
  5
959
330
958
100
AcDbEntity
  8
0
 62
     0
100
AcDbBlockBegin
  2
SW_CENTERMARK11
 70
     0
 10
0.0
 20
0.0
 30
0.0
  3
SW_CENTERMARK11
  1

  0
LINE
  5
95A
330
958
100
AcDbEntity
  8
0
  6
Continuous
 62
     7
100
AcDbLine
 10
435.4607428221234
 20
175.3442302348294
 30
0.0
 11
435.4607428221234
 21
175.8442302348294
 31
0.0
  0
LINE
  5
95B
330
958
100
AcDbEntity
  8
0
  6
Continuous
 62
     7
100
AcDbLine
 10
435.4607428221234
 20
175.3442302348294
 30
0.0
 11
434.9607428221234
 21
175.3442302348294
 31
0.0
  0
LINE
  5
95C
330
958
100
AcDbEntity
  8
0
  6
Continuous
 62
     7
100
AcDbLine
 10
435.4607428221234
 20
175.3442302348294
 30
0.0
 11
435.4607428221234
 21
174.8442302348294
 31
0.0
  0
LINE
  5
95D
330
958
100
AcDbEntity
  8
0
  6
Continuous
 62
     7
100
AcDbLine
 10
435.4607428221234
 20
175.3442302348294
 30
0.0
 11
435.9607428221234
 21
175.3442302348294
 31
0.0
  0
ENDBLK
  5
95F
330
958
100
AcDbEntity
  8
0
100
AcDbBlockEnd
  0
BLOCK
  5
962
330
961
100
AcDbEntity
  8
0
 62
     0
100
AcDbBlockBegin
  2
SW_CENTERMARK12
 70
     0
 10
0.0
 20
0.0
 30
0.0
  3
SW_CENTERMARK12
  1

  0
LINE
  5
963
330
961
100
AcDbEntity
  8
0
  6
Continuous
 62
     7
100
AcDbLine
 10
391.8301682398
 20
175.3442302348293
 30
0.0
 11
391.8301682398
 21
175.8442302348294
 31
0.0
  0
LINE
  5
964
330
961
100
AcDbEntity
  8
0
  6
Continuous
 62
     7
100
AcDbLine
 10
391.8301682398
 20
175.3442302348293
 30
0.0
 11
391.3301682398
 21
175.3442302348293
 31
0.0
  0
LINE
  5
965
330
961
100
AcDbEntity
  8
0
  6
Continuous
 62
     7
100
AcDbLine
 10
391.8301682398
 20
175.3442302348293
 30
0.0
 11
391.8301682398
 21
174.8442302348293
 31
0.0
  0
LINE
  5
966
330
961
100
AcDbEntity
  8
0
  6
Continuous
 62
     7
100
AcDbLine
 10
391.8301682398
 20
175.3442302348293
 30
0.0
 11
392.3301682397999
 21
175.3442302348293
 31
0.0
  0
ENDBLK
  5
968
330
961
100
AcDbEntity
  8
0
100
AcDbBlockEnd
  0
BLOCK
  5
BDC
330
BDB
100
AcDbEntity
  8
0
 62
     0
100
AcDbBlockBegin
  2
SW_CENTERMARK13
 70
     0
 10
0.0
 20
0.0
 30
0.0
  3
SW_CENTERMARK13
  1

  0
LINE
  5
BDD
330
BDB
100
AcDbEntity
  8
0
  6
Continuous
 62
     7
100
AcDbLine
 10
37.25111969208482
 20
175.344230234829
 30
0.0
 11
37.25111969208482
 21
175.844230234829
 31
0.0
  0
LINE
  5
BDE
330
BDB
100
AcDbEntity
  8
0
  6
Continuous
 62
     7
100
AcDbLine
 10
37.25111969208482
 20
175.344230234829
 30
0.0
 11
36.75111969208482
 21
175.344230234829
 31
0.0
  0
LINE
  5
BDF
330
BDB
100
AcDbEntity
  8
0
  6
Continuous
 62
     7
100
AcDbLine
 10
37.25111969208482
 20
175.344230234829
 30
0.0
 11
37.25111969208482
 21
174.844230234829
 31
0.0
  0
LINE
  5
BE0
330
BDB
100
AcDbEntity
  8
0
  6
Continuous
 62
     7
100
AcDbLine
 10
37.25111969208482
 20
175.344230234829
 30
0.0
 11
37.75111969208482
 21
175.344230234829
 31
0.0
  0
ENDBLK
  5
BE2
330
BDB
100
AcDbEntity
  8
0
100
AcDbBlockEnd
  0
BLOCK
  5
BFD
330
BF0
100
AcDbEntity
  8
0
100
AcDbBlockBegin
  2
11021PL
 70
     0
 10
0.0
 20
0.0
 30
0.0
  3
11021PL
  1

  0
CIRCLE
  5
BF1
330
BF0
100
AcDbEntity
  8
INDUSA
100
AcDbCircle
 10
-0.0775
 20
-0.25
 30
0.0
 40
0.009
  0
CIRCLE
  5
BF2
330
BF0
100
AcDbEntity
  8
INDUSA
100
AcDbCircle
 10
0.0775
 20
-0.25
 30
0.0
 40
0.009
  0
CIRCLE
  5
BF3
330
BF0
100
AcDbEntity
  8
INDUSA
100
AcDbCircle
 10
0.0
 20
-0.085
 30
0.0
 40
0.02
  0
LWPOLYLINE
  5
BF4
330
BF0
100
AcDbEntity
  8
INDUSA
100
AcDbPolyline
 90
       10
 70
     0
 43
0.0
 10
-0.175147
 20
-0.187765
 42
0.265672
 10
-0.185
 20
-0.205
 10
-0.185
 20
-0.49045
 42
0.104354
 10
-0.15275
 20
-0.616965
 42
0.184862
 10
-0.080107
 20
-0.684321
 42
0.195726
 10
0.080107
 20
-0.684321
 42
0.184862
 10
0.15275
 20
-0.616965
 42
0.104354
 10
0.185
 20
-0.49045
 10
0.185
 20
-0.205
 42
0.265672
 10
0.175147
 20
-0.187765
  0
LWPOLYLINE
  5
BF5
330
BF0
100
AcDbEntity
  8
INDUSA
100
AcDbPolyline
 90
        8
 70
     0
 43
0.0
 10
0.17
 20
-0.195
 10
0.17
 20
-0.4901340000000001
 42
-0.104095
 10
0.139293
 20
-0.6103380000000001
 42
-0.184862
 10
0.074514
 20
-0.670403
 42
-0.195902
 10
-0.074514
 20
-0.670403
 42
-0.184862
 10
-0.139293
 20
-0.6103380000000001
 42
-0.104095
 10
-0.17
 20
-0.4901340000000001
 10
-0.17
 20
-0.195
  0
LWPOLYLINE
  5
BF6
330
BF0
100
AcDbEntity
  8
INDUSA
100
AcDbPolyline
 90
        4
 70
     0
 43
0.0
 10
0.125
 20
-0.35
 42
0.4142140000000001
 10
0.075
 20
-0.3
 10
-0.075
 20
-0.3
 42
0.4142140000000001
 10
-0.125
 20
-0.35
  0
LWPOLYLINE
  5
BF7
330
BF0
100
AcDbEntity
  8
INDUSA
100
AcDbPolyline
 90
        8
 70
     1
 43
0.0
 10
-0.0475
 20
-0.45
 10
-0.0475
 20
-0.41
 42
-0.4142140000000001
 10
-0.0275
 20
-0.39
 10
0.0275
 20
-0.39
 42
-0.4142140000000001
 10
0.0475
 20
-0.41
 10
0.0475
 20
-0.45
 42
-0.4142140000000001
 10
0.0075
 20
-0.4900000000000001
 10
-0.0075
 20
-0.4900000000000001
 42
-0.4142140000000001
  0
LWPOLYLINE
  5
BF8
330
BF0
100
AcDbEntity
  8
INDUSA
100
AcDbPolyline
 90
        6
 70
     0
 43
0.0
 10
0.1265
 20
0.0
 10
0.1265
 20
-0.115
 42
-0.4142140000000001
 10
0.1065
 20
-0.135
 10
-0.1065
 20
-0.135
 42
-0.4142140000000001
 10
-0.1265
 20
-0.115
 10
-0.1265
 20
0.0
  0
LWPOLYLINE
  5
BF9
330
BF0
100
AcDbEntity
  8
INDUSA
100
AcDbPolyline
 90
       18
 70
     0
 43
0.0
 10
-0.1825
 20
-0.152927
 10
-0.1825
 20
-0.179294
 10
-0.1825
 20
-0.152927
 42
-0.148799
 10
-0.181652
 20
-0.150142
 10
-0.179815
 20
-0.147403
 10
-0.1715
 20
0.0
 10
0.1715
 20
0.0
 10
0.179815
 20
-0.147403
 10
0.181652
 20
-0.150142
 42
-0.148799
 10
0.1825
 20
-0.152927
 10
0.1825
 20
-0.179294
 42
-0.222536
 10
0.180702
 20
-0.183134
 10
0.16925
 20
-0.192681
 42
-0.1755
 10
0.162847
 20
-0.195
 10
-0.162847
 20
-0.195
 42
-0.1755
 10
-0.16925
 20
-0.192681
 10
-0.180702
 20
-0.183134
 42
-0.222536
 10
-0.1825
 20
-0.179294
  0
LWPOLYLINE
  5
BFA
330
BF0
100
AcDbEntity
  8
INDUSA
100
AcDbPolyline
 90
        8
 70
     0
 43
0.0
 10
-0.1825
 20
-0.163421
 42
0.276484
 10
-0.179861
 20
-0.167828
 10
-0.168686
 20
-0.173815
 42
0.123577
 10
-0.163964
 20
-0.175
 10
0.163964
 20
-0.175
 42
0.123577
 10
0.168686
 20
-0.173815
 10
0.179861
 20
-0.167828
 42
0.276484
 10
0.1825
 20
-0.163421
  0
LWPOLYLINE
  5
BFB
330
BF0
100
AcDbEntity
  8
INDUSA
100
AcDbPolyline
 90
        2
 70
     0
 43
0.0
 10
-0.14
 20
-0.185
 10
0.14
 20
-0.185
  0
LWPOLYLINE
  5
BFC
330
BF0
100
AcDbEntity
  8
INDUSA
100
AcDbPolyline
 90
        8
 70
     0
 43
0.0
 10
0.125
 20
-0.195
 10
0.125
 20
-0.489135
 42
-0.103186
 10
0.098922
 20
-0.5904600000000001
 42
-0.184862
 10
0.057737
 20
-0.628647
 42
-0.196633
 10
-0.057737
 20
-0.628647
 42
-0.184862
 10
-0.098922
 20
-0.5904600000000001
 42
-0.103186
 10
-0.125
 20
-0.489135
 10
-0.125
 20
-0.195
  0
ENDBLK
  5
BFE
330
BF0
100
AcDbEntity
  8
0
100
AcDbBlockEnd
  0
ENDSEC
  0
SECTION
  2
ENTITIES
  0
INSERT
  5
8F
330
A
100
AcDbEntity
  8
0
100
AcDbBlockReference
  2
NOTE35
 10
0.0
 20
0.0
 30
0.0
  0
INSERT
  5
93
330
A
100
AcDbEntity
  8
0
100
AcDbBlockReference
  2
NOTE36
 10
0.0
 20
0.0
 30
0.0
  0
INSERT
  5
98
330
A
100
AcDbEntity
  8
0
100
AcDbBlockReference
  2
NOTE38
 10
0.0
 20
0.0
 30
0.0
  0
INSERT
  5
9C
330
A
100
AcDbEntity
  8
0
100
AcDbBlockReference
  2
NOTE39
 10
0.0
 20
0.0
 30
0.0
  0
INSERT
  5
A0
330
A
100
AcDbEntity
  8
0
100
AcDbBlockReference
  2
NOTE40
 10
0.0
 20
0.0
 30
0.0
  0
INSERT
  5
A4
330
A
100
AcDbEntity
  8
0
100
AcDbBlockReference
  2
NOTE41
 10
0.0
 20
0.0
 30
0.0
  0
INSERT
  5
A8
330
A
100
AcDbEntity
  8
0
100
AcDbBlockReference
  2
NOTE42
 10
0.0
 20
0.0
 30
0.0
  0
INSERT
  5
AC
330
A
100
AcDbEntity
  8
0
100
AcDbBlockReference
  2
NOTE43
 10
0.0
 20
0.0
 30
0.0
  0
INSERT
  5
B0
330
A
100
AcDbEntity
  8
0
100
AcDbBlockReference
  2
NOTE44
 10
0.0
 20
0.0
 30
0.0
  0
INSERT
  5
B4
330
A
100
AcDbEntity
  8
0
100
AcDbBlockReference
  2
NOTE45
 10
0.0
 20
0.0
 30
0.0
  0
INSERT
  5
B8
330
A
100
AcDbEntity
  8
0
100
AcDbBlockReference
  2
NOTE46
 10
0.0
 20
0.0
 30
0.0
  0
INSERT
  5
BC
330
A
100
AcDbEntity
  8
0
100
AcDbBlockReference
  2
NOTE47
 10
0.0
 20
0.0
 30
0.0
  0
INSERT
  5
C0
330
A
100
AcDbEntity
  8
0
100
AcDbBlockReference
  2
NOTE48
 10
0.0
 20
0.0
 30
0.0
  0
INSERT
  5
C5
330
A
100
AcDbEntity
  8
0
100
AcDbBlockReference
  2
NOTE50
 10
0.0
 20
0.0
 30
0.0
  0
INSERT
  5
C9
330
A
100
AcDbEntity
  8
0
100
AcDbBlockReference
  2
NOTE51
 10
0.0
 20
0.0
 30
0.0
  0
ARC
  5
DD
330
A
100
AcDbEntity
  8
INDUSA
  6
Continuous
100
AcDbCircle
 10
279.3274414392671
 20
136.978893291203
 30
0.0
 40
0.005
100
AcDbArc
 50
180.0000000000004
 51
251.2943627156059
  0
ARC
  5
DE
330
A
100
AcDbEntity
  8
INDUSA
  6
Continuous
100
AcDbCircle
 10
279.7074414392671
 20
136.978893291203
 30
0.0
 40
0.005
100
AcDbArc
 50
288.705637284394
 51
0.0
  0
LINE
  5
DF
330
A
100
AcDbEntity
  8
INDUSA
  6
Continuous
100
AcDbLine
 10
279.7124414392671
 20
136.978893291203
 30
0.0
 11
279.7124414392671
 21
137.0094215039198
 31
0.0
  0
LINE
  5
E0
330
A
100
AcDbEntity
  8
INDUSA
  6
Continuous
100
AcDbLine
 10
279.3224414392671
 20
137.0094215039198
 30
0.0
 11
279.3224414392671
 21
136.978893291203
 31
0.0
  0
ARC
  5
E1
330
A
100
AcDbEntity
  8
INDUSA
  6
Continuous
100
AcDbCircle
 10
279.7074414392671
 20
137.0094215039198
 30
0.0
 40
0.005
100
AcDbArc
 50
0.0
 51
90.0
  0
ARC
  5
E2
330
A
100
AcDbEntity
  8
INDUSA
  6
Continuous
100
AcDbCircle
 10
279.3274414392671
 20
137.0094215039198
 30
0.0
 40
0.005
100
AcDbArc
 50
90.0
 51
180.0000000000004
  0
ARC
  5
E3
330
A
100
AcDbEntity
  8
INDUSA
  6
Continuous
100
AcDbCircle
 10
279.3242343774244
 20
136.9694215039198
 30
0.0
 40
0.0050000000000001
100
AcDbArc
 50
24.64677085193811
 51
71.2943627156125
  0
ARC
  5
E4
330
A
100
AcDbEntity
  8
INDUSA
  6
Continuous
100
AcDbCircle
 10
279.7106485011098
 20
136.9694215039198
 30
0.0
 40
0.0050000000000002
100
AcDbArc
 50
108.705637284389
 51
155.3532291480646
  0
LINE
  5
E5
330
A
100
AcDbEntity
  8
INDUSA
  6
Continuous
100
AcDbLine
 10
279.3287788573939
 20
136.9715066182588
 30
0.0
 11
279.4039104592142
 21
136.8077582553171
 31
0.0
  0
LINE
  5
E6
330
A
100
AcDbEntity
  8
INDUSA
  6
Continuous
100
AcDbLine
 10
279.63097241932
 20
136.8077582553171
 30
0.0
 11
279.7061040211402
 21
136.9715066182588
 31
0.0
  0
ARC
  5
E7
330
A
100
AcDbEntity
  8
INDUSA
  6
Continuous
100
AcDbCircle
 10
279.3562606051537
 20
136.6254215039198
 30
0.0
 40
0.001
100
AcDbArc
 50
164.3282409361961
 51
270.0000000000008
  0
ARC
  5
E8
330
A
100
AcDbEntity
  8
INDUSA
  6
Continuous
100
AcDbCircle
 10
279.6786222733805
 20
136.6254215039198
 30
0.0
 40
0.001
100
AcDbArc
 50
270.0000000000008
 51
15.67175906380387
  0
LINE
  5
E9
330
A
100
AcDbEntity
  8
INDUSA
  6
Continuous
100
AcDbLine
 10
279.6795850983882
 20
136.6256916298248
 30
0.0
 11
279.6304331291819
 21
136.8008867675898
 31
0.0
  0
LINE
  5
EA
330
A
100
AcDbEntity
  8
INDUSA
  6
Continuous
100
AcDbLine
 10
279.4044497493522
 20
136.8008867675898
 30
0.0
 11
279.355297780146
 21
136.6256916298248
 31
0.0
  0
ARC
  5
EB
330
A
100
AcDbEntity
  8
INDUSA
  6
Continuous
100
AcDbCircle
 10
279.640061379259
 20
136.8035880266392
 30
0.0
 40
0.0100000000000003
100
AcDbArc
 50
155.3532291480695
 51
195.67175906381
  0
ARC
  5
EC
330
A
100
AcDbEntity
  8
INDUSA
  6
Continuous
100
AcDbCircle
 10
279.3948214992751
 20
136.8035880266392
 30
0.0
 40
0.0100000000000002
100
AcDbArc
 50
344.3282409361943
 51
24.64677085193073
  0
LINE
  5
EE
330
A
100
AcDbEntity
  8
INDUSA
  6
Continuous
100
AcDbLine
 10
279.7090449701884
 20
136.9741573975614
 30
0.0
 11
279.3258379083457
 21
136.9741573975614
 31
0.0
  0
LINE
  5
F0
330
A
100
AcDbEntity
  8
INDUSA
  6
Continuous
100
AcDbLine
 10
279.3274414392671
 20
137.0144215039198
 30
0.0
 11
279.7074414392671
 21
137.0144215039198
 31
0.0
  0
LINE
  5
F2
330
A
100
AcDbEntity
  8
INDUSA
  6
Continuous
100
AcDbLine
 10
279.4039104592142
 20
136.8077582553171
 30
0.0
 11
279.63097241932
 21
136.8077582553171
 31
0.0
  0
LINE
  5
F3
330
A
100
AcDbEntity
  8
INDUSA
  6
Continuous
100
AcDbLine
 10
279.6786222733805
 20
136.6244215039198
 30
0.0
 11
279.3562606051537
 21
136.6244215039198
 31
0.0
  0
LINE
  5
F5
330
A
100
AcDbEntity
  8
INDUSA
  6
Continuous
100
AcDbLine
 10
279.6304331291819
 20
136.8008867675898
 30
0.0
 11
279.4044497493522
 21
136.8008867675898
 31
0.0
  0
LWPOLYLINE
  5
FD
330
A
100
AcDbEntity
  8
INDUSA
  6
Continuous
100
AcDbPolyline
 90
        3
 70
   128
 43
0.0
 10
278.87841673766
 20
136.9632695726367
 10
278.8786350008682
 20
136.9631553448783
 10
278.8786477319704
 20
136.9631484720448
  0
LWPOLYLINE
  5
102
330
A
100
AcDbEntity
  8
INDUSA
  6
Continuous
100
AcDbPolyline
 90
        3
 70
   128
 43
0.0
 10
278.8533230210211
 20
136.9631439339017
 10
278.8533469807317
 20
136.9631597517698
 10
278.853541622481
 20
136.9632623009981
  0
LINE
  5
10F
330
A
100
AcDbEntity
  8
INDUSA
  6
Continuous
100
AcDbLine
 10
278.9908851831869
 20
136.9575473714539
 30
0.0
 11
278.9908851831869
 21
137.1427956331783
 31
0.0
  0
LINE
  5
110
330
A
100
AcDbEntity
  8
INDUSA
  6
Continuous
100
AcDbLine
 10
278.7410899319634
 20
137.1427956331783
 30
0.0
 11
278.7410899319634
 21
136.957989976624
 31
0.0
  0
LWPOLYLINE
  5
111
330
A
100
AcDbEntity
  8
INDUSA
  6
Continuous
100
AcDbPolyline
 90
       16
 70
   128
 43
0.0
 10
278.9515497101493
 20
136.9830215389311
 10
278.9388975581376
 20
136.9885943818498
 10
278.9258173821823
 20
136.9932032214461
 10
278.9124272024633
 20
136.9968463865614
 10
278.8988450391605
 20
136.9995222060371
 10
278.8876033944108
 20
137.0010079187094
 10
278.8768102933142
 20
137.0018468534168
 10
278.8659875575751
 20
137.0021257601973
 10
278.8533025207465
 20
137.0017422708095
 10
278.8406535251855
 20
137.0005865987715
 10
278.8281149881915
 20
136.9986509382713
 10
278.8193703196737
 20
136.9968110338143
 10
278.810720870633
 20
136.9945722921608
 10
278.80040138121
 20
136.9913189278329
 10
278.7902832401668
 20
136.9874669478582
 10
278.780425405001
 20
136.9830215389311
  0
ARC
  5
123
330
A
100
AcDbEntity
  8
INDUSA
  6
Continuous
100
AcDbCircle
 10
278.8659875575752
 20
136.8077956331783
 30
0.0
 40
0.1950000000000001
100
AcDbArc
 50
116.0260834109609
 51
63.97391658903949
  0
CIRCLE
  5
14D
330
A
100
AcDbEntity
  8
INDUSA
  6
Continuous
100
AcDbCircle
 10
278.8659875575752
 20
136.8077956331783
 30
0.0
 40
0.1594608955645731
  0
LWPOLYLINE
  5
210
330
A
100
AcDbEntity
  8
INDUSA
  6
Continuous
100
AcDbPolyline
 90
       38
 70
   128
 43
0.0
 10
278.8659875575751
 20
136.9648637673905
 10
278.8678154203576
 20
136.9648376716481
 10
278.8700323512661
 20
136.9647341170863
 10
278.8721291330379
 20
136.9645595991813
 10
278.8740695601052
 20
136.9643203446117
 10
278.8757704565112
 20
136.9640343930389
 10
278.877182581819
 20
136.9637177967586
 10
278.8782717507325
 20
136.9633880262524
 10
278.8790014895213
 20
136.9630632573588
 10
278.8793635492669
 20
136.9627552846114
 10
278.8793417201438
 20
136.9624759517551
 10
278.8789394555404
 20
136.9622326503315
 10
278.8781726876877
 20
136.9620329829451
 10
278.8770629391718
 20
136.961873493841
 10
278.8756391522339
 20
136.9617530101133
 10
278.8739419382154
 20
136.9616660250751
 10
278.8720180380998
 20
136.9616074057439
 10
278.8699223983773
 20
136.9615711754584
 10
278.8659875575751
 20
136.9615485842461
 10
278.8654593875225
 20
136.9615489626081
 10
278.8632181447421
 20
136.9615593137547
 10
278.8610558865305
 20
136.9615856320217
 10
278.8590366185561
 20
136.9616316120839
 10
278.8572144609453
 20
136.9617024365713
 10
278.8553338570604
 20
136.9618310208915
 10
278.8541117921659
 20
136.9619792005
 10
278.8532297882659
 20
136.9621677752849
 10
278.8527122526935
 20
136.9624006652731
 10
278.8525781346296
 20
136.9626716886644
 10
278.8528354297266
 20
136.962975335953
 10
278.8534709824988
 20
136.9632995595438
 10
278.8544604922019
 20
136.9636280089373
 10
278.855777599947
 20
136.9639479351446
 10
278.8573896322246
 20
136.9642421730649
 10
278.8592517218656
 20
136.9644949633042
 10
278.8612439544791
 20
136.964684640946
 10
278.8633692520103
 20
136.9648100601462
 10
278.8659875575751
 20
136.9648637673905
  0
LINE
  5
279
330
A
100
AcDbEntity
  8
INDUSA
  6
Continuous
100
AcDbLine
 10
278.7473302837685
 20
137.1477956331783
 30
0.0
 11
278.9846448313818
 21
137.1477956331783
 31
0.0
  0
LWPOLYLINE
  5
27A
330
A
100
AcDbEntity
  8
INDUSA
  6
Continuous
100
AcDbPolyline
 90
       39
 70
   128
 43
0.0
 10
278.8659875575751
 20
137.0227956331783
 10
278.8689247262586
 20
137.0230456670279
 10
278.8717790880821
 20
137.0237817549425
 10
278.8744678645835
 20
137.0249896611202
 10
278.8769176543756
 20
137.0266287760439
 10
278.8769229343241
 20
137.0266330003662
 10
278.8790598656504
 20
137.0286636444717
 10
278.8808284282611
 20
137.0310220924692
 10
278.8821727370145
 20
137.0336451949585
 10
278.8830610794984
 20
137.0364557309482
 10
278.8834616141262
 20
137.0393760489451
 10
278.8833698087138
 20
137.0423222918448
 10
278.8827807818306
 20
137.0452125205587
 10
278.8817179942742
 20
137.0479639681513
 10
278.8802058401384
 20
137.0504950834762
 10
278.8782929020266
 20
137.0527386431812
 10
278.8760288241852
 20
137.0546260683323
 10
278.873481791933
 20
137.0561097550758
 10
278.8707207964248
 20
137.0571415461683
 10
278.8678263897282
 20
137.0576987563553
 10
278.8659875575751
 20
137.0577956331783
 10
278.8619636728682
 20
137.0573267327278
 10
278.8591621052901
 20
137.0564077868311
 10
278.8565530111573
 20
137.0550346743239
 10
278.8536744743898
 20
137.0527309853033
 10
278.8517633618157
 20
137.0504868383062
 10
278.8502530007892
 20
137.0479555106415
 10
278.8491922911303
 20
137.0452055585271
 10
278.8486047160428
 20
137.042317221727
 10
278.8485137960348
 20
137.0393704814002
 10
278.8489153636015
 20
137.036449831191
 10
278.849805089648
 20
137.0336386065137
 10
278.851151035542
 20
137.0310151367498
 10
278.8529209874829
 20
137.0286572007127
 10
278.8550592518264
 20
137.026627343839
 10
278.8575099419491
 20
137.0249881723953
 10
278.860199668543
 20
137.0237804783031
 10
278.8630522899993
 20
137.0230453387718
 10
278.8659875575751
 20
137.0227956331783
  0
LWPOLYLINE
  5
2E5
330
A
100
AcDbEntity
  8
INDUSA
  6
Continuous
100
AcDbPolyline
 90
        5
 70
   128
 43
0.0
 10
278.7399460682675
 20
136.9565858982265
 10
278.7403399448601
 20
136.9569581387743
 10
278.7406911237763
 20
136.9573709241003
 10
278.7409954694052
 20
136.9578193930942
 10
278.7410920391162
 20
136.9580015093593
  0
LWPOLYLINE
  5
305
330
A
100
AcDbEntity
  8
INDUSA
  6
Continuous
100
AcDbPolyline
 90
        9
 70
   128
 43
0.0
 10
278.7410920391162
 20
137.1427956331783
 10
278.7411879396668
 20
137.1437710847884
 10
278.7414719559139
 20
137.1447090503402
 10
278.7419331732726
 20
137.1455734843434
 10
278.7425538674183
 20
137.1463311670843
 10
278.7433101854233
 20
137.1469529812399
 10
278.7441730624106
 20
137.1474150308409
 10
278.7451093385016
 20
137.1476995595804
 10
278.7460830331311
 20
137.1477956331783
  0
LINE
  5
311
330
A
100
AcDbEntity
  8
INDUSA
  6
Continuous
100
AcDbLine
 10
278.7473302837685
 20
137.1477956331783
 30
0.0
 11
278.7460830331311
 21
137.1477956331783
 31
0.0
  0
LWPOLYLINE
  5
318
330
A
100
AcDbEntity
  8
INDUSA
  6
Continuous
100
AcDbPolyline
 90
        9
 70
   128
 43
0.0
 10
278.9908830760341
 20
137.1427956331783
 10
278.9907871754835
 20
137.1437710847884
 10
278.9905031592364
 20
137.1447090503402
 10
278.9900419418777
 20
137.1455734843434
 10
278.989421247732
 20
137.1463311670843
 10
278.988664929727
 20
137.1469529812399
 10
278.9878020527397
 20
137.1474150308409
 10
278.9868657766487
 20
137.1476995595804
 10
278.9858920820192
 20
137.1477956331783
  0
LINE
  5
323
330
A
100
AcDbEntity
  8
INDUSA
  6
Continuous
100
AcDbLine
 10
278.9846448313818
 20
137.1477956331783
 30
0.0
 11
278.9858920820192
 21
137.1477956331783
 31
0.0
  0
LINE
  5
33C
330
A
100
AcDbEntity
  8
INDUSA
  6
Continuous
100
AcDbLine
 10
278.9908851831869
 20
137.1427956331783
 30
0.0
 11
278.9908830760341
 21
137.1427956331783
 31
0.0
  0
LINE
  5
33D
330
A
100
AcDbEntity
  8
INDUSA
  6
Continuous
100
AcDbLine
 10
278.7410899319634
 20
137.1427956331783
 30
0.0
 11
278.7410920391163
 21
137.1427956331783
 31
0.0
  0
LWPOLYLINE
  5
33F
330
A
100
AcDbEntity
  8
INDUSA
  6
Continuous
100
AcDbPolyline
 90
        7
 70
   128
 43
0.0
 10
278.8659875575751
 20
136.9290462924921
 10
278.8609232741585
 20
136.9287007580903
 10
278.8559499844468
 20
136.9276848132794
 10
278.8506200589379
 20
136.9257988714885
 10
278.8455968527529
 20
136.9231983899156
 10
278.8417473986498
 20
136.9205826796995
 10
278.8417473508219
 20
136.9205826434813
  0
LWPOLYLINE
  5
348
330
A
100
AcDbEntity
  8
INDUSA
  6
Continuous
100
AcDbPolyline
 90
       49
 70
   128
 43
0.0
 10
278.8659876962918
 20
136.7082187024211
 10
278.8571648746012
 20
136.7085720748071
 10
278.8481324320581
 20
136.7096777116022
 10
278.8389541321976
 20
136.7116023800446
 10
278.8297061731051
 20
136.7144096262393
 10
278.8193764292011
 20
136.7186734753843
 10
278.8092169615193
 20
136.7241887935419
 10
278.8069762331389
 20
136.7256049692828
 10
278.804754431406
 20
136.7270876019886
 10
278.802553640042
 20
136.7286371404934
 10
278.8003759944909
 20
136.7302539767609
 10
278.7982236811142
 20
136.7319384429802
 10
278.7960989362609
 20
136.7336908086192
 10
278.7940040452111
 20
136.7355112774418
 10
278.7884593811307
 20
136.7408230950947
 10
278.7828521584446
 20
136.7470651685111
 10
278.7773378040895
 20
136.7543231771251
 10
278.7720997842754
 20
136.7626687100147
 10
278.7688650009983
 20
136.7688624653675
 10
278.7659168980439
 20
136.7755702994419
 10
278.7633309357251
 20
136.7827929343569
 10
278.7619864588427
 20
136.787370808892
 10
278.7608193766284
 20
136.7921281267091
 10
278.7598483370753
 20
136.7970602132625
 10
278.7590924081244
 20
136.8021609144627
 10
278.7585709865663
 20
136.8074224901586
 10
278.7582894150227
 20
136.8169939910812
 10
278.7588238449765
 20
136.8261544612868
 10
278.7600627780417
 20
136.8348343448776
 10
278.7618944089463
 20
136.8429825696886
 10
278.764209098642
 20
136.8505647334213
 10
278.7669013466857
 20
136.8575611192462
 10
278.7702418555614
 20
136.8646932809296
 10
278.7738006966466
 20
136.8710875980344
 10
278.777459468074
 20
136.8767627313565
 10
278.7822641676128
 20
136.8832018292589
 10
278.7828811779738
 20
136.8839601397548
 10
278.7834939461339
 20
136.8846994207241
 10
278.7841020582701
 20
136.8854198769122
 10
278.7847051112798
 20
136.8861217151225
 10
278.7853027126892
 20
136.8868051438602
 10
278.7858944805578
 20
136.8874703729844
 10
278.7916970641863
 20
136.89345656253
 10
278.7978383024412
 20
136.8988921846162
 10
278.8042591697765
 20
136.903767433624
 10
278.8142895974275
 20
136.9100226167295
 10
278.8246354808238
 20
136.9150189545865
 10
278.8331793178709
 20
136.9181818514093
 10
278.8417333162479
 20
136.9205590104706
  0
LWPOLYLINE
  5
37C
330
A
100
AcDbEntity
  8
INDUSA
  6
Continuous
100
AcDbPolyline
 90
       49
 70
   128
 43
0.0
 10
278.8659874188584
 20
136.7082187024211
 10
278.8748102405491
 20
136.7085720748071
 10
278.8838426830921
 20
136.7096777116022
 10
278.8930209829528
 20
136.7116023800446
 10
278.9022689420452
 20
136.7144096262393
 10
278.9125986859492
 20
136.7186734753843
 10
278.922758153631
 20
136.7241887935419
 10
278.9249988820113
 20
136.7256049692828
 10
278.9272206837442
 20
136.7270876019886
 10
278.9294214751083
 20
136.7286371404934
 10
278.9315991206594
 20
136.7302539767609
 10
278.9337514340362
 20
136.7319384429802
 10
278.9358761788894
 20
136.7336908086192
 10
278.9379710699392
 20
136.7355112774418
 10
278.9435157340196
 20
136.7408230950947
 10
278.9491229567056
 20
136.7470651685111
 10
278.9546373110607
 20
136.7543231771251
 10
278.9598753308749
 20
136.7626687100147
 10
278.963110114152
 20
136.7688624653675
 10
278.9660582171064
 20
136.7755702994419
 10
278.9686441794251
 20
136.7827929343569
 10
278.9699886563076
 20
136.787370808892
 10
278.9711557385219
 20
136.7921281267091
 10
278.9721267780751
 20
136.7970602132625
 10
278.9728827070259
 20
136.8021609144627
 10
278.973404128584
 20
136.8074224901586
 10
278.9736857001275
 20
136.8169939910812
 10
278.9731512701737
 20
136.8261544612868
 10
278.9719123371086
 20
136.8348343448776
 10
278.970080706204
 20
136.8429825696886
 10
278.9677660165083
 20
136.8505647334213
 10
278.9650737684646
 20
136.8575611192462
 10
278.9617332595889
 20
136.8646932809296
 10
278.9581744185036
 20
136.8710875980344
 10
278.9545156470762
 20
136.8767627313565
 10
278.9497109475375
 20
136.8832018292589
 10
278.9490939371765
 20
136.8839601397548
 10
278.9484811690164
 20
136.8846994207241
 10
278.9478730568802
 20
136.8854198769122
 10
278.9472700038705
 20
136.8861217151225
 10
278.946672402461
 20
136.8868051438602
 10
278.9460806345925
 20
136.8874703729844
 10
278.940278050964
 20
136.89345656253
 10
278.9341368127091
 20
136.8988921846162
 10
278.9277159453738
 20
136.903767433624
 10
278.9176855177227
 20
136.9100226167295
 10
278.9073396343265
 20
136.9150189545865
 10
278.8987957972794
 20
136.9181818514093
 10
278.8902417989024
 20
136.9205590104706
  0
LWPOLYLINE
  5
3AF
330
A
100
AcDbEntity
  8
INDUSA
  6
Continuous
100
AcDbPolyline
 90
        7
 70
   128
 43
0.0
 10
278.8659875575751
 20
136.9290462924921
 10
278.8710518409918
 20
136.9287007580903
 10
278.8760251307035
 20
136.9276848132794
 10
278.8813550562123
 20
136.9257988714885
 10
278.8863782623974
 20
136.9231983899156
 10
278.8902277165005
 20
136.9205826796995
 10
278.8902277643284
 20
136.9205826434813
  0
LWPOLYLINE
  5
3B8
330
A
100
AcDbEntity
  8
INDUSA
  6
Continuous
100
AcDbPolyline
 90
       31
 70
   128
 43
0.0
 10
278.8902603408697
 20
136.9205546720187
 10
278.8943897752047
 20
136.9164029522315
 10
278.8978226437025
 20
136.9116593994131
 10
278.900624288906
 20
136.9060393491184
 10
278.9024501893867
 20
136.9000312547933
 10
278.9032348765733
 20
136.8937978925966
 10
278.902969716054
 20
136.8875210218595
 10
278.9016464515331
 20
136.8813751169765
 10
278.899316974806
 20
136.875535764085
 10
278.896031214634
 20
136.8701708111758
 10
278.8918961780179
 20
136.8654291006217
 10
278.8870165404647
 20
136.8614544853722
 10
278.8815413158951
 20
136.8583505132548
 10
278.8756243784352
 20
136.8562205859523
 10
278.8694346062384
 20
136.8551086156539
 10
278.8659875575751
 20
136.8549488164925
 10
278.8614451052297
 20
136.8552278040674
 10
278.8569702427643
 20
136.8560564695131
 10
278.8510571255276
 20
136.8580751004768
 10
278.8455611108034
 20
136.8610465941784
 10
278.8406241412454
 20
136.8649175024168
 10
278.8364005032749
 20
136.8695558659195
 10
278.8330134239499
 20
136.8748528433194
 10
278.8305570136678
 20
136.8806402202381
 10
278.8291138109016
 20
136.8867642821147
 10
278.8287128039256
 20
136.8930432880361
 10
278.8293800607531
 20
136.8992981191789
 10
278.8310818886413
 20
136.9053540275028
 10
278.8337823958638
 20
136.9110312643301
 10
278.8373924248535
 20
136.9161785978819
 10
278.8417147742805
 20
136.9205546720187
  0
CIRCLE
  5
41A
330
A
100
AcDbEntity
  8
INDUSA
  6
Continuous
100
AcDbCircle
 10
278.8659875575752
 20
136.8927956331783
 30
0.0
 40
0.0224999999999999
  0
LINE
  5
486
330
A
100
AcDbEntity
  8
INDUSA
  6
Continuous
100
AcDbLine
 10
281.1197815011038
 20
136.8736100237045
 30
0.0
 11
281.1202325928824
 21
136.8737994905858
 31
0.0
  0
LINE
  5
492
330
A
100
AcDbEntity
  8
INDUSA
  6
Continuous
100
AcDbLine
 10
280.6607003152698
 20
136.9545387689351
 30
0.0
 11
280.7167003152698
 21
136.9545387689351
 31
0.0
  0
LWPOLYLINE
  5
493
330
A
100
AcDbEntity
  8
INDUSA
  6
Continuous
100
AcDbPolyline
 90
        6
 70
   128
 43
0.0
 10
281.1106256166835
 20
136.8706418996016
 10
281.1154106104106
 20
136.871982884682
 10
281.1201000607198
 20
136.873728612985
 10
281.1247242279995
 20
136.8759095474081
 10
281.1291776453989
 20
136.8784965111012
 10
281.134409574194
 20
136.8822545173883
  0
LINE
  5
49B
330
A
100
AcDbEntity
  8
INDUSA
  6
Continuous
100
AcDbLine
 10
281.1230496964949
 20
136.857495809494
 30
0.0
 11
281.1344095742262
 21
136.8822545174141
 31
0.0
  0
ARC
  5
49C
330
A
100
AcDbEntity
  8
INDUSA
  6
Continuous
100
AcDbCircle
 10
281.0960485384872
 20
136.8444215039198
 30
0.0
 40
0.0300000029870899
100
AcDbArc
 50
25.83687024996362
 51
60.92838693054492
  0
LWPOLYLINE
  5
4A4
330
A
100
AcDbEntity
  8
INDUSA
  6
Continuous
100
AcDbPolyline
 90
       16
 70
   128
 43
0.0
 10
280.8849412764294
 20
136.87519424351
 10
280.8890929962166
 20
136.8752936213055
 10
280.893836549035
 20
136.8754080976575
 10
280.8994565993298
 20
136.8755451577195
 10
280.9054646936548
 20
136.8756936033118
 10
280.9116980558515
 20
136.8758500800929
 10
280.9179749265886
 20
136.8760106033788
 10
280.9241208314716
 20
136.8761713281097
 10
280.9299601843632
 20
136.8763279799219
 10
280.9353251372724
 20
136.8764763169837
 10
280.9400668478264
 20
136.8766118261496
 10
280.944041463076
 20
136.876729732281
 10
280.9471454351934
 20
136.8768252534368
 10
280.9492753624958
 20
136.8768930948185
 10
280.9503873327942
 20
136.8769294515955
 10
280.9505471319557
 20
136.8769347299595
  0
ARC
  5
4B6
330
A
100
AcDbEntity
  8
INDUSA
  6
Continuous
100
AcDbCircle
 10
280.9506780166972
 20
136.8719364433347
 30
0.0
 40
0.0050000000000001
100
AcDbArc
 50
91.49999999999947
 51
147.0029744347633
  0
LINE
  5
4C9
330
A
100
AcDbEntity
  8
INDUSA
  6
Continuous
100
AcDbLine
 10
281.0972772460274
 20
136.879038855608
 30
0.0
 11
280.9977221594526
 21
136.8781700515296
 31
0.0
  0
LINE
  5
4CA
330
A
100
AcDbEntity
  8
INDUSA
  6
Continuous
100
AcDbLine
 10
280.9977221594526
 20
136.8781700515296
 30
0.0
 11
280.9505471319557
 21
136.8769347299595
 31
0.0
  0
ARC
  5
4CB
330
A
100
AcDbEntity
  8
INDUSA
  6
Continuous
100
AcDbCircle
 10
280.9039516079243
 20
136.8909158167941
 30
0.0
 40
0.0298504047602293
100
AcDbArc
 50
215.6539648747262
 51
237.4489445547666
  0
ARC
  5
4D4
330
A
100
AcDbEntity
  8
INDUSA
  6
Continuous
100
AcDbCircle
 10
280.9214490226153
 20
136.8909158167941
 30
0.0
 40
0.0298504047602294
100
AcDbArc
 50
302.5510554452349
 51
327.0029744347631
  0
LWPOLYLINE
  5
4D6
330
A
100
AcDbEntity
  8
INDUSA
  6
Continuous
100
AcDbPolyline
 90
       13
 70
   128
 43
0.0
 10
281.1464682268343
 20
136.922943484591
 10
281.1453818609854
 20
136.9170243165562
 10
281.1436028569992
 20
136.9113212071519
 10
281.1411312148756
 20
136.9058341563781
 10
281.1380346932021
 20
136.9006892034636
 10
281.1343685433628
 20
136.8959885134564
 10
281.1301327653578
 20
136.8917320863563
 10
281.1254243820229
 20
136.8880063871432
 10
281.1203392321482
 20
136.8848968241235
 10
281.1148773157338
 20
136.8824033972972
 10
281.1091468042826
 20
136.8805695277659
 10
281.1032801143804
 20
136.8794480138696
 10
281.0972772460271
 20
136.879038855608
  0
LWPOLYLINE
  5
4E5
330
A
100
AcDbEntity
  8
INDUSA
  6
Continuous
100
AcDbPolyline
 90
        7
 70
   128
 43
0.0
 10
280.8764496559561
 20
136.8755349102355
 10
280.8767951903578
 20
136.8754986396993
 10
280.8778111351688
 20
136.8754060925553
 10
280.8796970769596
 20
136.8752748572468
 10
280.8822975585325
 20
136.8751833644777
 10
280.8849132687486
 20
136.8751936453819
 10
280.8849133049669
 20
136.8751936462355
  0
LWPOLYLINE
  5
4EE
330
A
100
AcDbEntity
  8
INDUSA
  6
Continuous
100
AcDbPolyline
 90
        9
 70
   128
 43
0.0
 10
280.8764496559561
 20
136.8755349102355
 10
280.8725496357464
 20
136.8764522665322
 10
280.8688057880403
 20
136.8778789075397
 10
280.8644099115335
 20
136.8803733131396
 10
280.8604913965575
 20
136.8835656523983
 10
280.8571689831154
 20
136.8873745050444
 10
280.8545280417015
 20
136.8916839386508
 10
280.852630674673
 20
136.8964542006635
 10
280.8515681810907
 20
136.9014768004582
  0
LINE
  5
554
330
A
100
AcDbEntity
  8
INDUSA
  6
Continuous
100
AcDbLine
 10
280.7467003152698
 20
137.0014215039198
 30
0.0
 11
280.7027003152699
 21
137.0014215039198
 31
0.0
  0
LWPOLYLINE
  5
555
330
A
100
AcDbEntity
  8
INDUSA
  6
Continuous
100
AcDbPolyline
 90
       20
 70
   128
 43
0.0
 10
280.7837003152698
 20
137.0014215039198
 10
280.7836168420415
 20
137.0014194808828
 10
280.7830588157975
 20
137.0014061561553
 10
280.7819974351204
 20
137.001382042762
 10
280.7804556420389
 20
137.0013495958245
 10
280.778484172909
 20
137.0013126554445
 10
280.7761331785607
 20
137.0012753152849
 10
280.7734746099621
 20
137.0012417419191
 10
280.7705794059469
 20
137.0012158626365
 10
280.7675329420558
 20
137.0012003564826
 10
280.7644196386868
 20
137.0011972729714
 10
280.7613282871841
 20
137.0012066288188
 10
280.758345297478
 20
137.001227713147
 10
280.755555416791
 20
137.0012578692963
 10
280.753043498435
 20
137.0012938607564
 10
280.7508737557485
 20
137.0013315582014
 10
280.749114278724
 20
137.0013666793989
 10
280.7478076639689
 20
137.0013954104046
 10
280.7469813635109
 20
137.0014146832227
 10
280.7467003152698
 20
137.0014215039198
  0
LINE
  5
56B
330
A
100
AcDbEntity
  8
INDUSA
  6
Continuous
100
AcDbLine
 10
280.8025075748439
 20
137.0014215039198
 30
0.0
 11
280.7837003152698
 21
137.0014215039198
 31
0.0
  0
ARC
  5
56D
330
A
100
AcDbEntity
  8
INDUSA
  6
Continuous
100
AcDbCircle
 10
280.7467003152698
 20
137.0024215039198
 30
0.0
 40
0.0010000000000002
100
AcDbArc
 50
270.0000000000171
 51
0.0
  0
ARC
  5
585
330
A
100
AcDbEntity
  8
INDUSA
  6
Continuous
100
AcDbCircle
 10
280.7837003152698
 20
137.0024215039198
 30
0.0
 40
0.0010000000000002
100
AcDbArc
 50
180.0000000000004
 51
270.0000000000008
  0
LINE
  5
586
330
A
100
AcDbEntity
  8
INDUSA
  6
Continuous
100
AcDbLine
 10
280.7837003152698
 20
137.0094215039198
 30
0.0
 11
280.799040061232
 21
137.0094215039198
 31
0.0
  0
LWPOLYLINE
  5
587
330
A
100
AcDbEntity
  8
INDUSA
  6
Continuous
100
AcDbPolyline
 90
       20
 70
   128
 43
0.0
 10
280.7467003152698
 20
137.0094215039198
 10
280.7468027279113
 20
137.0094190361054
 10
280.7473917232599
 20
137.0094050744148
 10
280.7484825292639
 20
137.0093805124259
 10
280.7500508160611
 20
137.0093478709087
 10
280.7520462761239
 20
137.0093109825076
 10
280.7544177887892
 20
137.009273947946
 10
280.757093789727
 20
137.0092408862373
 10
280.7600022973684
 20
137.0092156875651
 10
280.7630578475367
 20
137.009200956468
 10
280.7661724804944
 20
137.0091986645866
 10
280.7692596404846
 20
137.0092087223348
 10
280.7722309870968
 20
137.0092303182092
 10
280.7750037725909
 20
137.0092607387913
 10
280.7774972325143
 20
137.0092967639241
 10
280.7796436699569
 20
137.0093342229022
 10
280.7813780848802
 20
137.0093688973856
 10
280.7826561543067
 20
137.0093969848457
 10
280.783435587296
 20
137.009415112155
 10
280.7837003152698
 20
137.0094215039198
  0
LINE
  5
59D
330
A
100
AcDbEntity
  8
INDUSA
  6
Continuous
100
AcDbLine
 10
280.6627003152698
 20
137.0094215039198
 30
0.0
 11
280.7467003152698
 21
137.0094215039198
 31
0.0
  0
ARC
  5
59E
330
A
100
AcDbEntity
  8
INDUSA
  6
Continuous
100
AcDbCircle
 10
280.7467003152698
 20
137.0084215039198
 30
0.0
 40
0.0010000000000002
100
AcDbArc
 50
0.0
 51
89.99999999998371
  0
ARC
  5
59F
330
A
100
AcDbEntity
  8
INDUSA
  6
Continuous
100
AcDbCircle
 10
280.7837003152698
 20
137.0084215039198
 30
0.0
 40
0.0010000000000001
100
AcDbArc
 50
90.0
 51
180.0000000000004
  0
LINE
  5
5B7
330
A
100
AcDbEntity
  8
INDUSA
  6
Continuous
100
AcDbLine
 10
280.7477003152698
 20
137.0024215039198
 30
0.0
 11
280.7477003152698
 21
137.0084215039198
 31
0.0
  0
LINE
  5
5B8
330
A
100
AcDbEntity
  8
INDUSA
  6
Continuous
100
AcDbLine
 10
280.7827003152699
 20
137.0084215039198
 30
0.0
 11
280.7827003152699
 21
137.0024215039198
 31
0.0
  0
LINE
  5
5B9
330
A
100
AcDbEntity
  8
INDUSA
  6
Continuous
100
AcDbLine
 10
280.8305870101508
 20
136.9902996345764
 30
0.0
 11
280.8288530626242
 21
137.0044215039198
 31
0.0
  0
LWPOLYLINE
  5
5BA
330
A
100
AcDbEntity
  8
INDUSA
  6
Continuous
100
AcDbPolyline
 90
       19
 70
   128
 43
0.0
 10
280.8339021932951
 20
136.9632996345764
 10
280.8338752216051
 20
136.9639511529058
 10
280.8338347613248
 20
136.9648281255469
 10
280.8337707248941
 20
136.9660419683331
 10
280.8336773148162
 20
136.9675653290981
 10
280.8335496576252
 20
136.9693495813439
 10
280.8333818043617
 20
136.9713602307366
 10
280.8331734631345
 20
136.9735246992976
 10
280.8329235381821
 20
136.9757938684102
 10
280.8326390895317
 20
136.9780883943553
 10
280.8323279635201
 20
136.9803417546378
 10
280.8320028084422
 20
136.9824910459247
 10
280.831659330986
 20
136.9845820690927
 10
280.831334959832
 20
136.986425571191
 10
280.8310702495248
 20
136.9878503369604
 10
280.8308523106532
 20
136.9889773174913
 10
280.8306948691726
 20
136.9897686016927
 10
280.8306054387032
 20
136.9902094181131
 10
280.8305870101507
 20
136.9902996345764
  0
LINE
  5
5CF
330
A
100
AcDbEntity
  8
INDUSA
  6
Continuous
100
AcDbLine
 10
280.8416114762766
 20
136.9005125632641
 30
0.0
 11
280.8339021932951
 21
136.9632996345764
 31
0.0
  0
ARC
  5
5D0
330
A
100
AcDbEntity
  8
INDUSA
  6
Continuous
100
AcDbCircle
 10
280.8315795563024
 20
136.9904215039198
 30
0.0
 40
0.0010000000000001
100
AcDbArc
 50
186.9999999999946
 51
270.0000000000008
  0
ARC
  5
5E6
330
A
100
AcDbEntity
  8
INDUSA
  6
Continuous
100
AcDbCircle
 10
280.8348947394467
 20
136.9634215039198
 30
0.0
 40
0.0010000000000001
100
AcDbArc
 50
90.0
 51
187.0000000000027
  0
LINE
  5
5E7
330
A
100
AcDbEntity
  8
INDUSA
  6
Continuous
100
AcDbLine
 10
280.839639634906
 20
136.9894215039198
 30
0.0
 11
280.8315795563024
 21
136.9894215039198
 31
0.0
  0
LINE
  5
5FD
330
A
100
AcDbEntity
  8
INDUSA
  6
Continuous
100
AcDbLine
 10
280.8348947394467
 20
136.9644215039198
 30
0.0
 11
280.8429548180504
 21
136.9644215039198
 31
0.0
  0
LINE
  5
5FE
330
A
100
AcDbEntity
  8
INDUSA
  6
Continuous
100
AcDbLine
 10
280.8515681810907
 20
136.9014768004582
 30
0.0
 11
280.8439473642021
 21
136.9635433732632
 31
0.0
  0
LWPOLYLINE
  5
5FF
330
A
100
AcDbEntity
  8
INDUSA
  6
Continuous
100
AcDbPolyline
 90
       19
 70
   128
 43
0.0
 10
280.8406321810576
 20
136.9905433732632
 10
280.8406582768
 20
136.9904174733848
 10
280.8407618313619
 20
136.9899135706807
 10
280.8409363492668
 20
136.9890455511709
 10
280.8411756038365
 20
136.9878166306439
 10
280.8414615554093
 20
136.9862806583653
 10
280.8417781516896
 20
136.9844790662848
 10
280.8421079221957
 20
136.9824676911839
 10
280.8424326910893
 20
136.9803127032387
 10
280.8427406638368
 20
136.9780641840055
 10
280.8430199966931
 20
136.9757813885259
 10
280.8432632981166
 20
136.9735301459114
 10
280.843462965503
 20
136.9714019902107
 10
280.8436224546071
 20
136.9694273008601
 10
280.8437429383348
 20
136.9676701606836
 10
280.843829923373
 20
136.9661732300758
 10
280.8438885427043
 20
136.9649862029585
 10
280.8439247729897
 20
136.9641373057529
 10
280.8439473642021
 20
136.9635433732632
  0
LINE
  5
614
330
A
100
AcDbEntity
  8
INDUSA
  6
Continuous
100
AcDbLine
 10
280.8406321810577
 20
136.9905433732632
 30
0.0
 11
280.8382394197053
 21
137.0100308506368
 31
0.0
  0
LINE
  5
616
330
A
100
AcDbEntity
  8
INDUSA
  6
Continuous
100
AcDbLine
 10
281.1571612108344
 20
137.0100308506368
 30
0.0
 11
281.1464682268343
 21
136.922943484591
 31
0.0
  0
ARC
  5
617
330
A
100
AcDbEntity
  8
INDUSA
  6
Continuous
100
AcDbCircle
 10
280.8429548180504
 20
136.9634215039198
 30
0.0
 40
0.0010000000000001
100
AcDbArc
 50
7.000000000127227
 51
90.0
  0
ARC
  5
618
330
A
100
AcDbEntity
  8
INDUSA
  6
Continuous
100
AcDbCircle
 10
280.839639634906
 20
136.9904215039198
 30
0.0
 40
0.0010000000000001
100
AcDbArc
 50
270.0000000000008
 51
7.000000000001956
  0
LINE
  5
619
330
A
100
AcDbEntity
  8
INDUSA
  6
Continuous
100
AcDbLine
 10
281.1877003152698
 20
137.0144215039198
 30
0.0
 11
281.1621239415926
 21
137.0144215039198
 31
0.0
  0
ARC
  5
61A
330
A
100
AcDbEntity
  8
INDUSA
  6
Continuous
100
AcDbCircle
 10
281.1877003152698
 20
137.0094215039198
 30
0.0
 40
0.005
100
AcDbArc
 50
0.0
 51
90.0
  0
LINE
  5
61B
330
A
100
AcDbEntity
  8
INDUSA
  6
Continuous
100
AcDbLine
 10
281.1927003152698
 20
136.978893291203
 30
0.0
 11
281.1927003152698
 21
137.0094215039198
 31
0.0
  0
ARC
  5
61C
330
A
100
AcDbEntity
  8
INDUSA
  6
Continuous
100
AcDbCircle
 10
281.1877003152698
 20
136.978893291203
 30
0.0
 40
0.005
100
AcDbArc
 50
288.7056372843905
 51
0.0
  0
ARC
  5
61D
330
A
100
AcDbEntity
  8
INDUSA
  6
Continuous
100
AcDbCircle
 10
281.1909073771125
 20
136.9694215039198
 30
0.0
 40
0.0050000000000001
100
AcDbArc
 50
108.7056372843859
 51
155.3532291480669
  0
LINE
  5
61E
330
A
100
AcDbEntity
  8
INDUSA
  6
Continuous
100
AcDbLine
 10
281.1112312953227
 20
136.8077582553171
 30
0.0
 11
281.186362897143
 21
136.9715066182588
 31
0.0
  0
ARC
  5
61F
330
A
100
AcDbEntity
  8
INDUSA
  6
Continuous
100
AcDbCircle
 10
281.1203202552618
 20
136.8035880266392
 30
0.0
 40
0.0100000000000001
100
AcDbArc
 50
155.3532291480682
 51
195.6717590638059
  0
LINE
  5
620
330
A
100
AcDbEntity
  8
INDUSA
  6
Continuous
100
AcDbLine
 10
281.1598439743909
 20
136.6256916298248
 30
0.0
 11
281.1106920051847
 21
136.8008867675898
 31
0.0
  0
ARC
  5
621
330
A
100
AcDbEntity
  8
INDUSA
  6
Continuous
100
AcDbCircle
 10
281.1588811493832
 20
136.6254215039198
 30
0.0
 40
0.0010000000000001
100
AcDbArc
 50
270.0000000000008
 51
15.67175906381171
  0
LINE
  5
622
330
A
100
AcDbEntity
  8
INDUSA
  6
Continuous
100
AcDbLine
 10
281.1509583700453
 20
136.6244215039198
 30
0.0
 11
281.1588811493832
 21
136.6244215039198
 31
0.0
  0
ARC
  5
623
330
A
100
AcDbEntity
  8
INDUSA
  6
Continuous
100
AcDbCircle
 10
281.1509583700453
 20
136.6254215039198
 30
0.0
 40
0.001
100
AcDbArc
 50
195.6717590638046
 51
270.0000000000008
  0
LINE
  5
624
330
A
100
AcDbEntity
  8
INDUSA
  6
Continuous
100
AcDbLine
 10
281.1026753850143
 20
136.7938172949297
 30
0.0
 11
281.1499955450376
 21
136.6251513780149
 31
0.0
  0
ARC
  5
625
330
A
100
AcDbEntity
  8
INDUSA
  6
Continuous
100
AcDbCircle
 10
281.1315601352457
 20
136.801921072078
 30
0.0
 40
0.0300000000000001
100
AcDbArc
 50
155.3532291480691
 51
195.6717590638063
  0
LINE
  5
626
330
A
100
AcDbEntity
  8
INDUSA
  6
Continuous
100
AcDbLine
 10
281.1142264583653
 20
136.8360810465639
 30
0.0
 11
281.1042932554285
 21
136.8144317581118
 31
0.0
  0
ARC
  5
627
330
A
100
AcDbEntity
  8
INDUSA
  6
Continuous
100
AcDbCircle
 10
281.0960485384872
 20
136.8444215039198
 30
0.0
 40
0.0200000000000004
100
AcDbArc
 50
335.3532291480697
 51
90.0
  0
LINE
  5
628
330
A
100
AcDbEntity
  8
INDUSA
  6
Continuous
100
AcDbLine
 10
280.9537003152698
 20
136.8644215039198
 30
0.0
 11
281.0960485384872
 21
136.8644215039198
 31
0.0
  0
ARC
  5
629
330
A
100
AcDbEntity
  8
INDUSA
  6
Continuous
100
AcDbCircle
 10
280.9537003152698
 20
136.8594215039198
 30
0.0
 40
0.005
100
AcDbArc
 50
90.0
 51
180.0000000000004
  0
LINE
  5
62A
330
A
100
AcDbEntity
  8
INDUSA
  6
Continuous
100
AcDbLine
 10
280.9487003152698
 20
136.8594215039198
 30
0.0
 11
280.9487003152698
 21
136.8354215039198
 31
0.0
  0
ARC
  5
62B
330
A
100
AcDbEntity
  8
INDUSA
  6
Continuous
100
AcDbCircle
 10
280.9477003152698
 20
136.8354215039198
 30
0.0
 40
0.0010000000000002
100
AcDbArc
 50
270.0000000000008
 51
0.0
  0
LINE
  5
62C
330
A
100
AcDbEntity
  8
INDUSA
  6
Continuous
100
AcDbLine
 10
280.9477003152698
 20
136.8344215039198
 30
0.0
 11
280.9362003152699
 21
136.8344215039198
 31
0.0
  0
ARC
  5
62D
330
A
100
AcDbEntity
  8
INDUSA
  6
Continuous
100
AcDbCircle
 10
280.9362003152699
 20
136.8354215039198
 30
0.0
 40
0.0010000000000001
100
AcDbArc
 50
180.0000000000004
 51
270.0000000000008
  0
LINE
  5
62E
330
A
100
AcDbEntity
  8
INDUSA
  6
Continuous
100
AcDbLine
 10
280.9352003152698
 20
136.8354215039198
 30
0.0
 11
280.9352003152698
 21
136.8414215039198
 31
0.0
  0
ARC
  5
62F
330
A
100
AcDbEntity
  8
INDUSA
  6
Continuous
100
AcDbCircle
 10
280.9362003152699
 20
136.8414215039198
 30
0.0
 40
0.0010000000000001
100
AcDbArc
 50
90.0
 51
180.0000000000004
  0
LINE
  5
630
330
A
100
AcDbEntity
  8
INDUSA
  6
Continuous
100
AcDbLine
 10
280.9362003152699
 20
136.8424215039198
 30
0.0
 11
280.9372003152698
 21
136.8424215039198
 31
0.0
  0
ARC
  5
631
330
A
100
AcDbEntity
  8
INDUSA
  6
Continuous
100
AcDbCircle
 10
280.9372003152698
 20
136.8434215039198
 30
0.0
 40
0.0009999999999999
100
AcDbArc
 50
270.0000000000008
 51
0.0
  0
LINE
  5
632
330
A
100
AcDbEntity
  8
INDUSA
  6
Continuous
100
AcDbLine
 10
280.9382003152698
 20
136.8434215039198
 30
0.0
 11
280.9382003152698
 21
136.8564215039198
 31
0.0
  0
ARC
  5
633
330
A
100
AcDbEntity
  8
INDUSA
  6
Continuous
100
AcDbCircle
 10
280.9372003152698
 20
136.8564215039198
 30
0.0
 40
0.0010000000000001
100
AcDbArc
 50
0.0
 51
90.0
  0
LINE
  5
634
330
A
100
AcDbEntity
  8
INDUSA
  6
Continuous
100
AcDbLine
 10
280.9372003152698
 20
136.8574215039198
 30
0.0
 11
280.9362003152699
 21
136.8574215039198
 31
0.0
  0
ARC
  5
635
330
A
100
AcDbEntity
  8
INDUSA
  6
Continuous
100
AcDbCircle
 10
280.9362003152699
 20
136.8584215039198
 30
0.0
 40
0.0009999999999999
100
AcDbArc
 50
180.0000000000004
 51
270.0000000000008
  0
LINE
  5
636
330
A
100
AcDbEntity
  8
INDUSA
  6
Continuous
100
AcDbLine
 10
280.9352003152698
 20
136.8615399808785
 30
0.0
 11
280.9352003152698
 21
136.8584215039198
 31
0.0
  0
ARC
  5
637
330
A
100
AcDbEntity
  8
INDUSA
  6
Continuous
100
AcDbCircle
 10
280.9402003152698
 20
136.8615399808785
 30
0.0
 40
0.0050000000000003
100
AcDbArc
 50
122.5510554452352
 51
180.0000000000004
  0
ARC
  5
638
330
A
100
AcDbEntity
  8
INDUSA
  6
Continuous
100
AcDbCircle
 10
281.1621239415926
 20
137.0094215039198
 30
0.0
 40
0.005
100
AcDbArc
 50
90.0
 51
172.9999999999927
  0
LINE
  5
639
330
A
100
AcDbEntity
  8
INDUSA
  6
Continuous
100
AcDbLine
 10
281.1665475679154
 20
137.0044215039198
 30
0.0
 11
281.1578092827089
 21
136.9332538820116
 31
0.0
  0
LINE
  5
63A
330
A
100
AcDbEntity
  8
INDUSA
  6
Continuous
100
AcDbLine
 10
281.1578092827089
 20
136.9332538820116
 30
0.0
 11
281.1827003152698
 21
136.9875035683624
 31
0.0
  0
LINE
  5
63B
330
A
100
AcDbEntity
  8
INDUSA
  6
Continuous
100
AcDbLine
 10
281.1827003152698
 20
136.9875035683624
 30
0.0
 11
281.1827003152698
 21
137.0044215039198
 31
0.0
  0
LINE
  5
63C
330
A
100
AcDbEntity
  8
INDUSA
  6
Continuous
100
AcDbLine
 10
281.1827003152698
 20
137.0044215039198
 30
0.0
 11
281.1665475679154
 21
137.0044215039198
 31
0.0
  0
ARC
  5
63D
330
A
100
AcDbEntity
  8
INDUSA
  6
Continuous
100
AcDbCircle
 10
280.8852003152698
 20
136.8615399808785
 30
0.0
 40
0.0050000000000003
100
AcDbArc
 50
0.0
 51
57.44894455476861
  0
LINE
  5
63E
330
A
100
AcDbEntity
  8
INDUSA
  6
Continuous
100
AcDbLine
 10
280.8902003152699
 20
136.8584215039198
 30
0.0
 11
280.8902003152699
 21
136.8615399808785
 31
0.0
  0
ARC
  5
63F
330
A
100
AcDbEntity
  8
INDUSA
  6
Continuous
100
AcDbCircle
 10
280.8892003152698
 20
136.8584215039198
 30
0.0
 40
0.0010000000000001
100
AcDbArc
 50
270.0000000000008
 51
0.0
  0
LINE
  5
640
330
A
100
AcDbEntity
  8
INDUSA
  6
Continuous
100
AcDbLine
 10
280.8892003152698
 20
136.8574215039198
 30
0.0
 11
280.8882003152699
 21
136.8574215039198
 31
0.0
  0
ARC
  5
641
330
A
100
AcDbEntity
  8
INDUSA
  6
Continuous
100
AcDbCircle
 10
280.8882003152699
 20
136.8564215039198
 30
0.0
 40
0.0010000000000001
100
AcDbArc
 50
90.0
 51
180.0000000000004
  0
LINE
  5
642
330
A
100
AcDbEntity
  8
INDUSA
  6
Continuous
100
AcDbLine
 10
280.8872003152698
 20
136.8564215039198
 30
0.0
 11
280.8872003152698
 21
136.8554215039198
 31
0.0
  0
ARC
  5
643
330
A
100
AcDbEntity
  8
INDUSA
  6
Continuous
100
AcDbCircle
 10
280.8862003152698
 20
136.8554215039198
 30
0.0
 40
0.0010000000000001
100
AcDbArc
 50
270.0000000000008
 51
0.0
  0
LINE
  5
644
330
A
100
AcDbEntity
  8
INDUSA
  6
Continuous
100
AcDbLine
 10
280.8862003152698
 20
136.8544215039198
 30
0.0
 11
280.8767003152699
 21
136.8544215039198
 31
0.0
  0
LINE
  5
645
330
A
100
AcDbEntity
  8
INDUSA
  6
Continuous
100
AcDbLine
 10
280.8767003152699
 20
136.8544215039198
 30
0.0
 11
280.8767003152699
 21
136.8644215039198
 31
0.0
  0
LINE
  5
646
330
A
100
AcDbEntity
  8
INDUSA
  6
Continuous
100
AcDbLine
 10
280.8581709035051
 20
136.8644215039198
 30
0.0
 11
280.8767003152699
 21
136.8644215039198
 31
0.0
  0
LINE
  5
647
330
A
100
AcDbEntity
  8
INDUSA
  6
Continuous
100
AcDbLine
 10
280.8416114762766
 20
136.9005125632641
 30
0.0
 11
280.8581709035051
 21
136.8644215039198
 31
0.0
  0
ARC
  5
648
330
A
100
AcDbEntity
  8
INDUSA
  6
Continuous
100
AcDbCircle
 10
280.8756338376754
 20
136.8706019151481
 30
0.0
 40
0.0050000000000002
100
AcDbArc
 50
35.6539648747228
 51
80.60942589818493
  0
LINE
  5
649
330
A
100
AcDbEntity
  8
INDUSA
  6
Continuous
100
AcDbLine
 10
280.6785581796461
 20
136.9994215039198
 30
0.0
 11
280.6677003152698
 21
136.9885636395435
 31
0.0
  0
LINE
  5
64B
330
A
100
AcDbEntity
  8
INDUSA
  6
Continuous
100
AcDbLine
 10
280.6677003152698
 20
136.9994215039198
 30
0.0
 11
280.6785581796461
 21
136.9994215039198
 31
0.0
  0
LWPOLYLINE
  5
64C
330
A
100
AcDbEntity
  8
INDUSA
  6
Continuous
100
AcDbPolyline
 90
        8
 70
   128
 43
0.0
 10
280.8161911947544
 20
136.7892819678128
 10
280.8155811280061
 20
136.7864471675317
 10
280.815874433575
 20
136.7834190619816
 10
280.8166338784565
 20
136.7818059009396
 10
280.8176453968536
 20
136.7807986319345
 10
280.8186834064957
 20
136.7803384970901
 10
280.8189452749981
 20
136.780285172099
 10
280.819681514917
 20
136.7802464906909
  0
LINE
  5
656
330
A
100
AcDbEntity
  8
INDUSA
  6
Continuous
100
AcDbLine
 10
280.8161911947544
 20
136.7892819678128
 30
0.0
 11
280.8241438121878
 21
136.8111316046364
 31
0.0
  0
ARC
  5
657
330
A
100
AcDbEntity
  8
INDUSA
  6
Continuous
100
AcDbCircle
 10
280.8288422752917
 20
136.8094215039198
 30
0.0
 40
0.005
100
AcDbArc
 50
159.9999999999947
 51
270.0000000000008
  0
LINE
  5
65A
330
A
100
AcDbEntity
  8
INDUSA
  6
Continuous
100
AcDbLine
 10
280.8196815149171
 20
136.7802464906909
 30
0.0
 11
280.8206434096419
 21
136.7802464906909
 31
0.0
  0
LINE
  5
65B
330
A
100
AcDbEntity
  8
INDUSA
  6
Continuous
100
AcDbLine
 10
280.8288422752917
 20
136.8044215039198
 30
0.0
 11
280.8295147498995
 21
136.8044215039198
 31
0.0
  0
LWPOLYLINE
  5
65C
330
A
100
AcDbEntity
  8
INDUSA
  6
Continuous
100
AcDbPolyline
 90
        6
 70
   128
 43
0.0
 10
280.8206434096419
 20
136.7802464906909
 10
280.8209618256147
 20
136.7803987483803
 10
280.8210070260885
 20
136.780431795457
 10
280.8213549290228
 20
136.7807723782126
 10
280.8217992516507
 20
136.7814447825317
 10
280.8220921461544
 20
136.7821042633363
  0
ARC
  5
664
330
A
100
AcDbEntity
  8
INDUSA
  6
Continuous
100
AcDbCircle
 10
280.8295147498995
 20
136.8054215039198
 30
0.0
 40
0.0010000000000001
100
AcDbArc
 50
270.0000000000008
 51
339.9999999999821
  0
LINE
  5
665
330
A
100
AcDbEntity
  8
INDUSA
  6
Continuous
100
AcDbLine
 10
280.8304544425203
 20
136.8050794837765
 30
0.0
 11
280.8220921461544
 21
136.7821042633363
 31
0.0
  0
LWPOLYLINE
  5
666
330
A
100
AcDbEntity
  8
INDUSA
  6
Continuous
100
AcDbPolyline
 90
        7
 70
   128
 43
0.0
 10
280.7177003152698
 20
136.6254215039198
 10
280.7177005820971
 20
136.6253984044984
 10
280.7177248563915
 20
136.6252013222297
 10
280.7178526985542
 20
136.6248908949267
 10
280.7180759525376
 20
136.624640369374
 10
280.7183694840115
 20
136.6244778139927
 10
280.7187003152698
 20
136.6244215039198
  0
LINE
  5
66F
330
A
100
AcDbEntity
  8
INDUSA
  6
Continuous
100
AcDbLine
 10
280.7177003152698
 20
136.6254215039198
 30
0.0
 11
280.7177003152698
 21
136.6284215039198
 31
0.0
  0
LWPOLYLINE
  5
67F
330
A
100
AcDbEntity
  8
INDUSA
  6
Continuous
100
AcDbPolyline
 90
        9
 70
   128
 43
0.0
 10
280.7883958195712
 20
136.6244215039198
 10
280.788452271988
 20
136.6244216092322
 10
280.7884905433581
 20
136.6244218576227
 10
280.7885165336634
 20
136.6244221802692
 10
280.7885399966431
 20
136.6244227016721
 10
280.7885513195929
 20
136.6244231471513
 10
280.788558029778
 20
136.6244236005795
 10
280.7885612115444
 20
136.6244240166177
 10
280.7885617893534
 20
136.6244241611524
  0
LINE
  5
68A
330
A
100
AcDbEntity
  8
INDUSA
  6
Continuous
100
AcDbLine
 10
280.7883958195713
 20
136.6244215039198
 30
0.0
 11
280.7187003152698
 21
136.6244215039198
 31
0.0
  0
ARC
  5
68C
330
A
100
AcDbEntity
  8
INDUSA
  6
Continuous
100
AcDbCircle
 10
280.7931894908056
 20
136.7056186748035
 30
0.0
 40
0.001
100
AcDbArc
 50
339.9999999999941
 51
90.00000000001628
  0
LINE
  5
68D
330
A
100
AcDbEntity
  8
INDUSA
  6
Continuous
100
AcDbLine
 10
280.7941291834264
 20
136.7052766546602
 30
0.0
 11
280.7647003152698
 21
136.6244215039198
 31
0.0
  0
ARC
  5
68F
330
A
100
AcDbEntity
  8
INDUSA
  6
Continuous
100
AcDbCircle
 10
280.7187003152698
 20
136.6588749472764
 30
0.0
 40
0.0010000000000002
100
AcDbArc
 50
122.6817931198571
 51
180.0000000000004
  0
LINE
  5
690
330
A
100
AcDbEntity
  8
INDUSA
  6
Continuous
100
AcDbLine
 10
280.7181603423835
 20
136.6597166296881
 30
0.0
 11
280.7900349897559
 21
136.7058270868616
 31
0.0
  0
ARC
  5
691
330
A
100
AcDbEntity
  8
INDUSA
  6
Continuous
100
AcDbCircle
 10
280.7927348541875
 20
136.7016186748035
 30
0.0
 40
0.005
100
AcDbArc
 50
90.00000000000325
 51
122.681793119854
  0
LINE
  5
692
330
A
100
AcDbEntity
  8
INDUSA
  6
Continuous
100
AcDbLine
 10
280.7927348541875
 20
136.7066186748035
 30
0.0
 11
280.7931894908056
 21
136.7066186748035
 31
0.0
  0
LINE
  5
693
330
A
100
AcDbEntity
  8
INDUSA
  6
Continuous
100
AcDbLine
 10
280.7177003152698
 20
136.6588749472764
 30
0.0
 11
280.7177003152698
 21
136.6284215039198
 31
0.0
  0
LINE
  5
694
330
A
100
AcDbEntity
  8
INDUSA
  6
Continuous
100
AcDbLine
 10
280.7761125094689
 20
136.6850142937898
 30
0.0
 11
280.7576982398877
 21
136.6344215039198
 31
0.0
  0
LINE
  5
695
330
A
100
AcDbEntity
  8
INDUSA
  6
Continuous
100
AcDbLine
 10
280.7277003152698
 20
136.6539559374861
 30
0.0
 11
280.7761125094689
 21
136.6850142937898
 31
0.0
  0
LINE
  5
696
330
A
100
AcDbEntity
  8
INDUSA
  6
Continuous
100
AcDbLine
 10
280.7277003152698
 20
136.6539559374861
 30
0.0
 11
280.7277003152698
 21
136.6344215039198
 31
0.0
  0
LINE
  5
697
330
A
100
AcDbEntity
  8
INDUSA
  6
Continuous
100
AcDbLine
 10
280.7277003152698
 20
136.6344215039198
 30
0.0
 11
280.7576982398877
 21
136.6344215039198
 31
0.0
  0
LINE
  5
699
330
A
100
AcDbEntity
  8
INDUSA
  6
Continuous
100
AcDbLine
 10
280.6727003152698
 20
136.9794215039198
 30
0.0
 11
280.6607003152698
 21
136.9794215039198
 31
0.0
  0
ARC
  5
69A
330
A
100
AcDbEntity
  8
INDUSA
  6
Continuous
100
AcDbCircle
 10
280.6607003152698
 20
136.9824215039198
 30
0.0
 40
0.003
100
AcDbArc
 50
180.0000000000004
 51
270.0000000000008
  0
LINE
  5
69B
330
A
100
AcDbEntity
  8
INDUSA
  6
Continuous
100
AcDbLine
 10
280.6577003152698
 20
137.0044215039198
 30
0.0
 11
280.6577003152698
 21
136.9824215039198
 31
0.0
  0
ARC
  5
69C
330
A
100
AcDbEntity
  8
INDUSA
  6
Continuous
100
AcDbCircle
 10
280.6627003152698
 20
137.0044215039198
 30
0.0
 40
0.005
100
AcDbArc
 50
90.0
 51
180.0000000000004
  0
LINE
  5
69D
330
A
100
AcDbEntity
  8
INDUSA
  6
Continuous
100
AcDbLine
 10
280.6677003152698
 20
136.9994215039198
 30
0.0
 11
280.6677003152698
 21
136.9885636395435
 31
0.0
  0
LINE
  5
69E
330
A
100
AcDbEntity
  8
INDUSA
  6
Continuous
100
AcDbLine
 10
280.819920999034
 20
136.8849613057928
 30
0.0
 11
280.8044897252111
 21
136.9996881121002
 31
0.0
  0
ARC
  5
69F
330
A
100
AcDbEntity
  8
INDUSA
  6
Continuous
100
AcDbCircle
 10
280.8025075748439
 20
136.9994215039198
 30
0.0
 40
0.0020000000000001
100
AcDbArc
 50
7.660565061410626
 51
90.0
  0
ARC
  5
6A0
330
A
100
AcDbEntity
  8
INDUSA
  6
Continuous
100
AcDbCircle
 10
280.799040061232
 20
137.0144215039198
 30
0.0
 40
0.005
100
AcDbArc
 50
270.0000000000008
 51
329.9999999999986
  0
ARC
  5
6A1
330
A
100
AcDbEntity
  8
INDUSA
  6
Continuous
100
AcDbCircle
 10
280.8077003152698
 20
137.0094215039198
 30
0.0
 40
0.005
100
AcDbArc
 50
90.0
 51
149.9999999999978
  0
LINE
  5
6A2
330
A
100
AcDbEntity
  8
INDUSA
  6
Continuous
100
AcDbLine
 10
280.833276688947
 20
137.0144215039198
 30
0.0
 11
280.8077003152698
 21
137.0144215039198
 31
0.0
  0
ARC
  5
6A3
330
A
100
AcDbEntity
  8
INDUSA
  6
Continuous
100
AcDbCircle
 10
280.833276688947
 20
137.0094215039198
 30
0.0
 40
0.005
100
AcDbArc
 50
7.000000000034004
 51
90.0
  0
LINE
  5
6A4
330
A
100
AcDbEntity
  8
INDUSA
  6
Continuous
100
AcDbLine
 10
280.8288530626242
 20
137.0044215039198
 30
0.0
 11
280.8127003152698
 21
137.0044215039198
 31
0.0
  0
LINE
  5
6A5
330
A
100
AcDbEntity
  8
INDUSA
  6
Continuous
100
AcDbLine
 10
280.8127003152698
 20
137.0044215039198
 30
0.0
 11
280.8127003152698
 21
137.0014215039198
 31
0.0
  0
LINE
  5
6A6
330
A
100
AcDbEntity
  8
INDUSA
  6
Continuous
100
AcDbLine
 10
280.8127003152698
 20
137.0014215039198
 30
0.0
 11
280.8102340734783
 21
137.0014215039198
 31
0.0
  0
LINE
  5
6A7
330
A
100
AcDbEntity
  8
INDUSA
  6
Continuous
100
AcDbLine
 10
280.8102340734783
 20
137.0014215039198
 30
0.0
 11
280.8248374590584
 21
136.8864374916029
 31
0.0
  0
LINE
  5
6A8
330
A
100
AcDbEntity
  8
INDUSA
  6
Continuous
100
AcDbLine
 10
280.8476914346968
 20
136.8525070126225
 30
0.0
 11
280.8248374590584
 21
136.8864374916029
 31
0.0
  0
LINE
  5
6A9
330
A
100
AcDbEntity
  8
INDUSA
  6
Continuous
100
AcDbLine
 10
280.8476914346968
 20
136.8525070126225
 30
0.0
 11
280.8477137015223
 21
136.8524989081608
 31
0.0
  0
LINE
  5
6AA
330
A
100
AcDbEntity
  8
INDUSA
  6
Continuous
100
AcDbLine
 10
280.8477137015223
 20
136.8524989081608
 30
0.0
 11
280.8477078051467
 21
136.852482708002
 31
0.0
  0
LINE
  5
6AB
330
A
100
AcDbEntity
  8
INDUSA
  6
Continuous
100
AcDbLine
 10
280.8496302079922
 20
136.8496285853594
 30
0.0
 11
280.8477078051467
 21
136.852482708002
 31
0.0
  0
LINE
  5
6AC
330
A
100
AcDbEntity
  8
INDUSA
  6
Continuous
100
AcDbLine
 10
280.8496302079922
 20
136.8496285853594
 30
0.0
 11
280.8777026050985
 21
136.8445794336127
 31
0.0
  0
ARC
  5
6AD
330
A
100
AcDbEntity
  8
INDUSA
  6
Continuous
100
AcDbCircle
 10
280.8794728175351
 20
136.8544215039198
 30
0.0
 40
0.01
100
AcDbArc
 50
259.8036964905116
 51
270.0000000000008
  0
LINE
  5
6AE
330
A
100
AcDbEntity
  8
INDUSA
  6
Continuous
100
AcDbLine
 10
280.8794728175351
 20
136.8444215039198
 30
0.0
 11
280.8872003152698
 21
136.8444215039198
 31
0.0
  0
LINE
  5
6AF
330
A
100
AcDbEntity
  8
INDUSA
  6
Continuous
100
AcDbLine
 10
280.8872003152698
 20
136.8444215039198
 30
0.0
 11
280.8872003152698
 21
136.8437073430024
 31
0.0
  0
ARC
  5
6B0
330
A
100
AcDbEntity
  8
INDUSA
  6
Continuous
100
AcDbCircle
 10
280.8882003152699
 20
136.8437073430024
 30
0.0
 40
0.001
100
AcDbArc
 50
180.0000000000004
 51
259.8036964905261
  0
LINE
  5
6B1
330
A
100
AcDbEntity
  8
INDUSA
  6
Continuous
100
AcDbLine
 10
280.8880232940262
 20
136.8427231359717
 30
0.0
 11
280.8897003152698
 21
136.8424215039198
 31
0.0
  0
ARC
  5
6B2
330
A
100
AcDbEntity
  8
INDUSA
  6
Continuous
100
AcDbCircle
 10
280.8892003152698
 20
136.841555478516
 30
0.0
 40
0.001
100
AcDbArc
 50
0.0
 51
60.00000000001037
  0
LINE
  5
6B3
330
A
100
AcDbEntity
  8
INDUSA
  6
Continuous
100
AcDbLine
 10
280.8902003152699
 20
136.841555478516
 30
0.0
 11
280.8902003152699
 21
136.8354215039198
 31
0.0
  0
ARC
  5
6B4
330
A
100
AcDbEntity
  8
INDUSA
  6
Continuous
100
AcDbCircle
 10
280.8892003152698
 20
136.8354215039198
 30
0.0
 40
0.0010000000000001
100
AcDbArc
 50
270.0000000000008
 51
0.0
  0
LINE
  5
6B5
330
A
100
AcDbEntity
  8
INDUSA
  6
Continuous
100
AcDbLine
 10
280.8892003152698
 20
136.8344215039198
 30
0.0
 11
280.8777003152698
 21
136.8344215039198
 31
0.0
  0
ARC
  5
6B6
330
A
100
AcDbEntity
  8
INDUSA
  6
Continuous
100
AcDbCircle
 10
280.8777003152698
 20
136.8354215039198
 30
0.0
 40
0.0010000000000001
100
AcDbArc
 50
180.0000000000004
 51
270.0000000000008
  0
LINE
  5
6B7
330
A
100
AcDbEntity
  8
INDUSA
  6
Continuous
100
AcDbLine
 10
280.8767003152699
 20
136.8354215039198
 30
0.0
 11
280.8767003152699
 21
136.8380083174077
 31
0.0
  0
ARC
  5
6B8
330
A
100
AcDbEntity
  8
INDUSA
  6
Continuous
100
AcDbCircle
 10
280.8757003152699
 20
136.8380083174077
 30
0.0
 40
0.0010000000000001
100
AcDbArc
 50
0.0
 51
79.46353470055168
  0
LINE
  5
6B9
330
A
100
AcDbEntity
  8
INDUSA
  6
Continuous
100
AcDbLine
 10
280.8758831765406
 20
136.8389914561343
 30
0.0
 11
280.8503255334554
 21
136.8437451119187
 31
0.0
  0
ARC
  5
6BA
330
A
100
AcDbEntity
  8
INDUSA
  6
Continuous
100
AcDbCircle
 10
280.8521541461638
 20
136.8535764991841
 30
0.0
 40
0.0099999999999999
100
AcDbArc
 50
241.3532958997297
 51
259.4635347005517
  0
ARC
  5
6BB
330
A
100
AcDbEntity
  8
INDUSA
  6
Continuous
100
AcDbCircle
 10
280.846401257626
 20
136.8430453893911
 30
0.0
 40
0.0020000000000002
100
AcDbArc
 50
61.35329589973842
 51
159.9999999999998
  0
LWPOLYLINE
  5
6BC
330
A
100
AcDbEntity
  8
INDUSA
  6
Continuous
100
AcDbPolyline
 90
        7
 70
   128
 43
0.0
 10
280.8395439823402
 20
136.8546763806502
 10
280.8396267950751
 20
136.8545324243754
 10
280.8396859308159
 20
136.854372089598
 10
280.8397164249653
 20
136.8542088368339
 10
280.8397191554452
 20
136.8540379660606
 10
280.8397000312578
 20
136.8539010297243
 10
280.8396612672339
 20
136.8537654619831
  0
LINE
  5
6C5
330
A
100
AcDbEntity
  8
INDUSA
  6
Continuous
100
AcDbLine
 10
280.8216076735988
 20
136.8806053614568
 30
0.0
 11
280.8395439823402
 21
136.8546763806502
 31
0.0
  0
ARC
  5
6C6
330
A
100
AcDbEntity
  8
INDUSA
  6
Continuous
100
AcDbCircle
 10
280.8298317508699
 20
136.8862943466948
 30
0.0
 40
0.0100000000000001
100
AcDbArc
 50
187.6605650614142
 51
214.6734521340625
  0
LINE
  5
6C7
330
A
100
AcDbEntity
  8
INDUSA
  6
Continuous
100
AcDbLine
 10
280.8445218723844
 20
136.8437294296778
 30
0.0
 11
280.8304544425203
 21
136.8050794837765
 31
0.0
  0
LINE
  5
6C8
330
A
100
AcDbEntity
  8
INDUSA
  6
Continuous
100
AcDbLine
 10
280.8241438121878
 20
136.8111316046364
 30
0.0
 11
280.8396612672339
 21
136.8537654619831
 31
0.0
  0
LWPOLYLINE
  5
6D1
330
A
100
AcDbEntity
  8
INDUSA
  6
Continuous
100
AcDbPolyline
 90
        9
 70
   128
 43
0.0
 10
280.6607003152698
 20
136.9616927416498
 10
280.6601150443038
 20
136.961744914282
 10
280.6595522649727
 20
136.9618994272134
 10
280.6590336045708
 20
136.9621503425989
 10
280.6585789949263
 20
136.9624880179007
 10
280.6582059064329
 20
136.9628994764466
 10
280.6579286766723
 20
136.9633689061153
 10
280.6577579594286
 20
136.9638782669878
 10
280.6577003152698
 20
136.9644079846116
  0
LINE
  5
6DD
330
A
100
AcDbEntity
  8
INDUSA
  6
Continuous
100
AcDbLine
 10
280.6577003152698
 20
136.9644079846116
 30
0.0
 11
280.6577003152698
 21
136.9824215039198
 31
0.0
  0
LWPOLYLINE
  5
6DE
330
A
100
AcDbEntity
  8
INDUSA
  6
Continuous
100
AcDbPolyline
 90
        3
 70
   128
 43
0.0
 10
280.6730323524127
 20
136.9616927416498
 10
280.6727914854588
 20
136.961864585384
 10
280.6727003152698
 20
136.9620802910993
  0
LINE
  5
6E3
330
A
100
AcDbEntity
  8
INDUSA
  6
Continuous
100
AcDbLine
 10
280.6607003152698
 20
136.9616927416498
 30
0.0
 11
280.6730323524127
 21
136.9616927416498
 31
0.0
  0
LINE
  5
6E4
330
A
100
AcDbEntity
  8
INDUSA
  6
Continuous
100
AcDbLine
 10
280.6727003152698
 20
136.9620802910993
 30
0.0
 11
280.6727003152698
 21
136.9794215039198
 31
0.0
  0
LINE
  5
6E5
330
A
100
AcDbEntity
  8
INDUSA
  6
Continuous
100
AcDbLine
 10
280.7027003152699
 20
136.9983312444399
 30
0.0
 11
280.7027003152699
 21
136.9947042116347
 31
0.0
  0
LINE
  5
715
330
A
100
AcDbEntity
  8
INDUSA
  6
Continuous
100
AcDbLine
 10
280.9362003152699
 20
136.8344215039198
 30
0.0
 11
280.8892003152698
 21
136.8344215039198
 31
0.0
  0
LINE
  5
724
330
A
100
AcDbEntity
  8
INDUSA
  6
Continuous
100
AcDbLine
 10
280.8897003152698
 20
136.8424215039198
 30
0.0
 11
280.9362003152699
 21
136.8424215039198
 31
0.0
  0
LINE
  5
725
330
A
100
AcDbEntity
  8
INDUSA
  6
Continuous
100
AcDbLine
 10
280.833276688947
 20
137.0144215039198
 30
0.0
 11
281.1621239415926
 21
137.0144215039198
 31
0.0
  0
LINE
  5
732
330
A
100
AcDbEntity
  8
INDUSA
  6
Continuous
100
AcDbLine
 10
281.1509583700453
 20
136.6244215039198
 30
0.0
 11
280.9510417556447
 21
136.6244215039198
 31
0.0
  0
LINE
  5
739
330
A
100
AcDbEntity
  8
INDUSA
  6
Continuous
100
AcDbLine
 10
281.1026753850143
 20
136.7938172949297
 30
0.0
 11
280.9825245848403
 21
136.7938172949297
 31
0.0
  0
LINE
  5
741
330
A
100
AcDbEntity
  8
INDUSA
  6
Continuous
100
AcDbLine
 10
280.8885911883674
 20
136.8545046547334
 30
0.0
 11
280.8881595328862
 21
136.8544215039198
 31
0.0
  0
LINE
  5
742
330
A
100
AcDbEntity
  8
INDUSA
  6
Continuous
100
AcDbLine
 10
280.8881595328862
 20
136.8544215039198
 30
0.0
 11
280.8862003152698
 21
136.8544215039198
 31
0.0
  0
LINE
  5
743
330
A
100
AcDbEntity
  8
INDUSA
  6
Continuous
100
AcDbLine
 10
280.8781170823382
 20
136.8544215039198
 30
0.0
 11
280.8781170823382
 21
136.8445138310308
 31
0.0
  0
LINE
  5
746
330
A
100
AcDbEntity
  8
INDUSA
  6
Continuous
100
AcDbLine
 10
280.9362003152699
 20
136.8574215039198
 30
0.0
 11
280.8892003152698
 21
136.8574215039198
 31
0.0
  0
LINE
  5
74E
330
A
100
AcDbEntity
  8
INDUSA
  6
Continuous
100
AcDbLine
 10
280.9896641956352
 20
136.8144317581118
 30
0.0
 11
281.1042932554285
 21
136.8144317581118
 31
0.0
  0
LINE
  5
767
330
A
100
AcDbEntity
  8
INDUSA
  6
Continuous
100
AcDbLine
 10
280.8885911883674
 20
136.8444215039198
 30
0.0
 11
280.8885911883674
 21
136.8545046547334
 31
0.0
  0
LWPOLYLINE
  5
76A
330
A
100
AcDbEntity
  8
INDUSA
  6
Continuous
100
AcDbPolyline
 90
        7
 70
   128
 43
0.0
 10
280.7684360743031
 20
136.7411596051151
 10
280.7721411225914
 20
136.7432951227535
 10
280.7760321533111
 20
136.7450692981508
 10
280.7800740264804
 20
136.7464661086911
 10
280.7842302398561
 20
136.7474729397483
 10
280.7884632585861
 20
136.7480806986097
 10
280.7927348541875
 20
136.748283896592
  0
LINE
  5
799
330
A
100
AcDbEntity
  8
INDUSA
  6
Continuous
100
AcDbLine
 10
280.7927348541875
 20
136.748283896592
 30
0.0
 11
280.8087335138541
 21
136.748283896592
 31
0.0
  0
LINE
  5
7AF
330
A
100
AcDbEntity
  8
INDUSA
  6
Continuous
100
AcDbLine
 10
280.7187003152698
 20
136.7092521291032
 30
0.0
 11
280.7684360743031
 21
136.7411596051151
 31
0.0
  0
LWPOLYLINE
  5
7B0
330
A
100
AcDbEntity
  8
INDUSA
  6
Continuous
100
AcDbPolyline
 90
        9
 70
   128
 43
0.0
 10
280.7187003152698
 20
136.7092521291032
 10
280.7185052249478
 20
136.7092529290225
 10
280.7183176318375
 20
136.7092552980397
 10
280.7181447450368
 20
136.7092591451151
 10
280.7179932084886
 20
136.7092643224075
 10
280.7178688456575
 20
136.7092706309565
 10
280.7177764357373
 20
136.7092778283282
 10
280.7177195299894
 20
136.7092856379315
 10
280.7177003152698
 20
136.7092937596479
  0
LINE
  5
7BB
330
A
100
AcDbEntity
  8
INDUSA
  6
Continuous
100
AcDbLine
 10
280.7177003152698
 20
136.6588749472764
 30
0.0
 11
280.7177003152698
 21
136.7092937596479
 31
0.0
  0
LWPOLYLINE
  5
7CD
330
A
100
AcDbEntity
  8
INDUSA
  6
Continuous
100
AcDbPolyline
 90
       11
 70
   128
 43
0.0
 10
280.8087335138541
 20
136.748283896592
 10
280.8087536202536
 20
136.7482550126122
 10
280.8115519211241
 20
136.7441984501023
 10
280.8142777808356
 20
136.7400952362061
 10
280.817829457327
 20
136.734239020595
 10
280.8209207361568
 20
136.7281228413977
 10
280.8232996244147
 20
136.7217288509816
 10
280.8246099990277
 20
136.7158784540928
 10
280.8250577660522
 20
136.7099050080821
 10
280.8245267436941
 20
136.7039051283371
 10
280.8229827095757
 20
136.6980858505636
  0
LINE
  5
7DA
330
A
100
AcDbEntity
  8
INDUSA
  6
Continuous
100
AcDbLine
 10
280.8229827095757
 20
136.6980858505636
 30
0.0
 11
280.7965198980259
 21
136.6253798733751
 31
0.0
  0
ARC
  5
803
330
A
100
AcDbEntity
  8
INDUSA
  6
Continuous
100
AcDbCircle
 10
280.9793945694466
 20
136.8624215039198
 30
0.0
 40
0.002
100
AcDbArc
 50
90.0
 51
170.5376777919382
  0
LINE
  5
810
330
A
100
AcDbEntity
  8
INDUSA
  6
Continuous
100
AcDbLine
 10
280.8145427096744
 20
136.790683662169
 30
0.0
 11
280.7187003152698
 21
136.790683662169
 31
0.0
  0
LINE
  5
826
330
A
100
AcDbEntity
  8
INDUSA
  6
Continuous
100
AcDbLine
 10
280.9774217815989
 20
136.8627503018944
 30
0.0
 11
280.9378395821052
 21
136.6252571049325
 31
0.0
  0
LWPOLYLINE
  5
83F
330
A
100
AcDbEntity
  8
INDUSA
  6
Continuous
100
AcDbPolyline
 90
        9
 70
   128
 43
0.0
 10
280.8246077914197
 20
136.8181541106658
 10
280.8249705578709
 20
136.8180242814398
 10
280.8253196839949
 20
136.8179030892968
 10
280.8256420423526
 20
136.8177950911646
 10
280.8259255119954
 20
136.8177043478648
 10
280.8261594342238
 20
136.8176342714226
 10
280.8263350133629
 20
136.8175874967718
 10
280.8264456474878
 20
136.8175657826792
 10
280.8264871766612
 20
136.8175699456131
  0
LWPOLYLINE
  5
84A
330
A
100
AcDbEntity
  8
INDUSA
  6
Continuous
100
AcDbPolyline
 90
        9
 70
   128
 43
0.0
 10
280.8145427096744
 20
136.790683662169
 10
280.8149126772568
 20
136.7905476094771
 10
280.8152681691112
 20
136.790413622363
 10
280.8155952759019
 20
136.790286943343
 10
280.815881198916
 20
136.7901725289892
 10
280.8161147508386
 20
136.7900748559939
 10
280.81628679348
 20
136.7899977460101
 10
280.8163905953246
 20
136.7899442161215
 10
280.8164220949159
 20
136.789916360793
  0
LWPOLYLINE
  5
858
330
A
100
AcDbEntity
  8
INDUSA
  6
Continuous
100
AcDbPolyline
 90
        9
 70
   128
 43
0.0
 10
280.7187003152698
 20
136.790683662169
 10
280.7185052249478
 20
136.7906844620883
 10
280.7183176318375
 20
136.7906868311056
 10
280.7181447450368
 20
136.7906906781809
 10
280.7179932084886
 20
136.7906958554732
 10
280.7178688456575
 20
136.7907021640223
 10
280.7177764357373
 20
136.790709361394
 10
280.7177195299894
 20
136.7907171709974
 10
280.7177003152698
 20
136.7907252927137
  0
LWPOLYLINE
  5
863
330
A
100
AcDbEntity
  8
INDUSA
  6
Continuous
100
AcDbPolyline
 90
        9
 70
   128
 43
0.0
 10
280.7177003152698
 20
136.8181041730489
 10
280.7177195299894
 20
136.8181139153947
 10
280.7177764357373
 20
136.8181232833475
 10
280.7178688456575
 20
136.8181319169024
 10
280.7179932084886
 20
136.8181394842765
 10
280.7181447450368
 20
136.8181456946599
 10
280.7183176318375
 20
136.8181503093911
 10
280.7185052249478
 20
136.8181531511285
 10
280.7187003152698
 20
136.8181541106658
  0
LINE
  5
86E
330
A
100
AcDbEntity
  8
INDUSA
  6
Continuous
100
AcDbLine
 10
280.7177003152698
 20
136.8181041730489
 30
0.0
 11
280.7177003152698
 21
136.7907252927137
 31
0.0
  0
LINE
  5
86F
330
A
100
AcDbEntity
  8
INDUSA
  6
Continuous
100
AcDbLine
 10
280.7187003152698
 20
136.8181541106658
 30
0.0
 11
280.8246077914197
 21
136.8181541106658
 31
0.0
  0
LINE
  5
870
330
A
100
AcDbEntity
  8
INDUSA
  6
Continuous
100
AcDbLine
 10
280.7177003152698
 20
136.7092937596479
 30
0.0
 11
280.7177003152698
 21
136.7907252927137
 31
0.0
  0
LINE
  5
87E
330
A
100
AcDbEntity
  8
INDUSA
  6
Continuous
100
AcDbLine
 10
280.7177003152698
 20
136.8181041730489
 30
0.0
 11
280.7177003152698
 21
136.9535392283305
 31
0.0
  0
LINE
  5
88D
330
A
100
AcDbEntity
  8
INDUSA
  6
Continuous
100
AcDbLine
 10
280.7027003152699
 20
136.9947042116347
 30
0.0
 11
280.7027003152699
 21
136.9918680335065
 31
0.0
  0
LINE
  5
88E
330
A
100
AcDbEntity
  8
INDUSA
  6
Continuous
100
AcDbLine
 10
280.7965198980259
 20
136.6244215039198
 30
0.0
 11
280.7965198980259
 21
136.6253798733751
 31
0.0
  0
LINE
  5
88F
330
A
100
AcDbEntity
  8
INDUSA
  6
Continuous
100
AcDbLine
 10
280.7965198980259
 20
136.6244215039198
 30
0.0
 11
280.7883958195713
 21
136.6244215039198
 31
0.0
  0
LINE
  5
893
330
A
100
AcDbEntity
  8
INDUSA
  6
Continuous
100
AcDbLine
 10
280.6577003152698
 20
136.9607876606626
 30
0.0
 11
280.6577003152698
 21
136.9644079846116
 31
0.0
  0
LWPOLYLINE
  5
8A0
330
A
100
AcDbEntity
  8
INDUSA
  6
Continuous
100
AcDbPolyline
 90
        9
 70
   128
 43
0.0
 10
280.7167003152698
 20
136.9545389986329
 10
280.7168954055918
 20
136.9545197883268
 10
280.7170829987022
 20
136.95446289565
 10
280.7172558855029
 20
136.9543705069562
 10
280.717407422051
 20
136.9542461726909
 10
280.7175317848821
 20
136.9540946709504
 10
280.7176241948024
 20
136.9539218238614
 10
280.7176811005502
 20
136.9537342738408
 10
280.7177003152698
 20
136.9535392283305
  0
LINE
  5
8AC
330
A
100
AcDbEntity
  8
INDUSA
  6
Continuous
100
AcDbLine
 10
280.927791490203
 20
136.6244215039198
 30
0.0
 11
280.7965198980259
 21
136.6244215039198
 31
0.0
  0
ARC
  5
8AD
330
A
100
AcDbEntity
  8
INDUSA
  6
Continuous
100
AcDbCircle
 10
280.9368531881814
 20
136.6254215039198
 30
0.0
 40
0.0009999999999999
100
AcDbArc
 50
270.0000000000008
 51
350.5376777918644
  0
LINE
  5
8AE
330
A
100
AcDbEntity
  8
INDUSA
  6
Continuous
100
AcDbLine
 10
280.9368531881814
 20
136.6244215039198
 30
0.0
 11
280.927791490203
 21
136.6244215039198
 31
0.0
  0
LINE
  5
8BD
330
A
100
AcDbEntity
  8
INDUSA
  6
Continuous
100
AcDbLine
 10
280.6577003152698
 20
136.9577732989659
 30
0.0
 11
280.6577003152698
 21
136.9607876606626
 31
0.0
  0
LWPOLYLINE
  5
8BE
330
A
100
AcDbEntity
  8
INDUSA
  6
Continuous
100
AcDbPolyline
 90
       10
 70
   128
 43
0.0
 10
280.6607003152698
 20
136.9545448852005
 10
280.6601793707368
 20
136.9545939320598
 10
280.6596742548398
 20
136.9547395823737
 10
280.6592003152698
 20
136.9549774106311
 10
280.6587719524408
 20
136.9553001905408
 10
280.6584021819404
 20
136.9556981145985
 10
280.6581022390584
 20
136.9561590920832
 10
280.6578812374074
 20
136.9566691164271
 10
280.6577458920108
 20
136.9572126907987
 10
280.6577003152698
 20
136.9577732989658
  0
LINE
  5
8CC
330
A
100
AcDbEntity
  8
INDUSA
  6
Continuous
100
AcDbLine
 10
280.7167003152698
 20
136.9545387689351
 30
0.0
 11
280.7167003152698
 21
136.9545389986329
 31
0.0
  0
LWPOLYLINE
  5
8CD
330
A
100
AcDbEntity
  8
INDUSA
  6
Continuous
100
AcDbPolyline
 90
       12
 70
   128
 43
0.0
 10
280.9713067638188
 20
136.8260601952137
 10
280.9713099382359
 20
136.8248394424408
 10
280.9717151450138
 20
136.8235765550869
 10
280.9725141251572
 20
136.8222972735425
 10
280.9736905937133
 20
136.8210276723473
 10
280.9752205716949
 20
136.8197936287344
 10
280.9770728748235
 20
136.8186202951963
 10
280.9792097491335
 20
136.8175315868217
 10
280.9815876404798
 20
136.8165496938549
 10
280.984158082266
 20
136.8156946294097
 10
280.9868686832989
 20
136.8149838215587
 10
280.9896641956352
 20
136.8144317581118
  0
LWPOLYLINE
  5
8DB
330
A
100
AcDbEntity
  8
INDUSA
  6
Continuous
100
AcDbPolyline
 90
       11
 70
   128
 43
0.0
 10
280.965580524046
 20
136.791702756577
 10
280.9658829556275
 20
136.7923472276677
 10
280.9665590673043
 20
136.7929160516645
 10
280.9675958529675
 20
136.793398286312
 10
280.9689733683569
 20
136.7937846550415
 10
280.9706651147216
 20
136.7940677254217
 10
280.972638548566
 20
136.7942420521328
 10
280.9748557076776
 20
136.7943042817169
 10
280.9772739413912
 20
136.7942532170865
 10
280.9798467310446
 20
136.7940898405529
 10
280.9825245848403
 20
136.7938172949297
  0
LINE
  5
90E
330
A
100
AcDbEntity
  8
INDUSA
  6
Continuous
100
AcDbLine
 10
280.9510417556447
 20
136.6244215039198
 30
0.0
 11
280.9368531881814
 21
136.6244215039198
 31
0.0
  0
ARC
  5
96A
330
A
100
AcDbEntity
  8
INDUSA
  6
Continuous
100
AcDbCircle
 10
280.4505266977995
 20
137.0094215039198
 30
0.0
 40
0.005
100
AcDbArc
 50
0.0
 51
90.0
  0
ARC
  5
96B
330
A
100
AcDbEntity
  8
INDUSA
  6
Continuous
100
AcDbCircle
 10
280.0705266977995
 20
137.0094215039198
 30
0.0
 40
0.005
100
AcDbArc
 50
90.0
 51
150.0162377253462
  0
LINE
  5
96C
330
A
100
AcDbEntity
  8
INDUSA
  6
Continuous
100
AcDbLine
 10
280.4555266977995
 20
136.978893291203
 30
0.0
 11
280.4555266977995
 21
137.0094215039198
 31
0.0
  0
ARC
  5
96D
330
A
100
AcDbEntity
  8
INDUSA
  6
Continuous
100
AcDbCircle
 10
280.4505266977995
 20
136.978893291203
 30
0.0
 40
0.005
100
AcDbArc
 50
288.705637284394
 51
0.0
  0
ARC
  5
96E
330
A
100
AcDbEntity
  8
INDUSA
  6
Continuous
100
AcDbCircle
 10
280.4537337596421
 20
136.9694215039198
 30
0.0
 40
0.0050000000000001
100
AcDbArc
 50
108.7056372843875
 51
155.3532291480658
  0
LINE
  5
96F
330
A
100
AcDbEntity
  8
INDUSA
  6
Continuous
100
AcDbLine
 10
280.3740576778523
 20
136.8077582553171
 30
0.0
 11
280.4491892796726
 21
136.9715066182588
 31
0.0
  0
ARC
  5
970
330
A
100
AcDbEntity
  8
INDUSA
  6
Continuous
100
AcDbCircle
 10
280.4217075319129
 20
136.6254215039198
 30
0.0
 40
0.001
100
AcDbArc
 50
270.0000000000008
 51
15.67175906380498
  0
LINE
  5
971
330
A
100
AcDbEntity
  8
INDUSA
  6
Continuous
100
AcDbLine
 10
280.4226703569206
 20
136.6256916298248
 30
0.0
 11
280.3735183877143
 21
136.8008867675898
 31
0.0
  0
ARC
  5
972
330
A
100
AcDbEntity
  8
INDUSA
  6
Continuous
100
AcDbCircle
 10
279.9255266977994
 20
137.0044215039198
 30
0.0
 40
0.005
100
AcDbArc
 50
90.0
 51
180.0000000000004
  0
LINE
  5
973
330
A
100
AcDbEntity
  8
INDUSA
  6
Continuous
100
AcDbLine
 10
280.0095266977995
 20
137.0094215039198
 30
0.0
 11
279.9255266977994
 21
137.0094215039198
 31
0.0
  0
LINE
  5
974
330
A
100
AcDbEntity
  8
INDUSA
  6
Continuous
100
AcDbLine
 10
280.0618664437616
 20
137.0094215039198
 30
0.0
 11
280.0465266977995
 21
137.0094215039198
 31
0.0
  0
ARC
  5
975
330
A
100
AcDbEntity
  8
INDUSA
  6
Continuous
100
AcDbCircle
 10
280.3831466377914
 20
136.8035880266392
 30
0.0
 40
0.0100000000000001
100
AcDbArc
 50
155.3532291480689
 51
195.6717590638062
  0
LWPOLYLINE
  5
976
330
A
100
AcDbEntity
  8
INDUSA
  6
Continuous
100
AcDbPolyline
 90
        8
 70
   128
 43
0.0
 10
280.066166082912
 20
137.0119375103814
 10
280.0659709882015
 20
137.0115662079652
 10
280.0652450267932
 20
137.01073569644
 10
280.0644441011505
 20
137.0101371507024
 10
280.0636246463806
 20
137.0097408283623
 10
280.0628332536835
 20
137.009515866478
 10
280.0621080225341
 20
137.009427343346
 10
280.0618666356099
 20
137.0094308549971
  0
LWPOLYLINE
  5
981
330
A
100
AcDbEntity
  8
INDUSA
  6
Continuous
100
AcDbPolyline
 90
        9
 70
   128
 43
0.0
 10
280.0661966503944
 20
137.0119214925413
 10
280.0665800601683
 20
137.0118666955245
 10
280.0677357322062
 20
137.0117037729876
 10
280.0696713927065
 20
137.0114349902825
 10
280.0715112971635
 20
137.011183368128
 10
280.073750038817
 20
137.0108826484056
 10
280.0770034031449
 20
137.0104557580017
 10
280.0808553831196
 20
137.0099660003344
 10
280.0853007920466
 20
137.0094215039198
  0
LINE
  5
98D
330
A
100
AcDbEntity
  8
INDUSA
  6
Continuous
100
AcDbLine
 10
280.2605266977995
 20
137.0144215039198
 30
0.0
 11
280.4505266977995
 21
137.0144215039198
 31
0.0
  0
LINE
  5
98E
330
A
100
AcDbEntity
  8
INDUSA
  6
Continuous
100
AcDbLine
 10
280.0705266977995
 20
137.0144215039198
 30
0.0
 11
280.2605266977995
 21
137.0144215039198
 31
0.0
  0
LINE
  5
98F
330
A
100
AcDbEntity
  8
INDUSA
  6
Continuous
100
AcDbLine
 10
280.1117364327513
 20
136.978893291203
 30
0.0
 11
280.1112239408899
 21
136.9955085552829
 31
0.0
  0
LWPOLYLINE
  5
990
330
A
100
AcDbEntity
  8
INDUSA
  6
Continuous
100
AcDbPolyline
 90
        8
 70
   128
 43
0.0
 10
280.1046828207331
 20
137.0050120309376
 10
280.1053124333612
 20
137.0048391229464
 10
280.1067010332263
 20
137.0041804753348
 10
280.1080206363889
 20
137.003150464694
 10
280.1090020216277
 20
137.0020408950495
 10
280.1098634362755
 20
137.0006912666554
 10
280.1108124200827
 20
136.9982898653303
 10
280.1112239408899
 20
136.9955085552829
  0
LWPOLYLINE
  5
99A
330
A
100
AcDbEntity
  8
INDUSA
  6
Continuous
100
AcDbPolyline
 90
        5
 70
   128
 43
0.0
 10
280.1046828207331
 20
137.0050120309376
 10
280.0993117988205
 20
137.0061847226731
 10
280.094288202192
 20
137.0073158120963
 10
280.0896054149563
 20
137.0083998500972
 10
280.0853007920466
 20
137.0094215039198
  0
LWPOLYLINE
  5
9A2
330
A
100
AcDbEntity
  8
INDUSA
  6
Continuous
100
AcDbPolyline
 90
        6
 70
   128
 43
0.0
 10
280.1184488052405
 20
136.9741573975614
 10
280.1150990842891
 20
136.9751526882939
 10
280.1131414164532
 20
136.9763803499306
 10
280.112082284224
 20
136.9776867426368
 10
280.1117673857525
 20
136.978617942803
 10
280.1117364327512
 20
136.978893291203
  0
LINE
  5
9AA
330
A
100
AcDbEntity
  8
INDUSA
  6
Continuous
100
AcDbLine
 10
280.4521302287208
 20
136.9741573975614
 30
0.0
 11
280.1184488052405
 21
136.9741573975614
 31
0.0
  0
LINE
  5
9D0
330
A
100
AcDbEntity
  8
INDUSA
  6
Continuous
100
AcDbLine
 10
280.1995831496027
 20
136.8077582553171
 30
0.0
 11
280.3740576778523
 21
136.8077582553171
 31
0.0
  0
LINE
  5
9D1
330
A
100
AcDbEntity
  8
INDUSA
  6
Continuous
100
AcDbLine
 10
280.4217075319129
 20
136.6244215039198
 30
0.0
 11
280.1449698057385
 21
136.6244215039198
 31
0.0
  0
LINE
  5
9E7
330
A
100
AcDbEntity
  8
INDUSA
  6
Continuous
100
AcDbLine
 10
280.3735183877143
 20
136.8008867675898
 30
0.0
 11
280.2016702312755
 21
136.8008867675898
 31
0.0
  0
LWPOLYLINE
  5
9EA
330
A
100
AcDbEntity
  8
INDUSA
  6
Continuous
100
AcDbPolyline
 90
        7
 70
   128
 43
0.0
 10
280.1182521216455
 20
136.9573371175476
 10
280.1368662284641
 20
136.919766214065
 10
280.1560848829776
 20
136.8824842125695
 10
280.1660383423794
 20
136.863979895459
 10
280.1763055077433
 20
136.8456448545382
 10
280.187009897453
 20
136.8275061138731
 10
280.1983234554072
 20
136.8097367619517
  0
LWPOLYLINE
  5
9F3
330
A
100
AcDbEntity
  8
INDUSA
  6
Continuous
100
AcDbPolyline
 90
        7
 70
   128
 43
0.0
 10
280.1983234554072
 20
136.8097367619517
 10
280.1582280606538
 20
136.8102392852585
 10
280.1181326659003
 20
136.8114015806775
 10
280.0780372711468
 20
136.8128345549672
 10
280.0465337466977
 20
136.8138968892331
 10
280.0150302222486
 20
136.81469738784
 10
279.9835266977995
 20
136.8150473178779
  0
LWPOLYLINE
  5
A0D
330
A
100
AcDbEntity
  8
INDUSA
  6
Continuous
100
AcDbPolyline
 90
        6
 70
   128
 43
0.0
 10
280.10792129775
 20
136.9787059229
 10
280.1083856983711
 20
136.9762928257677
 10
280.1098628895376
 20
136.9736800403553
 10
280.1126031851006
 20
136.971224717082
 10
280.1148471423685
 20
136.9700363121123
 10
280.1172597546375
 20
136.9692341356169
  0
LWPOLYLINE
  5
A20
330
A
100
AcDbEntity
  8
INDUSA
  6
Continuous
100
AcDbPolyline
 90
        9
 70
   128
 43
0.0
 10
280.1184488052405
 20
136.9741573975614
 10
280.1183933741112
 20
136.9739036863212
 10
280.1183037917973
 20
136.9735149457857
 10
280.1181827570369
 20
136.9730028870713
 10
280.118033916098
 20
136.9723829363524
 10
280.117861752932
 20
136.9716737701356
 10
280.1176714540904
 20
136.9708967526149
 10
280.1174687524767
 20
136.9700752920587
 10
280.1172597546375
 20
136.9692341356169
  0
LINE
  5
A41
330
A
100
AcDbEntity
  8
INDUSA
  6
Continuous
100
AcDbLine
 10
280.1172597546376
 20
136.9692341356169
 30
0.0
 11
280.1218847002324
 21
136.962207333707
 31
0.0
  0
LWPOLYLINE
  5
A69
330
A
100
AcDbEntity
  8
INDUSA
  6
Continuous
100
AcDbPolyline
 90
        7
 70
   128
 43
0.0
 10
280.1073956650717
 20
136.99532118698
 10
280.1071893624745
 20
136.9962513698546
 10
280.106973592449
 20
136.9967118420036
 10
280.1060002757236
 20
136.9979125426662
 10
280.1041102245579
 20
136.9991421416855
 10
280.1013325804269
 20
136.9999864708117
 10
280.1006868238853
 20
137.0000729248073
  0
LINE
  5
A7D
330
A
100
AcDbEntity
  8
INDUSA
  6
Continuous
100
AcDbLine
 10
280.1073956650717
 20
136.99532118698
 30
0.0
 11
280.10792129775
 21
136.9787059229
 31
0.0
  0
LWPOLYLINE
  5
A83
330
A
100
AcDbEntity
  8
INDUSA
  6
Continuous
100
AcDbPolyline
 90
        9
 70
   128
 43
0.0
 10
280.1218702697307
 20
136.9591170107454
 10
280.1218707424606
 20
136.9592354124339
 10
280.1218716959892
 20
136.9594523143745
 10
280.1218730974706
 20
136.9597602450184
 10
280.1218748986284
 20
136.9601485971816
 10
280.1218770374189
 20
136.9606039934266
 10
280.1218794401678
 20
136.9611107468712
 10
280.1218820241083
 20
136.9616514015483
 10
280.1218847002324
 20
136.962207333707
  0
LINE
  5
A92
330
A
100
AcDbEntity
  8
INDUSA
  6
Continuous
100
AcDbLine
 10
280.1217390842075
 20
136.9591136061631
 30
0.0
 11
280.1218702697307
 21
136.9591170107454
 31
0.0
  0
LWPOLYLINE
  5
AA0
330
A
100
AcDbEntity
  8
INDUSA
  6
Continuous
100
AcDbPolyline
 90
        9
 70
   128
 43
0.0
 10
279.9235266977994
 20
136.9588921504778
 10
279.9235651272387
 20
136.9589353543388
 10
279.9236789387344
 20
136.9589768978996
 10
279.9238637585748
 20
136.9590151846645
 10
279.9241124842371
 20
136.9590487432946
 10
279.9244155573334
 20
136.9590762841506
 10
279.9247613309347
 20
136.9590967488528
 10
279.9251365171554
 20
136.9591093509543
 10
279.9255266977994
 20
136.9591136061631
  0
LWPOLYLINE
  5
AAB
330
A
100
AcDbEntity
  8
INDUSA
  6
Continuous
100
AcDbPolyline
 90
        9
 70
   128
 43
0.0
 10
279.9235266977994
 20
136.9588921504778
 10
279.9229414268334
 20
136.9589494420696
 10
279.9223786475023
 20
136.9591191151614
 10
279.9218599871004
 20
136.9593946493112
 10
279.9214053774559
 20
136.9597654558964
 10
279.9210322889625
 20
136.9602172850276
 10
279.9207550592019
 20
136.960732773165
 10
279.9205843419583
 20
136.9612921103883
 10
279.9205266977994
 20
136.9618738016818
  0
LINE
  5
AB6
330
A
100
AcDbEntity
  8
INDUSA
  6
Continuous
100
AcDbLine
 10
279.9255266977994
 20
136.9591136061631
 30
0.0
 11
280.1217390842075
 21
136.9591136061631
 31
0.0
  0
LINE
  5
AB7
330
A
100
AcDbEntity
  8
INDUSA
  6
Continuous
100
AcDbLine
 10
279.9205266977994
 20
136.995133818677
 30
0.0
 11
279.9205266977994
 21
136.9618738016819
 31
0.0
  0
LINE
  5
AC3
330
A
100
AcDbEntity
  8
INDUSA
  6
Continuous
100
AcDbLine
 10
280.1182521216456
 20
136.9573371175476
 30
0.0
 11
280.1182521216456
 21
136.9590547943712
 31
0.0
  0
LINE
  5
AC9
330
A
100
AcDbEntity
  8
INDUSA
  6
Continuous
100
AcDbLine
 10
280.1006868238853
 20
137.0000729248073
 30
0.0
 11
279.9255266977994
 21
137.0000729248073
 31
0.0
  0
LWPOLYLINE
  5
ACB
330
A
100
AcDbEntity
  8
INDUSA
  6
Continuous
100
AcDbPolyline
 90
        9
 70
   128
 43
0.0
 10
279.9205266977994
 20
136.995133818677
 10
279.9206227713975
 20
136.9960973904825
 10
279.9209073001369
 20
136.9970239327638
 10
279.9213693497379
 20
136.9978778390207
 10
279.9219911638935
 20
136.9986262941148
 10
279.9227488466343
 20
136.9992405353363
 10
279.9236132806377
 20
136.9996969577397
 10
279.9245512461894
 20
136.999978021268
 10
279.9255266977994
 20
137.0000729248073
  0
LWPOLYLINE
  5
AD6
330
A
100
AcDbEntity
  8
INDUSA
  6
Continuous
100
AcDbPolyline
 90
        7
 70
   128
 43
0.0
 10
279.9835266977995
 20
136.9590365616857
 10
279.9835153841024
 20
136.9590359369882
 10
279.9829381855478
 20
136.9590036250754
 10
279.9810745834432
 20
136.9588660278686
 10
279.9803919031447
 20
136.9587816725655
 10
279.9797395478955
 20
136.9586417304547
 10
279.9796644012442
 20
136.9586134843294
  0
LWPOLYLINE
  5
ADF
330
A
100
AcDbEntity
  8
INDUSA
  6
Continuous
100
AcDbPolyline
 90
        4
 70
   128
 43
0.0
 10
279.9796644012442
 20
136.9586134843294
 10
279.9795880960241
 20
136.9585744102627
 10
279.9795420769203
 20
136.9585347234833
 10
279.9795266977994
 20
136.9584947291653
  0
LINE
  5
AE5
330
A
100
AcDbEntity
  8
INDUSA
  6
Continuous
100
AcDbLine
 10
279.9795266977995
 20
136.9584947291653
 30
0.0
 11
279.9795266977995
 21
136.9545448852005
 31
0.0
  0
LINE
  5
AE6
330
A
100
AcDbEntity
  8
INDUSA
  6
Continuous
100
AcDbLine
 10
279.9795266977995
 20
136.9545448852005
 30
0.0
 11
279.9235266977994
 21
136.9545448852005
 31
0.0
  0
LWPOLYLINE
  5
AE9
330
A
100
AcDbEntity
  8
INDUSA
  6
Continuous
100
AcDbPolyline
 90
        7
 70
   128
 43
0.0
 10
279.980629975383
 20
136.9576571010822
 10
279.9806863353715
 20
136.9576997813843
 10
279.9811756018084
 20
136.9579702701837
 10
279.9816876120323
 20
136.9582257214798
 10
279.9830853136107
 20
136.9589205818479
 10
279.9835199268818
 20
136.9590355520684
 10
279.9835266977995
 20
136.9590365616857
  0
LWPOLYLINE
  5
AF2
330
A
100
AcDbEntity
  8
INDUSA
  6
Continuous
100
AcDbPolyline
 90
        9
 70
   128
 43
0.0
 10
279.9796644012442
 20
136.9586134843294
 10
279.9798453774173
 20
136.9585907380703
 10
279.9800199670908
 20
136.9585337211721
 10
279.9801820091395
 20
136.9584444457141
 10
279.9803257852332
 20
136.9583260621533
 10
279.9804462216325
 20
136.958182748148
 10
279.9805390682362
 20
136.9580195611308
 10
279.9806010485646
 20
136.9578422598368
 10
279.980629975383
 20
136.9576571010822
  0
LINE
  5
B09
330
A
100
AcDbEntity
  8
INDUSA
  6
Continuous
100
AcDbLine
 10
279.9205266977994
 20
136.9618738016819
 30
0.0
 11
279.9205266977994
 21
136.9577732989659
 31
0.0
  0
LWPOLYLINE
  5
B0A
330
A
100
AcDbEntity
  8
INDUSA
  6
Continuous
100
AcDbPolyline
 90
       10
 70
   128
 43
0.0
 10
279.9235266977994
 20
136.9545448852005
 10
279.9230057532664
 20
136.9545939320598
 10
279.9225006373695
 20
136.9547395823737
 10
279.9220266977994
 20
136.9549774106311
 10
279.9215983349704
 20
136.9553001905408
 10
279.9212285644701
 20
136.9556981145985
 10
279.9209286215881
 20
136.9561590920832
 10
279.9207076199371
 20
136.9566691164271
 10
279.9205722745404
 20
136.9572126907987
 10
279.9205266977994
 20
136.9577732989658
  0
LWPOLYLINE
  5
B16
330
A
100
AcDbEntity
  8
INDUSA
  6
Continuous
100
AcDbPolyline
 90
        4
 70
   128
 43
0.0
 10
279.9805266977994
 20
136.9575008454306
 10
279.9805382321401
 20
136.9575534691483
 10
279.9805727464679
 20
136.9576056882127
 10
279.980629975383
 20
136.9576571010822
  0
LWPOLYLINE
  5
B1C
330
A
100
AcDbEntity
  8
INDUSA
  6
Continuous
100
AcDbPolyline
 90
        9
 70
   128
 43
0.0
 10
279.9835266977995
 20
136.8150473178779
 10
279.9829414268334
 20
136.8150556279559
 10
279.9823786475023
 20
136.8150802388381
 10
279.9818599871004
 20
136.8151202047422
 10
279.9814053774559
 20
136.8151739898008
 10
279.9810322889625
 20
136.8152395270843
 10
279.9807550592019
 20
136.8153142980317
 10
279.9805843419583
 20
136.8153954292375
 10
279.9805266977994
 20
136.8154798028748
  0
LINE
  5
B27
330
A
100
AcDbEntity
  8
INDUSA
  6
Continuous
100
AcDbLine
 10
279.9805266977994
 20
136.9575008454306
 30
0.0
 11
279.9805266977994
 21
136.8154798028748
 31
0.0
  0
LINE
  5
B29
330
A
100
AcDbEntity
  8
INDUSA
  6
Continuous
100
AcDbLine
 10
279.9205266977994
 20
136.995133818677
 30
0.0
 11
279.9205266977994
 21
137.0044215039198
 31
0.0
  0
LINE
  5
B2A
330
A
100
AcDbEntity
  8
INDUSA
  6
Continuous
100
AcDbLine
 10
280.0460045593414
 20
137.0094091255474
 30
0.0
 11
280.0462190300022
 21
137.0094141135016
 31
0.0
  0
LWPOLYLINE
  5
B2B
330
A
100
AcDbEntity
  8
INDUSA
  6
Continuous
100
AcDbPolyline
 90
       19
 70
   128
 43
0.0
 10
280.0465266977994
 20
137.0094215039198
 10
280.0462627510823
 20
137.0094151309892
 10
280.0454855758104
 20
137.0093970541419
 10
280.0442090123444
 20
137.0093689933881
 10
280.0424760322439
 20
137.0093343357469
 10
280.0403304270172
 20
137.0092968733344
 10
280.0378375083096
 20
137.0092608330018
 10
280.0350643348393
 20
137.0092303822818
 10
280.0320922599003
 20
137.0092087554377
 10
280.0290047489251
 20
137.0091986721374
 10
280.0258895899052
 20
137.0092009414836
 10
280.0228360401852
 20
137.0092156374167
 10
280.0199291130526
 20
137.0092407915997
 10
280.0172528877663
 20
137.0092738252439
 10
280.0148807541246
 20
137.0093108434418
 10
280.0128833333229
 20
137.0093477496033
 10
280.0113131369631
 20
137.0093804201727
 10
280.0100223925614
 20
137.0094096865178
 10
280.0095266977995
 20
137.0094215039198
  0
LWPOLYLINE
  5
B40
330
A
100
AcDbEntity
  8
INDUSA
  6
Continuous
100
AcDbPolyline
 90
        9
 70
   128
 43
0.0
 10
280.0808078201043
 20
137.0044538616671
 10
280.0786812918217
 20
137.0049545689745
 10
280.0742670085097
 20
137.0060337023546
 10
280.0705550636727
 20
137.0069870270084
 10
280.0675314742729
 20
137.0077991738114
 10
280.0651822572728
 20
137.0084547736393
 10
280.0633251294747
 20
137.008988423898
 10
280.0622273628947
 20
137.0093123783845
 10
280.0618664437616
 20
137.0094215039198
  0
LWPOLYLINE
  5
B4B
330
A
100
AcDbEntity
  8
INDUSA
  6
Continuous
100
AcDbPolyline
 90
        5
 70
   128
 43
0.0
 10
280.0808078201043
 20
137.0044538616671
 10
280.0851718915165
 20
137.0034503916052
 10
280.089937019333
 20
137.0023814206001
 10
280.0951189575228
 20
137.0012507368394
 10
280.1006868238853
 20
137.0000729248073
  0
LWPOLYLINE
  5
B6F
330
A
100
AcDbEntity
  8
INDUSA
  6
Continuous
100
AcDbPolyline
 90
        7
 70
   128
 43
0.0
 10
280.199952642285
 20
136.7990639241862
 10
280.1911768150941
 20
136.7786895582967
 10
280.1829196960456
 20
136.7580988195198
 10
280.1750214853995
 20
136.7373288926361
 10
280.1674141744166
 20
136.7164507892336
 10
280.1516946502991
 20
136.6710930646473
 10
280.136661880031
 20
136.6254907815185
  0
LWPOLYLINE
  5
B78
330
A
100
AcDbEntity
  8
INDUSA
  6
Continuous
100
AcDbPolyline
 90
        4
 70
   128
 43
0.0
 10
280.199952642285
 20
136.7990639241862
 10
280.1999856937432
 20
136.7990990647449
 10
280.2000838233213
 20
136.7992033843494
 10
280.2031135247393
 20
136.8024182879162
  0
LWPOLYLINE
  5
B88
330
A
100
AcDbEntity
  8
INDUSA
  6
Continuous
100
AcDbPolyline
 90
        5
 70
   128
 43
0.0
 10
279.9795266977994
 20
136.9545448852005
 10
279.9799388796864
 20
136.9544565305085
 10
279.9803004402938
 20
136.954180627049
 10
279.9804728888751
 20
136.9538726306705
 10
279.9805266977994
 20
136.9535510014658
  0
LWPOLYLINE
  5
B91
330
A
100
AcDbEntity
  8
INDUSA
  6
Continuous
100
AcDbPolyline
 90
        7
 70
   128
 43
0.0
 10
279.9835266977995
 20
136.7937093214596
 10
280.0239262074368
 20
136.7942521959348
 10
280.064325717074
 20
136.7954536978993
 10
280.1047252267114
 20
136.7969125780961
 10
280.1364676985692
 20
136.797978017511
 10
280.1682101704271
 20
136.7987600093031
 10
280.199952642285
 20
136.7990639241862
  0
LINE
  5
B9A
330
A
100
AcDbEntity
  8
INDUSA
  6
Continuous
100
AcDbLine
 10
280.1366618800311
 20
136.6254907815185
 30
0.0
 11
280.1366618800311
 21
136.6244215039198
 31
0.0
  0
LINE
  5
B9B
330
A
100
AcDbEntity
  8
INDUSA
  6
Continuous
100
AcDbLine
 10
280.1366618800311
 20
136.6244215039198
 30
0.0
 11
280.1449698057385
 21
136.6244215039198
 31
0.0
  0
ARC
  5
BA3
330
A
100
AcDbEntity
  8
INDUSA
  6
Continuous
100
AcDbCircle
 10
279.9815266977995
 20
136.6254215039198
 30
0.0
 40
0.001
100
AcDbArc
 50
180.0000000000004
 51
270.0000000000008
  0
LINE
  5
BB1
330
A
100
AcDbEntity
  8
INDUSA
  6
Continuous
100
AcDbLine
 10
279.9815266977995
 20
136.6244215039198
 30
0.0
 11
279.9835266977995
 21
136.6244215039198
 31
0.0
  0
LINE
  5
BB2
330
A
100
AcDbEntity
  8
INDUSA
  6
Continuous
100
AcDbLine
 10
279.9835266977995
 20
136.6244215039198
 30
0.0
 11
280.1366618800311
 21
136.6244215039198
 31
0.0
  0
LWPOLYLINE
  5
BB3
330
A
100
AcDbEntity
  8
INDUSA
  6
Continuous
100
AcDbPolyline
 90
        9
 70
   128
 43
0.0
 10
279.9835266977995
 20
136.7937093214596
 10
279.9829414268334
 20
136.7937053280107
 10
279.9823786475023
 20
136.79369350113
 10
279.9818599871004
 20
136.7936742953179
 10
279.9814053774559
 20
136.793648448643
 10
279.9810322889625
 20
136.7936169543785
 10
279.9807550592019
 20
136.7935810228313
 10
279.9805843419583
 20
136.7935420348306
 10
279.9805266977994
 20
136.7935014886635
  0
LINE
  5
BBE
330
A
100
AcDbEntity
  8
INDUSA
  6
Continuous
100
AcDbLine
 10
279.9805266977994
 20
136.7935014886635
 30
0.0
 11
279.9805266977994
 21
136.6254215039198
 31
0.0
  0
LWPOLYLINE
  5
BBF
330
A
100
AcDbEntity
  8
INDUSA
  6
Continuous
100
AcDbPolyline
 90
        5
 70
   128
 43
0.0
 10
280.1983234554072
 20
136.8097367619517
 10
280.1983234834201
 20
136.8097367094468
 10
280.2000757887649
 20
136.8067243577972
 10
280.2021688901173
 20
136.8036605523853
 10
280.2031135247393
 20
136.8024182879162
  0
LINE
  5
BCE
330
A
100
AcDbEntity
  8
INDUSA
  6
Continuous
100
AcDbLine
 10
279.9805266977994
 20
136.8154798028748
 30
0.0
 11
279.9805266977994
 21
136.7935014886635
 31
0.0
  0
LINE
  5
BCF
330
A
100
AcDbEntity
  8
INDUSA
  6
Continuous
100
AcDbLine
 10
279.9235266977994
 20
136.9545387689351
 30
0.0
 11
279.9235266977994
 21
136.9545448852005
 31
0.0
  0
LINE
  5
C01
330
A
100
AcDbEntity
  8
INDUSA
  6
Continuous
100
AcDbLine
 10
280.7027003152699
 20
136.9918680335065
 30
0.0
 11
280.6730323524127
 21
136.9616927416498
 31
0.0
  0
LINE
  5
C18
330
A
100
AcDbEntity
  8
INDUSA
  6
Continuous
100
AcDbLine
 10
280.7027003152699
 20
136.9983312444399
 30
0.0
 11
280.7027003152699
 21
137.0014215039198
 31
0.0
  0
ENDSEC
  0
SECTION
  2
OBJECTS
  0
DICTIONARY
  5
19
330
0
100
AcDbDictionary
281
     1
  3
ACAD_COLOR
350
C4B
  3
ACAD_GROUP
350
1A
  3
ACAD_LAYOUT
350
BE9
  3
ACAD_MATERIAL
350
C1E
  3
ACAD_MLEADERSTYLE
350
C70
  3
ACAD_MLINESTYLE
350
1B
  3
ACAD_PLOTSETTINGS
350
BEA
  3
ACAD_PLOTSTYLENAME
350
BE7
  3
ACAD_SCALELIST
350
C4E
  3
ACAD_TABLESTYLE
350
C4C
  3
ACAD_VISUALSTYLE
350
C37
  3
ACDB_RECOMPOSE_DATA
350
C82
  3
AcDbVariableDictionary
350
C13
  3
ASE_INDEX_DICTIONARY
350
C0F
  3
DWGPROPS
350
C83
  0
DICTIONARY
  5
C74
330
14
100
AcDbDictionary
280
     1
281
     1
  3
ADSK_XREC_LAYER_RECONCILED
360
C75
  0
DICTIONARY
  5
C76
330
27
100
AcDbDictionary
280
     1
281
     1
  3
ADSK_XREC_LAYER_RECONCILED
360
C77
  0
DICTIONARY
  5
C78
330
BEF
100
AcDbDictionary
280
     1
281
     1
  3
ADSK_XREC_LAYER_RECONCILED
360
C79
  0
DICTIONARY
  5
C4B
102
{ACAD_REACTORS
330
19
102
}
330
19
100
AcDbDictionary
281
     1
  0
DICTIONARY
  5
1A
102
{ACAD_REACTORS
330
19
102
}
330
19
100
AcDbDictionary
281
     1
  0
DICTIONARY
  5
BE9
102
{ACAD_REACTORS
330
19
102
}
330
19
100
AcDbDictionary
281
     1
  3
Layout1
350
BEC
  3
Model
350
BEB
  0
DICTIONARY
  5
C1E
102
{ACAD_REACTORS
330
19
102
}
330
19
100
AcDbDictionary
281
     1
  3
ByBlock
350
C27
  3
ByLayer
350
C1F
  3
Global
350
C2F
  0
DICTIONARY
  5
C70
102
{ACAD_REACTORS
330
19
102
}
330
19
100
AcDbDictionary
281
     1
  3
Standard
350
C71
  0
DICTIONARY
  5
1B
102
{ACAD_REACTORS
330
19
102
}
330
19
100
AcDbDictionary
281
     1
  3
STANDARD
350
1C
  0
DICTIONARY
  5
BEA
102
{ACAD_REACTORS
330
19
102
}
330
19
100
AcDbDictionary
281
     1
  0
ACDBDICTIONARYWDFLT
  5
BE7
102
{ACAD_REACTORS
330
19
102
}
330
19
100
AcDbDictionary
281
     1
  3
Normal
350
BE8
100
AcDbDictionaryWithDefault
340
BE8
  0
DICTIONARY
  5
C4E
102
{ACAD_REACTORS
330
19
102
}
330
19
100
AcDbDictionary
281
     1
  3
A0
350
C4F
  3
A1
350
C50
  3
A2
350
C51
  3
A3
350
C52
  3
A4
350
C53
  3
A5
350
C54
  3
A6
350
C55
  3
A7
350
C56
  3
A8
350
C57
  3
A9
350
C58
  3
B0
350
C59
  3
B1
350
C5A
  3
B2
350
C5B
  3
B3
350
C5C
  3
B4
350
C5D
  3
B5
350
C5E
  3
B6
350
C5F
  3
B7
350
C60
  3
B8
350
C61
  3
B9
350
C62
  3
C0
350
C63
  3
C1
350
C64
  3
C2
350
C65
  3
C3
350
C66
  3
C4
350
C67
  3
C5
350
C68
  3
C6
350
C69
  3
C7
350
C6A
  3
C8
350
C6B
  3
C9
350
C6C
  3
D0
350
C6D
  3
D1
350
C6E
  3
D2
350
C6F
  0
DICTIONARY
  5
C4C
102
{ACAD_REACTORS
330
19
102
}
330
19
100
AcDbDictionary
281
     1
  3
Standard
350
C4D
  0
DICTIONARY
  5
C37
102
{ACAD_REACTORS
330
19
102
}
330
19
100
AcDbDictionary
281
     1
  3
2dWireframe
350
C3D
  3
3D Hidden
350
C3F
  3
3dWireframe
350
C3E
  3
Basic
350
C3C
  3
Brighten
350
C43
  3
ColorChange
350
C47
  3
Conceptual
350
C40
  3
Dim
350
C42
  3
EdgeColorOff
350
C4A
  3
Facepattern
350
C46
  3
Flat
350
C38
  3
FlatWithEdges
350
C39
  3
Gouraud
350
C3A
  3
GouraudWithEdges
350
C3B
  3
JitterOff
350
C48
  3
Linepattern
350
C45
  3
OverhangOff
350
C49
  3
Realistic
350
C41
  3
Thicken
350
C44
  0
XRECORD
  5
C82
102
{ACAD_REACTORS
330
19
102
}
330
19
100
AcDbXrecord
280
     1
 90
        1
330
C4D
  0
DICTIONARY
  5
C13
102
{ACAD_REACTORS
330
19
102
}
330
19
100
AcDbDictionary
281
     1
  3
CANNOSCALE
350
C7C
  3
CMLEADERSTYLE
350
C7B
  3
CTABLESTYLE
350
C7A
  3
DIMASSOC
350
C14
  3
INDEXCTL
350
C7E
  3
SORTENTS
350
C7D
  3
XCLIPFRAME
350
C7F
  0
DICTIONARY
  5
C0F
102
{ACAD_REACTORS
330
19
102
}
330
19
100
AcDbDictionary
281
     1
  3
ASEBlockHierarchyIndexRecord
350
C11
1001
DCO15
1040
1470029357.562
  0
XRECORD
  5
C83
102
{ACAD_REACTORS
330
19
102
}
330
19
100
AcDbXrecord
280
     1
  1
DWGPROPS COOKIE
  2

  3

  4

  6

  7

  8
Julio
  9

300
=
301
=
302
=
303
=
304
=
305
=
306
=
307
=
308
=
309
=
 40
0.0076902546296296
 41
2444972.041666667
 42
2456148.459496157
  1

 90
        0
  0
XRECORD
  5
C75
102
{ACAD_REACTORS
330
C74
102
}
330
C74
100
AcDbXrecord
280
     1
290
     1
  0
XRECORD
  5
C77
102
{ACAD_REACTORS
330
C76
102
}
330
C76
100
AcDbXrecord
280
     1
290
     1
  0
XRECORD
  5
C79
102
{ACAD_REACTORS
330
C78
102
}
330
C78
100
AcDbXrecord
280
     1
290
     1
  0
LAYOUT
  5
BEC
102
{ACAD_XDICTIONARY
360
C86
102
}
102
{ACAD_REACTORS
330
BE9
102
}
330
BE9
100
AcDbPlotSettings
  1

  2
PLOTER 500
  4

  6

 40
0.0
 41
0.0
 42
0.0
 43
0.0
 44
0.0
 45
0.0
 46
0.0
 47
0.0
 48
0.0
 49
0.0
140
0.0
141
0.0
142
1.0
143
1.0
 70
   688
 72
     0
 73
     0
 74
     5
  7
monochrome.ctb
 75
    16
147
1.0
148
0.0
149
0.0
100
AcDbLayout
  1
Layout1
 70
     1
 71
     1
 10
0.0
 20
0.0
 11
12.0
 21
9.0
 12
0.0
 22
0.0
 32
0.0
 14
1.000000000000000E+20
 24
1.000000000000000E+20
 34
1.000000000000000E+20
 15
-1.000000000000000E+20
 25
-1.000000000000000E+20
 35
-1.000000000000000E+20
146
0.0
 13
0.0
 23
0.0
 33
0.0
 16
1.0
 26
0.0
 36
0.0
 17
0.0
 27
1.0
 37
0.0
 76
     0
330
B
  0
LAYOUT
  5
BEB
102
{ACAD_XDICTIONARY
360
C84
102
}
102
{ACAD_REACTORS
330
BE9
102
}
330
BE9
100
AcDbPlotSettings
  1

  2
PLOTER 500
  4

  6

 40
0.0
 41
0.0
 42
0.0
 43
0.0
 44
0.0
 45
0.0
 46
0.0
 47
0.0
 48
0.0
 49
0.0
140
0.0
141
0.0
142
1.0
143
1.0
 70
  1712
 72
     0
 73
     0
 74
     0
  7
monochrome.ctb
 75
     0
147
1.0
148
0.0
149
0.0
100
AcDbLayout
  1
Model
 70
     1
 71
     0
 10
0.0
 20
0.0
 11
12.0
 21
9.0
 12
0.0
 22
0.0
 32
0.0
 14
0.0
 24
0.0
 34
0.0
 15
0.0
 25
0.0
 35
0.0
146
0.0
 13
0.0
 23
0.0
 33
0.0
 16
1.0
 26
0.0
 36
0.0
 17
0.0
 27
1.0
 37
0.0
 76
     0
330
A
331
C1C
  0
MATERIAL
  5
C27
102
{ACAD_XDICTIONARY
360
C28
102
}
102
{ACAD_REACTORS
330
C1E
102
}
330
C1E
100
AcDbMaterial
  1
ByBlock
 72
     0
 43
0.0208333333333333
 43
0.0
 43
0.0
 43
0.0
 43
0.0
 43
0.0208333333333333
 43
0.0
 43
0.0
 43
0.0
 43
0.0
 43
1.0
 43
0.0
 43
0.0
 43
0.0
 43
0.0
 43
1.0
 77
     0
 47
0.0208333333333333
 47
0.0
 47
0.0
 47
0.0
 47
0.0
 47
0.0208333333333333
 47
0.0
 47
0.0
 47
0.0
 47
0.0
 47
1.0
 47
0.0
 47
0.0
 47
0.0
 47
0.0
 47
1.0
171
     0
 49
0.0208333333333333
 49
0.0
 49
0.0
 49
0.0
 49
0.0
 49
0.0208333333333333
 49
0.0
 49
0.0
 49
0.0
 49
0.0
 49
1.0
 49
0.0
 49
0.0
 49
0.0
 49
0.0
 49
1.0
175
     0
142
0.0208333333333333
142
0.0
142
0.0
142
0.0
142
0.0
142
0.0208333333333333
142
0.0
142
0.0
142
0.0
142
0.0
142
1.0
142
0.0
142
0.0
142
0.0
142
0.0
142
1.0
179
     0
144
0.0208333333333333
144
0.0
144
0.0
144
0.0
144
0.0
144
0.0208333333333333
144
0.0
144
0.0
144
0.0
144
0.0
144
1.0
144
0.0
144
0.0
144
0.0
144
0.0
144
1.0
147
0.0208333333333333
147
0.0
147
0.0
147
0.0
147
0.0
147
0.0208333333333333
147
0.0
147
0.0
147
0.0
147
0.0
147
1.0
147
0.0
147
0.0
147
0.0
147
0.0
147
1.0
  0
MATERIAL
  5
C1F
102
{ACAD_XDICTIONARY
360
C20
102
}
102
{ACAD_REACTORS
330
C1E
102
}
330
C1E
100
AcDbMaterial
  1
ByLayer
 72
     0
 43
0.0208333333333333
 43
0.0
 43
0.0
 43
0.0
 43
0.0
 43
0.0208333333333333
 43
0.0
 43
0.0
 43
0.0
 43
0.0
 43
1.0
 43
0.0
 43
0.0
 43
0.0
 43
0.0
 43
1.0
 77
     0
 47
0.0208333333333333
 47
0.0
 47
0.0
 47
0.0
 47
0.0
 47
0.0208333333333333
 47
0.0
 47
0.0
 47
0.0
 47
0.0
 47
1.0
 47
0.0
 47
0.0
 47
0.0
 47
0.0
 47
1.0
171
     0
 49
0.0208333333333333
 49
0.0
 49
0.0
 49
0.0
 49
0.0
 49
0.0208333333333333
 49
0.0
 49
0.0
 49
0.0
 49
0.0
 49
1.0
 49
0.0
 49
0.0
 49
0.0
 49
0.0
 49
1.0
175
     0
142
0.0208333333333333
142
0.0
142
0.0
142
0.0
142
0.0
142
0.0208333333333333
142
0.0
142
0.0
142
0.0
142
0.0
142
1.0
142
0.0
142
0.0
142
0.0
142
0.0
142
1.0
179
     0
144
0.0208333333333333
144
0.0
144
0.0
144
0.0
144
0.0
144
0.0208333333333333
144
0.0
144
0.0
144
0.0
144
0.0
144
1.0
144
0.0
144
0.0
144
0.0
144
0.0
144
1.0
147
0.0208333333333333
147
0.0
147
0.0
147
0.0
147
0.0
147
0.0208333333333333
147
0.0
147
0.0
147
0.0
147
0.0
147
1.0
147
0.0
147
0.0
147
0.0
147
0.0
147
1.0
  0
MATERIAL
  5
C2F
102
{ACAD_XDICTIONARY
360
C30
102
}
102
{ACAD_REACTORS
330
C1E
102
}
330
C1E
100
AcDbMaterial
  1
Global
 72
     0
 43
0.0208333333333333
 43
0.0
 43
0.0
 43
0.0
 43
0.0
 43
0.0208333333333333
 43
0.0
 43
0.0
 43
0.0
 43
0.0
 43
1.0
 43
0.0
 43
0.0
 43
0.0
 43
0.0
 43
1.0
 77
     0
 47
0.0208333333333333
 47
0.0
 47
0.0
 47
0.0
 47
0.0
 47
0.0208333333333333
 47
0.0
 47
0.0
 47
0.0
 47
0.0
 47
1.0
 47
0.0
 47
0.0
 47
0.0
 47
0.0
 47
1.0
171
     0
 49
0.0208333333333333
 49
0.0
 49
0.0
 49
0.0
 49
0.0
 49
0.0208333333333333
 49
0.0
 49
0.0
 49
0.0
 49
0.0
 49
1.0
 49
0.0
 49
0.0
 49
0.0
 49
0.0
 49
1.0
175
     0
142
0.0208333333333333
142
0.0
142
0.0
142
0.0
142
0.0
142
0.0208333333333333
142
0.0
142
0.0
142
0.0
142
0.0
142
1.0
142
0.0
142
0.0
142
0.0
142
0.0
142
1.0
179
     0
144
0.0208333333333333
144
0.0
144
0.0
144
0.0
144
0.0
144
0.0208333333333333
144
0.0
144
0.0
144
0.0
144
0.0
144
1.0
144
0.0
144
0.0
144
0.0
144
0.0
144
1.0
147
0.0208333333333333
147
0.0
147
0.0
147
0.0
147
0.0
147
0.0208333333333333
147
0.0
147
0.0
147
0.0
147
0.0
147
1.0
147
0.0
147
0.0
147
0.0
147
0.0
147
1.0
  0
MLEADERSTYLE
  5
C71
102
{ACAD_REACTORS
330
C70
102
}
330
C70
100
AcDbMLeaderStyle
170
     2
171
     1
172
     0
 90
        2
 40
0.0
 41
0.0
173
     1
 91
-1056964608
340
11
 92
       -2
290
     1
 42
0.09
291
     1
 43
0.36
  3
Standard
 44
0.18
300

342
17
174
     1
178
     6
175
     1
176
     0
 93
-1056964608
 45
0.18
292
     0
297
     0
 46
0.18
 94
-1056964608
 47
1.0
 49
1.0
140
1.0
293
     1
141
0.0
294
     1
177
     0
142
1.0
295
     0
296
     0
143
0.125
1001
ACAD_MLEADERVER
1070
     2
  0
MLINESTYLE
  5
1C
102
{ACAD_REACTORS
330
1B
102
}
330
1B
100
AcDbMlineStyle
  2
STANDARD
 70
     0
  3

 62
     0
 51
90.0
 52
90.0
 71
     2
 49
0.5
 62
   256
  6
BYLAYER
 49
-0.5
 62
   256
  6
BYLAYER
  0
ACDBPLACEHOLDER
  5
BE8
102
{ACAD_REACTORS
330
BE7
102
}
330
BE7
  0
SCALE
  5
C4F
102
{ACAD_REACTORS
330
C4E
102
}
330
C4E
100
AcDbScale
 70
     0
300
1:1
140
1.0
141
1.0
290
     1
  0
SCALE
  5
C50
102
{ACAD_REACTORS
330
C4E
102
}
330
C4E
100
AcDbScale
 70
     0
300
1:2
140
1.0
141
2.0
290
     0
  0
SCALE
  5
C51
102
{ACAD_REACTORS
330
C4E
102
}
330
C4E
100
AcDbScale
 70
     0
300
1:4
140
1.0
141
4.0
290
     0
  0
SCALE
  5
C52
102
{ACAD_REACTORS
330
C4E
102
}
330
C4E
100
AcDbScale
 70
     0
300
1:5
140
1.0
141
5.0
290
     0
  0
SCALE
  5
C53
102
{ACAD_REACTORS
330
C4E
102
}
330
C4E
100
AcDbScale
 70
     0
300
1:8
140
1.0
141
8.0
290
     0
  0
SCALE
  5
C54
102
{ACAD_REACTORS
330
C4E
102
}
330
C4E
100
AcDbScale
 70
     0
300
1:10
140
1.0
141
10.0
290
     0
  0
SCALE
  5
C55
102
{ACAD_REACTORS
330
C4E
102
}
330
C4E
100
AcDbScale
 70
     0
300
1:16
140
1.0
141
16.0
290
     0
  0
SCALE
  5
C56
102
{ACAD_REACTORS
330
C4E
102
}
330
C4E
100
AcDbScale
 70
     0
300
1:20
140
1.0
141
20.0
290
     0
  0
SCALE
  5
C57
102
{ACAD_REACTORS
330
C4E
102
}
330
C4E
100
AcDbScale
 70
     0
300
1:30
140
1.0
141
30.0
290
     0
  0
SCALE
  5
C58
102
{ACAD_REACTORS
330
C4E
102
}
330
C4E
100
AcDbScale
 70
     0
300
1:40
140
1.0
141
40.0
290
     0
  0
SCALE
  5
C59
102
{ACAD_REACTORS
330
C4E
102
}
330
C4E
100
AcDbScale
 70
     0
300
1:50
140
1.0
141
50.0
290
     0
  0
SCALE
  5
C5A
102
{ACAD_REACTORS
330
C4E
102
}
330
C4E
100
AcDbScale
 70
     0
300
1:100
140
1.0
141
100.0
290
     0
  0
SCALE
  5
C5B
102
{ACAD_REACTORS
330
C4E
102
}
330
C4E
100
AcDbScale
 70
     0
300
2:1
140
2.0
141
1.0
290
     0
  0
SCALE
  5
C5C
102
{ACAD_REACTORS
330
C4E
102
}
330
C4E
100
AcDbScale
 70
     0
300
4:1
140
4.0
141
1.0
290
     0
  0
SCALE
  5
C5D
102
{ACAD_REACTORS
330
C4E
102
}
330
C4E
100
AcDbScale
 70
     0
300
8:1
140
8.0
141
1.0
290
     0
  0
SCALE
  5
C5E
102
{ACAD_REACTORS
330
C4E
102
}
330
C4E
100
AcDbScale
 70
     0
300
10:1
140
10.0
141
1.0
290
     0
  0
SCALE
  5
C5F
102
{ACAD_REACTORS
330
C4E
102
}
330
C4E
100
AcDbScale
 70
     0
300
100:1
140
100.0
141
1.0
290
     0
  0
SCALE
  5
C60
102
{ACAD_REACTORS
330
C4E
102
}
330
C4E
100
AcDbScale
 70
     0
300
1/128" = 1'-0"
140
0.0078125
141
12.0
290
     0
  0
SCALE
  5
C61
102
{ACAD_REACTORS
330
C4E
102
}
330
C4E
100
AcDbScale
 70
     0
300
1/64" = 1'-0"
140
0.015625
141
12.0
290
     0
  0
SCALE
  5
C62
102
{ACAD_REACTORS
330
C4E
102
}
330
C4E
100
AcDbScale
 70
     0
300
1/32" = 1'-0"
140
0.03125
141
12.0
290
     0
  0
SCALE
  5
C63
102
{ACAD_REACTORS
330
C4E
102
}
330
C4E
100
AcDbScale
 70
     0
300
1/16" = 1'-0"
140
0.0625
141
12.0
290
     0
  0
SCALE
  5
C64
102
{ACAD_REACTORS
330
C4E
102
}
330
C4E
100
AcDbScale
 70
     0
300
3/32" = 1'-0"
140
0.09375
141
12.0
290
     0
  0
SCALE
  5
C65
102
{ACAD_REACTORS
330
C4E
102
}
330
C4E
100
AcDbScale
 70
     0
300
1/8" = 1'-0"
140
0.125
141
12.0
290
     0
  0
SCALE
  5
C66
102
{ACAD_REACTORS
330
C4E
102
}
330
C4E
100
AcDbScale
 70
     0
300
3/16" = 1'-0"
140
0.1875
141
12.0
290
     0
  0
SCALE
  5
C67
102
{ACAD_REACTORS
330
C4E
102
}
330
C4E
100
AcDbScale
 70
     0
300
1/4" = 1'-0"
140
0.25
141
12.0
290
     0
  0
SCALE
  5
C68
102
{ACAD_REACTORS
330
C4E
102
}
330
C4E
100
AcDbScale
 70
     0
300
3/8" = 1'-0"
140
0.375
141
12.0
290
     0
  0
SCALE
  5
C69
102
{ACAD_REACTORS
330
C4E
102
}
330
C4E
100
AcDbScale
 70
     0
300
1/2" = 1'-0"
140
0.5
141
12.0
290
     0
  0
SCALE
  5
C6A
102
{ACAD_REACTORS
330
C4E
102
}
330
C4E
100
AcDbScale
 70
     0
300
3/4" = 1'-0"
140
0.75
141
12.0
290
     0
  0
SCALE
  5
C6B
102
{ACAD_REACTORS
330
C4E
102
}
330
C4E
100
AcDbScale
 70
     0
300
1" = 1'-0"
140
1.0
141
12.0
290
     0
  0
SCALE
  5
C6C
102
{ACAD_REACTORS
330
C4E
102
}
330
C4E
100
AcDbScale
 70
     0
300
1-1/2" = 1'-0"
140
1.5
141
12.0
290
     0
  0
SCALE
  5
C6D
102
{ACAD_REACTORS
330
C4E
102
}
330
C4E
100
AcDbScale
 70
     0
300
3" = 1'-0"
140
3.0
141
12.0
290
     0
  0
SCALE
  5
C6E
102
{ACAD_REACTORS
330
C4E
102
}
330
C4E
100
AcDbScale
 70
     0
300
6" = 1'-0"
140
6.0
141
12.0
290
     0
  0
SCALE
  5
C6F
102
{ACAD_REACTORS
330
C4E
102
}
330
C4E
100
AcDbScale
 70
     0
300
1'-0" = 1'-0"
140
12.0
141
12.0
290
     0
  0
TABLESTYLE
  5
C4D
102
{ACAD_XDICTIONARY
360
C80
102
}
102
{ACAD_REACTORS
330
C4C
102
}
330
C4C
100
AcDbTableStyle
  3
Standard
 70
     0
 71
     0
 40
0.06
 41
0.06
280
     0
281
     0
  7
STANDARD
140
0.18
170
     2
 62
     0
 63
     7
283
     0
274
    -2
284
     1
 64
     0
275
    -2
285
     1
 65
     0
276
    -2
286
     1
 66
     0
277
    -2
287
     1
 67
     0
278
    -2
288
     1
 68
     0
279
    -2
289
     1
 69
     0
  7
STANDARD
140
0.25
170
     5
 62
     0
 63
     7
283
     0
274
    -2
284
     1
 64
     0
275
    -2
285
     1
 65
     0
276
    -2
286
     1
 66
     0
277
    -2
287
     1
 67
     0
278
    -2
288
     1
 68
     0
279
    -2
289
     1
 69
     0
  7
STANDARD
140
0.18
170
     5
 62
     0
 63
     7
283
     0
274
    -2
284
     1
 64
     0
275
    -2
285
     1
 65
     0
276
    -2
286
     1
 66
     0
277
    -2
287
     1
 67
     0
278
    -2
288
     1
 68
     0
279
    -2
289
     1
 69
     0
  0
VISUALSTYLE
  5
C3D
102
{ACAD_XDICTIONARY
360
C95
102
}
102
{ACAD_REACTORS
330
C37
102
}
330
C37
100
AcDbVisualStyle
  2
2dWireframe
 70
     4
 71
     0
 72
     2
 73
     0
 90
        0
 40
-0.6
 41
-30.0
 62
     5
 63
     7
 74
     1
 91
        4
 64
     7
 65
   257
 75
     1
175
     1
 42
1.0
 92
        0
 66
   257
 43
1.0
 76
     1
 77
     6
 78
     2
 67
     7
 79
     5
170
     0
171
     0
290
     0
174
     0
 93
        1
 44
0.0
173
     0
291
     0
 45
0.0
1001
ACAD
1000
AcDbSavedByObjectVersion
1070
     0
  0
VISUALSTYLE
  5
C3F
102
{ACAD_XDICTIONARY
360
C99
102
}
102
{ACAD_REACTORS
330
C37
102
}
330
C37
100
AcDbVisualStyle
  2
3D Hidden
 70
     6
 71
     1
 72
     2
 73
     2
 90
        0
 40
-0.6
 41
-30.0
 62
     5
 63
     7
 74
     2
 91
        2
 64
     7
 65
   257
 75
     2
175
     1
 42
179.0
 92
        0
 66
   257
 43
1.0
 76
     1
 77
     6
 78
     2
 67
     7
 79
     3
170
     0
171
     0
290
     0
174
     0
 93
        1
 44
0.0
173
     0
291
     0
 45
0.0
1001
ACAD
1000
AcDbSavedByObjectVersion
1070
     0
  0
VISUALSTYLE
  5
C3E
102
{ACAD_XDICTIONARY
360
C97
102
}
102
{ACAD_REACTORS
330
C37
102
}
330
C37
100
AcDbVisualStyle
  2
3dWireframe
 70
     5
 71
     0
 72
     2
 73
     0
 90
        0
 40
-0.6
 41
-30.0
 62
     5
 63
     7
 74
     1
 91
        4
 64
     7
 65
   257
 75
     1
175
     1
 42
1.0
 92
        0
 66
   257
 43
1.0
 76
     1
 77
     6
 78
     2
 67
     7
 79
     5
170
     0
171
     0
290
     0
174
     0
 93
        1
 44
0.0
173
     0
291
     0
 45
0.0
1001
ACAD
1000
AcDbSavedByObjectVersion
1070
     0
  0
VISUALSTYLE
  5
C3C
102
{ACAD_XDICTIONARY
360
C93
102
}
102
{ACAD_REACTORS
330
C37
102
}
330
C37
100
AcDbVisualStyle
  2
Basic
 70
     7
 71
     1
 72
     0
 73
     1
 90
        0
 40
-0.6
 41
-30.0
 62
     5
 63
     7
 74
     0
 91
        4
 64
     7
 65
   257
 75
     1
175
     1
 42
1.0
 92
        8
 66
     7
 43
1.0
 76
     1
 77
     6
 78
     2
 67
     7
 79
     5
170
     0
171
     0
290
     0
174
     0
 93
        1
 44
0.0
173
     0
291
     1
 45
0.0
1001
ACAD
1000
AcDbSavedByObjectVersion
1070
     0
  0
VISUALSTYLE
  5
C43
102
{ACAD_XDICTIONARY
360
CA1
102
}
102
{ACAD_REACTORS
330
C37
102
}
330
C37
100
AcDbVisualStyle
  2
Brighten
 70
    12
 71
     2
 72
     2
 73
     0
 90
        0
 40
-0.6
 41
-30.0
 62
     5
 63
     7
 74
     1
 91
        4
 64
     7
 65
   257
 75
     1
175
     1
 42
1.0
 92
        8
 66
     7
 43
1.0
 76
     1
 77
     6
 78
     2
 67
     7
 79
     5
170
     0
171
     0
290
     0
174
     0
 93
        1
 44
50.0
173
     0
291
     1
 45
0.0
1001
ACAD
1000
AcDbSavedByObjectVersion
1070
     0
  0
VISUALSTYLE
  5
C47
102
{ACAD_XDICTIONARY
360
CA9
102
}
102
{ACAD_REACTORS
330
C37
102
}
330
C37
100
AcDbVisualStyle
  2
ColorChange
 70
    16
 71
     2
 72
     2
 73
     3
 90
        0
 40
-0.6
 41
-30.0
 62
     5
 63
     8
 74
     1
 91
        4
 64
     7
 65
   257
 75
     1
175
     1
 42
1.0
 92
        8
 66
     8
 43
1.0
 76
     1
 77
     6
 78
     2
 67
     7
 79
     5
170
     0
171
     0
290
     0
174
     0
 93
        1
 44
0.0
173
     0
291
     1
 45
0.0
1001
ACAD
1000
AcDbSavedByObjectVersion
1070
     0
  0
VISUALSTYLE
  5
C40
102
{ACAD_XDICTIONARY
360
C9B
102
}
102
{ACAD_REACTORS
330
C37
102
}
330
C37
100
AcDbVisualStyle
  2
Conceptual
 70
     9
 71
     3
 72
     2
 73
     0
 90
        0
 40
-0.6
 41
-30.0
 62
     5
 63
     7
 74
     2
 91
        2
 64
     7
 65
   257
 75
     1
175
     1
 42
179.0
 92
        8
 66
     7
 43
1.0
 76
     1
 77
     6
 78
     2
 67
     7
 79
     3
170
     0
171
     0
290
     0
174
     0
 93
        1
 44
0.0
173
     0
291
     0
 45
0.0
1001
ACAD
1000
AcDbSavedByObjectVersion
1070
     0
  0
VISUALSTYLE
  5
C42
102
{ACAD_XDICTIONARY
360
C9F
102
}
102
{ACAD_REACTORS
330
C37
102
}
330
C37
100
AcDbVisualStyle
  2
Dim
 70
    11
 71
     2
 72
     2
 73
     0
 90
        0
 40
-0.6
 41
-30.0
 62
     5
 63
     7
 74
     1
 91
        4
 64
     7
 65
   257
 75
     1
175
     1
 42
1.0
 92
        8
 66
     7
 43
1.0
 76
     1
 77
     6
 78
     2
 67
     7
 79
     5
170
     0
171
     0
290
     0
174
     0
 93
        1
 44
-50.0
173
     0
291
     1
 45
0.0
1001
ACAD
1000
AcDbSavedByObjectVersion
1070
     0
  0
VISUALSTYLE
  5
C4A
102
{ACAD_XDICTIONARY
360
CAF
102
}
102
{ACAD_REACTORS
330
C37
102
}
330
C37
100
AcDbVisualStyle
  2
EdgeColorOff
 70
    22
 71
     2
 72
     2
 73
     0
 90
        0
 40
-0.6
 41
-30.0
 62
     5
 63
     7
 74
     1
 91
        4
 64
     7
 65
   257
 75
     1
175
     1
 42
1.0
 92
        8
 66
     7
 43
1.0
 76
     1
 77
     6
 78
     2
 67
     7
 79
     5
170
     0
171
     0
290
     0
174
     0
 93
        1
 44
0.0
173
     0
291
     1
 45
0.0
1001
ACAD
1000
AcDbSavedByObjectVersion
1070
     0
  0
VISUALSTYLE
  5
C46
102
{ACAD_XDICTIONARY
360
CA7
102
}
102
{ACAD_REACTORS
330
C37
102
}
330
C37
100
AcDbVisualStyle
  2
Facepattern
 70
    15
 71
     2
 72
     2
 73
     0
 90
        0
 40
-0.6
 41
-30.0
 62
     5
 63
     7
 74
     1
 91
        4
 64
     7
 65
   257
 75
     1
175
     1
 42
1.0
 92
        8
 66
     7
 43
1.0
 76
     1
 77
     6
 78
     2
 67
     7
 79
     5
170
     0
171
     0
290
     0
174
     0
 93
        1
 44
0.0
173
     0
291
     1
 45
0.0
1001
ACAD
1000
AcDbSavedByObjectVersion
1070
     0
  0
VISUALSTYLE
  5
C38
102
{ACAD_XDICTIONARY
360
C8B
102
}
102
{ACAD_REACTORS
330
C37
102
}
330
C37
100
AcDbVisualStyle
  2
Flat
 70
     0
 71
     2
 72
     1
 73
     1
 90
        2
 40
-0.6
 41
30.0
 62
     5
 63
     7
 74
     0
 91
        4
 64
     7
 65
   257
 75
     1
175
     1
 42
1.0
 92
        8
 66
     7
 43
1.0
 76
     1
 77
     6
 78
     2
 67
     7
 79
     5
170
     0
171
     0
290
     0
174
     0
 93
       13
 44
0.0
173
     0
291
     1
 45
0.0
1001
ACAD
1000
AcDbSavedByObjectVersion
1070
     0
  0
VISUALSTYLE
  5
C39
102
{ACAD_XDICTIONARY
360
C8D
102
}
102
{ACAD_REACTORS
330
C37
102
}
330
C37
100
AcDbVisualStyle
  2
FlatWithEdges
 70
     1
 71
     2
 72
     1
 73
     1
 90
        2
 40
-0.6
 41
30.0
 62
     5
 63
     7
 74
     1
 91
        4
 64
     7
 65
   257
 75
     1
175
     1
 42
1.0
 92
        0
 66
   257
 43
1.0
 76
     1
 77
     6
 78
     2
 67
     7
 79
     5
170
     0
171
     0
290
     0
174
     0
 93
       13
 44
0.0
173
     0
291
     1
 45
0.0
1001
ACAD
1000
AcDbSavedByObjectVersion
1070
     0
  0
VISUALSTYLE
  5
C3A
102
{ACAD_XDICTIONARY
360
C8F
102
}
102
{ACAD_REACTORS
330
C37
102
}
330
C37
100
AcDbVisualStyle
  2
Gouraud
 70
     2
 71
     2
 72
     2
 73
     1
 90
        2
 40
-0.6
 41
30.0
 62
     5
 63
     7
 74
     0
 91
        4
 64
     7
 65
   257
 75
     1
175
     1
 42
1.0
 92
        0
 66
     7
 43
1.0
 76
     1
 77
     6
 78
     2
 67
     7
 79
     5
170
     0
171
     0
290
     0
174
     0
 93
       13
 44
0.0
173
     0
291
     1
 45
0.0
1001
ACAD
1000
AcDbSavedByObjectVersion
1070
     0
  0
VISUALSTYLE
  5
C3B
102
{ACAD_XDICTIONARY
360
C91
102
}
102
{ACAD_REACTORS
330
C37
102
}
330
C37
100
AcDbVisualStyle
  2
GouraudWithEdges
 70
     3
 71
     2
 72
     2
 73
     1
 90
        2
 40
-0.6
 41
30.0
 62
     5
 63
     7
 74
     1
 91
        4
 64
     7
 65
   257
 75
     1
175
     1
 42
1.0
 92
        0
 66
   257
 43
1.0
 76
     1
 77
     6
 78
     2
 67
     7
 79
     5
170
     0
171
     0
290
     0
174
     0
 93
       13
 44
0.0
173
     0
291
     1
 45
0.0
1001
ACAD
1000
AcDbSavedByObjectVersion
1070
     0
  0
VISUALSTYLE
  5
C48
102
{ACAD_XDICTIONARY
360
CAB
102
}
102
{ACAD_REACTORS
330
C37
102
}
330
C37
100
AcDbVisualStyle
  2
JitterOff
 70
    20
 71
     2
 72
     2
 73
     0
 90
        0
 40
-0.6
 41
-30.0
 62
     5
 63
     7
 74
     1
 91
        4
 64
     7
 65
   257
 75
     1
175
     1
 42
1.0
 92
       10
 66
     7
 43
1.0
 76
     1
 77
     6
 78
     2
 67
     7
 79
     5
170
     0
171
     0
290
     0
174
     0
 93
        1
 44
0.0
173
     0
291
     1
 45
0.0
1001
ACAD
1000
AcDbSavedByObjectVersion
1070
     0
  0
VISUALSTYLE
  5
C45
102
{ACAD_XDICTIONARY
360
CA5
102
}
102
{ACAD_REACTORS
330
C37
102
}
330
C37
100
AcDbVisualStyle
  2
Linepattern
 70
    14
 71
     2
 72
     2
 73
     0
 90
        0
 40
-0.6
 41
-30.0
 62
     5
 63
     7
 74
     1
 91
        4
 64
     7
 65
   257
 75
     7
175
     7
 42
1.0
 92
        8
 66
     7
 43
1.0
 76
     1
 77
     6
 78
     2
 67
     7
 79
     5
170
     0
171
     0
290
     0
174
     0
 93
        1
 44
0.0
173
     0
291
     1
 45
0.0
1001
ACAD
1000
AcDbSavedByObjectVersion
1070
     0
  0
VISUALSTYLE
  5
C49
102
{ACAD_XDICTIONARY
360
CAD
102
}
102
{ACAD_REACTORS
330
C37
102
}
330
C37
100
AcDbVisualStyle
  2
OverhangOff
 70
    21
 71
     2
 72
     2
 73
     0
 90
        0
 40
-0.6
 41
-30.0
 62
     5
 63
     7
 74
     1
 91
        4
 64
     7
 65
   257
 75
     1
175
     1
 42
1.0
 92
        9
 66
     7
 43
1.0
 76
     1
 77
     6
 78
     2
 67
     7
 79
     5
170
     0
171
     0
290
     0
174
     0
 93
        1
 44
0.0
173
     0
291
     1
 45
0.0
1001
ACAD
1000
AcDbSavedByObjectVersion
1070
     0
  0
VISUALSTYLE
  5
C41
102
{ACAD_XDICTIONARY
360
C9D
102
}
102
{ACAD_REACTORS
330
C37
102
}
330
C37
100
AcDbVisualStyle
  2
Realistic
 70
     8
 71
     2
 72
     2
 73
     0
 90
        0
 40
-0.6
 41
-30.0
 62
     5
 63
     7
 74
     1
 91
        0
 64
     7
 65
   257
 75
     1
175
     1
 42
1.0
 92
        8
 66
     8
 43
1.0
 76
     1
 77
     6
 78
     2
 67
     7
 79
     5
170
     0
171
     0
290
     0
174
     0
 93
       13
 44
0.0
173
     0
291
     0
 45
0.0
1001
ACAD
1000
AcDbSavedByObjectVersion
1070
     0
  0
VISUALSTYLE
  5
C44
102
{ACAD_XDICTIONARY
360
CA3
102
}
102
{ACAD_REACTORS
330
C37
102
}
330
C37
100
AcDbVisualStyle
  2
Thicken
 70
    13
 71
     2
 72
     2
 73
     0
 90
        0
 40
-0.6
 41
-30.0
 62
     5
 63
     7
 74
     1
 91
        4
 64
     7
 65
   257
 75
     1
175
     1
 42
1.0
 92
       12
 66
     7
 43
1.0
 76
     1
 77
     6
 78
     2
 67
     7
 79
     5
170
     0
171
     0
290
     0
174
     0
 93
        1
 44
0.0
173
     0
291
     1
 45
0.0
1001
ACAD
1000
AcDbSavedByObjectVersion
1070
     0
  0
DICTIONARYVAR
  5
C7C
102
{ACAD_REACTORS
330
C13
102
}
330
C13
100
DictionaryVariables
280
     0
  1
1:1
  0
DICTIONARYVAR
  5
C7B
102
{ACAD_REACTORS
330
C13
102
}
330
C13
100
DictionaryVariables
280
     0
  1
STANDARD
  0
DICTIONARYVAR
  5
C7A
102
{ACAD_REACTORS
330
C13
102
}
330
C13
100
DictionaryVariables
280
     0
  1
STANDARD
  0
DICTIONARYVAR
  5
C14
102
{ACAD_REACTORS
330
C13
102
}
330
C13
100
DictionaryVariables
280
     0
  1
1
  0
DICTIONARYVAR
  5
C7E
102
{ACAD_REACTORS
330
C13
102
}
330
C13
100
DictionaryVariables
280
     0
  1
0
  0
DICTIONARYVAR
  5
C7D
102
{ACAD_REACTORS
330
C13
102
}
330
C13
100
DictionaryVariables
280
     0
  1
127
  0
DICTIONARYVAR
  5
C7F
102
{ACAD_REACTORS
330
C13
102
}
330
C13
100
DictionaryVariables
280
     0
  1
2
  0
XRECORD
  5
C11
102
{ACAD_REACTORS
330
C0F
102
}
330
C0F
100
AcDbXrecord
280
     1
330
8F
330
93
330
98
330
9C
330
A0
330
A4
330
A8
330
AC
330
B0
330
B4
330
B8
330
BC
330
C0
330
C5
330
C9
  0
DICTIONARY
  5
C86
330
BEC
100
AcDbDictionary
280
     1
281
     1
  3
ACAD_XREC_ROUNDTRIP
360
C87
  0
DICTIONARY
  5
C84
330
BEB
100
AcDbDictionary
280
     1
281
     1
  3
ACAD_XREC_ROUNDTRIP
360
C85
  0
DICTIONARY
  5
C28
330
C27
100
AcDbDictionary
280
     1
281
     1
  3
ACAD_XREC_ROUNDTRIP
360
C89
  3
BUMPTILE
360
C2A
  3
DIFFUSETILE
360
C29
  3
OPACITYTILE
360
C2D
  3
REFLECTIONTILE
360
C2C
  3
REFRACTIONTILE
360
C2E
  3
SPECULARTILE
360
C2B
  0
DICTIONARY
  5
C20
330
C1F
100
AcDbDictionary
280
     1
281
     1
  3
ACAD_XREC_ROUNDTRIP
360
C88
  3
BUMPTILE
360
C22
  3
DIFFUSETILE
360
C21
  3
OPACITYTILE
360
C25
  3
REFLECTIONTILE
360
C24
  3
REFRACTIONTILE
360
C26
  3
SPECULARTILE
360
C23
  0
DICTIONARY
  5
C30
330
C2F
100
AcDbDictionary
280
     1
281
     1
  3
ACAD_XREC_ROUNDTRIP
360
C8A
  3
BUMPTILE
360
C32
  3
DIFFUSETILE
360
C31
  3
OPACITYTILE
360
C35
  3
REFLECTIONTILE
360
C34
  3
REFRACTIONTILE
360
C36
  3
SPECULARTILE
360
C33
  0
DICTIONARY
  5
C80
330
C4D
100
AcDbDictionary
280
     1
281
     1
  3
ACAD_ROUNDTRIP_2008_TABLESTYLE_CELLSTYLEMAP
360
C81
  3
ACAD_XREC_ROUNDTRIP
360
CB1
  0
DICTIONARY
  5
C95
330
C3D
100
AcDbDictionary
280
     1
281
     1
  3
ACAD_XREC_ROUNDTRIP
360
C96
  0
DICTIONARY
  5
C99
330
C3F
100
AcDbDictionary
280
     1
281
     1
  3
ACAD_XREC_ROUNDTRIP
360
C9A
  0
DICTIONARY
  5
C97
330
C3E
100
AcDbDictionary
280
     1
281
     1
  3
ACAD_XREC_ROUNDTRIP
360
C98
  0
DICTIONARY
  5
C93
330
C3C
100
AcDbDictionary
280
     1
281
     1
  3
ACAD_XREC_ROUNDTRIP
360
C94
  0
DICTIONARY
  5
CA1
330
C43
100
AcDbDictionary
280
     1
281
     1
  3
ACAD_XREC_ROUNDTRIP
360
CA2
  0
DICTIONARY
  5
CA9
330
C47
100
AcDbDictionary
280
     1
281
     1
  3
ACAD_XREC_ROUNDTRIP
360
CAA
  0
DICTIONARY
  5
C9B
330
C40
100
AcDbDictionary
280
     1
281
     1
  3
ACAD_XREC_ROUNDTRIP
360
C9C
  0
DICTIONARY
  5
C9F
330
C42
100
AcDbDictionary
280
     1
281
     1
  3
ACAD_XREC_ROUNDTRIP
360
CA0
  0
DICTIONARY
  5
CAF
330
C4A
100
AcDbDictionary
280
     1
281
     1
  3
ACAD_XREC_ROUNDTRIP
360
CB0
  0
DICTIONARY
  5
CA7
330
C46
100
AcDbDictionary
280
     1
281
     1
  3
ACAD_XREC_ROUNDTRIP
360
CA8
  0
DICTIONARY
  5
C8B
330
C38
100
AcDbDictionary
280
     1
281
     1
  3
ACAD_XREC_ROUNDTRIP
360
C8C
  0
DICTIONARY
  5
C8D
330
C39
100
AcDbDictionary
280
     1
281
     1
  3
ACAD_XREC_ROUNDTRIP
360
C8E
  0
DICTIONARY
  5
C8F
330
C3A
100
AcDbDictionary
280
     1
281
     1
  3
ACAD_XREC_ROUNDTRIP
360
C90
  0
DICTIONARY
  5
C91
330
C3B
100
AcDbDictionary
280
     1
281
     1
  3
ACAD_XREC_ROUNDTRIP
360
C92
  0
DICTIONARY
  5
CAB
330
C48
100
AcDbDictionary
280
     1
281
     1
  3
ACAD_XREC_ROUNDTRIP
360
CAC
  0
DICTIONARY
  5
CA5
330
C45
100
AcDbDictionary
280
     1
281
     1
  3
ACAD_XREC_ROUNDTRIP
360
CA6
  0
DICTIONARY
  5
CAD
330
C49
100
AcDbDictionary
280
     1
281
     1
  3
ACAD_XREC_ROUNDTRIP
360
CAE
  0
DICTIONARY
  5
C9D
330
C41
100
AcDbDictionary
280
     1
281
     1
  3
ACAD_XREC_ROUNDTRIP
360
C9E
  0
DICTIONARY
  5
CA3
330
C44
100
AcDbDictionary
280
     1
281
     1
  3
ACAD_XREC_ROUNDTRIP
360
CA4
  0
XRECORD
  5
C87
102
{ACAD_REACTORS
330
C86
102
}
330
C86
100
AcDbXrecord
280
     1
102
SHADEPLOT
 70
     0
102
SHADEPLOTRESLEVEL
 70
     2
102
SHADEPLOTCUSTOMDPI
 70
   300
  0
XRECORD
  5
C85
102
{ACAD_REACTORS
330
C84
102
}
330
C84
100
AcDbXrecord
280
     1
102
SHADEPLOT
 70
     0
102
SHADEPLOTRESLEVEL
 70
     2
102
SHADEPLOTCUSTOMDPI
 70
   300
  0
XRECORD
  5
C89
102
{ACAD_REACTORS
330
C28
102
}
330
C28
100
AcDbXrecord
280
     1
102
MATERIAL
148
0.0
149
0.0
149
0.0
 93
        0
 94
      127
282
     0
 72
     0
 77
     0
171
     0
175
     0
179
     0
273
     0
  0
XRECORD
  5
C2A
102
{ACAD_REACTORS
330
C28
102
}
330
C28
100
AcDbXrecord
280
     1
270
     1
271
     1
  0
XRECORD
  5
C29
102
{ACAD_REACTORS
330
C28
102
}
330
C28
100
AcDbXrecord
280
     1
270
     1
271
     1
  0
XRECORD
  5
C2D
102
{ACAD_REACTORS
330
C28
102
}
330
C28
100
AcDbXrecord
280
     1
270
     1
271
     1
  0
XRECORD
  5
C2C
102
{ACAD_REACTORS
330
C28
102
}
330
C28
100
AcDbXrecord
280
     1
270
     1
271
     1
  0
XRECORD
  5
C2E
102
{ACAD_REACTORS
330
C28
102
}
330
C28
100
AcDbXrecord
280
     1
270
     1
271
     1
  0
XRECORD
  5
C2B
102
{ACAD_REACTORS
330
C28
102
}
330
C28
100
AcDbXrecord
280
     1
270
     1
271
     1
  0
XRECORD
  5
C88
102
{ACAD_REACTORS
330
C20
102
}
330
C20
100
AcDbXrecord
280
     1
102
MATERIAL
148
0.0
149
0.0
149
0.0
 93
        0
 94
      127
282
     0
 72
     0
 77
     0
171
     0
175
     0
179
     0
273
     0
  0
XRECORD
  5
C22
102
{ACAD_REACTORS
330
C20
102
}
330
C20
100
AcDbXrecord
280
     1
270
     1
271
     1
  0
XRECORD
  5
C21
102
{ACAD_REACTORS
330
C20
102
}
330
C20
100
AcDbXrecord
280
     1
270
     1
271
     1
  0
XRECORD
  5
C25
102
{ACAD_REACTORS
330
C20
102
}
330
C20
100
AcDbXrecord
280
     1
270
     1
271
     1
  0
XRECORD
  5
C24
102
{ACAD_REACTORS
330
C20
102
}
330
C20
100
AcDbXrecord
280
     1
270
     1
271
     1
  0
XRECORD
  5
C26
102
{ACAD_REACTORS
330
C20
102
}
330
C20
100
AcDbXrecord
280
     1
270
     1
271
     1
  0
XRECORD
  5
C23
102
{ACAD_REACTORS
330
C20
102
}
330
C20
100
AcDbXrecord
280
     1
270
     1
271
     1
  0
XRECORD
  5
C8A
102
{ACAD_REACTORS
330
C30
102
}
330
C30
100
AcDbXrecord
280
     1
102
MATERIAL
148
0.0
149
0.0
149
0.0
 93
        0
 94
      127
282
     0
 72
     0
 77
     0
171
     0
175
     0
179
     0
273
     0
  0
XRECORD
  5
C32
102
{ACAD_REACTORS
330
C30
102
}
330
C30
100
AcDbXrecord
280
     1
270
     1
271
     1
  0
XRECORD
  5
C31
102
{ACAD_REACTORS
330
C30
102
}
330
C30
100
AcDbXrecord
280
     1
270
     1
271
     1
  0
XRECORD
  5
C35
102
{ACAD_REACTORS
330
C30
102
}
330
C30
100
AcDbXrecord
280
     1
270
     1
271
     1
  0
XRECORD
  5
C34
102
{ACAD_REACTORS
330
C30
102
}
330
C30
100
AcDbXrecord
280
     1
270
     1
271
     1
  0
XRECORD
  5
C36
102
{ACAD_REACTORS
330
C30
102
}
330
C30
100
AcDbXrecord
280
     1
270
     1
271
     1
  0
XRECORD
  5
C33
102
{ACAD_REACTORS
330
C30
102
}
330
C30
100
AcDbXrecord
280
     1
270
     1
271
     1
  0
CELLSTYLEMAP
  5
C81
102
{ACAD_REACTORS
330
C80
102
}
330
C80
100
AcDbCellStyleMap
 90
        3
300
CELLSTYLE
  1
TABLEFORMAT_BEGIN
 90
        5
170
     1
 91
        0
 92
    32768
 62
   257
 93
        1
300
CONTENTFORMAT
  1
CONTENTFORMAT_BEGIN
 90
        0
 91
        0
 92
      512
 93
        0
300

 40
0.0
140
1.0
 94
        5
 62
     0
340
17
144
0.25
309
CONTENTFORMAT_END
171
     0
 94
        0
309
TABLEFORMAT_END
  1
CELLSTYLE_BEGIN
 90
        1
 91
        1
300
_TITLE
309
CELLSTYLE_END
300
CELLSTYLE
  1
TABLEFORMAT_BEGIN
 90
        5
170
     1
 91
        0
 92
        0
 62
   257
 93
        1
300
CONTENTFORMAT
  1
CONTENTFORMAT_BEGIN
 90
        0
 91
        0
 92
      512
 93
        0
300

 40
0.0
140
1.0
 94
        5
 62
     0
340
17
144
0.18
309
CONTENTFORMAT_END
171
     0
 94
        0
309
TABLEFORMAT_END
  1
CELLSTYLE_BEGIN
 90
        2
 91
        1
300
_HEADER
309
CELLSTYLE_END
300
CELLSTYLE
  1
TABLEFORMAT_BEGIN
 90
        5
170
     1
 91
        0
 92
        0
 62
   257
 93
        1
300
CONTENTFORMAT
  1
CONTENTFORMAT_BEGIN
 90
        0
 91
        0
 92
      512
 93
        0
300

 40
0.0
140
1.0
 94
        2
 62
     0
340
17
144
0.18
309
CONTENTFORMAT_END
171
     0
 94
        0
309
TABLEFORMAT_END
  1
CELLSTYLE_BEGIN
 90
        3
 91
        2
300
_DATA
309
CELLSTYLE_END
  0
XRECORD
  5
CB1
102
{ACAD_REACTORS
330
C80
102
}
330
C80
100
AcDbXrecord
280
     1
102
ACAD_ROUNDTRIP_PRE2007_TABLESTYLE
 90
      512
 91
        0
  1

 92
      512
 93
        0
  2

 94
      512
 95
        0
  3

  0
XRECORD
  5
C96
102
{ACAD_REACTORS
330
C95
102
}
330
C95
100
AcDbXrecord
280
     1
102
RTVSPropertyOp0
 70
     1
102
RTVSPropertyOp1
 70
     1
102
RTVSPropertyOp2
 70
     1
102
RTVSPropertyOp3
 70
     1
102
RTVSPropertyOp4
 70
     1
102
RTVSPropertyOp5
 70
     1
102
RTVSPropertyOp6
 70
     1
102
RTVSPropertyOp7
 70
     1
102
RTVSPropertyOp8
 70
     1
102
RTVSPropertyOp9
 70
     1
102
RTVSPropertyOp10
 70
     1
102
RTVSPropertyOp11
 70
     1
102
RTVSPropertyOp12
 70
     1
102
RTVSPropertyOp13
 70
     1
102
RTVSPropertyOp14
 70
     1
102
RTVSPropertyOp15
 70
     1
102
RTVSPropertyOp16
 70
     1
102
RTVSPropertyOp17
 70
     1
102
RTVSPropertyOp18
 70
     1
102
RTVSPropertyOp19
 70
     1
102
RTVSPropertyOp20
 70
     1
102
RTVSPropertyOp21
 70
     1
102
RTVSPropertyOp22
 70
     1
102
RTVSPropertyOp23
 70
     1
102
RTVSPropertyOp24
 70
     1
102
RTVSPropertyOp25
 70
     1
102
RTVSPropertyOp26
 70
     1
102
RTVSPropertyOp27
 70
     1
  0
XRECORD
  5
C9A
102
{ACAD_REACTORS
330
C99
102
}
330
C99
100
AcDbXrecord
280
     1
102
RTVSPropertyOp0
 70
     1
102
RTVSPropertyOp1
 70
     1
102
RTVSPropertyOp2
 70
     1
102
RTVSPropertyOp3
 70
     1
102
RTVSPropertyOp4
 70
     1
102
RTVSPropertyOp5
 70
     1
102
RTVSPropertyOp6
 70
     1
102
RTVSPropertyOp7
 70
     1
102
RTVSPropertyOp8
 70
     1
102
RTVSPropertyOp9
 70
     1
102
RTVSPropertyOp10
 70
     1
102
RTVSPropertyOp11
 70
     1
102
RTVSPropertyOp12
 70
     1
102
RTVSPropertyOp13
 70
     1
102
RTVSPropertyOp14
 70
     1
102
RTVSPropertyOp15
 70
     1
102
RTVSPropertyOp16
 70
     1
102
RTVSPropertyOp17
 70
     1
102
RTVSPropertyOp18
 70
     1
102
RTVSPropertyOp19
 70
     1
102
RTVSPropertyOp20
 70
     1
102
RTVSPropertyOp21
 70
     1
102
RTVSPropertyOp22
 70
     1
102
RTVSPropertyOp23
 70
     1
102
RTVSPropertyOp24
 70
     1
102
RTVSPropertyOp25
 70
     1
102
RTVSPropertyOp26
 70
     1
102
RTVSPropertyOp27
 70
     1
  0
XRECORD
  5
C98
102
{ACAD_REACTORS
330
C97
102
}
330
C97
100
AcDbXrecord
280
     1
102
RTVSPropertyOp0
 70
     1
102
RTVSPropertyOp1
 70
     1
102
RTVSPropertyOp2
 70
     1
102
RTVSPropertyOp3
 70
     1
102
RTVSPropertyOp4
 70
     1
102
RTVSPropertyOp5
 70
     1
102
RTVSPropertyOp6
 70
     1
102
RTVSPropertyOp7
 70
     1
102
RTVSPropertyOp8
 70
     1
102
RTVSPropertyOp9
 70
     1
102
RTVSPropertyOp10
 70
     1
102
RTVSPropertyOp11
 70
     1
102
RTVSPropertyOp12
 70
     1
102
RTVSPropertyOp13
 70
     1
102
RTVSPropertyOp14
 70
     1
102
RTVSPropertyOp15
 70
     1
102
RTVSPropertyOp16
 70
     1
102
RTVSPropertyOp17
 70
     1
102
RTVSPropertyOp18
 70
     1
102
RTVSPropertyOp19
 70
     1
102
RTVSPropertyOp20
 70
     1
102
RTVSPropertyOp21
 70
     1
102
RTVSPropertyOp22
 70
     1
102
RTVSPropertyOp23
 70
     1
102
RTVSPropertyOp24
 70
     1
102
RTVSPropertyOp25
 70
     1
102
RTVSPropertyOp26
 70
     1
102
RTVSPropertyOp27
 70
     1
  0
XRECORD
  5
C94
102
{ACAD_REACTORS
330
C93
102
}
330
C93
100
AcDbXrecord
280
     1
102
RTVSPropertyOp0
 70
     1
102
RTVSPropertyOp1
 70
     1
102
RTVSPropertyOp2
 70
     1
102
RTVSPropertyOp3
 70
     1
102
RTVSPropertyOp4
 70
     1
102
RTVSPropertyOp5
 70
     1
102
RTVSPropertyOp6
 70
     1
102
RTVSPropertyOp7
 70
     1
102
RTVSPropertyOp8
 70
     1
102
RTVSPropertyOp9
 70
     1
102
RTVSPropertyOp10
 70
     1
102
RTVSPropertyOp11
 70
     1
102
RTVSPropertyOp12
 70
     1
102
RTVSPropertyOp13
 70
     1
102
RTVSPropertyOp14
 70
     1
102
RTVSPropertyOp15
 70
     1
102
RTVSPropertyOp16
 70
     1
102
RTVSPropertyOp17
 70
     1
102
RTVSPropertyOp18
 70
     1
102
RTVSPropertyOp19
 70
     1
102
RTVSPropertyOp20
 70
     1
102
RTVSPropertyOp21
 70
     1
102
RTVSPropertyOp22
 70
     1
102
RTVSPropertyOp23
 70
     1
102
RTVSPropertyOp24
 70
     1
102
RTVSPropertyOp25
 70
     1
102
RTVSPropertyOp26
 70
     1
102
RTVSPropertyOp27
 70
     1
  0
XRECORD
  5
CA2
102
{ACAD_REACTORS
330
CA1
102
}
330
CA1
100
AcDbXrecord
280
     1
102
RTVSPropertyOp0
 70
     1
102
RTVSPropertyOp1
 70
     1
102
RTVSPropertyOp2
 70
     1
102
RTVSPropertyOp3
 70
     1
102
RTVSPropertyOp4
 70
     1
102
RTVSPropertyOp5
 70
     1
102
RTVSPropertyOp6
 70
     1
102
RTVSPropertyOp7
 70
     1
102
RTVSPropertyOp8
 70
     1
102
RTVSPropertyOp9
 70
     1
102
RTVSPropertyOp10
 70
     1
102
RTVSPropertyOp11
 70
     1
102
RTVSPropertyOp12
 70
     1
102
RTVSPropertyOp13
 70
     1
102
RTVSPropertyOp14
 70
     1
102
RTVSPropertyOp15
 70
     1
102
RTVSPropertyOp16
 70
     1
102
RTVSPropertyOp17
 70
     1
102
RTVSPropertyOp18
 70
     1
102
RTVSPropertyOp19
 70
     1
102
RTVSPropertyOp20
 70
     1
102
RTVSPropertyOp21
 70
     1
102
RTVSPropertyOp22
 70
     1
102
RTVSPropertyOp23
 70
     1
102
RTVSPropertyOp24
 70
     1
102
RTVSPropertyOp25
 70
     1
102
RTVSPropertyOp26
 70
     1
102
RTVSPropertyOp27
 70
     1
  0
XRECORD
  5
CAA
102
{ACAD_REACTORS
330
CA9
102
}
330
CA9
100
AcDbXrecord
280
     1
102
RTVSPropertyOp0
 70
     1
102
RTVSPropertyOp1
 70
     1
102
RTVSPropertyOp2
 70
     1
102
RTVSPropertyOp3
 70
     1
102
RTVSPropertyOp4
 70
     1
102
RTVSPropertyOp5
 70
     1
102
RTVSPropertyOp6
 70
     1
102
RTVSPropertyOp7
 70
     1
102
RTVSPropertyOp8
 70
     1
102
RTVSPropertyOp9
 70
     1
102
RTVSPropertyOp10
 70
     1
102
RTVSPropertyOp11
 70
     1
102
RTVSPropertyOp12
 70
     1
102
RTVSPropertyOp13
 70
     1
102
RTVSPropertyOp14
 70
     1
102
RTVSPropertyOp15
 70
     1
102
RTVSPropertyOp16
 70
     1
102
RTVSPropertyOp17
 70
     1
102
RTVSPropertyOp18
 70
     1
102
RTVSPropertyOp19
 70
     1
102
RTVSPropertyOp20
 70
     1
102
RTVSPropertyOp21
 70
     1
102
RTVSPropertyOp22
 70
     1
102
RTVSPropertyOp23
 70
     1
102
RTVSPropertyOp24
 70
     1
102
RTVSPropertyOp25
 70
     1
102
RTVSPropertyOp26
 70
     1
102
RTVSPropertyOp27
 70
     1
  0
XRECORD
  5
C9C
102
{ACAD_REACTORS
330
C9B
102
}
330
C9B
100
AcDbXrecord
280
     1
102
RTVSPropertyOp0
 70
     1
102
RTVSPropertyOp1
 70
     1
102
RTVSPropertyOp2
 70
     1
102
RTVSPropertyOp3
 70
     1
102
RTVSPropertyOp4
 70
     1
102
RTVSPropertyOp5
 70
     1
102
RTVSPropertyOp6
 70
     1
102
RTVSPropertyOp7
 70
     1
102
RTVSPropertyOp8
 70
     1
102
RTVSPropertyOp9
 70
     1
102
RTVSPropertyOp10
 70
     1
102
RTVSPropertyOp11
 70
     1
102
RTVSPropertyOp12
 70
     1
102
RTVSPropertyOp13
 70
     1
102
RTVSPropertyOp14
 70
     1
102
RTVSPropertyOp15
 70
     1
102
RTVSPropertyOp16
 70
     1
102
RTVSPropertyOp17
 70
     1
102
RTVSPropertyOp18
 70
     1
102
RTVSPropertyOp19
 70
     1
102
RTVSPropertyOp20
 70
     1
102
RTVSPropertyOp21
 70
     1
102
RTVSPropertyOp22
 70
     1
102
RTVSPropertyOp23
 70
     1
102
RTVSPropertyOp24
 70
     1
102
RTVSPropertyOp25
 70
     1
102
RTVSPropertyOp26
 70
     1
102
RTVSPropertyOp27
 70
     1
  0
XRECORD
  5
CA0
102
{ACAD_REACTORS
330
C9F
102
}
330
C9F
100
AcDbXrecord
280
     1
102
RTVSPropertyOp0
 70
     1
102
RTVSPropertyOp1
 70
     1
102
RTVSPropertyOp2
 70
     1
102
RTVSPropertyOp3
 70
     1
102
RTVSPropertyOp4
 70
     1
102
RTVSPropertyOp5
 70
     1
102
RTVSPropertyOp6
 70
     1
102
RTVSPropertyOp7
 70
     1
102
RTVSPropertyOp8
 70
     1
102
RTVSPropertyOp9
 70
     1
102
RTVSPropertyOp10
 70
     1
102
RTVSPropertyOp11
 70
     1
102
RTVSPropertyOp12
 70
     1
102
RTVSPropertyOp13
 70
     1
102
RTVSPropertyOp14
 70
     1
102
RTVSPropertyOp15
 70
     1
102
RTVSPropertyOp16
 70
     1
102
RTVSPropertyOp17
 70
     1
102
RTVSPropertyOp18
 70
     1
102
RTVSPropertyOp19
 70
     1
102
RTVSPropertyOp20
 70
     1
102
RTVSPropertyOp21
 70
     1
102
RTVSPropertyOp22
 70
     1
102
RTVSPropertyOp23
 70
     1
102
RTVSPropertyOp24
 70
     1
102
RTVSPropertyOp25
 70
     1
102
RTVSPropertyOp26
 70
     1
102
RTVSPropertyOp27
 70
     1
  0
XRECORD
  5
CB0
102
{ACAD_REACTORS
330
CAF
102
}
330
CAF
100
AcDbXrecord
280
     1
102
RTVSPropertyOp0
 70
     0
102
RTVSPropertyOp1
 70
     0
102
RTVSPropertyOp2
 70
     0
102
RTVSPropertyOp3
 70
     0
102
RTVSPropertyOp4
 70
     0
102
RTVSPropertyOp5
 70
     0
102
RTVSPropertyOp6
 70
     0
102
RTVSPropertyOp7
 70
     0
102
RTVSPropertyOp8
 70
     0
102
RTVSPropertyOp9
 70
     0
102
RTVSPropertyOp10
 70
     0
102
RTVSPropertyOp11
 70
     0
102
RTVSPropertyOp12
 70
     0
102
RTVSPropertyOp13
 70
     0
102
RTVSPropertyOp14
 70
     2
102
RTVSPropertyOp15
 70
     0
102
RTVSPropertyOp16
 70
     0
102
RTVSPropertyOp17
 70
     0
102
RTVSPropertyOp18
 70
     0
102
RTVSPropertyOp19
 70
     0
102
RTVSPropertyOp20
 70
     0
102
RTVSPropertyOp21
 70
     0
102
RTVSPropertyOp22
 70
     0
102
RTVSPropertyOp23
 70
     0
102
RTVSPropertyOp24
 70
     0
102
RTVSPropertyOp25
 70
     0
102
RTVSPropertyOp26
 70
     0
102
RTVSPropertyOp27
 70
     0
  0
XRECORD
  5
CA8
102
{ACAD_REACTORS
330
CA7
102
}
330
CA7
100
AcDbXrecord
280
     1
102
RTVSPropertyOp0
 70
     1
102
RTVSPropertyOp1
 70
     1
102
RTVSPropertyOp2
 70
     1
102
RTVSPropertyOp3
 70
     1
102
RTVSPropertyOp4
 70
     1
102
RTVSPropertyOp5
 70
     1
102
RTVSPropertyOp6
 70
     1
102
RTVSPropertyOp7
 70
     1
102
RTVSPropertyOp8
 70
     1
102
RTVSPropertyOp9
 70
     1
102
RTVSPropertyOp10
 70
     1
102
RTVSPropertyOp11
 70
     1
102
RTVSPropertyOp12
 70
     1
102
RTVSPropertyOp13
 70
     1
102
RTVSPropertyOp14
 70
     1
102
RTVSPropertyOp15
 70
     1
102
RTVSPropertyOp16
 70
     1
102
RTVSPropertyOp17
 70
     1
102
RTVSPropertyOp18
 70
     1
102
RTVSPropertyOp19
 70
     1
102
RTVSPropertyOp20
 70
     1
102
RTVSPropertyOp21
 70
     1
102
RTVSPropertyOp22
 70
     1
102
RTVSPropertyOp23
 70
     1
102
RTVSPropertyOp24
 70
     1
102
RTVSPropertyOp25
 70
     1
102
RTVSPropertyOp26
 70
     1
102
RTVSPropertyOp27
 70
     1
  0
XRECORD
  5
C8C
102
{ACAD_REACTORS
330
C8B
102
}
330
C8B
100
AcDbXrecord
280
     1
102
RTVSPropertyOp0
 70
     1
102
RTVSPropertyOp1
 70
     1
102
RTVSPropertyOp2
 70
     1
102
RTVSPropertyOp3
 70
     1
102
RTVSPropertyOp4
 70
     1
102
RTVSPropertyOp5
 70
     1
102
RTVSPropertyOp6
 70
     1
102
RTVSPropertyOp7
 70
     1
102
RTVSPropertyOp8
 70
     1
102
RTVSPropertyOp9
 70
     1
102
RTVSPropertyOp10
 70
     1
102
RTVSPropertyOp11
 70
     1
102
RTVSPropertyOp12
 70
     1
102
RTVSPropertyOp13
 70
     1
102
RTVSPropertyOp14
 70
     1
102
RTVSPropertyOp15
 70
     1
102
RTVSPropertyOp16
 70
     1
102
RTVSPropertyOp17
 70
     1
102
RTVSPropertyOp18
 70
     1
102
RTVSPropertyOp19
 70
     1
102
RTVSPropertyOp20
 70
     1
102
RTVSPropertyOp21
 70
     1
102
RTVSPropertyOp22
 70
     1
102
RTVSPropertyOp23
 70
     1
102
RTVSPropertyOp24
 70
     1
102
RTVSPropertyOp25
 70
     1
102
RTVSPropertyOp26
 70
     1
102
RTVSPropertyOp27
 70
     1
  0
XRECORD
  5
C8E
102
{ACAD_REACTORS
330
C8D
102
}
330
C8D
100
AcDbXrecord
280
     1
102
RTVSPropertyOp0
 70
     1
102
RTVSPropertyOp1
 70
     1
102
RTVSPropertyOp2
 70
     1
102
RTVSPropertyOp3
 70
     1
102
RTVSPropertyOp4
 70
     1
102
RTVSPropertyOp5
 70
     1
102
RTVSPropertyOp6
 70
     1
102
RTVSPropertyOp7
 70
     1
102
RTVSPropertyOp8
 70
     1
102
RTVSPropertyOp9
 70
     1
102
RTVSPropertyOp10
 70
     1
102
RTVSPropertyOp11
 70
     1
102
RTVSPropertyOp12
 70
     1
102
RTVSPropertyOp13
 70
     1
102
RTVSPropertyOp14
 70
     1
102
RTVSPropertyOp15
 70
     1
102
RTVSPropertyOp16
 70
     1
102
RTVSPropertyOp17
 70
     1
102
RTVSPropertyOp18
 70
     1
102
RTVSPropertyOp19
 70
     1
102
RTVSPropertyOp20
 70
     1
102
RTVSPropertyOp21
 70
     1
102
RTVSPropertyOp22
 70
     1
102
RTVSPropertyOp23
 70
     1
102
RTVSPropertyOp24
 70
     1
102
RTVSPropertyOp25
 70
     1
102
RTVSPropertyOp26
 70
     1
102
RTVSPropertyOp27
 70
     1
  0
XRECORD
  5
C90
102
{ACAD_REACTORS
330
C8F
102
}
330
C8F
100
AcDbXrecord
280
     1
102
RTVSPropertyOp0
 70
     1
102
RTVSPropertyOp1
 70
     1
102
RTVSPropertyOp2
 70
     1
102
RTVSPropertyOp3
 70
     1
102
RTVSPropertyOp4
 70
     1
102
RTVSPropertyOp5
 70
     1
102
RTVSPropertyOp6
 70
     1
102
RTVSPropertyOp7
 70
     1
102
RTVSPropertyOp8
 70
     1
102
RTVSPropertyOp9
 70
     1
102
RTVSPropertyOp10
 70
     1
102
RTVSPropertyOp11
 70
     1
102
RTVSPropertyOp12
 70
     1
102
RTVSPropertyOp13
 70
     1
102
RTVSPropertyOp14
 70
     1
102
RTVSPropertyOp15
 70
     1
102
RTVSPropertyOp16
 70
     1
102
RTVSPropertyOp17
 70
     1
102
RTVSPropertyOp18
 70
     1
102
RTVSPropertyOp19
 70
     1
102
RTVSPropertyOp20
 70
     1
102
RTVSPropertyOp21
 70
     1
102
RTVSPropertyOp22
 70
     1
102
RTVSPropertyOp23
 70
     1
102
RTVSPropertyOp24
 70
     1
102
RTVSPropertyOp25
 70
     1
102
RTVSPropertyOp26
 70
     1
102
RTVSPropertyOp27
 70
     1
  0
XRECORD
  5
C92
102
{ACAD_REACTORS
330
C91
102
}
330
C91
100
AcDbXrecord
280
     1
102
RTVSPropertyOp0
 70
     1
102
RTVSPropertyOp1
 70
     1
102
RTVSPropertyOp2
 70
     1
102
RTVSPropertyOp3
 70
     1
102
RTVSPropertyOp4
 70
     1
102
RTVSPropertyOp5
 70
     1
102
RTVSPropertyOp6
 70
     1
102
RTVSPropertyOp7
 70
     1
102
RTVSPropertyOp8
 70
     1
102
RTVSPropertyOp9
 70
     1
102
RTVSPropertyOp10
 70
     1
102
RTVSPropertyOp11
 70
     1
102
RTVSPropertyOp12
 70
     1
102
RTVSPropertyOp13
 70
     1
102
RTVSPropertyOp14
 70
     1
102
RTVSPropertyOp15
 70
     1
102
RTVSPropertyOp16
 70
     1
102
RTVSPropertyOp17
 70
     1
102
RTVSPropertyOp18
 70
     1
102
RTVSPropertyOp19
 70
     1
102
RTVSPropertyOp20
 70
     1
102
RTVSPropertyOp21
 70
     1
102
RTVSPropertyOp22
 70
     1
102
RTVSPropertyOp23
 70
     1
102
RTVSPropertyOp24
 70
     1
102
RTVSPropertyOp25
 70
     1
102
RTVSPropertyOp26
 70
     1
102
RTVSPropertyOp27
 70
     1
  0
XRECORD
  5
CAC
102
{ACAD_REACTORS
330
CAB
102
}
330
CAB
100
AcDbXrecord
280
     1
102
RTVSPropertyOp0
 70
     0
102
RTVSPropertyOp1
 70
     0
102
RTVSPropertyOp2
 70
     0
102
RTVSPropertyOp3
 70
     0
102
RTVSPropertyOp4
 70
     0
102
RTVSPropertyOp5
 70
     0
102
RTVSPropertyOp6
 70
     0
102
RTVSPropertyOp7
 70
     0
102
RTVSPropertyOp8
 70
     0
102
RTVSPropertyOp9
 70
     0
102
RTVSPropertyOp10
 70
     0
102
RTVSPropertyOp11
 70
     0
102
RTVSPropertyOp12
 70
     0
102
RTVSPropertyOp13
 70
     0
102
RTVSPropertyOp14
 70
     2
102
RTVSPropertyOp15
 70
     0
102
RTVSPropertyOp16
 70
     0
102
RTVSPropertyOp17
 70
     0
102
RTVSPropertyOp18
 70
     0
102
RTVSPropertyOp19
 70
     0
102
RTVSPropertyOp20
 70
     0
102
RTVSPropertyOp21
 70
     0
102
RTVSPropertyOp22
 70
     0
102
RTVSPropertyOp23
 70
     0
102
RTVSPropertyOp24
 70
     0
102
RTVSPropertyOp25
 70
     0
102
RTVSPropertyOp26
 70
     0
102
RTVSPropertyOp27
 70
     0
  0
XRECORD
  5
CA6
102
{ACAD_REACTORS
330
CA5
102
}
330
CA5
100
AcDbXrecord
280
     1
102
RTVSPropertyOp0
 70
     1
102
RTVSPropertyOp1
 70
     1
102
RTVSPropertyOp2
 70
     1
102
RTVSPropertyOp3
 70
     1
102
RTVSPropertyOp4
 70
     1
102
RTVSPropertyOp5
 70
     1
102
RTVSPropertyOp6
 70
     1
102
RTVSPropertyOp7
 70
     1
102
RTVSPropertyOp8
 70
     1
102
RTVSPropertyOp9
 70
     1
102
RTVSPropertyOp10
 70
     1
102
RTVSPropertyOp11
 70
     1
102
RTVSPropertyOp12
 70
     1
102
RTVSPropertyOp13
 70
     1
102
RTVSPropertyOp14
 70
     1
102
RTVSPropertyOp15
 70
     1
102
RTVSPropertyOp16
 70
     1
102
RTVSPropertyOp17
 70
     1
102
RTVSPropertyOp18
 70
     1
102
RTVSPropertyOp19
 70
     1
102
RTVSPropertyOp20
 70
     1
102
RTVSPropertyOp21
 70
     1
102
RTVSPropertyOp22
 70
     1
102
RTVSPropertyOp23
 70
     1
102
RTVSPropertyOp24
 70
     1
102
RTVSPropertyOp25
 70
     1
102
RTVSPropertyOp26
 70
     1
102
RTVSPropertyOp27
 70
     1
  0
XRECORD
  5
CAE
102
{ACAD_REACTORS
330
CAD
102
}
330
CAD
100
AcDbXrecord
280
     1
102
RTVSPropertyOp0
 70
     0
102
RTVSPropertyOp1
 70
     0
102
RTVSPropertyOp2
 70
     0
102
RTVSPropertyOp3
 70
     0
102
RTVSPropertyOp4
 70
     0
102
RTVSPropertyOp5
 70
     0
102
RTVSPropertyOp6
 70
     0
102
RTVSPropertyOp7
 70
     0
102
RTVSPropertyOp8
 70
     0
102
RTVSPropertyOp9
 70
     0
102
RTVSPropertyOp10
 70
     0
102
RTVSPropertyOp11
 70
     0
102
RTVSPropertyOp12
 70
     0
102
RTVSPropertyOp13
 70
     0
102
RTVSPropertyOp14
 70
     2
102
RTVSPropertyOp15
 70
     0
102
RTVSPropertyOp16
 70
     0
102
RTVSPropertyOp17
 70
     0
102
RTVSPropertyOp18
 70
     0
102
RTVSPropertyOp19
 70
     0
102
RTVSPropertyOp20
 70
     0
102
RTVSPropertyOp21
 70
     0
102
RTVSPropertyOp22
 70
     0
102
RTVSPropertyOp23
 70
     0
102
RTVSPropertyOp24
 70
     0
102
RTVSPropertyOp25
 70
     0
102
RTVSPropertyOp26
 70
     0
102
RTVSPropertyOp27
 70
     0
  0
XRECORD
  5
C9E
102
{ACAD_REACTORS
330
C9D
102
}
330
C9D
100
AcDbXrecord
280
     1
102
RTVSPropertyOp0
 70
     1
102
RTVSPropertyOp1
 70
     1
102
RTVSPropertyOp2
 70
     1
102
RTVSPropertyOp3
 70
     1
102
RTVSPropertyOp4
 70
     1
102
RTVSPropertyOp5
 70
     1
102
RTVSPropertyOp6
 70
     1
102
RTVSPropertyOp7
 70
     1
102
RTVSPropertyOp8
 70
     1
102
RTVSPropertyOp9
 70
     1
102
RTVSPropertyOp10
 70
     1
102
RTVSPropertyOp11
 70
     1
102
RTVSPropertyOp12
 70
     1
102
RTVSPropertyOp13
 70
     1
102
RTVSPropertyOp14
 70
     1
102
RTVSPropertyOp15
 70
     1
102
RTVSPropertyOp16
 70
     1
102
RTVSPropertyOp17
 70
     1
102
RTVSPropertyOp18
 70
     1
102
RTVSPropertyOp19
 70
     1
102
RTVSPropertyOp20
 70
     1
102
RTVSPropertyOp21
 70
     1
102
RTVSPropertyOp22
 70
     1
102
RTVSPropertyOp23
 70
     1
102
RTVSPropertyOp24
 70
     1
102
RTVSPropertyOp25
 70
     1
102
RTVSPropertyOp26
 70
     1
102
RTVSPropertyOp27
 70
     1
  0
XRECORD
  5
CA4
102
{ACAD_REACTORS
330
CA3
102
}
330
CA3
100
AcDbXrecord
280
     1
102
RTVSPropertyOp0
 70
     1
102
RTVSPropertyOp1
 70
     1
102
RTVSPropertyOp2
 70
     1
102
RTVSPropertyOp3
 70
     1
102
RTVSPropertyOp4
 70
     1
102
RTVSPropertyOp5
 70
     1
102
RTVSPropertyOp6
 70
     1
102
RTVSPropertyOp7
 70
     1
102
RTVSPropertyOp8
 70
     1
102
RTVSPropertyOp9
 70
     1
102
RTVSPropertyOp10
 70
     1
102
RTVSPropertyOp11
 70
     1
102
RTVSPropertyOp12
 70
     1
102
RTVSPropertyOp13
 70
     1
102
RTVSPropertyOp14
 70
     1
102
RTVSPropertyOp15
 70
     1
102
RTVSPropertyOp16
 70
     1
102
RTVSPropertyOp17
 70
     1
102
RTVSPropertyOp18
 70
     1
102
RTVSPropertyOp19
 70
     1
102
RTVSPropertyOp20
 70
     1
102
RTVSPropertyOp21
 70
     1
102
RTVSPropertyOp22
 70
     1
102
RTVSPropertyOp23
 70
     1
102
RTVSPropertyOp24
 70
     1
102
RTVSPropertyOp25
 70
     1
102
RTVSPropertyOp26
 70
     1
102
RTVSPropertyOp27
 70
     1
  0
ENDSEC
  0
EOF
