  0
SECTION
  2
HEADER
  9
$ACADVER
  1
AC1015
  9
$ACADMAINTVER
 70
    20
  9
$DWGCODEPAGE
  3
ANSI_1252
  9
$INSBASE
 10
0.0
 20
0.0
 30
0.0
  9
$EXTMIN
 10
207.8720547230479
 20
58.79688489223681
 30
-0.0000000000000091
  9
$EXTMAX
 10
210.9166907498543
 20
59.64514147107053
 30
0.000000000000007
  9
$LIMMIN
 10
0.0
 20
0.0
  9
$LIMMAX
 10
0.0
 20
0.0
  9
$ORTHOMODE
 70
     1
  9
$REGENMODE
 70
     1
  9
$FILLMODE
 70
     1
  9
$QTEXTMODE
 70
     0
  9
$MIRRTEXT
 70
     1
  9
$LTSCALE
 40
1.0
  9
$ATTMODE
 70
     1
  9
$TEXTSIZE
 40
0.0
  9
$TRACEWID
 40
0.05
  9
$TEXTSTYLE
  7
STANDARD
  9
$CLAYER
  8
INDUSA
  9
$CELTYPE
  6
CONTINUOUS
  9
$CECOLOR
 62
   256
  9
$CELTSCALE
 40
1.0
  9
$DISPSILH
 70
     0
  9
$DIMSCALE
 40
1.0
  9
$DIMASZ
 40
5.994399999999999
  9
$DIMEXO
 40
0.9905999999999998
  9
$DIMDLI
 40
0.38
  9
$DIMRND
 40
0.0
  9
$DIMDLE
 40
0.9905999999999998
  9
$DIMEXE
 40
0.18
  9
$DIMTP
 40
0.0
  9
$DIMTM
 40
0.0
  9
$DIMTXT
 40
6.349999999999999
  9
$DIMCEN
 40
0.09
  9
$DIMTSZ
 40
0.0
  9
$DIMTOL
 70
     0
  9
$DIMLIM
 70
     0
  9
$DIMTIH
 70
     1
  9
$DIMTOH
 70
     1
  9
$DIMSE1
 70
     0
  9
$DIMSE2
 70
     0
  9
$DIMTAD
 70
     1
  9
$DIMZIN
 70
     0
  9
$DIMBLK
  1

  9
$DIMASO
 70
     1
  9
$DIMSHO
 70
     1
  9
$DIMPOST
  1

  9
$DIMAPOST
  1

  9
$DIMALT
 70
     0
  9
$DIMALTD
 70
     2
  9
$DIMALTF
 40
0.0394
  9
$DIMLFAC
 40
1.0
  9
$DIMTOFL
 70
     0
  9
$DIMTVP
 40
0.0
  9
$DIMTIX
 70
     0
  9
$DIMSOXD
 70
     0
  9
$DIMSAH
 70
     0
  9
$DIMBLK1
  1

  9
$DIMBLK2
  1

  9
$DIMSTYLE
  2
STANDARD
  9
$DIMCLRD
 70
     0
  9
$DIMCLRE
 70
     0
  9
$DIMCLRT
 70
     0
  9
$DIMTFAC
 40
1.0
  9
$DIMGAP
 40
0.9905999999999998
  9
$DIMJUST
 70
     0
  9
$DIMSD1
 70
     0
  9
$DIMSD2
 70
     0
  9
$DIMTOLJ
 70
     1
  9
$DIMTZIN
 70
     0
  9
$DIMALTZ
 70
     0
  9
$DIMALTTZ
 70
     0
  9
$DIMUPT
 70
     0
  9
$DIMDEC
 70
     4
  9
$DIMTDEC
 70
     4
  9
$DIMALTU
 70
     2
  9
$DIMALTTD
 70
     2
  9
$DIMTXSTY
  7
STANDARD
  9
$DIMAUNIT
 70
     0
  9
$DIMADEC
 70
     0
  9
$DIMALTRND
 40
0.0
  9
$DIMAZIN
 70
     0
  9
$DIMDSEP
 70
    46
  9
$DIMATFIT
 70
     3
  9
$DIMFRAC
 70
     0
  9
$DIMLDRBLK
  1

  9
$DIMLUNIT
 70
     2
  9
$DIMLWD
 70
    -2
  9
$DIMLWE
 70
    -2
  9
$DIMTMOVE
 70
     0
  9
$LUNITS
 70
     2
  9
$LUPREC
 70
     2
  9
$SKETCHINC
 40
0.1
  9
$FILLETRAD
 40
0.0
  9
$AUNITS
 70
     0
  9
$AUPREC
 70
     2
  9
$MENU
  1
acad
  9
$ELEVATION
 40
0.0
  9
$PELEVATION
 40
0.0
  9
$THICKNESS
 40
0.0
  9
$LIMCHECK
 70
     0
  9
$CHAMFERA
 40
0.0
  9
$CHAMFERB
 40
0.0
  9
$CHAMFERC
 40
0.0
  9
$CHAMFERD
 40
0.0
  9
$SKPOLY
 70
     0
  9
$TDCREATE
 40
2444972.041666667
  9
$TDUCREATE
 40
2444972.000000000
  9
$TDUPDATE
 40
2454930.665744352
  9
$TDUUPDATE
 40
2454930.624077685
  9
$TDINDWG
 40
0.0184308102
  9
$TDUSRTIMER
 40
0.0184308102
  9
$USRTIMER
 70
     1
  9
$ANGBASE
 50
0.0
  9
$ANGDIR
 70
     0
  9
$PDMODE
 70
     0
  9
$PDSIZE
 40
-1.0
  9
$PLINEWID
 40
0.0
  9
$SPLFRAME
 70
     0
  9
$SPLINETYPE
 70
     6
  9
$SPLINESEGS
 70
     8
  9
$HANDSEED
  5
11C6
  9
$SURFTAB1
 70
     6
  9
$SURFTAB2
 70
     6
  9
$SURFTYPE
 70
     6
  9
$SURFU
 70
     6
  9
$SURFV
 70
     6
  9
$UCSBASE
  2

  9
$UCSNAME
  2

  9
$UCSORG
 10
0.0
 20
0.0
 30
0.0
  9
$UCSXDIR
 10
1.0
 20
0.0
 30
0.0
  9
$UCSYDIR
 10
0.0
 20
1.0
 30
0.0
  9
$UCSORTHOREF
  2

  9
$UCSORTHOVIEW
 70
     0
  9
$UCSORGTOP
 10
0.0
 20
0.0
 30
0.0
  9
$UCSORGBOTTOM
 10
0.0
 20
0.0
 30
0.0
  9
$UCSORGLEFT
 10
0.0
 20
0.0
 30
0.0
  9
$UCSORGRIGHT
 10
0.0
 20
0.0
 30
0.0
  9
$UCSORGFRONT
 10
0.0
 20
0.0
 30
0.0
  9
$UCSORGBACK
 10
0.0
 20
0.0
 30
0.0
  9
$PUCSBASE
  2

  9
$PUCSNAME
  2

  9
$PUCSORG
 10
0.0
 20
0.0
 30
0.0
  9
$PUCSXDIR
 10
1.0
 20
0.0
 30
0.0
  9
$PUCSYDIR
 10
0.0
 20
1.0
 30
0.0
  9
$PUCSORTHOREF
  2

  9
$PUCSORTHOVIEW
 70
     0
  9
$PUCSORGTOP
 10
0.0
 20
0.0
 30
0.0
  9
$PUCSORGBOTTOM
 10
0.0
 20
0.0
 30
0.0
  9
$PUCSORGLEFT
 10
0.0
 20
0.0
 30
0.0
  9
$PUCSORGRIGHT
 10
0.0
 20
0.0
 30
0.0
  9
$PUCSORGFRONT
 10
0.0
 20
0.0
 30
0.0
  9
$PUCSORGBACK
 10
0.0
 20
0.0
 30
0.0
  9
$USERI1
 70
     0
  9
$USERI2
 70
     0
  9
$USERI3
 70
     0
  9
$USERI4
 70
     0
  9
$USERI5
 70
     0
  9
$USERR1
 40
0.0
  9
$USERR2
 40
0.0
  9
$USERR3
 40
0.0
  9
$USERR4
 40
0.0
  9
$USERR5
 40
0.0
  9
$WORLDVIEW
 70
     1
  9
$SHADEDGE
 70
     3
  9
$SHADEDIF
 70
    70
  9
$TILEMODE
 70
     1
  9
$MAXACTVP
 70
    16
  9
$PINSBASE
 10
0.0
 20
0.0
 30
0.0
  9
$PLIMCHECK
 70
     0
  9
$PEXTMIN
 10
1.000000000000000E+20
 20
1.000000000000000E+20
 30
1.000000000000000E+20
  9
$PEXTMAX
 10
-1.000000000000000E+20
 20
-1.000000000000000E+20
 30
-1.000000000000000E+20
  9
$PLIMMIN
 10
0.0
 20
0.0
  9
$PLIMMAX
 10
12.0
 20
9.0
  9
$UNITMODE
 70
     0
  9
$VISRETAIN
 70
     0
  9
$PLINEGEN
 70
     1
  9
$PSLTSCALE
 70
     1
  9
$TREEDEPTH
 70
  3020
  9
$CMLSTYLE
  2
STANDARD
  9
$CMLJUST
 70
     0
  9
$CMLSCALE
 40
1.0
  9
$PROXYGRAPHICS
 70
     1
  9
$MEASUREMENT
 70
     0
  9
$CELWEIGHT
370
    -1
  9
$ENDCAPS
280
     0
  9
$JOINSTYLE
280
     0
  9
$LWDISPLAY
290
     0
  9
$INSUNITS
 70
     0
  9
$HYPERLINKBASE
  1

  9
$STYLESHEET
  1

  9
$XEDIT
290
     1
  9
$CEPSNTYPE
380
     0
  9
$PSTYLEMODE
290
     1
  9
$FINGERPRINTGUID
  2
{502F1B50-9852-4734-94BF-098E795154DB}
  9
$VERSIONGUID
  2
{3A1F3EEC-31D4-422C-9484-A87012296CA8}
  9
$EXTNAMES
290
     1
  9
$PSVPSCALE
 40
0.0
  9
$OLESTARTUP
290
     0
  0
ENDSEC
  0
SECTION
  2
CLASSES
  0
CLASS
  1
IMAGE
  2
AcDbRasterImage
  3
ISM
 90
    32895
280
     0
281
     1
  0
CLASS
  1
DICTIONARYVAR
  2
AcDbDictionaryVar
  3
ObjectDBX Classes
 90
        0
280
     0
281
     0
  0
CLASS
  1
RASTERVARIABLES
  2
AcDbRasterVariables
  3
ISM
 90
    32768
280
     0
281
     0
  0
CLASS
  1
IMAGEDEF
  2
AcDbRasterImageDef
  3
ISM
 90
    32768
280
     0
281
     0
  0
CLASS
  1
IMAGEDEF_REACTOR
  2
AcDbRasterImageDefReactor
  3
ISM
 90
    32769
280
     0
281
     0
  0
CLASS
  1
IDBUFFER
  2
AcDbIdBuffer
  3
ObjectDBX Classes
 90
    32768
280
     0
281
     0
  0
CLASS
  1
SPATIAL_FILTER
  2
AcDbSpatialFilter
  3
ObjectDBX Classes
 90
    32768
280
     0
281
     0
  0
CLASS
  1
SORTENTSTABLE
  2
AcDbSortentsTable
  3
ObjectDBX Classes
 90
    32768
280
     0
281
     0
  0
CLASS
  1
LAYER_INDEX
  2
AcDbLayerIndex
  3
ObjectDBX Classes
 90
    32768
280
     0
281
     0
  0
CLASS
  1
SPATIAL_INDEX
  2
AcDbSpatialIndex
  3
ObjectDBX Classes
 90
    32768
280
     0
281
     0
  0
CLASS
  1
OBJECT_PTR
  2
CAseDLPNTableRecord
  3
ASE-LPNTableRecord
 90
    32769
280
     0
281
     0
  0
CLASS
  1
LAYOUT
  2
AcDbLayout
  3
ObjectDBX Classes
 90
        0
280
     0
281
     0
  0
CLASS
  1
PLOTSETTINGS
  2
AcDbPlotSettings
  3
ObjectDBX Classes
 90
    32768
280
     0
281
     0
  0
CLASS
  1
ACDBDICTIONARYWDFLT
  2
AcDbDictionaryWithDefault
  3
ObjectDBX Classes
 90
        0
280
     0
281
     0
  0
CLASS
  1
ACDBPLACEHOLDER
  2
AcDbPlaceHolder
  3
ObjectDBX Classes
 90
        0
280
     0
281
     0
  0
CLASS
  1
VBA_PROJECT
  2
AcDbVbaProject
  3
acad
 90
    32768
280
     0
281
     0
  0
CLASS
  1
WIPEOUT
  2
AcDbWipeout
  3
WipeOut|AutoCAD Express Tool|expresstools@autodesk.com
 90
    32768
280
     0
281
     1
  0
CLASS
  1
WIPEOUTVARIABLES
  2
AcDbWipeoutVariables
  3
WipeOut|AutoCAD Express Tool|expresstools@autodesk.com
 90
    32768
280
     0
281
     0
  0
CLASS
  1
RTEXT
  2
RText
  3
RText|AutoCAD Express Tool|expresstools@autodesk.com
 90
    32768
280
     0
281
     1
  0
CLASS
  1
ARCALIGNEDTEXT
  2
AcDbArcAlignedText
  3
ATEXT|AutoCAD Express Tool|expresstools@autodesk.com
 90
    32768
280
     0
281
     1
  0
CLASS
  1
TABLESTYLE
  2
AcDbTableStyle
  3
ObjectDBX Classes
 90
     2047
280
     0
281
     0
  0
ENDSEC
  0
SECTION
  2
TABLES
  0
TABLE
  2
VPORT
  5
7
330
0
100
AcDbSymbolTable
 70
     8
  0
VPORT
  5
11C0
330
7
100
AcDbSymbolTableRecord
100
AcDbViewportTableRecord
  2
*Active
 70
     0
 10
0.0
 20
0.0
 11
1.0
 21
1.0
 12
209.3943727364511
 22
59.22101318165367
 13
0.0
 23
0.0
 14
1.0
 24
1.0
 15
0.0
 25
0.0
 16
0.0
 26
0.0
 36
1.0
 17
0.0
 27
0.0
 37
0.0
 40
1.907704585538265
 41
1.602030456852791
 42
50.0
 43
0.0
 44
0.0
 50
0.0
 51
0.0
 71
     0
 72
  2000
 73
     1
 74
     1
 75
     0
 76
     0
 77
     0
 78
     0
281
     0
 65
     1
110
0.0
120
0.0
130
0.0
111
1.0
121
0.0
131
0.0
112
0.0
122
1.0
132
0.0
 79
     0
146
0.0
  0
ENDTAB
  0
TABLE
  2
LTYPE
  5
4
330
0
100
AcDbSymbolTable
 70
     6
  0
LTYPE
  5
11
330
4
100
AcDbSymbolTableRecord
100
AcDbLinetypeTableRecord
  2
BYBLOCK
 70
     0
  3

 72
    65
 73
     0
 40
0.0
  0
LTYPE
  5
12
330
4
100
AcDbSymbolTableRecord
100
AcDbLinetypeTableRecord
  2
BYLAYER
 70
     0
  3

 72
    65
 73
     0
 40
0.0
  0
LTYPE
  5
13
330
4
100
AcDbSymbolTableRecord
100
AcDbLinetypeTableRecord
  2
CONTINUOUS
 70
     0
  3
Solid line
 72
    65
 73
     0
 40
0.0
  0
LTYPE
  5
1E
330
4
100
AcDbSymbolTableRecord
100
AcDbLinetypeTableRecord
  2
HIDDEN
 70
     0
  3
Hidden __ __ __ __ __ __ __ __ __ __ __ __ __ __
 72
    65
 73
     2
 40
1.905
 49
1.27
 74
     0
 49
-0.635
 74
     0
  0
LTYPE
  5
1F
330
4
100
AcDbSymbolTableRecord
100
AcDbLinetypeTableRecord
  2
PHANTOM
 70
     0
  3
Phantom ______  __  __  ______  __  __  ______
 72
    65
 73
     6
 40
12.7
 49
6.349999999999999
 74
     0
 49
-1.27
 74
     0
 49
1.27
 74
     0
 49
-1.27
 74
     0
 49
1.27
 74
     0
 49
-1.27
 74
     0
  0
LTYPE
  5
20
330
4
100
AcDbSymbolTableRecord
100
AcDbLinetypeTableRecord
  2
CENTER
 70
     0
  3
Center ____ _ ____ _ ____ _ ____ _ ____ _ ____
 72
    65
 73
     4
 40
10.16
 49
6.349999999999999
 74
     0
 49
-1.27
 74
     0
 49
1.27
 74
     0
 49
-1.27
 74
     0
  0
LTYPE
  5
21
330
4
100
AcDbSymbolTableRecord
100
AcDbLinetypeTableRecord
  2
CENTERX2
 70
     0
  3
Center (2x) ________  __  ________  __  _____
 72
    65
 73
     4
 40
20.32
 49
12.7
 74
     0
 49
-2.54
 74
     0
 49
2.54
 74
     0
 49
-2.54
 74
     0
  0
LTYPE
  5
22
330
4
100
AcDbSymbolTableRecord
100
AcDbLinetypeTableRecord
  2
DOT2
 70
     0
  3
Dot (.5x) ........................................
 72
    65
 73
     2
 40
0.635
 49
0.0
 74
     0
 49
-0.635
 74
     0
  0
ENDTAB
  0
TABLE
  2
LAYER
  5
2
330
0
100
AcDbSymbolTable
 70
     4
  0
LAYER
  5
14
330
2
100
AcDbSymbolTableRecord
100
AcDbLayerTableRecord
  2
0
 70
     0
 62
     7
  6
CONTINUOUS
370
    -3
390
1140
  0
LAYER
  5
26
330
2
100
AcDbSymbolTableRecord
100
AcDbLayerTableRecord
  2
DEFPOINTS
 70
     0
 62
     7
  6
CONTINUOUS
290
     0
370
    -3
390
1140
  0
LAYER
  5
27
330
2
100
AcDbSymbolTableRecord
100
AcDbLayerTableRecord
  2
FORMAT
 70
     0
 62
     7
  6
CONTINUOUS
370
    -3
390
1140
  0
LAYER
  5
1147
330
2
100
AcDbSymbolTableRecord
100
AcDbLayerTableRecord
  2
INDUSA
 70
     0
 62
     3
  6
CONTINUOUS
370
    -3
390
1140
  0
ENDTAB
  0
TABLE
  2
STYLE
  5
3
330
0
100
AcDbSymbolTable
 70
     2
  0
STYLE
  5
17
330
3
100
AcDbSymbolTableRecord
100
AcDbTextStyleTableRecord
  2
STANDARD
 70
     0
 40
0.0
 41
1.0
 50
0.0
 71
     0
 42
0.0
  3
txt
  4

  0
STYLE
  5
68
330
3
100
AcDbSymbolTableRecord
100
AcDbTextStyleTableRecord
  2
SLDTEXTSTYLE0
 70
     0
 40
0.0
 41
0.75
 50
0.0
 71
     0
 42
0.0
  3
txt
  4

  0
ENDTAB
  0
TABLE
  2
VIEW
  5
5
330
0
100
AcDbSymbolTable
 70
     0
  0
ENDTAB
  0
TABLE
  2
UCS
  5
6
330
0
100
AcDbSymbolTable
 70
     0
  0
ENDTAB
  0
TABLE
  2
APPID
  5
8
330
0
100
AcDbSymbolTable
 70
     2
  0
APPID
  5
16
330
8
100
AcDbSymbolTableRecord
100
AcDbRegAppTableRecord
  2
ACAD
 70
     0
  0
APPID
  5
1186
330
8
100
AcDbSymbolTableRecord
100
AcDbRegAppTableRecord
  2
DCO15
 70
     0
  0
ENDTAB
  0
TABLE
  2
DIMSTYLE
  5
9
330
0
100
AcDbSymbolTable
 70
     1
100
AcDbDimStyleTable
 71
     1
340
18
  0
DIMSTYLE
105
18
330
9
100
AcDbSymbolTableRecord
100
AcDbDimStyleTableRecord
  2
STANDARD
 70
     0
289
     0
340
17
  0
ENDTAB
  0
TABLE
  2
BLOCK_RECORD
  5
1
330
0
100
AcDbSymbolTable
 70
    17
  0
BLOCK_RECORD
  5
A
330
1
100
AcDbSymbolTableRecord
100
AcDbBlockTableRecord
  2
*MODEL_SPACE
340
1143
  0
BLOCK_RECORD
  5
B
330
1
100
AcDbSymbolTableRecord
100
AcDbBlockTableRecord
  2
*PAPER_SPACE
340
1144
  0
BLOCK_RECORD
  5
8C
330
1
100
AcDbSymbolTableRecord
100
AcDbBlockTableRecord
  2
NOTE35
340
0
102
{BLKREFS
331
8F
102
}
  0
BLOCK_RECORD
  5
90
330
1
100
AcDbSymbolTableRecord
100
AcDbBlockTableRecord
  2
NOTE36
340
0
102
{BLKREFS
331
93
102
}
  0
BLOCK_RECORD
  5
95
330
1
100
AcDbSymbolTableRecord
100
AcDbBlockTableRecord
  2
NOTE38
340
0
102
{BLKREFS
331
98
102
}
  0
BLOCK_RECORD
  5
99
330
1
100
AcDbSymbolTableRecord
100
AcDbBlockTableRecord
  2
NOTE39
340
0
102
{BLKREFS
331
9C
102
}
  0
BLOCK_RECORD
  5
9D
330
1
100
AcDbSymbolTableRecord
100
AcDbBlockTableRecord
  2
NOTE40
340
0
102
{BLKREFS
331
A0
102
}
  0
BLOCK_RECORD
  5
A1
330
1
100
AcDbSymbolTableRecord
100
AcDbBlockTableRecord
  2
NOTE41
340
0
102
{BLKREFS
331
A4
102
}
  0
BLOCK_RECORD
  5
A5
330
1
100
AcDbSymbolTableRecord
100
AcDbBlockTableRecord
  2
NOTE42
340
0
102
{BLKREFS
331
A8
102
}
  0
BLOCK_RECORD
  5
A9
330
1
100
AcDbSymbolTableRecord
100
AcDbBlockTableRecord
  2
NOTE43
340
0
102
{BLKREFS
331
AC
102
}
  0
BLOCK_RECORD
  5
AD
330
1
100
AcDbSymbolTableRecord
100
AcDbBlockTableRecord
  2
NOTE44
340
0
102
{BLKREFS
331
B0
102
}
  0
BLOCK_RECORD
  5
B1
330
1
100
AcDbSymbolTableRecord
100
AcDbBlockTableRecord
  2
NOTE45
340
0
102
{BLKREFS
331
B4
102
}
  0
BLOCK_RECORD
  5
B5
330
1
100
AcDbSymbolTableRecord
100
AcDbBlockTableRecord
  2
NOTE46
340
0
102
{BLKREFS
331
B8
102
}
  0
BLOCK_RECORD
  5
B9
330
1
100
AcDbSymbolTableRecord
100
AcDbBlockTableRecord
  2
NOTE47
340
0
102
{BLKREFS
331
BC
102
}
  0
BLOCK_RECORD
  5
BD
330
1
100
AcDbSymbolTableRecord
100
AcDbBlockTableRecord
  2
NOTE48
340
0
102
{BLKREFS
331
C0
102
}
  0
BLOCK_RECORD
  5
C2
330
1
100
AcDbSymbolTableRecord
100
AcDbBlockTableRecord
  2
NOTE50
340
0
102
{BLKREFS
331
C5
102
}
  0
BLOCK_RECORD
  5
C6
330
1
100
AcDbSymbolTableRecord
100
AcDbBlockTableRecord
  2
NOTE51
340
0
102
{BLKREFS
331
C9
102
}
  0
BLOCK_RECORD
  5
1148
330
1
100
AcDbSymbolTableRecord
100
AcDbBlockTableRecord
  2
10310CT
340
0
  0
ENDTAB
  0
ENDSEC
  0
SECTION
  2
BLOCKS
  0
BLOCK
  5
D
330
A
100
AcDbEntity
  8
0
100
AcDbBlockBegin
  2
*MODEL_SPACE
 70
     0
 10
0.0
 20
0.0
 30
0.0
  3
*MODEL_SPACE
  1

  0
ENDBLK
  5
E
330
A
100
AcDbEntity
  8
0
100
AcDbBlockEnd
  0
BLOCK
  5
F
330
B
100
AcDbEntity
 67
     1
  8
0
100
AcDbBlockBegin
  2
*PAPER_SPACE
 70
     0
 10
0.0
 20
0.0
 30
0.0
  3
*PAPER_SPACE
  1

  0
ENDBLK
  5
10
330
B
100
AcDbEntity
 67
     1
  8
0
100
AcDbBlockEnd
  0
BLOCK
  5
8D
330
8C
100
AcDbEntity
  8
0
 62
     0
100
AcDbBlockBegin
  2
NOTE35
 70
     0
 10
0.0
 20
0.0
 30
0.0
  3
NOTE35
  1

  0
ENDBLK
  5
8E
330
8C
100
AcDbEntity
  8
0
100
AcDbBlockEnd
  0
BLOCK
  5
91
330
90
100
AcDbEntity
  8
0
 62
     0
100
AcDbBlockBegin
  2
NOTE36
 70
     0
 10
0.0
 20
0.0
 30
0.0
  3
NOTE36
  1

  0
ENDBLK
  5
92
330
90
100
AcDbEntity
  8
0
100
AcDbBlockEnd
  0
BLOCK
  5
96
330
95
100
AcDbEntity
  8
0
 62
     0
100
AcDbBlockBegin
  2
NOTE38
 70
     0
 10
0.0
 20
0.0
 30
0.0
  3
NOTE38
  1

  0
ENDBLK
  5
97
330
95
100
AcDbEntity
  8
0
100
AcDbBlockEnd
  0
BLOCK
  5
9A
330
99
100
AcDbEntity
  8
0
 62
     0
100
AcDbBlockBegin
  2
NOTE39
 70
     0
 10
0.0
 20
0.0
 30
0.0
  3
NOTE39
  1

  0
ENDBLK
  5
9B
330
99
100
AcDbEntity
  8
0
100
AcDbBlockEnd
  0
BLOCK
  5
9E
330
9D
100
AcDbEntity
  8
0
 62
     0
100
AcDbBlockBegin
  2
NOTE40
 70
     0
 10
0.0
 20
0.0
 30
0.0
  3
NOTE40
  1

  0
ENDBLK
  5
9F
330
9D
100
AcDbEntity
  8
0
100
AcDbBlockEnd
  0
BLOCK
  5
A2
330
A1
100
AcDbEntity
  8
0
 62
     0
100
AcDbBlockBegin
  2
NOTE41
 70
     0
 10
0.0
 20
0.0
 30
0.0
  3
NOTE41
  1

  0
ENDBLK
  5
A3
330
A1
100
AcDbEntity
  8
0
100
AcDbBlockEnd
  0
BLOCK
  5
A6
330
A5
100
AcDbEntity
  8
0
 62
     0
100
AcDbBlockBegin
  2
NOTE42
 70
     0
 10
0.0
 20
0.0
 30
0.0
  3
NOTE42
  1

  0
ENDBLK
  5
A7
330
A5
100
AcDbEntity
  8
0
100
AcDbBlockEnd
  0
BLOCK
  5
AA
330
A9
100
AcDbEntity
  8
0
 62
     0
100
AcDbBlockBegin
  2
NOTE43
 70
     0
 10
0.0
 20
0.0
 30
0.0
  3
NOTE43
  1

  0
ENDBLK
  5
AB
330
A9
100
AcDbEntity
  8
0
100
AcDbBlockEnd
  0
BLOCK
  5
AE
330
AD
100
AcDbEntity
  8
0
 62
     0
100
AcDbBlockBegin
  2
NOTE44
 70
     0
 10
0.0
 20
0.0
 30
0.0
  3
NOTE44
  1

  0
ENDBLK
  5
AF
330
AD
100
AcDbEntity
  8
0
100
AcDbBlockEnd
  0
BLOCK
  5
B2
330
B1
100
AcDbEntity
  8
0
 62
     0
100
AcDbBlockBegin
  2
NOTE45
 70
     0
 10
0.0
 20
0.0
 30
0.0
  3
NOTE45
  1

  0
ENDBLK
  5
B3
330
B1
100
AcDbEntity
  8
0
100
AcDbBlockEnd
  0
BLOCK
  5
B6
330
B5
100
AcDbEntity
  8
0
 62
     0
100
AcDbBlockBegin
  2
NOTE46
 70
     0
 10
0.0
 20
0.0
 30
0.0
  3
NOTE46
  1

  0
ENDBLK
  5
B7
330
B5
100
AcDbEntity
  8
0
100
AcDbBlockEnd
  0
BLOCK
  5
BA
330
B9
100
AcDbEntity
  8
0
 62
     0
100
AcDbBlockBegin
  2
NOTE47
 70
     0
 10
0.0
 20
0.0
 30
0.0
  3
NOTE47
  1

  0
ENDBLK
  5
BB
330
B9
100
AcDbEntity
  8
0
100
AcDbBlockEnd
  0
BLOCK
  5
BE
330
BD
100
AcDbEntity
  8
0
 62
     0
100
AcDbBlockBegin
  2
NOTE48
 70
     0
 10
0.0
 20
0.0
 30
0.0
  3
NOTE48
  1

  0
ENDBLK
  5
BF
330
BD
100
AcDbEntity
  8
0
100
AcDbBlockEnd
  0
BLOCK
  5
C3
330
C2
100
AcDbEntity
  8
0
 62
     0
100
AcDbBlockBegin
  2
NOTE50
 70
     0
 10
0.0
 20
0.0
 30
0.0
  3
NOTE50
  1

  0
ENDBLK
  5
C4
330
C2
100
AcDbEntity
  8
0
100
AcDbBlockEnd
  0
BLOCK
  5
C7
330
C6
100
AcDbEntity
  8
0
 62
     0
100
AcDbBlockBegin
  2
NOTE51
 70
     0
 10
0.0
 20
0.0
 30
0.0
  3
NOTE51
  1

  0
ENDBLK
  5
C8
330
C6
100
AcDbEntity
  8
0
100
AcDbBlockEnd
  0
BLOCK
  5
1155
330
1148
100
AcDbEntity
  8
0
100
AcDbBlockBegin
  2
10310CT
 70
     0
 10
0.0
 20
0.0
 30
0.0
  3
10310CT
  1

  0
LWPOLYLINE
  5
1149
330
1148
100
AcDbEntity
  8
INDUSA
100
AcDbPolyline
 90
        6
 70
     0
 43
0.0
 10
0.236002
 20
0.640421
 10
0.266489
 20
0.643872
 42
0.009546
 10
0.275
 20
0.6450000000000001
 10
0.295
 20
0.0
 10
0.115
 20
0.0
 10
0.115
 20
0.64268
  0
LWPOLYLINE
  5
114A
330
1148
100
AcDbEntity
  8
INDUSA
100
AcDbPolyline
 90
        9
 70
     0
 43
0.0
 10
0.2375
 20
0.6405910000000001
 10
0.2375
 20
0.614908
 42
0.246631
 10
0.243986
 20
0.6025580000000001
 10
0.255443
 20
0.59466
 42
-0.238426
 10
0.261922
 20
0.582775
 10
0.278908
 20
0.03499
 10
0.259528
 20
0.015
 10
0.195
 20
0.015
 10
0.195
 20
0.0
  0
LWPOLYLINE
  5
114B
330
1148
100
AcDbEntity
  8
INDUSA
100
AcDbPolyline
 90
        4
 70
     1
 43
0.0
 10
0.2525
 20
0.6271930000000001
 10
0.260517
 20
0.6281
 10
0.26111
 20
0.608972
 10
0.2525
 20
0.614908
  0
LWPOLYLINE
  5
114C
330
1148
100
AcDbEntity
  8
INDUSA
100
AcDbPolyline
 90
       27
 70
     0
 43
0.0
 10
0.0875
 20
0.8199999999999999
 10
0.0875
 20
0.805
 10
0.091809
 20
0.805
 42
-0.548415
 10
0.096342
 20
0.79789
 42
0.130612
 10
0.094994
 20
0.790303
 10
0.105486
 20
0.665392
 42
0.253264
 10
0.126351
 20
0.6335380000000001
 10
0.1575
 20
0.6167310000000001
 10
0.1575
 20
0.61
 10
0.2325
 20
0.61
 10
0.2325
 20
0.6328200000000001
 42
-0.382004
 10
0.24139
 20
0.642759
 10
0.270312
 20
0.645988
 42
0.275811
 10
0.4475160000000001
 20
0.780546
 42
0.046569
 10
0.448061
 20
0.782323
 42
0.090836
 10
0.448848
 20
0.8157849999999999
 42
0.368752
 10
0.44391
 20
0.8199999999999999
 10
0.4411150000000001
 20
0.8199999999999999
 42
-0.4142140000000001
 10
0.438115
 20
0.823
 10
0.438115
 20
0.825
 42
0.4142140000000001
 10
0.433115
 20
0.8299999999999998
 10
0.0
 20
0.8299999999999998
 10
0.0
 20
0.8149999999999998
 10
0.005
 20
0.8100000000000001
 10
0.005
 20
0.695
 42
0.4142140000000001
 10
0.02
 20
0.6800000000000001
 10
0.104259
 20
0.6800000000000001
  0
LWPOLYLINE
  5
114D
330
1148
100
AcDbEntity
  8
INDUSA
100
AcDbPolyline
 90
       16
 70
     0
 43
0.0
 10
0.414926
 20
0.8299999999999998
 42
0.4142140000000001
 10
0.4099260000000001
 20
0.825
 10
0.4099260000000001
 20
0.823
 42
-0.4142140000000001
 10
0.406926
 20
0.8199999999999999
 10
0.404284
 20
0.8199999999999999
 42
0.379305
 10
0.39932
 20
0.8156019999999999
 42
-0.249351
 10
0.330226
 20
0.690771
 42
-0.113301
 10
0.2325
 20
0.6550000000000001
 10
0.157299
 20
0.6550000000000001
 42
-0.389876
 10
0.142351
 20
0.6687440000000001
 10
0.13
 20
0.8157849999999999
 42
0.368752
 10
0.125062
 20
0.8199999999999999
 10
0.033
 20
0.8199999999999999
 42
-0.4142140000000001
 10
0.03
 20
0.823
 10
0.03
 20
0.825
 42
0.4142140000000001
 10
0.025
 20
0.8299999999999998
  0
LWPOLYLINE
  5
114E
330
1148
100
AcDbEntity
  8
INDUSA
100
AcDbPolyline
 90
        7
 70
     1
 43
0.0
 10
0.439887
 20
0.805521
 42
-0.086769
 10
0.437787
 20
0.784357
 42
-0.150615
 10
0.361956
 20
0.689994
 42
-0.9330169999999998
 10
0.355807
 20
0.6978490000000001
 42
0.192525
 10
0.408867
 20
0.8057649999999998
 42
-0.391959
 10
0.418838
 20
0.8149999999999998
 10
0.429901
 20
0.8149999999999998
 42
-0.399021
  0
LWPOLYLINE
  5
114F
330
1148
100
AcDbEntity
  8
INDUSA
100
AcDbPolyline
 90
        7
 70
     0
 43
0.0
 10
0.13271
 20
0.783523
 10
0.122745
 20
0.782686
 10
0.121965
 20
0.791978
 42
1.0
 10
0.105008
 20
0.790553
 10
0.115451
 20
0.666229
 42
0.253264
 10
0.1311
 20
0.642338
 10
0.1725
 20
0.6200000000000001
  0
LWPOLYLINE
  5
1150
330
1148
100
AcDbEntity
  8
INDUSA
100
AcDbPolyline
 90
        5
 70
     0
 43
0.0
 10
0.134384
 20
0.763594
 10
0.124419
 20
0.7627570000000001
 10
0.132386
 20
0.6679070000000001
 42
0.229747
 10
0.143521
 20
0.649139
 10
0.1725
 20
0.63
  0
LWPOLYLINE
  5
1151
330
1148
100
AcDbEntity
  8
INDUSA
100
AcDbPolyline
 90
        3
 70
     0
 43
0.0
 10
0.1725
 20
0.61
 10
0.1725
 20
0.6400000000000001
 10
0.1575
 20
0.6550000000000001
  0
LWPOLYLINE
  5
1152
330
1148
100
AcDbEntity
  8
INDUSA
100
AcDbPolyline
 90
        3
 70
     0
 43
0.0
 10
0.2175
 20
0.61
 10
0.2175
 20
0.6400000000000001
 10
0.2325
 20
0.6550000000000001
  0
LWPOLYLINE
  5
1153
330
1148
100
AcDbEntity
  8
INDUSA
100
AcDbPolyline
 90
        6
 70
     0
 43
0.0
 10
0.005
 20
0.7400000000000001
 10
0.025
 20
0.7400000000000001
 10
0.025
 20
0.8
 42
-0.4142140000000001
 10
0.03
 20
0.805
 10
0.0525
 20
0.805
 10
0.0525
 20
0.8199999999999999
  0
LWPOLYLINE
  5
1154
330
1148
100
AcDbEntity
  8
INDUSA
100
AcDbPolyline
 90
        2
 70
     0
 43
0.0
 10
0.1725
 20
0.6400000000000001
 10
0.2175
 20
0.6400000000000001
  0
ENDBLK
  5
1156
330
1148
100
AcDbEntity
  8
0
100
AcDbBlockEnd
  0
ENDSEC
  0
SECTION
  2
ENTITIES
  0
INSERT
  5
8F
330
A
100
AcDbEntity
  8
0
100
AcDbBlockReference
  2
NOTE35
 10
0.0
 20
0.0
 30
0.0
  0
INSERT
  5
93
330
A
100
AcDbEntity
  8
0
100
AcDbBlockReference
  2
NOTE36
 10
0.0
 20
0.0
 30
0.0
  0
INSERT
  5
98
330
A
100
AcDbEntity
  8
0
100
AcDbBlockReference
  2
NOTE38
 10
0.0
 20
0.0
 30
0.0
  0
INSERT
  5
9C
330
A
100
AcDbEntity
  8
0
100
AcDbBlockReference
  2
NOTE39
 10
0.0
 20
0.0
 30
0.0
  0
INSERT
  5
A0
330
A
100
AcDbEntity
  8
0
100
AcDbBlockReference
  2
NOTE40
 10
0.0
 20
0.0
 30
0.0
  0
INSERT
  5
A4
330
A
100
AcDbEntity
  8
0
100
AcDbBlockReference
  2
NOTE41
 10
0.0
 20
0.0
 30
0.0
  0
INSERT
  5
A8
330
A
100
AcDbEntity
  8
0
100
AcDbBlockReference
  2
NOTE42
 10
0.0
 20
0.0
 30
0.0
  0
INSERT
  5
AC
330
A
100
AcDbEntity
  8
0
100
AcDbBlockReference
  2
NOTE43
 10
0.0
 20
0.0
 30
0.0
  0
INSERT
  5
B0
330
A
100
AcDbEntity
  8
0
100
AcDbBlockReference
  2
NOTE44
 10
0.0
 20
0.0
 30
0.0
  0
INSERT
  5
B4
330
A
100
AcDbEntity
  8
0
100
AcDbBlockReference
  2
NOTE45
 10
0.0
 20
0.0
 30
0.0
  0
INSERT
  5
B8
330
A
100
AcDbEntity
  8
0
100
AcDbBlockReference
  2
NOTE46
 10
0.0
 20
0.0
 30
0.0
  0
INSERT
  5
BC
330
A
100
AcDbEntity
  8
0
100
AcDbBlockReference
  2
NOTE47
 10
0.0
 20
0.0
 30
0.0
  0
INSERT
  5
C0
330
A
100
AcDbEntity
  8
0
100
AcDbBlockReference
  2
NOTE48
 10
0.0
 20
0.0
 30
0.0
  0
INSERT
  5
C5
330
A
100
AcDbEntity
  8
0
100
AcDbBlockReference
  2
NOTE50
 10
0.0
 20
0.0
 30
0.0
  0
INSERT
  5
C9
330
A
100
AcDbEntity
  8
0
100
AcDbBlockReference
  2
NOTE51
 10
0.0
 20
0.0
 30
0.0
  0
ARC
  5
DD
330
A
100
AcDbEntity
  8
INDUSA
  6
Continuous
100
AcDbCircle
 10
208.576691882793
 20
59.63517267480054
 30
0.0
 40
0.005
100
AcDbArc
 50
90.0
 51
180.0000000000004
  0
ARC
  5
DE
330
A
100
AcDbEntity
  8
INDUSA
  6
Continuous
100
AcDbCircle
 10
209.116691882793
 20
59.63517267480054
 30
0.0
 40
0.005
100
AcDbArc
 50
0.0
 51
90.0
  0
LINE
  5
DF
330
A
100
AcDbEntity
  8
INDUSA
  6
Continuous
100
AcDbLine
 10
209.121691882793
 20
59.60517267480054
 30
0.0
 11
209.121691882793
 21
59.63517267480054
 31
0.0
  0
LINE
  5
E0
330
A
100
AcDbEntity
  8
INDUSA
  6
Continuous
100
AcDbLine
 10
208.571691882793
 20
59.63517267480054
 30
0.0
 11
208.571691882793
 21
59.60517267480054
 31
0.0
  0
ARC
  5
E1
330
A
100
AcDbEntity
  8
INDUSA
  6
Continuous
100
AcDbCircle
 10
209.116691882793
 20
59.60517267480054
 30
0.0
 40
0.005
100
AcDbArc
 50
270.0000000000008
 51
0.0
  0
ARC
  5
E2
330
A
100
AcDbEntity
  8
INDUSA
  6
Continuous
100
AcDbCircle
 10
208.576691882793
 20
59.60517267480054
 30
0.0
 40
0.005
100
AcDbArc
 50
180.0000000000004
 51
270.0000000000008
  0
LWPOLYLINE
  5
105
330
A
100
AcDbEntity
  8
INDUSA
  6
Continuous
100
AcDbPolyline
 90
       13
 70
   128
 43
0.0
 10
209.0131728003453
 20
59.50590684079723
 10
209.0139467893172
 20
59.50629535481947
 10
209.0159042353637
 20
59.5072118390559
 10
209.0175815079159
 20
59.50795046263109
 10
209.0192568994939
 20
59.50864237472679
 10
209.0209283288065
 20
59.50928394083579
 10
209.0226108711164
 20
59.50987724264556
 10
209.0260388953753
 20
59.51090652274341
 10
209.0293928673538
 20
59.51164984139154
 10
209.0310924583552
 20
59.51191362233461
 10
209.0331114147488
 20
59.51211001253227
 10
209.0354272709213
 20
59.51215989678933
 10
209.0373348761051
 20
59.51201627923989
  0
LWPOLYLINE
  5
114
330
A
100
AcDbEntity
  8
INDUSA
  6
Continuous
100
AcDbPolyline
 90
       12
 70
   128
 43
0.0
 10
208.6560488894809
 20
59.51201627923989
 10
208.6579564946647
 20
59.51215989678933
 10
208.6602723508372
 20
59.51211001253227
 10
208.6626551224646
 20
59.51186432717515
 10
208.6646480611314
 20
59.51152654734501
 10
208.6666603863037
 20
59.51108065707455
 10
208.6687239869457
 20
59.51052299475541
 10
208.6707728944696
 20
59.50987724264556
 10
208.6741268660921
 20
59.50864237472679
 10
208.6774795302223
 20
59.5072118390559
 10
208.6794369762688
 20
59.50629535481947
 10
208.6802109652407
 20
59.50590684079723
  0
LWPOLYLINE
  5
134
330
A
100
AcDbEntity
  8
INDUSA
  6
Continuous
100
AcDbPolyline
 90
       16
 70
   128
 43
0.0
 10
208.6317788488205
 20
59.59858257751815
 10
208.6322461597233
 20
59.5900471643269
 10
208.6327317484902
 20
59.58134063386522
 10
208.63317266085
 20
59.57361324117636
 10
208.6335661607675
 20
59.56682134585699
 10
208.6339102808774
 20
59.56093628714434
 10
208.6342040369322
 20
59.55593799848331
 10
208.6344468943285
 20
59.55181553156695
 10
208.6346019095191
 20
59.54918748166216
 10
208.6347636786963
 20
59.5464464185521
 10
208.6349570043425
 20
59.54317163399512
 10
208.6351819519056
 20
59.53936226921383
 10
208.6354386590187
 20
59.53501663419364
 10
208.6358233332287
 20
59.52851202514059
 10
208.6362636617607
 20
59.5210849829065
 10
208.6366565329724
 20
59.51449366518764
  0
LWPOLYLINE
  5
15E
330
A
100
AcDbEntity
  8
INDUSA
  6
Continuous
100
AcDbPolyline
 90
       13
 70
   128
 43
0.0
 10
208.6940450466243
 20
59.49818545254284
 10
208.6970779167822
 20
59.49635918039632
 10
208.7028224423778
 20
59.4927989870936
 10
208.708112889851
 20
59.48952814516554
 10
208.7136017766735
 20
59.48618214288938
 10
208.7191989938027
 20
59.48284478035279
 10
208.7245879391756
 20
59.47973393289986
 10
208.7297727933789
 20
59.47686680928852
 10
208.7346695661205
 20
59.47429966707591
 10
208.7392452262759
 20
59.47205168707216
 10
208.7435470817004
 20
59.47009931923603
 10
208.7476150376767
 20
59.46842555043497
 10
208.7494415670195
 20
59.46775798167919
  0
LWPOLYLINE
  5
16D
330
A
100
AcDbEntity
  8
INDUSA
  6
Continuous
100
AcDbPolyline
 90
       13
 70
   128
 43
0.0
 10
208.9439376779672
 20
59.46774902229815
 10
208.9465331102727
 20
59.46872582243038
 10
208.9504568085146
 20
59.4703699629799
 10
208.9545531314845
 20
59.47224857504395
 10
208.9588568405363
 20
59.47437224263299
 10
208.9633951688582
 20
59.47675059286417
 10
208.9681922429922
 20
59.47939320380334
 10
208.9732512128866
 20
59.48229776565353
 10
208.9785631890978
 20
59.48544791726217
 10
208.9840751875744
 20
59.48879458750457
 10
208.989805939429
 20
59.49232954334489
 10
208.9954096343957
 20
59.49580729806692
 10
208.9993362397851
 20
59.4981878003726
  0
LWPOLYLINE
  5
17C
330
A
100
AcDbEntity
  8
INDUSA
  6
Continuous
100
AcDbPolyline
 90
        3
 70
   128
 43
0.0
 10
208.6915838887067
 20
59.49965481040491
 10
208.6921646849681
 20
59.49930944447221
 10
208.6940555907883
 20
59.49816971681585
  0
LWPOLYLINE
  5
181
330
A
100
AcDbEntity
  8
INDUSA
  6
Continuous
100
AcDbPolyline
 90
        3
 70
   128
 43
0.0
 10
208.9993249110601
 20
59.49817064556196
 10
208.9994293472924
 20
59.49823397851625
 10
209.0018013438357
 20
59.49965436632833
  0
LINE
  5
186
330
A
100
AcDbEntity
  8
INDUSA
  6
Continuous
100
AcDbLine
 10
209.0018174842845
 20
59.49966737957375
 30
0.0
 11
209.0031007046699
 21
59.50041594851381
 31
0.0
  0
LINE
  5
1C7
330
A
100
AcDbEntity
  8
INDUSA
  6
Continuous
100
AcDbLine
 10
208.9092404570763
 20
58.80017267480054
 30
0.0
 11
208.7841433085098
 21
58.80017267480054
 31
0.0
  0
LWPOLYLINE
  5
1D0
330
A
100
AcDbEntity
  8
INDUSA
  6
Continuous
100
AcDbPolyline
 90
        6
 70
   128
 43
0.0
 10
208.91427894815
 20
58.80017267480055
 10
208.9159359139439
 20
58.80045482224594
 10
208.9174060742926
 20
58.80126958014241
 10
208.9185231270645
 20
58.80252484305159
 10
208.9191609636752
 20
58.80407824817813
 10
208.9192814600787
 20
58.80508151005666
  0
LINE
  5
1D8
330
A
100
AcDbEntity
  8
INDUSA
  6
Continuous
100
AcDbLine
 10
208.9092404570763
 20
58.80017267480054
 30
0.0
 11
208.91427894815
 21
58.80017267480054
 31
0.0
  0
LINE
  5
1D9
330
A
100
AcDbEntity
  8
INDUSA
  6
Continuous
100
AcDbLine
 10
208.9192814600787
 20
58.80508151005665
 30
0.0
 11
208.9313634156397
 21
59.46717267480054
 31
0.0
  0
LINE
  5
1E2
330
A
100
AcDbEntity
  8
INDUSA
  6
Continuous
100
AcDbLine
 10
208.7741023055073
 20
58.80508151005665
 30
0.0
 11
208.7620203499463
 21
59.46717267480054
 31
0.0
  0
LWPOLYLINE
  5
1E3
330
A
100
AcDbEntity
  8
INDUSA
  6
Continuous
100
AcDbPolyline
 90
        6
 70
   128
 43
0.0
 10
208.779104817436
 20
58.80017267480055
 10
208.7774478516422
 20
58.80045482224594
 10
208.7759776912934
 20
58.80126958014241
 10
208.7748606385215
 20
58.80252484305159
 10
208.7742228019108
 20
58.80407824817813
 10
208.7741023055073
 20
58.80508151005666
  0
LINE
  5
1EB
330
A
100
AcDbEntity
  8
INDUSA
  6
Continuous
100
AcDbLine
 10
208.7841433085098
 20
58.80017267480054
 30
0.0
 11
208.779104817436
 21
58.80017267480054
 31
0.0
  0
LINE
  5
1EC
330
A
100
AcDbEntity
  8
INDUSA
  6
Continuous
100
AcDbLine
 10
208.576691882793
 20
59.64017267480055
 30
0.0
 11
209.116691882793
 21
59.64017267480055
 31
0.0
  0
LINE
  5
1ED
330
A
100
AcDbEntity
  8
INDUSA
  6
Continuous
100
AcDbLine
 10
209.116691882793
 20
59.60017267480054
 30
0.0
 11
208.576691882793
 21
59.60017267480054
 31
0.0
  0
LINE
  5
1F8
330
A
100
AcDbEntity
  8
INDUSA
  6
Continuous
100
AcDbLine
 10
208.7352529369351
 20
59.49190430001564
 30
0.0
 11
208.958130828651
 21
59.49190430001564
 31
0.0
  0
LINE
  5
1F9
330
A
100
AcDbEntity
  8
INDUSA
  6
Continuous
100
AcDbLine
 10
208.7054825991917
 20
59.52302783492918
 30
0.0
 11
208.7352529369351
 21
59.49190430001564
 31
0.0
  0
LINE
  5
1FA
330
A
100
AcDbEntity
  8
INDUSA
  6
Continuous
100
AcDbLine
 10
208.9879011663943
 20
59.52302783492918
 30
0.0
 11
208.958130828651
 21
59.49190430001564
 31
0.0
  0
ARC
  5
1FB
330
A
100
AcDbEntity
  8
INDUSA
  6
Continuous
100
AcDbCircle
 10
208.9942629215083
 20
59.45734316771727
 30
0.0
 40
0.05
100
AcDbArc
 50
136.2730300200567
 51
157.3801350519597
  0
ARC
  5
1FD
330
A
100
AcDbEntity
  8
INDUSA
  6
Continuous
100
AcDbCircle
 10
208.6991208440777
 20
59.45734316771727
 30
0.0
 40
0.0500000000000001
100
AcDbArc
 50
22.61986494804019
 51
43.72696997994316
  0
LINE
  5
1FE
330
A
100
AcDbEntity
  8
INDUSA
  6
Continuous
100
AcDbLine
 10
208.9481090753545
 20
59.47657393694804
 30
0.0
 11
208.9457303443315
 21
59.47086498249285
 31
0.0
  0
LINE
  5
200
330
A
100
AcDbEntity
  8
INDUSA
  6
Continuous
100
AcDbLine
 10
208.7452746902315
 20
59.47657393694804
 30
0.0
 11
208.7476534212546
 21
59.47086498249285
 31
0.0
  0
LINE
  5
201
330
A
100
AcDbEntity
  8
INDUSA
  6
Continuous
100
AcDbLine
 10
208.940191882793
 20
59.46717267480054
 30
0.0
 11
208.753191882793
 21
59.46717267480054
 31
0.0
  0
ARC
  5
202
330
A
100
AcDbEntity
  8
INDUSA
  6
Continuous
100
AcDbCircle
 10
208.753191882793
 20
59.47317267480054
 30
0.0
 40
0.0060000000000001
100
AcDbArc
 50
202.6198649480437
 51
270.0000000000008
  0
ARC
  5
203
330
A
100
AcDbEntity
  8
INDUSA
  6
Continuous
100
AcDbCircle
 10
208.940191882793
 20
59.47317267480054
 30
0.0
 40
0.0060000000000002
100
AcDbArc
 50
270.0000000000008
 51
337.3801350519587
  0
LWPOLYLINE
  5
204
330
A
100
AcDbEntity
  8
INDUSA
  6
Continuous
100
AcDbPolyline
 90
       12
 70
   128
 43
0.0
 10
209.051091269497
 20
59.51070496753523
 10
209.0514782609863
 20
59.51068487898542
 10
209.051854542721
 20
59.51069075620428
 10
209.0522123832061
 20
59.51072136378134
 10
209.0527170816114
 20
59.51080599360361
 10
209.0531083714582
 20
59.51089749144979
 10
209.0536915026858
 20
59.51111165153271
 10
209.0541957425577
 20
59.51134597423732
 10
209.0545848413955
 20
59.51156512277827
 10
209.055338141689
 20
59.51212954892898
 10
209.0559170143733
 20
59.51271595603004
 10
209.0564135022515
 20
59.51337744862876
  0
LINE
  5
212
330
A
100
AcDbEntity
  8
INDUSA
  6
Continuous
100
AcDbLine
 10
209.0510909655601
 20
59.51070184352718
 30
0.0
 11
209.03733716594
 21
59.51203981775801
 31
0.0
  0
LWPOLYLINE
  5
213
330
A
100
AcDbEntity
  8
INDUSA
  6
Continuous
100
AcDbPolyline
 90
        3
 70
   128
 43
0.0
 10
209.0032266661031
 20
59.50049344676529
 10
209.0078127561603
 20
59.50311688407713
 10
209.0131745735421
 20
59.50590318343474
  0
LWPOLYLINE
  5
218
330
A
100
AcDbEntity
  8
INDUSA
  6
Continuous
100
AcDbPolyline
 90
        5
 70
   128
 43
0.0
 10
208.9995056412503
 20
59.49830825254569
 10
208.9998467971394
 20
59.49851279424715
 10
209.0006477488384
 20
59.49899120990314
 10
209.001451012016
 20
59.49946834685318
 10
209.0019431649371
 20
59.49975922986006
  0
LWPOLYLINE
  5
244
330
A
100
AcDbEntity
  8
INDUSA
  6
Continuous
100
AcDbPolyline
 90
        5
 70
   128
 43
0.0
 10
208.6938781243357
 20
59.49830825254569
 10
208.6935369684466
 20
59.49851279424715
 10
208.6927360167476
 20
59.49899120990314
 10
208.69193275357
 20
59.49946834685318
 10
208.6914406006489
 20
59.49975922986006
  0
LWPOLYLINE
  5
24B
330
A
100
AcDbEntity
  8
INDUSA
  6
Continuous
100
AcDbPolyline
 90
        3
 70
   128
 43
0.0
 10
208.689954609159
 20
59.50060927978739
 10
208.6855710094257
 20
59.50311688407713
 10
208.6802091920439
 20
59.50590318343474
  0
LINE
  5
250
330
A
100
AcDbEntity
  8
INDUSA
  6
Continuous
100
AcDbLine
 10
208.642292800026
 20
59.51070184352718
 30
0.0
 11
208.656046599646
 21
59.51203981775801
 31
0.0
  0
LWPOLYLINE
  5
251
330
A
100
AcDbEntity
  8
INDUSA
  6
Continuous
100
AcDbPolyline
 90
       12
 70
   128
 43
0.0
 10
208.642292496089
 20
59.51070496753523
 10
208.6419055045997
 20
59.51068487898542
 10
208.641529222865
 20
59.51069075620428
 10
208.6411713823799
 20
59.51072136378134
 10
208.6406666839746
 20
59.51080599360361
 10
208.6402753941278
 20
59.51089749144979
 10
208.6396922629002
 20
59.51111165153271
 10
208.6391880230284
 20
59.51134597423732
 10
208.6387989241905
 20
59.51156512277827
 10
208.638045623897
 20
59.51212954892898
 10
208.6374667512127
 20
59.51271595603004
 10
208.6369702633345
 20
59.51337744862876
  0
LINE
  5
264
330
A
100
AcDbEntity
  8
INDUSA
  6
Continuous
100
AcDbLine
 10
209.0615988888072
 20
59.59858276675059
 30
0.0
 11
209.0615989086419
 21
59.59858310148491
 31
0.0
  0
LINE
  5
265
330
A
100
AcDbEntity
  8
INDUSA
  6
Continuous
100
AcDbLine
 10
209.0615988888072
 20
59.59858276675059
 30
0.0
 11
209.0566521309195
 21
59.51400858577002
 31
0.0
  0
LINE
  5
266
330
A
100
AcDbEntity
  8
INDUSA
  6
Continuous
100
AcDbLine
 10
209.0564135022515
 20
59.51337744862876
 30
0.0
 11
209.0566521309195
 21
59.51400858577002
 31
0.0
  0
LINE
  5
267
330
A
100
AcDbEntity
  8
INDUSA
  6
Continuous
100
AcDbLine
 10
208.6369702633345
 20
59.51337744862876
 30
0.0
 11
208.6367316346666
 21
59.51400858577002
 31
0.0
  0
LINE
  5
269
330
A
100
AcDbEntity
  8
INDUSA
  6
Continuous
100
AcDbLine
 10
208.6317848767789
 20
59.59858276675059
 30
0.0
 11
208.6317848569442
 21
59.59858310148491
 31
0.0
  0
LWPOLYLINE
  5
26A
330
A
100
AcDbEntity
  8
INDUSA
  6
Continuous
100
AcDbPolyline
 90
        5
 70
   128
 43
0.0
 10
208.6311596285483
 20
59.59945102303926
 10
208.6314805489513
 20
59.59924326102983
 10
208.6315286972938
 20
59.59919353735374
 10
208.6317087571967
 20
59.59891013188541
 10
208.6317848569441
 20
59.59858310148491
  0
LWPOLYLINE
  5
271
330
A
100
AcDbEntity
  8
INDUSA
  6
Continuous
100
AcDbPolyline
 90
        5
 70
   128
 43
0.0
 10
209.0622241370378
 20
59.59945102303926
 10
209.0619032166347
 20
59.59924326102983
 10
209.0618550682922
 20
59.59919353735374
 10
209.0616750083893
 20
59.59891013188541
 10
209.0615989086419
 20
59.59858310148491
  0
LWPOLYLINE
  5
27D
330
A
100
AcDbEntity
  8
INDUSA
  6
Continuous
100
AcDbPolyline
 90
        3
 70
   128
 43
0.0
 10
208.6367316346665
 20
59.51400858577002
 10
208.6366929007325
 20
59.51416644074524
 10
208.6366591916877
 20
59.5144938595277
  0
LINE
  5
282
330
A
100
AcDbEntity
  8
INDUSA
  6
Continuous
100
AcDbLine
 10
208.754191882793
 20
59.46717267480054
 30
0.0
 11
208.759191882793
 21
59.46717267480054
 31
0.0
  0
LINE
  5
283
330
A
100
AcDbEntity
  8
INDUSA
  6
Continuous
100
AcDbLine
 10
208.939191882793
 20
59.46717267480054
 30
0.0
 11
208.934191882793
 21
59.46717267480054
 31
0.0
  0
LINE
  5
2A5
330
A
100
AcDbEntity
  8
INDUSA
  6
Continuous
100
AcDbLine
 10
208.9414120911402
 20
59.46717267480054
 30
0.0
 11
208.940191882793
 21
59.46717267480054
 31
0.0
  0
LINE
  5
2AF
330
A
100
AcDbEntity
  8
INDUSA
  6
Continuous
100
AcDbLine
 10
208.7519716744458
 20
59.46717267480054
 30
0.0
 11
208.753191882793
 21
59.46717267480054
 31
0.0
  0
LWPOLYLINE
  5
2B0
330
A
100
AcDbEntity
  8
INDUSA
  6
Continuous
100
AcDbPolyline
 90
        3
 70
   128
 43
0.0
 10
208.6940600006368
 20
59.49821218598087
 10
208.6939299267128
 20
59.49826253661217
 10
208.6938781243357
 20
59.49830825254569
  0
LWPOLYLINE
  5
2B5
330
A
100
AcDbEntity
  8
INDUSA
  6
Continuous
100
AcDbPolyline
 90
        3
 70
   128
 43
0.0
 10
208.9993227512504
 20
59.49821179358575
 10
208.9994538388733
 20
59.49826253661217
 10
208.9995056412503
 20
59.49830825254569
  0
LINE
  5
2D0
330
A
100
AcDbEntity
  8
INDUSA
  6
Continuous
100
AcDbLine
 10
209.0019431649371
 20
59.49975922986006
 30
0.0
 11
209.0032266661032
 21
59.50049344676529
 31
0.0
  0
LINE
  5
2D1
330
A
100
AcDbEntity
  8
INDUSA
  6
Continuous
100
AcDbLine
 10
208.691440600649
 20
59.49975922986006
 30
0.0
 11
208.689954609159
 21
59.50060927978739
 31
0.0
  0
LINE
  5
2FE
330
A
100
AcDbEntity
  8
INDUSA
  6
Continuous
100
AcDbLine
 10
209.7868960744774
 20
58.80512045923417
 30
0.0
 11
209.7936615715707
 21
59.46717267480054
 31
0.0
  0
ARC
  5
2FF
330
A
100
AcDbEntity
  8
INDUSA
  6
Continuous
100
AcDbCircle
 10
209.781896347
 20
58.80517267480055
 30
0.0
 40
0.0049999999999999
100
AcDbArc
 50
269.9999987847964
 51
359.6007022873277
  0
ARC
  5
300
330
A
100
AcDbEntity
  8
INDUSA
  6
Continuous
100
AcDbCircle
 10
209.9838455131765
 20
59.63517267480054
 30
0.0
 40
0.005
100
AcDbArc
 50
0.0
 51
90.0
  0
LINE
  5
301
330
A
100
AcDbEntity
  8
INDUSA
  6
Continuous
100
AcDbLine
 10
209.9888455131766
 20
59.60517267480054
 30
0.0
 11
209.9888455131766
 21
59.63517267480054
 31
0.0
  0
ARC
  5
302
330
A
100
AcDbEntity
  8
INDUSA
  6
Continuous
100
AcDbCircle
 10
209.9838455131765
 20
59.60517267480054
 30
0.0
 40
0.005
100
AcDbArc
 50
270.0000000000008
 51
0.0
  0
LINE
  5
32E
330
A
100
AcDbEntity
  8
INDUSA
  6
Continuous
100
AcDbLine
 10
209.8252844590345
 20
59.49190430001564
 30
0.0
 11
209.9259870704536
 21
59.5971843028629
 31
0.0
  0
LWPOLYLINE
  5
32F
330
A
100
AcDbEntity
  8
INDUSA
  6
Continuous
100
AcDbPolyline
 90
        3
 70
   128
 43
0.0
 10
209.4353453830717
 20
59.51068353364841
 10
209.4698437530767
 20
59.51068238167183
 10
209.5939146705141
 20
59.51067826766131
  0
ARC
  5
343
330
A
100
AcDbEntity
  8
INDUSA
  6
Continuous
100
AcDbCircle
 10
209.4338455131797
 20
59.63817267480034
 30
0.0
 40
0.0049999999999944
100
AcDbArc
 50
284.5071560363983
 51
342.5196967790995
  0
LWPOLYLINE
  5
344
330
A
100
AcDbEntity
  8
INDUSA
  6
Continuous
100
AcDbPolyline
 90
        9
 70
   128
 43
0.0
 10
209.435346754989
 20
59.51068353485659
 10
209.4347391485207
 20
59.51072976152529
 10
209.4341456143559
 20
59.51086774597626
 10
209.4335799270325
 20
59.51109428591355
 10
209.4330552148284
 20
59.5114041238758
 10
209.4325836550848
 20
59.51179006924959
 10
209.4321761915991
 20
59.51224316514668
 10
209.4318422806443
 20
59.5127528962725
 10
209.4315896715118
 20
59.51330743296145
  0
LWPOLYLINE
  5
34F
330
A
100
AcDbEntity
  8
INDUSA
  6
Continuous
100
AcDbPolyline
 90
        9
 70
   128
 43
0.0
 10
209.5974206548656
 20
59.51181125956634
 10
209.5988790750278
 20
59.51120519285328
 10
209.6004336215417
 20
59.51023552047947
 10
209.6019446114249
 20
59.50897809606985
 10
209.6030435812076
 20
59.50789438559412
 10
209.6041819904369
 20
59.50669649740522
 10
209.6062082328097
 20
59.50443101687669
 10
209.6084734827071
 20
59.50178258242723
 10
209.6091881402008
 20
59.50093997879456
  0
LWPOLYLINE
  5
35D
330
A
100
AcDbEntity
  8
INDUSA
  6
Continuous
100
AcDbPolyline
 90
        3
 70
   128
 43
0.0
 10
209.609152576041
 20
59.50090566309594
 10
209.6094642268959
 20
59.50054275715528
 10
209.6105408371791
 20
59.49931825777571
  0
LWPOLYLINE
  5
362
330
A
100
AcDbEntity
  8
INDUSA
  6
Continuous
100
AcDbPolyline
 90
        7
 70
   128
 43
0.0
 10
209.6106177120281
 20
59.49928143913466
 10
209.6111270746028
 20
59.49872195808623
 10
209.6144186443898
 20
59.4952843440576
 10
209.6176423599093
 20
59.49217267002763
 10
209.6212822836404
 20
59.48897343874534
 10
209.6257067835341
 20
59.48544123288588
 10
209.6298568876535
 20
59.48246201889585
  0
ARC
  5
36B
330
A
100
AcDbEntity
  8
INDUSA
  6
Continuous
100
AcDbCircle
 10
209.8614165518918
 20
59.45734316771727
 30
0.0
 40
0.05
100
AcDbArc
 50
136.2730300200567
 51
157.3801350519597
  0
LINE
  5
36C
330
A
100
AcDbEntity
  8
INDUSA
  6
Continuous
100
AcDbLine
 10
209.812883974715
 20
59.47086498249285
 30
0.0
 11
209.815262705738
 21
59.47657393694804
 31
0.0
  0
ARC
  5
36D
330
A
100
AcDbEntity
  8
INDUSA
  6
Continuous
100
AcDbCircle
 10
209.8073455131765
 20
59.47317267480054
 30
0.0
 40
0.0060000000000001
100
AcDbArc
 50
270.0000000000008
 51
337.3801350519579
  0
LINE
  5
376
330
A
100
AcDbEntity
  8
INDUSA
  6
Continuous
100
AcDbLine
 10
209.5838455131766
 20
59.48517267480054
 30
0.0
 11
209.6260808902683
 21
59.48517267480054
 31
0.0
  0
LINE
  5
377
330
A
100
AcDbEntity
  8
INDUSA
  6
Continuous
100
AcDbLine
 10
209.5838455131766
 20
58.80508151005665
 30
0.0
 11
209.5838455131766
 21
59.48517267480054
 31
0.0
  0
LINE
  5
383
330
A
100
AcDbEntity
  8
INDUSA
  6
Continuous
100
AcDbLine
 10
209.7215941084519
 20
58.80017267480054
 30
0.0
 11
209.5838455131766
 21
58.80017267480054
 31
0.0
  0
LINE
  5
384
330
A
100
AcDbEntity
  8
INDUSA
  6
Continuous
100
AcDbLine
 10
209.5838455131766
 20
58.80017267480054
 30
0.0
 11
209.5838455131766
 21
58.80508151005665
 31
0.0
  0
LINE
  5
385
330
A
100
AcDbEntity
  8
INDUSA
  6
Continuous
100
AcDbLine
 10
209.7215941084519
 20
58.80017267480054
 30
0.0
 11
209.7818406175885
 21
58.80017267480054
 31
0.0
  0
LINE
  5
391
330
A
100
AcDbEntity
  8
INDUSA
  6
Continuous
100
AcDbLine
 10
209.4923485183574
 20
59.64017267480055
 30
0.0
 11
209.9838455131765
 21
59.64017267480055
 31
0.0
  0
LWPOLYLINE
  5
392
330
A
100
AcDbEntity
  8
INDUSA
  6
Continuous
100
AcDbPolyline
 90
        3
 70
   128
 43
0.0
 10
209.5335281436575
 20
59.60517267480055
 10
209.5335421630979
 20
59.60916470482183
 10
209.5335724580185
 20
59.61816600751124
  0
LINE
  5
397
330
A
100
AcDbEntity
  8
INDUSA
  6
Continuous
100
AcDbLine
 10
209.5335724580185
 20
59.61816600751124
 30
0.0
 11
209.5335724580185
 21
59.64017267480055
 31
0.0
  0
LWPOLYLINE
  5
3A0
330
A
100
AcDbEntity
  8
INDUSA
  6
Continuous
100
AcDbPolyline
 90
        4
 70
   128
 43
0.0
 10
209.5418491671128
 20
59.60017267480054
 10
209.5392780435174
 20
59.60035881800948
 10
209.5367067447026
 20
59.60097871317729
 10
209.5340961494598
 20
59.60235981367659
  0
LWPOLYLINE
  5
3A6
330
A
100
AcDbEntity
  8
INDUSA
  6
Continuous
100
AcDbPolyline
 90
        9
 70
   128
 43
0.0
 10
209.5335281436575
 20
59.60517267480055
 10
209.5335372833121
 20
59.60479958827029
 10
209.5335646513177
 20
59.60442858188919
 10
209.5336100950837
 20
59.6040617242085
 10
209.5336733612375
 20
59.60370106064835
 10
209.533754097038
 20
59.60334860209342
 10
209.5338518523415
 20
59.60300631368131
 10
209.533966082112
 20
59.60267610384586
 10
209.5340961494598
 20
59.60235981367659
  0
LINE
  5
3B1
330
A
100
AcDbEntity
  8
INDUSA
  6
Continuous
100
AcDbLine
 10
209.9838455131765
 20
59.60017267480054
 30
0.0
 11
209.5418491671128
 21
59.60017267480054
 31
0.0
  0
LWPOLYLINE
  5
3B2
330
A
100
AcDbEntity
  8
INDUSA
  6
Continuous
100
AcDbPolyline
 90
        6
 70
   128
 43
0.0
 10
209.7713205022837
 20
59.59877826398499
 10
209.7711535648967
 20
59.59890756200592
 10
209.7709172223441
 20
59.59898126398678
 10
209.7706708570463
 20
59.59901943685808
 10
209.7705013357759
 20
59.59903743189424
 10
209.770488056089
 20
59.59903868349183
  0
LWPOLYLINE
  5
3BA
330
A
100
AcDbEntity
  8
INDUSA
  6
Continuous
100
AcDbPolyline
 90
       14
 70
   128
 43
0.0
 10
209.770488056089
 20
59.59903868349183
 10
209.7701978164847
 20
59.59904406870164
 10
209.7696604343169
 20
59.59905235263095
 10
209.768583662139
 20
59.59906748331629
 10
209.7664248410725
 20
59.59909685242266
 10
209.7620842542918
 20
59.59914713620567
 10
209.7599038250581
 20
59.59916890066185
 10
209.7555244091071
 20
59.59920756618964
 10
209.7511231820663
 20
59.59924131675511
 10
209.7422638178803
 20
59.59929858273598
 10
209.7366081587606
 20
59.5993300548991
 10
209.7309382129513
 20
59.59935906321717
 10
209.7195885279184
 20
59.59941332201796
 10
209.7117432379527
 20
59.59945102303926
  0
LWPOLYLINE
  5
3CA
330
A
100
AcDbEntity
  8
INDUSA
  6
Continuous
100
AcDbPolyline
 90
        3
 70
   128
 43
0.0
 10
209.7117432379527
 20
59.59945102303926
 10
209.6965092146536
 20
59.59972922101414
 10
209.6784966044083
 20
59.60016010260968
  0
LWPOLYLINE
  5
3CF
330
A
100
AcDbEntity
  8
INDUSA
  6
Continuous
100
AcDbPolyline
 90
        5
 70
   128
 43
0.0
 10
209.9258903493734
 20
59.59708490126005
 10
209.9274061987656
 20
59.5983817876425
 10
209.9291875099669
 20
59.59936838751342
 10
209.9311317454533
 20
59.59997368733854
 10
209.933116712011
 20
59.60017267480054
  0
LWPOLYLINE
  5
3ED
330
A
100
AcDbEntity
  8
INDUSA
  6
Continuous
100
AcDbPolyline
 90
        5
 70
   128
 43
0.0
 10
209.7713204790564
 20
59.59877823638314
 10
209.7714618683418
 20
59.59849406788008
 10
209.7714818394445
 20
59.59808333083248
 10
209.7712909670725
 20
59.59760484513134
 10
209.7708823162098
 20
59.59708490126022
  0
LWPOLYLINE
  5
421
330
A
100
AcDbEntity
  8
INDUSA
  6
Continuous
100
AcDbPolyline
 90
        5
 70
   128
 43
0.0
 10
209.6477963120182
 20
59.60017267480054
 10
209.6478208402539
 20
59.60009718536308
 10
209.6478416652443
 20
59.59988211436101
 10
209.6478556428555
 20
59.59955993297227
 10
209.6478606627637
 20
59.59917928378046
  0
LWPOLYLINE
  5
43C
330
A
100
AcDbEntity
  8
INDUSA
  6
Continuous
100
AcDbPolyline
 90
        6
 70
   128
 43
0.0
 10
209.6478606881533
 20
59.5991792440822
 10
209.633236281161
 20
59.57775562450096
 10
209.6193676158051
 20
59.55569742801707
 10
209.6113424139228
 20
59.54233274238625
 10
209.6033962981699
 20
59.52890934591606
 10
209.5923667679137
 20
59.51067831898749
  0
LWPOLYLINE
  5
494
330
A
100
AcDbEntity
  8
INDUSA
  6
Continuous
100
AcDbPolyline
 90
       17
 70
   128
 43
0.0
 10
209.7138455131498
 20
59.5230278349051
 10
209.7208125727579
 20
59.53358618531703
 10
209.7280989021947
 20
59.54386977475172
 10
209.7358091560927
 20
59.55421967907955
 10
209.7437408068452
 20
59.56447237591757
 10
209.747398150179
 20
59.56900414109829
 10
209.7511446010838
 20
59.57351804808232
 10
209.754975840946
 20
59.57801409686966
 10
209.7585686148665
 20
59.5822346441456
 10
209.7602759682442
 20
59.58428140140975
 10
209.7620773210977
 20
59.58645831657683
 10
209.7637747352455
 20
59.58852013045898
 10
209.7654156279142
 20
59.59051503240165
 10
209.7668470476584
 20
59.59225074914094
 10
209.7677289079239
 20
59.59331717070011
 10
209.7690487581739
 20
59.59490453241435
 10
209.7708793001123
 20
59.59708430286291
  0
LWPOLYLINE
  5
4A7
330
A
100
AcDbEntity
  8
INDUSA
  6
Continuous
100
AcDbPolyline
 90
       11
 70
   128
 43
0.0
 10
209.5939146787328
 20
59.51068648208598
 10
209.5939881861041
 20
59.51069075620428
 10
209.5941399994292
 20
59.51072136378134
 10
209.5944413328099
 20
59.51080599360361
 10
209.5947245572098
 20
59.51089749144979
 10
209.5953016313499
 20
59.51111165153271
 10
209.5958860870252
 20
59.51134597423732
 10
209.5964041354722
 20
59.51156512277827
 10
209.5976590559239
 20
59.51212954892898
 10
209.5988936211699
 20
59.51271595603004
 10
209.6002367902976
 20
59.51337744862876
  0
LWPOLYLINE
  5
4CC
330
A
100
AcDbEntity
  8
INDUSA
  6
Continuous
100
AcDbPolyline
 90
        4
 70
   128
 43
0.0
 10
209.7696929053738
 20
59.59768827178035
 10
209.7708045155587
 20
59.59832139460016
 10
209.7712672699579
 20
59.59871390015702
 10
209.7713204689421
 20
59.59877822059243
  0
LWPOLYLINE
  5
4DD
330
A
100
AcDbEntity
  8
INDUSA
  6
Continuous
100
AcDbPolyline
 90
        3
 70
   128
 43
0.0
 10
209.69774531104
 20
59.49190430001564
 10
209.7055273681834
 20
59.50753294854672
 10
209.7138455131498
 20
59.5230278349051
  0
LWPOLYLINE
  5
501
330
A
100
AcDbEntity
  8
INDUSA
  6
Continuous
100
AcDbPolyline
 90
        3
 70
   128
 43
0.0
 10
209.6208263362801
 20
59.52372843435336
 10
209.6213916845174
 20
59.52401265196256
 10
209.6221414944895
 20
59.52439773021723
  0
LWPOLYLINE
  5
516
330
A
100
AcDbEntity
  8
INDUSA
  6
Continuous
100
AcDbPolyline
 90
        4
 70
   128
 43
0.0
 10
209.5335724580185
 20
59.63293964925759
 10
209.5335586403809
 20
59.63293094876195
 10
209.531466236803
 20
59.63168353202927
 10
209.528367013687
 20
59.63006784504742
  0
LWPOLYLINE
  5
54B
330
A
100
AcDbEntity
  8
INDUSA
  6
Continuous
100
AcDbPolyline
 90
        4
 70
   128
 43
0.0
 10
209.528367013687
 20
59.63006784504742
 10
209.5250729637509
 20
59.62899365209433
 10
209.5221086262918
 20
59.62854855133826
 10
209.5190832191842
 20
59.62844191264091
  0
LWPOLYLINE
  5
589
330
A
100
AcDbEntity
  8
INDUSA
  6
Continuous
100
AcDbPolyline
 90
        5
 70
   128
 43
0.0
 10
209.4327762399022
 20
59.62704079514979
 10
209.4332849175592
 20
59.62751485795483
 10
209.4350983626866
 20
59.62848071997777
 10
209.4363351791492
 20
59.62869184688098
 10
209.4363455131765
 20
59.62869230129928
  0
LINE
  5
590
330
A
100
AcDbEntity
  8
INDUSA
  6
Continuous
100
AcDbLine
 10
209.5190832191842
 20
59.62844191264091
 30
0.0
 11
209.4363455131766
 21
59.62869230129928
 31
0.0
  0
LWPOLYLINE
  5
59C
330
A
100
AcDbEntity
  8
INDUSA
  6
Continuous
100
AcDbPolyline
 90
        3
 70
   128
 43
0.0
 10
209.4313455131765
 20
59.51468536445127
 10
209.4314220105773
 20
59.51390824330461
 10
209.4315890888651
 20
59.51331336311589
  0
LINE
  5
5A1
330
A
100
AcDbEntity
  8
INDUSA
  6
Continuous
100
AcDbLine
 10
209.4313455131766
 20
59.6236975168356
 30
0.0
 11
209.4313455131766
 21
59.51468536445127
 31
0.0
  0
LWPOLYLINE
  5
5A2
330
A
100
AcDbEntity
  8
INDUSA
  6
Continuous
100
AcDbPolyline
 90
        3
 70
   128
 43
0.0
 10
209.4327762399022
 20
59.62704079514979
 10
209.4316932329454
 20
59.62544709391017
 10
209.4313455131765
 20
59.62369751683592
  0
LINE
  5
5A7
330
A
100
AcDbEntity
  8
INDUSA
  6
Continuous
100
AcDbLine
 10
209.4313455131766
 20
59.62801002006155
 30
0.0
 11
209.4313455131766
 21
59.6236975168356
 31
0.0
  0
ARC
  5
5C6
330
A
100
AcDbEntity
  8
INDUSA
  6
Continuous
100
AcDbCircle
 10
209.4433849051907
 20
59.63517267480054
 30
0.0
 40
0.0050000000000001
100
AcDbArc
 50
90.00000000000122
 51
162.5423968762794
  0
LINE
  5
5C7
330
A
100
AcDbEntity
  8
INDUSA
  6
Continuous
100
AcDbLine
 10
209.4923485183574
 20
59.64017267480055
 30
0.0
 11
209.4433849051907
 21
59.64017267480055
 31
0.0
  0
LWPOLYLINE
  5
5D7
330
A
100
AcDbEntity
  8
INDUSA
  6
Continuous
100
AcDbPolyline
 90
        6
 70
   128
 43
0.0
 10
209.6297012058904
 20
59.48263711363459
 10
209.6357323368914
 20
59.47869402708224
 10
209.6417850503773
 20
59.47534995674658
 10
209.6481860433985
 20
59.47236208267502
 10
209.6550553715449
 20
59.46973615561667
 10
209.6622841085679
 20
59.46756917457505
  0
LWPOLYLINE
  5
5E0
330
A
100
AcDbEntity
  8
INDUSA
  6
Continuous
100
AcDbPolyline
 90
        8
 70
   128
 43
0.0
 10
209.6803309624788
 20
59.47657393694804
 10
209.6842945672011
 20
59.47832087060742
 10
209.6880162239119
 20
59.48041020175972
 10
209.6912545859379
 20
59.48284490760123
 10
209.6934150062009
 20
59.48498221012649
 10
209.6952620232398
 20
59.4872713152008
 10
209.6967201827761
 20
59.4895915411874
 10
209.69774531104
 20
59.49190430001564
  0
LWPOLYLINE
  5
5ED
330
A
100
AcDbEntity
  8
INDUSA
  6
Continuous
100
AcDbPolyline
 90
        4
 70
   128
 43
0.0
 10
209.6723069554244
 20
59.47086508281241
 10
209.6748265137577
 20
59.4725955768641
 10
209.6773850537875
 20
59.47442006916208
 10
209.6803309624788
 20
59.47657393694804
  0
LWPOLYLINE
  5
5F4
330
A
100
AcDbEntity
  8
INDUSA
  6
Continuous
100
AcDbPolyline
 90
        5
 70
   128
 43
0.0
 10
209.6723072629489
 20
59.47086498249286
 10
209.6723072069075
 20
59.47086496270896
 10
209.6700130413049
 20
59.47012369992614
 10
209.6676654322998
 20
59.46946559887903
 10
209.665951667728
 20
59.46902376783416
  0
LINE
  5
601
330
A
100
AcDbEntity
  8
INDUSA
  6
Continuous
100
AcDbLine
 10
209.664487531676
 20
59.46717267480054
 30
0.0
 11
209.6723068058663
 21
59.46717267480054
 31
0.0
  0
LWPOLYLINE
  5
602
330
A
100
AcDbEntity
  8
INDUSA
  6
Continuous
100
AcDbPolyline
 90
        7
 70
   128
 43
0.0
 10
209.6644875316759
 20
59.46717267480054
 10
209.6645974735054
 20
59.46718165609667
 10
209.6652674407528
 20
59.46763885651783
 10
209.6658444333159
 20
59.46871872165647
 10
209.6659352198055
 20
59.46897408041804
 10
209.6659457964782
 20
59.46900590276062
 10
209.665951667728
 20
59.46902376783416
  0
LINE
  5
60C
330
A
100
AcDbEntity
  8
INDUSA
  6
Continuous
100
AcDbLine
 10
209.6723068058663
 20
59.46717267480054
 30
0.0
 11
209.7138455131765
 21
59.46717267480054
 31
0.0
  0
LINE
  5
60D
330
A
100
AcDbEntity
  8
INDUSA
  6
Continuous
100
AcDbLine
 10
209.8073455131765
 20
59.46717267480054
 30
0.0
 11
209.7138455131765
 21
59.46717267480054
 31
0.0
  0
LINE
  5
61B
330
A
100
AcDbEntity
  8
INDUSA
  6
Continuous
100
AcDbLine
 10
209.6622841084239
 20
59.46756917461414
 30
0.0
 11
209.6632421759828
 21
59.46732509022901
 31
0.0
  0
LINE
  5
627
330
A
100
AcDbEntity
  8
INDUSA
  6
Continuous
100
AcDbLine
 10
209.6644670425457
 20
59.46717267480054
 30
0.0
 11
209.664487531676
 21
59.46717267480054
 31
0.0
  0
LWPOLYLINE
  5
628
330
A
100
AcDbEntity
  8
INDUSA
  6
Continuous
100
AcDbPolyline
 90
        9
 70
   128
 43
0.0
 10
209.6632421759828
 20
59.46732509022902
 10
209.6633927064508
 20
59.46728950773631
 10
209.6635442654877
 20
59.46725860038503
 10
209.6636967079908
 20
59.46723239776585
 10
209.6638498880118
 20
59.46721092496517
 10
209.6640036588961
 20
59.46719420254103
 10
209.6641578734237
 20
59.46718224650346
 10
209.6643123839497
 20
59.46717506829916
 10
209.6644670425457
 20
59.46717267480054
  0
LINE
  5
633
330
A
100
AcDbEntity
  8
INDUSA
  6
Continuous
100
AcDbLine
 10
209.8063455131765
 20
59.46717267480054
 30
0.0
 11
209.793698037863
 21
59.46717267480054
 31
0.0
  0
ARC
  5
635
330
A
100
AcDbEntity
  8
INDUSA
  6
Continuous
100
AcDbCircle
 10
209.4363455131766
 20
59.62849021643503
 30
0.0
 40
0.0050000000000003
100
AcDbArc
 50
104.4775121859302
 51
180.0000000000004
  0
LINE
  5
636
330
A
100
AcDbEntity
  8
INDUSA
  6
Continuous
100
AcDbLine
 10
209.4313455131766
 20
59.62849021643503
 30
0.0
 11
209.4313455131766
 21
59.62801002006155
 31
0.0
  0
LINE
  5
695
330
A
100
AcDbEntity
  8
INDUSA
  6
Continuous
100
AcDbLine
 10
209.6002367902977
 20
59.51337744862876
 30
0.0
 11
209.6208263362801
 21
59.52372843435336
 31
0.0
  0
LWPOLYLINE
  5
696
330
A
100
AcDbEntity
  8
INDUSA
  6
Continuous
100
AcDbPolyline
 90
        8
 70
   128
 43
0.0
 10
209.6221414944895
 20
59.52439773021723
 10
209.6424495011374
 20
59.53482726842969
 10
209.6635559797363
 20
59.5455484529041
 10
209.6846245251119
 20
59.55631661668483
 10
209.7057501259392
 20
59.56693656214643
 10
209.7269841650795
 20
59.57731249139637
 10
209.7483338973058
 20
59.5874504605462
 10
209.7696929053738
 20
59.59768827178035
  0
LINE
  5
6CC
330
A
100
AcDbEntity
  8
INDUSA
  6
Continuous
100
AcDbLine
 10
209.5861915852605
 20
59.49372302246906
 30
0.0
 11
209.5862138238137
 21
59.51067852301014
 31
0.0
  0
LWPOLYLINE
  5
6D8
330
A
100
AcDbEntity
  8
INDUSA
  6
Continuous
100
AcDbPolyline
 90
        3
 70
   128
 43
0.0
 10
209.5862993521854
 20
59.48517267480054
 10
209.5862693272792
 20
59.48754622084007
 10
209.5861915852605
 20
59.49372302246906
  0
LWPOLYLINE
  5
6E6
330
A
100
AcDbEntity
  8
INDUSA
  6
Continuous
100
AcDbPolyline
 90
        3
 70
   128
 43
0.0
 10
208.166093760727
 20
59.33624955626585
 10
208.1661632309942
 20
59.33622206047611
 10
208.1661988718958
 20
59.33620326477864
  0
LWPOLYLINE
  5
6EB
330
A
100
AcDbEntity
  8
INDUSA
  6
Continuous
100
AcDbPolyline
 90
        3
 70
   128
 43
0.0
 10
208.1407852851855
 20
59.33620632924079
 10
208.1407772159543
 20
59.33619810080139
 10
208.1408270509067
 20
59.33622155810095
  0
LWPOLYLINE
  5
70C
330
A
100
AcDbEntity
  8
INDUSA
  6
Continuous
100
AcDbPolyline
 90
        3
 70
   128
 43
0.0
 10
208.2911695990787
 20
59.46767855121541
 10
208.2992657804966
 20
59.46288515245608
 10
208.310750647096
 20
59.45529494668662
  0
LWPOLYLINE
  5
711
330
A
100
AcDbEntity
  8
INDUSA
  6
Continuous
100
AcDbPolyline
 90
        3
 70
   128
 43
0.0
 10
208.0155540704923
 20
59.46752405716031
 10
208.0077188337529
 20
59.46288515245608
 10
207.9962339671534
 20
59.45529494668662
  0
LWPOLYLINE
  5
749
330
A
100
AcDbEntity
  8
INDUSA
  6
Continuous
100
AcDbPolyline
 90
       53
 70
   128
 43
0.0
 10
208.3442032030606
 20
59.34404192737326
 10
208.3396258990824
 20
59.35164746166988
 10
208.3347455835065
 20
59.3590621208119
 10
208.3295702011223
 20
59.36627383428756
 10
208.3241081770662
 20
59.37327086196549
 10
208.3183684031058
 20
59.38004181320675
 10
208.3123602231646
 20
59.38657566540799
 10
208.3060934181115
 20
59.39286178194541
 10
208.2995781898372
 20
59.39888992949039
 10
208.2928251446473
 20
59.40465029466856
 10
208.2858452759954
 20
59.41013350003525
 10
208.2786499465868
 20
59.41533061934133
 10
208.2712508698808
 20
59.42023319206436
 10
208.2636600910222
 20
59.42483323718182
 10
208.2558899672325
 20
59.42912326616352
 10
208.2479531476934
 20
59.43309629516242
 10
208.2398625529549
 20
59.43674585638379
 10
208.2316313539013
 20
59.44006600861428
 10
208.2232729503106
 20
59.44305134689386
 10
208.21480094904
 20
59.44569701131456
 10
208.2062291418754
 20
59.44799869493213
 10
208.1975714830794
 20
59.44995265077741
 10
208.1888420666741
 20
59.45155569795609
 10
208.1800551034983
 20
59.45280522682699
 10
208.1712248980721
 20
59.45369920325035
 10
208.1623658253112
 20
59.45423617189927
 10
208.1534923071248
 20
59.45441525862886
 10
208.1446187889384
 20
59.45423617189927
 10
208.1357597161774
 20
59.45369920325035
 10
208.1269295107512
 20
59.45280522682699
 10
208.1181425475754
 20
59.45155569795609
 10
208.1094131311702
 20
59.44995265077741
 10
208.100755472374
 20
59.44799869493213
 10
208.0921836652095
 20
59.44569701131456
 10
208.0837116639389
 20
59.44305134689386
 10
208.0753532603482
 20
59.44006600861428
 10
208.0671220612947
 20
59.43674585638379
 10
208.0590314665561
 20
59.43309629516242
 10
208.051094647017
 20
59.42912326616352
 10
208.0433245232273
 20
59.42483323718182
 10
208.0357337443687
 20
59.42023319206436
 10
208.0283346676627
 20
59.41533061934132
 10
208.0211393382541
 20
59.41013350003525
 10
208.0141594696022
 20
59.40465029466856
 10
208.0074064244123
 20
59.39888992949039
 10
208.000891196138
 20
59.39286178194541
 10
207.9946243910849
 20
59.38657566540799
 10
207.9886162111438
 20
59.38004181320675
 10
207.9828764371833
 20
59.37327086196549
 10
207.9774144131272
 20
59.36627383428756
 10
207.972239030743
 20
59.3590621208119
 10
207.9673587151671
 20
59.35164746166988
 10
207.9627814111889
 20
59.34404192737326
  0
CIRCLE
  5
7AE
330
A
100
AcDbEntity
  8
INDUSA
  6
Continuous
100
AcDbCircle
 10
208.1534923071248
 20
59.22969615566707
 30
0.0
 40
0.2372010005240367
  0
CIRCLE
  5
7AF
330
A
100
AcDbEntity
  8
INDUSA
  6
Continuous
100
AcDbCircle
 10
208.1534923071248
 20
59.22969615566707
 30
0.0
 40
0.0804474620232515
  0
LWPOLYLINE
  5
7C6
330
A
100
AcDbEntity
  8
INDUSA
  6
Continuous
100
AcDbPolyline
 90
       28
 70
   128
 43
0.0
 10
208.3403738932425
 20
59.33235598946836
 10
208.316613497707
 20
59.33039369151358
 10
208.2925474369234
 20
59.32854642785923
 10
208.2680358914725
 20
59.32686088775968
 10
208.2553029625579
 20
59.32608082534642
 10
208.2423496219299
 20
59.32537081948044
 10
208.2291258567216
 20
59.32474457699217
 10
208.2188011423747
 20
59.32433236678192
 10
208.2082288194208
 20
59.32398274032695
 10
208.1974034587199
 20
59.32369943745172
 10
208.1863196311322
 20
59.32348619798073
 10
208.1755486310941
 20
59.32334864441576
 10
208.1645616392028
 20
59.32326871657886
 10
208.1534923071248
 20
59.32324286314901
 10
208.1508453669972
 20
59.32324432797989
 10
208.1419088891804
 20
59.3232713333691
 10
208.1330245365208
 20
59.3233337962749
 10
208.1242536909503
 20
59.32343359631195
 10
208.1156577344012
 20
59.32357261309497
 10
208.1024483468318
 20
59.32387825798341
 10
208.0896000389669
 20
59.32428546556804
 10
208.0770759908728
 20
59.32478399616432
 10
208.0648393826162
 20
59.32536361008767
 10
208.0528533942636
 20
59.32601406765357
 10
208.0410812058816
 20
59.32672512917744
 10
208.0158257329688
 20
59.32844442552088
 10
207.9910541826908
 20
59.33033864812583
 10
207.966610721007
 20
59.33235598946836
  0
LINE
  5
801
330
A
100
AcDbEntity
  8
INDUSA
  6
Continuous
100
AcDbLine
 10
208.33470337258
 20
59.33916645864723
 30
0.0
 11
207.9722812416695
 21
59.33916645864723
 31
0.0
  0
LWPOLYLINE
  5
802
330
A
100
AcDbEntity
  8
INDUSA
  6
Continuous
100
AcDbPolyline
 90
        9
 70
   128
 43
0.0
 10
208.1534923071248
 20
59.33409016587044
 10
208.151270280156
 20
59.33411260474693
 10
208.1491088642905
 20
59.33417930930234
 10
208.1470670173187
 20
59.33428846001029
 10
208.1452004355035
 20
59.33443707952399
 10
208.1435600343307
 20
59.33462111389054
 10
208.1421905596682
 20
59.33483554313217
 10
208.1411293672149
 20
59.33507451817812
 10
208.1405228387079
 20
59.33527871074403
  0
LWPOLYLINE
  5
80D
330
A
100
AcDbEntity
  8
INDUSA
  6
Continuous
100
AcDbPolyline
 90
       18
 70
   128
 43
0.0
 10
208.1403410491428
 20
59.3361069419117
 10
208.1404054035346
 20
59.33613928360071
 10
208.1411293672149
 20
59.3363962858347
 10
208.1421905596682
 20
59.33663526088065
 10
208.1435600343307
 20
59.33684969012228
 10
208.1452004355035
 20
59.33703372448883
 10
208.1470670173187
 20
59.33718234400253
 10
208.1491088642905
 20
59.33729149471048
 10
208.151270280156
 20
59.33735819926589
 10
208.1534923071248
 20
59.33738063814239
 10
208.1557143340936
 20
59.33735819926589
 10
208.157875749959
 20
59.33729149471048
 10
208.1599175969308
 20
59.33718234400253
 10
208.1617841787461
 20
59.33703372448883
 10
208.1634245799189
 20
59.33684969012228
 10
208.1647940545813
 20
59.33663526088065
 10
208.1658552470346
 20
59.3363962858347
 10
208.1665166276873
 20
59.33616828825952
  0
LWPOLYLINE
  5
821
330
A
100
AcDbEntity
  8
INDUSA
  6
Continuous
100
AcDbPolyline
 90
        8
 70
   128
 43
0.0
 10
208.1658296875432
 20
59.33506746189025
 10
208.1647940545813
 20
59.33483554313217
 10
208.1634245799189
 20
59.33462111389054
 10
208.1617841787461
 20
59.33443707952399
 10
208.1599175969308
 20
59.33428846001029
 10
208.157875749959
 20
59.33417930930234
 10
208.1557143340936
 20
59.33411260474693
 10
208.1534923071248
 20
59.33409016587044
  0
ARC
  5
864
330
A
100
AcDbEntity
  8
INDUSA
  6
Continuous
100
AcDbCircle
 10
208.1534923071248
 20
59.22969615566707
 30
0.0
 40
0.275
100
AcDbArc
 50
124.8792287560533
 51
55.12077124394672
  0
LINE
  5
870
330
A
100
AcDbEntity
  8
INDUSA
  6
Continuous
100
AcDbLine
 10
208.1534923071248
 20
59.51219615566707
 30
0.0
 11
208.1162466858218
 21
59.51219615566707
 31
0.0
  0
LINE
  5
872
330
A
100
AcDbEntity
  8
INDUSA
  6
Continuous
100
AcDbLine
 10
208.1534923071248
 20
59.51219615566707
 30
0.0
 11
208.1907379284277
 21
59.51219615566707
 31
0.0
  0
LINE
  5
882
330
A
100
AcDbEntity
  8
INDUSA
  6
Continuous
100
AcDbLine
 10
208.1907379284277
 20
59.51219615566707
 30
0.0
 11
208.3488075870432
 21
59.51219615566707
 31
0.0
  0
LWPOLYLINE
  5
883
330
A
100
AcDbEntity
  8
INDUSA
  6
Continuous
100
AcDbPolyline
 90
        3
 70
   128
 43
0.0
 10
208.3523094541519
 20
59.51076542894141
 10
208.3506398124171
 20
59.51184843589822
 10
208.3488075870361
 20
59.51219615566708
  0
LWPOLYLINE
  5
88F
330
A
100
AcDbEntity
  8
INDUSA
  6
Continuous
100
AcDbPolyline
 90
        3
 70
   128
 43
0.0
 10
207.9546751600976
 20
59.51076542894141
 10
207.9563448018324
 20
59.51184843589822
 10
207.9581770272134
 20
59.51219615566708
  0
LINE
  5
894
330
A
100
AcDbEntity
  8
INDUSA
  6
Continuous
100
AcDbLine
 10
208.1162466858218
 20
59.51219615566707
 30
0.0
 11
207.9581770272064
 21
59.51219615566707
 31
0.0
  0
LWPOLYLINE
  5
89C
330
A
100
AcDbEntity
  8
INDUSA
  6
Continuous
100
AcDbPolyline
 90
        4
 70
   128
 43
0.0
 10
207.9470364482339
 20
59.41292243363617
 10
207.9465539011616
 20
59.41108178657551
 10
207.9458287907823
 20
59.40997612868772
 10
207.9458227966424
 20
59.40996921082517
  0
LWPOLYLINE
  5
8AD
330
A
100
AcDbEntity
  8
INDUSA
  6
Continuous
100
AcDbPolyline
 90
        4
 70
   128
 43
0.0
 10
208.3599481660157
 20
59.41292243363617
 10
208.3604307130879
 20
59.41108178657551
 10
208.3611558234673
 20
59.40997612868772
 10
208.3611618176071
 20
59.40996921082517
  0
LWPOLYLINE
  5
8BE
330
A
100
AcDbEntity
  8
INDUSA
  6
Continuous
100
AcDbPolyline
 90
       12
 70
   128
 43
0.0
 10
207.9722812416695
 20
59.33916645864724
 10
207.9686815001016
 20
59.33938232682081
 10
207.9651517132805
 20
59.33990904050702
 10
207.9628536504417
 20
59.34058401509746
 10
207.9619194941535
 20
59.34107170794497
 10
207.9613800702736
 20
59.34156373498531
 10
207.9611942946017
 20
59.34191230533155
 10
207.9611489525398
 20
59.34224962507848
 10
207.9611707132086
 20
59.34241216653332
 10
207.9613739245982
 20
59.3428693515521
 10
207.9617509331925
 20
59.34330394422974
 10
207.9627814111889
 20
59.34404192737326
  0
LWPOLYLINE
  5
8CC
330
A
100
AcDbEntity
  8
INDUSA
  6
Continuous
100
AcDbPolyline
 90
       12
 70
   128
 43
0.0
 10
208.33470337258
 20
59.33916645864724
 10
208.3383031141479
 20
59.33938232682081
 10
208.341832900969
 20
59.33990904050702
 10
208.3441309638078
 20
59.34058401509746
 10
208.345065120096
 20
59.34107170794497
 10
208.3456045439759
 20
59.34156373498531
 10
208.3457903196478
 20
59.34191230533155
 10
208.3458356617097
 20
59.34224962507848
 10
208.3458139010409
 20
59.34241216653332
 10
208.3456106896513
 20
59.3428693515521
 10
208.345233681057
 20
59.34330394422974
 10
208.3442032030606
 20
59.34404192737326
  0
LINE
  5
8DA
330
A
100
AcDbEntity
  8
INDUSA
  6
Continuous
100
AcDbLine
 10
207.9478077461843
 20
59.42478291876037
 30
0.0
 11
207.9470364482339
 21
59.41292243363617
 31
0.0
  0
LINE
  5
8E6
330
A
100
AcDbEntity
  8
INDUSA
  6
Continuous
100
AcDbLine
 10
208.3591768680652
 20
59.42478291876037
 30
0.0
 11
208.3599481660157
 21
59.41292243363617
 31
0.0
  0
LWPOLYLINE
  5
923
330
A
100
AcDbEntity
  8
INDUSA
  6
Continuous
100
AcDbPolyline
 90
       45
 70
   128
 43
0.0
 10
208.1534923071248
 20
59.41169615566708
 10
208.151001797455
 20
59.4115180309
 10
208.14856198738
 20
59.41098728270533
 10
208.1462225443972
 20
59.41011471558578
 10
208.1440310928193
 20
59.40891809249162
 10
208.1420322442807
 20
59.40742177321828
 10
208.1402666895736
 20
59.40565621851113
 10
208.1387703703002
 20
59.40365736997256
 10
208.1375737472061
 20
59.40146591839461
 10
208.1367011800865
 20
59.39912647541181
 10
208.1361704318918
 20
59.39668666533687
 10
208.1359923071247
 20
59.39419615566708
 10
208.1361704318918
 20
59.3917056459973
 10
208.1367011800865
 20
59.38926583592236
 10
208.1375737472061
 20
59.38692639293955
 10
208.1387703703002
 20
59.38473494136161
 10
208.1402666895736
 20
59.38273609282304
 10
208.1420322442807
 20
59.38097053811588
 10
208.1440310928193
 20
59.37947421884253
 10
208.1462225443972
 20
59.37827759574838
 10
208.14856198738
 20
59.37740502862883
 10
208.151001797455
 20
59.37687428043417
 10
208.1534923071248
 20
59.37669615566708
 10
208.1559828167945
 20
59.37687428043417
 10
208.1584226268695
 20
59.37740502862883
 10
208.1607620698523
 20
59.37827759574838
 10
208.1629535214303
 20
59.37947421884253
 10
208.1649523699688
 20
59.38097053811588
 10
208.166717924676
 20
59.38273609282304
 10
208.1682142439493
 20
59.38473494136161
 10
208.1694108670435
 20
59.38692639293955
 10
208.170283434163
 20
59.38926583592236
 10
208.1708141823577
 20
59.3917056459973
 10
208.1709923071247
 20
59.39419615566708
 10
208.1708141823577
 20
59.39668666533687
 10
208.170283434163
 20
59.39912647541181
 10
208.1694108670435
 20
59.40146591839461
 10
208.1682142439493
 20
59.40365736997256
 10
208.166717924676
 20
59.40565621851113
 10
208.1649523699688
 20
59.40742177321828
 10
208.1629535214303
 20
59.40891809249162
 10
208.1607620698523
 20
59.41011471558578
 10
208.1584226268695
 20
59.41098728270533
 10
208.1559828167945
 20
59.4115180309
 10
208.1534923071248
 20
59.41169615566708
  0
LWPOLYLINE
  5
952
330
A
100
AcDbEntity
  8
INDUSA
  6
Continuous
100
AcDbPolyline
 90
        5
 70
   128
 43
0.0
 10
207.9531936230325
 20
59.50760319878007
 10
207.9531939618983
 20
59.50760754122448
 10
207.9531995477024
 20
59.50767040089258
 10
207.9536177998123
 20
59.50924928873384
 10
207.9546751600976
 20
59.51076542894136
  0
LINE
  5
959
330
A
100
AcDbEntity
  8
INDUSA
  6
Continuous
100
AcDbLine
 10
207.9531936230325
 20
59.50760319878007
 30
0.0
 11
207.9478077461843
 21
59.42478291876037
 31
0.0
  0
LWPOLYLINE
  5
95A
330
A
100
AcDbEntity
  8
INDUSA
  6
Continuous
100
AcDbPolyline
 90
        5
 70
   128
 43
0.0
 10
208.3537909912171
 20
59.50760319878007
 10
208.3537906523512
 20
59.50760754122448
 10
208.3537850665471
 20
59.50767040089258
 10
208.3533668144371
 20
59.50924928873384
 10
208.3523094541519
 20
59.51076542894136
  0
LINE
  5
961
330
A
100
AcDbEntity
  8
INDUSA
  6
Continuous
100
AcDbLine
 10
208.3537909912171
 20
59.50760319878007
 30
0.0
 11
208.3591768680652
 21
59.42478291876037
 31
0.0
  0
CIRCLE
  5
966
330
A
100
AcDbEntity
  8
INDUSA
  6
Continuous
100
AcDbCircle
 10
208.1534923071248
 20
59.22969615566707
 30
0.0
 40
0.025
  0
CIRCLE
  5
967
330
A
100
AcDbEntity
  8
INDUSA
  6
Continuous
100
AcDbCircle
 10
208.1534923071248
 20
59.22969615566707
 30
0.0
 40
0.0249999999999997
  0
LWPOLYLINE
  5
968
330
A
100
AcDbEntity
  8
INDUSA
  6
Continuous
100
AcDbPolyline
 90
       13
 70
   128
 43
0.0
 10
208.1534923071248
 20
59.50492645966
 10
208.1574781464681
 20
59.50489729466083
 10
208.1710887927729
 20
59.50435660021722
 10
208.1846639482192
 20
59.50313642972058
 10
208.1981528669706
 20
59.50124203933509
 10
208.2115300788883
 20
59.49867599622308
 10
208.2247713445879
 20
59.49544635071932
 10
208.2378279801241
 20
59.49156654792192
 10
208.2505371920667
 20
59.48709619591199
 10
208.2630204052956
 20
59.48200790462947
 10
208.2752336920953
 20
59.47632138092428
 10
208.2874125177043
 20
59.46990295655785
 10
208.2911695990787
 20
59.46767855121541
  0
LWPOLYLINE
  5
977
330
A
100
AcDbEntity
  8
INDUSA
  6
Continuous
100
AcDbPolyline
 90
       13
 70
   128
 43
0.0
 10
208.1534923071248
 20
59.50492645966
 10
208.1495064677814
 20
59.50489729466083
 10
208.1358958214766
 20
59.50435660021722
 10
208.1223206660304
 20
59.50313642972058
 10
208.1088317472789
 20
59.50124203933509
 10
208.0954545353612
 20
59.49867599622308
 10
208.0822132696617
 20
59.49544635071932
 10
208.0691566341255
 20
59.49156654792192
 10
208.0564474221828
 20
59.48709619591199
 10
208.0439642089539
 20
59.48200790462947
 10
208.0317509221541
 20
59.47632138092428
 10
208.0195720965452
 20
59.46990295655785
 10
208.0155540704923
 20
59.46752405716031
  0
LWPOLYLINE
  5
986
330
A
100
AcDbEntity
  8
INDUSA
  6
Continuous
100
AcDbPolyline
 90
        5
 70
   128
 43
0.0
 10
208.1405228387079
 20
59.33527871074403
 10
208.1404054035346
 20
59.33533152041211
 10
208.1400384164691
 20
59.33559953948315
 10
208.1400384164691
 20
59.33587126452967
 10
208.1403410491428
 20
59.3361069419117
  0
LWPOLYLINE
  5
98D
330
A
100
AcDbEntity
  8
INDUSA
  6
Continuous
100
AcDbPolyline
 90
        7
 70
   128
 43
0.0
 10
208.1665166276873
 20
59.33616828825952
 10
208.1665792107149
 20
59.33613928360071
 10
208.1669461977803
 20
59.33587126452967
 10
208.1669461977803
 20
59.33559953948315
 10
208.1665792107149
 20
59.33533152041211
 10
208.1658552470346
 20
59.33507451817812
 10
208.1658296875432
 20
59.33506746189025
  0
LWPOLYLINE
  5
A0F
330
A
100
AcDbEntity
  8
INDUSA
  6
Continuous
100
AcDbPolyline
 90
        3
 70
   128
 43
0.0
 10
210.3476075727204
 20
59.51068353364841
 10
210.3821059427254
 20
59.51068238167183
 10
210.4940328358822
 20
59.51067867033942
  0
LWPOLYLINE
  5
A14
330
A
100
AcDbEntity
  8
INDUSA
  6
Continuous
100
AcDbPolyline
 90
        9
 70
   128
 43
0.0
 10
210.3476089446377
 20
59.51068353485659
 10
210.3470013381694
 20
59.51072976152529
 10
210.3464078040046
 20
59.51086774597626
 10
210.3458421166812
 20
59.51109428591355
 10
210.3453174044771
 20
59.5114041238758
 10
210.3448458447334
 20
59.51179006924959
 10
210.3444383812477
 20
59.51224316514668
 10
210.3441044702929
 20
59.5127528962725
 10
210.3438518611604
 20
59.51330743296145
  0
ARC
  5
A1F
330
A
100
AcDbEntity
  8
INDUSA
  6
Continuous
100
AcDbCircle
 10
210.7010568689967
 20
59.48017267480054
 30
0.0
 40
0.005
100
AcDbArc
 50
90.0
 51
179.4145160634282
  0
ARC
  5
A20
330
A
100
AcDbEntity
  8
INDUSA
  6
Continuous
100
AcDbCircle
 10
210.6910563468728
 20
59.48017267480054
 30
0.0
 40
0.0050000000000003
100
AcDbArc
 50
270.0000000000008
 51
359.4145160634527
  0
LINE
  5
A21
330
A
100
AcDbEntity
  8
INDUSA
  6
Continuous
100
AcDbLine
 10
210.6959028011393
 20
59.46517267480054
 30
0.0
 11
210.6956723908988
 21
59.44262538698504
 31
0.0
  0
LINE
  5
A22
330
A
100
AcDbEntity
  8
INDUSA
  6
Continuous
100
AcDbLine
 10
210.682654708209
 20
59.46517267480054
 30
0.0
 11
210.6956723908988
 21
59.44262538698504
 31
0.0
  0
LINE
  5
A23
330
A
100
AcDbEntity
  8
INDUSA
  6
Continuous
100
AcDbLine
 10
210.6591077028252
 20
58.82317267480054
 30
0.0
 11
210.6591077028252
 21
58.81317267480055
 31
0.0
  0
ARC
  5
A24
330
A
100
AcDbEntity
  8
INDUSA
  6
Continuous
100
AcDbCircle
 10
210.6691077028252
 20
58.82317267480054
 30
0.0
 40
0.01
100
AcDbArc
 50
90.0
 51
180.0000000000004
  0
LINE
  5
A25
330
A
100
AcDbEntity
  8
INDUSA
  6
Continuous
100
AcDbLine
 10
210.6691077028252
 20
58.83317267480054
 30
0.0
 11
210.6815262632283
 21
58.83317267480054
 31
0.0
  0
ARC
  5
A26
330
A
100
AcDbEntity
  8
INDUSA
  6
Continuous
100
AcDbCircle
 10
210.6815262632283
 20
58.84117267480054
 30
0.0
 40
0.0080000000000009
100
AcDbArc
 50
270.0000000000008
 51
359.4145160627218
  0
LINE
  5
A27
330
A
100
AcDbEntity
  8
INDUSA
  6
Continuous
100
AcDbLine
 10
210.6895258455509
 20
58.84109092724396
 30
0.0
 11
210.6954161977633
 21
59.41750396517613
 31
0.0
  0
ARC
  5
A28
330
A
100
AcDbEntity
  8
INDUSA
  6
Continuous
100
AcDbCircle
 10
210.6754172419567
 20
59.41770833406758
 30
0.0
 40
0.02
100
AcDbArc
 50
359.4145160634334
 51
29.99999999999721
  0
LINE
  5
A29
330
A
100
AcDbEntity
  8
INDUSA
  6
Continuous
100
AcDbLine
 10
210.6737871947495
 20
59.46053165864917
 30
0.0
 11
210.6927377500324
 21
59.42770833406758
 31
0.0
  0
ARC
  5
A2A
330
A
100
AcDbEntity
  8
INDUSA
  6
Continuous
100
AcDbCircle
 10
210.6911077028252
 20
59.47053165864916
 30
0.0
 40
0.02
100
AcDbArc
 50
181.3713482244964
 51
209.9999999999999
  0
ARC
  5
A2B
330
A
100
AcDbEntity
  8
INDUSA
  6
Continuous
100
AcDbCircle
 10
210.6761119990873
 20
59.47017267480054
 30
0.0
 40
0.0050000000000001
100
AcDbArc
 50
90.0
 51
181.3713482244937
  0
LINE
  5
A2C
330
A
100
AcDbEntity
  8
INDUSA
  6
Continuous
100
AcDbLine
 10
210.6960560858244
 20
59.48012158257768
 30
0.0
 11
210.696057130045
 21
59.48022376702341
 31
0.0
  0
LINE
  5
A2D
330
A
100
AcDbEntity
  8
INDUSA
  6
Continuous
100
AcDbLine
 10
210.7061077028252
 20
59.48517267480054
 30
0.0
 11
210.6991582756054
 21
58.80512158257769
 31
0.0
  0
LINE
  5
A2F
330
A
100
AcDbEntity
  8
INDUSA
  6
Continuous
100
AcDbLine
 10
210.6541077028252
 20
58.80817267480054
 30
0.0
 11
210.5796077028252
 21
58.80817267480054
 31
0.0
  0
ARC
  5
A30
330
A
100
AcDbEntity
  8
INDUSA
  6
Continuous
100
AcDbCircle
 10
210.6541077028252
 20
58.81317267480055
 30
0.0
 40
0.005
100
AcDbArc
 50
270.0000000000008
 51
0.0
  0
LINE
  5
A31
330
A
100
AcDbEntity
  8
INDUSA
  6
Continuous
100
AcDbLine
 10
210.6691077028252
 20
58.82317267480054
 30
0.0
 11
210.6893427393216
 21
58.82317267480054
 31
0.0
  0
LINE
  5
A32
330
A
100
AcDbEntity
  8
INDUSA
  6
Continuous
100
AcDbLine
 10
210.6691077028252
 20
58.80817267480054
 30
0.0
 11
210.6691077028252
 21
58.82317267480054
 31
0.0
  0
LINE
  5
A33
330
A
100
AcDbEntity
  8
INDUSA
  6
Continuous
100
AcDbLine
 10
210.68918945465
 20
58.80817267480054
 30
0.0
 11
210.6691077028252
 21
58.80817267480054
 31
0.0
  0
LINE
  5
A34
330
A
100
AcDbEntity
  8
INDUSA
  6
Continuous
100
AcDbLine
 10
210.68918945465
 20
58.80817267480054
 30
0.0
 11
210.6893427393216
 21
58.82317267480054
 31
0.0
  0
LINE
  5
A35
330
A
100
AcDbEntity
  8
INDUSA
  6
Continuous
100
AcDbLine
 10
210.5796077028252
 20
58.80017267480054
 30
0.0
 11
210.6941585366537
 21
58.80017267480054
 31
0.0
  0
LINE
  5
A36
330
A
100
AcDbEntity
  8
INDUSA
  6
Continuous
100
AcDbLine
 10
210.6761119990873
 20
59.47517267480055
 30
0.0
 11
210.6910563468728
 21
59.47517267480055
 31
0.0
  0
ARC
  5
A37
330
A
100
AcDbEntity
  8
INDUSA
  6
Continuous
100
AcDbCircle
 10
210.6941585366537
 20
58.80517267480055
 30
0.0
 40
0.0050000000000001
100
AcDbArc
 50
270.0000000000008
 51
359.4145160632697
  0
LINE
  5
A38
330
A
100
AcDbEntity
  8
INDUSA
  6
Continuous
100
AcDbLine
 10
210.682654708209
 20
59.46517267480054
 30
0.0
 11
210.6959028011393
 21
59.46517267480054
 31
0.0
  0
LINE
  5
A39
330
A
100
AcDbEntity
  8
INDUSA
  6
Continuous
100
AcDbLine
 10
210.7010568689967
 20
59.48517267480054
 30
0.0
 11
210.7061077028252
 21
59.48517267480054
 31
0.0
  0
LINE
  5
A3B
330
A
100
AcDbEntity
  8
INDUSA
  6
Continuous
100
AcDbLine
 10
210.5796077028252
 20
58.80817267480054
 30
0.0
 11
210.5452074670473
 21
58.80817267480054
 31
0.0
  0
LINE
  5
A3C
330
A
100
AcDbEntity
  8
INDUSA
  6
Continuous
100
AcDbLine
 10
210.5796077028252
 20
58.80017267480054
 30
0.0
 11
210.5452074670473
 21
58.80017267480054
 31
0.0
  0
LINE
  5
A66
330
A
100
AcDbEntity
  8
INDUSA
  6
Continuous
100
AcDbLine
 10
210.6954161977633
 20
59.41750396517613
 30
0.0
 11
210.6947816067303
 21
59.41751092331784
 31
0.0
  0
LINE
  5
A67
330
A
100
AcDbEntity
  8
INDUSA
  6
Continuous
100
AcDbLine
 10
210.6880136269785
 20
58.84108925991369
 30
0.0
 11
210.6895258455509
 21
58.84109092724396
 31
0.0
  0
LINE
  5
A92
330
A
100
AcDbEntity
  8
INDUSA
  6
Continuous
100
AcDbLine
 10
210.6631077028252
 20
59.47517267480055
 30
0.0
 11
210.6761119990873
 21
59.47517267480055
 31
0.0
  0
LWPOLYLINE
  5
AAC
330
A
100
AcDbEntity
  8
INDUSA
  6
Continuous
100
AcDbPolyline
 90
        3
 70
   128
 43
0.0
 10
210.6609992896108
 20
58.84115000020488
 10
210.6558860698619
 20
58.84094601333795
 10
210.6505596419472
 20
58.84019481444164
  0
LWPOLYLINE
  5
AD0
330
A
100
AcDbEntity
  8
INDUSA
  6
Continuous
100
AcDbPolyline
 90
        7
 70
   128
 43
0.0
 10
210.6880136269785
 20
58.8410892599137
 10
210.6859776955853
 20
58.84109417649745
 10
210.6828200856055
 20
58.84110149440676
 10
210.6788059338631
 20
58.84111059922065
 10
210.6738196755373
 20
58.84112175311422
 10
210.6678262188239
 20
58.8411350198297
 10
210.6609992896108
 20
58.84115000020488
  0
LINE
  5
AF4
330
A
100
AcDbEntity
  8
INDUSA
  6
Continuous
100
AcDbLine
 10
210.4961077028252
 20
58.80817267480054
 30
0.0
 11
210.4961077028252
 21
58.80017267480054
 31
0.0
  0
LINE
  5
AF5
330
A
100
AcDbEntity
  8
INDUSA
  6
Continuous
100
AcDbLine
 10
210.4961077028252
 20
58.80817267480054
 30
0.0
 11
210.5452074670473
 21
58.80817267480054
 31
0.0
  0
LINE
  5
AF6
330
A
100
AcDbEntity
  8
INDUSA
  6
Continuous
100
AcDbLine
 10
210.4961077028252
 20
58.80017267480054
 30
0.0
 11
210.5452074670473
 21
58.80017267480054
 31
0.0
  0
LWPOLYLINE
  5
AF7
330
A
100
AcDbEntity
  8
INDUSA
  6
Continuous
100
AcDbPolyline
 90
        8
 70
   128
 43
0.0
 10
210.6505596419472
 20
58.84019481444164
 10
210.6452732697078
 20
58.83835044615599
 10
210.6403760049096
 20
58.83563902329119
 10
210.6373916800786
 20
58.83332968542383
 10
210.6348021960007
 20
58.83059475086888
 10
210.6335081558466
 20
58.82870071197885
 10
210.6325316545905
 20
58.8266299169398
 10
210.6319055119365
 20
58.82317267480054
  0
LWPOLYLINE
  5
B03
330
A
100
AcDbEntity
  8
INDUSA
  6
Continuous
100
AcDbPolyline
 90
        9
 70
   128
 43
0.0
 10
210.6317155641827
 20
58.80817267480054
 10
210.6317526211511
 20
58.80826874839853
 10
210.6317882540411
 20
58.80855327713799
 10
210.6318210935005
 20
58.80901532673903
 10
210.6318498775275
 20
58.80963714089461
 10
210.6318734999679
 20
58.81039482363545
 10
210.6318910530247
 20
58.81125925763872
 10
210.6319018621437
 20
58.81219722319046
 10
210.6319055119365
 20
58.81317267480055
  0
LINE
  5
B0F
330
A
100
AcDbEntity
  8
INDUSA
  6
Continuous
100
AcDbLine
 10
210.4961077028252
 20
58.81317267480055
 30
0.0
 11
210.4961077028252
 21
58.80817267480054
 31
0.0
  0
LINE
  5
B24
330
A
100
AcDbEntity
  8
INDUSA
  6
Continuous
100
AcDbLine
 10
210.6319055119365
 20
58.82317267480054
 30
0.0
 11
210.6319055119365
 21
58.81317267480055
 31
0.0
  0
LINE
  5
B25
330
A
100
AcDbEntity
  8
INDUSA
  6
Continuous
100
AcDbLine
 10
210.4961077028252
 20
59.09286239159021
 30
0.0
 11
210.4961077028252
 21
59.1800926012514
 31
0.0
  0
LINE
  5
B26
330
A
100
AcDbEntity
  8
INDUSA
  6
Continuous
100
AcDbLine
 10
210.4961077028252
 20
58.9578624070069
 30
0.0
 11
210.4961077028252
 21
59.04509258208354
 31
0.0
  0
LINE
  5
B27
330
A
100
AcDbEntity
  8
INDUSA
  6
Continuous
100
AcDbLine
 10
210.4961077028252
 20
58.81317267480055
 30
0.0
 11
210.4961077028252
 21
58.91009256523025
 31
0.0
  0
LINE
  5
B41
330
A
100
AcDbEntity
  8
INDUSA
  6
Continuous
100
AcDbLine
 10
210.4961077028252
 20
59.36155714883481
 30
0.0
 11
210.4961077028252
 21
59.47017267480054
 31
0.0
  0
LINE
  5
B46
330
A
100
AcDbEntity
  8
INDUSA
  6
Continuous
100
AcDbLine
 10
210.4961077028252
 20
59.35378966683361
 30
0.0
 11
210.4961077028252
 21
59.32155568276748
 31
0.0
  0
LINE
  5
B74
330
A
100
AcDbEntity
  8
INDUSA
  6
Continuous
100
AcDbLine
 10
210.4961077028252
 20
59.32155568276748
 30
0.0
 11
210.4961077028252
 21
59.31898625012085
 31
0.0
  0
LINE
  5
B93
330
A
100
AcDbEntity
  8
INDUSA
  6
Continuous
100
AcDbLine
 10
210.4961077028252
 20
59.35635909948024
 30
0.0
 11
210.4961077028252
 21
59.35378966683361
 31
0.0
  0
LINE
  5
BB4
330
A
100
AcDbEntity
  8
INDUSA
  6
Continuous
100
AcDbLine
 10
210.4961077028252
 20
59.22786237406592
 30
0.0
 11
210.4961077028252
 21
59.31378820076627
 31
0.0
  0
LINE
  5
C0E
330
A
100
AcDbEntity
  8
INDUSA
  6
Continuous
100
AcDbLine
 10
210.4961077028252
 20
59.22014796369545
 30
0.0
 11
210.4961077028252
 21
59.18791475164515
 31
0.0
  0
LINE
  5
C32
330
A
100
AcDbEntity
  8
INDUSA
  6
Continuous
100
AcDbLine
 10
210.4961077028252
 20
59.22786237406592
 30
0.0
 11
210.4961077028252
 21
59.22525208643079
 31
0.0
  0
LINE
  5
C55
330
A
100
AcDbEntity
  8
INDUSA
  6
Continuous
100
AcDbLine
 10
210.4961077028252
 20
59.18262551530698
 30
0.0
 11
210.4961077028252
 21
59.1800926012514
 31
0.0
  0
LINE
  5
CC9
330
A
100
AcDbEntity
  8
INDUSA
  6
Continuous
100
AcDbLine
 10
210.4961077028252
 20
59.08514797750623
 30
0.0
 11
210.4961077028252
 21
59.05291473816646
 31
0.0
  0
LINE
  5
CCB
330
A
100
AcDbEntity
  8
INDUSA
  6
Continuous
100
AcDbLine
 10
210.4961077028252
 20
59.04762552179557
 30
0.0
 11
210.4961077028252
 21
59.04509258208354
 31
0.0
  0
LINE
  5
CCD
330
A
100
AcDbEntity
  8
INDUSA
  6
Continuous
100
AcDbLine
 10
210.4961077028252
 20
59.09286239159021
 30
0.0
 11
210.4961077028252
 21
59.09025208154705
 31
0.0
  0
LINE
  5
D37
330
A
100
AcDbEntity
  8
INDUSA
  6
Continuous
100
AcDbLine
 10
210.4961077028252
 20
58.9578624070069
 30
0.0
 11
210.4961077028252
 21
58.95525207714795
 31
0.0
  0
LINE
  5
D39
330
A
100
AcDbEntity
  8
INDUSA
  6
Continuous
100
AcDbLine
 10
210.4961077028252
 20
58.91262552759818
 30
0.0
 11
210.4961077028252
 21
58.91009256523025
 31
0.0
  0
LINE
  5
D3C
330
A
100
AcDbEntity
  8
INDUSA
  6
Continuous
100
AcDbLine
 10
210.4961077028252
 20
58.95014798951457
 30
0.0
 11
210.4961077028252
 21
58.91791472644686
 31
0.0
  0
LINE
  5
D3D
330
A
100
AcDbEntity
  8
INDUSA
  6
Continuous
100
AcDbLine
 10
210.4961077028252
 20
59.47396254293472
 30
0.0
 11
210.4961077028252
 21
59.47017267480054
 31
0.0
  0
LINE
  5
D3F
330
A
100
AcDbEntity
  8
INDUSA
  6
Continuous
100
AcDbLine
 10
210.4961077028252
 20
59.31635930231102
 30
0.0
 11
210.4961077028252
 21
59.31378820076627
 31
0.0
  0
LINE
  5
D41
330
A
100
AcDbEntity
  8
INDUSA
  6
Continuous
100
AcDbLine
 10
210.4961077028252
 20
59.36155714883481
 30
0.0
 11
210.4961077028252
 21
59.35898604729008
 31
0.0
  0
LINE
  5
D43
330
A
100
AcDbEntity
  8
INDUSA
  6
Continuous
100
AcDbLine
 10
210.4961077028252
 20
59.18538362074693
 30
0.0
 11
210.4961077028252
 21
59.18262551530698
 31
0.0
  0
LINE
  5
D44
330
A
100
AcDbEntity
  8
INDUSA
  6
Continuous
100
AcDbLine
 10
210.4961077028252
 20
59.18791475164515
 30
0.0
 11
210.4961077028252
 21
59.18538362074693
 31
0.0
  0
LINE
  5
D46
330
A
100
AcDbEntity
  8
INDUSA
  6
Continuous
100
AcDbLine
 10
210.4961077028252
 20
59.05291473816646
 30
0.0
 11
210.4961077028252
 21
59.0503836289169
 31
0.0
  0
LINE
  5
D47
330
A
100
AcDbEntity
  8
INDUSA
  6
Continuous
100
AcDbLine
 10
210.4961077028252
 20
59.0503836289169
 30
0.0
 11
210.4961077028252
 21
59.04762552179557
 31
0.0
  0
LINE
  5
D49
330
A
100
AcDbEntity
  8
INDUSA
  6
Continuous
100
AcDbLine
 10
210.4961077028252
 20
58.91538363602069
 30
0.0
 11
210.4961077028252
 21
58.91262552759818
 31
0.0
  0
LINE
  5
D4A
330
A
100
AcDbEntity
  8
INDUSA
  6
Continuous
100
AcDbLine
 10
210.4961077028252
 20
58.91791472644686
 30
0.0
 11
210.4961077028252
 21
58.91538363602069
 31
0.0
  0
LINE
  5
D4B
330
A
100
AcDbEntity
  8
INDUSA
  6
Continuous
100
AcDbLine
 10
210.4961077028252
 20
59.35898604729008
 30
0.0
 11
210.4961077028252
 21
59.35635909948024
 31
0.0
  0
LINE
  5
D4C
330
A
100
AcDbEntity
  8
INDUSA
  6
Continuous
100
AcDbLine
 10
210.4961077028252
 20
59.31898625012085
 30
0.0
 11
210.4961077028252
 21
59.31635930231102
 31
0.0
  0
LINE
  5
D4E
330
A
100
AcDbEntity
  8
INDUSA
  6
Continuous
100
AcDbLine
 10
210.4961077028252
 20
59.22275662156625
 30
0.0
 11
210.4961077028252
 21
59.22014796369545
 31
0.0
  0
LINE
  5
D4F
330
A
100
AcDbEntity
  8
INDUSA
  6
Continuous
100
AcDbLine
 10
210.4961077028252
 20
59.22525208643079
 30
0.0
 11
210.4961077028252
 21
59.22275662156625
 31
0.0
  0
LINE
  5
D51
330
A
100
AcDbEntity
  8
INDUSA
  6
Continuous
100
AcDbLine
 10
210.4961077028252
 20
59.08775661354344
 30
0.0
 11
210.4961077028252
 21
59.08514797750623
 31
0.0
  0
LINE
  5
D52
330
A
100
AcDbEntity
  8
INDUSA
  6
Continuous
100
AcDbLine
 10
210.4961077028252
 20
59.09025208154705
 30
0.0
 11
210.4961077028252
 21
59.08775661354344
 31
0.0
  0
LINE
  5
D54
330
A
100
AcDbEntity
  8
INDUSA
  6
Continuous
100
AcDbLine
 10
210.4961077028252
 20
58.95525207714795
 30
0.0
 11
210.4961077028252
 21
58.95275660656758
 31
0.0
  0
LINE
  5
D55
330
A
100
AcDbEntity
  8
INDUSA
  6
Continuous
100
AcDbLine
 10
210.4961077028252
 20
58.95275660656758
 30
0.0
 11
210.4961077028252
 21
58.95014798951457
 31
0.0
  0
LWPOLYLINE
  5
D56
330
A
100
AcDbEntity
  8
INDUSA
  6
Continuous
100
AcDbPolyline
 90
       19
 70
   128
 43
0.0
 10
210.5062497529933
 20
59.58121430911655
 10
210.5062837054446
 20
59.58144205501849
 10
210.5063474631925
 20
59.58236375673474
 10
210.5063917595015
 20
59.58362376807556
 10
210.506417703163
 20
59.58519563504613
 10
210.5064277201267
 20
59.58702566773986
 10
210.5064243764692
 20
59.58906713385935
 10
210.5064105780007
 20
59.59125696199158
 10
210.5063889119488
 20
59.59353570874569
 10
210.5063617760374
 20
59.59583697394574
 10
210.5063304132041
 20
59.59815362368694
 10
210.5062973413484
 20
59.60035688749591
 10
210.5062654284981
 20
59.60230477384201
 10
210.506234421832
 20
59.6040322523476
 10
210.5062052190692
 20
59.60548020509064
 10
210.5061777048692
 20
59.60662063843319
 10
210.506151557983
 20
59.60741525421207
 10
210.5061254088205
 20
59.6078473250727
 10
210.5061135086939
 20
59.60789947287435
  0
LWPOLYLINE
  5
D6B
330
A
100
AcDbEntity
  8
INDUSA
  6
Continuous
100
AcDbPolyline
 90
        6
 70
   128
 43
0.0
 10
210.5061077028252
 20
59.60792491152293
 10
210.5061640699817
 20
59.60759393087074
 10
210.5063268156964
 20
59.60730026578355
 10
210.506577593223
 20
59.60707701695618
 10
210.5068881490612
 20
59.60694934402649
 10
210.5072296508697
 20
59.60693239058034
  0
LWPOLYLINE
  5
D88
330
A
100
AcDbEntity
  8
INDUSA
  6
Continuous
100
AcDbPolyline
 90
        6
 70
   128
 43
0.0
 10
210.5069869318827
 20
59.58171484279962
 10
210.5066646018029
 20
59.58161837078276
 10
210.5063923804255
 20
59.581420623654
 10
210.5062011658361
 20
59.58114402644578
 10
210.5061125189208
 20
59.58082008122127
 10
210.5061077028252
 20
59.58072210876315
  0
LINE
  5
D90
330
A
100
AcDbEntity
  8
INDUSA
  6
Continuous
100
AcDbLine
 10
210.5072296508697
 20
59.60693239058034
 30
0.0
 11
210.5175525435417
 21
59.60819988242431
 31
0.0
  0
LINE
  5
D92
330
A
100
AcDbEntity
  8
INDUSA
  6
Continuous
100
AcDbLine
 10
210.5205992771268
 20
59.58338622863328
 30
0.0
 11
210.5069869318827
 21
59.58171484279962
 31
0.0
  0
LWPOLYLINE
  5
D93
330
A
100
AcDbEntity
  8
INDUSA
  6
Continuous
100
AcDbPolyline
 90
        5
 70
   128
 43
0.0
 10
210.8381525390221
 20
59.59708490126005
 10
210.8396843024966
 20
59.59839530763547
 10
210.8414496996156
 20
59.59936838751342
 10
210.8433727905556
 20
59.59997153236693
 10
210.8453789016596
 20
59.60017267480054
  0
LINE
  5
D9A
330
A
100
AcDbEntity
  8
INDUSA
  6
Continuous
100
AcDbLine
 10
210.8381533961202
 20
59.59708408142712
 30
0.0
 11
210.7375466486832
 21
59.49190430001564
 31
0.0
  0
ARC
  5
D9B
330
A
100
AcDbEntity
  8
INDUSA
  6
Continuous
100
AcDbCircle
 10
210.6531077028252
 20
59.47617267480055
 30
0.0
 40
0.0010000000000001
100
AcDbArc
 50
0.0
 51
90.0
  0
LINE
  5
D9C
330
A
100
AcDbEntity
  8
INDUSA
  6
Continuous
100
AcDbLine
 10
210.6521077028252
 20
59.47717267480054
 30
0.0
 11
210.6531077028252
 21
59.47717267480054
 31
0.0
  0
ARC
  5
D9D
330
A
100
AcDbEntity
  8
INDUSA
  6
Continuous
100
AcDbCircle
 10
210.6521077028252
 20
59.47817267480054
 30
0.0
 40
0.0010000000000002
100
AcDbArc
 50
180.0000000000004
 51
270.0000000000008
  0
LINE
  5
D9E
330
A
100
AcDbEntity
  8
INDUSA
  6
Continuous
100
AcDbLine
 10
210.6511077028252
 20
59.47817267480054
 30
0.0
 11
210.6511077028252
 21
59.48831927214728
 31
0.0
  0
ARC
  5
D9F
330
A
100
AcDbEntity
  8
INDUSA
  6
Continuous
100
AcDbCircle
 10
210.6561077028252
 20
59.48831927214728
 30
0.0
 40
0.005
100
AcDbArc
 50
123.1765926350356
 51
180.0000000000004
  0
ARC
  5
DA0
330
A
100
AcDbEntity
  8
INDUSA
  6
Continuous
100
AcDbCircle
 10
210.643183289238
 20
59.50808746784729
 30
0.0
 40
0.0186182562397903
100
AcDbArc
 50
303.1765926350372
 51
324.8738223452789
  0
ARC
  5
DA1
330
A
100
AcDbEntity
  8
INDUSA
  6
Continuous
100
AcDbCircle
 10
210.6625003520906
 20
59.49449801934655
 30
0.0
 40
0.005
100
AcDbArc
 50
90.99999999998875
 51
144.8738223452723
  0
LINE
  5
DA2
330
A
100
AcDbEntity
  8
INDUSA
  6
Continuous
100
AcDbLine
 10
210.6624130900584
 20
59.49949725782232
 30
0.0
 11
210.6939646640133
 21
59.5000479925943
 31
0.0
  0
ARC
  5
DA3
330
A
100
AcDbEntity
  8
INDUSA
  6
Continuous
100
AcDbCircle
 10
210.6936156158845
 20
59.52004494649743
 30
0.0
 40
0.02
100
AcDbArc
 50
271.0000000000237
 51
310.3141001604985
  0
LINE
  5
DA4
330
A
100
AcDbEntity
  8
INDUSA
  6
Continuous
100
AcDbLine
 10
210.7065551648485
 20
59.50479476378997
 30
0.0
 11
210.8633087033493
 21
59.63779776615427
 31
0.0
  0
ARC
  5
DA5
330
A
100
AcDbEntity
  8
INDUSA
  6
Continuous
100
AcDbCircle
 10
210.8697784778312
 20
59.63017267480054
 30
0.0
 40
0.01
100
AcDbArc
 50
90.0
 51
130.3141001604967
  0
LINE
  5
DA6
330
A
100
AcDbEntity
  8
INDUSA
  6
Continuous
100
AcDbLine
 10
210.8697784778312
 20
59.64017267480055
 30
0.0
 11
210.8961077028252
 21
59.64017267480055
 31
0.0
  0
ARC
  5
DA7
330
A
100
AcDbEntity
  8
INDUSA
  6
Continuous
100
AcDbCircle
 10
210.8961077028252
 20
59.63517267480054
 30
0.0
 40
0.005
100
AcDbArc
 50
0.0
 51
90.0
  0
LINE
  5
DA8
330
A
100
AcDbEntity
  8
INDUSA
  6
Continuous
100
AcDbLine
 10
210.9011077028252
 20
59.63517267480054
 30
0.0
 11
210.9011077028252
 21
59.60517267480054
 31
0.0
  0
ARC
  5
DA9
330
A
100
AcDbEntity
  8
INDUSA
  6
Continuous
100
AcDbCircle
 10
210.8961077028252
 20
59.60517267480054
 30
0.0
 40
0.005
100
AcDbArc
 50
270.0000000000008
 51
0.0
  0
LINE
  5
DAA
330
A
100
AcDbEntity
  8
INDUSA
  6
Continuous
100
AcDbLine
 10
210.8961077028252
 20
59.60017267480054
 30
0.0
 11
210.8453789016597
 21
59.60017267480054
 31
0.0
  0
ARC
  5
DAB
330
A
100
AcDbEntity
  8
INDUSA
  6
Continuous
100
AcDbCircle
 10
210.7736787415405
 20
59.45734316771727
 30
0.0
 40
0.0500000000000002
100
AcDbArc
 50
136.2730300200569
 51
157.3801350519598
  0
LINE
  5
DAC
330
A
100
AcDbEntity
  8
INDUSA
  6
Continuous
100
AcDbLine
 10
210.7251461643637
 20
59.47086498249285
 30
0.0
 11
210.7275248953867
 21
59.47657393694804
 31
0.0
  0
ARC
  5
DAD
330
A
100
AcDbEntity
  8
INDUSA
  6
Continuous
100
AcDbCircle
 10
210.7196077028252
 20
59.47317267480054
 30
0.0
 40
0.0060000000000001
100
AcDbArc
 50
270.0000000000008
 51
337.3801350519544
  0
LINE
  5
DAE
330
A
100
AcDbEntity
  8
INDUSA
  6
Continuous
100
AcDbLine
 10
210.7186077028252
 20
59.46717267480054
 30
0.0
 11
210.7196077028252
 21
59.46717267480054
 31
0.0
  0
ARC
  5
DAF
330
A
100
AcDbEntity
  8
INDUSA
  6
Continuous
100
AcDbCircle
 10
210.7186077028252
 20
59.47217267480055
 30
0.0
 40
0.005
100
AcDbArc
 50
180.0000000000004
 51
270.0000000000008
  0
LINE
  5
DB0
330
A
100
AcDbEntity
  8
INDUSA
  6
Continuous
100
AcDbLine
 10
210.7136077028252
 20
59.48217267480054
 30
0.0
 11
210.7136077028252
 21
59.47217267480055
 31
0.0
  0
ARC
  5
DB1
330
A
100
AcDbEntity
  8
INDUSA
  6
Continuous
100
AcDbCircle
 10
210.7106077028252
 20
59.48217267480054
 30
0.0
 40
0.003
100
AcDbArc
 50
0.0
 51
90.0
  0
LINE
  5
DB2
330
A
100
AcDbEntity
  8
INDUSA
  6
Continuous
100
AcDbLine
 10
210.7106077028252
 20
59.48517267480054
 30
0.0
 11
210.6731077028253
 21
59.48517267480054
 31
0.0
  0
ARC
  5
DB3
330
A
100
AcDbEntity
  8
INDUSA
  6
Continuous
100
AcDbCircle
 10
210.6731077028253
 20
59.47517267480055
 30
0.0
 40
0.01
100
AcDbArc
 50
90.0
 51
180.0000000000004
  0
LINE
  5
DB4
330
A
100
AcDbEntity
  8
INDUSA
  6
Continuous
100
AcDbLine
 10
210.6631077028252
 20
59.45617267480054
 30
0.0
 11
210.6631077028252
 21
59.47517267480055
 31
0.0
  0
ARC
  5
DB5
330
A
100
AcDbEntity
  8
INDUSA
  6
Continuous
100
AcDbCircle
 10
210.6621077028252
 20
59.45617267480054
 30
0.0
 40
0.0009999999999999
100
AcDbArc
 50
270.0000000000008
 51
0.0
  0
LINE
  5
DB6
330
A
100
AcDbEntity
  8
INDUSA
  6
Continuous
100
AcDbLine
 10
210.6621077028252
 20
59.45517267480054
 30
0.0
 11
210.6521077028252
 21
59.45517267480054
 31
0.0
  0
ARC
  5
DB7
330
A
100
AcDbEntity
  8
INDUSA
  6
Continuous
100
AcDbCircle
 10
210.6521077028252
 20
59.45617267480054
 30
0.0
 40
0.0010000000000002
100
AcDbArc
 50
180.0000000000004
 51
270.0000000000008
  0
LINE
  5
DB8
330
A
100
AcDbEntity
  8
INDUSA
  6
Continuous
100
AcDbLine
 10
210.6511077028252
 20
59.45617267480054
 30
0.0
 11
210.6511077028252
 21
59.46617267480054
 31
0.0
  0
ARC
  5
DB9
330
A
100
AcDbEntity
  8
INDUSA
  6
Continuous
100
AcDbCircle
 10
210.6521077028252
 20
59.46617267480054
 30
0.0
 40
0.0010000000000002
100
AcDbArc
 50
90.0
 51
180.0000000000004
  0
LINE
  5
DBA
330
A
100
AcDbEntity
  8
INDUSA
  6
Continuous
100
AcDbLine
 10
210.6531077028252
 20
59.46717267480054
 30
0.0
 11
210.6521077028252
 21
59.46717267480054
 31
0.0
  0
ARC
  5
DBB
330
A
100
AcDbEntity
  8
INDUSA
  6
Continuous
100
AcDbCircle
 10
210.6531077028252
 20
59.46817267480054
 30
0.0
 40
0.0009999999999999
100
AcDbArc
 50
270.0000000000008
 51
0.0
  0
LINE
  5
DBC
330
A
100
AcDbEntity
  8
INDUSA
  6
Continuous
100
AcDbLine
 10
210.6541077028252
 20
59.47617267480055
 30
0.0
 11
210.6541077028252
 21
59.46817267480054
 31
0.0
  0
LINE
  5
DBF
330
A
100
AcDbEntity
  8
INDUSA
  6
Continuous
100
AcDbLine
 10
210.5891077028252
 20
59.4666680022911
 30
0.0
 11
210.4991751367597
 21
59.47986866137337
 31
0.0
  0
LINE
  5
DC0
330
A
100
AcDbEntity
  8
INDUSA
  6
Continuous
100
AcDbLine
 10
210.5891077028252
 20
59.46717267480054
 30
0.0
 11
210.5891077028252
 21
59.4666680022911
 31
0.0
  0
LINE
  5
DC1
330
A
100
AcDbEntity
  8
INDUSA
  6
Continuous
100
AcDbLine
 10
210.6001077028252
 20
59.46717267480054
 30
0.0
 11
210.5891077028252
 21
59.46717267480054
 31
0.0
  0
ARC
  5
DC2
330
A
100
AcDbEntity
  8
INDUSA
  6
Continuous
100
AcDbCircle
 10
210.6001077028252
 20
59.46617267480054
 30
0.0
 40
0.0010000000000001
100
AcDbArc
 50
0.0
 51
90.0
  0
LINE
  5
DC3
330
A
100
AcDbEntity
  8
INDUSA
  6
Continuous
100
AcDbLine
 10
210.6011077028252
 20
59.46617267480054
 30
0.0
 11
210.6011077028252
 21
59.45617267480054
 31
0.0
  0
ARC
  5
DC4
330
A
100
AcDbEntity
  8
INDUSA
  6
Continuous
100
AcDbCircle
 10
210.6001077028252
 20
59.45617267480054
 30
0.0
 40
0.0009999999999999
100
AcDbArc
 50
270.0000000000008
 51
0.0
  0
LINE
  5
DC5
330
A
100
AcDbEntity
  8
INDUSA
  6
Continuous
100
AcDbLine
 10
210.6001077028252
 20
59.45517267480054
 30
0.0
 11
210.5901077028252
 21
59.45517267480054
 31
0.0
  0
ARC
  5
DC6
330
A
100
AcDbEntity
  8
INDUSA
  6
Continuous
100
AcDbCircle
 10
210.5901077028252
 20
59.45617267480054
 30
0.0
 40
0.0009999999999999
100
AcDbArc
 50
180.0000000000004
 51
270.0000000000008
  0
LINE
  5
DC7
330
A
100
AcDbEntity
  8
INDUSA
  6
Continuous
100
AcDbLine
 10
210.5891077028252
 20
59.45627102441807
 30
0.0
 11
210.5891077028252
 21
59.45617267480054
 31
0.0
  0
ARC
  5
DC8
330
A
100
AcDbEntity
  8
INDUSA
  6
Continuous
100
AcDbCircle
 10
210.5861077028252
 20
59.45627102441807
 30
0.0
 40
0.003
100
AcDbArc
 50
0.0
 51
81.09142991234234
  0
LINE
  5
DC9
330
A
100
AcDbEntity
  8
INDUSA
  6
Continuous
100
AcDbLine
 10
210.4982585450827
 20
59.47307792984627
 30
0.0
 11
210.5865722773049
 21
59.45923483455923
 31
0.0
  0
ARC
  5
DCA
330
A
100
AcDbEntity
  8
INDUSA
  6
Continuous
100
AcDbCircle
 10
210.4990328358822
 20
59.47801761341486
 30
0.0
 40
0.005
100
AcDbArc
 50
180.0000000000004
 51
261.0914299123411
  0
LINE
  5
DCB
330
A
100
AcDbEntity
  8
INDUSA
  6
Continuous
100
AcDbLine
 10
210.4940328358822
 20
59.61517267480054
 30
0.0
 11
210.4940328358822
 21
59.47801761341486
 31
0.0
  0
ARC
  5
DCC
330
A
100
AcDbEntity
  8
INDUSA
  6
Continuous
100
AcDbCircle
 10
210.4910328358822
 20
59.61517267480054
 30
0.0
 40
0.003
100
AcDbArc
 50
0.0
 51
90.0
  0
LINE
  5
DCD
330
A
100
AcDbEntity
  8
INDUSA
  6
Continuous
100
AcDbLine
 10
210.4801077028252
 20
59.61817267480054
 30
0.0
 11
210.4910328358822
 21
59.61817267480054
 31
0.0
  0
ARC
  5
DCE
330
A
100
AcDbEntity
  8
INDUSA
  6
Continuous
100
AcDbCircle
 10
210.4801077028252
 20
59.61917267480054
 30
0.0
 40
0.0009999999999999
100
AcDbArc
 50
180.0000000000004
 51
270.0000000000008
  0
LINE
  5
DCF
330
A
100
AcDbEntity
  8
INDUSA
  6
Continuous
100
AcDbLine
 10
210.4791077028252
 20
59.62780090480992
 30
0.0
 11
210.4791077028252
 21
59.61917267480054
 31
0.0
  0
ARC
  5
DD0
330
A
100
AcDbEntity
  8
INDUSA
  6
Continuous
100
AcDbCircle
 10
210.4801077028252
 20
59.62780090480992
 30
0.0
 40
0.0009999999999999
100
AcDbArc
 50
88.99999999999165
 51
180.0000000000004
  0
LINE
  5
DD1
330
A
100
AcDbEntity
  8
INDUSA
  6
Continuous
100
AcDbLine
 10
210.4801251552316
 20
59.62880075250507
 30
0.0
 11
210.5117619311191
 21
59.62824853052784
 31
0.0
  0
ARC
  5
DD2
330
A
100
AcDbEntity
  8
INDUSA
  6
Continuous
100
AcDbCircle
 10
210.5116746690868
 20
59.62324929205205
 30
0.0
 40
0.0050000000000002
100
AcDbArc
 50
7.000000000000755
 51
88.99999999999826
  0
LINE
  5
DD3
330
A
100
AcDbEntity
  8
INDUSA
  6
Continuous
100
AcDbLine
 10
210.516637399845
 20
59.62385863876908
 30
0.0
 11
210.5184232203499
 21
59.60931429791936
 31
0.0
  0
ARC
  5
DD4
330
A
100
AcDbEntity
  8
INDUSA
  6
Continuous
100
AcDbCircle
 10
210.5174306741983
 20
59.60919242857595
 30
0.0
 40
0.0010000000000001
100
AcDbArc
 50
277.0000000000028
 51
7.000000000001956
  0
LINE
  5
DD5
330
A
100
AcDbEntity
  8
INDUSA
  6
Continuous
100
AcDbLine
 10
210.5061077028252
 20
59.61817267480054
 30
0.0
 11
210.5061077028252
 21
59.60792491152293
 31
0.0
  0
LINE
  5
DD6
330
A
100
AcDbEntity
  8
INDUSA
  6
Continuous
100
AcDbLine
 10
210.5020328358822
 20
59.61817267480054
 30
0.0
 11
210.5061077028252
 21
59.61817267480054
 31
0.0
  0
LINE
  5
DD7
330
A
100
AcDbEntity
  8
INDUSA
  6
Continuous
100
AcDbLine
 10
210.5020328358822
 20
59.61817267480054
 30
0.0
 11
210.5020328358822
 21
59.5920932950003
 31
0.0
  0
LINE
  5
DD8
330
A
100
AcDbEntity
  8
INDUSA
  6
Continuous
100
AcDbLine
 10
210.5061077028252
 20
59.58072210876315
 30
0.0
 11
210.5061077028252
 21
59.56388578215804
 31
0.0
  0
ARC
  5
DD9
330
A
100
AcDbEntity
  8
INDUSA
  6
Continuous
100
AcDbCircle
 10
210.3486077028252
 20
59.62849021643503
 30
0.0
 40
0.0050000000000004
100
AcDbArc
 50
104.4775121859322
 51
180.0000000000004
  0
ARC
  5
DDA
330
A
100
AcDbEntity
  8
INDUSA
  6
Continuous
100
AcDbCircle
 10
210.3461077028252
 20
59.63817267480054
 30
0.0
 40
0.0050000000000001
100
AcDbArc
 50
284.4775121859269
 51
342.5423968762786
  0
ARC
  5
DDB
330
A
100
AcDbEntity
  8
INDUSA
  6
Continuous
100
AcDbCircle
 10
210.3556470948394
 20
59.63517267480054
 30
0.0
 40
0.005
100
AcDbArc
 50
90.0
 51
162.5423968762721
  0
LINE
  5
DDC
330
A
100
AcDbEntity
  8
INDUSA
  6
Continuous
100
AcDbLine
 10
210.3556470948394
 20
59.64017267480055
 30
0.0
 11
210.3824369278192
 21
59.64017267480055
 31
0.0
  0
ARC
  5
DDD
330
A
100
AcDbEntity
  8
INDUSA
  6
Continuous
100
AcDbCircle
 10
210.3824369278192
 20
59.63017267480054
 30
0.0
 40
0.01
100
AcDbArc
 50
49.6858998395033
 51
90.0
  0
LINE
  5
DDE
330
A
100
AcDbEntity
  8
INDUSA
  6
Continuous
100
AcDbLine
 10
210.3889067023012
 20
59.63779776615427
 30
0.0
 11
210.3950933494459
 21
59.63254848978909
 31
0.0
  0
ARC
  5
DDF
330
A
100
AcDbEntity
  8
INDUSA
  6
Continuous
100
AcDbCircle
 10
210.4015631239278
 20
59.64017358114281
 30
0.0
 40
0.0100000000000001
100
AcDbArc
 50
229.6858998395022
 51
268.999999999999
  0
LINE
  5
DE0
330
A
100
AcDbEntity
  8
INDUSA
  6
Continuous
100
AcDbLine
 10
210.4013885998635
 20
59.63017510419125
 30
0.0
 11
210.4431251552317
 21
59.62944658990742
 31
0.0
  0
ARC
  5
DE1
330
A
100
AcDbEntity
  8
INDUSA
  6
Continuous
100
AcDbCircle
 10
210.4431077028252
 20
59.62844674221226
 30
0.0
 40
0.001
100
AcDbArc
 50
0.0
 51
89.00000000000805
  0
LINE
  5
DE2
330
A
100
AcDbEntity
  8
INDUSA
  6
Continuous
100
AcDbLine
 10
210.4441077028252
 20
59.61917267480054
 30
0.0
 11
210.4441077028252
 21
59.62844674221226
 31
0.0
  0
ARC
  5
DE3
330
A
100
AcDbEntity
  8
INDUSA
  6
Continuous
100
AcDbCircle
 10
210.4431077028252
 20
59.61917267480054
 30
0.0
 40
0.0009999999999999
100
AcDbArc
 50
270.0000000000008
 51
0.0
  0
LINE
  5
DE4
330
A
100
AcDbEntity
  8
INDUSA
  6
Continuous
100
AcDbLine
 10
210.3984151724651
 20
59.61817267480054
 30
0.0
 11
210.4431077028252
 21
59.61817267480054
 31
0.0
  0
ARC
  5
DE5
330
A
100
AcDbEntity
  8
INDUSA
  6
Continuous
100
AcDbCircle
 10
210.3984151724651
 20
59.62317267480054
 30
0.0
 40
0.005
100
AcDbArc
 50
229.685899839502
 51
270.0000000000008
  0
LINE
  5
DE6
330
A
100
AcDbEntity
  8
INDUSA
  6
Continuous
100
AcDbLine
 10
210.3838364275572
 20
59.62898522047741
 30
0.0
 11
210.3951802852241
 21
59.61936012912367
 31
0.0
  0
ARC
  5
DE7
330
A
100
AcDbEntity
  8
INDUSA
  6
Continuous
100
AcDbCircle
 10
210.3806015403162
 20
59.62517267480055
 30
0.0
 40
0.0050000000000001
100
AcDbArc
 50
49.68589983950195
 51
90.0
  0
LINE
  5
DE8
330
A
100
AcDbEntity
  8
INDUSA
  6
Continuous
100
AcDbLine
 10
210.3786077028253
 20
59.63017267480054
 30
0.0
 11
210.3806015403162
 21
59.63017267480054
 31
0.0
  0
ARC
  5
DE9
330
A
100
AcDbEntity
  8
INDUSA
  6
Continuous
100
AcDbCircle
 10
210.3786077028253
 20
59.62517267480055
 30
0.0
 40
0.005
100
AcDbArc
 50
90.0
 51
180.0000000000004
  0
LINE
  5
DEA
330
A
100
AcDbEntity
  8
INDUSA
  6
Continuous
100
AcDbLine
 10
210.3736077028252
 20
59.62517267480055
 30
0.0
 11
210.3736077028252
 21
59.58517267480054
 31
0.0
  0
ARC
  5
DEB
330
A
100
AcDbEntity
  8
INDUSA
  6
Continuous
100
AcDbCircle
 10
210.3686077028252
 20
59.58517267480054
 30
0.0
 40
0.005
100
AcDbArc
 50
270.0000000000008
 51
0.0
  0
LINE
  5
DEC
330
A
100
AcDbEntity
  8
INDUSA
  6
Continuous
100
AcDbLine
 10
210.3686077028252
 20
59.58017267480054
 30
0.0
 11
210.3496077028252
 21
59.58017267480054
 31
0.0
  0
ARC
  5
DED
330
A
100
AcDbEntity
  8
INDUSA
  6
Continuous
100
AcDbCircle
 10
210.3496077028252
 20
59.58417267480054
 30
0.0
 40
0.0040000000000003
100
AcDbArc
 50
180.0000000000004
 51
270.0000000000008
  0
LINE
  5
DEE
330
A
100
AcDbEntity
  8
INDUSA
  6
Continuous
100
AcDbLine
 10
210.3456077028252
 20
59.58417267480054
 30
0.0
 11
210.3456077028252
 21
59.58817267480054
 31
0.0
  0
ARC
  5
DEF
330
A
100
AcDbEntity
  8
INDUSA
  6
Continuous
100
AcDbCircle
 10
210.3436077028252
 20
59.58817267480054
 30
0.0
 40
0.0020000000000001
100
AcDbArc
 50
0.0
 51
59.99999999999423
  0
ARC
  5
DF0
330
A
100
AcDbEntity
  8
INDUSA
  6
Continuous
100
AcDbCircle
 10
210.3456077028252
 20
59.59163677641568
 30
0.0
 40
0.0019999999999999
100
AcDbArc
 50
180.0000000000004
 51
240.0000000000102
  0
LINE
  5
DF1
330
A
100
AcDbEntity
  8
INDUSA
  6
Continuous
100
AcDbLine
 10
210.3436077028252
 20
59.59163677641568
 30
0.0
 11
210.3436077028252
 21
59.62849021643503
 31
0.0
  0
ARC
  5
E10
330
A
100
AcDbEntity
  8
INDUSA
  6
Continuous
100
AcDbCircle
 10
210.5390307698252
 20
59.52353436644197
 30
0.0
 40
0.0100000000000001
100
AcDbArc
 50
187.0000000000001
 51
229.6858998395025
  0
LINE
  5
E11
330
A
100
AcDbEntity
  8
INDUSA
  6
Continuous
100
AcDbLine
 10
210.5325609953433
 20
59.51590927508824
 30
0.0
 11
210.545660240802
 21
59.50479476378997
 31
0.0
  0
ARC
  5
E12
330
A
100
AcDbEntity
  8
INDUSA
  6
Continuous
100
AcDbCircle
 10
210.5585997897659
 20
59.52004494649743
 30
0.0
 40
0.0199999999999997
100
AcDbArc
 50
229.6858998395044
 51
268.9999999999794
  0
LINE
  5
E13
330
A
100
AcDbEntity
  8
INDUSA
  6
Continuous
100
AcDbLine
 10
210.5582507416371
 20
59.5000479925943
 30
0.0
 11
210.589802315592
 21
59.49949725782232
 31
0.0
  0
ARC
  5
E14
330
A
100
AcDbEntity
  8
INDUSA
  6
Continuous
100
AcDbCircle
 10
210.5897150535598
 20
59.49449801934655
 30
0.0
 40
0.0050000000000001
100
AcDbArc
 50
35.1261776547221
 51
89.00000000000801
  0
ARC
  5
E15
330
A
100
AcDbEntity
  8
INDUSA
  6
Continuous
100
AcDbCircle
 10
210.6090321164125
 20
59.50808746784729
 30
0.0
 40
0.0186182562397901
100
AcDbArc
 50
215.1261776547237
 51
236.8234073649641
  0
ARC
  5
E16
330
A
100
AcDbEntity
  8
INDUSA
  6
Continuous
100
AcDbCircle
 10
210.5961077028252
 20
59.48831927214728
 30
0.0
 40
0.0049999999999998
100
AcDbArc
 50
0.0
 51
56.82340736496684
  0
LINE
  5
E17
330
A
100
AcDbEntity
  8
INDUSA
  6
Continuous
100
AcDbLine
 10
210.6011077028252
 20
59.48831927214728
 30
0.0
 11
210.6011077028252
 21
59.47817267480054
 31
0.0
  0
ARC
  5
E18
330
A
100
AcDbEntity
  8
INDUSA
  6
Continuous
100
AcDbCircle
 10
210.6001077028252
 20
59.47817267480054
 30
0.0
 40
0.0010000000000001
100
AcDbArc
 50
270.0000000000008
 51
0.0
  0
LINE
  5
E19
330
A
100
AcDbEntity
  8
INDUSA
  6
Continuous
100
AcDbLine
 10
210.5891077028252
 20
59.47717267480054
 30
0.0
 11
210.6001077028252
 21
59.47717267480054
 31
0.0
  0
LINE
  5
E1A
330
A
100
AcDbEntity
  8
INDUSA
  6
Continuous
100
AcDbLine
 10
210.5891077028252
 20
59.48517267480054
 30
0.0
 11
210.5891077028252
 21
59.47717267480054
 31
0.0
  0
LINE
  5
E1B
330
A
100
AcDbEntity
  8
INDUSA
  6
Continuous
100
AcDbLine
 10
210.5891077028252
 20
59.48517267480054
 30
0.0
 11
210.5449575590004
 21
59.48517267480054
 31
0.0
  0
LWPOLYLINE
  5
E1C
330
A
100
AcDbEntity
  8
INDUSA
  6
Continuous
100
AcDbPolyline
 90
        7
 70
   128
 43
0.0
 10
210.5449575590004
 20
59.48517267480054
 10
210.5385034405632
 20
59.48672329834201
 10
210.5322094097659
 20
59.48923971067699
 10
210.5255797815555
 20
59.49318235447439
 10
210.5195358293412
 20
59.49832704965764
 10
210.5151677322544
 20
59.50343330808648
 10
210.5115134168242
 20
59.50924575024663
  0
LWPOLYLINE
  5
E25
330
A
100
AcDbEntity
  8
INDUSA
  6
Continuous
100
AcDbPolyline
 90
        6
 70
   128
 43
0.0
 10
210.5115134168242
 20
59.50924575024663
 10
210.5113221539561
 20
59.50961059437135
 10
210.5112179325173
 20
59.50981277451663
 10
210.511114700031
 20
59.5100154675241
 10
210.5110124541627
 20
59.51021867833027
 10
210.5109112024137
 20
59.5104223923839
  0
LWPOLYLINE
  5
E2D
330
A
100
AcDbEntity
  8
INDUSA
  6
Continuous
100
AcDbPolyline
 90
        6
 70
   128
 43
0.0
 10
210.5109112024137
 20
59.5104223923839
 10
210.5107315012298
 20
59.51079025001457
 10
210.5106341738959
 20
59.51099298257872
 10
210.510537827078
 20
59.51119618879085
 10
210.5104424586548
 20
59.51139987348274
 10
210.5103480754732
 20
59.51160402239223
  0
LWPOLYLINE
  5
E35
330
A
100
AcDbEntity
  8
INDUSA
  6
Continuous
100
AcDbPolyline
 90
        7
 70
   128
 43
0.0
 10
210.5103480754732
 20
59.51160402239223
 10
210.5091629027661
 20
59.51442541698177
 10
210.5081621595087
 20
59.51733153655268
 10
210.5073466020787
 20
59.52033652083541
 10
210.5067319118531
 20
59.52340332038266
 10
210.5063208247474
 20
59.52654806653335
 10
210.5061249024867
 20
59.52972844916644
  0
LWPOLYLINE
  5
E3E
330
A
100
AcDbEntity
  8
INDUSA
  6
Continuous
100
AcDbPolyline
 90
        6
 70
   128
 43
0.0
 10
210.5061249024867
 20
59.52972844916644
 10
210.5061152184715
 20
59.53014544695982
 10
210.5061114549247
 20
59.53035712865615
 10
210.506108888837
 20
59.53056883396479
 10
210.5061078510852
 20
59.53078057444354
 10
210.5061077028252
 20
59.53099232239522
  0
LINE
  5
E46
330
A
100
AcDbEntity
  8
INDUSA
  6
Continuous
100
AcDbLine
 10
210.5061077028252
 20
59.53267922007166
 30
0.0
 11
210.5061077028252
 21
59.53099232239522
 31
0.0
  0
LINE
  5
E47
330
A
100
AcDbEntity
  8
INDUSA
  6
Continuous
100
AcDbLine
 10
210.5061077028252
 20
59.56388578215804
 30
0.0
 11
210.5061077028252
 21
59.53267922007166
 31
0.0
  0
ARC
  5
E48
330
A
100
AcDbEntity
  8
INDUSA
  6
Continuous
100
AcDbCircle
 10
210.5207211464702
 20
59.58239368248164
 30
0.0
 40
0.0010000000000001
100
AcDbArc
 50
7.000000000001956
 51
97.00000000000198
  0
LINE
  5
E49
330
A
100
AcDbEntity
  8
INDUSA
  6
Continuous
100
AcDbLine
 10
210.5217136926218
 20
59.58251555182505
 30
0.0
 11
210.5291053083088
 21
59.52231567300792
 31
0.0
  0
LINE
  5
E4B
330
A
100
AcDbEntity
  8
INDUSA
  6
Continuous
100
AcDbLine
 10
210.5020328358822
 20
59.59128258254147
 30
0.0
 11
210.5020328358822
 21
59.5920932950003
 31
0.0
  0
LINE
  5
E54
330
A
100
AcDbEntity
  8
INDUSA
  6
Continuous
100
AcDbLine
 10
210.3496077028252
 20
59.55363454663332
 30
0.0
 11
210.3496077028252
 21
59.51552645926118
 31
0.0
  0
LWPOLYLINE
  5
E55
330
A
100
AcDbEntity
  8
INDUSA
  6
Continuous
100
AcDbPolyline
 90
        4
 70
   128
 43
0.0
 10
210.3478297061344
 20
59.55572560446359
 10
210.3481370642066
 20
59.55556807753472
 10
210.3492348260147
 20
59.55466784287722
 10
210.3496077028252
 20
59.55363454663332
  0
LINE
  5
E5B
330
A
100
AcDbEntity
  8
INDUSA
  6
Continuous
100
AcDbLine
 10
210.3476077028252
 20
59.55583084988667
 30
0.0
 11
210.3478297061344
 21
59.55572560446359
 31
0.0
  0
LINE
  5
E6F
330
A
100
AcDbEntity
  8
INDUSA
  6
Continuous
100
AcDbLine
 10
210.3736077028252
 20
59.58517267480054
 30
0.0
 11
210.3736077028252
 21
59.51942374931287
 31
0.0
  0
LINE
  5
E8D
330
A
100
AcDbEntity
  8
INDUSA
  6
Continuous
100
AcDbLine
 10
210.3824369278192
 20
59.64017267480055
 30
0.0
 11
210.8697784778312
 21
59.64017267480055
 31
0.0
  0
LINE
  5
E8E
330
A
100
AcDbEntity
  8
INDUSA
  6
Continuous
100
AcDbLine
 10
210.5904846765641
 20
59.47717267480054
 30
0.0
 11
210.5904846765641
 21
59.46717267480054
 31
0.0
  0
LINE
  5
E90
330
A
100
AcDbEntity
  8
INDUSA
  6
Continuous
100
AcDbLine
 10
210.4801077028252
 20
59.61817267480054
 30
0.0
 11
210.4431077028252
 21
59.61817267480054
 31
0.0
  0
LINE
  5
E92
330
A
100
AcDbEntity
  8
INDUSA
  6
Continuous
100
AcDbLine
 10
210.4431251552317
 20
59.62944658990742
 30
0.0
 11
210.4801251552316
 21
59.62880075250507
 31
0.0
  0
LINE
  5
EA0
330
A
100
AcDbEntity
  8
INDUSA
  6
Continuous
100
AcDbLine
 10
210.5184232203499
 20
59.60931429791936
 30
0.0
 11
210.5217136926218
 21
59.58251555182505
 31
0.0
  0
LINE
  5
EA1
330
A
100
AcDbEntity
  8
INDUSA
  6
Continuous
100
AcDbLine
 10
210.6939646640133
 20
59.5000479925943
 30
0.0
 11
210.5582507416371
 21
59.5000479925943
 31
0.0
  0
LINE
  5
EA5
330
A
100
AcDbEntity
  8
INDUSA
  6
Continuous
100
AcDbLine
 10
210.6511077028252
 20
59.48831927214728
 30
0.0
 11
210.6011077028252
 21
59.48831927214728
 31
0.0
  0
LWPOLYLINE
  5
EA6
330
A
100
AcDbEntity
  8
INDUSA
  6
Continuous
100
AcDbPolyline
 90
        6
 70
   128
 43
0.0
 10
210.6010278304172
 20
59.46717267480054
 10
210.6006512519828
 20
59.46723598241997
 10
210.6003174014524
 20
59.46742242783759
 10
210.6000803787329
 20
59.46770195189011
 10
210.5999663408648
 20
59.46802317742515
 10
210.599954309164
 20
59.46817267480055
  0
LWPOLYLINE
  5
EB0
330
A
100
AcDbEntity
  8
INDUSA
  6
Continuous
100
AcDbPolyline
 90
        6
 70
   128
 43
0.0
 10
210.599954309164
 20
59.47617267480055
 10
210.6000086823423
 20
59.47648728941796
 10
210.6001633978262
 20
59.47676621945505
 10
210.6004049451766
 20
59.47698760925911
 10
210.6007221415624
 20
59.47713144443051
 10
210.6010278304172
 20
59.47717267480054
  0
LINE
  5
EB8
330
A
100
AcDbEntity
  8
INDUSA
  6
Continuous
100
AcDbLine
 10
210.599954309164
 20
59.47617267480055
 30
0.0
 11
210.599954309164
 21
59.46817267480054
 31
0.0
  0
LINE
  5
EBA
330
A
100
AcDbEntity
  8
INDUSA
  6
Continuous
100
AcDbLine
 10
210.6001077028252
 20
59.46717267480054
 30
0.0
 11
210.6521077028252
 21
59.46717267480054
 31
0.0
  0
LINE
  5
EBC
330
A
100
AcDbEntity
  8
INDUSA
  6
Continuous
100
AcDbLine
 10
210.6521077028252
 20
59.45517267480054
 30
0.0
 11
210.6001077028252
 21
59.45517267480054
 31
0.0
  0
LINE
  5
EBE
330
A
100
AcDbEntity
  8
INDUSA
  6
Continuous
100
AcDbLine
 10
210.6521077028252
 20
59.47717267480054
 30
0.0
 11
210.6001077028252
 21
59.47717267480054
 31
0.0
  0
LINE
  5
EBF
330
A
100
AcDbEntity
  8
INDUSA
  6
Continuous
100
AcDbLine
 10
210.7186077028252
 20
59.46717267480054
 30
0.0
 11
210.7060457510386
 21
59.46717267480054
 31
0.0
  0
LINE
  5
F06
330
A
100
AcDbEntity
  8
INDUSA
  6
Continuous
100
AcDbLine
 10
210.3436077028252
 20
59.58879359522111
 30
0.0
 11
210.3436077028252
 21
59.5910011019253
 31
0.0
  0
LINE
  5
F16
330
A
100
AcDbEntity
  8
INDUSA
  6
Continuous
100
AcDbLine
 10
210.3436077028252
 20
59.58281596718394
 30
0.0
 11
210.3436077028252
 21
59.58879359522111
 31
0.0
  0
LWPOLYLINE
  5
F37
330
A
100
AcDbEntity
  8
INDUSA
  6
Continuous
100
AcDbPolyline
 90
        8
 70
   128
 43
0.0
 10
210.3476077028252
 20
59.55583084988667
 10
210.3475939804929
 20
59.55582962301888
 10
210.3467597835509
 20
59.55583441488921
 10
210.3455235963291
 20
59.55616105278518
 10
210.3445586580123
 20
59.55680503734503
 10
210.3439134113074
 20
59.55768230518038
 10
210.3436205333595
 20
59.55873213104157
 10
210.3436077028252
 20
59.55901499789951
  0
LINE
  5
F41
330
A
100
AcDbEntity
  8
INDUSA
  6
Continuous
100
AcDbLine
 10
210.3436077028252
 20
59.5590149978995
 30
0.0
 11
210.3436077028252
 21
59.58281596718394
 31
0.0
  0
ARC
  5
F4E
330
A
100
AcDbEntity
  8
INDUSA
  6
Continuous
100
AcDbCircle
 10
210.3786077028253
 20
59.61317267480055
 30
0.0
 40
0.005
100
AcDbArc
 50
90.0
 51
180.0000000000004
  0
LINE
  5
F50
330
A
100
AcDbEntity
  8
INDUSA
  6
Continuous
100
AcDbLine
 10
210.3738480874406
 20
59.62517267480055
 30
0.0
 11
210.3736077028252
 21
59.62517267480055
 31
0.0
  0
LINE
  5
F5D
330
A
100
AcDbEntity
  8
INDUSA
  6
Continuous
100
AcDbLine
 10
210.3984151724651
 20
59.61817267480054
 30
0.0
 11
210.3786077028253
 21
59.61817267480054
 31
0.0
  0
LINE
  5
F6A
330
A
100
AcDbEntity
  8
INDUSA
  6
Continuous
100
AcDbLine
 10
210.3436077028252
 20
59.58163677641568
 30
0.0
 11
210.3436077028252
 21
59.59117267480054
 31
0.0
  0
LWPOLYLINE
  5
F76
330
A
100
AcDbEntity
  8
INDUSA
  6
Continuous
100
AcDbPolyline
 90
        7
 70
   128
 43
0.0
 10
210.3736077028252
 20
59.51942374931287
 10
210.3736076792269
 20
59.51940856690155
 10
210.3734226476325
 20
59.51809178044475
 10
210.3727197414241
 20
59.5166124754205
 10
210.3716164014407
 20
59.51547693297249
 10
210.3702179724767
 20
59.51474543894093
 10
210.368637013585
 20
59.51448224474687
  0
LINE
  5
F7F
330
A
100
AcDbEntity
  8
INDUSA
  6
Continuous
100
AcDbLine
 10
210.368637013585
 20
59.51448224474687
 30
0.0
 11
210.368631151433
 21
59.5144822091404
 31
0.0
  0
LINE
  5
F8B
330
A
100
AcDbEntity
  8
INDUSA
  6
Continuous
100
AcDbLine
 10
210.368631151433
 20
59.5144822091404
 30
0.0
 11
210.3496311514331
 21
59.51435837440228
 31
0.0
  0
LWPOLYLINE
  5
F8C
330
A
100
AcDbEntity
  8
INDUSA
  6
Continuous
100
AcDbPolyline
 90
        9
 70
   128
 43
0.0
 10
210.3496077028252
 20
59.51552645926119
 10
210.3496108790249
 20
59.51529070849481
 10
210.3496140313461
 20
59.51507787835985
 10
210.3496171360901
 20
59.51488956889395
 10
210.3496201699157
 20
59.51472719579067
 10
210.3496231100148
 20
59.51459197975627
 10
210.3496259342841
 20
59.51448493733267
 10
210.3496286214908
 20
59.51440687325511
 10
210.349631151433
 20
59.51435837440229
  0
LINE
  5
FEE
330
A
100
AcDbEntity
  8
INDUSA
  6
Continuous
100
AcDbLine
 10
210.3736077028252
 20
59.51942374931287
 30
0.0
 11
210.3736077028252
 21
59.5192269798851
 31
0.0
  0
LINE
  5
1077
330
A
100
AcDbEntity
  8
INDUSA
  6
Continuous
100
AcDbLine
 10
210.3436077028252
 20
59.57856672844274
 30
0.0
 11
210.3436077028252
 21
59.58100110192528
 31
0.0
  0
LINE
  5
108A
330
A
100
AcDbEntity
  8
INDUSA
  6
Continuous
100
AcDbLine
 10
210.3436077028252
 20
59.51662393690077
 30
0.0
 11
210.3436077028252
 21
59.57856672844274
 31
0.0
  0
LINE
  5
10C8
330
A
100
AcDbEntity
  8
INDUSA
  6
Continuous
100
AcDbLine
 10
210.3436077028252
 20
59.51468824863598
 30
0.0
 11
210.3436077028252
 21
59.51662393690077
 31
0.0
  0
LWPOLYLINE
  5
10C9
330
A
100
AcDbEntity
  8
INDUSA
  6
Continuous
100
AcDbPolyline
 90
        3
 70
   128
 43
0.0
 10
210.3436077028252
 20
59.51468536445127
 10
210.343684200226
 20
59.51390824330461
 10
210.3438499238773
 20
59.51331706413139
  0
ARC
  5
1158
330
A
100
AcDbEntity
  8
INDUSA
  6
Continuous
100
AcDbCircle
 10
208.7525371714189
 20
59.47537825401316
 30
0.0
 40
0.008225042069259
100
AcDbArc
 50
247.8913986269062
 51
266.0576286116083
  0
ARC
  5
1159
330
A
100
AcDbEntity
  8
INDUSA
  6
Continuous
100
AcDbCircle
 10
208.6277806534323
 20
59.59184035694554
 30
0.0
 40
0.0083270469690381
100
AcDbArc
 50
66.05978909468871
 51
92.43985311201853
  0
ARC
  5
115A
330
A
100
AcDbEntity
  8
INDUSA
  6
Continuous
100
AcDbCircle
 10
209.0655528194751
 20
59.59211734028565
 30
0.0
 40
0.0080537587187168
100
AcDbArc
 50
89.59317807920253
 51
114.4128046122645
  0
ARC
  5
115C
330
A
100
AcDbEntity
  8
INDUSA
  6
Continuous
100
AcDbCircle
 10
208.9408305110931
 20
59.47554299575347
 30
0.0
 40
0.0083905010700365
100
AcDbArc
 50
273.9745924676603
 51
291.7353282634404
  0
ARC
  5
115F
330
A
100
AcDbEntity
  8
INDUSA
  6
Continuous
100
AcDbCircle
 10
208.336240793868
 20
59.34105110599112
 30
0.0
 40
0.0096274379657291
100
AcDbArc
 50
295.4234098487324
 51
8.994685921533543
  0
ARC
  5
1160
330
A
100
AcDbEntity
  8
INDUSA
  6
Continuous
100
AcDbCircle
 10
207.9709389968899
 20
59.34060596713003
 30
0.0
 40
0.0093164426438744
100
AcDbArc
 50
175.6184677451544
 51
242.3166578901793
  0
LINE
  5
1162
330
A
100
AcDbEntity
  8
INDUSA
  6
Continuous
100
AcDbLine
 10
210.3436077028252
 20
59.59117267480054
 30
0.0
 11
210.3436077028252
 21
59.59163677641568
 31
0.0
  0
LINE
  5
1163
330
A
100
AcDbEntity
  8
INDUSA
  6
Continuous
100
AcDbLine
 10
210.3636077028252
 20
59.62517267480055
 30
0.0
 11
210.3636077028252
 21
59.59017267480054
 31
0.0
  0
LINE
  5
1164
330
A
100
AcDbEntity
  8
INDUSA
  6
Continuous
100
AcDbLine
 10
210.3636077028252
 20
59.59017267480054
 30
0.0
 11
210.3536077028252
 21
59.59017267480054
 31
0.0
  0
LINE
  5
1165
330
A
100
AcDbEntity
  8
INDUSA
  6
Continuous
100
AcDbLine
 10
210.3536077028252
 20
59.59017267480054
 30
0.0
 11
210.3536077028252
 21
59.62518229374378
 31
0.0
  0
ARC
  5
1166
330
A
100
AcDbEntity
  8
INDUSA
  6
Continuous
100
AcDbCircle
 10
210.3461077028252
 20
59.63817267480054
 30
0.0
 40
0.0150000000000002
100
AcDbArc
 50
299.926434866615
 51
327.7690473644984
  0
LINE
  5
1168
330
A
100
AcDbEntity
  8
INDUSA
  6
Continuous
100
AcDbLine
 10
210.3587962803657
 20
59.63017267480054
 30
0.0
 11
210.3644655672015
 21
59.63017267480054
 31
0.0
  0
ARC
  5
116A
330
A
100
AcDbEntity
  8
INDUSA
  6
Continuous
100
AcDbCircle
 10
210.3786077028253
 20
59.62517267480055
 30
0.0
 40
0.015
100
AcDbArc
 50
160.5287793655094
 51
180.0000000000004
  0
LINE
  5
116C
330
A
100
AcDbEntity
  8
INDUSA
  6
Continuous
100
AcDbLine
 10
210.4991751367597
 20
59.47986866137337
 30
0.0
 11
210.5020328358822
 21
59.59128258254147
 31
0.0
  0
LINE
  5
116D
330
A
100
AcDbEntity
  8
INDUSA
  6
Continuous
100
AcDbLine
 10
210.5161077028252
 20
59.54611758431929
 30
0.0
 11
210.5161077028252
 21
59.53267922007166
 31
0.0
  0
LWPOLYLINE
  5
1170
330
A
100
AcDbEntity
  8
INDUSA
  6
Continuous
100
AcDbPolyline
 90
        7
 70
   128
 43
0.0
 10
210.519567678374
 20
59.51547686661213
 10
210.5185104437514
 20
59.51799369477251
 10
210.5177257564617
 20
59.52027239620044
 10
210.5170855277704
 20
59.52263136821627
 10
210.5166035747229
 20
59.5250359182258
 10
210.5162808488024
 20
59.52750471640115
 10
210.5161059814526
 20
59.53034331718131
  0
ARC
  5
1171
330
A
100
AcDbEntity
  8
INDUSA
  6
Continuous
100
AcDbCircle
 10
210.5390307698252
 20
59.52353436644197
 30
0.0
 40
0.0200000000000001
100
AcDbArc
 50
187.0000000000001
 51
229.6858998395025
  0
LINE
  5
1172
330
A
100
AcDbEntity
  8
INDUSA
  6
Continuous
100
AcDbLine
 10
210.5260912208613
 20
59.50828418373451
 30
0.0
 11
210.5390822182104
 21
59.49726151931707
 31
0.0
  0
LINE
  5
1174
330
A
100
AcDbEntity
  8
INDUSA
  6
Continuous
100
AcDbLine
 10
210.519567678374
 20
59.51547686661213
 30
0.0
 11
210.5199792701772
 21
59.51456828037853
 31
0.0
  0
LINE
  5
1175
330
A
100
AcDbEntity
  8
INDUSA
  6
Continuous
100
AcDbLine
 10
210.5161077028252
 20
59.53267922007166
 30
0.0
 11
210.5161059814526
 21
59.53034331718131
 31
0.0
  0
LINE
  5
1176
330
A
100
AcDbEntity
  8
INDUSA
  6
Continuous
100
AcDbLine
 10
210.5161077028252
 20
59.54611758431929
 30
0.0
 11
210.5191798467924
 21
59.52109697957387
 31
0.0
  0
LWPOLYLINE
  5
1177
330
A
100
AcDbEntity
  8
INDUSA
  6
Continuous
100
AcDbPolyline
 90
        6
 70
   128
 43
0.0
 10
210.5390831863857
 20
59.49726113223157
 10
210.5366483244397
 20
59.49823461279309
 10
210.5314178505992
 20
59.50134517866349
 10
210.5266203288292
 20
59.50542889512359
 10
210.5232433216087
 20
59.50937658017753
 10
210.5199792701772
 20
59.51456828037854
  0
LINE
  5
1179
330
A
100
AcDbEntity
  8
INDUSA
  6
Continuous
100
AcDbLine
 10
210.8911077028252
 20
59.63017267480054
 30
0.0
 11
210.8911077028252
 21
59.61017267480055
 31
0.0
  0
LINE
  5
117A
330
A
100
AcDbEntity
  8
INDUSA
  6
Continuous
100
AcDbLine
 10
210.8697784778312
 20
59.63017267480054
 30
0.0
 11
210.8911077028252
 21
59.63017267480054
 31
0.0
  0
LINE
  5
117B
330
A
100
AcDbEntity
  8
INDUSA
  6
Continuous
100
AcDbLine
 10
210.8911077028252
 20
59.61017267480055
 30
0.0
 11
210.8462070492598
 21
59.61017267480055
 31
0.0
  0
LINE
  5
117C
330
A
100
AcDbEntity
  8
INDUSA
  6
Continuous
100
AcDbLine
 10
210.7106711524821
 20
59.49517251995889
 30
0.0
 11
210.796462069894
 21
59.5679648135205
 31
0.0
  0
ARC
  5
117F
330
A
100
AcDbEntity
  8
INDUSA
  6
Continuous
100
AcDbCircle
 10
210.7736787415405
 20
59.45734316771727
 30
0.0
 40
0.0600000000000002
100
AcDbArc
 50
136.2730300200569
 51
149.1456765159051
  0
ARC
  5
1180
330
A
100
AcDbEntity
  8
INDUSA
  6
Continuous
100
AcDbCircle
 10
210.7106077028252
 20
59.48217267480054
 30
0.0
 40
0.013
100
AcDbArc
 50
27.19822576679569
 51
90.0
  0
LINE
  5
1182
330
A
100
AcDbEntity
  8
INDUSA
  6
Continuous
100
AcDbLine
 10
210.8462070492598
 20
59.61017267480055
 30
0.0
 11
210.8697784778312
 21
59.63017267480054
 31
0.0
  0
LINE
  5
1183
330
A
100
AcDbEntity
  8
INDUSA
  6
Continuous
100
AcDbLine
 10
210.796462069894
 20
59.5679648135205
 30
0.0
 11
210.7303202301117
 21
59.49881652647531
 31
0.0
  0
LINE
  5
118B
330
A
100
AcDbEntity
  8
INDUSA
  6
Continuous
100
AcDbLine
 10
210.3496245221494
 20
59.51453845854447
 30
0.0
 11
210.3496245221494
 21
59.51068346629803
 31
0.0
  0
ENDSEC
  0
SECTION
  2
OBJECTS
  0
DICTIONARY
  5
19
330
0
100
AcDbDictionary
281
     1
  3
ACAD_COLOR
350
11AC
  3
ACAD_GROUP
350
1A
  3
ACAD_LAYOUT
350
1141
  3
ACAD_MATERIAL
350
11AB
  3
ACAD_MLINESTYLE
350
1B
  3
ACAD_PLOTSETTINGS
350
1142
  3
ACAD_PLOTSTYLENAME
350
113F
  3
ACAD_TABLESTYLE
350
11AD
  3
ACDBHEADERROUNDTRIPXREC
350
11C1
  3
AcDbVariableDictionary
350
1189
  3
ASE_INDEX_DICTIONARY
350
1185
  0
DICTIONARY
  5
11AC
102
{ACAD_REACTORS
330
19
102
}
330
19
100
AcDbDictionary
281
     1
  0
DICTIONARY
  5
1A
102
{ACAD_REACTORS
330
19
102
}
330
19
100
AcDbDictionary
281
     1
  0
DICTIONARY
  5
1141
102
{ACAD_REACTORS
330
19
102
}
330
19
100
AcDbDictionary
281
     1
  3
Layout1
350
1144
  3
Model
350
1143
  0
DICTIONARY
  5
11AB
102
{ACAD_REACTORS
330
19
102
}
330
19
100
AcDbDictionary
281
     1
  0
DICTIONARY
  5
1B
102
{ACAD_REACTORS
330
19
102
}
330
19
100
AcDbDictionary
281
     1
  3
STANDARD
350
1C
  0
DICTIONARY
  5
1142
102
{ACAD_REACTORS
330
19
102
}
330
19
100
AcDbDictionary
281
     1
  0
ACDBDICTIONARYWDFLT
  5
113F
102
{ACAD_REACTORS
330
19
102
}
330
19
100
AcDbDictionary
281
     1
  3
Normal
350
1140
100
AcDbDictionaryWithDefault
340
1140
  0
DICTIONARY
  5
11AD
102
{ACAD_REACTORS
330
19
102
}
330
19
100
AcDbDictionary
281
     1
  3
Standard
350
11AE
  0
DICTIONARY
  5
11C1
102
{ACAD_REACTORS
330
19
102
}
330
19
100
AcDbDictionary
281
     1
  0
DICTIONARY
  5
1189
102
{ACAD_REACTORS
330
19
102
}
330
19
100
AcDbDictionary
281
     1
  3
CTABLESTYLE
350
11BB
  3
DIMASSOC
350
118A
  3
PROJECTNAME
350
11BF
  0
DICTIONARY
  5
1185
102
{ACAD_REACTORS
330
19
102
}
330
19
100
AcDbDictionary
281
     1
  3
ASEBlockHierarchyIndexRecord
350
1187
1001
DCO15
1040
1470029141.171
  0
LAYOUT
  5
1144
102
{ACAD_XDICTIONARY
360
11C4
102
}
102
{ACAD_REACTORS
330
1141
102
}
330
1141
100
AcDbPlotSettings
  1

  2
PLOTER 500
  4

  6

 40
0.0
 41
0.0
 42
0.0
 43
0.0
 44
0.0
 45
0.0
 46
0.0
 47
0.0
 48
0.0
 49
0.0
140
0.0
141
0.0
142
1.0
143
1.0
 70
   688
 72
     0
 73
     0
 74
     5
  7
monochrome.ctb
 75
    16
147
1.0
148
0.0
149
0.0
100
AcDbLayout
  1
Layout1
 70
     1
 71
     1
 10
0.0
 20
0.0
 11
12.0
 21
9.0
 12
0.0
 22
0.0
 32
0.0
 14
1.000000000000000E+20
 24
1.000000000000000E+20
 34
1.000000000000000E+20
 15
-1.000000000000000E+20
 25
-1.000000000000000E+20
 35
-1.000000000000000E+20
146
0.0
 13
0.0
 23
0.0
 33
0.0
 16
1.0
 26
0.0
 36
0.0
 17
0.0
 27
1.0
 37
0.0
 76
     0
330
B
  0
LAYOUT
  5
1143
102
{ACAD_XDICTIONARY
360
11C2
102
}
102
{ACAD_REACTORS
330
1141
102
}
330
1141
100
AcDbPlotSettings
  1

  2
PLOTER 500
  4

  6

 40
0.0
 41
0.0
 42
0.0
 43
0.0
 44
0.0
 45
0.0
 46
0.0
 47
0.0
 48
0.0
 49
0.0
140
0.0
141
0.0
142
1.0
143
1.0
 70
  1712
 72
     0
 73
     0
 74
     0
  7
monochrome.ctb
 75
     0
147
1.0
148
0.0
149
0.0
100
AcDbLayout
  1
Model
 70
     1
 71
     0
 10
0.0
 20
0.0
 11
12.0
 21
9.0
 12
0.0
 22
0.0
 32
0.0
 14
0.0
 24
0.0
 34
0.0
 15
0.0
 25
0.0
 35
0.0
146
0.0
 13
0.0
 23
0.0
 33
0.0
 16
1.0
 26
0.0
 36
0.0
 17
0.0
 27
1.0
 37
0.0
 76
     0
330
A
  0
MLINESTYLE
  5
1C
102
{ACAD_REACTORS
330
1B
102
}
330
1B
100
AcDbMlineStyle
  2
STANDARD
 70
     0
  3

 62
     0
 51
90.0
 52
90.0
 71
     2
 49
0.5
 62
   256
  6
BYLAYER
 49
-0.5
 62
   256
  6
BYLAYER
  0
ACDBPLACEHOLDER
  5
1140
102
{ACAD_REACTORS
330
113F
102
}
330
113F
  0
TABLESTYLE
  5
11AE
102
{ACAD_REACTORS
330
11AD
102
}
330
11AD
100
AcDbTableStyle
  3
Standard
 70
     0
 71
     0
 40
0.06
 41
0.06
280
     0
281
     0
  7
STANDARD
140
0.18
170
     2
 62
     0
 63
     7
283
     0
274
    -2
284
     1
 64
     0
275
    -2
285
     1
 65
     0
276
    -2
286
     1
 66
     0
277
    -2
287
     1
 67
     0
278
    -2
288
     1
 68
     0
279
    -2
289
     1
 69
     0
  7
STANDARD
140
0.25
170
     5
 62
     0
 63
     7
283
     0
274
    -2
284
     1
 64
     0
275
    -2
285
     1
 65
     0
276
    -2
286
     1
 66
     0
277
    -2
287
     1
 67
     0
278
    -2
288
     1
 68
     0
279
    -2
289
     1
 69
     0
  7
STANDARD
140
0.18
170
     5
 62
     0
 63
     7
283
     0
274
    -2
284
     1
 64
     0
275
    -2
285
     1
 65
     0
276
    -2
286
     1
 66
     0
277
    -2
287
     1
 67
     0
278
    -2
288
     1
 68
     0
279
    -2
289
     1
 69
     0
  0
DICTIONARYVAR
  5
11BB
102
{ACAD_REACTORS
330
1189
102
}
330
1189
100
DictionaryVariables
280
     0
  1
STANDARD
  0
DICTIONARYVAR
  5
118A
102
{ACAD_REACTORS
330
1189
102
}
330
1189
100
DictionaryVariables
280
     0
  1
1
  0
DICTIONARYVAR
  5
11BF
102
{ACAD_REACTORS
330
1189
102
}
330
1189
100
DictionaryVariables
280
     0
  1

  0
XRECORD
  5
1187
102
{ACAD_REACTORS
330
1185
102
}
330
1185
100
AcDbXrecord
280
     1
330
8F
330
93
330
98
330
9C
330
A0
330
A4
330
A8
330
AC
330
B0
330
B4
330
B8
330
BC
330
C0
330
C5
330
C9
  0
DICTIONARY
  5
11C4
330
1144
100
AcDbDictionary
280
     1
281
     1
  3
ACAD_XREC_ROUNDTRIP
360
11C5
  0
DICTIONARY
  5
11C2
330
1143
100
AcDbDictionary
280
     1
281
     1
  3
ACAD_XREC_ROUNDTRIP
360
11C3
  0
XRECORD
  5
11C5
102
{ACAD_REACTORS
330
11C4
102
}
330
11C4
100
AcDbXrecord
280
     1
102
SHADEPLOT
 70
     0
102
SHADEPLOTRESLEVEL
 70
     2
102
SHADEPLOTCUSTOMDPI
 70
   300
  0
XRECORD
  5
11C3
102
{ACAD_REACTORS
330
11C2
102
}
330
11C2
100
AcDbXrecord
280
     1
102
SHADEPLOT
 70
     0
102
SHADEPLOTRESLEVEL
 70
     2
102
SHADEPLOTCUSTOMDPI
 70
   300
  0
ENDSEC
  0
EOF
