  0
SECTION
  2
HEADER
  9
$ACADVER
  1
AC1015
  9
$ACADMAINTVER
 70
    20
  9
$DWGCODEPAGE
  3
ANSI_1252
  9
$INSBASE
 10
0.0
 20
0.0
 30
0.0
  9
$EXTMIN
 10
116.5933238675275
 20
200.7750100805133
 30
-0.0000000000112498
  9
$EXTMAX
 10
120.5987555121524
 20
201.3641515811488
 30
0.0000000000002956
  9
$LIMMIN
 10
0.0
 20
0.0
  9
$LIMMAX
 10
420.0
 20
297.0
  9
$ORTHOMODE
 70
     1
  9
$REGENMODE
 70
     1
  9
$FILLMODE
 70
     1
  9
$QTEXTMODE
 70
     0
  9
$MIRRTEXT
 70
     1
  9
$LTSCALE
 40
1.0
  9
$ATTMODE
 70
     1
  9
$TEXTSIZE
 40
2.5
  9
$TRACEWID
 40
1.0
  9
$TEXTSTYLE
  7
Standard
  9
$CLAYER
  8
0
  9
$CELTYPE
  6
ByLayer
  9
$CECOLOR
 62
   256
  9
$CELTSCALE
 40
1.0
  9
$DISPSILH
 70
     0
  9
$DIMSCALE
 40
1.0
  9
$DIMASZ
 40
2.5
  9
$DIMEXO
 40
0.625
  9
$DIMDLI
 40
3.75
  9
$DIMRND
 40
0.0
  9
$DIMDLE
 40
0.0
  9
$DIMEXE
 40
1.25
  9
$DIMTP
 40
0.0
  9
$DIMTM
 40
0.0
  9
$DIMTXT
 40
2.5
  9
$DIMCEN
 40
2.5
  9
$DIMTSZ
 40
0.0
  9
$DIMTOL
 70
     0
  9
$DIMLIM
 70
     0
  9
$DIMTIH
 70
     0
  9
$DIMTOH
 70
     0
  9
$DIMSE1
 70
     0
  9
$DIMSE2
 70
     0
  9
$DIMTAD
 70
     1
  9
$DIMZIN
 70
     8
  9
$DIMBLK
  1

  9
$DIMASO
 70
     1
  9
$DIMSHO
 70
     1
  9
$DIMPOST
  1

  9
$DIMAPOST
  1

  9
$DIMALT
 70
     0
  9
$DIMALTD
 70
     3
  9
$DIMALTF
 40
0.03937007874016
  9
$DIMLFAC
 40
1.0
  9
$DIMTOFL
 70
     1
  9
$DIMTVP
 40
0.0
  9
$DIMTIX
 70
     0
  9
$DIMSOXD
 70
     0
  9
$DIMSAH
 70
     0
  9
$DIMBLK1
  1

  9
$DIMBLK2
  1

  9
$DIMSTYLE
  2
ISO-25
  9
$DIMCLRD
 70
     0
  9
$DIMCLRE
 70
     0
  9
$DIMCLRT
 70
     0
  9
$DIMTFAC
 40
1.0
  9
$DIMGAP
 40
0.625
  9
$DIMJUST
 70
     0
  9
$DIMSD1
 70
     0
  9
$DIMSD2
 70
     0
  9
$DIMTOLJ
 70
     0
  9
$DIMTZIN
 70
     8
  9
$DIMALTZ
 70
     0
  9
$DIMALTTZ
 70
     0
  9
$DIMUPT
 70
     0
  9
$DIMDEC
 70
     2
  9
$DIMTDEC
 70
     2
  9
$DIMALTU
 70
     2
  9
$DIMALTTD
 70
     3
  9
$DIMTXSTY
  7
Standard
  9
$DIMAUNIT
 70
     0
  9
$DIMADEC
 70
     0
  9
$DIMALTRND
 40
0.0
  9
$DIMAZIN
 70
     0
  9
$DIMDSEP
 70
    44
  9
$DIMATFIT
 70
     3
  9
$DIMFRAC
 70
     0
  9
$DIMLDRBLK
  1

  9
$DIMLUNIT
 70
     2
  9
$DIMLWD
 70
    -2
  9
$DIMLWE
 70
    -2
  9
$DIMTMOVE
 70
     0
  9
$LUNITS
 70
     2
  9
$LUPREC
 70
     4
  9
$SKETCHINC
 40
1.0
  9
$FILLETRAD
 40
0.0
  9
$AUNITS
 70
     0
  9
$AUPREC
 70
     0
  9
$MENU
  1
.
  9
$ELEVATION
 40
0.0
  9
$PELEVATION
 40
0.0
  9
$THICKNESS
 40
0.0
  9
$LIMCHECK
 70
     0
  9
$CHAMFERA
 40
10.0
  9
$CHAMFERB
 40
10.0
  9
$CHAMFERC
 40
20.0
  9
$CHAMFERD
 40
0.0
  9
$SKPOLY
 70
     0
  9
$TDCREATE
 40
2452838.655227500
  9
$TDUCREATE
 40
2452838.613560833
  9
$TDUPDATE
 40
2456149.682384977
  9
$TDUUPDATE
 40
2456149.640718310
  9
$TDINDWG
 40
0.0083713194
  9
$TDUSRTIMER
 40
0.0083713194
  9
$USRTIMER
 70
     1
  9
$ANGBASE
 50
0.0
  9
$ANGDIR
 70
     0
  9
$PDMODE
 70
     0
  9
$PDSIZE
 40
0.0
  9
$PLINEWID
 40
0.0
  9
$SPLFRAME
 70
     0
  9
$SPLINETYPE
 70
     6
  9
$SPLINESEGS
 70
     8
  9
$HANDSEED
  5
CDF
  9
$SURFTAB1
 70
     6
  9
$SURFTAB2
 70
     6
  9
$SURFTYPE
 70
     6
  9
$SURFU
 70
     6
  9
$SURFV
 70
     6
  9
$UCSBASE
  2

  9
$UCSNAME
  2

  9
$UCSORG
 10
0.0
 20
0.0
 30
0.0
  9
$UCSXDIR
 10
1.0
 20
0.0
 30
0.0
  9
$UCSYDIR
 10
0.0
 20
1.0
 30
0.0
  9
$UCSORTHOREF
  2

  9
$UCSORTHOVIEW
 70
     0
  9
$UCSORGTOP
 10
0.0
 20
0.0
 30
0.0
  9
$UCSORGBOTTOM
 10
0.0
 20
0.0
 30
0.0
  9
$UCSORGLEFT
 10
0.0
 20
0.0
 30
0.0
  9
$UCSORGRIGHT
 10
0.0
 20
0.0
 30
0.0
  9
$UCSORGFRONT
 10
0.0
 20
0.0
 30
0.0
  9
$UCSORGBACK
 10
0.0
 20
0.0
 30
0.0
  9
$PUCSBASE
  2

  9
$PUCSNAME
  2

  9
$PUCSORG
 10
0.0
 20
0.0
 30
0.0
  9
$PUCSXDIR
 10
1.0
 20
0.0
 30
0.0
  9
$PUCSYDIR
 10
0.0
 20
1.0
 30
0.0
  9
$PUCSORTHOREF
  2

  9
$PUCSORTHOVIEW
 70
     0
  9
$PUCSORGTOP
 10
0.0
 20
0.0
 30
0.0
  9
$PUCSORGBOTTOM
 10
0.0
 20
0.0
 30
0.0
  9
$PUCSORGLEFT
 10
0.0
 20
0.0
 30
0.0
  9
$PUCSORGRIGHT
 10
0.0
 20
0.0
 30
0.0
  9
$PUCSORGFRONT
 10
0.0
 20
0.0
 30
0.0
  9
$PUCSORGBACK
 10
0.0
 20
0.0
 30
0.0
  9
$USERI1
 70
     0
  9
$USERI2
 70
     0
  9
$USERI3
 70
     0
  9
$USERI4
 70
     0
  9
$USERI5
 70
     0
  9
$USERR1
 40
0.0
  9
$USERR2
 40
0.0
  9
$USERR3
 40
0.0
  9
$USERR4
 40
0.0
  9
$USERR5
 40
0.0
  9
$WORLDVIEW
 70
     1
  9
$SHADEDGE
 70
     3
  9
$SHADEDIF
 70
    70
  9
$TILEMODE
 70
     1
  9
$MAXACTVP
 70
    64
  9
$PINSBASE
 10
0.0
 20
0.0
 30
0.0
  9
$PLIMCHECK
 70
     0
  9
$PEXTMIN
 10
1.000000000000000E+20
 20
1.000000000000000E+20
 30
1.000000000000000E+20
  9
$PEXTMAX
 10
-1.000000000000000E+20
 20
-1.000000000000000E+20
 30
-1.000000000000000E+20
  9
$PLIMMIN
 10
0.0
 20
0.0
  9
$PLIMMAX
 10
420.0
 20
297.0
  9
$UNITMODE
 70
     0
  9
$VISRETAIN
 70
     1
  9
$PLINEGEN
 70
     0
  9
$PSLTSCALE
 70
     1
  9
$TREEDEPTH
 70
  3020
  9
$CMLSTYLE
  2
Standard
  9
$CMLJUST
 70
     0
  9
$CMLSCALE
 40
20.0
  9
$PROXYGRAPHICS
 70
     1
  9
$MEASUREMENT
 70
     1
  9
$CELWEIGHT
370
    -1
  9
$ENDCAPS
280
     0
  9
$JOINSTYLE
280
     0
  9
$LWDISPLAY
290
     0
  9
$INSUNITS
 70
     4
  9
$HYPERLINKBASE
  1

  9
$STYLESHEET
  1

  9
$XEDIT
290
     1
  9
$CEPSNTYPE
380
     0
  9
$PSTYLEMODE
290
     1
  9
$FINGERPRINTGUID
  2
{92C12683-A33D-4FBC-AA55-F044405FC0DD}
  9
$VERSIONGUID
  2
{AC4D366E-9E35-484A-B379-38D25CD88E15}
  9
$EXTNAMES
290
     1
  9
$PSVPSCALE
 40
0.0
  9
$OLESTARTUP
290
     0
  0
ENDSEC
  0
SECTION
  2
CLASSES
  0
CLASS
  1
ACDBDICTIONARYWDFLT
  2
AcDbDictionaryWithDefault
  3
ObjectDBX Classes
 90
        0
280
     0
281
     0
  0
CLASS
  1
ACDBPLACEHOLDER
  2
AcDbPlaceHolder
  3
ObjectDBX Classes
 90
        0
280
     0
281
     0
  0
CLASS
  1
LAYOUT
  2
AcDbLayout
  3
ObjectDBX Classes
 90
        0
280
     0
281
     0
  0
CLASS
  1
DIMASSOC
  2
AcDbDimAssoc
  3
"AcDbDimAssoc|Product Desc:     AcDim ARX App For Dimension|Company:          Autodesk, Inc.|WEB Address:      www.autodesk.com"
 90
    32768
280
     0
281
     0
  0
CLASS
  1
DICTIONARYVAR
  2
AcDbDictionaryVar
  3
ObjectDBX Classes
 90
        0
280
     0
281
     0
  0
CLASS
  1
MATERIAL
  2
AcDbMaterial
  3
ObjectDBX Classes
 90
     1153
280
     0
281
     0
  0
CLASS
  1
VISUALSTYLE
  2
AcDbVisualStyle
  3
ObjectDBX Classes
 90
     4095
280
     0
281
     0
  0
CLASS
  1
TABLESTYLE
  2
AcDbTableStyle
  3
ObjectDBX Classes
 90
     4095
280
     0
281
     0
  0
CLASS
  1
SCALE
  2
AcDbScale
  3
ObjectDBX Classes
 90
     1153
280
     0
281
     0
  0
CLASS
  1
MLEADERSTYLE
  2
AcDbMLeaderStyle
  3
ACDB_MLEADERSTYLE_CLASS
 90
     4095
280
     0
281
     0
  0
CLASS
  1
CELLSTYLEMAP
  2
AcDbCellStyleMap
  3
ObjectDBX Classes
 90
     1152
280
     0
281
     0
  0
ENDSEC
  0
SECTION
  2
TABLES
  0
TABLE
  2
VPORT
  5
8
330
0
100
AcDbSymbolTable
 70
     1
  0
VPORT
  5
C4E
330
8
100
AcDbSymbolTableRecord
100
AcDbViewportTableRecord
  2
*Active
 70
     0
 10
0.0
 20
0.0
 11
1.0
 21
1.0
 12
118.5960396898399
 22
201.0695808308311
 13
0.0
 23
0.0
 14
10.0
 24
10.0
 15
10.0
 25
10.0
 16
0.0
 26
0.0
 36
1.0
 17
0.0
 27
0.0
 37
0.0
 40
2.4434721739513
 41
1.645464025026068
 42
50.0
 43
0.0
 44
0.0
 50
0.0
 51
0.0
 71
     0
 72
   100
 73
     1
 74
     3
 75
     0
 76
     0
 77
     0
 78
     0
281
     0
 65
     1
110
0.0
120
0.0
130
0.0
111
1.0
121
0.0
131
0.0
112
0.0
122
1.0
132
0.0
 79
     0
146
0.0
  0
ENDTAB
  0
TABLE
  2
LTYPE
  5
5
330
0
100
AcDbSymbolTable
 70
     3
  0
LTYPE
  5
14
330
5
100
AcDbSymbolTableRecord
100
AcDbLinetypeTableRecord
  2
ByBlock
 70
     0
  3

 72
    65
 73
     0
 40
0.0
  0
LTYPE
  5
15
330
5
100
AcDbSymbolTableRecord
100
AcDbLinetypeTableRecord
  2
ByLayer
 70
     0
  3

 72
    65
 73
     0
 40
0.0
  0
LTYPE
  5
16
330
5
100
AcDbSymbolTableRecord
100
AcDbLinetypeTableRecord
  2
Continuous
 70
     0
  3
Solid line
 72
    65
 73
     0
 40
0.0
  0
LTYPE
  5
D2
330
5
100
AcDbSymbolTableRecord
100
AcDbLinetypeTableRecord
  2
CENTER
 70
     0
  3
Center ____ _ ____ _ ____ _ ____ _ ____ _ ____
 72
    65
 73
     4
 40
10.16
 49
6.349999999999999
 74
     0
 49
-1.27
 74
     0
 49
1.27
 74
     0
 49
-1.27
 74
     0
  0
LTYPE
  5
54E
330
5
100
AcDbSymbolTableRecord
100
AcDbLinetypeTableRecord
  2
HIDDEN
 70
     0
  3
Hidden __ __ __ __ __ __ __ __ __ __ __ __ __ __
 72
    65
 73
     2
 40
1.905
 49
1.27
 74
     0
 49
-0.635
 74
     0
  0
ENDTAB
  0
TABLE
  2
LAYER
  5
2
330
0
100
AcDbSymbolTable
 70
     8
  0
LAYER
  5
10
102
{ACAD_XDICTIONARY
360
C96
102
}
330
2
100
AcDbSymbolTableRecord
100
AcDbLayerTableRecord
  2
0
 70
     0
 62
     7
  6
Continuous
370
    -3
390
F
  0
LAYER
  5
D3
102
{ACAD_XDICTIONARY
360
C98
102
}
330
2
100
AcDbSymbolTableRecord
100
AcDbLayerTableRecord
  2
3
 70
     0
 62
     3
  6
Continuous
370
    -3
390
F
  0
LAYER
  5
D4
330
2
100
AcDbSymbolTableRecord
100
AcDbLayerTableRecord
  2
Defpoints
 70
     0
 62
     7
  6
Continuous
290
     0
370
    -3
390
F
  0
LAYER
  5
D5
102
{ACAD_XDICTIONARY
360
C9A
102
}
330
2
100
AcDbSymbolTableRecord
100
AcDbLayerTableRecord
  2
9
 70
     0
 62
     9
  6
Continuous
370
    -3
390
F
  0
LAYER
  5
D6
102
{ACAD_XDICTIONARY
360
C9C
102
}
330
2
100
AcDbSymbolTableRecord
100
AcDbLayerTableRecord
  2
hatch
 70
     0
 62
     9
  6
Continuous
370
    -3
390
F
  0
LAYER
  5
D7
102
{ACAD_XDICTIONARY
360
C9E
102
}
330
2
100
AcDbSymbolTableRecord
100
AcDbLayerTableRecord
  2
INDUSA
 70
     0
 62
     1
  6
Continuous
370
    -3
390
F
  0
LAYER
  5
D8
102
{ACAD_XDICTIONARY
360
CA0
102
}
330
2
100
AcDbSymbolTableRecord
100
AcDbLayerTableRecord
  2
COTAS
 70
     0
 62
     1
  6
Continuous
370
    -3
390
F
  0
LAYER
  5
D9
102
{ACAD_XDICTIONARY
360
CA2
102
}
330
2
100
AcDbSymbolTableRecord
100
AcDbLayerTableRecord
  2
INDUSA CEN
 70
     0
 62
     9
  6
CENTER
370
    -3
390
F
  0
ENDTAB
  0
TABLE
  2
STYLE
  5
3
330
0
100
AcDbSymbolTable
 70
     2
  0
STYLE
  5
11
330
3
100
AcDbSymbolTableRecord
100
AcDbTextStyleTableRecord
  2
Standard
 70
     0
 40
0.0
 41
1.0
 50
0.0
 71
     0
 42
2.5
  3
txt
  4

  0
STYLE
  5
DA
330
3
100
AcDbSymbolTableRecord
100
AcDbTextStyleTableRecord
  2
SANINDUSA
 70
     0
 40
0.0
 41
1.0
 50
0.0
 71
     0
 42
2.5
  3
simplex.shx
  4

  0
ENDTAB
  0
TABLE
  2
VIEW
  5
6
330
0
100
AcDbSymbolTable
 70
     0
  0
ENDTAB
  0
TABLE
  2
UCS
  5
7
330
0
100
AcDbSymbolTable
 70
     0
  0
ENDTAB
  0
TABLE
  2
APPID
  5
9
330
0
100
AcDbSymbolTable
 70
     3
  0
APPID
  5
12
330
9
100
AcDbSymbolTableRecord
100
AcDbRegAppTableRecord
  2
ACAD
 70
     0
  0
APPID
  5
489
330
9
100
AcDbSymbolTableRecord
100
AcDbRegAppTableRecord
  2
DCO15
 70
     0
  0
APPID
  5
CDE
330
9
100
AcDbSymbolTableRecord
100
AcDbRegAppTableRecord
  2
ACAD_MLEADERVER
 70
     0
  0
ENDTAB
  0
TABLE
  2
DIMSTYLE
  5
A
330
0
100
AcDbSymbolTable
 70
     3
100
AcDbDimStyleTable
 71
     1
340
27
  0
DIMSTYLE
105
27
330
A
100
AcDbSymbolTableRecord
100
AcDbDimStyleTableRecord
  2
ISO-25
 70
     0
 41
2.5
 42
0.625
 43
3.75
 44
1.25
 73
     0
 74
     0
 77
     1
 78
     8
140
2.5
141
2.5
143
0.03937007874016
147
0.625
171
     3
172
     1
271
     2
272
     2
274
     3
278
    44
283
     0
284
     8
340
11
  0
DIMSTYLE
105
DB
330
A
100
AcDbSymbolTableRecord
100
AcDbDimStyleTableRecord
  2
SANINDUSA
 70
     0
 41
3.0
 42
1.0
 43
1.0
 44
1.0
 73
     0
 74
     0
 77
     1
 78
     8
140
2.0
141
0.0
143
0.03937007874016
147
1.0
171
     3
172
     1
176
     1
177
     1
178
     1
179
     1
271
     1
272
     1
274
     3
278
    44
283
     0
284
     8
340
DA
371
    -1
372
    -1
  0
DIMSTYLE
105
3DE
330
A
100
AcDbSymbolTableRecord
100
AcDbDimStyleTableRecord
  2
STANDARD
 70
     0
271
     3
272
     3
279
     2
284
     1
285
     1
286
     1
340
11
  0
ENDTAB
  0
TABLE
  2
BLOCK_RECORD
  5
1
330
0
100
AcDbSymbolTable
 70
    26
  0
BLOCK_RECORD
  5
1F
330
1
100
AcDbSymbolTableRecord
100
AcDbBlockTableRecord
  2
*Model_Space
340
22
  0
BLOCK_RECORD
  5
1B
330
1
100
AcDbSymbolTableRecord
100
AcDbBlockTableRecord
  2
*Paper_Space
340
1E
  0
BLOCK_RECORD
  5
23
330
1
100
AcDbSymbolTableRecord
100
AcDbBlockTableRecord
  2
*Paper_Space0
340
26
  0
BLOCK_RECORD
  5
3DF
330
1
100
AcDbSymbolTableRecord
100
AcDbBlockTableRecord
  2
14320SCT
340
0
  0
BLOCK_RECORD
  5
496
330
1
100
AcDbSymbolTableRecord
100
AcDbBlockTableRecord
  2
SW_CENTERMARK0
340
0
  0
BLOCK_RECORD
  5
4A1
330
1
100
AcDbSymbolTableRecord
100
AcDbBlockTableRecord
  2
SW_CENTERMARK1
340
0
  0
BLOCK_RECORD
  5
4AC
330
1
100
AcDbSymbolTableRecord
100
AcDbBlockTableRecord
  2
SW_CENTERMARK2
340
0
  0
BLOCK_RECORD
  5
4B7
330
1
100
AcDbSymbolTableRecord
100
AcDbBlockTableRecord
  2
SW_CENTERMARK3
340
0
  0
BLOCK_RECORD
  5
4C2
330
1
100
AcDbSymbolTableRecord
100
AcDbBlockTableRecord
  2
SW_CENTERMARK4
340
0
  0
BLOCK_RECORD
  5
4C9
330
1
100
AcDbSymbolTableRecord
100
AcDbBlockTableRecord
  2
SW_CENTERMARK5
340
0
  0
BLOCK_RECORD
  5
4D0
330
1
100
AcDbSymbolTableRecord
100
AcDbBlockTableRecord
  2
SW_CENTERMARK6
340
0
  0
BLOCK_RECORD
  5
4D7
330
1
100
AcDbSymbolTableRecord
100
AcDbBlockTableRecord
  2
SW_CENTERMARK7
340
0
  0
BLOCK_RECORD
  5
4DE
330
1
100
AcDbSymbolTableRecord
100
AcDbBlockTableRecord
  2
SW_CENTERMARK13
340
0
  0
BLOCK_RECORD
  5
4E5
330
1
100
AcDbSymbolTableRecord
100
AcDbBlockTableRecord
  2
SW_CENTERMARK14
340
0
  0
BLOCK_RECORD
  5
4EC
330
1
100
AcDbSymbolTableRecord
100
AcDbBlockTableRecord
  2
SW_CENTERMARK15
340
0
  0
BLOCK_RECORD
  5
4F3
330
1
100
AcDbSymbolTableRecord
100
AcDbBlockTableRecord
  2
SW_CENTERMARK16
340
0
  0
BLOCK_RECORD
  5
4FA
330
1
100
AcDbSymbolTableRecord
100
AcDbBlockTableRecord
  2
SW_CENTERMARK17
340
0
  0
BLOCK_RECORD
  5
501
330
1
100
AcDbSymbolTableRecord
100
AcDbBlockTableRecord
  2
SW_CENTERMARK18
340
0
  0
BLOCK_RECORD
  5
508
330
1
100
AcDbSymbolTableRecord
100
AcDbBlockTableRecord
  2
SW_CENTERMARK19
340
0
  0
BLOCK_RECORD
  5
50F
330
1
100
AcDbSymbolTableRecord
100
AcDbBlockTableRecord
  2
SW_CENTERMARK20
340
0
  0
BLOCK_RECORD
  5
516
330
1
100
AcDbSymbolTableRecord
100
AcDbBlockTableRecord
  2
SW_CENTERMARK21
340
0
  0
BLOCK_RECORD
  5
51D
330
1
100
AcDbSymbolTableRecord
100
AcDbBlockTableRecord
  2
SW_CENTERMARK22
340
0
  0
BLOCK_RECORD
  5
524
330
1
100
AcDbSymbolTableRecord
100
AcDbBlockTableRecord
  2
SW_CENTERMARK23
340
0
  0
BLOCK_RECORD
  5
52B
330
1
100
AcDbSymbolTableRecord
100
AcDbBlockTableRecord
  2
SW_CENTERMARK24
340
0
  0
BLOCK_RECORD
  5
532
330
1
100
AcDbSymbolTableRecord
100
AcDbBlockTableRecord
  2
SW_CENTERMARK25
340
0
  0
BLOCK_RECORD
  5
539
330
1
100
AcDbSymbolTableRecord
100
AcDbBlockTableRecord
  2
SW_CENTERMARK26
340
0
  0
BLOCK_RECORD
  5
540
330
1
100
AcDbSymbolTableRecord
100
AcDbBlockTableRecord
  2
SW_CENTERMARK27
340
0
  0
BLOCK_RECORD
  5
547
330
1
100
AcDbSymbolTableRecord
100
AcDbBlockTableRecord
  2
SW_CENTERMARK28
340
0
  0
ENDTAB
  0
ENDSEC
  0
SECTION
  2
BLOCKS
  0
BLOCK
  5
20
330
1F
100
AcDbEntity
  8
0
100
AcDbBlockBegin
  2
*Model_Space
 70
     0
 10
0.0
 20
0.0
 30
0.0
  3
*Model_Space
  1

  0
ENDBLK
  5
21
330
1F
100
AcDbEntity
  8
0
100
AcDbBlockEnd
  0
BLOCK
  5
1C
330
1B
100
AcDbEntity
 67
     1
  8
0
100
AcDbBlockBegin
  2
*Paper_Space
 70
     0
 10
0.0
 20
0.0
 30
0.0
  3
*Paper_Space
  1

  0
ENDBLK
  5
1D
330
1B
100
AcDbEntity
 67
     1
  8
0
100
AcDbBlockEnd
  0
BLOCK
  5
24
330
23
100
AcDbEntity
 67
     1
  8
0
100
AcDbBlockBegin
  2
*Paper_Space0
 70
     0
 10
0.0
 20
0.0
 30
0.0
  3
*Paper_Space0
  1

  0
ENDBLK
  5
25
330
23
100
AcDbEntity
 67
     1
  8
0
100
AcDbBlockEnd
  0
BLOCK
  5
450
330
3DF
100
AcDbEntity
  8
0
100
AcDbBlockBegin
  2
14320SCT
 70
     0
 10
0.0
 20
0.0
 30
0.0
  3
14320SCT
  1

  0
LINE
  5
3E0
330
3DF
100
AcDbEntity
  8
INDUSA
100
AcDbLine
 10
0.5600030000000001
 20
0.84
 30
0.0
 11
0.13874
 21
0.84
 31
0.0
  0
ARC
  5
3E1
330
3DF
100
AcDbEntity
  8
INDUSA
100
AcDbCircle
 10
0.251967
 20
0.99611
 30
0.0
 40
0.318025
100
AcDbArc
 50
273.614754
 51
306.060287
  0
LINE
  5
3E2
330
3DF
100
AcDbEntity
  8
INDUSA
100
AcDbLine
 10
0.267521
 20
0.6637180000000001
 30
0.0
 11
0.374903
 21
0.666133
 31
0.0
  0
ARC
  5
3E3
330
3DF
100
AcDbEntity
  8
INDUSA
100
AcDbCircle
 10
3.287586
 20
-1.053755999999999
 30
0.0
 40
3.380935
100
AcDbArc
 50
149.566339
 51
152.834374
  0
ARC
  5
3E4
330
3DF
100
AcDbEntity
  8
INDUSA
100
AcDbCircle
 10
3.287586
 20
-1.053755999999999
 30
0.0
 40
3.390934999999999
100
AcDbArc
 50
149.877192
 51
152.091478
  0
ARC
  5
3E5
330
3DF
100
AcDbEntity
  8
INDUSA
100
AcDbCircle
 10
0.315061
 20
0.649592
 30
0.0
 40
0.005
100
AcDbArc
 50
91.494686
 51
165.96981
  0
LINE
  5
3E6
330
3DF
100
AcDbEntity
  8
INDUSA
100
AcDbLine
 10
0.0
 20
0.703975
 30
0.0
 11
0.0
 21
0.322377
 31
0.0
  0
ARC
  5
3E7
330
3DF
100
AcDbEntity
  8
INDUSA
100
AcDbCircle
 10
0.657215
 20
0.309662
 30
0.0
 40
0.418406
100
AcDbArc
 50
154.489745
 51
170.428786
  0
LINE
  5
3E8
330
3DF
100
AcDbEntity
  8
INDUSA
100
AcDbLine
 10
0.303331
 20
0.664523
 30
0.0
 11
0.240715
 21
0.4139470000000001
 31
0.0
  0
LINE
  5
3E9
330
3DF
100
AcDbEntity
  8
INDUSA
100
AcDbLine
 10
0.025761
 20
0.322331
 30
0.0
 11
0.215712
 21
0.369018
 31
0.0
  0
LINE
  5
3EA
330
3DF
100
AcDbEntity
  8
INDUSA
100
AcDbLine
 10
0.025761
 20
0.322331
 30
0.0
 11
0.006193
 21
0.317522
 31
0.0
  0
ARC
  5
3EB
330
3DF
100
AcDbEntity
  8
INDUSA
100
AcDbCircle
 10
0.013938
 20
0.361643
 30
0.0
 40
0.006
100
AcDbArc
 50
0.0
 51
103.808692
  0
ARC
  5
3EC
330
3DF
100
AcDbEntity
  8
INDUSA
100
AcDbCircle
 10
0.022937
 20
0.34532
 30
0.0
 40
0.003
100
AcDbArc
 50
180.0
 51
283.808692
  0
ARC
  5
3ED
330
3DF
100
AcDbEntity
  8
INDUSA
100
AcDbCircle
 10
0.005
 20
0.322377
 30
0.0
 40
0.005
100
AcDbArc
 50
180.0
 51
283.808692
  0
LINE
  5
3EE
330
3DF
100
AcDbEntity
  8
INDUSA
100
AcDbLine
 10
0.003391
 20
0.365229
 30
0.0
 11
0.012506
 21
0.367469
 31
0.0
  0
ARC
  5
3EF
330
3DF
100
AcDbEntity
  8
INDUSA
100
AcDbCircle
 10
0.001152
 20
0.366738
 30
0.0
 40
0.001
100
AcDbArc
 50
0.0
 51
103.808692
  0
LINE
  5
3F0
330
3DF
100
AcDbEntity
  8
INDUSA
100
AcDbLine
 10
0.0
 20
0.367484
 30
0.0
 11
0.000914
 21
0.367709
 31
0.0
  0
ARC
  5
3F1
330
3DF
100
AcDbEntity
  8
INDUSA
100
AcDbCircle
 10
0.003152
 20
0.3662
 30
0.0
 40
0.001
100
AcDbArc
 50
180.0
 51
283.808692
  0
LINE
  5
3F2
330
3DF
100
AcDbEntity
  8
INDUSA
100
AcDbLine
 10
0.002152
 20
0.366738
 30
0.0
 11
0.002152
 21
0.3662
 31
0.0
  0
LINE
  5
3F3
330
3DF
100
AcDbEntity
  8
INDUSA
100
AcDbLine
 10
0.029417
 20
0.343824
 30
0.0
 11
0.029417
 21
0.335586
 31
0.0
  0
LINE
  5
3F4
330
3DF
100
AcDbEntity
  8
INDUSA
100
AcDbLine
 10
0.023653
 20
0.342407
 30
0.0
 11
0.029417
 21
0.343824
 31
0.0
  0
ARC
  5
3F5
330
3DF
100
AcDbEntity
  8
INDUSA
100
AcDbCircle
 10
0.025045
 20
0.325244
 30
0.0
 40
0.003
100
AcDbArc
 50
283.808692
 51
4.993043
  0
ARC
  5
3F6
330
3DF
100
AcDbEntity
  8
INDUSA
100
AcDbCircle
 10
0.050896
 20
0.327503
 30
0.0
 40
0.02295
100
AcDbArc
 50
159.376616
 51
184.993043
  0
LINE
  5
3F7
330
3DF
100
AcDbEntity
  8
INDUSA
100
AcDbLine
 10
0.019938
 20
0.361643
 30
0.0
 11
0.019938
 21
0.34532
 31
0.0
  0
LINE
  5
3F8
330
3DF
100
AcDbEntity
  8
INDUSA
100
AcDbLine
 10
0.237058
 20
0.410304
 30
0.0
 11
0.213326
 21
0.4044710000000001
 31
0.0
  0
LINE
  5
3F9
330
3DF
100
AcDbEntity
  8
INDUSA
100
AcDbLine
 10
0.215712
 20
0.369018
 30
0.0
 11
0.240897
 21
0.375208
 31
0.0
  0
LINE
  5
3FA
330
3DF
100
AcDbEntity
  8
INDUSA
100
AcDbLine
 10
0.209519
 20
0.399616
 30
0.0
 11
0.209519
 21
0.373873
 31
0.0
  0
ARC
  5
3FB
330
3DF
100
AcDbEntity
  8
INDUSA
100
AcDbCircle
 10
0.214519
 20
0.373873
 30
0.0
 40
0.005
100
AcDbArc
 50
180.0
 51
283.808692
  0
ARC
  5
3FC
330
3DF
100
AcDbEntity
  8
INDUSA
100
AcDbCircle
 10
0.214519
 20
0.399616
 30
0.0
 40
0.005
100
AcDbArc
 50
103.808692
 51
180.0
  0
ARC
  5
3FD
330
3DF
100
AcDbEntity
  8
INDUSA
100
AcDbCircle
 10
0.239703
 20
0.380063
 30
0.0
 40
0.005
100
AcDbArc
 50
283.808692
 51
350.428786
  0
ARC
  5
3FE
330
3DF
100
AcDbEntity
  8
INDUSA
100
AcDbCircle
 10
0.235865
 20
0.415159
 30
0.0
 40
0.005
100
AcDbArc
 50
283.808692
 51
345.96981
  0
LINE
  5
3FF
330
3DF
100
AcDbEntity
  8
INDUSA
100
AcDbLine
 10
0.223325
 20
0.3966319999999999
 30
0.0
 11
0.230827
 21
0.398475
 31
0.0
  0
LINE
  5
400
330
3DF
100
AcDbEntity
  8
INDUSA
100
AcDbLine
 10
0.225712
 20
0.381773
 30
0.0
 11
0.232182
 21
0.383363
 31
0.0
  0
ARC
  5
401
330
3DF
100
AcDbEntity
  8
INDUSA
100
AcDbCircle
 10
0.224518
 20
0.391777
 30
0.0
 40
0.005
100
AcDbArc
 50
103.808692
 51
180.0
  0
ARC
  5
402
330
3DF
100
AcDbEntity
  8
INDUSA
100
AcDbCircle
 10
0.224518
 20
0.386628
 30
0.0
 40
0.005
100
AcDbArc
 50
180.0
 51
283.808692
  0
LINE
  5
403
330
3DF
100
AcDbEntity
  8
INDUSA
100
AcDbLine
 10
0.219519
 20
0.391777
 30
0.0
 11
0.219519
 21
0.386628
 31
0.0
  0
ARC
  5
404
330
3DF
100
AcDbEntity
  8
INDUSA
100
AcDbCircle
 10
0.23202
 20
0.39362
 30
0.0
 40
0.005
100
AcDbArc
 50
348.830198
 51
103.808692
  0
ARC
  5
405
330
3DF
100
AcDbEntity
  8
INDUSA
100
AcDbCircle
 10
0.230989
 20
0.388218
 30
0.0
 40
0.005
100
AcDbArc
 50
283.808692
 51
349.557223
  0
ARC
  5
406
330
3DF
100
AcDbEntity
  8
INDUSA
100
AcDbCircle
 10
0.657215
 20
0.309662
 30
0.0
 40
0.428405
100
AcDbArc
 50
168.830198
 51
169.557223
  0
LINE
  5
407
330
3DF
100
AcDbEntity
  8
INDUSA
100
AcDbLine
 10
0.010037
 20
0.849999
 30
0.0
 11
0.129349
 21
0.8499739999999999
 31
0.0
  0
LINE
  5
408
330
3DF
100
AcDbEntity
  8
INDUSA
100
AcDbLine
 10
0.120134
 20
0.7089750000000001
 30
0.0
 11
0.030864
 21
0.7089750000000001
 31
0.0
  0
LINE
  5
409
330
3DF
100
AcDbEntity
  8
INDUSA
100
AcDbLine
 10
0.106469
 20
0.824103
 30
0.0
 11
0.127718
 21
0.6683120000000001
 31
0.0
  0
LINE
  5
40A
330
3DF
100
AcDbEntity
  8
INDUSA
100
AcDbLine
 10
0.116377
 20
0.825454
 30
0.0
 11
0.137625
 21
0.6696640000000001
 31
0.0
  0
ARC
  5
40B
330
3DF
100
AcDbEntity
  8
INDUSA
100
AcDbCircle
 10
0.124872
 20
0.8276059999999999
 30
0.0
 40
0.008764
100
AcDbArc
 50
109.428145
 51
194.213618
  0
LINE
  5
40C
330
3DF
100
AcDbEntity
  8
INDUSA
100
AcDbLine
 10
0.026549
 20
0.823606
 30
0.0
 11
0.016715
 21
0.7089750000000001
 31
0.0
  0
LINE
  5
40D
330
3DF
100
AcDbEntity
  8
INDUSA
100
AcDbLine
 10
0.000038
 20
0.704591
 30
0.0
 11
0.000038
 21
0.84
 31
0.0
  0
LINE
  5
40E
330
3DF
100
AcDbEntity
  8
INDUSA
100
AcDbLine
 10
0.005
 20
0.7089750000000001
 30
0.0
 11
0.030864
 21
0.7089750000000001
 31
0.0
  0
ARC
  5
40F
330
3DF
100
AcDbEntity
  8
INDUSA
100
AcDbCircle
 10
0.005
 20
0.703975
 30
0.0
 40
0.005
100
AcDbArc
 50
90.0
 51
180.0
  0
ARC
  5
410
330
3DF
100
AcDbEntity
  8
INDUSA
100
AcDbCircle
 10
0.010037
 20
0.84
 30
0.0
 40
0.009999
100
AcDbArc
 50
90.0
 51
180.0
  0
LINE
  5
411
330
3DF
100
AcDbEntity
  8
INDUSA
100
AcDbLine
 10
0.047535
 20
0.83275
 30
0.0
 11
0.036512
 21
0.83275
 31
0.0
  0
ARC
  5
412
330
3DF
100
AcDbEntity
  8
INDUSA
100
AcDbCircle
 10
0.036512
 20
0.822751
 30
0.0
 40
0.009999
100
AcDbArc
 50
90.0
 51
175.09641
  0
LINE
  5
413
330
3DF
100
AcDbEntity
  8
INDUSA
100
AcDbLine
 10
0.047535
 20
0.83275
 30
0.0
 11
0.047535
 21
0.849999
 31
0.0
  0
LINE
  5
414
330
3DF
100
AcDbEntity
  8
INDUSA
100
AcDbLine
 10
0.096562
 20
0.83275
 30
0.0
 11
0.082533
 21
0.83275
 31
0.0
  0
LINE
  5
415
330
3DF
100
AcDbEntity
  8
INDUSA
100
AcDbLine
 10
0.082533
 20
0.83275
 30
0.0
 11
0.082533
 21
0.849999
 31
0.0
  0
ARC
  5
416
330
3DF
100
AcDbEntity
  8
INDUSA
100
AcDbCircle
 10
0.096562
 20
0.822751
 30
0.0
 40
0.009999
100
AcDbArc
 50
7.766676999999999
 51
90.0
  0
LINE
  5
417
330
3DF
100
AcDbEntity
  8
INDUSA
100
AcDbLine
 10
0.138555
 20
0.8413509999999998
 30
0.0
 11
0.159558
 21
0.687365
 31
0.0
  0
LINE
  5
418
330
3DF
100
AcDbEntity
  8
INDUSA
100
AcDbLine
 10
0.134863
 20
0.7937650000000001
 30
0.0
 11
0.150215
 21
0.6812040000000001
 31
0.0
  0
LINE
  5
419
330
3DF
100
AcDbEntity
  8
INDUSA
100
AcDbLine
 10
0.182527
 20
0.678717
 30
0.0
 11
0.257522
 21
0.678717
 31
0.0
  0
LINE
  5
41A
330
3DF
100
AcDbEntity
  8
INDUSA
100
AcDbLine
 10
0.197526
 20
0.6637180000000001
 30
0.0
 11
0.242523
 21
0.6637180000000001
 31
0.0
  0
LINE
  5
41B
330
3DF
100
AcDbEntity
  8
INDUSA
100
AcDbLine
 10
0.182527
 20
0.623721
 30
0.0
 11
0.257522
 21
0.623721
 31
0.0
  0
ARC
  5
41C
330
3DF
100
AcDbEntity
  8
INDUSA
100
AcDbCircle
 10
0.17003
 20
0.6839070000000001
 30
0.0
 40
0.019999
100
AcDbArc
 50
187.766677
 51
270.0
  0
ARC
  5
41D
330
3DF
100
AcDbEntity
  8
INDUSA
100
AcDbCircle
 10
0.169465
 20
0.6887170000000001
 30
0.0
 40
0.009999
100
AcDbArc
 50
187.766677
 51
270.0
  0
ARC
  5
41E
330
3DF
100
AcDbEntity
  8
INDUSA
100
AcDbCircle
 10
0.167348
 20
0.6737180000000001
 30
0.0
 40
0.029998
100
AcDbArc
 50
187.766677
 51
270.0
  0
ARC
  5
41F
330
3DF
100
AcDbEntity
  8
INDUSA
100
AcDbCircle
 10
0.167348
 20
0.6737180000000001
 30
0.0
 40
0.039997
100
AcDbArc
 50
187.766677
 51
270.0
  0
ARC
  5
420
330
3DF
100
AcDbEntity
  8
INDUSA
100
AcDbCircle
 10
0.119989
 20
0.7033199999999999
 30
0.0
 40
0.005657
100
AcDbArc
 50
66.60736799999999
 51
88.53783900000001
  0
LINE
  5
421
330
3DF
100
AcDbEntity
  8
INDUSA
100
AcDbLine
 10
0.197526
 20
0.6637180000000001
 30
0.0
 11
0.197526
 21
0.6537190000000001
 31
0.0
  0
ARC
  5
422
330
3DF
100
AcDbEntity
  8
INDUSA
100
AcDbCircle
 10
0.186748
 20
0.658718
 30
0.0
 40
0.005
100
AcDbArc
 50
198.533959
 51
270.0
  0
LINE
  5
423
330
3DF
100
AcDbEntity
  8
INDUSA
100
AcDbLine
 10
0.167348
 20
0.6437190000000001
 30
0.0
 11
0.197526
 21
0.6437190000000001
 31
0.0
  0
LINE
  5
424
330
3DF
100
AcDbEntity
  8
INDUSA
100
AcDbLine
 10
0.186748
 20
0.6537190000000001
 30
0.0
 11
0.197526
 21
0.6537190000000001
 31
0.0
  0
ARC
  5
425
330
3DF
100
AcDbEntity
  8
INDUSA
100
AcDbCircle
 10
0.177527
 20
0.62872
 30
0.0
 40
0.005
100
AcDbArc
 50
0.0
 51
90.0
  0
LINE
  5
426
330
3DF
100
AcDbEntity
  8
INDUSA
100
AcDbLine
 10
0.167348
 20
0.63372
 30
0.0
 11
0.177527
 21
0.63372
 31
0.0
  0
LINE
  5
427
330
3DF
100
AcDbEntity
  8
INDUSA
100
AcDbLine
 10
0.182527
 20
0.62872
 30
0.0
 11
0.182527
 21
0.623721
 31
0.0
  0
LINE
  5
428
330
3DF
100
AcDbEntity
  8
INDUSA
100
AcDbLine
 10
0.197526
 20
0.6437190000000001
 30
0.0
 11
0.197526
 21
0.623721
 31
0.0
  0
LINE
  5
429
330
3DF
100
AcDbEntity
  8
INDUSA
100
AcDbLine
 10
0.197526
 20
0.6537190000000001
 30
0.0
 11
0.197526
 21
0.6437190000000001
 31
0.0
  0
LINE
  5
42A
330
3DF
100
AcDbEntity
  8
INDUSA
100
AcDbLine
 10
0.197526
 20
0.6637180000000001
 30
0.0
 11
0.182527
 21
0.678717
 31
0.0
  0
LINE
  5
42B
330
3DF
100
AcDbEntity
  8
INDUSA
100
AcDbLine
 10
0.169465
 20
0.678717
 30
0.0
 11
0.182527
 21
0.678717
 31
0.0
  0
ARC
  5
42C
330
3DF
100
AcDbEntity
  8
INDUSA
100
AcDbCircle
 10
0.172527
 20
0.653951
 30
0.0
 40
0.009999
100
AcDbArc
 50
18.533959
 51
84.73652300000001
  0
LINE
  5
42D
330
3DF
100
AcDbEntity
  8
INDUSA
100
AcDbLine
 10
0.17003
 20
0.6639080000000001
 30
0.0
 11
0.173444
 21
0.6639080000000001
 31
0.0
  0
LINE
  5
42E
330
3DF
100
AcDbEntity
  8
INDUSA
100
AcDbLine
 10
0.31021
 20
0.6508040000000001
 30
0.0
 11
0.281762
 21
0.536961
 31
0.0
  0
ARC
  5
42F
330
3DF
100
AcDbEntity
  8
INDUSA
100
AcDbCircle
 10
0.286613
 20
0.5357490000000001
 30
0.0
 40
0.005
100
AcDbArc
 50
165.96981
 51
332.091478
  0
LINE
  5
430
330
3DF
100
AcDbEntity
  8
INDUSA
100
AcDbLine
 10
0.257522
 20
0.678717
 30
0.0
 11
0.272018
 21
0.678717
 31
0.0
  0
ARC
  5
431
330
3DF
100
AcDbEntity
  8
INDUSA
100
AcDbCircle
 10
0.267521
 20
0.6537190000000001
 30
0.0
 40
0.009999
100
AcDbArc
 50
90.0
 51
180.0
  0
LINE
  5
432
330
3DF
100
AcDbEntity
  8
INDUSA
100
AcDbLine
 10
0.242523
 20
0.6637180000000001
 30
0.0
 11
0.242523
 21
0.623721
 31
0.0
  0
LINE
  5
433
330
3DF
100
AcDbEntity
  8
INDUSA
100
AcDbLine
 10
0.257522
 20
0.6537190000000001
 30
0.0
 11
0.257522
 21
0.623721
 31
0.0
  0
LINE
  5
434
330
3DF
100
AcDbEntity
  8
INDUSA
100
AcDbLine
 10
0.242523
 20
0.6637180000000001
 30
0.0
 11
0.257522
 21
0.678717
 31
0.0
  0
LINE
  5
435
330
3DF
100
AcDbEntity
  8
INDUSA
100
AcDbLine
 10
0.134863
 20
0.7937650000000001
 30
0.0
 11
0.144817
 21
0.7954480000000001
 31
0.0
  0
ARC
  5
436
330
3DF
100
AcDbEntity
  8
INDUSA
100
AcDbCircle
 10
0.112341
 20
0.8236550000000001
 30
0.0
 40
0.018288
100
AcDbArc
 50
5.645006999999999
 51
38.030847
  0
LINE
  5
437
330
3DF
100
AcDbEntity
  8
INDUSA
100
AcDbLine
 10
0.131486
 20
0.8185210000000001
 30
0.0
 11
0.14144
 21
0.820204
 31
0.0
  0
LINE
  5
438
330
3DF
100
AcDbEntity
  8
INDUSA
100
AcDbLine
 10
0.130541
 20
0.825454
 30
0.0
 11
0.131486
 21
0.8185210000000001
 31
0.0
  0
ARC
  5
439
330
3DF
100
AcDbEntity
  8
INDUSA
100
AcDbCircle
 10
0.128648
 20
0.84
 30
0.0
 40
0.009999
100
AcDbArc
 50
7.766676999999999
 51
90.0
  0
ARC
  5
43A
330
3DF
100
AcDbEntity
  8
INDUSA
100
AcDbCircle
 10
0.123182
 20
0.8294959999999999
 30
0.0
 40
0.006492
100
AcDbArc
 50
56.703629
 51
100.877012
  0
ARC
  5
43B
330
3DF
100
AcDbEntity
  8
INDUSA
100
AcDbCircle
 10
0.359213
 20
0.8632149999999999
 30
0.0
 40
0.147708
100
AcDbArc
 50
302.772564
 51
345.960939
  0
LINE
  5
43C
330
3DF
100
AcDbEntity
  8
INDUSA
100
AcDbLine
 10
0.507578
 20
0.832343
 30
0.0
 11
0.559808
 21
0.839972
 31
0.0
  0
ARC
  5
43D
330
3DF
100
AcDbEntity
  8
INDUSA
100
AcDbCircle
 10
5.430551
 20
-5.942216
 30
0.0
 40
8.331105
100
AcDbArc
 50
125.716243
 51
126.451383
  0
ARC
  5
43E
330
3DF
100
AcDbEntity
  8
INDUSA
100
AcDbCircle
 10
0.5090110000000001
 20
0.795118
 30
0.0
 40
0.003
100
AcDbArc
 50
156.298817
 51
310.341223
  0
ARC
  5
43F
330
3DF
100
AcDbEntity
  8
INDUSA
100
AcDbCircle
 10
0.350401
 20
0.864746
 30
0.0
 40
0.170221
100
AcDbArc
 50
336.298817
 51
345.321599
  0
ARC
  5
440
330
3DF
100
AcDbEntity
  8
INDUSA
100
AcDbCircle
 10
-1.768081
 20
3.289848999999999
 30
0.0
 40
3.385588999999999
100
AcDbArc
 50
310.216024
 51
311.622714
  0
ARC
  5
441
330
3DF
100
AcDbEntity
  8
INDUSA
100
AcDbCircle
 10
-0.186985
 20
1.338054
 30
0.0
 40
0.8758969999999999
100
AcDbArc
 50
309.903773
 51
313.676441
  0
LINE
  5
442
330
3DF
100
AcDbEntity
  8
INDUSA
100
AcDbLine
 10
0.362108
 20
0.6859410000000001
 30
0.0
 11
0.379737
 21
0.692854
 31
0.0
  0
LINE
  5
443
330
3DF
100
AcDbEntity
  8
INDUSA
100
AcDbLine
 10
0.362931
 20
0.684678
 30
0.0
 11
0.369168
 21
0.681684
 31
0.0
  0
LINE
  5
444
330
3DF
100
AcDbEntity
  8
INDUSA
100
AcDbLine
 10
0.31493
 20
0.65459
 30
0.0
 11
0.350137
 21
0.655509
 31
0.0
  0
ARC
  5
445
330
3DF
100
AcDbEntity
  8
INDUSA
100
AcDbCircle
 10
0.350267
 20
0.650511
 30
0.0
 40
0.005
100
AcDbArc
 50
329.877192
 51
91.494686
  0
LINE
  5
446
330
3DF
100
AcDbEntity
  8
INDUSA
100
AcDbLine
 10
0.362108
 20
0.6859410000000001
 30
0.0
 11
0.362931
 21
0.684678
 31
0.0
  0
LINE
  5
447
330
3DF
100
AcDbEntity
  8
INDUSA
100
AcDbLine
 10
0.379719
 20
0.691182
 30
0.0
 11
0.379737
 21
0.692854
 31
0.0
  0
LINE
  5
448
330
3DF
100
AcDbEntity
  8
INDUSA
100
AcDbLine
 10
0.369168
 20
0.681684
 30
0.0
 11
0.379719
 21
0.691182
 31
0.0
  0
ARC
  5
449
330
3DF
100
AcDbEntity
  8
INDUSA
100
AcDbCircle
 10
0.367977
 20
0.660978
 30
0.0
 40
0.005
100
AcDbArc
 50
334.489745
 51
90.0
  0
ARC
  5
44A
330
3DF
100
AcDbEntity
  8
INDUSA
100
AcDbCircle
 10
0.508871
 20
0.825952
 30
0.0
 40
0.006522
100
AcDbArc
 50
101.435723
 51
167.320513
  0
ARC
  5
44B
330
3DF
100
AcDbEntity
  8
INDUSA
100
AcDbCircle
 10
6.555473
 20
-6.324237
 30
0.0
 40
9.337498999999999
100
AcDbArc
 50
130.058907
 51
130.341223
  0
LINE
  5
44C
330
3DF
100
AcDbEntity
  8
INDUSA
100
AcDbLine
 10
0.5175180000000001
 20
0.8238189999999999
 30
0.0
 11
0.5437140000000001
 21
0.82779
 31
0.0
  0
ARC
  5
44D
330
3DF
100
AcDbEntity
  8
INDUSA
100
AcDbCircle
 10
0.517968
 20
0.8208529999999999
 30
0.0
 40
0.003
100
AcDbArc
 50
98.61886900000001
 51
165.321599
  0
ARC
  5
44E
330
3DF
100
AcDbEntity
  8
INDUSA
100
AcDbCircle
 10
0.544164
 20
0.8248239999999999
 30
0.0
 40
0.003
100
AcDbArc
 50
310.058907
 51
98.61886900000001
  0
ARC
  5
44F
330
3DF
100
AcDbEntity
  8
INDUSA
100
AcDbCircle
 10
0.560033
 20
0.829584
 30
0.0
 40
0.01039
100
AcDbArc
 50
312.782853
 51
91.242573
  0
ENDBLK
  5
451
330
3DF
100
AcDbEntity
  8
0
100
AcDbBlockEnd
  0
BLOCK
  5
49F
330
496
100
AcDbEntity
  8
0
 62
     0
100
AcDbBlockBegin
  2
SW_CENTERMARK0
 70
     0
 10
0.0
 20
0.0
 30
0.0
  3
SW_CENTERMARK0
  1

  0
LINE
  5
497
330
496
100
AcDbEntity
  8
0
  6
Continuous
 62
     7
100
AcDbLine
 10
360.8265549986974
 20
326.6366883509834
 30
0.0
 11
360.8265549986974
 21
327.1366883509835
 31
0.0
  0
LINE
  5
498
330
496
100
AcDbEntity
  8
0
  6
Continuous
 62
     7
100
AcDbLine
 10
360.8265549986974
 20
326.6366883509834
 30
0.0
 11
360.3265549986974
 21
326.6366883509834
 31
0.0
  0
LINE
  5
499
330
496
100
AcDbEntity
  8
0
  6
Continuous
 62
     7
100
AcDbLine
 10
360.8265549986974
 20
326.6366883509834
 30
0.0
 11
360.8265549986974
 21
326.1366883509834
 31
0.0
  0
LINE
  5
49A
330
496
100
AcDbEntity
  8
0
  6
Continuous
 62
     7
100
AcDbLine
 10
360.8265549986974
 20
326.6366883509834
 30
0.0
 11
361.3265549986973
 21
326.6366883509834
 31
0.0
  0
LINE
  5
49B
330
496
100
AcDbEntity
  8
0
  6
Continuous
 62
     7
100
AcDbLine
 10
360.8265549986974
 20
327.6366883509834
 30
0.0
 11
360.8265549986974
 21
331.6366883509834
 31
0.0
  0
LINE
  5
49C
330
496
100
AcDbEntity
  8
0
  6
Continuous
 62
     7
100
AcDbLine
 10
359.8265549986974
 20
326.6366883509834
 30
0.0
 11
355.8265549986974
 21
326.6366883509834
 31
0.0
  0
LINE
  5
49D
330
496
100
AcDbEntity
  8
0
  6
Continuous
 62
     7
100
AcDbLine
 10
360.8265549986974
 20
325.6366883509834
 30
0.0
 11
360.8265549986974
 21
321.6366883509834
 31
0.0
  0
LINE
  5
49E
330
496
100
AcDbEntity
  8
0
  6
Continuous
 62
     7
100
AcDbLine
 10
361.8265549986974
 20
326.6366883509834
 30
0.0
 11
365.8265549986974
 21
326.6366883509834
 31
0.0
  0
ENDBLK
  5
4A0
330
496
100
AcDbEntity
  8
0
100
AcDbBlockEnd
  0
BLOCK
  5
4AA
330
4A1
100
AcDbEntity
  8
0
 62
     0
100
AcDbBlockBegin
  2
SW_CENTERMARK1
 70
     0
 10
0.0
 20
0.0
 30
0.0
  3
SW_CENTERMARK1
  1

  0
LINE
  5
4A2
330
4A1
100
AcDbEntity
  8
0
  6
Continuous
 62
     7
100
AcDbLine
 10
307.9265549986974
 20
326.6366883509834
 30
0.0
 11
307.9265549986974
 21
327.1366883509835
 31
0.0
  0
LINE
  5
4A3
330
4A1
100
AcDbEntity
  8
0
  6
Continuous
 62
     7
100
AcDbLine
 10
307.9265549986974
 20
326.6366883509834
 30
0.0
 11
307.4265549986975
 21
326.6366883509834
 31
0.0
  0
LINE
  5
4A4
330
4A1
100
AcDbEntity
  8
0
  6
Continuous
 62
     7
100
AcDbLine
 10
307.9265549986974
 20
326.6366883509834
 30
0.0
 11
307.9265549986974
 21
326.1366883509834
 31
0.0
  0
LINE
  5
4A5
330
4A1
100
AcDbEntity
  8
0
  6
Continuous
 62
     7
100
AcDbLine
 10
307.9265549986974
 20
326.6366883509834
 30
0.0
 11
308.4265549986974
 21
326.6366883509834
 31
0.0
  0
LINE
  5
4A6
330
4A1
100
AcDbEntity
  8
0
  6
Continuous
 62
     7
100
AcDbLine
 10
307.9265549986974
 20
327.6366883509834
 30
0.0
 11
307.9265549986974
 21
330.6366883509834
 31
0.0
  0
LINE
  5
4A7
330
4A1
100
AcDbEntity
  8
0
  6
Continuous
 62
     7
100
AcDbLine
 10
306.9265549986974
 20
326.6366883509834
 30
0.0
 11
303.9265549986974
 21
326.6366883509834
 31
0.0
  0
LINE
  5
4A8
330
4A1
100
AcDbEntity
  8
0
  6
Continuous
 62
     7
100
AcDbLine
 10
307.9265549986974
 20
325.6366883509834
 30
0.0
 11
307.9265549986974
 21
322.6366883509834
 31
0.0
  0
LINE
  5
4A9
330
4A1
100
AcDbEntity
  8
0
  6
Continuous
 62
     7
100
AcDbLine
 10
308.9265549986974
 20
326.6366883509834
 30
0.0
 11
311.9265549986974
 21
326.6366883509834
 31
0.0
  0
ENDBLK
  5
4AB
330
4A1
100
AcDbEntity
  8
0
100
AcDbBlockEnd
  0
BLOCK
  5
4B5
330
4AC
100
AcDbEntity
  8
0
 62
     0
100
AcDbBlockBegin
  2
SW_CENTERMARK2
 70
     0
 10
0.0
 20
0.0
 30
0.0
  3
SW_CENTERMARK2
  1

  0
LINE
  5
4AD
330
4AC
100
AcDbEntity
  8
0
  6
Continuous
 62
     7
100
AcDbLine
 10
360.8265549986974
 20
326.6366883509834
 30
0.0
 11
360.8265549986974
 21
327.1366883509835
 31
0.0
  0
LINE
  5
4AE
330
4AC
100
AcDbEntity
  8
0
  6
Continuous
 62
     7
100
AcDbLine
 10
360.8265549986974
 20
326.6366883509834
 30
0.0
 11
360.3265549986974
 21
326.6366883509834
 31
0.0
  0
LINE
  5
4AF
330
4AC
100
AcDbEntity
  8
0
  6
Continuous
 62
     7
100
AcDbLine
 10
360.8265549986974
 20
326.6366883509834
 30
0.0
 11
360.8265549986974
 21
326.1366883509834
 31
0.0
  0
LINE
  5
4B0
330
4AC
100
AcDbEntity
  8
0
  6
Continuous
 62
     7
100
AcDbLine
 10
360.8265549986974
 20
326.6366883509834
 30
0.0
 11
361.3265549986973
 21
326.6366883509834
 31
0.0
  0
LINE
  5
4B1
330
4AC
100
AcDbEntity
  8
0
  6
Continuous
 62
     7
100
AcDbLine
 10
360.8265549986974
 20
327.6366883509834
 30
0.0
 11
360.8265549986974
 21
331.6366883509834
 31
0.0
  0
LINE
  5
4B2
330
4AC
100
AcDbEntity
  8
0
  6
Continuous
 62
     7
100
AcDbLine
 10
359.8265549986974
 20
326.6366883509834
 30
0.0
 11
355.8265549986974
 21
326.6366883509834
 31
0.0
  0
LINE
  5
4B3
330
4AC
100
AcDbEntity
  8
0
  6
Continuous
 62
     7
100
AcDbLine
 10
360.8265549986974
 20
325.6366883509834
 30
0.0
 11
360.8265549986974
 21
321.6366883509834
 31
0.0
  0
LINE
  5
4B4
330
4AC
100
AcDbEntity
  8
0
  6
Continuous
 62
     7
100
AcDbLine
 10
361.8265549986974
 20
326.6366883509834
 30
0.0
 11
365.8265549986974
 21
326.6366883509834
 31
0.0
  0
ENDBLK
  5
4B6
330
4AC
100
AcDbEntity
  8
0
100
AcDbBlockEnd
  0
BLOCK
  5
4C0
330
4B7
100
AcDbEntity
  8
0
 62
     0
100
AcDbBlockBegin
  2
SW_CENTERMARK3
 70
     0
 10
0.0
 20
0.0
 30
0.0
  3
SW_CENTERMARK3
  1

  0
LINE
  5
4B8
330
4B7
100
AcDbEntity
  8
0
  6
Continuous
 62
     7
100
AcDbLine
 10
307.9265549986974
 20
326.6366883509834
 30
0.0
 11
307.9265549986974
 21
327.1366883509835
 31
0.0
  0
LINE
  5
4B9
330
4B7
100
AcDbEntity
  8
0
  6
Continuous
 62
     7
100
AcDbLine
 10
307.9265549986974
 20
326.6366883509834
 30
0.0
 11
307.4265549986975
 21
326.6366883509834
 31
0.0
  0
LINE
  5
4BA
330
4B7
100
AcDbEntity
  8
0
  6
Continuous
 62
     7
100
AcDbLine
 10
307.9265549986974
 20
326.6366883509834
 30
0.0
 11
307.9265549986974
 21
326.1366883509834
 31
0.0
  0
LINE
  5
4BB
330
4B7
100
AcDbEntity
  8
0
  6
Continuous
 62
     7
100
AcDbLine
 10
307.9265549986974
 20
326.6366883509834
 30
0.0
 11
308.4265549986974
 21
326.6366883509834
 31
0.0
  0
LINE
  5
4BC
330
4B7
100
AcDbEntity
  8
0
  6
Continuous
 62
     7
100
AcDbLine
 10
307.9265549986974
 20
327.6366883509834
 30
0.0
 11
307.9265549986974
 21
330.6366883509834
 31
0.0
  0
LINE
  5
4BD
330
4B7
100
AcDbEntity
  8
0
  6
Continuous
 62
     7
100
AcDbLine
 10
306.9265549986974
 20
326.6366883509834
 30
0.0
 11
303.9265549986974
 21
326.6366883509834
 31
0.0
  0
LINE
  5
4BE
330
4B7
100
AcDbEntity
  8
0
  6
Continuous
 62
     7
100
AcDbLine
 10
307.9265549986974
 20
325.6366883509834
 30
0.0
 11
307.9265549986974
 21
322.6366883509834
 31
0.0
  0
LINE
  5
4BF
330
4B7
100
AcDbEntity
  8
0
  6
Continuous
 62
     7
100
AcDbLine
 10
308.9265549986974
 20
326.6366883509834
 30
0.0
 11
311.9265549986974
 21
326.6366883509834
 31
0.0
  0
ENDBLK
  5
4C1
330
4B7
100
AcDbEntity
  8
0
100
AcDbBlockEnd
  0
BLOCK
  5
4C7
330
4C2
100
AcDbEntity
  8
0
 62
     0
100
AcDbBlockBegin
  2
SW_CENTERMARK4
 70
     0
 10
0.0
 20
0.0
 30
0.0
  3
SW_CENTERMARK4
  1

  0
LINE
  5
4C3
330
4C2
100
AcDbEntity
  8
0
  6
Continuous
 62
     7
100
AcDbLine
 10
213.0772997286365
 20
385.6366883509835
 30
0.0
 11
213.0772997286365
 21
386.1366883509834
 31
0.0
  0
LINE
  5
4C4
330
4C2
100
AcDbEntity
  8
0
  6
Continuous
 62
     7
100
AcDbLine
 10
213.0772997286365
 20
385.6366883509835
 30
0.0
 11
212.5772997286365
 21
385.6366883509835
 31
0.0
  0
LINE
  5
4C5
330
4C2
100
AcDbEntity
  8
0
  6
Continuous
 62
     7
100
AcDbLine
 10
213.0772997286365
 20
385.6366883509835
 30
0.0
 11
213.0772997286365
 21
385.1366883509834
 31
0.0
  0
LINE
  5
4C6
330
4C2
100
AcDbEntity
  8
0
  6
Continuous
 62
     7
100
AcDbLine
 10
213.0772997286365
 20
385.6366883509835
 30
0.0
 11
213.5772997286365
 21
385.6366883509835
 31
0.0
  0
ENDBLK
  5
4C8
330
4C2
100
AcDbEntity
  8
0
100
AcDbBlockEnd
  0
BLOCK
  5
4CE
330
4C9
100
AcDbEntity
  8
0
 62
     0
100
AcDbBlockBegin
  2
SW_CENTERMARK5
 70
     0
 10
0.0
 20
0.0
 30
0.0
  3
SW_CENTERMARK5
  1

  0
LINE
  5
4CA
330
4C9
100
AcDbEntity
  8
0
  6
Continuous
 62
     7
100
AcDbLine
 10
213.0772997286365
 20
384.6366883509834
 30
0.0
 11
213.0772997286365
 21
385.1366883509834
 31
0.0
  0
LINE
  5
4CB
330
4C9
100
AcDbEntity
  8
0
  6
Continuous
 62
     7
100
AcDbLine
 10
213.0772997286365
 20
384.6366883509834
 30
0.0
 11
212.5772997286365
 21
384.6366883509834
 31
0.0
  0
LINE
  5
4CC
330
4C9
100
AcDbEntity
  8
0
  6
Continuous
 62
     7
100
AcDbLine
 10
213.0772997286365
 20
384.6366883509834
 30
0.0
 11
213.0772997286365
 21
384.1366883509834
 31
0.0
  0
LINE
  5
4CD
330
4C9
100
AcDbEntity
  8
0
  6
Continuous
 62
     7
100
AcDbLine
 10
213.0772997286365
 20
384.6366883509834
 30
0.0
 11
213.5772997286365
 21
384.6366883509834
 31
0.0
  0
ENDBLK
  5
4CF
330
4C9
100
AcDbEntity
  8
0
100
AcDbBlockEnd
  0
BLOCK
  5
4D5
330
4D0
100
AcDbEntity
  8
0
 62
     0
100
AcDbBlockBegin
  2
SW_CENTERMARK6
 70
     0
 10
0.0
 20
0.0
 30
0.0
  3
SW_CENTERMARK6
  1

  0
LINE
  5
4D1
330
4D0
100
AcDbEntity
  8
0
  6
Continuous
 62
     7
100
AcDbLine
 10
213.0772997286365
 20
267.6366883509834
 30
0.0
 11
213.0772997286365
 21
268.1366883509834
 31
0.0
  0
LINE
  5
4D2
330
4D0
100
AcDbEntity
  8
0
  6
Continuous
 62
     7
100
AcDbLine
 10
213.0772997286365
 20
267.6366883509834
 30
0.0
 11
212.5772997286365
 21
267.6366883509834
 31
0.0
  0
LINE
  5
4D3
330
4D0
100
AcDbEntity
  8
0
  6
Continuous
 62
     7
100
AcDbLine
 10
213.0772997286365
 20
267.6366883509834
 30
0.0
 11
213.0772997286365
 21
267.1366883509834
 31
0.0
  0
LINE
  5
4D4
330
4D0
100
AcDbEntity
  8
0
  6
Continuous
 62
     7
100
AcDbLine
 10
213.0772997286365
 20
267.6366883509834
 30
0.0
 11
213.5772997286365
 21
267.6366883509834
 31
0.0
  0
ENDBLK
  5
4D6
330
4D0
100
AcDbEntity
  8
0
100
AcDbBlockEnd
  0
BLOCK
  5
4DC
330
4D7
100
AcDbEntity
  8
0
 62
     0
100
AcDbBlockBegin
  2
SW_CENTERMARK7
 70
     0
 10
0.0
 20
0.0
 30
0.0
  3
SW_CENTERMARK7
  1

  0
LINE
  5
4D8
330
4D7
100
AcDbEntity
  8
0
  6
Continuous
 62
     7
100
AcDbLine
 10
213.0772997286365
 20
268.6366883509834
 30
0.0
 11
213.0772997286365
 21
269.1366883509834
 31
0.0
  0
LINE
  5
4D9
330
4D7
100
AcDbEntity
  8
0
  6
Continuous
 62
     7
100
AcDbLine
 10
213.0772997286365
 20
268.6366883509834
 30
0.0
 11
212.5772997286365
 21
268.6366883509834
 31
0.0
  0
LINE
  5
4DA
330
4D7
100
AcDbEntity
  8
0
  6
Continuous
 62
     7
100
AcDbLine
 10
213.0772997286365
 20
268.6366883509834
 30
0.0
 11
213.0772997286365
 21
268.1366883509834
 31
0.0
  0
LINE
  5
4DB
330
4D7
100
AcDbEntity
  8
0
  6
Continuous
 62
     7
100
AcDbLine
 10
213.0772997286365
 20
268.6366883509834
 30
0.0
 11
213.5772997286365
 21
268.6366883509834
 31
0.0
  0
ENDBLK
  5
4DD
330
4D7
100
AcDbEntity
  8
0
100
AcDbBlockEnd
  0
BLOCK
  5
4E3
330
4DE
100
AcDbEntity
  8
0
 62
     0
100
AcDbBlockBegin
  2
SW_CENTERMARK13
 70
     0
 10
0.0
 20
0.0
 30
0.0
  3
SW_CENTERMARK13
  1

  0
LINE
  5
4DF
330
4DE
100
AcDbEntity
  8
0
  6
Continuous
 62
     7
100
AcDbLine
 10
368.781323724036
 20
548.4433659274391
 30
0.0
 11
368.781323724036
 21
548.9433659274391
 31
0.0
  0
LINE
  5
4E0
330
4DE
100
AcDbEntity
  8
0
  6
Continuous
 62
     7
100
AcDbLine
 10
368.781323724036
 20
548.4433659274391
 30
0.0
 11
368.2813237240361
 21
548.4433659274391
 31
0.0
  0
LINE
  5
4E1
330
4DE
100
AcDbEntity
  8
0
  6
Continuous
 62
     7
100
AcDbLine
 10
368.781323724036
 20
548.4433659274391
 30
0.0
 11
368.781323724036
 21
547.943365927439
 31
0.0
  0
LINE
  5
4E2
330
4DE
100
AcDbEntity
  8
0
  6
Continuous
 62
     7
100
AcDbLine
 10
368.781323724036
 20
548.4433659274391
 30
0.0
 11
369.2813237240361
 21
548.4433659274391
 31
0.0
  0
ENDBLK
  5
4E4
330
4DE
100
AcDbEntity
  8
0
100
AcDbBlockEnd
  0
BLOCK
  5
4EA
330
4E5
100
AcDbEntity
  8
0
 62
     0
100
AcDbBlockBegin
  2
SW_CENTERMARK14
 70
     0
 10
0.0
 20
0.0
 30
0.0
  3
SW_CENTERMARK14
  1

  0
LINE
  5
4E6
330
4E5
100
AcDbEntity
  8
0
  6
Continuous
 62
     7
100
AcDbLine
 10
360.1279721795335
 20
537.437935129544
 30
0.0
 11
360.1279721795335
 21
537.9379351295441
 31
0.0
  0
LINE
  5
4E7
330
4E5
100
AcDbEntity
  8
0
  6
Continuous
 62
     7
100
AcDbLine
 10
360.1279721795335
 20
537.437935129544
 30
0.0
 11
359.6279721795335
 21
537.437935129544
 31
0.0
  0
LINE
  5
4E8
330
4E5
100
AcDbEntity
  8
0
  6
Continuous
 62
     7
100
AcDbLine
 10
360.1279721795335
 20
537.437935129544
 30
0.0
 11
360.1279721795335
 21
536.9379351295441
 31
0.0
  0
LINE
  5
4E9
330
4E5
100
AcDbEntity
  8
0
  6
Continuous
 62
     7
100
AcDbLine
 10
360.1279721795335
 20
537.437935129544
 30
0.0
 11
360.6279721795335
 21
537.437935129544
 31
0.0
  0
ENDBLK
  5
4EB
330
4E5
100
AcDbEntity
  8
0
100
AcDbBlockEnd
  0
BLOCK
  5
4F1
330
4EC
100
AcDbEntity
  8
0
 62
     0
100
AcDbBlockBegin
  2
SW_CENTERMARK15
 70
     0
 10
0.0
 20
0.0
 30
0.0
  3
SW_CENTERMARK15
  1

  0
LINE
  5
4ED
330
4EC
100
AcDbEntity
  8
0
  6
Continuous
 62
     7
100
AcDbLine
 10
352.8717862733586
 20
548.4433659274391
 30
0.0
 11
352.8717862733586
 21
548.9433659274391
 31
0.0
  0
LINE
  5
4EE
330
4EC
100
AcDbEntity
  8
0
  6
Continuous
 62
     7
100
AcDbLine
 10
352.8717862733586
 20
548.4433659274391
 30
0.0
 11
352.3717862733586
 21
548.4433659274391
 31
0.0
  0
LINE
  5
4EF
330
4EC
100
AcDbEntity
  8
0
  6
Continuous
 62
     7
100
AcDbLine
 10
352.8717862733586
 20
548.4433659274391
 30
0.0
 11
352.8717862733586
 21
547.943365927439
 31
0.0
  0
LINE
  5
4F0
330
4EC
100
AcDbEntity
  8
0
  6
Continuous
 62
     7
100
AcDbLine
 10
352.8717862733586
 20
548.4433659274391
 30
0.0
 11
353.3717862733586
 21
548.4433659274391
 31
0.0
  0
ENDBLK
  5
4F2
330
4EC
100
AcDbEntity
  8
0
100
AcDbBlockEnd
  0
BLOCK
  5
4F8
330
4F3
100
AcDbEntity
  8
0
 62
     0
100
AcDbBlockBegin
  2
SW_CENTERMARK16
 70
     0
 10
0.0
 20
0.0
 30
0.0
  3
SW_CENTERMARK16
  1

  0
LINE
  5
4F4
330
4F3
100
AcDbEntity
  8
0
  6
Continuous
 62
     7
100
AcDbLine
 10
361.5251378178612
 20
537.437935129544
 30
0.0
 11
361.5251378178612
 21
537.9379351295441
 31
0.0
  0
LINE
  5
4F5
330
4F3
100
AcDbEntity
  8
0
  6
Continuous
 62
     7
100
AcDbLine
 10
361.5251378178612
 20
537.437935129544
 30
0.0
 11
361.0251378178611
 21
537.437935129544
 31
0.0
  0
LINE
  5
4F6
330
4F3
100
AcDbEntity
  8
0
  6
Continuous
 62
     7
100
AcDbLine
 10
361.5251378178612
 20
537.437935129544
 30
0.0
 11
361.5251378178612
 21
536.9379351295441
 31
0.0
  0
LINE
  5
4F7
330
4F3
100
AcDbEntity
  8
0
  6
Continuous
 62
     7
100
AcDbLine
 10
361.5251378178612
 20
537.437935129544
 30
0.0
 11
362.0251378178612
 21
537.437935129544
 31
0.0
  0
ENDBLK
  5
4F9
330
4F3
100
AcDbEntity
  8
0
100
AcDbBlockEnd
  0
BLOCK
  5
4FF
330
4FA
100
AcDbEntity
  8
0
 62
     0
100
AcDbBlockBegin
  2
SW_CENTERMARK17
 70
     0
 10
0.0
 20
0.0
 30
0.0
  3
SW_CENTERMARK17
  1

  0
LINE
  5
4FB
330
4FA
100
AcDbEntity
  8
0
  6
Continuous
 62
     7
100
AcDbLine
 10
323.7923158209691
 20
549.437935129544
 30
0.0
 11
323.7923158209691
 21
549.9379351295441
 31
0.0
  0
LINE
  5
4FC
330
4FA
100
AcDbEntity
  8
0
  6
Continuous
 62
     7
100
AcDbLine
 10
323.7923158209691
 20
549.437935129544
 30
0.0
 11
323.2923158209691
 21
549.437935129544
 31
0.0
  0
LINE
  5
4FD
330
4FA
100
AcDbEntity
  8
0
  6
Continuous
 62
     7
100
AcDbLine
 10
323.7923158209691
 20
549.437935129544
 30
0.0
 11
323.7923158209691
 21
548.9379351295441
 31
0.0
  0
LINE
  5
4FE
330
4FA
100
AcDbEntity
  8
0
  6
Continuous
 62
     7
100
AcDbLine
 10
323.7923158209691
 20
549.437935129544
 30
0.0
 11
324.2923158209691
 21
549.437935129544
 31
0.0
  0
ENDBLK
  5
500
330
4FA
100
AcDbEntity
  8
0
100
AcDbBlockEnd
  0
BLOCK
  5
506
330
501
100
AcDbEntity
  8
0
 62
     0
100
AcDbBlockBegin
  2
SW_CENTERMARK18
 70
     0
 10
0.0
 20
0.0
 30
0.0
  3
SW_CENTERMARK18
  1

  0
LINE
  5
502
330
501
100
AcDbEntity
  8
0
  6
Continuous
 62
     7
100
AcDbLine
 10
397.8607941764256
 20
549.437935129544
 30
0.0
 11
397.8607941764256
 21
549.9379351295441
 31
0.0
  0
LINE
  5
503
330
501
100
AcDbEntity
  8
0
  6
Continuous
 62
     7
100
AcDbLine
 10
397.8607941764256
 20
549.437935129544
 30
0.0
 11
397.3607941764256
 21
549.437935129544
 31
0.0
  0
LINE
  5
504
330
501
100
AcDbEntity
  8
0
  6
Continuous
 62
     7
100
AcDbLine
 10
397.8607941764256
 20
549.437935129544
 30
0.0
 11
397.8607941764256
 21
548.9379351295441
 31
0.0
  0
LINE
  5
505
330
501
100
AcDbEntity
  8
0
  6
Continuous
 62
     7
100
AcDbLine
 10
397.8607941764256
 20
549.437935129544
 30
0.0
 11
398.3607941764256
 21
549.437935129544
 31
0.0
  0
ENDBLK
  5
507
330
501
100
AcDbEntity
  8
0
100
AcDbBlockEnd
  0
BLOCK
  5
50D
330
508
100
AcDbEntity
  8
0
 62
     0
100
AcDbBlockBegin
  2
SW_CENTERMARK19
 70
     0
 10
0.0
 20
0.0
 30
0.0
  3
SW_CENTERMARK19
  1

  0
LINE
  5
509
330
508
100
AcDbEntity
  8
0
  6
Continuous
 62
     7
100
AcDbLine
 10
316.8265549986973
 20
549.437935129544
 30
0.0
 11
316.8265549986973
 21
549.937935129544
 31
0.0
  0
LINE
  5
50A
330
508
100
AcDbEntity
  8
0
  6
Continuous
 62
     7
100
AcDbLine
 10
316.8265549986973
 20
549.437935129544
 30
0.0
 11
316.3265549986973
 21
549.437935129544
 31
0.0
  0
LINE
  5
50B
330
508
100
AcDbEntity
  8
0
  6
Continuous
 62
     7
100
AcDbLine
 10
316.8265549986973
 20
549.437935129544
 30
0.0
 11
316.8265549986973
 21
548.937935129544
 31
0.0
  0
LINE
  5
50C
330
508
100
AcDbEntity
  8
0
  6
Continuous
 62
     7
100
AcDbLine
 10
316.8265549986973
 20
549.437935129544
 30
0.0
 11
317.3265549986973
 21
549.437935129544
 31
0.0
  0
ENDBLK
  5
50E
330
508
100
AcDbEntity
  8
0
100
AcDbBlockEnd
  0
BLOCK
  5
514
330
50F
100
AcDbEntity
  8
0
 62
     0
100
AcDbBlockBegin
  2
SW_CENTERMARK20
 70
     0
 10
0.0
 20
0.0
 30
0.0
  3
SW_CENTERMARK20
  1

  0
LINE
  5
510
330
50F
100
AcDbEntity
  8
0
  6
Continuous
 62
     7
100
AcDbLine
 10
404.8265551326283
 20
549.437935129544
 30
0.0
 11
404.8265551326283
 21
549.9379351295441
 31
0.0
  0
LINE
  5
511
330
50F
100
AcDbEntity
  8
0
  6
Continuous
 62
     7
100
AcDbLine
 10
404.8265551326283
 20
549.437935129544
 30
0.0
 11
404.3265551326284
 21
549.437935129544
 31
0.0
  0
LINE
  5
512
330
50F
100
AcDbEntity
  8
0
  6
Continuous
 62
     7
100
AcDbLine
 10
404.8265551326283
 20
549.437935129544
 30
0.0
 11
404.8265551326283
 21
548.9379351295441
 31
0.0
  0
LINE
  5
513
330
50F
100
AcDbEntity
  8
0
  6
Continuous
 62
     7
100
AcDbLine
 10
404.8265551326283
 20
549.437935129544
 30
0.0
 11
405.3265551326283
 21
549.437935129544
 31
0.0
  0
ENDBLK
  5
515
330
50F
100
AcDbEntity
  8
0
100
AcDbBlockEnd
  0
BLOCK
  5
51B
330
516
100
AcDbEntity
  8
0
 62
     0
100
AcDbBlockBegin
  2
SW_CENTERMARK21
 70
     0
 10
0.0
 20
0.0
 30
0.0
  3
SW_CENTERMARK21
  1

  0
LINE
  5
517
330
516
100
AcDbEntity
  8
0
  6
Continuous
 62
     7
100
AcDbLine
 10
373.643527571505
 20
465.6379351295441
 30
0.0
 11
373.643527571505
 21
466.1379351295441
 31
0.0
  0
LINE
  5
518
330
516
100
AcDbEntity
  8
0
  6
Continuous
 62
     7
100
AcDbLine
 10
373.643527571505
 20
465.6379351295441
 30
0.0
 11
373.143527571505
 21
465.6379351295441
 31
0.0
  0
LINE
  5
519
330
516
100
AcDbEntity
  8
0
  6
Continuous
 62
     7
100
AcDbLine
 10
373.643527571505
 20
465.6379351295441
 30
0.0
 11
373.643527571505
 21
465.1379351295441
 31
0.0
  0
LINE
  5
51A
330
516
100
AcDbEntity
  8
0
  6
Continuous
 62
     7
100
AcDbLine
 10
373.643527571505
 20
465.6379351295441
 30
0.0
 11
374.143527571505
 21
465.6379351295441
 31
0.0
  0
ENDBLK
  5
51C
330
516
100
AcDbEntity
  8
0
100
AcDbBlockEnd
  0
BLOCK
  5
522
330
51D
100
AcDbEntity
  8
0
 62
     0
100
AcDbBlockBegin
  2
SW_CENTERMARK22
 70
     0
 10
0.0
 20
0.0
 30
0.0
  3
SW_CENTERMARK22
  1

  0
LINE
  5
51E
330
51D
100
AcDbEntity
  8
0
  6
Continuous
 62
     7
100
AcDbLine
 10
296.0265549986973
 20
525.6379351295442
 30
0.0
 11
296.0265549986973
 21
526.137935129544
 31
0.0
  0
LINE
  5
51F
330
51D
100
AcDbEntity
  8
0
  6
Continuous
 62
     7
100
AcDbLine
 10
296.0265549986973
 20
525.6379351295442
 30
0.0
 11
295.5265549986973
 21
525.6379351295442
 31
0.0
  0
LINE
  5
520
330
51D
100
AcDbEntity
  8
0
  6
Continuous
 62
     7
100
AcDbLine
 10
296.0265549986973
 20
525.6379351295442
 30
0.0
 11
296.0265549986973
 21
525.137935129544
 31
0.0
  0
LINE
  5
521
330
51D
100
AcDbEntity
  8
0
  6
Continuous
 62
     7
100
AcDbLine
 10
296.0265549986973
 20
525.6379351295442
 30
0.0
 11
296.5265549986973
 21
525.6379351295442
 31
0.0
  0
ENDBLK
  5
523
330
51D
100
AcDbEntity
  8
0
100
AcDbBlockEnd
  0
BLOCK
  5
529
330
524
100
AcDbEntity
  8
0
 62
     0
100
AcDbBlockBegin
  2
SW_CENTERMARK23
 70
     0
 10
0.0
 20
0.0
 30
0.0
  3
SW_CENTERMARK23
  1

  0
LINE
  5
525
330
524
100
AcDbEntity
  8
0
  6
Continuous
 62
     7
100
AcDbLine
 10
376.9725043290984
 20
467.0379351295442
 30
0.0
 11
376.9725043290984
 21
467.5379351295442
 31
0.0
  0
LINE
  5
526
330
524
100
AcDbEntity
  8
0
  6
Continuous
 62
     7
100
AcDbLine
 10
376.9725043290984
 20
467.0379351295442
 30
0.0
 11
376.4725043290984
 21
467.0379351295442
 31
0.0
  0
LINE
  5
527
330
524
100
AcDbEntity
  8
0
  6
Continuous
 62
     7
100
AcDbLine
 10
376.9725043290984
 20
467.0379351295442
 30
0.0
 11
376.9725043290984
 21
466.5379351295441
 31
0.0
  0
LINE
  5
528
330
524
100
AcDbEntity
  8
0
  6
Continuous
 62
     7
100
AcDbLine
 10
376.9725043290984
 20
467.0379351295442
 30
0.0
 11
377.4725043290984
 21
467.0379351295442
 31
0.0
  0
ENDBLK
  5
52A
330
524
100
AcDbEntity
  8
0
100
AcDbBlockEnd
  0
BLOCK
  5
530
330
52B
100
AcDbEntity
  8
0
 62
     0
100
AcDbBlockBegin
  2
SW_CENTERMARK24
 70
     0
 10
0.0
 20
0.0
 30
0.0
  3
SW_CENTERMARK24
  1

  0
LINE
  5
52C
330
52B
100
AcDbEntity
  8
0
  6
Continuous
 62
     7
100
AcDbLine
 10
304.145312835655
 20
542.8379351295441
 30
0.0
 11
304.145312835655
 21
543.3379351295441
 31
0.0
  0
LINE
  5
52D
330
52B
100
AcDbEntity
  8
0
  6
Continuous
 62
     7
100
AcDbLine
 10
304.145312835655
 20
542.8379351295441
 30
0.0
 11
303.6453128356551
 21
542.8379351295441
 31
0.0
  0
LINE
  5
52E
330
52B
100
AcDbEntity
  8
0
  6
Continuous
 62
     7
100
AcDbLine
 10
304.145312835655
 20
542.8379351295441
 30
0.0
 11
304.145312835655
 21
542.3379351295441
 31
0.0
  0
LINE
  5
52F
330
52B
100
AcDbEntity
  8
0
  6
Continuous
 62
     7
100
AcDbLine
 10
304.145312835655
 20
542.8379351295441
 30
0.0
 11
304.645312835655
 21
542.8379351295441
 31
0.0
  0
ENDBLK
  5
531
330
52B
100
AcDbEntity
  8
0
100
AcDbBlockEnd
  0
BLOCK
  5
537
330
532
100
AcDbEntity
  8
0
 62
     0
100
AcDbBlockBegin
  2
SW_CENTERMARK25
 70
     0
 10
0.0
 20
0.0
 30
0.0
  3
SW_CENTERMARK25
  1

  0
LINE
  5
533
330
532
100
AcDbEntity
  8
0
  6
Continuous
 62
     7
100
AcDbLine
 10
296.4265549986974
 20
545.8379351295441
 30
0.0
 11
296.4265549986974
 21
546.3379351295441
 31
0.0
  0
LINE
  5
534
330
532
100
AcDbEntity
  8
0
  6
Continuous
 62
     7
100
AcDbLine
 10
296.4265549986974
 20
545.8379351295441
 30
0.0
 11
295.9265549986974
 21
545.8379351295441
 31
0.0
  0
LINE
  5
535
330
532
100
AcDbEntity
  8
0
  6
Continuous
 62
     7
100
AcDbLine
 10
296.4265549986974
 20
545.8379351295441
 30
0.0
 11
296.4265549986974
 21
545.3379351295441
 31
0.0
  0
LINE
  5
536
330
532
100
AcDbEntity
  8
0
  6
Continuous
 62
     7
100
AcDbLine
 10
296.4265549986974
 20
545.8379351295441
 30
0.0
 11
296.9265549986974
 21
545.8379351295441
 31
0.0
  0
ENDBLK
  5
538
330
532
100
AcDbEntity
  8
0
100
AcDbBlockEnd
  0
BLOCK
  5
53E
330
539
100
AcDbEntity
  8
0
 62
     0
100
AcDbBlockBegin
  2
SW_CENTERMARK26
 70
     0
 10
0.0
 20
0.0
 30
0.0
  3
SW_CENTERMARK26
  1

  0
LINE
  5
53A
330
539
100
AcDbEntity
  8
0
  6
Continuous
 62
     7
100
AcDbLine
 10
296.4265549986974
 20
466.0379351295438
 30
0.0
 11
296.4265549986974
 21
466.5379351295438
 31
0.0
  0
LINE
  5
53B
330
539
100
AcDbEntity
  8
0
  6
Continuous
 62
     7
100
AcDbLine
 10
296.4265549986974
 20
466.0379351295438
 30
0.0
 11
295.9265549986974
 21
466.0379351295438
 31
0.0
  0
LINE
  5
53C
330
539
100
AcDbEntity
  8
0
  6
Continuous
 62
     7
100
AcDbLine
 10
296.4265549986974
 20
466.0379351295438
 30
0.0
 11
296.4265549986974
 21
465.5379351295438
 31
0.0
  0
LINE
  5
53D
330
539
100
AcDbEntity
  8
0
  6
Continuous
 62
     7
100
AcDbLine
 10
296.4265549986974
 20
466.0379351295438
 30
0.0
 11
296.9265549986974
 21
466.0379351295438
 31
0.0
  0
ENDBLK
  5
53F
330
539
100
AcDbEntity
  8
0
100
AcDbBlockEnd
  0
BLOCK
  5
545
330
540
100
AcDbEntity
  8
0
 62
     0
100
AcDbBlockBegin
  2
SW_CENTERMARK27
 70
     0
 10
0.0
 20
0.0
 30
0.0
  3
SW_CENTERMARK27
  1

  0
LINE
  5
541
330
540
100
AcDbEntity
  8
0
  6
Continuous
 62
     7
100
AcDbLine
 10
297.36615880591
 20
526.0379351295441
 30
0.0
 11
297.36615880591
 21
526.5379351295441
 31
0.0
  0
LINE
  5
542
330
540
100
AcDbEntity
  8
0
  6
Continuous
 62
     7
100
AcDbLine
 10
297.36615880591
 20
526.0379351295441
 30
0.0
 11
296.86615880591
 21
526.0379351295441
 31
0.0
  0
LINE
  5
543
330
540
100
AcDbEntity
  8
0
  6
Continuous
 62
     7
100
AcDbLine
 10
297.36615880591
 20
526.0379351295441
 30
0.0
 11
297.36615880591
 21
525.5379351295442
 31
0.0
  0
LINE
  5
544
330
540
100
AcDbEntity
  8
0
  6
Continuous
 62
     7
100
AcDbLine
 10
297.36615880591
 20
526.0379351295441
 30
0.0
 11
297.8661588059099
 21
526.0379351295441
 31
0.0
  0
ENDBLK
  5
546
330
540
100
AcDbEntity
  8
0
100
AcDbBlockEnd
  0
BLOCK
  5
54C
330
547
100
AcDbEntity
  8
0
 62
     0
100
AcDbBlockBegin
  2
SW_CENTERMARK28
 70
     0
 10
0.0
 20
0.0
 30
0.0
  3
SW_CENTERMARK28
  1

  0
LINE
  5
548
330
547
100
AcDbEntity
  8
0
  6
Continuous
 62
     7
100
AcDbLine
 10
370.5388216410913
 20
505.0695322691183
 30
0.0
 11
370.5388216410913
 21
505.5695322691184
 31
0.0
  0
LINE
  5
549
330
547
100
AcDbEntity
  8
0
  6
Continuous
 62
     7
100
AcDbLine
 10
370.5388216410913
 20
505.0695322691183
 30
0.0
 11
370.0388216410913
 21
505.0695322691183
 31
0.0
  0
LINE
  5
54A
330
547
100
AcDbEntity
  8
0
  6
Continuous
 62
     7
100
AcDbLine
 10
370.5388216410913
 20
505.0695322691183
 30
0.0
 11
370.5388216410913
 21
504.5695322691184
 31
0.0
  0
LINE
  5
54B
330
547
100
AcDbEntity
  8
0
  6
Continuous
 62
     7
100
AcDbLine
 10
370.5388216410913
 20
505.0695322691183
 30
0.0
 11
371.0388216410913
 21
505.0695322691183
 31
0.0
  0
ENDBLK
  5
54D
330
547
100
AcDbEntity
  8
0
100
AcDbBlockEnd
  0
ENDSEC
  0
SECTION
  2
ENTITIES
  0
LWPOLYLINE
  5
255
330
1F
100
AcDbEntity
  8
3
  6
Continuous
100
AcDbPolyline
 90
       38
 70
   128
 43
0.0
 10
117.0670953740518
 20
201.2648945286957
 10
117.069985663299
 20
201.2651348581291
 10
117.0738620966186
 20
201.2662557100988
 10
117.0755357816609
 20
201.2670645084938
 10
117.0779885760782
 20
201.2687004987289
 10
117.0801343080918
 20
201.2707225023463
 10
117.0819073136124
 20
201.2730781585027
 10
117.08326279362
 20
201.2756964286286
 10
117.0841561173209
 20
201.278506168344
 10
117.0845685252339
 20
201.2814255148833
 10
117.0844814516446
 20
201.2843725613188
 10
117.0839042915992
 20
201.2872638500946
 10
117.0828466376062
 20
201.2900159461202
 10
117.0813449800195
 20
201.2925532062557
 10
117.0794359880874
 20
201.2948000739212
 10
117.077179133461
 20
201.2966972485832
 10
117.0746340279491
 20
201.2981855706036
 10
117.071876419522
 20
201.2992287677404
 10
117.0689821417702
 20
201.2997907470979
 10
117.0660346789742
 20
201.2998623541458
 10
117.0624074913824
 20
201.299254948503
 10
117.0596441564629
 20
201.2982270162943
 10
117.0570908597651
 20
201.2967527909125
 10
117.0548235486789
 20
201.2948681251752
 10
117.0529021612419
 20
201.2926318481754
 10
117.0513864961146
 20
201.2901029306748
 10
117.0503136397966
 20
201.2873567253249
 10
117.049720500374
 20
201.2844686723253
 10
117.0496171315864
 20
201.2815221524464
 10
117.0500133898389
 20
201.2786005700156
 10
117.0508911626285
 20
201.2757859333724
 10
117.052232143444
 20
201.2731602077669
 10
117.0539920955873
 20
201.2707947832899
 10
117.0561266135513
 20
201.2687609451536
 10
117.0585703237946
 20
201.267111416509
 10
117.0612577281986
 20
201.2658987656636
 10
117.0641096867495
 20
201.2651511046931
 10
117.0670953740518
 20
201.2648945286957
  0
LINE
  5
25F
330
1F
100
AcDbEntity
  8
3
100
AcDbLine
 10
117.518657355827
 20
201.3399212461166
 30
0.0
 11
117.518660598961
 21
201.339899818513
 31
0.0
  0
CIRCLE
  5
26F
330
1F
100
AcDbEntity
  8
3
  6
Continuous
100
AcDbCircle
 10
117.0686530773751
 20
201.0178945286957
 30
0.0
 40
0.0225
  0
LINE
  5
270
330
1F
100
AcDbEntity
  8
9
  6
Continuous
100
AcDbLine
 10
117.2936530773751
 20
200.7928947534156
 30
0.0
 11
117.2939251522278
 21
200.7929034956962
 31
0.0
  0
LINE
  5
274
330
1F
100
AcDbEntity
  8
3
  6
Continuous
100
AcDbLine
 10
117.2936530773751
 20
200.7928945280261
 30
0.0
 11
116.8436530773751
 21
200.7928945280261
 31
0.0
  0
LINE
  5
277
330
1F
100
AcDbEntity
  8
3
  6
Continuous
100
AcDbLine
 10
117.2936530773751
 20
200.8377233328071
 30
0.0
 11
116.8436530773751
 21
200.8377233328071
 31
0.0
  0
ARC
  5
278
330
1F
100
AcDbEntity
  8
3
  6
Continuous
100
AcDbCircle
 10
116.6216467707097
 20
201.3398945286958
 30
0.0
 40
0.0030000000000001
100
AcDbArc
 50
90.0
 51
180.3214303355496
  0
LINE
  5
279
330
1F
100
AcDbEntity
  8
3
  6
Continuous
100
AcDbLine
 10
116.6216467707097
 20
201.3428945286957
 30
0.0
 11
116.8436530773751
 21
201.3428945286957
 31
0.0
  0
LINE
  5
27A
330
1F
100
AcDbEntity
  8
9
  6
Continuous
100
AcDbLine
 10
117.0547534139745
 20
201.1976145852435
 30
0.0
 11
117.0547680312287
 21
201.1976193940508
 31
0.0
  0
LINE
  5
27B
330
1F
100
AcDbEntity
  8
9
  6
Continuous
100
AcDbLine
 10
117.0825275313044
 20
201.1976243148212
 30
0.0
 11
117.0825297221774
 21
201.1976245359142
 31
0.0
  0
LWPOLYLINE
  5
27D
330
1F
100
AcDbEntity
  8
3
  6
Continuous
100
AcDbPolyline
 90
       35
 70
   128
 43
0.0
 10
117.0735596740476
 20
201.1980657245843
 10
117.0742503104095
 20
201.1980609354524
 10
117.0764170631475
 20
201.1980318180084
 10
117.0783601393603
 20
201.1979850682143
 10
117.0800308824375
 20
201.1979156762853
 10
117.0813747590373
 20
201.1978187271409
 10
117.0823615716726
 20
201.1976912321259
 10
117.0829576409548
 20
201.197531304216
 10
117.0831529425686
 20
201.1973409946829
 10
117.0829359059015
 20
201.1971232310622
 10
117.082318343845
 20
201.1968865427016
 10
117.0813059446259
 20
201.1966388481157
 10
117.0799357598626
 20
201.1963939261018
 10
117.0782343105971
 20
201.1961640870919
 10
117.0762588728651
 20
201.1959635384727
 10
117.07406943347
 20
201.1958057690696
 10
117.0717248257829
 20
201.1956993861374
 10
117.0686530773751
 20
201.1956501226051
 10
117.0662372641691
 20
201.1956808245013
 10
117.0638892773798
 20
201.1957697149136
 10
117.061679168641
 20
201.1959118448185
 10
117.0596629464416
 20
201.1960973775347
 10
117.0578914678711
 20
201.1963167181184
 10
117.0564198100088
 20
201.1965559206256
 10
117.0552859054113
 20
201.1968039269532
 10
117.0545299918022
 20
201.1970465721708
 10
117.0541796933613
 20
201.1972729611113
 10
117.05424222939
 20
201.197474830967
 10
117.0547203340072
 20
201.1976453883173
 10
117.0555945289444
 20
201.1977838649318
 10
117.0568399676731
 20
201.1978897489473
 10
117.0584182582621
 20
201.1979671210355
 10
117.0602870846664
 20
201.1980199899123
 10
117.0623901333406
 20
201.1980537914878
 10
117.0637799041429
 20
201.1980657245843
  0
ARC
  5
27E
330
1F
100
AcDbEntity
  8
3
  6
Continuous
100
AcDbCircle
 10
117.5156574747994
 20
201.3398945286958
 30
0.0
 40
0.0029999999999998
100
AcDbArc
 50
0.5102718974681242
 51
90.0
  0
LINE
  5
27F
330
1F
100
AcDbEntity
  8
3
  6
Continuous
100
AcDbLine
 10
117.2936530773751
 20
201.3428945286957
 30
0.0
 11
117.5156574747994
 21
201.3428945286957
 31
0.0
  0
LINE
  5
280
330
1F
100
AcDbEntity
  8
3
  6
Continuous
100
AcDbLine
 10
116.8436530773751
 20
201.3428945286957
 30
0.0
 11
117.2936530773751
 21
201.3428945286957
 31
0.0
  0
LINE
  5
281
330
1F
100
AcDbEntity
  8
3
  6
Continuous
100
AcDbLine
 10
116.8436530773751
 20
201.2428945286957
 30
0.0
 11
117.2936530773751
 21
201.2428945286957
 31
0.0
  0
LINE
  5
284
330
1F
100
AcDbEntity
  8
3
  6
Continuous
100
AcDbLine
 10
116.8436530773751
 20
201.1980657245844
 30
0.0
 11
117.2936530773751
 21
201.1980657245844
 31
0.0
  0
ARC
  5
286
330
1F
100
AcDbEntity
  8
3
  6
Continuous
100
AcDbCircle
 10
116.8436530773751
 20
201.0178945286957
 30
0.0
 40
0.1801711958886415
100
AcDbArc
 50
90.0
 51
270.0
  0
LWPOLYLINE
  5
287
330
1F
100
AcDbEntity
  8
3
  6
Continuous
100
AcDbPolyline
 90
       48
 70
   128
 43
0.0
 10
116.8436530773751
 20
200.7928945280261
 10
116.8285183824772
 20
200.7934133982259
 10
116.8134018187497
 20
200.7949584870574
 10
116.7984048674762
 20
200.7975125118687
 10
116.7836290099404
 20
200.8010581900081
 10
116.7691757274259
 20
200.8055782388235
 10
116.7550659434073
 20
200.8110775285739
 10
116.7413129523998
 20
200.8175391855044
 10
116.7280067941455
 20
200.8249133102763
 10
116.715237508387
 20
200.8331500035512
 10
116.7030951348666
 20
200.8421993659904
 10
116.6916010212402
 20
200.8520590749346
 10
116.680762136354
 20
200.8627088007721
 10
116.6706469271246
 20
200.8740716534239
 10
116.6613238404689
 20
200.8860707428108
 10
116.6528613233038
 20
200.8986291788538
 10
116.6452787428443
 20
200.9117377185739
 10
116.6385759557696
 20
200.9253748577961
 10
116.6327920995328
 20
200.9394453844889
 10
116.6279663115871
 20
200.9538540866207
 10
116.6241377293856
 20
200.9685057521603
 10
116.6213215669668
 20
200.9833852606251
 10
116.6195105748676
 20
200.9984723558738
 10
116.618710169288
 20
201.0136642379417
 10
116.6189257664279
 20
201.0288581068644
 10
116.6201627824872
 20
201.0439511626774
 10
116.6224305682518
 20
201.0589240936077
 10
116.6257155806152
 20
201.0737601927215
 10
116.6299889056642
 20
201.0883606593227
 10
116.6352216294855
 20
201.1026266927151
 10
116.6413848381659
 20
201.1164594922024
 10
116.6484809135994
 20
201.1298376433641
 10
116.6564915945642
 20
201.1427499607971
 10
116.6653568978024
 20
201.1551127725256
 10
116.6750168400564
 20
201.1668424065736
 10
116.6854114380685
 20
201.177855190965
 10
116.6965354883355
 20
201.1881297889473
 10
116.7083683906143
 20
201.1976620527445
 10
116.7208258402829
 20
201.2063928807716
 10
116.7338235327193
 20
201.2142631714435
 10
116.7472771633017
 20
201.2212138231753
 10
116.76117387506
 20
201.2272261004253
 10
116.7754936276131
 20
201.2323034338205
 10
116.7901373393864
 20
201.2364180743423
 10
116.8050059288055
 20
201.2395422729723
 10
116.8200003142959
 20
201.2416482806919
 10
116.8299686213827
 20
201.242478148456
 10
116.8436530773751
 20
201.2428945286957
  0
LWPOLYLINE
  5
289
330
1F
100
AcDbEntity
  8
3
  6
Continuous
100
AcDbPolyline
 90
       93
 70
   128
 43
0.0
 10
116.618646817918
 20
201.3398997716338
 10
116.6186334161789
 20
201.3327067702252
 10
116.6185996129906
 20
201.3222867683879
 10
116.6185569219639
 20
201.3127856574497
 10
116.6185087807337
 20
201.3042031009089
 10
116.618458216682
 20
201.2965387123077
 10
116.6184087523803
 20
201.2899044861152
 10
116.6183613126
 20
201.2841276066835
 10
116.6183114777259
 20
201.278555139725
 10
116.6182566945488
 20
201.2729108131408
 10
116.6180147419244
 20
201.2521742122617
 10
116.6176958254523
 20
201.2307190213195
 10
116.617428003764
 20
201.2154794158936
 10
116.6171231919104
 20
201.2003814193094
 10
116.6168078160519
 20
201.1854346652718
 10
116.6165091788079
 20
201.1704236716497
 10
116.6162397268281
 20
201.1553795962615
 10
116.616053172644
 20
201.1434238265675
 10
116.6158951379984
 20
201.1314041378287
 10
116.6157713482033
 20
201.119336981408
 10
116.6156883815425
 20
201.1072875617939
 10
116.615666716802
 20
201.102088172116
 10
116.6156554124172
 20
201.0975569843752
 10
116.615651715485
 20
201.0937868908813
 10
116.6156527157438
 20
201.0907484440979
 10
116.6156546432079
 20
201.089201203306
 10
116.6156573795171
 20
201.087732050838
 10
116.6156625488436
 20
201.0857325389937
 10
116.6156716544074
 20
201.0831737587686
 10
116.6156861205934
 20
201.0801530892959
 10
116.6157156964864
 20
201.0756260820642
 10
116.6157487649147
 20
201.0717733621524
 10
116.6157869704235
 20
201.0681450902272
 10
116.6158405553621
 20
201.0639184667476
 10
116.6159137835375
 20
201.0591270419845
 10
116.6159711491147
 20
201.0558939758424
 10
116.6160254979697
 20
201.0531339653418
 10
116.6160743472283
 20
201.0508525146363
 10
116.6161161265006
 20
201.0490255159666
 10
116.6161546177034
 20
201.0474297667301
 10
116.6162063128466
 20
201.0454019418811
 10
116.6162740770281
 20
201.042917038756
 10
116.6163593142832
 20
201.0400274857719
 10
116.6164449526559
 20
201.0373475075679
 10
116.6165206010469
 20
201.035139721405
 10
116.6165846600798
 20
201.0333732891538
 10
116.6166457167521
 20
201.0317689953426
 10
116.6167434086266
 20
201.0293468754471
 10
116.6168733030093
 20
201.0263689394951
 10
116.6170254054189
 20
201.0231830882438
 10
116.6171659553651
 20
201.0204860472566
 10
116.6173244954979
 20
201.0176869838734
 10
116.617487473009
 20
201.0150385933492
 10
116.6176823558215
 20
201.0121305362693
 10
116.6179393930069
 20
201.0086569131696
 10
116.6182572739183
 20
201.0048271744139
 10
116.6185947447674
 20
201.0012141536557
 10
116.6189548904648
 20
200.9977602430526
 10
116.6193536029854
 20
200.9943203876749
 10
116.6198019752514
 20
200.9908405197264
 10
116.6203489235787
 20
200.9870268500838
 10
116.6210351917376
 20
200.9827467580033
 10
116.6218888391115
 20
200.9780014854307
 10
116.622357948281
 20
200.975605376673
 10
116.6228093736912
 20
200.9734171140657
 10
116.6232369803825
 20
200.9714370255121
 10
116.6236351855615
 20
200.9696610540181
 10
116.6241117907989
 20
200.9676054243163
 10
116.6245170902092
 20
200.9659066505959
 10
116.6248902582635
 20
200.9643788231284
 10
116.6256568107064
 20
200.9613596296519
 10
116.6264562469146
 20
200.9583773031486
 10
116.6273081729279
 20
200.9553652355752
 10
116.6280004087121
 20
200.9530288957028
 10
116.6287435270543
 20
200.9506198695976
 10
116.6296145592872
 20
200.9479127081483
 10
116.6306650224379
 20
200.9447940883525
 10
116.6319131817387
 20
200.9412698209173
 10
116.6333792190762
 20
200.9373487899416
 10
116.6350849523948
 20
200.9330432988566
 10
116.6370535028892
 20
200.9283693376026
 10
116.639301411157
 20
200.9233629370612
 10
116.6417198793549
 20
200.9183136588116
 10
116.6442639191803
 20
200.9133251216937
 10
116.6469310028483
 20
200.9084022111417
 10
116.6546228913781
 20
200.8956308847596
 10
116.663108462027
 20
200.8834435851582
 10
116.6723166367999
 20
200.8719147285835
 10
116.6781556069037
 20
200.8653402408179
 10
116.6842078915996
 20
200.8590372984824
 10
116.6908046060648
 20
200.85269177905
 10
116.6985206505716
 20
200.8458851478688
 10
116.7026548706764
 20
200.8425770268448
  0
LWPOLYLINE
  5
28B
330
1F
100
AcDbEntity
  8
3
  6
Continuous
100
AcDbPolyline
 90
       48
 70
   128
 43
0.0
 10
117.2936530773751
 20
201.2428945286957
 10
117.3054958525667
 20
201.2425825388657
 10
117.3173058404543
 20
201.2416482806919
 10
117.3323002259447
 20
201.2395422729723
 10
117.3471688153638
 20
201.2364180743423
 10
117.3618125271371
 20
201.2323034338205
 10
117.3761322796902
 20
201.2272261004253
 10
117.3900289914485
 20
201.2212138231753
 10
117.4034826220309
 20
201.2142631714435
 10
117.4164803144673
 20
201.2063928807716
 10
117.4289377641359
 20
201.1976620527445
 10
117.4407706664146
 20
201.1881297889473
 10
117.4518947166816
 20
201.177855190965
 10
117.4622893146938
 20
201.1668424065736
 10
117.4719492569478
 20
201.1551127725256
 10
117.480814560186
 20
201.1427499607971
 10
117.4888252411507
 20
201.1298376433641
 10
117.4959213165843
 20
201.1164594922024
 10
117.5020845252647
 20
201.1026266927151
 10
117.507317249086
 20
201.0883606593227
 10
117.511590574135
 20
201.0737601927215
 10
117.5148755864983
 20
201.0589240936077
 10
117.5171433722629
 20
201.0439511626774
 10
117.5183803883223
 20
201.0288581068644
 10
117.5185959854621
 20
201.0136642379417
 10
117.5177955798826
 20
200.9984723558738
 10
117.5159845877834
 20
200.9833852606251
 10
117.5131684253646
 20
200.9685057521603
 10
117.509339843163
 20
200.9538540866207
 10
117.5045140552173
 20
200.9394453844889
 10
117.4987301989806
 20
200.9253748577961
 10
117.4920274119059
 20
200.9117377185739
 10
117.4844448314464
 20
200.8986291788538
 10
117.4759823142813
 20
200.8860707428108
 10
117.4666592276256
 20
200.8740716534239
 10
117.4565440183962
 20
200.8627088007721
 10
117.4457051335099
 20
200.8520590749346
 10
117.4342110198836
 20
200.8421993659904
 10
117.4220686463632
 20
200.8331500035512
 10
117.4092993606047
 20
200.8249133102763
 10
117.3959932023504
 20
200.8175391855044
 10
117.3822402113428
 20
200.8110775285739
 10
117.3681304273243
 20
200.8055782388235
 10
117.3530483067957
 20
200.8008762089296
 10
117.3376737375203
 20
200.7972427444338
 10
117.3231109589381
 20
200.7948333082258
 10
117.3084058214892
 20
200.7933807829695
 10
117.2936530773751
 20
200.7928945280261
  0
LWPOLYLINE
  5
28C
330
1F
100
AcDbEntity
  8
3
  6
Continuous
100
AcDbPolyline
 90
      100
 70
   128
 43
0.0
 10
117.4345984234497
 20
200.8425316827336
 10
117.4393919663159
 20
200.8463884034839
 10
117.4482943353027
 20
200.8543525589311
 10
117.4569755749612
 20
200.863002526257
 10
117.465369286161
 20
200.8723444888806
 10
117.4734055589124
 20
200.8823779935738
 10
117.481006299416
 20
200.8930868507146
 10
117.4856257675868
 20
200.9003118805313
 10
117.489782593314
 20
200.9073778256455
 10
117.4934990257475
 20
200.9142370341285
 10
117.4960125729436
 20
200.9192203888968
 10
117.4983043727935
 20
200.9240485903133
 10
117.5003867027946
 20
200.9287086124355
 10
117.5022722506686
 20
200.9331896727734
 10
117.50450256947
 20
200.9388715615134
 10
117.5064368516676
 20
200.9442059395784
 10
117.5080429320199
 20
200.9489904334203
 10
117.5092946338314
 20
200.9529923380322
 10
117.5102417206383
 20
200.9562116413852
 10
117.511013371839
 20
200.9589791035083
 10
117.5114143450884
 20
200.9604758860338
 10
117.5117723715199
 20
200.9618500934954
 10
117.5120905126288
 20
200.9631019235363
 10
117.5124076141264
 20
200.9643714872395
 10
117.5127619254778
 20
200.9658114131072
 10
117.513250264393
 20
200.9678453490797
 10
117.5135105475379
 20
200.9689583864159
 10
117.5137798745962
 20
200.9701355889886
 10
117.5141508466498
 20
200.9718047955471
 10
117.514569740705
 20
200.9737625947176
 10
117.515059785316
 20
200.9761635626863
 10
117.5159003875897
 20
200.9806184399189
 10
117.516765023414
 20
200.9857773482079
 10
117.5172700175135
 20
200.9891567736528
 10
117.5177221288293
 20
200.9924881267535
 10
117.5181260846341
 20
200.9957752352295
 10
117.5185092646504
 20
200.9992317625591
 10
117.5187848930661
 20
201.001966321184
 10
117.5189784147248
 20
201.0040377147989
 10
117.5191686970763
 20
201.0062167275797
 10
117.5193706932507
 20
201.0087072798445
 10
117.5195614044459
 20
201.0112521802133
 10
117.519764721603
 20
201.0142072068951
 10
117.5199706711498
 20
201.01750181545
 10
117.520134982886
 20
201.0203900735287
 10
117.5202560690198
 20
201.0226931065894
 10
117.520352683391
 20
201.0246520150599
 10
117.5204419384664
 20
201.0265685363127
 10
117.5205323760595
 20
201.0286268117317
 10
117.520628914909
 20
201.0309687199741
 10
117.520739002541
 20
201.0338473867806
 10
117.5208573766888
 20
201.0372324840214
 10
117.5209597834866
 20
201.04045091535
 10
117.5210628816068
 20
201.044023999538
 10
117.5211502565729
 20
201.0473780260613
 10
117.521234774177
 20
201.0509863864008
 10
117.5213173476757
 20
201.0549684754668
 10
117.5213994393078
 20
201.059552889372
 10
117.5214774892931
 20
201.0647915397366
 10
117.5215406263472
 20
201.070098808683
 10
117.5215738615721
 20
201.0735835352608
 10
117.5215979735775
 20
201.0766457572728
 10
117.5216153261841
 20
201.0793215559236
 10
117.5216301248713
 20
201.0821648808344
 10
117.5216423379156
 20
201.0853226886245
 10
117.5216502400029
 20
201.0884587655598
 10
117.5216529268936
 20
201.0902519865055
 10
117.5216539749118
 20
201.091417051887
 10
117.5216544509053
 20
201.092448556925
 10
117.5216544884727
 20
201.0936005870092
 10
117.5216539328437
 20
201.0948748047762
 10
117.5216526143416
 20
201.0962729967262
 10
117.5216436159127
 20
201.1007318405435
 10
117.5216232498167
 20
201.1061684777621
 10
117.5215866005507
 20
201.1126134663654
 10
117.5215292104732
 20
201.1199828167573
 10
117.5214465296215
 20
201.1282850501703
 10
117.5213493670982
 20
201.1363759491416
 10
117.5212260231893
 20
201.1452417177683
 10
117.5210738343377
 20
201.1549042814942
 10
117.5208905723778
 20
201.1653812594447
 10
117.520724232918
 20
201.1741713158264
 10
117.5205537529758
 20
201.1827138395432
 10
117.520389996332
 20
201.1906180955621
 10
117.5202366029473
 20
201.1978599211265
 10
117.5200730974566
 20
201.2055907672548
 10
117.519938437973
 20
201.2123198399089
 10
117.5198300345659
 20
201.2180690374139
 10
117.5197279213085
 20
201.2237720301617
 10
117.5196240512563
 20
201.2298859001086
 10
117.5195191606208
 20
201.2364114537367
 10
117.5193935426365
 20
201.2447868844036
 10
117.5192705605461
 20
201.253758358363
 10
117.5191518353946
 20
201.2634301399268
 10
117.5190364656987
 20
201.2742054913461
 10
117.5189279188061
 20
201.2861259694827
 10
117.5188312424177
 20
201.2989485795279
 10
117.5187487521473
 20
201.3128762456134
 10
117.5186865905749
 20
201.3279088321815
 10
117.518660598961
 20
201.339899818513
  0
ARC
  5
28E
330
1F
100
AcDbEntity
  8
3
  6
Continuous
100
AcDbCircle
 10
117.2936530773751
 20
201.0178945286957
 30
0.0
 40
0.1801711958886415
100
AcDbArc
 50
270.0
 51
90.0
  0
LINE
  5
36F
330
1F
100
AcDbEntity
  8
3
  6
Continuous
100
AcDbLine
 10
119.1749365320627
 20
200.9043342129714
 30
0.0
 11
119.1749365320627
 21
201.3022973688325
 31
0.0
  0
LWPOLYLINE
  5
370
330
1F
100
AcDbEntity
  8
3
  6
Continuous
100
AcDbPolyline
 90
       18
 70
   128
 43
0.0
 10
119.7249365327324
 20
201.3202973695556
 10
119.7249365630213
 20
201.1578086684735
 10
119.724539743341
 20
201.1399080065105
 10
119.7230979307356
 20
201.12215200009
 10
119.7206184949663
 20
201.1045871061491
 10
119.7171187710973
 20
201.0872578593647
 10
119.7120581825723
 20
201.0683329797629
 10
119.7057879849644
 20
201.0498113147915
 10
119.6983230806642
 20
201.0317426018513
 10
119.689676105756
 20
201.0141747213392
 10
119.6798676399023
 20
200.9971624267427
 10
119.6689361491885
 20
200.9807762156833
 10
119.657175664775
 20
200.9654017817144
 10
119.6444319401602
 20
200.9507996076823
 10
119.6307628622152
 20
200.9370500400094
 10
119.6162383294985
 20
200.9242166096976
 10
119.6009334077674
 20
200.9123592559374
 10
119.5849356143318
 20
200.9015318109554
  0
ARC
  5
371
330
1F
100
AcDbEntity
  8
3
  6
Continuous
100
AcDbCircle
 10
120.3172849642178
 20
201.326690702703
 30
0.0
 40
0.2200000000000001
100
AcDbArc
 50
308.1772665089364
 51
1.266427956071758
  0
ARC
  5
372
330
1F
100
AcDbEntity
  8
3
  6
Continuous
100
AcDbCircle
 10
120.3172849642178
 20
201.326690702703
 30
0.0
 40
0.2300000000000003
100
AcDbArc
 50
308.1772665089364
 51
0.000000000000007
  0
LINE
  5
373
330
1F
100
AcDbEntity
  8
3
  6
Continuous
100
AcDbLine
 10
120.1718876119559
 20
201.3366635487135
 30
0.0
 11
120.5422300037332
 21
201.3366635487135
 31
0.0
  0
LWPOLYLINE
  5
374
330
1F
100
AcDbEntity
  8
3
  6
Continuous
100
AcDbPolyline
 90
       20
 70
   128
 43
0.0
 10
120.5820588085142
 20
201.3316635493303
 10
120.5820590198045
 20
201.1839013356228
 10
120.5820584215803
 20
201.1673158363783
 10
120.5816360097825
 20
201.1507779102574
 10
120.580313097808
 20
201.134365411187
 10
120.5781032094623
 20
201.1181143224372
 10
120.5750196483406
 20
201.1020598793352
 10
120.5710783976144
 20
201.0862367850551
 10
120.5662950987433
 20
201.0706794593303
 10
120.5596645524027
 20
201.0529056190475
 10
120.5519142697419
 20
201.0355788330635
 10
120.5430567594088
 20
201.0187436913522
 10
120.5331185151802
 20
201.0024568843614
 10
120.5221376705486
 20
200.9867864114396
 10
120.5101604958521
 20
200.9718147073676
 10
120.4979999871209
 20
200.9584164726416
 10
120.4850489388685
 20
200.9457766002546
 10
120.4713650010381
 20
200.9339456486502
 10
120.4570106588061
 20
200.9229716525408
 10
120.4420578901136
 20
200.9128979908364
  0
LWPOLYLINE
  5
375
330
1F
100
AcDbEntity
  8
3
  6
Continuous
100
AcDbPolyline
 90
       20
 70
   128
 43
0.0
 10
120.5720588090253
 20
201.3266635487136
 10
120.5720589863947
 20
201.1806593079918
 10
120.5720478922236
 20
201.1643424155447
 10
120.5714917458247
 20
201.1485750299241
 10
120.5700869452161
 20
201.1329197457856
 10
120.5678469591485
 20
201.1174242169903
 10
120.5647843150792
 20
201.1021184362756
 10
120.5609141827019
 20
201.0870347878984
 10
120.5562506740284
 20
201.0722059679077
 10
120.5498211070708
 20
201.0552675214477
 10
120.5423362585977
 20
201.0387559083273
 10
120.5338076367799
 20
201.0227108910018
 10
120.524258180406
 20
201.0071822644266
 10
120.5137257010172
 20
200.992237759384
 10
120.5022561756926
 20
200.9779580614022
 10
120.4906268445886
 20
200.965176979656
 10
120.4782510311617
 20
200.9531108574143
 10
120.4651827519421
 20
200.9418076251635
 10
120.4514794363903
 20
200.9313112233212
 10
120.4372091974322
 20
200.9216635487136
  0
LINE
  5
376
330
1F
100
AcDbEntity
  8
3
  6
Continuous
100
AcDbLine
 10
119.5806662787147
 20
200.9002973688325
 30
0.0
 11
119.1779365320627
 21
200.9002973688325
 31
0.0
  0
LWPOLYLINE
  5
377
330
1F
100
AcDbEntity
  8
3
  6
Continuous
100
AcDbPolyline
 90
        3
 70
   128
 43
0.0
 10
119.5806662787147
 20
200.9002973688325
 10
119.5828883877335
 20
200.9006121732261
 10
119.5849356143318
 20
200.9015318109554
  0
LINE
  5
378
330
1F
100
AcDbEntity
  8
3
  6
Continuous
100
AcDbLine
 10
119.5640302448426
 20
200.9002973688325
 30
0.0
 11
119.564032601008
 21
200.9002973716047
 31
0.0
  0
ARC
  5
379
330
1F
100
AcDbEntity
  8
3
  6
Continuous
100
AcDbCircle
 10
119.5640302468054
 20
200.9012973688325
 30
0.0
 40
0.0010000000000001
100
AcDbArc
 50
269.9999651270021
 51
270.1504111073302
  0
LINE
  5
37A
330
1F
100
AcDbEntity
  8
3
  6
Continuous
100
AcDbLine
 10
120.5720588090253
 20
201.3266635487136
 30
0.0
 11
120.5472849626149
 21
201.3266635487136
 31
0.0
  0
LINE
  5
37B
330
1F
100
AcDbEntity
  8
3
  6
Continuous
100
AcDbLine
 10
120.5770588085142
 20
201.3366635487135
 30
0.0
 11
120.5422300037332
 21
201.3366635487135
 31
0.0
  0
ARC
  5
37C
330
1F
100
AcDbEntity
  8
3
  6
Continuous
100
AcDbCircle
 10
120.5770588085142
 20
201.3316635487135
 30
0.0
 40
0.005
100
AcDbArc
 50
0.000000000000007
 51
90.0
  0
ARC
  5
37D
330
1F
100
AcDbEntity
  8
3
  6
Continuous
100
AcDbCircle
 10
120.5422300037332
 20
201.3316635487135
 30
0.0
 40
0.005
100
AcDbArc
 50
90.0
 51
181.2664279560587
  0
ARC
  5
37E
330
1F
100
AcDbEntity
  8
3
  6
Continuous
100
AcDbCircle
 10
119.1779365320627
 20
200.9032973688325
 30
0.0
 40
0.0030000000000001
100
AcDbArc
 50
180.0
 51
270.0
  0
LINE
  5
37F
330
1F
100
AcDbEntity
  8
3
  6
Continuous
100
AcDbLine
 10
119.1749365320627
 20
200.9032973688325
 30
0.0
 11
119.1749365320627
 21
200.9043342129714
 31
0.0
  0
LINE
  5
380
330
1F
100
AcDbEntity
  8
3
  6
Continuous
100
AcDbLine
 10
120.4298597043505
 20
200.9216635487136
 30
0.0
 11
120.4231573909172
 21
201.1244288311172
 31
0.0
  0
LWPOLYLINE
  5
381
330
1F
100
AcDbEntity
  8
3
  6
Continuous
100
AcDbPolyline
 90
        3
 70
   128
 43
0.0
 10
120.4201442176526
 20
200.9126304792574
 10
120.4164870287575
 20
201.0232053478425
 10
120.4136157791831
 20
201.1100856763205
  0
LINE
  5
382
330
1F
100
AcDbEntity
  8
3
  6
Continuous
100
AcDbLine
 10
120.0320588078445
 20
200.9146635487136
 30
0.0
 11
120.0320588078445
 21
201.2126635487136
 31
0.0
  0
LINE
  5
383
330
1F
100
AcDbEntity
  8
3
  6
Continuous
100
AcDbLine
 10
120.3571808962495
 20
200.9116635487135
 30
0.0
 11
120.0350588078445
 21
200.9116635487135
 31
0.0
  0
LINE
  5
384
330
1F
100
AcDbEntity
  8
3
  6
Continuous
100
AcDbLine
 10
120.4377885544965
 20
200.9116635487135
 30
0.0
 11
120.4211436707086
 21
200.9116635487135
 31
0.0
  0
LINE
  5
385
330
1F
100
AcDbEntity
  8
3
  6
Continuous
100
AcDbLine
 10
120.4298519054686
 20
200.9216635487136
 30
0.0
 11
120.4372091974322
 21
200.9216635487136
 31
0.0
  0
ARC
  5
386
330
1F
100
AcDbEntity
  8
3
  6
Continuous
100
AcDbCircle
 10
120.4377885544965
 20
200.9196635487136
 30
0.0
 40
0.0080000000000002
100
AcDbArc
 50
270.0
 51
302.2535524815183
  0
LINE
  5
387
330
1F
100
AcDbEntity
  8
3
  6
Continuous
100
AcDbLine
 10
120.4211436707086
 20
200.9116635487135
 30
0.0
 11
120.3571808962495
 21
200.9116635487135
 31
0.0
  0
ARC
  5
388
330
1F
100
AcDbEntity
  8
3
  6
Continuous
100
AcDbCircle
 10
120.4211436707086
 20
200.9126635487135
 30
0.0
 40
0.0010000000000002
100
AcDbArc
 50
181.8950857813292
 51
270.0
  0
LWPOLYLINE
  5
389
330
1F
100
AcDbEntity
  8
3
  6
Continuous
100
AcDbPolyline
 90
       10
 70
   128
 43
0.0
 10
120.0320588078445
 20
200.9146635487136
 10
120.0321043845855
 20
200.9141426041805
 10
120.0322397299822
 20
200.9136374882836
 10
120.0324607316332
 20
200.9131635487136
 10
120.0327606745152
 20
200.9127351858845
 10
120.0331304450155
 20
200.9123654153842
 10
120.0335588078445
 20
200.9120654725022
 10
120.0340327474145
 20
200.9118444708512
 10
120.0345378633115
 20
200.9117091254545
 10
120.0350588078445
 20
200.9116635487135
  0
ARC
  5
38A
330
1F
100
AcDbEntity
  8
3
  6
Continuous
100
AcDbCircle
 10
120.3968326514712
 20
201.326690702703
 30
0.0
 40
0.2300000000000003
100
AcDbArc
 50
188.2923094314299
 51
231.8227334910636
  0
LWPOLYLINE
  5
38B
330
1F
100
AcDbEntity
  8
3
  6
Continuous
100
AcDbPolyline
 90
       25
 70
   128
 43
0.0
 10
120.3340588078445
 20
201.0866635487135
 10
120.3201965692455
 20
201.0903918096171
 10
120.3065671357273
 20
201.0949376197361
 10
120.2932414418714
 20
201.1002753363023
 10
120.2810513739685
 20
201.1059896533624
 10
120.2691866528387
 20
201.1123738166771
 10
120.257702362772
 20
201.1193995006902
 10
120.2466270073361
 20
201.1270539337704
 10
120.2359844012704
 20
201.1353164838046
 10
120.2258220646638
 20
201.1441473800025
 10
120.2161630380784
 20
201.1535251552027
 10
120.2070274354744
 20
201.1634273799949
 10
120.1984598706441
 20
201.173811477102
 10
120.19048380185
 20
201.184657151752
 10
120.183113890344
 20
201.1959359553566
 10
120.1763806311741
 20
201.2075942646531
 10
120.1703013006202
 20
201.2196064290879
 10
120.1648905635742
 20
201.2319454516609
 10
120.1601751377259
 20
201.2445554313559
 10
120.1561007622393
 20
201.2576507806743
 10
120.1527675126997
 20
201.2709654044883
 10
120.1501894344318
 20
201.2844355778268
 10
120.1483318781497
 20
201.2984393617066
 10
120.1472863887897
 20
201.3125389756585
 10
120.1470588078445
 20
201.3266635487136
  0
ARC
  5
38C
330
1F
100
AcDbEntity
  8
3
  6
Continuous
100
AcDbCircle
 10
120.3968326514712
 20
201.326690702703
 30
0.0
 40
0.22
100
AcDbArc
 50
188.5947147927593
 51
231.8227334910636
  0
LWPOLYLINE
  5
38D
330
1F
100
AcDbEntity
  8
3
  6
Continuous
100
AcDbPolyline
 90
       19
 70
   128
 43
0.0
 10
120.1385837422247
 20
201.2995604587548
 10
120.1409085451312
 20
201.2837437385641
 10
120.1442793239247
 20
201.2680656256265
 10
120.1486572206221
 20
201.252618639769
 10
120.1540033772402
 20
201.237495300819
 10
120.1602789357961
 20
201.2227881286035
 10
120.1677801468875
 20
201.2079298731063
 10
120.1762298406796
 20
201.1935346941647
 10
120.1855629883702
 20
201.1796736500473
 10
120.1957145611575
 20
201.1664177990229
 10
120.2066195302394
 20
201.1538381993603
 10
120.2193318575192
 20
201.1409142040163
 10
120.2329021393743
 20
201.1288018387775
 10
120.2472494232687
 20
201.1175937858009
 10
120.2622927566666
 20
201.1073827272435
 10
120.2779511870321
 20
201.0982613452624
 10
120.2913486351893
 20
201.0915849085763
 10
120.3051402882977
 20
201.0857322565169
 10
120.3192603976366
 20
201.0807716362981
  0
ARC
  5
393
330
1F
100
AcDbEntity
  8
3
  6
Continuous
100
AcDbCircle
 10
120.3605517219404
 20
201.2716635487135
 30
0.0
 40
0.1600000000000004
100
AcDbArc
 50
293.0312916058715
 51
308.1772665089364
  0
ARC
  5
394
330
1F
100
AcDbEntity
  8
3
  6
Continuous
100
AcDbCircle
 10
120.3605517219404
 20
201.2716635487135
 30
0.0
 40
0.1500000000000002
100
AcDbArc
 50
284.8929711003709
 51
308.1772665089364
  0
ARC
  5
395
330
1F
100
AcDbEntity
  8
3
  6
Continuous
100
AcDbCircle
 10
120.3805588078445
 20
201.0976635487135
 30
0.0
 40
0.0009999999999999
100
AcDbArc
 50
180.0
 51
270.0
  0
LINE
  5
396
330
1F
100
AcDbEntity
  8
3
  6
Continuous
100
AcDbLine
 10
120.3920588078445
 20
201.0726635487136
 30
0.0
 11
120.3920588078445
 21
201.1083748774642
 31
0.0
  0
LINE
  5
397
330
1F
100
AcDbEntity
  8
3
  6
Continuous
100
AcDbLine
 10
120.3910588078445
 20
201.0716635487136
 30
0.0
 11
120.3805588078445
 21
201.0716635487136
 31
0.0
  0
ARC
  5
398
330
1F
100
AcDbEntity
  8
3
  6
Continuous
100
AcDbCircle
 10
120.3910588078445
 20
201.0726635487136
 30
0.0
 40
0.0010000000000002
100
AcDbArc
 50
270.0
 51
0.000000000000007
  0
ARC
  5
399
330
1F
100
AcDbEntity
  8
3
  6
Continuous
100
AcDbCircle
 10
120.3805588078445
 20
201.0956635487135
 30
0.0
 40
0.0009999999999999
100
AcDbArc
 50
0.000000000000007
 51
90.0
  0
ARC
  5
39A
330
1F
100
AcDbEntity
  8
3
  6
Continuous
100
AcDbCircle
 10
120.3805588078445
 20
201.0876635487135
 30
0.0
 40
0.0009999999999999
100
AcDbArc
 50
270.0
 51
0.000000000000007
  0
ARC
  5
39B
330
1F
100
AcDbEntity
  8
3
  6
Continuous
100
AcDbCircle
 10
120.3805588078445
 20
201.0856635487136
 30
0.0
 40
0.0009999999999999
100
AcDbArc
 50
90.0
 51
180.0
  0
LINE
  5
39C
330
1F
100
AcDbEntity
  8
3
  6
Continuous
100
AcDbLine
 10
120.3815588078445
 20
201.0876635487135
 30
0.0
 11
120.3815588078445
 21
201.0956635487135
 31
0.0
  0
ARC
  5
39D
330
1F
100
AcDbEntity
  8
3
  6
Continuous
100
AcDbCircle
 10
120.3805588078445
 20
201.0726635487136
 30
0.0
 40
0.0009999999999999
100
AcDbArc
 50
180.0
 51
270.0
  0
LINE
  5
39E
330
1F
100
AcDbEntity
  8
3
  6
Continuous
100
AcDbLine
 10
120.3795588078445
 20
201.0726635487136
 30
0.0
 11
120.3795588078445
 21
201.0856635487136
 31
0.0
  0
ARC
  5
39F
330
1F
100
AcDbEntity
  8
3
  6
Continuous
100
AcDbCircle
 10
120.3769392656812
 20
201.1311763306467
 30
0.0
 40
0.018490176344143
100
AcDbArc
 50
288.9274978077015
 51
330.248367247042
  0
ARC
  5
3A0
330
1F
100
AcDbEntity
  8
3
  6
Continuous
100
AcDbCircle
 10
120.4056201410565
 20
201.1098215344114
 30
0.0
 40
0.0080000000000001
100
AcDbArc
 50
1.892120968484068
 51
105.5610145787104
  0
ARC
  5
3A1
330
1F
100
AcDbEntity
  8
3
  6
Continuous
100
AcDbCircle
 10
120.4016740001284
 20
201.1170383300827
 30
0.0
 40
0.0100000000000005
100
AcDbArc
 50
104.8929711003709
 51
150.248367247042
  0
ARC
  5
3A2
330
1F
100
AcDbEntity
  8
3
  6
Continuous
100
AcDbCircle
 10
120.4000588078445
 20
201.1083748774642
 30
0.0
 40
0.0080000000000001
100
AcDbArc
 50
103.6011266608419
 51
180.0
  0
ARC
  5
3A3
330
1F
100
AcDbEntity
  8
3
  6
Continuous
100
AcDbCircle
 10
120.3605517219404
 20
201.2716635487135
 30
0.0
 40
0.1599999999851178
100
AcDbArc
 50
283.601126660842
 51
285.5610145787103
  0
LINE
  5
3A6
330
1F
100
AcDbEntity
  8
3
  6
Continuous
100
AcDbLine
 10
120.3795588078445
 20
201.0976635487135
 30
0.0
 11
120.3795588078445
 21
201.1089562729983
 31
0.0
  0
ARC
  5
3A7
330
1F
100
AcDbEntity
  8
3
  6
Continuous
100
AcDbCircle
 10
120.3845588078445
 20
201.1089562729983
 30
0.0
 40
0.005
100
AcDbArc
 50
108.9274978076764
 51
180.0
  0
ARC
  5
3A8
330
1F
100
AcDbEntity
  8
3
  6
Continuous
100
AcDbCircle
 10
120.3535658937487
 20
201.2716635487135
 30
0.0
 40
0.15
100
AcDbArc
 50
231.8227334910636
 51
255.1070288996291
  0
ARC
  5
3A9
330
1F
100
AcDbEntity
  8
3
  6
Continuous
100
AcDbCircle
 10
120.3535658937487
 20
201.2716635487135
 30
0.0
 40
0.1600000000000004
100
AcDbArc
 50
231.8227334910636
 51
257.2172402452698
  0
ARC
  5
3AA
330
1F
100
AcDbEntity
  8
3
  6
Continuous
100
AcDbCircle
 10
120.3270588078445
 20
201.1016635487135
 30
0.0
 40
0.005
100
AcDbArc
 50
180.0
 51
270.0
  0
ARC
  5
3AB
330
1F
100
AcDbEntity
  8
3
  6
Continuous
100
AcDbCircle
 10
120.3335588078445
 20
201.0976635487135
 30
0.0
 40
0.0010000000000002
100
AcDbArc
 50
270.0
 51
0.000000000000007
  0
ARC
  5
3AD
330
1F
100
AcDbEntity
  8
3
  6
Continuous
100
AcDbCircle
 10
120.3180588078445
 20
201.0769563798229
 30
0.0
 40
0.0040000000000001
100
AcDbArc
 50
0.000000000000007
 51
72.51852367012933
  0
LINE
  5
3B1
330
1F
100
AcDbEntity
  8
3
  6
Continuous
100
AcDbLine
 10
120.3335588078445
 20
201.0966635487136
 30
0.0
 11
120.3270588078445
 21
201.0966635487136
 31
0.0
  0
ARC
  5
3B3
330
1F
100
AcDbEntity
  8
3
  6
Continuous
100
AcDbCircle
 10
120.3335588078445
 20
201.0857975233097
 30
0.0
 40
0.0010000000000004
100
AcDbArc
 50
0.000000000000007
 51
59.99999999999623
  0
LINE
  5
3B5
330
1F
100
AcDbEntity
  8
3
  6
Continuous
100
AcDbLine
 10
120.3335588078445
 20
201.0716635487136
 30
0.0
 11
120.3230588078445
 21
201.0716635487136
 31
0.0
  0
ARC
  5
3B6
330
1F
100
AcDbEntity
  8
3
  6
Continuous
100
AcDbCircle
 10
120.3335588078445
 20
201.0726635487136
 30
0.0
 40
0.0010000000000002
100
AcDbArc
 50
270.0
 51
0.000000000000007
  0
ARC
  5
3B7
330
1F
100
AcDbEntity
  8
3
  6
Continuous
100
AcDbCircle
 10
120.3230588078445
 20
201.0726635487136
 30
0.0
 40
0.0009999999999999
100
AcDbArc
 50
180.0
 51
270.0
  0
LINE
  5
3B8
330
1F
100
AcDbEntity
  8
3
  6
Continuous
100
AcDbLine
 10
120.3220588078445
 20
201.0769563798229
 30
0.0
 11
120.3220588078445
 21
201.0726635487136
 31
0.0
  0
LINE
  5
3B9
330
1F
100
AcDbEntity
  8
3
  6
Continuous
100
AcDbLine
 10
120.3345588078445
 20
201.0857975233097
 30
0.0
 11
120.3345588078445
 21
201.0726635487136
 31
0.0
  0
ARC
  5
3BA
330
1F
100
AcDbEntity
  8
3
  6
Continuous
100
AcDbCircle
 10
120.3124436155607
 20
201.1170383300827
 30
0.0
 40
0.0100000000000002
100
AcDbArc
 50
29.75163275295798
 51
75.10702889962907
  0
ARC
  5
3BB
330
1F
100
AcDbEntity
  8
3
  6
Continuous
100
AcDbCircle
 10
120.3170588078445
 20
201.1107529130218
 30
0.0
 40
0.005
100
AcDbArc
 50
0.000000000000007
 51
77.21724024524398
  0
LINE
  5
3BC
330
1F
100
AcDbEntity
  8
3
  6
Continuous
100
AcDbLine
 10
120.3345588078445
 20
201.1089562729983
 30
0.0
 11
120.3345588078445
 21
201.0976635487135
 31
0.0
  0
ARC
  5
3BD
330
1F
100
AcDbEntity
  8
3
  6
Continuous
100
AcDbCircle
 10
120.3295588078445
 20
201.1089562729983
 30
0.0
 40
0.005
100
AcDbArc
 50
0.000000000000007
 51
71.07250219232357
  0
LINE
  5
3BE
330
1F
100
AcDbEntity
  8
3
  6
Continuous
100
AcDbLine
 10
120.3220588078445
 20
201.1107529130218
 30
0.0
 11
120.3220588078445
 21
201.1016635487135
 31
0.0
  0
ARC
  5
3BF
330
1F
100
AcDbEntity
  8
3
  6
Continuous
100
AcDbCircle
 10
120.3371783500079
 20
201.1311763306467
 30
0.0
 40
0.0184901763441429
100
AcDbArc
 50
209.751632752958
 51
251.0725021923235
  0
LINE
  5
3C0
330
1F
100
AcDbEntity
  8
3
  6
Continuous
100
AcDbLine
 10
120.0320588078445
 20
201.2126635487136
 30
0.0
 11
120.0320588078445
 21
201.3136635487136
 31
0.0
  0
LINE
  5
3C1
330
1F
100
AcDbEntity
  8
3
  6
Continuous
100
AcDbLine
 10
120.065925190419
 20
201.3007341010744
 30
0.0
 11
120.0426546043594
 21
201.2138870915782
 31
0.0
  0
ARC
  5
3C2
330
1F
100
AcDbEntity
  8
3
  6
Continuous
100
AcDbCircle
 10
120.0397568268806
 20
201.2146635487136
 30
0.0
 40
0.0030000000000001
100
AcDbArc
 50
270.0
 51
344.9999999999929
  0
ARC
  5
3C3
330
1F
100
AcDbEntity
  8
3
  6
Continuous
100
AcDbCircle
 10
120.0330588078445
 20
201.2126635487136
 30
0.0
 40
0.0010000000000002
100
AcDbArc
 50
180.0
 51
270.0
  0
LINE
  5
3C4
330
1F
100
AcDbEntity
  8
3
  6
Continuous
100
AcDbLine
 10
120.0330588078445
 20
201.2116635487136
 30
0.0
 11
120.0397568268806
 21
201.2116635487136
 31
0.0
  0
LINE
  5
3C5
330
1F
100
AcDbEntity
  8
3
  6
Continuous
100
AcDbLine
 10
120.130634179194
 20
201.3066635487136
 30
0.0
 11
120.1110588078445
 21
201.3066635487136
 31
0.0
  0
LWPOLYLINE
  5
3C6
330
1F
100
AcDbEntity
  8
3
  6
Continuous
100
AcDbPolyline
 90
       10
 70
   128
 43
0.0
 10
120.0350588078445
 20
201.3166635487135
 10
120.0903375329934
 20
201.3166635487135
 10
120.1194768955678
 20
201.3166635487135
 10
120.1231056326637
 20
201.3167177912427
 10
120.12643154843
 20
201.3176691665559
 10
120.1291720556855
 20
201.3196377020586
 10
120.131107256435
 20
201.3224034997553
 10
120.1319674490212
 20
201.3253073846591
 10
120.1320588078445
 20
201.3284736549512
 10
120.1320588078445
 20
201.3316635487135
  0
ARC
  5
3C7
330
1F
100
AcDbEntity
  8
3
  6
Continuous
100
AcDbCircle
 10
120.3968326514712
 20
201.326690702703
 30
0.0
 40
0.2199999999999999
100
AcDbArc
 50
178.7335720439413
 51
181.0441253333938
  0
LINE
  5
3C8
330
1F
100
AcDbEntity
  8
3
  6
Continuous
100
AcDbLine
 10
120.1702268106388
 20
201.2946635487135
 30
0.0
 11
120.1783144437645
 21
201.2946635487135
 31
0.0
  0
ARC
  5
3C9
330
1F
100
AcDbEntity
  8
3
  6
Continuous
100
AcDbCircle
 10
120.1783144437645
 20
201.2936635487136
 30
0.0
 40
0.0010000000000002
100
AcDbArc
 50
8.594714792772638
 51
90.0
  0
ARC
  5
3CA
330
1F
100
AcDbEntity
  8
3
  6
Continuous
100
AcDbCircle
 10
120.1758693467558
 20
201.3226635487136
 30
0.0
 40
0.0010000000000002
100
AcDbArc
 50
270.0
 51
1.044125334618569
  0
LINE
  5
3CC
330
1F
100
AcDbEntity
  8
3
  6
Continuous
100
AcDbLine
 10
120.1668326530741
 20
201.3266635487136
 30
0.0
 11
120.1470588078445
 21
201.3266635487136
 31
0.0
  0
ARC
  5
3CD
330
1F
100
AcDbEntity
  8
3
  6
Continuous
100
AcDbCircle
 10
120.3968326514712
 20
201.326690702703
 30
0.0
 40
0.2299999999999999
100
AcDbArc
 50
180.0067643869428
 51
181.0076455100652
  0
ARC
  5
3CE
330
1F
100
AcDbEntity
  8
3
  6
Continuous
100
AcDbCircle
 10
120.1678680646226
 20
201.3226635487136
 30
0.0
 40
0.0010000000000002
100
AcDbArc
 50
181.0076455113291
 51
270.0
  0
LINE
  5
3D0
330
1F
100
AcDbEntity
  8
3
  6
Continuous
100
AcDbLine
 10
120.1758693467558
 20
201.3216635487136
 30
0.0
 11
120.1678680646226
 21
201.3216635487136
 31
0.0
  0
ARC
  5
3D1
330
1F
100
AcDbEntity
  8
3
  6
Continuous
100
AcDbCircle
 10
120.1702268106388
 20
201.2936635487136
 30
0.0
 40
0.0010000000000002
100
AcDbArc
 50
90.0
 51
188.2923094316142
  0
ARC
  5
3D2
330
1F
100
AcDbEntity
  8
3
  6
Continuous
100
AcDbCircle
 10
120.130634179194
 20
201.2986635487135
 30
0.0
 40
0.0080000000000002
100
AcDbArc
 50
6.437178681124284
 51
90.0
  0
LINE
  5
3D3
330
1F
100
AcDbEntity
  8
3
  6
Continuous
100
AcDbLine
 10
120.1718876119559
 20
201.3366635487135
 30
0.0
 11
120.1370588078445
 21
201.3366635487135
 31
0.0
  0
ARC
  5
3D4
330
1F
100
AcDbEntity
  8
3
  6
Continuous
100
AcDbCircle
 10
120.1718876119559
 20
201.3316635487135
 30
0.0
 40
0.005
100
AcDbArc
 50
358.7335720439543
 51
90.0
  0
ARC
  5
3D5
330
1F
100
AcDbEntity
  8
3
  6
Continuous
100
AcDbCircle
 10
120.1370588078445
 20
201.3316635487135
 30
0.0
 40
0.005
100
AcDbArc
 50
90.0
 51
180.0
  0
ARC
  5
3D7
330
1F
100
AcDbEntity
  8
3
  6
Continuous
100
AcDbCircle
 10
120.0736525970293
 20
201.2986635487135
 30
0.0
 40
0.0079999999999998
100
AcDbArc
 50
90.0
 51
165.0000000000055
  0
ARC
  5
3D8
330
1F
100
AcDbEntity
  8
3
  6
Continuous
100
AcDbCircle
 10
120.0350588078445
 20
201.3136635487136
 30
0.0
 40
0.0030000000000001
100
AcDbArc
 50
90.0
 51
180.0
  0
LINE
  5
3D9
330
1F
100
AcDbEntity
  8
3
  6
Continuous
100
AcDbLine
 10
119.2799365320627
 20
201.3252973688325
 30
0.0
 11
119.7199365327324
 21
201.3252973688325
 31
0.0
  0
LWPOLYLINE
  5
3DA
330
1F
100
AcDbEntity
  8
3
  6
Continuous
100
AcDbPolyline
 90
        5
 70
   128
 43
0.0
 10
119.7199365327324
 20
201.3252973688325
 10
119.7218499497517
 20
201.3249167665541
 10
119.7234720664202
 20
201.3238329029565
 10
119.7245559302179
 20
201.3222107864217
 10
119.7249365327324
 20
201.3202973694493
  0
LWPOLYLINE
  5
3DB
330
1F
100
AcDbEntity
  8
3
  6
Continuous
100
AcDbPolyline
 90
       10
 70
   128
 43
0.0
 10
119.1779365320627
 20
201.3052973688325
 10
119.2332152572116
 20
201.3052973688325
 10
119.262354619786
 20
201.3052973688325
 10
119.2659833568819
 20
201.3053516113617
 10
119.2693092726482
 20
201.3063029866749
 10
119.2720497799037
 20
201.3082715221775
 10
119.2739849806532
 20
201.3110373198742
 10
119.2748451732394
 20
201.3139412047781
 10
119.2749365320627
 20
201.3171074750701
 10
119.2749365320627
 20
201.3202973688325
  0
ARC
  5
3DC
330
1F
100
AcDbEntity
  8
3
  6
Continuous
100
AcDbCircle
 10
119.2799365320627
 20
201.3202973688325
 30
0.0
 40
0.005
100
AcDbArc
 50
90.0
 51
180.0
  0
ARC
  5
3DD
330
1F
100
AcDbEntity
  8
3
  6
Continuous
100
AcDbCircle
 10
119.1779365320627
 20
201.3022973688325
 30
0.0
 40
0.0030000000000001
100
AcDbArc
 50
90.0
 51
180.0
  0
LINE
  5
46F
330
1F
100
AcDbEntity
  8
3
  6
Continuous
100
AcDbLine
 10
118.5892211271869
 20
200.895605419159
 30
0.0
 11
118.1392211271869
 21
200.895605419159
 31
0.0
  0
LINE
  5
470
330
1F
100
AcDbEntity
  8
3
  6
Continuous
100
AcDbLine
 10
118.1392211271869
 20
201.3206054191591
 30
0.0
 11
118.5892211271869
 21
201.3206054191591
 31
0.0
  0
LWPOLYLINE
  5
474
330
1F
100
AcDbEntity
  8
3
  6
Continuous
100
AcDbPolyline
 90
       77
 70
   128
 43
0.0
 10
117.914216475382
 20
201.3156109853334
 10
117.9142138292702
 20
201.3127699740572
 10
117.9142007218442
 20
201.3059869760335
 10
117.9141850975186
 20
201.3002562249778
 10
117.9141692992795
 20
201.2955775038584
 10
117.9141550078025
 20
201.2919110714117
 10
117.9141397075685
 20
201.2884036878069
 10
117.9141214821963
 20
201.2847097181327
 10
117.914077400466
 20
201.2774543621981
 10
117.9140165955645
 20
201.269595992943
 10
117.9139389820085
 20
201.2612447028005
 10
117.913817078719
 20
201.2503639623009
 10
117.9136793222483
 20
201.2400931656445
 10
117.9135229826201
 20
201.2304431857352
 10
117.9133406819636
 20
201.2213798999209
 10
117.9131515609257
 20
201.2129749017392
 10
117.91293382822
 20
201.2041952549834
 10
117.9126984656546
 20
201.1949268049567
 10
117.9124537002555
 20
201.1852069266715
 10
117.9122121420716
 20
201.1752673119409
 10
117.9120520078875
 20
201.1683645788139
 10
117.9119035149344
 20
201.1616502017843
 10
117.911767275785
 20
201.1551243668576
 10
117.911644170217
 20
201.1487894416786
 10
117.9115353080273
 20
201.142649692965
 10
117.9114467247114
 20
201.1370553840667
 10
117.9113812938363
 20
201.1323569743159
 10
117.9113500475121
 20
201.1298432831543
 10
117.9113250948162
 20
201.1276480225783
 10
117.9113049505542
 20
201.1257059676001
 10
117.911283888158
 20
201.1234438789561
 10
117.911262177917
 20
201.1207273186098
 10
117.9112425681899
 20
201.1176436787621
 10
117.9112296669789
 20
201.1148272060516
 10
117.9112212720369
 20
201.1116232802987
 10
117.9112199677652
 20
201.1086399091152
 10
117.9112263352875
 20
201.1053739412985
 10
117.9112432599003
 20
201.1018294417176
 10
117.9112627813149
 20
201.0992430901374
 10
117.9112908817005
 20
201.096484329206
 10
117.9113294068198
 20
201.0935738655101
 10
117.9113765131555
 20
201.0907394734206
 10
117.9114232261831
 20
201.088397304711
 10
117.9114670361991
 20
201.086484366226
 10
117.9115341580013
 20
201.0839285873551
 10
117.9116310026828
 20
201.0807985579698
 10
117.9117444582635
 20
201.0777012149285
 10
117.9118587704621
 20
201.0750122520152
 10
117.9120148492883
 20
201.0718361980917
 10
117.9122281726769
 20
201.0681451704334
 10
117.9125111207817
 20
201.0640327420007
 10
117.9128455111483
 20
201.0599404214922
 10
117.9132423328665
 20
201.0558031415713
 10
117.9137284250084
 20
201.051450725986
 10
117.9143839176653
 20
201.0464168538407
 10
117.9153011586869
 20
201.0404265552637
 10
117.9160754944202
 20
201.0360161861671
 10
117.9167461858894
 20
201.0325431082375
 10
117.9172753606345
 20
201.02998481457
 10
117.917727495772
 20
201.0279066893404
 10
117.9182278755568
 20
201.0257081345934
 10
117.9187811387876
 20
201.0233867834466
 10
117.9203168037023
 20
201.0174443486631
 10
117.9222366107686
 20
201.0108205021853
 10
117.9250090605938
 20
201.0023822154134
 10
117.9285237758606
 20
200.993034329766
 10
117.9329017912545
 20
200.9828562936956
 10
117.9382622838565
 20
200.9719599526315
 10
117.9433325547893
 20
200.9628242530068
 10
117.9491512746739
 20
200.953416220712
 10
117.9555509528724
 20
200.9441250167304
 10
117.9623042714089
 20
200.9352903253876
 10
117.9693691645911
 20
200.9269263980619
 10
117.9785746933817
 20
200.9171479012207
 10
117.9881215305512
 20
200.9081294915315
 10
117.9979325593954
 20
200.8998712043188
 10
118.0013281942872
 20
200.8973228051488
  0
LINE
  5
476
330
1F
100
AcDbEntity
  8
3
  6
Continuous
100
AcDbLine
 10
118.1392211271869
 20
201.3206054191591
 30
0.0
 11
117.9193450943714
 21
201.3206054191591
 31
0.0
  0
LWPOLYLINE
  5
477
330
1F
100
AcDbEntity
  8
3
  6
Continuous
100
AcDbPolyline
 90
        9
 70
   128
 43
0.0
 10
117.9142175570865
 20
201.3155916606593
 10
117.9143113274875
 20
201.3165693159869
 10
117.9145943996293
 20
201.3175097802102
 10
117.9150558514243
 20
201.3183767663508
 10
117.9156778781641
 20
201.3191368225176
 10
117.9164364794986
 20
201.319760622617
 10
117.9173023854679
 20
201.3202240978756
 10
117.918242185858
 20
201.3205093655113
 10
117.9192176452268
 20
201.3206054191579
  0
LINE
  5
479
330
1F
100
AcDbEntity
  8
3
  6
Continuous
100
AcDbLine
 10
118.1392211271869
 20
200.895605419159
 30
0.0
 11
118.0060062752998
 21
200.895605419159
 31
0.0
  0
LWPOLYLINE
  5
47B
330
1F
100
AcDbEntity
  8
3
  6
Continuous
100
AcDbPolyline
 90
        9
 70
   128
 43
0.0
 10
118.0060554465205
 20
200.8956054505972
 10
118.0054007933386
 20
200.8956304424629
 10
118.004750380366
 20
200.8957089208237
 10
118.0041085697862
 20
200.8958403593416
 10
118.0034796660879
 20
200.8960238764859
 10
118.0028678871963
 20
200.8962582414459
 10
118.0022773361841
 20
200.8965418823848
 10
118.0017119737528
 20
200.8968728969824
 10
118.0011755916697
 20
200.8972490651933
  0
LWPOLYLINE
  5
47E
330
1F
100
AcDbEntity
  8
3
  6
Continuous
100
AcDbPolyline
 90
       69
 70
   128
 43
0.0
 10
118.727093680302
 20
200.8973075102694
 10
118.7305096949784
 20
200.8998712043188
 10
118.7403207238226
 20
200.9081294915315
 10
118.7498675609921
 20
200.9171479012207
 10
118.7590730897827
 20
200.9269263980619
 10
118.7661379829648
 20
200.9352903253876
 10
118.7728913015015
 20
200.9441250167304
 10
118.7792909796999
 20
200.953416220712
 10
118.7851096995846
 20
200.9628242530068
 10
118.7901799705173
 20
200.9719599526314
 10
118.7955404631193
 20
200.9828562936956
 10
118.7999184785132
 20
200.993034329766
 10
118.80343319378
 20
201.0023822154134
 10
118.8062056436052
 20
201.0108205021853
 10
118.8078619691491
 20
201.0164881128403
 10
118.8092314370397
 20
201.0216548929072
 10
118.8103625777065
 20
201.0263489279021
 10
118.8108220902892
 20
201.0283917315082
 10
118.811246238005
 20
201.0303593008533
 10
118.8117661741339
 20
201.0328933216389
 10
118.8124086298044
 20
201.0362427532566
 10
118.8131410956869
 20
201.0404265552637
 10
118.8140583367085
 20
201.0464168538408
 10
118.8147138293654
 20
201.051450725986
 10
118.8151999215073
 20
201.0558031415713
 10
118.8155967432255
 20
201.0599404214922
 10
118.816050733171
 20
201.0656826550618
 10
118.8163901488586
 20
201.0711444415503
 10
118.816612899126
 20
201.0756702396262
 10
118.8168186333043
 20
201.0810189526955
 10
118.8169681510714
 20
201.0861960704545
 10
118.8170648914143
 20
201.0906933455512
 10
118.8171550292145
 20
201.0968035844772
 10
118.8172026434042
 20
201.1024310178422
 10
118.8172175836358
 20
201.1059220439473
 10
118.817222529214
 20
201.1091442274853
 10
118.8172201909452
 20
201.1120928511528
 10
118.8172102900894
 20
201.1154192845834
 10
118.8171884497756
 20
201.1195141225654
 10
118.8171653811706
 20
201.1226190092355
 10
118.817142208947
 20
201.1252035288626
 10
118.8171206484209
 20
201.1273240889026
 10
118.8170944312351
 20
201.1296552787204
 10
118.8170609605375
 20
201.1323569743159
 10
118.8169955296624
 20
201.1370553840668
 10
118.8169069463465
 20
201.142649692965
 10
118.8167980841568
 20
201.1487894416787
 10
118.8166749785888
 20
201.1551243668576
 10
118.8165387394394
 20
201.1616502017844
 10
118.8163902464864
 20
201.1683645788139
 10
118.8162301123022
 20
201.1752673119409
 10
118.8159885541183
 20
201.1852069266715
 10
118.8157437887192
 20
201.1949268049567
 10
118.8155084261538
 20
201.2041952549834
 10
118.8152906934481
 20
201.2129749017392
 10
118.8151015724102
 20
201.2213798999209
 10
118.814916185626
 20
201.2306130662973
 10
118.8147576671408
 20
201.2404558163561
 10
118.8146180925504
 20
201.250941863263
 10
118.8144951016258
 20
201.2620593691391
 10
118.8143956120445
 20
201.273290449929
 10
118.814354153369
 20
201.2790374575886
 10
118.8143222082486
 20
201.284438735103
 10
118.8142976290117
 20
201.2894881726607
 10
118.8142777555085
 20
201.2942970134965
 10
118.8142610261158
 20
201.2990320899616
 10
118.8142439434558
 20
201.3049950016619
 10
118.8142293143734
 20
201.3121860264178
 10
118.8142259838695
 20
201.3156109905823
  0
LINE
  5
47F
330
1F
100
AcDbEntity
  8
3
  6
Continuous
100
AcDbLine
 10
118.5892211271869
 20
201.3206054191591
 30
0.0
 11
118.8091839080988
 21
201.3206054191591
 31
0.0
  0
LWPOLYLINE
  5
482
330
1F
100
AcDbEntity
  8
3
  6
Continuous
100
AcDbPolyline
 90
        9
 70
   128
 43
0.0
 10
118.809224609147
 20
201.3206054191579
 10
118.8101953678197
 20
201.3205102980965
 10
118.8111310117317
 20
201.320227760591
 10
118.8119938155746
 20
201.3197686020506
 10
118.8127508113581
 20
201.3191503670591
 10
118.8133730740491
 20
201.3183966785586
 10
118.8138368268059
 20
201.31753633521
 10
118.8141243494985
 20
201.3166022109872
 10
118.8142246557995
 20
201.3156299990535
  0
LINE
  5
483
330
1F
100
AcDbEntity
  8
3
  6
Continuous
100
AcDbLine
 10
118.5892211271869
 20
200.895605419159
 30
0.0
 11
118.7224359790741
 21
200.895605419159
 31
0.0
  0
LWPOLYLINE
  5
486
330
1F
100
AcDbEntity
  8
3
  6
Continuous
100
AcDbPolyline
 90
        9
 70
   128
 43
0.0
 10
118.7272619362842
 20
200.8972454557877
 10
118.726725900588
 20
200.8968700875576
 10
118.7261609795275
 20
200.8965397894143
 10
118.7255709533236
 20
200.8962567715781
 10
118.7249597701905
 20
200.8960229278887
 10
118.7243315199161
 20
200.8958398231325
 10
118.7236904064945
 20
200.8957086825716
 10
118.7230407199947
 20
200.8956303837453
 10
118.7223868078533
 20
200.8956054505972
  0
LINE
  5
C43
330
1F
100
AcDbEntity
  8
3
  6
Continuous
100
AcDbLine
 10
120.1100588078445
 20
201.3076635487136
 30
0.0
 11
120.1100588078445
 21
201.3156635487135
 31
0.0
  0
ARC
  5
C44
330
1F
100
AcDbEntity
  8
3
  6
Continuous
100
AcDbCircle
 10
120.1110588078445
 20
201.3076635487136
 30
0.0
 40
0.0010000000000008
100
AcDbArc
 50
180.0
 51
270.0
  0
ARC
  5
C46
330
1F
100
AcDbEntity
  8
3
  6
Continuous
100
AcDbCircle
 10
120.1110588078445
 20
201.3156635487135
 30
0.0
 40
0.0010000000000002
100
AcDbArc
 50
90.0
 51
180.0
  0
LINE
  5
C47
330
1F
100
AcDbEntity
  8
3
  6
Continuous
100
AcDbLine
 10
120.0750588078445
 20
201.3156635487135
 30
0.0
 11
120.0750588078445
 21
201.3076635487136
 31
0.0
  0
ARC
  5
C48
330
1F
100
AcDbEntity
  8
3
  6
Continuous
100
AcDbCircle
 10
120.0740588078445
 20
201.3076635487136
 30
0.0
 40
0.0010000000000008
100
AcDbArc
 50
270.0
 51
0.0
  0
ARC
  5
C49
330
1F
100
AcDbEntity
  8
3
  6
Continuous
100
AcDbCircle
 10
120.0740588078445
 20
201.3156635487135
 30
0.0
 40
0.0010000000000002
100
AcDbArc
 50
0.0
 51
90.0
  0
LINE
  5
C4D
330
1F
100
AcDbEntity
  8
3
  6
Continuous
100
AcDbLine
 10
120.0740588078445
 20
201.3066635487136
 30
0.0
 11
120.0736525970293
 21
201.3066635487136
 31
0.0
  0
ENDSEC
  0
SECTION
  2
OBJECTS
  0
DICTIONARY
  5
C
330
0
100
AcDbDictionary
281
     1
  3
ACAD_COLOR
350
C7D
  3
ACAD_GROUP
350
D
  3
ACAD_LAYOUT
350
1A
  3
ACAD_MATERIAL
350
C50
  3
ACAD_MLEADERSTYLE
350
C92
  3
ACAD_MLINESTYLE
350
17
  3
ACAD_PLOTSETTINGS
350
19
  3
ACAD_PLOTSTYLENAME
350
E
  3
ACAD_SCALELIST
350
C80
  3
ACAD_TABLESTYLE
350
C7E
  3
ACAD_VISUALSTYLE
350
C69
  3
ACDB_RECOMPOSE_DATA
350
CAC
  3
AcDbVariableDictionary
350
48C
  3
ASE_INDEX_DICTIONARY
350
488
  3
DWGPROPS
350
CAD
  0
DICTIONARY
  5
C96
330
10
100
AcDbDictionary
280
     1
281
     1
  3
ADSK_XREC_LAYER_RECONCILED
360
C97
  0
DICTIONARY
  5
C98
330
D3
100
AcDbDictionary
280
     1
281
     1
  3
ADSK_XREC_LAYER_RECONCILED
360
C99
  0
DICTIONARY
  5
C9A
330
D5
100
AcDbDictionary
280
     1
281
     1
  3
ADSK_XREC_LAYER_RECONCILED
360
C9B
  0
DICTIONARY
  5
C9C
330
D6
100
AcDbDictionary
280
     1
281
     1
  3
ADSK_XREC_LAYER_RECONCILED
360
C9D
  0
DICTIONARY
  5
C9E
330
D7
100
AcDbDictionary
280
     1
281
     1
  3
ADSK_XREC_LAYER_RECONCILED
360
C9F
  0
DICTIONARY
  5
CA0
330
D8
100
AcDbDictionary
280
     1
281
     1
  3
ADSK_XREC_LAYER_RECONCILED
360
CA1
  0
DICTIONARY
  5
CA2
330
D9
100
AcDbDictionary
280
     1
281
     1
  3
ADSK_XREC_LAYER_RECONCILED
360
CA3
  0
DICTIONARY
  5
C7D
102
{ACAD_REACTORS
330
C
102
}
330
C
100
AcDbDictionary
281
     1
  0
DICTIONARY
  5
D
102
{ACAD_REACTORS
330
C
102
}
330
C
100
AcDbDictionary
281
     1
  0
DICTIONARY
  5
1A
102
{ACAD_REACTORS
330
C
102
}
330
C
100
AcDbDictionary
281
     1
  3
Layout1
350
1E
  3
Layout2
350
26
  3
Model
350
22
  0
DICTIONARY
  5
C50
102
{ACAD_REACTORS
330
C
102
}
330
C
100
AcDbDictionary
281
     1
  3
ByBlock
350
C59
  3
ByLayer
350
C51
  3
Global
350
C61
  0
DICTIONARY
  5
C92
102
{ACAD_REACTORS
330
C
102
}
330
C
100
AcDbDictionary
281
     1
  3
Standard
350
C93
  0
DICTIONARY
  5
17
102
{ACAD_REACTORS
330
C
102
}
330
C
100
AcDbDictionary
281
     1
  3
Standard
350
18
  0
DICTIONARY
  5
19
102
{ACAD_REACTORS
330
C
102
}
330
C
100
AcDbDictionary
281
     1
  0
ACDBDICTIONARYWDFLT
  5
E
102
{ACAD_REACTORS
330
C
102
}
330
C
100
AcDbDictionary
281
     1
  3
Normal
350
F
100
AcDbDictionaryWithDefault
340
F
  0
DICTIONARY
  5
C80
102
{ACAD_REACTORS
330
C
102
}
330
C
100
AcDbDictionary
281
     1
  3
A0
350
C81
  3
A1
350
C82
  3
A2
350
C83
  3
A3
350
C84
  3
A4
350
C85
  3
A5
350
C86
  3
A6
350
C87
  3
A7
350
C88
  3
A8
350
C89
  3
A9
350
C8A
  3
B0
350
C8B
  3
B1
350
C8C
  3
B2
350
C8D
  3
B3
350
C8E
  3
B4
350
C8F
  3
B5
350
C90
  3
B6
350
C91
  0
DICTIONARY
  5
C7E
102
{ACAD_REACTORS
330
C
102
}
330
C
100
AcDbDictionary
281
     1
  3
Standard
350
C7F
  0
DICTIONARY
  5
C69
102
{ACAD_REACTORS
330
C
102
}
330
C
100
AcDbDictionary
281
     1
  3
2dWireframe
350
C6F
  3
3D Hidden
350
C71
  3
3dWireframe
350
C70
  3
Basic
350
C6E
  3
Brighten
350
C75
  3
ColorChange
350
C79
  3
Conceptual
350
C72
  3
Dim
350
C74
  3
EdgeColorOff
350
C7C
  3
Facepattern
350
C78
  3
Flat
350
C6A
  3
FlatWithEdges
350
C6B
  3
Gouraud
350
C6C
  3
GouraudWithEdges
350
C6D
  3
JitterOff
350
C7A
  3
Linepattern
350
C77
  3
OverhangOff
350
C7B
  3
Realistic
350
C73
  3
Thicken
350
C76
  0
XRECORD
  5
CAC
102
{ACAD_REACTORS
330
C
102
}
330
C
100
AcDbXrecord
280
     1
 90
        1
330
C7F
  0
DICTIONARY
  5
48C
102
{ACAD_REACTORS
330
C
102
}
330
C
100
AcDbDictionary
281
     1
  3
CANNOSCALE
350
CA6
  3
CMLEADERSTYLE
350
CA5
  3
CTABLESTYLE
350
CA4
  3
DIMASSOC
350
48E
  3
HIDETEXT
350
48D
  3
INDEXCTL
350
CA8
  3
SORTENTS
350
CA7
  3
XCLIPFRAME
350
CA9
  0
DICTIONARY
  5
488
102
{ACAD_REACTORS
330
C
102
}
330
C
100
AcDbDictionary
281
     1
  3
ASEBlockHierarchyIndexRecord
350
48A
1001
DCO15
1040
1471933475.375
  0
XRECORD
  5
CAD
102
{ACAD_REACTORS
330
C
102
}
330
C
100
AcDbXrecord
280
     1
  1
DWGPROPS COOKIE
  2

  3

  4

  6

  7

  8
Julio
  9

300
=
301
=
302
=
303
=
304
=
305
=
306
=
307
=
308
=
309
=
 40
0.0083711342592593
 41
2452838.6552275
 42
2456149.682384977
  1

 90
        0
  0
XRECORD
  5
C97
102
{ACAD_REACTORS
330
C96
102
}
330
C96
100
AcDbXrecord
280
     1
290
     1
  0
XRECORD
  5
C99
102
{ACAD_REACTORS
330
C98
102
}
330
C98
100
AcDbXrecord
280
     1
290
     1
  0
XRECORD
  5
C9B
102
{ACAD_REACTORS
330
C9A
102
}
330
C9A
100
AcDbXrecord
280
     1
290
     1
  0
XRECORD
  5
C9D
102
{ACAD_REACTORS
330
C9C
102
}
330
C9C
100
AcDbXrecord
280
     1
290
     1
  0
XRECORD
  5
C9F
102
{ACAD_REACTORS
330
C9E
102
}
330
C9E
100
AcDbXrecord
280
     1
290
     1
  0
XRECORD
  5
CA1
102
{ACAD_REACTORS
330
CA0
102
}
330
CA0
100
AcDbXrecord
280
     1
290
     1
  0
XRECORD
  5
CA3
102
{ACAD_REACTORS
330
CA2
102
}
330
CA2
100
AcDbXrecord
280
     1
290
     1
  0
LAYOUT
  5
1E
102
{ACAD_XDICTIONARY
360
CAE
102
}
102
{ACAD_REACTORS
330
1A
102
}
330
1A
100
AcDbPlotSettings
  1

  2
PLOTER 500
  4

  6

 40
0.0
 41
0.0
 42
0.0
 43
0.0
 44
0.0
 45
0.0
 46
0.0
 47
0.0
 48
0.0
 49
0.0
140
0.0
141
0.0
142
1.0
143
1.0
 70
   688
 72
     0
 73
     0
 74
     5
  7
monochrome.ctb
 75
    16
147
1.0
148
0.0
149
0.0
100
AcDbLayout
  1
Layout1
 70
     1
 71
     1
 10
0.0
 20
0.0
 11
420.0
 21
297.0
 12
0.0
 22
0.0
 32
0.0
 14
1.000000000000000E+20
 24
1.000000000000000E+20
 34
1.000000000000000E+20
 15
-1.000000000000000E+20
 25
-1.000000000000000E+20
 35
-1.000000000000000E+20
146
0.0
 13
0.0
 23
0.0
 33
0.0
 16
1.0
 26
0.0
 36
0.0
 17
0.0
 27
1.0
 37
0.0
 76
     0
330
1B
  0
LAYOUT
  5
26
102
{ACAD_XDICTIONARY
360
CB2
102
}
102
{ACAD_REACTORS
330
1A
102
}
330
1A
100
AcDbPlotSettings
  1

  2
PLOTER 500
  4

  6

 40
0.0
 41
0.0
 42
0.0
 43
0.0
 44
0.0
 45
0.0
 46
0.0
 47
0.0
 48
0.0
 49
0.0
140
0.0
141
0.0
142
1.0
143
1.0
 70
   688
 72
     0
 73
     0
 74
     5
  7
monochrome.ctb
 75
    16
147
1.0
148
0.0
149
0.0
100
AcDbLayout
  1
Layout2
 70
     1
 71
     2
 10
0.0
 20
0.0
 11
12.0
 21
9.0
 12
0.0
 22
0.0
 32
0.0
 14
0.0
 24
0.0
 34
0.0
 15
0.0
 25
0.0
 35
0.0
146
0.0
 13
0.0
 23
0.0
 33
0.0
 16
1.0
 26
0.0
 36
0.0
 17
0.0
 27
1.0
 37
0.0
 76
     0
330
23
  0
LAYOUT
  5
22
102
{ACAD_XDICTIONARY
360
CB0
102
}
102
{ACAD_REACTORS
330
1A
102
}
330
1A
100
AcDbPlotSettings
  1

  2
PLOTER 500
  4

  6

 40
0.0
 41
0.0
 42
0.0
 43
0.0
 44
0.0
 45
0.0
 46
0.0
 47
0.0
 48
0.0
 49
0.0
140
0.0
141
0.0
142
1.0
143
1.0
 70
  1712
 72
     0
 73
     0
 74
     0
  7
monochrome.ctb
 75
     0
147
1.0
148
0.0
149
0.0
100
AcDbLayout
  1
Model
 70
     1
 71
     0
 10
0.0
 20
0.0
 11
12.0
 21
9.0
 12
0.0
 22
0.0
 32
0.0
 14
0.0
 24
0.0
 34
0.0
 15
0.0
 25
0.0
 35
0.0
146
0.0
 13
0.0
 23
0.0
 33
0.0
 16
1.0
 26
0.0
 36
0.0
 17
0.0
 27
1.0
 37
0.0
 76
     0
330
1F
331
C4E
  0
MATERIAL
  5
C59
102
{ACAD_XDICTIONARY
360
C5A
102
}
102
{ACAD_REACTORS
330
C50
102
}
330
C50
100
AcDbMaterial
  1
ByBlock
 72
     0
 43
0.0008202099737533
 43
0.0
 43
0.0
 43
0.0
 43
0.0
 43
0.0008202099737533
 43
0.0
 43
0.0
 43
0.0
 43
0.0
 43
1.0
 43
0.0
 43
0.0
 43
0.0
 43
0.0
 43
1.0
 77
     0
 47
0.0008202099737533
 47
0.0
 47
0.0
 47
0.0
 47
0.0
 47
0.0008202099737533
 47
0.0
 47
0.0
 47
0.0
 47
0.0
 47
1.0
 47
0.0
 47
0.0
 47
0.0
 47
0.0
 47
1.0
171
     0
 49
0.0008202099737533
 49
0.0
 49
0.0
 49
0.0
 49
0.0
 49
0.0008202099737533
 49
0.0
 49
0.0
 49
0.0
 49
0.0
 49
1.0
 49
0.0
 49
0.0
 49
0.0
 49
0.0
 49
1.0
175
     0
142
0.0008202099737533
142
0.0
142
0.0
142
0.0
142
0.0
142
0.0008202099737533
142
0.0
142
0.0
142
0.0
142
0.0
142
1.0
142
0.0
142
0.0
142
0.0
142
0.0
142
1.0
179
     0
144
0.0008202099737533
144
0.0
144
0.0
144
0.0
144
0.0
144
0.0008202099737533
144
0.0
144
0.0
144
0.0
144
0.0
144
1.0
144
0.0
144
0.0
144
0.0
144
0.0
144
1.0
147
0.0008202099737533
147
0.0
147
0.0
147
0.0
147
0.0
147
0.0008202099737533
147
0.0
147
0.0
147
0.0
147
0.0
147
1.0
147
0.0
147
0.0
147
0.0
147
0.0
147
1.0
  0
MATERIAL
  5
C51
102
{ACAD_XDICTIONARY
360
C52
102
}
102
{ACAD_REACTORS
330
C50
102
}
330
C50
100
AcDbMaterial
  1
ByLayer
 72
     0
 43
0.0008202099737533
 43
0.0
 43
0.0
 43
0.0
 43
0.0
 43
0.0008202099737533
 43
0.0
 43
0.0
 43
0.0
 43
0.0
 43
1.0
 43
0.0
 43
0.0
 43
0.0
 43
0.0
 43
1.0
 77
     0
 47
0.0008202099737533
 47
0.0
 47
0.0
 47
0.0
 47
0.0
 47
0.0008202099737533
 47
0.0
 47
0.0
 47
0.0
 47
0.0
 47
1.0
 47
0.0
 47
0.0
 47
0.0
 47
0.0
 47
1.0
171
     0
 49
0.0008202099737533
 49
0.0
 49
0.0
 49
0.0
 49
0.0
 49
0.0008202099737533
 49
0.0
 49
0.0
 49
0.0
 49
0.0
 49
1.0
 49
0.0
 49
0.0
 49
0.0
 49
0.0
 49
1.0
175
     0
142
0.0008202099737533
142
0.0
142
0.0
142
0.0
142
0.0
142
0.0008202099737533
142
0.0
142
0.0
142
0.0
142
0.0
142
1.0
142
0.0
142
0.0
142
0.0
142
0.0
142
1.0
179
     0
144
0.0008202099737533
144
0.0
144
0.0
144
0.0
144
0.0
144
0.0008202099737533
144
0.0
144
0.0
144
0.0
144
0.0
144
1.0
144
0.0
144
0.0
144
0.0
144
0.0
144
1.0
147
0.0008202099737533
147
0.0
147
0.0
147
0.0
147
0.0
147
0.0008202099737533
147
0.0
147
0.0
147
0.0
147
0.0
147
1.0
147
0.0
147
0.0
147
0.0
147
0.0
147
1.0
  0
MATERIAL
  5
C61
102
{ACAD_XDICTIONARY
360
C62
102
}
102
{ACAD_REACTORS
330
C50
102
}
330
C50
100
AcDbMaterial
  1
Global
 72
     0
 43
0.0008202099737533
 43
0.0
 43
0.0
 43
0.0
 43
0.0
 43
0.0008202099737533
 43
0.0
 43
0.0
 43
0.0
 43
0.0
 43
1.0
 43
0.0
 43
0.0
 43
0.0
 43
0.0
 43
1.0
 77
     0
 47
0.0008202099737533
 47
0.0
 47
0.0
 47
0.0
 47
0.0
 47
0.0008202099737533
 47
0.0
 47
0.0
 47
0.0
 47
0.0
 47
1.0
 47
0.0
 47
0.0
 47
0.0
 47
0.0
 47
1.0
171
     0
 49
0.0008202099737533
 49
0.0
 49
0.0
 49
0.0
 49
0.0
 49
0.0008202099737533
 49
0.0
 49
0.0
 49
0.0
 49
0.0
 49
1.0
 49
0.0
 49
0.0
 49
0.0
 49
0.0
 49
1.0
175
     0
142
0.0008202099737533
142
0.0
142
0.0
142
0.0
142
0.0
142
0.0008202099737533
142
0.0
142
0.0
142
0.0
142
0.0
142
1.0
142
0.0
142
0.0
142
0.0
142
0.0
142
1.0
179
     0
144
0.0008202099737533
144
0.0
144
0.0
144
0.0
144
0.0
144
0.0008202099737533
144
0.0
144
0.0
144
0.0
144
0.0
144
1.0
144
0.0
144
0.0
144
0.0
144
0.0
144
1.0
147
0.0008202099737533
147
0.0
147
0.0
147
0.0
147
0.0
147
0.0008202099737533
147
0.0
147
0.0
147
0.0
147
0.0
147
1.0
147
0.0
147
0.0
147
0.0
147
0.0
147
1.0
  0
MLEADERSTYLE
  5
C93
102
{ACAD_REACTORS
330
C92
102
}
330
C92
100
AcDbMLeaderStyle
170
     2
171
     1
172
     0
 90
        2
 40
0.0
 41
0.0
173
     1
 91
-1056964608
340
14
 92
       -2
290
     1
 42
2.0
291
     1
 43
0.36
  3
Standard
 44
4.0
300

342
11
174
     1
178
     6
175
     1
176
     0
 93
-1056964608
 45
4.0
292
     0
297
     0
 46
4.0
 94
-1056964608
 47
1.0
 49
1.0
140
1.0
293
     1
141
0.0
294
     1
177
     0
142
1.0
295
     0
296
     0
143
0.125
1001
ACAD_MLEADERVER
1070
     2
  0
MLINESTYLE
  5
18
102
{ACAD_REACTORS
330
17
102
}
330
17
100
AcDbMlineStyle
  2
STANDARD
 70
     0
  3

 62
   256
 51
90.0
 52
90.0
 71
     2
 49
0.5
 62
   256
  6
BYLAYER
 49
-0.5
 62
   256
  6
BYLAYER
  0
ACDBPLACEHOLDER
  5
F
102
{ACAD_REACTORS
330
E
102
}
330
E
  0
SCALE
  5
C81
102
{ACAD_REACTORS
330
C80
102
}
330
C80
100
AcDbScale
 70
     0
300
1:1
140
1.0
141
1.0
290
     1
  0
SCALE
  5
C82
102
{ACAD_REACTORS
330
C80
102
}
330
C80
100
AcDbScale
 70
     0
300
1:2
140
1.0
141
2.0
290
     0
  0
SCALE
  5
C83
102
{ACAD_REACTORS
330
C80
102
}
330
C80
100
AcDbScale
 70
     0
300
1:4
140
1.0
141
4.0
290
     0
  0
SCALE
  5
C84
102
{ACAD_REACTORS
330
C80
102
}
330
C80
100
AcDbScale
 70
     0
300
1:5
140
1.0
141
5.0
290
     0
  0
SCALE
  5
C85
102
{ACAD_REACTORS
330
C80
102
}
330
C80
100
AcDbScale
 70
     0
300
1:8
140
1.0
141
8.0
290
     0
  0
SCALE
  5
C86
102
{ACAD_REACTORS
330
C80
102
}
330
C80
100
AcDbScale
 70
     0
300
1:10
140
1.0
141
10.0
290
     0
  0
SCALE
  5
C87
102
{ACAD_REACTORS
330
C80
102
}
330
C80
100
AcDbScale
 70
     0
300
1:16
140
1.0
141
16.0
290
     0
  0
SCALE
  5
C88
102
{ACAD_REACTORS
330
C80
102
}
330
C80
100
AcDbScale
 70
     0
300
1:20
140
1.0
141
20.0
290
     0
  0
SCALE
  5
C89
102
{ACAD_REACTORS
330
C80
102
}
330
C80
100
AcDbScale
 70
     0
300
1:30
140
1.0
141
30.0
290
     0
  0
SCALE
  5
C8A
102
{ACAD_REACTORS
330
C80
102
}
330
C80
100
AcDbScale
 70
     0
300
1:40
140
1.0
141
40.0
290
     0
  0
SCALE
  5
C8B
102
{ACAD_REACTORS
330
C80
102
}
330
C80
100
AcDbScale
 70
     0
300
1:50
140
1.0
141
50.0
290
     0
  0
SCALE
  5
C8C
102
{ACAD_REACTORS
330
C80
102
}
330
C80
100
AcDbScale
 70
     0
300
1:100
140
1.0
141
100.0
290
     0
  0
SCALE
  5
C8D
102
{ACAD_REACTORS
330
C80
102
}
330
C80
100
AcDbScale
 70
     0
300
2:1
140
2.0
141
1.0
290
     0
  0
SCALE
  5
C8E
102
{ACAD_REACTORS
330
C80
102
}
330
C80
100
AcDbScale
 70
     0
300
4:1
140
4.0
141
1.0
290
     0
  0
SCALE
  5
C8F
102
{ACAD_REACTORS
330
C80
102
}
330
C80
100
AcDbScale
 70
     0
300
8:1
140
8.0
141
1.0
290
     0
  0
SCALE
  5
C90
102
{ACAD_REACTORS
330
C80
102
}
330
C80
100
AcDbScale
 70
     0
300
10:1
140
10.0
141
1.0
290
     0
  0
SCALE
  5
C91
102
{ACAD_REACTORS
330
C80
102
}
330
C80
100
AcDbScale
 70
     0
300
100:1
140
100.0
141
1.0
290
     0
  0
TABLESTYLE
  5
C7F
102
{ACAD_XDICTIONARY
360
CAA
102
}
102
{ACAD_REACTORS
330
C7E
102
}
330
C7E
100
AcDbTableStyle
  3
Standard
 70
     0
 71
     0
 40
1.5
 41
1.5
280
     0
281
     0
  7
Standard
140
4.5
170
     2
 62
     0
 63
     7
283
     0
274
    -2
284
     1
 64
     0
275
    -2
285
     1
 65
     0
276
    -2
286
     1
 66
     0
277
    -2
287
     1
 67
     0
278
    -2
288
     1
 68
     0
279
    -2
289
     1
 69
     0
  7
Standard
140
6.0
170
     5
 62
     0
 63
     7
283
     0
274
    -2
284
     1
 64
     0
275
    -2
285
     1
 65
     0
276
    -2
286
     1
 66
     0
277
    -2
287
     1
 67
     0
278
    -2
288
     1
 68
     0
279
    -2
289
     1
 69
     0
  7
Standard
140
4.5
170
     5
 62
     0
 63
     7
283
     0
274
    -2
284
     1
 64
     0
275
    -2
285
     1
 65
     0
276
    -2
286
     1
 66
     0
277
    -2
287
     1
 67
     0
278
    -2
288
     1
 68
     0
279
    -2
289
     1
 69
     0
  0
VISUALSTYLE
  5
C6F
102
{ACAD_XDICTIONARY
360
CC1
102
}
102
{ACAD_REACTORS
330
C69
102
}
330
C69
100
AcDbVisualStyle
  2
2dWireframe
 70
     4
 71
     0
 72
     2
 73
     0
 90
        0
 40
-0.6
 41
-30.0
 62
     5
 63
     7
 74
     1
 91
        4
 64
     7
 65
   257
 75
     1
175
     1
 42
1.0
 92
        0
 66
   257
 43
1.0
 76
     1
 77
     6
 78
     2
 67
     7
 79
     5
170
     0
171
     0
290
     0
174
     0
 93
        1
 44
0.0
173
     0
291
     0
 45
0.0
1001
ACAD
1000
AcDbSavedByObjectVersion
1070
     0
  0
VISUALSTYLE
  5
C71
102
{ACAD_XDICTIONARY
360
CC5
102
}
102
{ACAD_REACTORS
330
C69
102
}
330
C69
100
AcDbVisualStyle
  2
3D Hidden
 70
     6
 71
     1
 72
     2
 73
     2
 90
        0
 40
-0.6
 41
-30.0
 62
     5
 63
     7
 74
     2
 91
        2
 64
     7
 65
   257
 75
     2
175
     1
 42
179.0
 92
        0
 66
   257
 43
1.0
 76
     1
 77
     6
 78
     2
 67
     7
 79
     3
170
     0
171
     0
290
     0
174
     0
 93
        1
 44
0.0
173
     0
291
     0
 45
0.0
1001
ACAD
1000
AcDbSavedByObjectVersion
1070
     0
  0
VISUALSTYLE
  5
C70
102
{ACAD_XDICTIONARY
360
CC3
102
}
102
{ACAD_REACTORS
330
C69
102
}
330
C69
100
AcDbVisualStyle
  2
3dWireframe
 70
     5
 71
     0
 72
     2
 73
     0
 90
        0
 40
-0.6
 41
-30.0
 62
     5
 63
     7
 74
     1
 91
        4
 64
     7
 65
   257
 75
     1
175
     1
 42
1.0
 92
        0
 66
   257
 43
1.0
 76
     1
 77
     6
 78
     2
 67
     7
 79
     5
170
     0
171
     0
290
     0
174
     0
 93
        1
 44
0.0
173
     0
291
     0
 45
0.0
1001
ACAD
1000
AcDbSavedByObjectVersion
1070
     0
  0
VISUALSTYLE
  5
C6E
102
{ACAD_XDICTIONARY
360
CBF
102
}
102
{ACAD_REACTORS
330
C69
102
}
330
C69
100
AcDbVisualStyle
  2
Basic
 70
     7
 71
     1
 72
     0
 73
     1
 90
        0
 40
-0.6
 41
-30.0
 62
     5
 63
     7
 74
     0
 91
        4
 64
     7
 65
   257
 75
     1
175
     1
 42
1.0
 92
        8
 66
     7
 43
1.0
 76
     1
 77
     6
 78
     2
 67
     7
 79
     5
170
     0
171
     0
290
     0
174
     0
 93
        1
 44
0.0
173
     0
291
     1
 45
0.0
1001
ACAD
1000
AcDbSavedByObjectVersion
1070
     0
  0
VISUALSTYLE
  5
C75
102
{ACAD_XDICTIONARY
360
CCD
102
}
102
{ACAD_REACTORS
330
C69
102
}
330
C69
100
AcDbVisualStyle
  2
Brighten
 70
    12
 71
     2
 72
     2
 73
     0
 90
        0
 40
-0.6
 41
-30.0
 62
     5
 63
     7
 74
     1
 91
        4
 64
     7
 65
   257
 75
     1
175
     1
 42
1.0
 92
        8
 66
     7
 43
1.0
 76
     1
 77
     6
 78
     2
 67
     7
 79
     5
170
     0
171
     0
290
     0
174
     0
 93
        1
 44
50.0
173
     0
291
     1
 45
0.0
1001
ACAD
1000
AcDbSavedByObjectVersion
1070
     0
  0
VISUALSTYLE
  5
C79
102
{ACAD_XDICTIONARY
360
CD5
102
}
102
{ACAD_REACTORS
330
C69
102
}
330
C69
100
AcDbVisualStyle
  2
ColorChange
 70
    16
 71
     2
 72
     2
 73
     3
 90
        0
 40
-0.6
 41
-30.0
 62
     5
 63
     8
 74
     1
 91
        4
 64
     7
 65
   257
 75
     1
175
     1
 42
1.0
 92
        8
 66
     8
 43
1.0
 76
     1
 77
     6
 78
     2
 67
     7
 79
     5
170
     0
171
     0
290
     0
174
     0
 93
        1
 44
0.0
173
     0
291
     1
 45
0.0
1001
ACAD
1000
AcDbSavedByObjectVersion
1070
     0
  0
VISUALSTYLE
  5
C72
102
{ACAD_XDICTIONARY
360
CC7
102
}
102
{ACAD_REACTORS
330
C69
102
}
330
C69
100
AcDbVisualStyle
  2
Conceptual
 70
     9
 71
     3
 72
     2
 73
     0
 90
        0
 40
-0.6
 41
-30.0
 62
     5
 63
     7
 74
     2
 91
        2
 64
     7
 65
   257
 75
     1
175
     1
 42
179.0
 92
        8
 66
     7
 43
1.0
 76
     1
 77
     6
 78
     2
 67
     7
 79
     3
170
     0
171
     0
290
     0
174
     0
 93
        1
 44
0.0
173
     0
291
     0
 45
0.0
1001
ACAD
1000
AcDbSavedByObjectVersion
1070
     0
  0
VISUALSTYLE
  5
C74
102
{ACAD_XDICTIONARY
360
CCB
102
}
102
{ACAD_REACTORS
330
C69
102
}
330
C69
100
AcDbVisualStyle
  2
Dim
 70
    11
 71
     2
 72
     2
 73
     0
 90
        0
 40
-0.6
 41
-30.0
 62
     5
 63
     7
 74
     1
 91
        4
 64
     7
 65
   257
 75
     1
175
     1
 42
1.0
 92
        8
 66
     7
 43
1.0
 76
     1
 77
     6
 78
     2
 67
     7
 79
     5
170
     0
171
     0
290
     0
174
     0
 93
        1
 44
-50.0
173
     0
291
     1
 45
0.0
1001
ACAD
1000
AcDbSavedByObjectVersion
1070
     0
  0
VISUALSTYLE
  5
C7C
102
{ACAD_XDICTIONARY
360
CDB
102
}
102
{ACAD_REACTORS
330
C69
102
}
330
C69
100
AcDbVisualStyle
  2
EdgeColorOff
 70
    22
 71
     2
 72
     2
 73
     0
 90
        0
 40
-0.6
 41
-30.0
 62
     5
 63
     7
 74
     1
 91
        4
 64
     7
 65
   257
 75
     1
175
     1
 42
1.0
 92
        8
 66
     7
 43
1.0
 76
     1
 77
     6
 78
     2
 67
     7
 79
     5
170
     0
171
     0
290
     0
174
     0
 93
        1
 44
0.0
173
     0
291
     1
 45
0.0
1001
ACAD
1000
AcDbSavedByObjectVersion
1070
     0
  0
VISUALSTYLE
  5
C78
102
{ACAD_XDICTIONARY
360
CD3
102
}
102
{ACAD_REACTORS
330
C69
102
}
330
C69
100
AcDbVisualStyle
  2
Facepattern
 70
    15
 71
     2
 72
     2
 73
     0
 90
        0
 40
-0.6
 41
-30.0
 62
     5
 63
     7
 74
     1
 91
        4
 64
     7
 65
   257
 75
     1
175
     1
 42
1.0
 92
        8
 66
     7
 43
1.0
 76
     1
 77
     6
 78
     2
 67
     7
 79
     5
170
     0
171
     0
290
     0
174
     0
 93
        1
 44
0.0
173
     0
291
     1
 45
0.0
1001
ACAD
1000
AcDbSavedByObjectVersion
1070
     0
  0
VISUALSTYLE
  5
C6A
102
{ACAD_XDICTIONARY
360
CB7
102
}
102
{ACAD_REACTORS
330
C69
102
}
330
C69
100
AcDbVisualStyle
  2
Flat
 70
     0
 71
     2
 72
     1
 73
     1
 90
        2
 40
-0.6
 41
30.0
 62
     5
 63
     7
 74
     0
 91
        4
 64
     7
 65
   257
 75
     1
175
     1
 42
1.0
 92
        8
 66
     7
 43
1.0
 76
     1
 77
     6
 78
     2
 67
     7
 79
     5
170
     0
171
     0
290
     0
174
     0
 93
       13
 44
0.0
173
     0
291
     1
 45
0.0
1001
ACAD
1000
AcDbSavedByObjectVersion
1070
     0
  0
VISUALSTYLE
  5
C6B
102
{ACAD_XDICTIONARY
360
CB9
102
}
102
{ACAD_REACTORS
330
C69
102
}
330
C69
100
AcDbVisualStyle
  2
FlatWithEdges
 70
     1
 71
     2
 72
     1
 73
     1
 90
        2
 40
-0.6
 41
30.0
 62
     5
 63
     7
 74
     1
 91
        4
 64
     7
 65
   257
 75
     1
175
     1
 42
1.0
 92
        0
 66
   257
 43
1.0
 76
     1
 77
     6
 78
     2
 67
     7
 79
     5
170
     0
171
     0
290
     0
174
     0
 93
       13
 44
0.0
173
     0
291
     1
 45
0.0
1001
ACAD
1000
AcDbSavedByObjectVersion
1070
     0
  0
VISUALSTYLE
  5
C6C
102
{ACAD_XDICTIONARY
360
CBB
102
}
102
{ACAD_REACTORS
330
C69
102
}
330
C69
100
AcDbVisualStyle
  2
Gouraud
 70
     2
 71
     2
 72
     2
 73
     1
 90
        2
 40
-0.6
 41
30.0
 62
     5
 63
     7
 74
     0
 91
        4
 64
     7
 65
   257
 75
     1
175
     1
 42
1.0
 92
        0
 66
     7
 43
1.0
 76
     1
 77
     6
 78
     2
 67
     7
 79
     5
170
     0
171
     0
290
     0
174
     0
 93
       13
 44
0.0
173
     0
291
     1
 45
0.0
1001
ACAD
1000
AcDbSavedByObjectVersion
1070
     0
  0
VISUALSTYLE
  5
C6D
102
{ACAD_XDICTIONARY
360
CBD
102
}
102
{ACAD_REACTORS
330
C69
102
}
330
C69
100
AcDbVisualStyle
  2
GouraudWithEdges
 70
     3
 71
     2
 72
     2
 73
     1
 90
        2
 40
-0.6
 41
30.0
 62
     5
 63
     7
 74
     1
 91
        4
 64
     7
 65
   257
 75
     1
175
     1
 42
1.0
 92
        0
 66
   257
 43
1.0
 76
     1
 77
     6
 78
     2
 67
     7
 79
     5
170
     0
171
     0
290
     0
174
     0
 93
       13
 44
0.0
173
     0
291
     1
 45
0.0
1001
ACAD
1000
AcDbSavedByObjectVersion
1070
     0
  0
VISUALSTYLE
  5
C7A
102
{ACAD_XDICTIONARY
360
CD7
102
}
102
{ACAD_REACTORS
330
C69
102
}
330
C69
100
AcDbVisualStyle
  2
JitterOff
 70
    20
 71
     2
 72
     2
 73
     0
 90
        0
 40
-0.6
 41
-30.0
 62
     5
 63
     7
 74
     1
 91
        4
 64
     7
 65
   257
 75
     1
175
     1
 42
1.0
 92
       10
 66
     7
 43
1.0
 76
     1
 77
     6
 78
     2
 67
     7
 79
     5
170
     0
171
     0
290
     0
174
     0
 93
        1
 44
0.0
173
     0
291
     1
 45
0.0
1001
ACAD
1000
AcDbSavedByObjectVersion
1070
     0
  0
VISUALSTYLE
  5
C77
102
{ACAD_XDICTIONARY
360
CD1
102
}
102
{ACAD_REACTORS
330
C69
102
}
330
C69
100
AcDbVisualStyle
  2
Linepattern
 70
    14
 71
     2
 72
     2
 73
     0
 90
        0
 40
-0.6
 41
-30.0
 62
     5
 63
     7
 74
     1
 91
        4
 64
     7
 65
   257
 75
     7
175
     7
 42
1.0
 92
        8
 66
     7
 43
1.0
 76
     1
 77
     6
 78
     2
 67
     7
 79
     5
170
     0
171
     0
290
     0
174
     0
 93
        1
 44
0.0
173
     0
291
     1
 45
0.0
1001
ACAD
1000
AcDbSavedByObjectVersion
1070
     0
  0
VISUALSTYLE
  5
C7B
102
{ACAD_XDICTIONARY
360
CD9
102
}
102
{ACAD_REACTORS
330
C69
102
}
330
C69
100
AcDbVisualStyle
  2
OverhangOff
 70
    21
 71
     2
 72
     2
 73
     0
 90
        0
 40
-0.6
 41
-30.0
 62
     5
 63
     7
 74
     1
 91
        4
 64
     7
 65
   257
 75
     1
175
     1
 42
1.0
 92
        9
 66
     7
 43
1.0
 76
     1
 77
     6
 78
     2
 67
     7
 79
     5
170
     0
171
     0
290
     0
174
     0
 93
        1
 44
0.0
173
     0
291
     1
 45
0.0
1001
ACAD
1000
AcDbSavedByObjectVersion
1070
     0
  0
VISUALSTYLE
  5
C73
102
{ACAD_XDICTIONARY
360
CC9
102
}
102
{ACAD_REACTORS
330
C69
102
}
330
C69
100
AcDbVisualStyle
  2
Realistic
 70
     8
 71
     2
 72
     2
 73
     0
 90
        0
 40
-0.6
 41
-30.0
 62
     5
 63
     7
 74
     1
 91
        0
 64
     7
 65
   257
 75
     1
175
     1
 42
1.0
 92
        8
 66
     8
 43
1.0
 76
     1
 77
     6
 78
     2
 67
     7
 79
     5
170
     0
171
     0
290
     0
174
     0
 93
       13
 44
0.0
173
     0
291
     0
 45
0.0
1001
ACAD
1000
AcDbSavedByObjectVersion
1070
     0
  0
VISUALSTYLE
  5
C76
102
{ACAD_XDICTIONARY
360
CCF
102
}
102
{ACAD_REACTORS
330
C69
102
}
330
C69
100
AcDbVisualStyle
  2
Thicken
 70
    13
 71
     2
 72
     2
 73
     0
 90
        0
 40
-0.6
 41
-30.0
 62
     5
 63
     7
 74
     1
 91
        4
 64
     7
 65
   257
 75
     1
175
     1
 42
1.0
 92
       12
 66
     7
 43
1.0
 76
     1
 77
     6
 78
     2
 67
     7
 79
     5
170
     0
171
     0
290
     0
174
     0
 93
        1
 44
0.0
173
     0
291
     1
 45
0.0
1001
ACAD
1000
AcDbSavedByObjectVersion
1070
     0
  0
DICTIONARYVAR
  5
CA6
102
{ACAD_REACTORS
330
48C
102
}
330
48C
100
DictionaryVariables
280
     0
  1
1:1
  0
DICTIONARYVAR
  5
CA5
102
{ACAD_REACTORS
330
48C
102
}
330
48C
100
DictionaryVariables
280
     0
  1
STANDARD
  0
DICTIONARYVAR
  5
CA4
102
{ACAD_REACTORS
330
48C
102
}
330
48C
100
DictionaryVariables
280
     0
  1
STANDARD
  0
DICTIONARYVAR
  5
48E
102
{ACAD_REACTORS
330
48C
102
}
330
48C
100
DictionaryVariables
280
     0
  1
2
  0
DICTIONARYVAR
  5
48D
102
{ACAD_REACTORS
330
48C
102
}
330
48C
100
DictionaryVariables
280
     0
  1
1
  0
DICTIONARYVAR
  5
CA8
102
{ACAD_REACTORS
330
48C
102
}
330
48C
100
DictionaryVariables
280
     0
  1
0
  0
DICTIONARYVAR
  5
CA7
102
{ACAD_REACTORS
330
48C
102
}
330
48C
100
DictionaryVariables
280
     0
  1
127
  0
DICTIONARYVAR
  5
CA9
102
{ACAD_REACTORS
330
48C
102
}
330
48C
100
DictionaryVariables
280
     0
  1
2
  0
XRECORD
  5
48A
102
{ACAD_REACTORS
330
488
102
}
330
488
100
AcDbXrecord
280
     1
  0
DICTIONARY
  5
CAE
330
1E
100
AcDbDictionary
280
     1
281
     1
  3
ACAD_XREC_ROUNDTRIP
360
CAF
  0
DICTIONARY
  5
CB2
330
26
100
AcDbDictionary
280
     1
281
     1
  3
ACAD_XREC_ROUNDTRIP
360
CB3
  0
DICTIONARY
  5
CB0
330
22
100
AcDbDictionary
280
     1
281
     1
  3
ACAD_XREC_ROUNDTRIP
360
CB1
  0
DICTIONARY
  5
C5A
330
C59
100
AcDbDictionary
280
     1
281
     1
  3
ACAD_XREC_ROUNDTRIP
360
CB5
  3
BUMPTILE
360
C5C
  3
DIFFUSETILE
360
C5B
  3
OPACITYTILE
360
C5F
  3
REFLECTIONTILE
360
C5E
  3
REFRACTIONTILE
360
C60
  3
SPECULARTILE
360
C5D
  0
DICTIONARY
  5
C52
330
C51
100
AcDbDictionary
280
     1
281
     1
  3
ACAD_XREC_ROUNDTRIP
360
CB4
  3
BUMPTILE
360
C54
  3
DIFFUSETILE
360
C53
  3
OPACITYTILE
360
C57
  3
REFLECTIONTILE
360
C56
  3
REFRACTIONTILE
360
C58
  3
SPECULARTILE
360
C55
  0
DICTIONARY
  5
C62
330
C61
100
AcDbDictionary
280
     1
281
     1
  3
ACAD_XREC_ROUNDTRIP
360
CB6
  3
BUMPTILE
360
C64
  3
DIFFUSETILE
360
C63
  3
OPACITYTILE
360
C67
  3
REFLECTIONTILE
360
C66
  3
REFRACTIONTILE
360
C68
  3
SPECULARTILE
360
C65
  0
DICTIONARY
  5
CAA
330
C7F
100
AcDbDictionary
280
     1
281
     1
  3
ACAD_ROUNDTRIP_2008_TABLESTYLE_CELLSTYLEMAP
360
CAB
  3
ACAD_XREC_ROUNDTRIP
360
CDD
  0
DICTIONARY
  5
CC1
330
C6F
100
AcDbDictionary
280
     1
281
     1
  3
ACAD_XREC_ROUNDTRIP
360
CC2
  0
DICTIONARY
  5
CC5
330
C71
100
AcDbDictionary
280
     1
281
     1
  3
ACAD_XREC_ROUNDTRIP
360
CC6
  0
DICTIONARY
  5
CC3
330
C70
100
AcDbDictionary
280
     1
281
     1
  3
ACAD_XREC_ROUNDTRIP
360
CC4
  0
DICTIONARY
  5
CBF
330
C6E
100
AcDbDictionary
280
     1
281
     1
  3
ACAD_XREC_ROUNDTRIP
360
CC0
  0
DICTIONARY
  5
CCD
330
C75
100
AcDbDictionary
280
     1
281
     1
  3
ACAD_XREC_ROUNDTRIP
360
CCE
  0
DICTIONARY
  5
CD5
330
C79
100
AcDbDictionary
280
     1
281
     1
  3
ACAD_XREC_ROUNDTRIP
360
CD6
  0
DICTIONARY
  5
CC7
330
C72
100
AcDbDictionary
280
     1
281
     1
  3
ACAD_XREC_ROUNDTRIP
360
CC8
  0
DICTIONARY
  5
CCB
330
C74
100
AcDbDictionary
280
     1
281
     1
  3
ACAD_XREC_ROUNDTRIP
360
CCC
  0
DICTIONARY
  5
CDB
330
C7C
100
AcDbDictionary
280
     1
281
     1
  3
ACAD_XREC_ROUNDTRIP
360
CDC
  0
DICTIONARY
  5
CD3
330
C78
100
AcDbDictionary
280
     1
281
     1
  3
ACAD_XREC_ROUNDTRIP
360
CD4
  0
DICTIONARY
  5
CB7
330
C6A
100
AcDbDictionary
280
     1
281
     1
  3
ACAD_XREC_ROUNDTRIP
360
CB8
  0
DICTIONARY
  5
CB9
330
C6B
100
AcDbDictionary
280
     1
281
     1
  3
ACAD_XREC_ROUNDTRIP
360
CBA
  0
DICTIONARY
  5
CBB
330
C6C
100
AcDbDictionary
280
     1
281
     1
  3
ACAD_XREC_ROUNDTRIP
360
CBC
  0
DICTIONARY
  5
CBD
330
C6D
100
AcDbDictionary
280
     1
281
     1
  3
ACAD_XREC_ROUNDTRIP
360
CBE
  0
DICTIONARY
  5
CD7
330
C7A
100
AcDbDictionary
280
     1
281
     1
  3
ACAD_XREC_ROUNDTRIP
360
CD8
  0
DICTIONARY
  5
CD1
330
C77
100
AcDbDictionary
280
     1
281
     1
  3
ACAD_XREC_ROUNDTRIP
360
CD2
  0
DICTIONARY
  5
CD9
330
C7B
100
AcDbDictionary
280
     1
281
     1
  3
ACAD_XREC_ROUNDTRIP
360
CDA
  0
DICTIONARY
  5
CC9
330
C73
100
AcDbDictionary
280
     1
281
     1
  3
ACAD_XREC_ROUNDTRIP
360
CCA
  0
DICTIONARY
  5
CCF
330
C76
100
AcDbDictionary
280
     1
281
     1
  3
ACAD_XREC_ROUNDTRIP
360
CD0
  0
XRECORD
  5
CAF
102
{ACAD_REACTORS
330
CAE
102
}
330
CAE
100
AcDbXrecord
280
     1
102
SHADEPLOT
 70
     0
102
SHADEPLOTRESLEVEL
 70
     2
102
SHADEPLOTCUSTOMDPI
 70
   300
  0
XRECORD
  5
CB3
102
{ACAD_REACTORS
330
CB2
102
}
330
CB2
100
AcDbXrecord
280
     1
102
SHADEPLOT
 70
     0
102
SHADEPLOTRESLEVEL
 70
     2
102
SHADEPLOTCUSTOMDPI
 70
   300
  0
XRECORD
  5
CB1
102
{ACAD_REACTORS
330
CB0
102
}
330
CB0
100
AcDbXrecord
280
     1
102
SHADEPLOT
 70
     0
102
SHADEPLOTRESLEVEL
 70
     2
102
SHADEPLOTCUSTOMDPI
 70
   300
  0
XRECORD
  5
CB5
102
{ACAD_REACTORS
330
C5A
102
}
330
C5A
100
AcDbXrecord
280
     1
102
MATERIAL
148
0.0
149
0.0
149
0.0
 93
        0
 94
      127
282
     0
 72
     0
 77
     0
171
     0
175
     0
179
     0
273
     0
  0
XRECORD
  5
C5C
102
{ACAD_REACTORS
330
C5A
102
}
330
C5A
100
AcDbXrecord
280
     1
270
     1
271
     1
  0
XRECORD
  5
C5B
102
{ACAD_REACTORS
330
C5A
102
}
330
C5A
100
AcDbXrecord
280
     1
270
     1
271
     1
  0
XRECORD
  5
C5F
102
{ACAD_REACTORS
330
C5A
102
}
330
C5A
100
AcDbXrecord
280
     1
270
     1
271
     1
  0
XRECORD
  5
C5E
102
{ACAD_REACTORS
330
C5A
102
}
330
C5A
100
AcDbXrecord
280
     1
270
     1
271
     1
  0
XRECORD
  5
C60
102
{ACAD_REACTORS
330
C5A
102
}
330
C5A
100
AcDbXrecord
280
     1
270
     1
271
     1
  0
XRECORD
  5
C5D
102
{ACAD_REACTORS
330
C5A
102
}
330
C5A
100
AcDbXrecord
280
     1
270
     1
271
     1
  0
XRECORD
  5
CB4
102
{ACAD_REACTORS
330
C52
102
}
330
C52
100
AcDbXrecord
280
     1
102
MATERIAL
148
0.0
149
0.0
149
0.0
 93
        0
 94
      127
282
     0
 72
     0
 77
     0
171
     0
175
     0
179
     0
273
     0
  0
XRECORD
  5
C54
102
{ACAD_REACTORS
330
C52
102
}
330
C52
100
AcDbXrecord
280
     1
270
     1
271
     1
  0
XRECORD
  5
C53
102
{ACAD_REACTORS
330
C52
102
}
330
C52
100
AcDbXrecord
280
     1
270
     1
271
     1
  0
XRECORD
  5
C57
102
{ACAD_REACTORS
330
C52
102
}
330
C52
100
AcDbXrecord
280
     1
270
     1
271
     1
  0
XRECORD
  5
C56
102
{ACAD_REACTORS
330
C52
102
}
330
C52
100
AcDbXrecord
280
     1
270
     1
271
     1
  0
XRECORD
  5
C58
102
{ACAD_REACTORS
330
C52
102
}
330
C52
100
AcDbXrecord
280
     1
270
     1
271
     1
  0
XRECORD
  5
C55
102
{ACAD_REACTORS
330
C52
102
}
330
C52
100
AcDbXrecord
280
     1
270
     1
271
     1
  0
XRECORD
  5
CB6
102
{ACAD_REACTORS
330
C62
102
}
330
C62
100
AcDbXrecord
280
     1
102
MATERIAL
148
0.0
149
0.0
149
0.0
 93
        0
 94
      127
282
     0
 72
     0
 77
     0
171
     0
175
     0
179
     0
273
     0
  0
XRECORD
  5
C64
102
{ACAD_REACTORS
330
C62
102
}
330
C62
100
AcDbXrecord
280
     1
270
     1
271
     1
  0
XRECORD
  5
C63
102
{ACAD_REACTORS
330
C62
102
}
330
C62
100
AcDbXrecord
280
     1
270
     1
271
     1
  0
XRECORD
  5
C67
102
{ACAD_REACTORS
330
C62
102
}
330
C62
100
AcDbXrecord
280
     1
270
     1
271
     1
  0
XRECORD
  5
C66
102
{ACAD_REACTORS
330
C62
102
}
330
C62
100
AcDbXrecord
280
     1
270
     1
271
     1
  0
XRECORD
  5
C68
102
{ACAD_REACTORS
330
C62
102
}
330
C62
100
AcDbXrecord
280
     1
270
     1
271
     1
  0
XRECORD
  5
C65
102
{ACAD_REACTORS
330
C62
102
}
330
C62
100
AcDbXrecord
280
     1
270
     1
271
     1
  0
CELLSTYLEMAP
  5
CAB
102
{ACAD_REACTORS
330
CAA
102
}
330
CAA
100
AcDbCellStyleMap
 90
        3
300
CELLSTYLE
  1
TABLEFORMAT_BEGIN
 90
        5
170
     1
 91
        0
 92
    32768
 62
   257
 93
        1
300
CONTENTFORMAT
  1
CONTENTFORMAT_BEGIN
 90
        0
 91
        0
 92
      512
 93
        0
300

 40
0.0
140
1.0
 94
        5
 62
     0
340
11
144
6.0
309
CONTENTFORMAT_END
171
     1
301
MARGIN
  1
CELLMARGIN_BEGIN
 40
1.5
 40
1.5
 40
1.5
 40
1.5
 40
4.5
 40
4.5
309
CELLMARGIN_END
 94
        6
 95
        1
302
GRIDFORMAT
  1
GRIDFORMAT_BEGIN
 90
        0
 91
        1
 62
     0
 92
       -2
340
0
 93
        0
 40
1.125
309
GRIDFORMAT_END
 95
        2
302
GRIDFORMAT
  1
GRIDFORMAT_BEGIN
 90
        0
 91
        1
 62
     0
 92
       -2
340
0
 93
        0
 40
1.125
309
GRIDFORMAT_END
 95
        4
302
GRIDFORMAT
  1
GRIDFORMAT_BEGIN
 90
        0
 91
        1
 62
     0
 92
       -2
340
0
 93
        0
 40
1.125
309
GRIDFORMAT_END
 95
        8
302
GRIDFORMAT
  1
GRIDFORMAT_BEGIN
 90
        0
 91
        1
 62
     0
 92
       -2
340
0
 93
        0
 40
1.125
309
GRIDFORMAT_END
 95
       16
302
GRIDFORMAT
  1
GRIDFORMAT_BEGIN
 90
        0
 91
        1
 62
     0
 92
       -2
340
0
 93
        0
 40
1.125
309
GRIDFORMAT_END
 95
       32
302
GRIDFORMAT
  1
GRIDFORMAT_BEGIN
 90
        0
 91
        1
 62
     0
 92
       -2
340
0
 93
        0
 40
1.125
309
GRIDFORMAT_END
309
TABLEFORMAT_END
  1
CELLSTYLE_BEGIN
 90
        1
 91
        1
300
_TITLE
309
CELLSTYLE_END
300
CELLSTYLE
  1
TABLEFORMAT_BEGIN
 90
        5
170
     1
 91
        0
 92
        0
 62
   257
 93
        1
300
CONTENTFORMAT
  1
CONTENTFORMAT_BEGIN
 90
        0
 91
        0
 92
      512
 93
        0
300

 40
0.0
140
1.0
 94
        5
 62
     0
340
11
144
4.5
309
CONTENTFORMAT_END
171
     1
301
MARGIN
  1
CELLMARGIN_BEGIN
 40
1.5
 40
1.5
 40
1.5
 40
1.5
 40
4.5
 40
4.5
309
CELLMARGIN_END
 94
        6
 95
        1
302
GRIDFORMAT
  1
GRIDFORMAT_BEGIN
 90
        0
 91
        1
 62
     0
 92
       -2
340
0
 93
        0
 40
1.125
309
GRIDFORMAT_END
 95
        2
302
GRIDFORMAT
  1
GRIDFORMAT_BEGIN
 90
        0
 91
        1
 62
     0
 92
       -2
340
0
 93
        0
 40
1.125
309
GRIDFORMAT_END
 95
        4
302
GRIDFORMAT
  1
GRIDFORMAT_BEGIN
 90
        0
 91
        1
 62
     0
 92
       -2
340
0
 93
        0
 40
1.125
309
GRIDFORMAT_END
 95
        8
302
GRIDFORMAT
  1
GRIDFORMAT_BEGIN
 90
        0
 91
        1
 62
     0
 92
       -2
340
0
 93
        0
 40
1.125
309
GRIDFORMAT_END
 95
       16
302
GRIDFORMAT
  1
GRIDFORMAT_BEGIN
 90
        0
 91
        1
 62
     0
 92
       -2
340
0
 93
        0
 40
1.125
309
GRIDFORMAT_END
 95
       32
302
GRIDFORMAT
  1
GRIDFORMAT_BEGIN
 90
        0
 91
        1
 62
     0
 92
       -2
340
0
 93
        0
 40
1.125
309
GRIDFORMAT_END
309
TABLEFORMAT_END
  1
CELLSTYLE_BEGIN
 90
        2
 91
        1
300
_HEADER
309
CELLSTYLE_END
300
CELLSTYLE
  1
TABLEFORMAT_BEGIN
 90
        5
170
     1
 91
        0
 92
        0
 62
   257
 93
        1
300
CONTENTFORMAT
  1
CONTENTFORMAT_BEGIN
 90
        0
 91
        0
 92
      512
 93
        0
300

 40
0.0
140
1.0
 94
        2
 62
     0
340
11
144
4.5
309
CONTENTFORMAT_END
171
     1
301
MARGIN
  1
CELLMARGIN_BEGIN
 40
1.5
 40
1.5
 40
1.5
 40
1.5
 40
4.5
 40
4.5
309
CELLMARGIN_END
 94
        6
 95
        1
302
GRIDFORMAT
  1
GRIDFORMAT_BEGIN
 90
        0
 91
        1
 62
     0
 92
       -2
340
0
 93
        0
 40
1.125
309
GRIDFORMAT_END
 95
        2
302
GRIDFORMAT
  1
GRIDFORMAT_BEGIN
 90
        0
 91
        1
 62
     0
 92
       -2
340
0
 93
        0
 40
1.125
309
GRIDFORMAT_END
 95
        4
302
GRIDFORMAT
  1
GRIDFORMAT_BEGIN
 90
        0
 91
        1
 62
     0
 92
       -2
340
0
 93
        0
 40
1.125
309
GRIDFORMAT_END
 95
        8
302
GRIDFORMAT
  1
GRIDFORMAT_BEGIN
 90
        0
 91
        1
 62
     0
 92
       -2
340
0
 93
        0
 40
1.125
309
GRIDFORMAT_END
 95
       16
302
GRIDFORMAT
  1
GRIDFORMAT_BEGIN
 90
        0
 91
        1
 62
     0
 92
       -2
340
0
 93
        0
 40
1.125
309
GRIDFORMAT_END
 95
       32
302
GRIDFORMAT
  1
GRIDFORMAT_BEGIN
 90
        0
 91
        1
 62
     0
 92
       -2
340
0
 93
        0
 40
1.125
309
GRIDFORMAT_END
309
TABLEFORMAT_END
  1
CELLSTYLE_BEGIN
 90
        3
 91
        2
300
_DATA
309
CELLSTYLE_END
  0
XRECORD
  5
CDD
102
{ACAD_REACTORS
330
CAA
102
}
330
CAA
100
AcDbXrecord
280
     1
102
ACAD_ROUNDTRIP_PRE2007_TABLESTYLE
 90
      512
 91
        0
  1

 92
      512
 93
        0
  2

 94
      512
 95
        0
  3

  0
XRECORD
  5
CC2
102
{ACAD_REACTORS
330
CC1
102
}
330
CC1
100
AcDbXrecord
280
     1
102
RTVSPropertyOp0
 70
     1
102
RTVSPropertyOp1
 70
     1
102
RTVSPropertyOp2
 70
     1
102
RTVSPropertyOp3
 70
     1
102
RTVSPropertyOp4
 70
     1
102
RTVSPropertyOp5
 70
     1
102
RTVSPropertyOp6
 70
     1
102
RTVSPropertyOp7
 70
     1
102
RTVSPropertyOp8
 70
     1
102
RTVSPropertyOp9
 70
     1
102
RTVSPropertyOp10
 70
     1
102
RTVSPropertyOp11
 70
     1
102
RTVSPropertyOp12
 70
     1
102
RTVSPropertyOp13
 70
     1
102
RTVSPropertyOp14
 70
     1
102
RTVSPropertyOp15
 70
     1
102
RTVSPropertyOp16
 70
     1
102
RTVSPropertyOp17
 70
     1
102
RTVSPropertyOp18
 70
     1
102
RTVSPropertyOp19
 70
     1
102
RTVSPropertyOp20
 70
     1
102
RTVSPropertyOp21
 70
     1
102
RTVSPropertyOp22
 70
     1
102
RTVSPropertyOp23
 70
     1
102
RTVSPropertyOp24
 70
     1
102
RTVSPropertyOp25
 70
     1
102
RTVSPropertyOp26
 70
     1
102
RTVSPropertyOp27
 70
     1
  0
XRECORD
  5
CC6
102
{ACAD_REACTORS
330
CC5
102
}
330
CC5
100
AcDbXrecord
280
     1
102
RTVSPropertyOp0
 70
     1
102
RTVSPropertyOp1
 70
     1
102
RTVSPropertyOp2
 70
     1
102
RTVSPropertyOp3
 70
     1
102
RTVSPropertyOp4
 70
     1
102
RTVSPropertyOp5
 70
     1
102
RTVSPropertyOp6
 70
     1
102
RTVSPropertyOp7
 70
     1
102
RTVSPropertyOp8
 70
     1
102
RTVSPropertyOp9
 70
     1
102
RTVSPropertyOp10
 70
     1
102
RTVSPropertyOp11
 70
     1
102
RTVSPropertyOp12
 70
     1
102
RTVSPropertyOp13
 70
     1
102
RTVSPropertyOp14
 70
     1
102
RTVSPropertyOp15
 70
     1
102
RTVSPropertyOp16
 70
     1
102
RTVSPropertyOp17
 70
     1
102
RTVSPropertyOp18
 70
     1
102
RTVSPropertyOp19
 70
     1
102
RTVSPropertyOp20
 70
     1
102
RTVSPropertyOp21
 70
     1
102
RTVSPropertyOp22
 70
     1
102
RTVSPropertyOp23
 70
     1
102
RTVSPropertyOp24
 70
     1
102
RTVSPropertyOp25
 70
     1
102
RTVSPropertyOp26
 70
     1
102
RTVSPropertyOp27
 70
     1
  0
XRECORD
  5
CC4
102
{ACAD_REACTORS
330
CC3
102
}
330
CC3
100
AcDbXrecord
280
     1
102
RTVSPropertyOp0
 70
     1
102
RTVSPropertyOp1
 70
     1
102
RTVSPropertyOp2
 70
     1
102
RTVSPropertyOp3
 70
     1
102
RTVSPropertyOp4
 70
     1
102
RTVSPropertyOp5
 70
     1
102
RTVSPropertyOp6
 70
     1
102
RTVSPropertyOp7
 70
     1
102
RTVSPropertyOp8
 70
     1
102
RTVSPropertyOp9
 70
     1
102
RTVSPropertyOp10
 70
     1
102
RTVSPropertyOp11
 70
     1
102
RTVSPropertyOp12
 70
     1
102
RTVSPropertyOp13
 70
     1
102
RTVSPropertyOp14
 70
     1
102
RTVSPropertyOp15
 70
     1
102
RTVSPropertyOp16
 70
     1
102
RTVSPropertyOp17
 70
     1
102
RTVSPropertyOp18
 70
     1
102
RTVSPropertyOp19
 70
     1
102
RTVSPropertyOp20
 70
     1
102
RTVSPropertyOp21
 70
     1
102
RTVSPropertyOp22
 70
     1
102
RTVSPropertyOp23
 70
     1
102
RTVSPropertyOp24
 70
     1
102
RTVSPropertyOp25
 70
     1
102
RTVSPropertyOp26
 70
     1
102
RTVSPropertyOp27
 70
     1
  0
XRECORD
  5
CC0
102
{ACAD_REACTORS
330
CBF
102
}
330
CBF
100
AcDbXrecord
280
     1
102
RTVSPropertyOp0
 70
     1
102
RTVSPropertyOp1
 70
     1
102
RTVSPropertyOp2
 70
     1
102
RTVSPropertyOp3
 70
     1
102
RTVSPropertyOp4
 70
     1
102
RTVSPropertyOp5
 70
     1
102
RTVSPropertyOp6
 70
     1
102
RTVSPropertyOp7
 70
     1
102
RTVSPropertyOp8
 70
     1
102
RTVSPropertyOp9
 70
     1
102
RTVSPropertyOp10
 70
     1
102
RTVSPropertyOp11
 70
     1
102
RTVSPropertyOp12
 70
     1
102
RTVSPropertyOp13
 70
     1
102
RTVSPropertyOp14
 70
     1
102
RTVSPropertyOp15
 70
     1
102
RTVSPropertyOp16
 70
     1
102
RTVSPropertyOp17
 70
     1
102
RTVSPropertyOp18
 70
     1
102
RTVSPropertyOp19
 70
     1
102
RTVSPropertyOp20
 70
     1
102
RTVSPropertyOp21
 70
     1
102
RTVSPropertyOp22
 70
     1
102
RTVSPropertyOp23
 70
     1
102
RTVSPropertyOp24
 70
     1
102
RTVSPropertyOp25
 70
     1
102
RTVSPropertyOp26
 70
     1
102
RTVSPropertyOp27
 70
     1
  0
XRECORD
  5
CCE
102
{ACAD_REACTORS
330
CCD
102
}
330
CCD
100
AcDbXrecord
280
     1
102
RTVSPropertyOp0
 70
     1
102
RTVSPropertyOp1
 70
     1
102
RTVSPropertyOp2
 70
     1
102
RTVSPropertyOp3
 70
     1
102
RTVSPropertyOp4
 70
     1
102
RTVSPropertyOp5
 70
     1
102
RTVSPropertyOp6
 70
     1
102
RTVSPropertyOp7
 70
     1
102
RTVSPropertyOp8
 70
     1
102
RTVSPropertyOp9
 70
     1
102
RTVSPropertyOp10
 70
     1
102
RTVSPropertyOp11
 70
     1
102
RTVSPropertyOp12
 70
     1
102
RTVSPropertyOp13
 70
     1
102
RTVSPropertyOp14
 70
     1
102
RTVSPropertyOp15
 70
     1
102
RTVSPropertyOp16
 70
     1
102
RTVSPropertyOp17
 70
     1
102
RTVSPropertyOp18
 70
     1
102
RTVSPropertyOp19
 70
     1
102
RTVSPropertyOp20
 70
     1
102
RTVSPropertyOp21
 70
     1
102
RTVSPropertyOp22
 70
     1
102
RTVSPropertyOp23
 70
     1
102
RTVSPropertyOp24
 70
     1
102
RTVSPropertyOp25
 70
     1
102
RTVSPropertyOp26
 70
     1
102
RTVSPropertyOp27
 70
     1
  0
XRECORD
  5
CD6
102
{ACAD_REACTORS
330
CD5
102
}
330
CD5
100
AcDbXrecord
280
     1
102
RTVSPropertyOp0
 70
     1
102
RTVSPropertyOp1
 70
     1
102
RTVSPropertyOp2
 70
     1
102
RTVSPropertyOp3
 70
     1
102
RTVSPropertyOp4
 70
     1
102
RTVSPropertyOp5
 70
     1
102
RTVSPropertyOp6
 70
     1
102
RTVSPropertyOp7
 70
     1
102
RTVSPropertyOp8
 70
     1
102
RTVSPropertyOp9
 70
     1
102
RTVSPropertyOp10
 70
     1
102
RTVSPropertyOp11
 70
     1
102
RTVSPropertyOp12
 70
     1
102
RTVSPropertyOp13
 70
     1
102
RTVSPropertyOp14
 70
     1
102
RTVSPropertyOp15
 70
     1
102
RTVSPropertyOp16
 70
     1
102
RTVSPropertyOp17
 70
     1
102
RTVSPropertyOp18
 70
     1
102
RTVSPropertyOp19
 70
     1
102
RTVSPropertyOp20
 70
     1
102
RTVSPropertyOp21
 70
     1
102
RTVSPropertyOp22
 70
     1
102
RTVSPropertyOp23
 70
     1
102
RTVSPropertyOp24
 70
     1
102
RTVSPropertyOp25
 70
     1
102
RTVSPropertyOp26
 70
     1
102
RTVSPropertyOp27
 70
     1
  0
XRECORD
  5
CC8
102
{ACAD_REACTORS
330
CC7
102
}
330
CC7
100
AcDbXrecord
280
     1
102
RTVSPropertyOp0
 70
     1
102
RTVSPropertyOp1
 70
     1
102
RTVSPropertyOp2
 70
     1
102
RTVSPropertyOp3
 70
     1
102
RTVSPropertyOp4
 70
     1
102
RTVSPropertyOp5
 70
     1
102
RTVSPropertyOp6
 70
     1
102
RTVSPropertyOp7
 70
     1
102
RTVSPropertyOp8
 70
     1
102
RTVSPropertyOp9
 70
     1
102
RTVSPropertyOp10
 70
     1
102
RTVSPropertyOp11
 70
     1
102
RTVSPropertyOp12
 70
     1
102
RTVSPropertyOp13
 70
     1
102
RTVSPropertyOp14
 70
     1
102
RTVSPropertyOp15
 70
     1
102
RTVSPropertyOp16
 70
     1
102
RTVSPropertyOp17
 70
     1
102
RTVSPropertyOp18
 70
     1
102
RTVSPropertyOp19
 70
     1
102
RTVSPropertyOp20
 70
     1
102
RTVSPropertyOp21
 70
     1
102
RTVSPropertyOp22
 70
     1
102
RTVSPropertyOp23
 70
     1
102
RTVSPropertyOp24
 70
     1
102
RTVSPropertyOp25
 70
     1
102
RTVSPropertyOp26
 70
     1
102
RTVSPropertyOp27
 70
     1
  0
XRECORD
  5
CCC
102
{ACAD_REACTORS
330
CCB
102
}
330
CCB
100
AcDbXrecord
280
     1
102
RTVSPropertyOp0
 70
     1
102
RTVSPropertyOp1
 70
     1
102
RTVSPropertyOp2
 70
     1
102
RTVSPropertyOp3
 70
     1
102
RTVSPropertyOp4
 70
     1
102
RTVSPropertyOp5
 70
     1
102
RTVSPropertyOp6
 70
     1
102
RTVSPropertyOp7
 70
     1
102
RTVSPropertyOp8
 70
     1
102
RTVSPropertyOp9
 70
     1
102
RTVSPropertyOp10
 70
     1
102
RTVSPropertyOp11
 70
     1
102
RTVSPropertyOp12
 70
     1
102
RTVSPropertyOp13
 70
     1
102
RTVSPropertyOp14
 70
     1
102
RTVSPropertyOp15
 70
     1
102
RTVSPropertyOp16
 70
     1
102
RTVSPropertyOp17
 70
     1
102
RTVSPropertyOp18
 70
     1
102
RTVSPropertyOp19
 70
     1
102
RTVSPropertyOp20
 70
     1
102
RTVSPropertyOp21
 70
     1
102
RTVSPropertyOp22
 70
     1
102
RTVSPropertyOp23
 70
     1
102
RTVSPropertyOp24
 70
     1
102
RTVSPropertyOp25
 70
     1
102
RTVSPropertyOp26
 70
     1
102
RTVSPropertyOp27
 70
     1
  0
XRECORD
  5
CDC
102
{ACAD_REACTORS
330
CDB
102
}
330
CDB
100
AcDbXrecord
280
     1
102
RTVSPropertyOp0
 70
     0
102
RTVSPropertyOp1
 70
     0
102
RTVSPropertyOp2
 70
     0
102
RTVSPropertyOp3
 70
     0
102
RTVSPropertyOp4
 70
     0
102
RTVSPropertyOp5
 70
     0
102
RTVSPropertyOp6
 70
     0
102
RTVSPropertyOp7
 70
     0
102
RTVSPropertyOp8
 70
     0
102
RTVSPropertyOp9
 70
     0
102
RTVSPropertyOp10
 70
     0
102
RTVSPropertyOp11
 70
     0
102
RTVSPropertyOp12
 70
     0
102
RTVSPropertyOp13
 70
     0
102
RTVSPropertyOp14
 70
     2
102
RTVSPropertyOp15
 70
     0
102
RTVSPropertyOp16
 70
     0
102
RTVSPropertyOp17
 70
     0
102
RTVSPropertyOp18
 70
     0
102
RTVSPropertyOp19
 70
     0
102
RTVSPropertyOp20
 70
     0
102
RTVSPropertyOp21
 70
     0
102
RTVSPropertyOp22
 70
     0
102
RTVSPropertyOp23
 70
     0
102
RTVSPropertyOp24
 70
     0
102
RTVSPropertyOp25
 70
     0
102
RTVSPropertyOp26
 70
     0
102
RTVSPropertyOp27
 70
     0
  0
XRECORD
  5
CD4
102
{ACAD_REACTORS
330
CD3
102
}
330
CD3
100
AcDbXrecord
280
     1
102
RTVSPropertyOp0
 70
     1
102
RTVSPropertyOp1
 70
     1
102
RTVSPropertyOp2
 70
     1
102
RTVSPropertyOp3
 70
     1
102
RTVSPropertyOp4
 70
     1
102
RTVSPropertyOp5
 70
     1
102
RTVSPropertyOp6
 70
     1
102
RTVSPropertyOp7
 70
     1
102
RTVSPropertyOp8
 70
     1
102
RTVSPropertyOp9
 70
     1
102
RTVSPropertyOp10
 70
     1
102
RTVSPropertyOp11
 70
     1
102
RTVSPropertyOp12
 70
     1
102
RTVSPropertyOp13
 70
     1
102
RTVSPropertyOp14
 70
     1
102
RTVSPropertyOp15
 70
     1
102
RTVSPropertyOp16
 70
     1
102
RTVSPropertyOp17
 70
     1
102
RTVSPropertyOp18
 70
     1
102
RTVSPropertyOp19
 70
     1
102
RTVSPropertyOp20
 70
     1
102
RTVSPropertyOp21
 70
     1
102
RTVSPropertyOp22
 70
     1
102
RTVSPropertyOp23
 70
     1
102
RTVSPropertyOp24
 70
     1
102
RTVSPropertyOp25
 70
     1
102
RTVSPropertyOp26
 70
     1
102
RTVSPropertyOp27
 70
     1
  0
XRECORD
  5
CB8
102
{ACAD_REACTORS
330
CB7
102
}
330
CB7
100
AcDbXrecord
280
     1
102
RTVSPropertyOp0
 70
     1
102
RTVSPropertyOp1
 70
     1
102
RTVSPropertyOp2
 70
     1
102
RTVSPropertyOp3
 70
     1
102
RTVSPropertyOp4
 70
     1
102
RTVSPropertyOp5
 70
     1
102
RTVSPropertyOp6
 70
     1
102
RTVSPropertyOp7
 70
     1
102
RTVSPropertyOp8
 70
     1
102
RTVSPropertyOp9
 70
     1
102
RTVSPropertyOp10
 70
     1
102
RTVSPropertyOp11
 70
     1
102
RTVSPropertyOp12
 70
     1
102
RTVSPropertyOp13
 70
     1
102
RTVSPropertyOp14
 70
     1
102
RTVSPropertyOp15
 70
     1
102
RTVSPropertyOp16
 70
     1
102
RTVSPropertyOp17
 70
     1
102
RTVSPropertyOp18
 70
     1
102
RTVSPropertyOp19
 70
     1
102
RTVSPropertyOp20
 70
     1
102
RTVSPropertyOp21
 70
     1
102
RTVSPropertyOp22
 70
     1
102
RTVSPropertyOp23
 70
     1
102
RTVSPropertyOp24
 70
     1
102
RTVSPropertyOp25
 70
     1
102
RTVSPropertyOp26
 70
     1
102
RTVSPropertyOp27
 70
     1
  0
XRECORD
  5
CBA
102
{ACAD_REACTORS
330
CB9
102
}
330
CB9
100
AcDbXrecord
280
     1
102
RTVSPropertyOp0
 70
     1
102
RTVSPropertyOp1
 70
     1
102
RTVSPropertyOp2
 70
     1
102
RTVSPropertyOp3
 70
     1
102
RTVSPropertyOp4
 70
     1
102
RTVSPropertyOp5
 70
     1
102
RTVSPropertyOp6
 70
     1
102
RTVSPropertyOp7
 70
     1
102
RTVSPropertyOp8
 70
     1
102
RTVSPropertyOp9
 70
     1
102
RTVSPropertyOp10
 70
     1
102
RTVSPropertyOp11
 70
     1
102
RTVSPropertyOp12
 70
     1
102
RTVSPropertyOp13
 70
     1
102
RTVSPropertyOp14
 70
     1
102
RTVSPropertyOp15
 70
     1
102
RTVSPropertyOp16
 70
     1
102
RTVSPropertyOp17
 70
     1
102
RTVSPropertyOp18
 70
     1
102
RTVSPropertyOp19
 70
     1
102
RTVSPropertyOp20
 70
     1
102
RTVSPropertyOp21
 70
     1
102
RTVSPropertyOp22
 70
     1
102
RTVSPropertyOp23
 70
     1
102
RTVSPropertyOp24
 70
     1
102
RTVSPropertyOp25
 70
     1
102
RTVSPropertyOp26
 70
     1
102
RTVSPropertyOp27
 70
     1
  0
XRECORD
  5
CBC
102
{ACAD_REACTORS
330
CBB
102
}
330
CBB
100
AcDbXrecord
280
     1
102
RTVSPropertyOp0
 70
     1
102
RTVSPropertyOp1
 70
     1
102
RTVSPropertyOp2
 70
     1
102
RTVSPropertyOp3
 70
     1
102
RTVSPropertyOp4
 70
     1
102
RTVSPropertyOp5
 70
     1
102
RTVSPropertyOp6
 70
     1
102
RTVSPropertyOp7
 70
     1
102
RTVSPropertyOp8
 70
     1
102
RTVSPropertyOp9
 70
     1
102
RTVSPropertyOp10
 70
     1
102
RTVSPropertyOp11
 70
     1
102
RTVSPropertyOp12
 70
     1
102
RTVSPropertyOp13
 70
     1
102
RTVSPropertyOp14
 70
     1
102
RTVSPropertyOp15
 70
     1
102
RTVSPropertyOp16
 70
     1
102
RTVSPropertyOp17
 70
     1
102
RTVSPropertyOp18
 70
     1
102
RTVSPropertyOp19
 70
     1
102
RTVSPropertyOp20
 70
     1
102
RTVSPropertyOp21
 70
     1
102
RTVSPropertyOp22
 70
     1
102
RTVSPropertyOp23
 70
     1
102
RTVSPropertyOp24
 70
     1
102
RTVSPropertyOp25
 70
     1
102
RTVSPropertyOp26
 70
     1
102
RTVSPropertyOp27
 70
     1
  0
XRECORD
  5
CBE
102
{ACAD_REACTORS
330
CBD
102
}
330
CBD
100
AcDbXrecord
280
     1
102
RTVSPropertyOp0
 70
     1
102
RTVSPropertyOp1
 70
     1
102
RTVSPropertyOp2
 70
     1
102
RTVSPropertyOp3
 70
     1
102
RTVSPropertyOp4
 70
     1
102
RTVSPropertyOp5
 70
     1
102
RTVSPropertyOp6
 70
     1
102
RTVSPropertyOp7
 70
     1
102
RTVSPropertyOp8
 70
     1
102
RTVSPropertyOp9
 70
     1
102
RTVSPropertyOp10
 70
     1
102
RTVSPropertyOp11
 70
     1
102
RTVSPropertyOp12
 70
     1
102
RTVSPropertyOp13
 70
     1
102
RTVSPropertyOp14
 70
     1
102
RTVSPropertyOp15
 70
     1
102
RTVSPropertyOp16
 70
     1
102
RTVSPropertyOp17
 70
     1
102
RTVSPropertyOp18
 70
     1
102
RTVSPropertyOp19
 70
     1
102
RTVSPropertyOp20
 70
     1
102
RTVSPropertyOp21
 70
     1
102
RTVSPropertyOp22
 70
     1
102
RTVSPropertyOp23
 70
     1
102
RTVSPropertyOp24
 70
     1
102
RTVSPropertyOp25
 70
     1
102
RTVSPropertyOp26
 70
     1
102
RTVSPropertyOp27
 70
     1
  0
XRECORD
  5
CD8
102
{ACAD_REACTORS
330
CD7
102
}
330
CD7
100
AcDbXrecord
280
     1
102
RTVSPropertyOp0
 70
     0
102
RTVSPropertyOp1
 70
     0
102
RTVSPropertyOp2
 70
     0
102
RTVSPropertyOp3
 70
     0
102
RTVSPropertyOp4
 70
     0
102
RTVSPropertyOp5
 70
     0
102
RTVSPropertyOp6
 70
     0
102
RTVSPropertyOp7
 70
     0
102
RTVSPropertyOp8
 70
     0
102
RTVSPropertyOp9
 70
     0
102
RTVSPropertyOp10
 70
     0
102
RTVSPropertyOp11
 70
     0
102
RTVSPropertyOp12
 70
     0
102
RTVSPropertyOp13
 70
     0
102
RTVSPropertyOp14
 70
     2
102
RTVSPropertyOp15
 70
     0
102
RTVSPropertyOp16
 70
     0
102
RTVSPropertyOp17
 70
     0
102
RTVSPropertyOp18
 70
     0
102
RTVSPropertyOp19
 70
     0
102
RTVSPropertyOp20
 70
     0
102
RTVSPropertyOp21
 70
     0
102
RTVSPropertyOp22
 70
     0
102
RTVSPropertyOp23
 70
     0
102
RTVSPropertyOp24
 70
     0
102
RTVSPropertyOp25
 70
     0
102
RTVSPropertyOp26
 70
     0
102
RTVSPropertyOp27
 70
     0
  0
XRECORD
  5
CD2
102
{ACAD_REACTORS
330
CD1
102
}
330
CD1
100
AcDbXrecord
280
     1
102
RTVSPropertyOp0
 70
     1
102
RTVSPropertyOp1
 70
     1
102
RTVSPropertyOp2
 70
     1
102
RTVSPropertyOp3
 70
     1
102
RTVSPropertyOp4
 70
     1
102
RTVSPropertyOp5
 70
     1
102
RTVSPropertyOp6
 70
     1
102
RTVSPropertyOp7
 70
     1
102
RTVSPropertyOp8
 70
     1
102
RTVSPropertyOp9
 70
     1
102
RTVSPropertyOp10
 70
     1
102
RTVSPropertyOp11
 70
     1
102
RTVSPropertyOp12
 70
     1
102
RTVSPropertyOp13
 70
     1
102
RTVSPropertyOp14
 70
     1
102
RTVSPropertyOp15
 70
     1
102
RTVSPropertyOp16
 70
     1
102
RTVSPropertyOp17
 70
     1
102
RTVSPropertyOp18
 70
     1
102
RTVSPropertyOp19
 70
     1
102
RTVSPropertyOp20
 70
     1
102
RTVSPropertyOp21
 70
     1
102
RTVSPropertyOp22
 70
     1
102
RTVSPropertyOp23
 70
     1
102
RTVSPropertyOp24
 70
     1
102
RTVSPropertyOp25
 70
     1
102
RTVSPropertyOp26
 70
     1
102
RTVSPropertyOp27
 70
     1
  0
XRECORD
  5
CDA
102
{ACAD_REACTORS
330
CD9
102
}
330
CD9
100
AcDbXrecord
280
     1
102
RTVSPropertyOp0
 70
     0
102
RTVSPropertyOp1
 70
     0
102
RTVSPropertyOp2
 70
     0
102
RTVSPropertyOp3
 70
     0
102
RTVSPropertyOp4
 70
     0
102
RTVSPropertyOp5
 70
     0
102
RTVSPropertyOp6
 70
     0
102
RTVSPropertyOp7
 70
     0
102
RTVSPropertyOp8
 70
     0
102
RTVSPropertyOp9
 70
     0
102
RTVSPropertyOp10
 70
     0
102
RTVSPropertyOp11
 70
     0
102
RTVSPropertyOp12
 70
     0
102
RTVSPropertyOp13
 70
     0
102
RTVSPropertyOp14
 70
     2
102
RTVSPropertyOp15
 70
     0
102
RTVSPropertyOp16
 70
     0
102
RTVSPropertyOp17
 70
     0
102
RTVSPropertyOp18
 70
     0
102
RTVSPropertyOp19
 70
     0
102
RTVSPropertyOp20
 70
     0
102
RTVSPropertyOp21
 70
     0
102
RTVSPropertyOp22
 70
     0
102
RTVSPropertyOp23
 70
     0
102
RTVSPropertyOp24
 70
     0
102
RTVSPropertyOp25
 70
     0
102
RTVSPropertyOp26
 70
     0
102
RTVSPropertyOp27
 70
     0
  0
XRECORD
  5
CCA
102
{ACAD_REACTORS
330
CC9
102
}
330
CC9
100
AcDbXrecord
280
     1
102
RTVSPropertyOp0
 70
     1
102
RTVSPropertyOp1
 70
     1
102
RTVSPropertyOp2
 70
     1
102
RTVSPropertyOp3
 70
     1
102
RTVSPropertyOp4
 70
     1
102
RTVSPropertyOp5
 70
     1
102
RTVSPropertyOp6
 70
     1
102
RTVSPropertyOp7
 70
     1
102
RTVSPropertyOp8
 70
     1
102
RTVSPropertyOp9
 70
     1
102
RTVSPropertyOp10
 70
     1
102
RTVSPropertyOp11
 70
     1
102
RTVSPropertyOp12
 70
     1
102
RTVSPropertyOp13
 70
     1
102
RTVSPropertyOp14
 70
     1
102
RTVSPropertyOp15
 70
     1
102
RTVSPropertyOp16
 70
     1
102
RTVSPropertyOp17
 70
     1
102
RTVSPropertyOp18
 70
     1
102
RTVSPropertyOp19
 70
     1
102
RTVSPropertyOp20
 70
     1
102
RTVSPropertyOp21
 70
     1
102
RTVSPropertyOp22
 70
     1
102
RTVSPropertyOp23
 70
     1
102
RTVSPropertyOp24
 70
     1
102
RTVSPropertyOp25
 70
     1
102
RTVSPropertyOp26
 70
     1
102
RTVSPropertyOp27
 70
     1
  0
XRECORD
  5
CD0
102
{ACAD_REACTORS
330
CCF
102
}
330
CCF
100
AcDbXrecord
280
     1
102
RTVSPropertyOp0
 70
     1
102
RTVSPropertyOp1
 70
     1
102
RTVSPropertyOp2
 70
     1
102
RTVSPropertyOp3
 70
     1
102
RTVSPropertyOp4
 70
     1
102
RTVSPropertyOp5
 70
     1
102
RTVSPropertyOp6
 70
     1
102
RTVSPropertyOp7
 70
     1
102
RTVSPropertyOp8
 70
     1
102
RTVSPropertyOp9
 70
     1
102
RTVSPropertyOp10
 70
     1
102
RTVSPropertyOp11
 70
     1
102
RTVSPropertyOp12
 70
     1
102
RTVSPropertyOp13
 70
     1
102
RTVSPropertyOp14
 70
     1
102
RTVSPropertyOp15
 70
     1
102
RTVSPropertyOp16
 70
     1
102
RTVSPropertyOp17
 70
     1
102
RTVSPropertyOp18
 70
     1
102
RTVSPropertyOp19
 70
     1
102
RTVSPropertyOp20
 70
     1
102
RTVSPropertyOp21
 70
     1
102
RTVSPropertyOp22
 70
     1
102
RTVSPropertyOp23
 70
     1
102
RTVSPropertyOp24
 70
     1
102
RTVSPropertyOp25
 70
     1
102
RTVSPropertyOp26
 70
     1
102
RTVSPropertyOp27
 70
     1
  0
ENDSEC
  0
EOF
