  0
SECTION
  2
HEADER
  9
$ACADVER
  1
AC1015
  9
$ACADMAINTVER
 70
    20
  9
$DWGCODEPAGE
  3
ANSI_1252
  9
$INSBASE
 10
0.0
 20
0.0
 30
0.0
  9
$EXTMIN
 10
3714.053843784364
 20
2064.996601757017
 30
0.0
  9
$EXTMAX
 10
3716.107646811195
 20
2065.502641922404
 30
0.0
  9
$LIMMIN
 10
0.0
 20
0.0
  9
$LIMMAX
 10
420.0
 20
297.0
  9
$ORTHOMODE
 70
     0
  9
$REGENMODE
 70
     1
  9
$FILLMODE
 70
     1
  9
$QTEXTMODE
 70
     0
  9
$MIRRTEXT
 70
     1
  9
$LTSCALE
 40
1.0
  9
$ATTMODE
 70
     1
  9
$TEXTSIZE
 40
2.5
  9
$TRACEWID
 40
1.0
  9
$TEXTSTYLE
  7
SANINDUSA
  9
$CLAYER
  8
cotas
  9
$CELTYPE
  6
ByLayer
  9
$CECOLOR
 62
   256
  9
$CELTSCALE
 40
1.0
  9
$DISPSILH
 70
     0
  9
$DIMSCALE
 40
1.0
  9
$DIMASZ
 40
2.0
  9
$DIMEXO
 40
1.0
  9
$DIMDLI
 40
1.0
  9
$DIMRND
 40
0.0
  9
$DIMDLE
 40
0.0
  9
$DIMEXE
 40
1.0
  9
$DIMTP
 40
0.0
  9
$DIMTM
 40
0.0
  9
$DIMTXT
 40
2.0
  9
$DIMCEN
 40
0.0
  9
$DIMTSZ
 40
0.0
  9
$DIMTOL
 70
     0
  9
$DIMLIM
 70
     0
  9
$DIMTIH
 70
     0
  9
$DIMTOH
 70
     0
  9
$DIMSE1
 70
     0
  9
$DIMSE2
 70
     0
  9
$DIMTAD
 70
     1
  9
$DIMZIN
 70
     8
  9
$DIMBLK
  1

  9
$DIMASO
 70
     1
  9
$DIMSHO
 70
     1
  9
$DIMPOST
  1

  9
$DIMAPOST
  1

  9
$DIMALT
 70
     0
  9
$DIMALTD
 70
     3
  9
$DIMALTF
 40
0.03937007874016
  9
$DIMLFAC
 40
1.0
  9
$DIMTOFL
 70
     1
  9
$DIMTVP
 40
0.0
  9
$DIMTIX
 70
     0
  9
$DIMSOXD
 70
     0
  9
$DIMSAH
 70
     0
  9
$DIMBLK1
  1

  9
$DIMBLK2
  1

  9
$DIMSTYLE
  2
SANINDUSA
  9
$DIMCLRD
 70
   256
  9
$DIMCLRE
 70
   256
  9
$DIMCLRT
 70
   256
  9
$DIMTFAC
 40
1.0
  9
$DIMGAP
 40
1.0
  9
$DIMJUST
 70
     0
  9
$DIMSD1
 70
     0
  9
$DIMSD2
 70
     0
  9
$DIMTOLJ
 70
     0
  9
$DIMTZIN
 70
     8
  9
$DIMALTZ
 70
     0
  9
$DIMALTTZ
 70
     0
  9
$DIMUPT
 70
     0
  9
$DIMDEC
 70
     1
  9
$DIMTDEC
 70
     1
  9
$DIMALTU
 70
     2
  9
$DIMALTTD
 70
     3
  9
$DIMTXSTY
  7
SANINDUSA
  9
$DIMAUNIT
 70
     0
  9
$DIMADEC
 70
     1
  9
$DIMALTRND
 40
0.0
  9
$DIMAZIN
 70
     0
  9
$DIMDSEP
 70
    44
  9
$DIMATFIT
 70
     3
  9
$DIMFRAC
 70
     0
  9
$DIMLDRBLK
  1

  9
$DIMLUNIT
 70
     2
  9
$DIMLWD
 70
    -1
  9
$DIMLWE
 70
    -1
  9
$DIMTMOVE
 70
     0
  9
$LUNITS
 70
     2
  9
$LUPREC
 70
     4
  9
$SKETCHINC
 40
1.0
  9
$FILLETRAD
 40
0.0
  9
$AUNITS
 70
     0
  9
$AUPREC
 70
     0
  9
$MENU
  1
.
  9
$ELEVATION
 40
0.0
  9
$PELEVATION
 40
0.0
  9
$THICKNESS
 40
0.0
  9
$LIMCHECK
 70
     0
  9
$CHAMFERA
 40
10.0
  9
$CHAMFERB
 40
10.0
  9
$CHAMFERC
 40
20.0
  9
$CHAMFERD
 40
0.0
  9
$SKPOLY
 70
     0
  9
$TDCREATE
 40
2456149.679329236
  9
$TDUCREATE
 40
2456149.637662570
  9
$TDUPDATE
 40
2456149.681587628
  9
$TDUUPDATE
 40
2456149.639920961
  9
$TDINDWG
 40
0.0022589352
  9
$TDUSRTIMER
 40
0.0022589352
  9
$USRTIMER
 70
     1
  9
$ANGBASE
 50
0.0
  9
$ANGDIR
 70
     0
  9
$PDMODE
 70
     0
  9
$PDSIZE
 40
0.0
  9
$PLINEWID
 40
0.0
  9
$SPLFRAME
 70
     0
  9
$SPLINETYPE
 70
     6
  9
$SPLINESEGS
 70
     8
  9
$HANDSEED
  5
12E7
  9
$SURFTAB1
 70
     6
  9
$SURFTAB2
 70
     6
  9
$SURFTYPE
 70
     6
  9
$SURFU
 70
     6
  9
$SURFV
 70
     6
  9
$UCSBASE
  2

  9
$UCSNAME
  2

  9
$UCSORG
 10
0.0
 20
0.0
 30
0.0
  9
$UCSXDIR
 10
1.0
 20
0.0
 30
0.0
  9
$UCSYDIR
 10
0.0
 20
1.0
 30
0.0
  9
$UCSORTHOREF
  2

  9
$UCSORTHOVIEW
 70
     0
  9
$UCSORGTOP
 10
0.0
 20
0.0
 30
0.0
  9
$UCSORGBOTTOM
 10
0.0
 20
0.0
 30
0.0
  9
$UCSORGLEFT
 10
0.0
 20
0.0
 30
0.0
  9
$UCSORGRIGHT
 10
0.0
 20
0.0
 30
0.0
  9
$UCSORGFRONT
 10
0.0
 20
0.0
 30
0.0
  9
$UCSORGBACK
 10
0.0
 20
0.0
 30
0.0
  9
$PUCSBASE
  2

  9
$PUCSNAME
  2

  9
$PUCSORG
 10
0.0
 20
0.0
 30
0.0
  9
$PUCSXDIR
 10
1.0
 20
0.0
 30
0.0
  9
$PUCSYDIR
 10
0.0
 20
1.0
 30
0.0
  9
$PUCSORTHOREF
  2

  9
$PUCSORTHOVIEW
 70
     0
  9
$PUCSORGTOP
 10
0.0
 20
0.0
 30
0.0
  9
$PUCSORGBOTTOM
 10
0.0
 20
0.0
 30
0.0
  9
$PUCSORGLEFT
 10
0.0
 20
0.0
 30
0.0
  9
$PUCSORGRIGHT
 10
0.0
 20
0.0
 30
0.0
  9
$PUCSORGFRONT
 10
0.0
 20
0.0
 30
0.0
  9
$PUCSORGBACK
 10
0.0
 20
0.0
 30
0.0
  9
$USERI1
 70
     0
  9
$USERI2
 70
     0
  9
$USERI3
 70
     0
  9
$USERI4
 70
     0
  9
$USERI5
 70
     0
  9
$USERR1
 40
0.0
  9
$USERR2
 40
0.0
  9
$USERR3
 40
0.0
  9
$USERR4
 40
0.0
  9
$USERR5
 40
0.0
  9
$WORLDVIEW
 70
     1
  9
$SHADEDGE
 70
     3
  9
$SHADEDIF
 70
    70
  9
$TILEMODE
 70
     1
  9
$MAXACTVP
 70
    64
  9
$PINSBASE
 10
0.0
 20
0.0
 30
0.0
  9
$PLIMCHECK
 70
     0
  9
$PEXTMIN
 10
1.000000000000000E+20
 20
1.000000000000000E+20
 30
1.000000000000000E+20
  9
$PEXTMAX
 10
-1.000000000000000E+20
 20
-1.000000000000000E+20
 30
-1.000000000000000E+20
  9
$PLIMMIN
 10
0.0
 20
0.0
  9
$PLIMMAX
 10
420.0
 20
297.0
  9
$UNITMODE
 70
     0
  9
$VISRETAIN
 70
     1
  9
$PLINEGEN
 70
     0
  9
$PSLTSCALE
 70
     1
  9
$TREEDEPTH
 70
  3020
  9
$CMLSTYLE
  2
Standard
  9
$CMLJUST
 70
     0
  9
$CMLSCALE
 40
20.0
  9
$PROXYGRAPHICS
 70
     1
  9
$MEASUREMENT
 70
     1
  9
$CELWEIGHT
370
    -1
  9
$ENDCAPS
280
     0
  9
$JOINSTYLE
280
     0
  9
$LWDISPLAY
290
     0
  9
$INSUNITS
 70
     4
  9
$HYPERLINKBASE
  1

  9
$STYLESHEET
  1
sanindusa.ctb
  9
$XEDIT
290
     1
  9
$CEPSNTYPE
380
     0
  9
$PSTYLEMODE
290
     1
  9
$FINGERPRINTGUID
  2
{AE673160-7CD8-40C4-8EBE-EB85DFA6BF27}
  9
$VERSIONGUID
  2
{8CDF66D6-61FB-47D4-A54D-3B392B5BFC59}
  9
$EXTNAMES
290
     1
  9
$PSVPSCALE
 40
0.0
  9
$OLESTARTUP
290
     0
  0
ENDSEC
  0
SECTION
  2
CLASSES
  0
CLASS
  1
ACDBDICTIONARYWDFLT
  2
AcDbDictionaryWithDefault
  3
ObjectDBX Classes
 90
        0
280
     0
281
     0
  0
CLASS
  1
ACDBPLACEHOLDER
  2
AcDbPlaceHolder
  3
ObjectDBX Classes
 90
        0
280
     0
281
     0
  0
CLASS
  1
LAYOUT
  2
AcDbLayout
  3
ObjectDBX Classes
 90
        0
280
     0
281
     0
  0
CLASS
  1
DICTIONARYVAR
  2
AcDbDictionaryVar
  3
ObjectDBX Classes
 90
        0
280
     0
281
     0
  0
CLASS
  1
DIMASSOC
  2
AcDbDimAssoc
  3
"AcDbDimAssoc|Product Desc:     AcDim ARX App For Dimension|Company:          Autodesk, Inc.|WEB Address:      www.autodesk.com"
 90
        0
280
     0
281
     0
  0
CLASS
  1
TABLESTYLE
  2
AcDbTableStyle
  3
ObjectDBX Classes
 90
     4095
280
     0
281
     0
  0
CLASS
  1
MATERIAL
  2
AcDbMaterial
  3
ObjectDBX Classes
 90
     1153
280
     0
281
     0
  0
CLASS
  1
VISUALSTYLE
  2
AcDbVisualStyle
  3
ObjectDBX Classes
 90
     4095
280
     0
281
     0
  0
CLASS
  1
SCALE
  2
AcDbScale
  3
ObjectDBX Classes
 90
     1153
280
     0
281
     0
  0
CLASS
  1
MLEADERSTYLE
  2
AcDbMLeaderStyle
  3
ACDB_MLEADERSTYLE_CLASS
 90
     4095
280
     0
281
     0
  0
CLASS
  1
AEC_REFEDIT_STATUS_TRACKER
  2
AecDbRefEditStatusTracker
  3
AecArchBase60|Product Desc: Autodesk Architectural Desktop 2007 |Company: Autodesk,Inc. |WEB Address: www.autodesk.com
 90
      129
280
     0
281
     0
  0
CLASS
  1
NPOCOLLECTION
  2
AcDbImpNonPersistentObjectsCollection
  3
ObjectDBX Classes
 90
     1153
280
     0
281
     0
  0
CLASS
  1
CELLSTYLEMAP
  2
AcDbCellStyleMap
  3
ObjectDBX Classes
 90
     1152
280
     0
281
     0
  0
ENDSEC
  0
SECTION
  2
TABLES
  0
TABLE
  2
VPORT
  5
8
330
0
100
AcDbSymbolTable
 70
     1
  0
VPORT
  5
1068
330
8
100
AcDbSymbolTableRecord
100
AcDbViewportTableRecord
  2
*Active
 70
     0
 10
0.0
 20
0.0
 11
1.0
 21
1.0
 12
3715.080745297779
 22
2065.24962183971
 13
0.0
 23
0.0
 14
10.0
 24
10.0
 15
10.0
 25
10.0
 16
0.0
 26
0.0
 36
1.0
 17
0.0
 27
0.0
 37
0.0
 40
1.252901308045844
 41
1.645464025026068
 42
50.0
 43
0.0
 44
0.0
 50
0.0
 51
0.0
 71
     0
 72
   100
 73
     1
 74
     2
 75
     0
 76
     0
 77
     0
 78
     0
281
     0
 65
     1
110
0.0
120
0.0
130
0.0
111
1.0
121
0.0
131
0.0
112
0.0
122
1.0
132
0.0
 79
     0
146
0.0
  0
ENDTAB
  0
TABLE
  2
LTYPE
  5
5
330
0
100
AcDbSymbolTable
 70
     6
  0
LTYPE
  5
14
330
5
100
AcDbSymbolTableRecord
100
AcDbLinetypeTableRecord
  2
ByBlock
 70
     0
  3

 72
    65
 73
     0
 40
0.0
  0
LTYPE
  5
15
330
5
100
AcDbSymbolTableRecord
100
AcDbLinetypeTableRecord
  2
ByLayer
 70
     0
  3

 72
    65
 73
     0
 40
0.0
  0
LTYPE
  5
16
330
5
100
AcDbSymbolTableRecord
100
AcDbLinetypeTableRecord
  2
Continuous
 70
     0
  3
Solid line
 72
    65
 73
     0
 40
0.0
  0
LTYPE
  5
2D
330
5
100
AcDbSymbolTableRecord
100
AcDbLinetypeTableRecord
  2
DASHDOT
 70
     0
  3
Dash dot __ . __ . __ . __ . __ . __ . __ . __
 72
    65
 73
     4
 40
25.4
 49
12.7
 74
     0
 49
-6.349999999999999
 74
     0
 49
0.0
 74
     0
 49
-6.349999999999999
 74
     0
  0
LTYPE
  5
2E
330
5
100
AcDbSymbolTableRecord
100
AcDbLinetypeTableRecord
  2
HIDDEN
 70
     0
  3
Hidden __ __ __ __ __ __ __ __ __ __ __ __ __ _
 72
    65
 73
     2
 40
9.524999999999998
 49
6.349999999999999
 74
     0
 49
-3.174999999999999
 74
     0
  0
LTYPE
  5
C75
330
5
100
AcDbSymbolTableRecord
100
AcDbLinetypeTableRecord
  2
AM_ISO02W050
 70
     0
  3
__ __ __ __ __ __ __ __ __ __ __ __ __ __ __
 72
    65
 73
     2
 40
7.5
 49
6.0
 74
     0
 49
-1.5
 74
     0
  0
LTYPE
  5
C76
330
5
100
AcDbSymbolTableRecord
100
AcDbLinetypeTableRecord
  2
AM_ISO08W050
 70
     0
  3
____ . ____ . ____ . ____ . ____ . ____ . ____
 72
    65
 73
     4
 40
18.0
 49
12.0
 74
     0
 49
-1.5
 74
     0
 49
3.0
 74
     0
 49
-1.5
 74
     0
  0
LTYPE
  5
10B3
330
5
100
AcDbSymbolTableRecord
100
AcDbLinetypeTableRecord
  2
CENTER
 70
     0
  3
Center ____ _ ____ _ ____ _ ____ _ ____ _ ____
 72
    65
 73
     4
 40
10.16
 49
6.349999999999999
 74
     0
 49
-1.27
 74
     0
 49
1.27
 74
     0
 49
-1.27
 74
     0
  0
ENDTAB
  0
TABLE
  2
LAYER
  5
2
102
{ACAD_XDICTIONARY
360
1051
102
}
330
0
100
AcDbSymbolTable
 70
    17
  0
LAYER
  5
10
102
{ACAD_XDICTIONARY
360
120F
102
}
330
2
100
AcDbSymbolTableRecord
100
AcDbLayerTableRecord
  2
0
 70
     0
 62
     7
  6
Continuous
370
    -3
390
F
  0
LAYER
  5
2F
102
{ACAD_XDICTIONARY
360
1211
102
}
330
2
100
AcDbSymbolTableRecord
100
AcDbLayerTableRecord
  2
1
 70
     0
 62
     1
  6
Continuous
370
    -3
390
F
  0
LAYER
  5
30
102
{ACAD_XDICTIONARY
360
1213
102
}
330
2
100
AcDbSymbolTableRecord
100
AcDbLayerTableRecord
  2
2
 70
     0
 62
     2
  6
Continuous
370
    -3
390
F
  0
LAYER
  5
31
102
{ACAD_XDICTIONARY
360
1215
102
}
330
2
100
AcDbSymbolTableRecord
100
AcDbLayerTableRecord
  2
3
 70
     0
 62
     3
  6
Continuous
370
    -3
390
F
  0
LAYER
  5
32
102
{ACAD_XDICTIONARY
360
1217
102
}
330
2
100
AcDbSymbolTableRecord
100
AcDbLayerTableRecord
  2
4
 70
     0
 62
     4
  6
Continuous
370
    -3
390
F
  0
LAYER
  5
33
102
{ACAD_XDICTIONARY
360
1219
102
}
330
2
100
AcDbSymbolTableRecord
100
AcDbLayerTableRecord
  2
5
 70
     0
 62
     5
  6
Continuous
370
    -3
390
F
  0
LAYER
  5
34
102
{ACAD_XDICTIONARY
360
121B
102
}
330
2
100
AcDbSymbolTableRecord
100
AcDbLayerTableRecord
  2
6
 70
     0
 62
     6
  6
Continuous
370
    -3
390
F
  0
LAYER
  5
35
102
{ACAD_XDICTIONARY
360
121D
102
}
330
2
100
AcDbSymbolTableRecord
100
AcDbLayerTableRecord
  2
7
 70
     0
 62
     7
  6
Continuous
370
    -3
390
F
  0
LAYER
  5
36
102
{ACAD_XDICTIONARY
360
121F
102
}
330
2
100
AcDbSymbolTableRecord
100
AcDbLayerTableRecord
  2
cen
 70
     0
 62
     7
  6
DASHDOT
370
    -3
390
F
  0
LAYER
  5
37
102
{ACAD_XDICTIONARY
360
1221
102
}
330
2
100
AcDbSymbolTableRecord
100
AcDbLayerTableRecord
  2
hid
 70
     0
 62
     7
  6
HIDDEN
370
    -3
390
F
  0
LAYER
  5
5D6
102
{ACAD_XDICTIONARY
360
1223
102
}
330
2
100
AcDbSymbolTableRecord
100
AcDbLayerTableRecord
  2
hatch
 70
     0
 62
     9
  6
Continuous
370
    -3
390
F
  0
LAYER
  5
8AF
102
{ACAD_XDICTIONARY
360
1225
102
}
330
2
100
AcDbSymbolTableRecord
100
AcDbLayerTableRecord
  2
9
 70
     0
 62
     9
  6
Continuous
370
    -3
390
F
  0
LAYER
  5
8F8
102
{ACAD_XDICTIONARY
360
1227
102
}
330
2
100
AcDbSymbolTableRecord
100
AcDbLayerTableRecord
  2
leg fin
 70
     0
 62
     9
  6
Continuous
370
    -3
390
F
  0
LAYER
  5
91D
102
{ACAD_XDICTIONARY
360
1229
102
}
330
2
100
AcDbSymbolTableRecord
100
AcDbLayerTableRecord
  2
cotas
 70
     0
 62
     1
  6
Continuous
370
    -3
390
F
  0
LAYER
  5
92F
330
2
100
AcDbSymbolTableRecord
100
AcDbLayerTableRecord
  2
Defpoints
 70
     0
 62
     7
  6
Continuous
290
     0
370
    -3
390
F
  0
LAYER
  5
C7B
102
{ACAD_XDICTIONARY
360
122B
102
}
330
2
100
AcDbSymbolTableRecord
100
AcDbLayerTableRecord
  2
SANINDUSA
 70
     0
 62
     3
  6
Continuous
370
    -3
390
F
  0
LAYER
  5
1060
102
{ACAD_XDICTIONARY
360
122D
102
}
330
2
100
AcDbSymbolTableRecord
100
AcDbLayerTableRecord
  2
hid1
 70
     0
 62
     9
  6
HIDDEN
370
    -3
390
F
1001
AcAecLayerStandard
1000

1000

  0
ENDTAB
  0
TABLE
  2
STYLE
  5
3
330
0
100
AcDbSymbolTable
 70
     5
  0
STYLE
  5
11
330
3
100
AcDbSymbolTableRecord
100
AcDbTextStyleTableRecord
  2
Standard
 70
     0
 40
0.0
 41
1.0
 50
0.0
 71
     0
 42
2.5
  3
Avgardn.ttf
  4

1001
ACAD
1000
AvantGarde Bk BT
1071
       34
  0
STYLE
  5
2C
330
3
100
AcDbSymbolTableRecord
100
AcDbTextStyleTableRecord
  2

 70
     1
 40
0.0
 41
1.0
 50
0.0
 71
     0
 42
2.5
  3
ltypeshp.shx
  4

  0
STYLE
  5
91F
330
3
100
AcDbSymbolTableRecord
100
AcDbTextStyleTableRecord
  2
SANINDUSA
 70
     0
 40
0.0
 41
1.0
 50
0.0
 71
     0
 42
2.5
  3
verdana.TTF
  4

1001
ACAD
1000
Verdana
1071
       34
  0
STYLE
  5
C7C
330
3
100
AcDbSymbolTableRecord
100
AcDbTextStyleTableRecord
  2
futura
 70
     0
 40
0.0
 41
1.0
 50
0.0
 71
     0
 42
2.5
  3
ZURCHN.TTF
  4

1001
ACAD
1000
Zurich BT
1071
       34
  0
STYLE
  5
10B4
330
3
100
AcDbSymbolTableRecord
100
AcDbTextStyleTableRecord
  2
SLDTEXTSTYLE0
 70
     0
 40
0.0
 41
0.75
 50
0.0
 71
     0
 42
0.2
  3
TXT
  4

  0
ENDTAB
  0
TABLE
  2
VIEW
  5
6
330
0
100
AcDbSymbolTable
 70
     0
  0
ENDTAB
  0
TABLE
  2
UCS
  5
7
330
0
100
AcDbSymbolTable
 70
     0
  0
ENDTAB
  0
TABLE
  2
APPID
  5
9
330
0
100
AcDbSymbolTable
 70
    12
  0
APPID
  5
12
330
9
100
AcDbSymbolTableRecord
100
AcDbRegAppTableRecord
  2
ACAD
 70
     0
  0
APPID
  5
3A
330
9
100
AcDbSymbolTableRecord
100
AcDbRegAppTableRecord
  2
DCO15
 70
     0
  0
APPID
  5
EEE
330
9
100
AcDbSymbolTableRecord
100
AcDbRegAppTableRecord
  2
ACAD_DSTYLE_DIMTEXT_FILL
 70
     0
  0
APPID
  5
EEF
330
9
100
AcDbSymbolTableRecord
100
AcDbRegAppTableRecord
  2
ACAD_DSTYLE_DIMEXT_LENGTH
 70
     0
  0
APPID
  5
EF0
330
9
100
AcDbSymbolTableRecord
100
AcDbRegAppTableRecord
  2
ACAD_DSTYLE_DIMEXT_ENABLED
 70
     0
  0
APPID
  5
EF1
330
9
100
AcDbSymbolTableRecord
100
AcDbRegAppTableRecord
  2
ACAD_DSTYLE_DIM_LINETYPE
 70
     0
  0
APPID
  5
EF2
330
9
100
AcDbSymbolTableRecord
100
AcDbRegAppTableRecord
  2
ACAD_DSTYLE_DIM_EXT1_LINETYPE
 70
     0
  0
APPID
  5
EF3
330
9
100
AcDbSymbolTableRecord
100
AcDbRegAppTableRecord
  2
ACAD_DSTYLE_DIM_EXT2_LINETYPE
 70
     0
  0
APPID
  5
FAF
330
9
100
AcDbSymbolTableRecord
100
AcDbRegAppTableRecord
  2
ACAD_DSTYLE_DIMJOGGED_JOGANGLE_SYMBOL
 70
     0
  0
APPID
  5
1013
330
9
100
AcDbSymbolTableRecord
100
AcDbRegAppTableRecord
  2
ACAD_DSTYLE_DIMARC_LENGTH_SYMBOL
 70
     0
  0
APPID
  5
1061
330
9
100
AcDbSymbolTableRecord
100
AcDbRegAppTableRecord
  2
AcAecLayerStandard
 70
     0
  0
APPID
  5
12E6
330
9
100
AcDbSymbolTableRecord
100
AcDbRegAppTableRecord
  2
ACAD_MLEADERVER
 70
     0
  0
ENDTAB
  0
TABLE
  2
DIMSTYLE
  5
A
330
0
100
AcDbSymbolTable
 70
     4
100
AcDbDimStyleTable
 71
     1
340
921
  0
DIMSTYLE
105
45
330
A
100
AcDbSymbolTableRecord
100
AcDbDimStyleTableRecord
  2
STANDARD
 70
     0
289
     0
340
11
  0
DIMSTYLE
105
921
330
A
100
AcDbSymbolTableRecord
100
AcDbDimStyleTableRecord
  2
SANINDUSA
 70
     0
 41
2.0
 42
1.0
 43
1.0
 44
1.0
 73
     0
 74
     0
 77
     1
 78
     8
140
2.0
141
0.0
143
0.03937007874016
147
1.0
171
     3
172
     1
176
   256
177
   256
178
   256
179
     1
271
     1
272
     1
274
     3
278
    44
283
     0
284
     8
340
91F
371
    -1
372
    -1
1001
ACAD_DSTYLE_DIMJOGGED_JOGANGLE_SYMBOL
1070
   384
1040
1.570796326794896
  0
DIMSTYLE
105
C7D
330
A
100
AcDbSymbolTableRecord
100
AcDbDimStyleTableRecord
  2
AM_ISO
 70
     0
  4
"
 41
2.5
 42
1.0
 43
10.0
 44
1.0
 47
0.1
 48
0.1
 73
     0
 74
     0
 77
     1
 78
     8
 79
     2
140
3.5
141
0.0
143
0.0393701
146
0.71
147
1.5
172
     1
176
   256
177
   256
178
     2
271
     2
272
     3
274
     4
283
     0
284
     8
340
11
371
    -1
372
    -1
  0
DIMSTYLE
105
10B5
330
A
100
AcDbSymbolTableRecord
100
AcDbDimStyleTableRecord
  2
ISO-25
 70
     0
 41
2.5
 42
0.625
 43
3.75
 44
1.25
 73
     0
 74
     0
 77
     1
 78
     8
140
2.5
141
2.5
143
0.03937007874016
147
0.625
171
     3
172
     1
271
     2
272
     2
274
     3
278
    44
283
     0
284
     8
340
11
  0
ENDTAB
  0
TABLE
  2
BLOCK_RECORD
  5
1
330
0
100
AcDbSymbolTable
 70
     9
  0
BLOCK_RECORD
  5
1F
330
1
100
AcDbSymbolTableRecord
100
AcDbBlockTableRecord
  2
*Model_Space
340
22
  0
BLOCK_RECORD
  5
1B
330
1
100
AcDbSymbolTableRecord
100
AcDbBlockTableRecord
  2
*Paper_Space
340
1E
  0
BLOCK_RECORD
  5
23
330
1
100
AcDbSymbolTableRecord
100
AcDbBlockTableRecord
  2
*Paper_Space0
340
26
  0
BLOCK_RECORD
  5
919
330
1
100
AcDbSymbolTableRecord
100
AcDbBlockTableRecord
  2
_DotSmall
340
0
  0
BLOCK_RECORD
  5
922
330
1
100
AcDbSymbolTableRecord
100
AcDbBlockTableRecord
  2
base para cotas
340
0
310
2800000020000000200000000100080000000000000400000000000000000000000000000000000000000000000080000080000000808000800000008000800080800000C0C0C000C0DCC000F0CAA6000020400000206000002080000020A0000020C0000020E00000400000004020000040400000406000004080000040A0
310
000040C0000040E00000600000006020000060400000606000006080000060A0000060C0000060E00000800000008020000080400000806000008080000080A0000080C0000080E00000A0000000A0200000A0400000A0600000A0800000A0A00000A0C00000A0E00000C0000000C0200000C0400000C0600000C0800000C0
310
A00000C0C00000C0E00000E0000000E0200000E0400000E0600000E0800000E0A00000E0C00000E0E00040000000400020004000400040006000400080004000A0004000C0004000E00040200000402020004020400040206000402080004020A0004020C0004020E000404000004040200040404000404060004040800040
310
40A0004040C0004040E00040600000406020004060400040606000406080004060A0004060C0004060E00040800000408020004080400040806000408080004080A0004080C0004080E00040A0000040A0200040A0400040A0600040A0800040A0A00040A0C00040A0E00040C0000040C0200040C0400040C0600040C08000
310
40C0A00040C0C00040C0E00040E0000040E0200040E0400040E0600040E0800040E0A00040E0C00040E0E00080000000800020008000400080006000800080008000A0008000C0008000E00080200000802020008020400080206000802080008020A0008020C0008020E00080400000804020008040400080406000804080
310
008040A0008040C0008040E00080600000806020008060400080606000806080008060A0008060C0008060E00080800000808020008080400080806000808080008080A0008080C0008080E00080A0000080A0200080A0400080A0600080A0800080A0A00080A0C00080A0E00080C0000080C0200080C0400080C0600080C0
310
800080C0A00080C0C00080C0E00080E0000080E0200080E0400080E0600080E0800080E0A00080E0C00080E0E000C0000000C0002000C0004000C0006000C0008000C000A000C000C000C000E000C0200000C0202000C0204000C0206000C0208000C020A000C020C000C020E000C0400000C0402000C0404000C0406000C0
310
408000C040A000C040C000C040E000C0600000C0602000C0604000C0606000C0608000C060A000C060C000C060E000C0800000C0802000C0804000C0806000C0808000C080A000C080C000C080E000C0A00000C0A02000C0A04000C0A06000C0A08000C0A0A000C0A0C000C0A0E000C0C00000C0C02000C0C04000C0C06000
310
C0C08000C0C0A000F0FBFF00A4A0A000808080000000FF0000FF000000FFFF00FF000000FF00FF00FFFF0000FFFFFF00A4A4A4A4A4A4A4A4A4A4A4A4A4A4A4A4A4A4A4A4A4A4A4A4A4A4A4A4A4A4A4A4A4A4A4A4A4A4A4A4A4A4A4A4A4A4A4A4A4A4A4A4A4A4A4A4A4A4A4A4A4A4A4A4A4A4A4A4A4A4A4A4A4A4A4A4A4A4A4
310
A4A4A4A4A4A4A4A4A4A4A4A4A4A4A4A4A4A4A4A4A4A4A4A4A4A4A4A4A4A4A4A4A4A4A4A4A4A4A4A4A4A4A4A4A4A4A4A4A4A4A4A4A4A4A4A4A4A4A4A4A4A4A4A4A4A4A4A4A4A4A4A4A4A4A4A4A4A4A4A4A4A4A4A4A4A4A4A4A4A4A4A4A4A4A4A4A4A4A4A4A4A4A4A4A4A4A4A4A4A4A4A4A4A4A4A4A4A4A4A4A4A4A4A4A4A4A4
310
A4A4A4A4A4A4A4A4A4A4A4A4A4A4A4A4A4A4A4A4A4A4A4A4A4A4A4A4A4A4A4A4A4A4A4A4A4A4A4A4A4A4A4A4A4A4A4A4A4A4A4A4A4A4A4A4A4A4A4A4A4A4A4A4A4A4A4A4A4A4A4A4A4A4A4A4A4A4A4A4A4A4A4A4A4A4A4A4A4A4A4A4A4A4A4A4A4A4A4A4A4A4A4A4A4A4A4A4A4A4A4A4A4A4A4A4A4A4A4A4A4A4A4A4A4A4A4
310
A4A4A4A4A4A4A4A4A4A4A4A4A4A4A4A4A4A4A4A4A4A4A4A4A4A4A4A4A4A4A4A4A4A4A4A4A4A4A4A4A4A4A4A4A4A4A4A4A4A4A4A4A4A4A4A4A4A4A4A4A4A4A4A4A4A4A4A4A4A4A4A4A4A4A4A4A4A4A4A4A4A4A4A4A4A4A4A4A4A4A4A4A4A4A4A4A4A4A4A4A4A4A4A4A4A4A4A4A4A4A4A4A4A4A4A4F9F9F9F9F9F9F9F9F9F9F9
310
F9F9F9F9F9F9F9F9F9F9F9F9F9F9F9F9F9F9F9A4A4F9F9F9F9F9F9F9F9F9F9F9F9F9F9F9F9F9F9F9F9F9F9F9F9F9F9F9F9F9F9A4A4F9F9F9F9F9F9F9F9F9F9F9F9F9F9F9F9F9F9F9F9F9F9F9F9F9F9F9F9F9F9A4A4F9A4A4A4A4A4A4A4A4A4A4A4A4A4A4A4A4A4A4A4A4A4A4A4A4A4A4A4A4F9A4A4A4A4A4A4A4A4A4A4A4A4
310
A4A4A4A4A4A4A4A4A4A4A4A4A4A4A4A4A4A4A4A4A4A4A4A4A4A4A4A4A4A4A4A4A4A4A4A4A4A4A4A4A4A4A4A4A4A4A4A4A4A4A4A4A4A4A4A4A4A4A4A4A4A4A4A4A4A4A4A4A4A4A4A4A4A4A4A4A4A4A4A4A4A4A4A4A4A4A4A4A4A4A4A4A4A4A4A4A4A4A4A4A4A4A4A4A4A4A4A4A4A4A4A4A4A4A4A4A4A4A4A4A4A4A4A4A4A4A4
310
A4A4A4A4A4A4A4A4A4A4A4A4A4A4A4A4A4A4A4A4A4A4A4A4A4A4A4A4A4A4A4A4A4A4A4A4A4A4A4A4A4A4A4A4A4A4A4A4A4A4A4A4A4A4A4A4A4A4A4A4A4A4A4A4A4A4A4A4A4A4A4A4A4A4A4A4A4A4A4A4A4A4A4A4A4A4A4A4A4A4A4A4A4A4A4A4A4A4A4A4A4A4A4A4A4A4A4A4A4A4A4A4A4A4A4A4A4A4A4A4A4A4A4A4A4A4A4
310
A4A4A4A4A4A4A4A4A4A4A4A4A4A4A4A4A4A4A4A4A4A4A4A4A4A4A4A4A4A4A4A4A4A4A4A4A4A4A4A4A4A4A4A4A4A4A4A4A4A4A4A4A4A4A4A4A4A4A4A4A4A4A4A4A4A4A4A4A4A4A4A4A4A4A4A4A4A4A4A4A4A4A4A4A4A4A4A4A4A4A4A4A4A4A4A4A4A4A4A4A4A4A4A4A4A4A4A4A4A4A4A4A4A4A4A4A4A4A4A4A4A4A4A4A4A4A4
310
A4A4A4A4A4A4A4A4A4A4A4A4A4A4A4A4A4A4A4A4A4A4A4A4A4A4A4A4A4A4A4A4A4A4A4A4A4A4A4A4A4A4A4A4A4A4A4A4A4A4A4A4A4A4A4A4
1001
ACAD
1000
DesignCenter Data
1002
{
1070
     1
1070
     4
1002
}
  0
BLOCK_RECORD
  5
AA8
330
1
100
AcDbSymbolTableRecord
100
AcDbBlockTableRecord
  2
_CLOSED
340
0
  0
BLOCK_RECORD
  5
B79
330
1
100
AcDbSymbolTableRecord
100
AcDbBlockTableRecord
  2
nota revisoes
340
0
1001
ACAD
1000
DesignCenter Data
1002
{
1070
     1
1070
     4
1002
}
  0
BLOCK_RECORD
  5
B8E
330
1
100
AcDbSymbolTableRecord
100
AcDbBlockTableRecord
  2
a3l
340
0
1001
ACAD
1000
DesignCenter Data
1002
{
1070
     1
1070
     4
1002
}
  0
BLOCK_RECORD
  5
B9E
330
1
100
AcDbSymbolTableRecord
100
AcDbBlockTableRecord
  2
legenda desenvolvimento
340
0
1001
ACAD
1000
DesignCenter Data
1002
{
1070
     1
1070
     4
1002
}
  0
BLOCK_RECORD
  5
11F8
330
1
100
AcDbSymbolTableRecord
100
AcDbBlockTableRecord
  2
*D8
340
0
  0
ENDTAB
  0
ENDSEC
  0
SECTION
  2
BLOCKS
  0
BLOCK
  5
20
330
1F
100
AcDbEntity
  8
0
100
AcDbBlockBegin
  2
*Model_Space
 70
     0
 10
0.0
 20
0.0
 30
0.0
  3
*Model_Space
  1

  0
ENDBLK
  5
21
330
1F
100
AcDbEntity
  8
0
100
AcDbBlockEnd
  0
BLOCK
  5
1C
330
1B
100
AcDbEntity
 67
     1
  8
0
100
AcDbBlockBegin
  2
*Paper_Space
 70
     0
 10
0.0
 20
0.0
 30
0.0
  3
*Paper_Space
  1

  0
ENDBLK
  5
1D
330
1B
100
AcDbEntity
 67
     1
  8
0
100
AcDbBlockEnd
  0
BLOCK
  5
24
330
23
100
AcDbEntity
 67
     1
  8
0
100
AcDbBlockBegin
  2
*Paper_Space0
 70
     0
 10
0.0
 20
0.0
 30
0.0
  3
*Paper_Space0
  1

  0
ENDBLK
  5
25
330
23
100
AcDbEntity
 67
     1
  8
0
100
AcDbBlockEnd
  0
BLOCK
  5
91B
330
919
100
AcDbEntity
  8
0
100
AcDbBlockBegin
  2
_DotSmall
 70
     0
 10
0.0
 20
0.0
 30
0.0
  3
_DotSmall
  1

  0
LWPOLYLINE
  5
91A
330
919
100
AcDbEntity
  8
0
  6
ByBlock
 62
     0
100
AcDbPolyline
 90
        2
 70
     1
 43
0.5
 10
-0.0625
 20
0.0
 42
1.0
 10
0.0625
 20
0.0
 42
1.0
  0
ENDBLK
  5
91C
330
919
100
AcDbEntity
  8
0
100
AcDbBlockEnd
  0
BLOCK
  5
92A
330
922
100
AcDbEntity
  8
0
100
AcDbBlockBegin
  2
base para cotas
 70
     0
 10
0.0
 20
0.0
 30
0.0
  3
base para cotas
  1

  0
LINE
  5
B36
330
922
100
AcDbEntity
  8
cotas
100
AcDbLine
 10
0.0
 20
-30.0
 30
0.0
 11
327.1260136525398
 21
-30.0
 31
0.0
  0
LINE
  5
B37
330
922
100
AcDbEntity
  8
cotas
100
AcDbLine
 10
0.0
 20
-25.0
 30
0.0
 11
327.1260136525398
 21
-25.0
 31
0.0
  0
LINE
  5
B38
330
922
100
AcDbEntity
  8
cotas
100
AcDbLine
 10
0.0
 20
-20.0
 30
0.0
 11
327.1260136525398
 21
-20.0
 31
0.0
  0
LINE
  5
B39
330
922
100
AcDbEntity
  8
cotas
100
AcDbLine
 10
0.0
 20
-15.0
 30
0.0
 11
327.1260136525398
 21
-15.0
 31
0.0
  0
LINE
  5
B3A
330
922
100
AcDbEntity
  8
cotas
100
AcDbLine
 10
0.0
 20
-10.0
 30
0.0
 11
327.1260136525398
 21
-10.0
 31
0.0
  0
LINE
  5
B3B
330
922
100
AcDbEntity
  8
cotas
100
AcDbLine
 10
0.0
 20
0.0
 30
0.0
 11
0.0
 21
-30.0
 31
0.0
  0
LINE
  5
B3C
330
922
100
AcDbEntity
  8
cotas
100
AcDbLine
 10
327.1260136525398
 20
-30.0
 30
0.0
 11
327.1260136525398
 21
0.0
 31
0.0
  0
ENDBLK
  5
92B
330
922
100
AcDbEntity
  8
0
100
AcDbBlockEnd
  0
BLOCK
  5
AAD
330
AA8
100
AcDbEntity
  8
0
100
AcDbBlockBegin
  2
_CLOSED
 70
     0
 10
0.0
 20
0.0
 30
0.0
  3
_CLOSED
  1

  0
LINE
  5
AA9
330
AA8
100
AcDbEntity
  8
0
100
AcDbLine
 10
-1.0
 20
0.166667
 30
0.0
 11
0.0
 21
0.0
 31
0.0
  0
LINE
  5
AAA
330
AA8
100
AcDbEntity
  8
0
100
AcDbLine
 10
0.0
 20
0.0
 30
0.0
 11
-1.0
 21
-0.166667
 31
0.0
  0
LINE
  5
AAB
330
AA8
100
AcDbEntity
  8
0
100
AcDbLine
 10
-1.0
 20
0.166667
 30
0.0
 11
-1.0
 21
-0.166667
 31
0.0
  0
LINE
  5
AAC
330
AA8
100
AcDbEntity
  8
0
100
AcDbLine
 10
0.0
 20
0.0
 30
0.0
 11
-1.0
 21
0.0
 31
0.0
  0
ENDBLK
  5
AAE
330
AA8
100
AcDbEntity
  8
0
100
AcDbBlockEnd
  0
BLOCK
  5
B7C
330
B79
100
AcDbEntity
  8
0
100
AcDbBlockBegin
  2
nota revisoes
 70
     0
 10
0.0
 20
0.0
 30
0.0
  3
nota revisoes
  1

  0
CIRCLE
  5
B7A
330
B79
100
AcDbEntity
  8
4
100
AcDbCircle
 10
0.0
 20
0.0
 30
0.0
 40
13.69426055101189
  0
TEXT
  5
B7B
330
B79
100
AcDbEntity
  8
4
100
AcDbText
 10
-5.496248358154345
 20
-5.354545554066362
 30
0.0
 40
12.0
  1
1
  7
SANINDUSA
 72
     1
 11
-0.249774214433728
 21
-5.354545554066362
 31
0.0
100
AcDbText
  0
ENDBLK
  5
B7D
330
B79
100
AcDbEntity
  8
0
100
AcDbBlockEnd
  0
BLOCK
  5
B9C
330
B8E
100
AcDbEntity
  8
0
100
AcDbBlockBegin
  2
a3l
 70
     0
 10
0.0
 20
0.0
 30
0.0
  3
a3l
  1

  0
LINE
  5
B8F
330
B8E
100
AcDbEntity
  8
1
100
AcDbLine
 10
-364.2925296599447
 20
-362.1188951399395
 30
0.0
 11
-364.2925296599447
 21
-65.11889513993946
 31
0.0
  0
LINE
  5
B90
330
B8E
100
AcDbEntity
  8
4
100
AcDbLine
 10
-369.2925296599447
 20
-357.1188951399395
 30
0.0
 11
-369.2925296599447
 21
-70.11889513993946
 31
0.0
  0
LINE
  5
B91
330
B8E
100
AcDbEntity
  8
1
100
AcDbLine
 10
-784.2925296599446
 20
-65.11889513993946
 30
0.0
 11
-784.2925296599446
 21
-362.1188951399395
 31
0.0
  0
LINE
  5
B92
330
B8E
100
AcDbEntity
  8
4
100
AcDbLine
 10
-759.2925296599446
 20
-357.1188951399395
 30
0.0
 11
-759.2925296599446
 21
-70.11889513993946
 31
0.0
  0
LINE
  5
B93
330
B8E
100
AcDbEntity
  8
1
100
AcDbLine
 10
-784.2925296599446
 20
-362.1188951399395
 30
0.0
 11
-364.2925296599447
 21
-362.1188951399395
 31
0.0
  0
LINE
  5
B94
330
B8E
100
AcDbEntity
  8
4
100
AcDbLine
 10
-759.2925296599446
 20
-357.1188951399395
 30
0.0
 11
-369.2925296599447
 21
-357.1188951399395
 31
0.0
  0
LINE
  5
B95
330
B8E
100
AcDbEntity
  8
1
100
AcDbLine
 10
-654.2925296599446
 20
-357.1188951399395
 30
0.0
 11
-654.2925296599446
 21
-362.1188951399395
 31
0.0
  0
LINE
  5
B96
330
B8E
100
AcDbEntity
  8
1
100
AcDbLine
 10
-364.2925296599447
 20
-65.11889513993946
 30
0.0
 11
-784.2925296599446
 21
-65.11889513993946
 31
0.0
  0
LINE
  5
B97
330
B8E
100
AcDbEntity
  8
4
100
AcDbLine
 10
-369.2925296599447
 20
-70.11889513993946
 30
0.0
 11
-759.2925296599446
 21
-70.11889513993946
 31
0.0
  0
LINE
  5
B98
330
B8E
100
AcDbEntity
  8
1
100
AcDbLine
 10
-654.2925296599446
 20
-65.11889513993946
 30
0.0
 11
-654.2925296599446
 21
-70.11889513993946
 31
0.0
  0
LINE
  5
B99
330
B8E
100
AcDbEntity
  8
1
100
AcDbLine
 10
-549.2925296599446
 20
-70.11889513993946
 30
0.0
 11
-549.2925296599446
 21
-65.11889513993946
 31
0.0
  0
LINE
  5
B9A
330
B8E
100
AcDbEntity
  8
1
100
AcDbLine
 10
-369.2925296599447
 20
-65.11889513993946
 30
0.0
 11
-364.2925296599447
 21
-65.11889513993946
 31
0.0
  0
LINE
  5
B9B
330
B8E
100
AcDbEntity
  8
1
100
AcDbLine
 10
-549.2925296599446
 20
-357.1188951399395
 30
0.0
 11
-549.2925296599446
 21
-362.1188951399395
 31
0.0
  0
ENDBLK
  5
B9D
330
B8E
100
AcDbEntity
  8
0
100
AcDbBlockEnd
  0
BLOCK
  5
C13
330
B9E
100
AcDbEntity
  8
0
100
AcDbBlockBegin
  2
legenda desenvolvimento
 70
     2
 10
0.0
 20
0.0
 30
0.0
  3
legenda desenvolvimento
  1

  0
ATTDEF
  5
B9F
330
B9E
100
AcDbEntity
  8
1
100
AcDbText
 10
-108.606245802552
 20
55.5
 30
0.0
 40
4.0
  1
XXXXXXXXXXXXXX
 41
0.8
  7
SANINDUSA
 72
     4
 11
-87.5
 21
57.5
 31
0.0
100
AcDbAttributeDefinition
  3
Nome do Produto:
  2
PRODUTO
 70
     0
  0
ATTDEF
  5
BA0
330
B9E
100
AcDbEntity
  8
1
100
AcDbText
 10
-97.9997966101695
 20
41.25
 30
0.0
 40
3.0
  1
XXXXXXXXX
 41
0.8
  7
futura
 72
     4
 11
-87.5
 21
42.75
 31
0.0
100
AcDbAttributeDefinition
  3
Nome da Peça:
  2
PECA
 70
     0
  0
ATTDEF
  5
BA1
330
B9E
100
AcDbEntity
  8
1
100
AcDbText
 10
-133.4422431161853
 20
21.11745296763252
 30
0.0
 40
2.5
  1
X
 41
0.8
  7
SANINDUSA
 72
     4
 11
-132.5
 21
22.36745296763252
 31
0.0
100
AcDbAttributeDefinition
  3
Cod. TESTE:
  2
TESTE
 70
     0
  0
ATTDEF
  5
BA2
330
B9E
100
AcDbEntity
  8
1
100
AcDbText
 10
-124.3844862323707
 20
21.11745296763252
 30
0.0
 40
2.5
  1
XX
 41
0.8
  7
SANINDUSA
 72
     4
 11
-122.5
 21
22.36745296763252
 31
0.0
100
AcDbAttributeDefinition
  3
Cod. Ano:
  2
ANO
 70
     0
  0
ATTDEF
  5
BA3
330
B9E
100
AcDbEntity
  8
1
100
AcDbText
 10
-112.526889953052
 20
21.11745296763252
 30
0.0
 40
2.5
  1
XXX
 41
0.8
  7
SANINDUSA
 72
     4
 11
-109.700160604496
 21
22.36745296763252
 31
0.0
100
AcDbAttributeDefinition
  3
Cod. Sequência:
  2
SEQUENCIA
 70
     0
  0
ATTDEF
  5
BA4
330
B9E
100
AcDbEntity
  8
1
100
AcDbText
 10
-99.35382430979316
 20
21.11745296763252
 30
0.0
 40
2.5
  1
XX
 41
0.8
  7
SANINDUSA
 72
     4
 11
-97.46933807742244
 21
22.36745296763252
 31
0.0
100
AcDbAttributeDefinition
  3
Cod. Tipo:
  2
TIPO
 70
     0
  0
ATTDEF
  5
BA5
330
B9E
100
AcDbEntity
  8
1
100
AcDbText
 10
-87.42035911468438
 20
21.11745296763252
 30
0.0
 40
2.5
  1
XXX
 41
0.8
  7
SANINDUSA
 72
     4
 11
-84.59362976612828
 21
22.36745296763252
 31
0.0
100
AcDbAttributeDefinition
  3
Cod. Produto:
  2
PRODUTO
 70
     0
  0
ATTDEF
  5
BA6
330
B9E
100
AcDbEntity
  8
1
100
AcDbText
 10
-74.62051971917853
 20
21.11745296763252
 30
0.0
 40
2.5
  1
XXX
 41
0.8
  7
SANINDUSA
 72
     4
 11
-71.79379037062244
 21
22.36745296763252
 31
0.0
100
AcDbAttributeDefinition
  3
Cod. Peça:
  2
PECA
 70
     0
  0
ATTDEF
  5
BA7
330
B9E
100
AcDbEntity
  8
1
100
AcDbText
 10
-61.10603446650329
 20
21.11745296763252
 30
0.0
 40
2.5
  1
XX
 41
0.8
  7
SANINDUSA
 72
     4
 11
-59.22154823413257
 21
22.36745296763252
 31
0.0
100
AcDbAttributeDefinition
  3
Cod. Revisão:
  2
REV
 70
     0
  0
ATTDEF
  5
BA8
330
B9E
100
AcDbEntity
  8
1
100
AcDbText
 10
-48.43615325006194
 20
21.11745296763252
 30
0.0
 40
2.5
  1
XX
 41
0.8
  7
SANINDUSA
 72
     4
 11
-46.55166701769121
 21
22.36745296763252
 31
0.0
100
AcDbAttributeDefinition
  3
Cod. Alteração:
  2
ALT
 70
     0
  0
ATTDEF
  5
BA9
330
B9E
100
AcDbEntity
  8
1
100
AcDbText
 10
-35.19086635325722
 20
23.98875083948959
 30
0.0
 40
3.0
  1
1/XXX
 41
0.8
  7
SANINDUSA
 72
     4
 11
-30.0
 21
25.25
 31
0.0
100
AcDbAttributeDefinition
  3
Escala geral:
  2
ESCALA
 70
     0
  0
ATTDEF
  5
BAA
330
B9E
100
AcDbEntity
  8
1
100
AcDbText
 10
-15.65345869711215
 20
23.75
 30
0.0
 40
3.0
  1
XXXXX
 41
0.8
  7
SANINDUSA
 72
     4
 11
-10.0
 21
25.25
 31
0.0
100
AcDbAttributeDefinition
  3
Folha:
  2
FOLHA
 70
     0
  0
ATTDEF
  5
BAB
330
B9E
100
AcDbEntity
  8
1
100
AcDbText
 10
-178.5146998822042
 20
56.9531347542807
 30
0.0
 40
2.0
  1
xx
 41
0.8
  7
SANINDUSA
 72
     4
 11
-177.2123493113513
 21
57.70330265219877
 31
0.0
100
AcDbAttributeDefinition
  3
revisão
  2
REV.
 70
     0
  0
ATTDEF
  5
BAC
330
B9E
100
AcDbEntity
  8
1
100
AcDbText
 10
-172.7849640077129
 20
56.9531347542807
 30
0.0
 40
2.0
  1
xx
 41
0.8
  7
SANINDUSA
 72
     4
 11
-171.48261343686
 21
57.70330265219877
 31
0.0
100
AcDbAttributeDefinition
  3
alteração
  2
ALT.
 70
     0
  0
ATTDEF
  5
BAD
330
B9E
100
AcDbEntity
  8
1
100
AcDbText
 10
-168.007199951307
 20
56.70330265219877
 30
0.0
 40
2.0
  1
xx/xx/xxxx
 41
0.8
  7
SANINDUSA
 11
-168.007199951307
 21
57.70330265219877
 31
0.0
100
AcDbAttributeDefinition
  3
data
  2
DATA
 70
     0
 74
     2
  0
ATTDEF
  5
BAE
330
B9E
100
AcDbEntity
  8
1
100
AcDbText
 10
-168.5396372253371
 20
13.15916722632639
 30
0.0
 40
2.0
  1
XX/XX/XXXX
 41
0.8
  7
SANINDUSA
 72
     4
 11
-161.5099528734231
 21
14.0
 31
0.0
100
AcDbAttributeDefinition
  3
Data projecto
  2
DATA_PROJ
 70
     0
  0
ATTDEF
  5
BAF
330
B9E
100
AcDbEntity
  8
1
100
AcDbText
 10
-150.8658110728766
 20
13.24983210208193
 30
0.0
 40
2.0
  1
xxxxxxxx
 41
0.8
  7
SANINDUSA
 72
     4
 11
-145.6564087894649
 21
14.0
 31
0.0
100
AcDbAttributeDefinition
  3
nome de quem projectou
  2
NOME
 70
     0
  0
ATTDEF
  5
BB0
330
B9E
100
AcDbEntity
  8
1
100
AcDbText
 10
-168.5396372253371
 20
9.159167226326394
 30
0.0
 40
2.0
  1
XX/XX/XXXX
 41
0.8
  7
SANINDUSA
 72
     4
 11
-161.5099528734231
 21
10.0
 31
0.0
100
AcDbAttributeDefinition
  3
Data desenhou
  2
DATA_DES
 70
     0
  0
ATTDEF
  5
BB1
330
B9E
100
AcDbEntity
  8
1
100
AcDbText
 10
-151.516986358303
 20
9.249832102081933
 30
0.0
 40
2.0
  1
xxxxxxxxx
 41
0.8
  7
SANINDUSA
 72
     4
 11
-145.6564087894649
 21
10.0
 31
0.0
100
AcDbAttributeDefinition
  3
nome
  2
NOME
 70
     0
  0
ATTDEF
  5
BB2
330
B9E
100
AcDbEntity
  8
1
100
AcDbText
 10
-127.2924214135946
 20
14.1979876583216
 30
0.0
 40
2.0
  1
Vitreous China
 41
0.8
  7
SANINDUSA
 72
     4
 11
-119.231709526422
 21
15.22216495852308
 31
0.0
100
AcDbAttributeDefinition
  3
Nome do Material:
  2
MATERIAL
 70
     0
  0
ATTDEF
  5
BB3
330
B9E
100
AcDbEntity
  8
1
100
AcDbText
 10
-103.1563452122093
 20
14.38019043949261
 30
0.0
 40
2.0
  1
Branco
 41
0.8
  7
SANINDUSA
 72
     4
 11
-99.33418268702462
 21
15.35937109765245
 31
0.0
100
AcDbAttributeDefinition
  3
cor da peça
  2
COR
 70
     0
  0
ATTDEF
  5
BB4
330
B9E
100
AcDbEntity
  8
1
100
AcDbText
 10
-116.7235057085292
 20
5.975822699798522
 30
0.0
 40
2.0
  1
Vidrado
 41
0.8
  7
SANINDUSA
 72
     4
 11
-112.5
 21
7.0
 31
0.0
100
AcDbAttributeDefinition
  3
Tipo de acabamento:
  2
ACABAMENTO
 70
     0
  0
ATTDEF
  5
BB5
330
B9E
100
AcDbEntity
  8
1
100
AcDbText
 10
-79.18527869967246
 20
16.65066409850533
 30
0.0
 40
2.0
  1
XXXXXXX
 41
0.8
  7
SANINDUSA
 72
     4
 11
-73.90871724903445
 21
17.65066409850533
 31
0.0
100
AcDbAttributeDefinition
  3
Normas
  2
NORMAS
 70
     0
  0
ATTDEF
  5
BB6
330
B9E
100
AcDbEntity
  8
1
100
AcDbText
 10
-30.55312290127603
 20
14.0
 30
0.0
 40
2.0
  1
XXXXXXXXXXXXXX
 41
0.8
  7
SANINDUSA
 72
     4
 11
-20.0
 21
15.0
 31
0.0
100
AcDbAttributeDefinition
  3
Substitui o desenho:
  2
SUBSTITUI
 70
     0
  0
ATTDEF
  5
BB7
330
B9E
100
AcDbEntity
  8
1
100
AcDbText
 10
-31.30691739422431
 20
6.0
 30
0.0
 40
2.0
  1
XXXXXXXXXXXXXXX
 41
0.8
  7
SANINDUSA
 72
     4
 11
-20.0
 21
7.0
 31
0.0
100
AcDbAttributeDefinition
  3
Substituido por:
  2
SUBSTITUIDO
 70
     0
  0
ATTDEF
  5
BB8
330
B9E
100
AcDbEntity
  8
1
100
AcDbText
 10
-110.0220608548302
 20
1.478208457928303
 30
0.0
 40
2.0
  1
XXXXXXXXXXXXXXXXXXXXXXXXXXXXXXXXXX
 41
0.8
  7
SANINDUSA
 11
-110.0220608548302
 21
2.478208457928303
 31
0.0
100
AcDbAttributeDefinition
  3
Localização do desenho:
  2
LOC-DWG
 70
     0
 74
     2
  0
LINE
  5
BB9
330
B9E
100
AcDbEntity
  8
3
100
AcDbLine
 10
-135.0
 20
4.0
 30
0.0
 11
0.0000000000004547
 21
4.0
 31
0.0
  0
LINE
  5
BBA
330
B9E
100
AcDbEntity
  8
3
100
AcDbLine
 10
-90.00000000000046
 20
12.0
 30
0.0
 11
-135.0
 21
12.0
 31
0.0
  0
LINE
  5
BBB
330
B9E
100
AcDbEntity
  8
3
100
AcDbLine
 10
-135.0
 20
32.5
 30
0.0
 11
-40.0
 21
32.5
 31
0.0
  0
TEXT
  5
BBC
330
B9E
100
AcDbEntity
  8
1
100
AcDbText
 10
-134.0
 20
1.25
 30
0.0
 40
2.0
  1
Localização do des.:
 41
0.8
  7
SANINDUSA
 11
-134.0
 21
2.25
 31
0.0
100
AcDbText
 73
     2
  0
LINE
  5
BBD
330
B9E
100
AcDbEntity
  8
3
100
AcDbLine
 10
-180.0
 20
65.0
 30
0.0
 11
0.0
 21
65.0
 31
0.0
  0
LINE
  5
BBE
330
B9E
100
AcDbEntity
  8
leg fin
100
AcDbLine
 10
-40.0
 20
25.05956924886846
 30
0.0
 11
-135.0
 21
25.05956924886846
 31
0.0
  0
LINE
  5
BBF
330
B9E
100
AcDbEntity
  8
leg fin
100
AcDbLine
 10
-40.0
 20
28.5
 30
0.0
 11
-135.0
 21
28.5
 31
0.0
  0
LINE
  5
BC0
330
B9E
100
AcDbEntity
  8
3
100
AcDbLine
 10
-135.0
 20
50.0
 30
0.0
 11
-40.0
 21
50.0
 31
0.0
  0
TEXT
  5
BC1
330
B9E
100
AcDbEntity
  8
1
100
AcDbText
 10
-134.0
 20
29.75
 30
0.0
 40
2.0
  1
Desenho nº:
 41
0.8
  7
SANINDUSA
 11
-134.0
 21
30.75
 31
0.0
100
AcDbText
 73
     2
  0
TEXT
  5
BC2
330
B9E
100
AcDbEntity
  8
1
100
AcDbText
 10
-134.0
 20
9.25
 30
0.0
 40
2.0
  1
Acabamento:
 41
0.8
  7
SANINDUSA
 11
-134.0
 21
10.25
 31
0.0
100
AcDbText
 73
     2
  0
LINE
  5
BC3
330
B9E
100
AcDbEntity
  8
3
100
AcDbLine
 10
-180.0
 20
20.0
 30
0.0
 11
0.0
 21
20.0
 31
0.0
  0
LINE
  5
BC4
330
B9E
100
AcDbEntity
  8
1
100
AcDbLine
 10
-174.5810776056337
 20
55.5
 30
0.0
 11
-174.5810776056337
 21
65.0
 31
0.0
  0
LINE
  5
BC5
330
B9E
100
AcDbEntity
  8
1
100
AcDbLine
 10
-168.9210461879161
 20
55.5
 30
0.0
 11
-168.9210461879161
 21
65.0
 31
0.0
  0
LINE
  5
BC6
330
B9E
100
AcDbEntity
  8
1
100
AcDbLine
 10
-154.0988595589306
 20
55.5
 30
0.0
 11
-154.0988595589306
 21
65.0
 31
0.0
  0
LINE
  5
BC7
330
B9E
100
AcDbEntity
  8
3
100
AcDbLine
 10
-180.0
 20
65.0
 30
0.0
 11
-180.0
 21
0.0
 31
0.0
  0
LINE
  5
BC8
330
B9E
100
AcDbEntity
  8
3
100
AcDbLine
 10
-135.0
 20
0.0
 30
0.0
 11
-135.0
 21
65.0
 31
0.0
  0
TEXT
  5
BC9
330
B9E
100
AcDbEntity
  8
1
100
AcDbText
 10
-179.0
 20
9.75
 30
0.0
 40
1.5
  1
Des.
 41
0.8
  7
SANINDUSA
 11
-179.0
 21
10.5
 31
0.0
100
AcDbText
 73
     2
  0
LINE
  5
BCA
330
B9E
100
AcDbEntity
  8
1
100
AcDbLine
 10
-168.9210461879161
 20
20.0
 30
0.0
 11
-168.9210461879161
 21
0.0
 31
0.0
  0
LINE
  5
BCB
330
B9E
100
AcDbEntity
  8
1
100
AcDbLine
 10
-154.0988595589306
 20
20.0
 30
0.0
 11
-154.0988595589306
 21
0.0
 31
0.0
  0
LINE
  5
BCC
330
B9E
100
AcDbEntity
  8
1
100
AcDbLine
 10
-180.0
 20
4.0
 30
0.0
 11
-135.0
 21
4.0
 31
0.0
  0
LINE
  5
BCD
330
B9E
100
AcDbEntity
  8
1
100
AcDbLine
 10
-180.0
 20
8.0
 30
0.0
 11
-135.0
 21
8.0
 31
0.0
  0
TEXT
  5
BCE
330
B9E
100
AcDbEntity
  8
1
100
AcDbText
 10
-179.0
 20
1.73257823687436
 30
0.0
 40
1.5
  1
Aprov.
 41
0.8
  7
SANINDUSA
 11
-179.0
 21
2.48257823687436
 31
0.0
100
AcDbText
 73
     2
  0
TEXT
  5
BCF
330
B9E
100
AcDbEntity
  8
1
100
AcDbText
 10
-179.0
 20
5.75
 30
0.0
 40
1.5
  1
Ver.
 41
0.8
  7
SANINDUSA
 11
-179.0
 21
6.5
 31
0.0
100
AcDbText
 73
     2
  0
LINE
  5
BD0
330
B9E
100
AcDbEntity
  8
1
100
AcDbLine
 10
-180.0
 20
16.0
 30
0.0
 11
-135.0
 21
16.0
 31
0.0
  0
LINE
  5
BD1
330
B9E
100
AcDbEntity
  8
1
100
AcDbLine
 10
-180.0
 20
12.0
 30
0.0
 11
-135.0
 21
12.0
 31
0.0
  0
TEXT
  5
BD2
330
B9E
100
AcDbEntity
  8
1
100
AcDbText
 10
-179.0
 20
13.75
 30
0.0
 40
1.5
  1
Proj.
 41
0.8
  7
SANINDUSA
 11
-179.0
 21
14.5
 31
0.0
100
AcDbText
 73
     2
  0
TEXT
  5
BD3
330
B9E
100
AcDbEntity
  8
1
100
AcDbText
 10
-167.9210461879161
 20
17.75
 30
0.0
 40
1.5
  1
Data
 41
0.8
  7
SANINDUSA
 11
-167.9210461879161
 21
18.5
 31
0.0
100
AcDbText
 73
     2
  0
TEXT
  5
BD4
330
B9E
100
AcDbEntity
  8
1
100
AcDbText
 10
-153.0988595589306
 20
17.75
 30
0.0
 40
1.5
  1
Nome
 41
0.8
  7
SANINDUSA
 11
-153.0988595589306
 21
18.5
 31
0.0
100
AcDbText
 73
     2
  0
LINE
  5
BD5
330
B9E
100
AcDbEntity
  8
leg fin
100
AcDbLine
 10
-130.0
 20
20.0
 30
0.0
 11
-130.0
 21
28.5
 31
0.0
  0
TEXT
  5
BD6
330
B9E
100
AcDbEntity
  8
1
100
AcDbText
 10
-134.0
 20
17.25
 30
0.0
 40
2.0
  1
Material:
 41
0.8
  7
SANINDUSA
 11
-134.0
 21
18.25
 31
0.0
100
AcDbText
 73
     2
  0
TEXT
  5
BD7
330
B9E
100
AcDbEntity
  8
1
100
AcDbText
 10
-129.0
 20
26.43288406845113
 30
0.0
 40
1.5
  1
Ano:
 41
0.8
  7
SANINDUSA
 11
-129.0
 21
27.18288406845113
 31
0.0
100
AcDbText
 73
     2
  0
LINE
  5
BD8
330
B9E
100
AcDbEntity
  8
1
100
AcDbLine
 10
-180.0
 20
55.5
 30
0.0
 11
-135.0
 21
55.5
 31
0.0
  0
TEXT
  5
BD9
330
B9E
100
AcDbEntity
  8
1
100
AcDbText
 10
-179.0
 20
52.67772246885193
 30
0.0
 40
1.5
  1
descrição
 41
0.8
  7
SANINDUSA
 11
-179.0
 21
53.42772246885193
 31
0.0
100
AcDbText
 73
     2
  0
TEXT
  5
BDA
330
B9E
100
AcDbEntity
  8
1
100
AcDbText
 10
-134.0
 20
47.25
 30
0.0
 40
2.0
  1
Peça:
 41
0.8
  7
SANINDUSA
 11
-134.0
 21
48.25
 31
0.0
100
AcDbText
 73
     2
  0
LINE
  5
BDB
330
B9E
100
AcDbEntity
  8
1
100
AcDbLine
 10
-180.0
 20
59.5
 30
0.0
 11
-135.0
 21
59.5
 31
0.0
  0
TEXT
  5
BDC
330
B9E
100
AcDbEntity
  8
1
100
AcDbText
 10
-173.5810776056337
 20
62.75
 30
0.0
 40
1.5
  1
Alt.
 41
0.8
  7
SANINDUSA
 11
-173.5810776056337
 21
63.5
 31
0.0
100
AcDbText
 73
     2
  0
TEXT
  5
BDD
330
B9E
100
AcDbEntity
  8
1
100
AcDbText
 10
-179.0
 20
62.75
 30
0.0
 40
1.5
  1
Rev.
 41
0.8
  7
SANINDUSA
 11
-179.0
 21
63.5
 31
0.0
100
AcDbText
 73
     2
  0
TEXT
  5
BDE
330
B9E
100
AcDbEntity
  8
1
100
AcDbText
 10
-167.9210461879161
 20
62.75
 30
0.0
 40
1.5
  1
Data
 41
0.8
  7
SANINDUSA
 11
-167.9210461879161
 21
63.5
 31
0.0
100
AcDbText
 73
     2
  0
TEXT
  5
BDF
330
B9E
100
AcDbEntity
  8
1
100
AcDbText
 10
-153.0988595589306
 20
62.75
 30
0.0
 40
1.5
  1
Nome
 41
0.8
  7
SANINDUSA
 11
-153.0988595589306
 21
63.5
 31
0.0
100
AcDbText
 73
     2
  0
TEXT
  5
BE0
330
B9E
100
AcDbEntity
  8
1
100
AcDbText
 10
-134.0
 20
62.25
 30
0.0
 40
2.0
  1
Produto:
 41
0.8
  7
SANINDUSA
 11
-134.0
 21
63.25
 31
0.0
100
AcDbText
 73
     2
  0
LINE
  5
BE1
330
B9E
100
AcDbEntity
  8
3
100
AcDbLine
 10
-40.0
 20
4.0
 30
0.0
 11
-40.0
 21
65.0
 31
0.0
  0
LWPOLYLINE
  5
BE2
102
{ACAD_REACTORS
330
BEC
102
}
330
B9E
100
AcDbEntity
  8
9
100
AcDbPolyline
 90
       12
 70
     1
 43
0.0
 10
-3.038714600644652
 20
58.90010174665076
 10
-5.726962862472191
 20
58.90010174665076
 10
-5.726962862472191
 20
58.5001017466509
 10
-3.038748516195028
 20
58.5001017466509
 42
-0.4142135623731731
 10
-2.638748516194482
 20
58.1001017466508
 10
-2.638748516194482
 20
57.42799728675596
 10
-5.21497371544865
 20
57.42799728675596
 42
0.4142135623731289
 10
-6.014973715448377
 20
56.627997286756
 10
-6.014973715448377
 20
55.92380871629643
 42
0.4142135623731132
 10
-5.21497371544865
 20
55.12380871629648
 10
-2.23871460064447
 20
55.12380871629648
 10
-2.23871460064447
 20
58.10010174665103
 42
0.4142135623730717
  0
LWPOLYLINE
  5
BE3
102
{ACAD_REACTORS
330
BEC
102
}
330
B9E
100
AcDbEntity
  8
9
100
AcDbPolyline
 90
       20
 70
     1
 43
0.0
 10
-10.01531287095122
 20
57.82799728675581
 10
-10.01531287095122
 20
58.10010174665103
 42
-0.4142135623730744
 10
-9.615312870951584
 20
58.5001017466509
 10
-6.92703069357276
 20
58.5001017466509
 10
-6.92703069357276
 20
58.90010174665076
 10
-9.615346786501959
 20
58.90010174665076
 42
0.4142135623730883
 10
-10.41534678650168
 20
58.1001017466508
 10
-10.41534678650168
 20
57.82796337120567
 42
0.4142135623730717
 10
-9.615346786501959
 20
57.02796337120571
 10
-7.423079531965413
 20
57.02796337120571
 42
-0.4142135623730847
 10
-7.023079531965322
 20
56.62796337120562
 10
-7.023079531965322
 20
55.90786840766487
 42
-0.4142135623730744
 10
-7.423079531965413
 20
55.507868407665
 10
-10.41534678650168
 20
55.507868407665
 10
-10.41534678650168
 20
55.12380871629648
 10
-7.445787917283723
 20
55.12380871629648
 42
0.4114777732064574
 10
-6.645822882998345
 20
55.9163291493976
 10
-6.639238813324936
 20
56.62051771985716
 42
0.4169546541682913
 10
-7.439203847610315
 20
57.42799728675596
 10
-9.615312870951584
 20
57.42799728675596
 42
-0.4142135623731576
  0
LWPOLYLINE
  5
BE4
102
{ACAD_REACTORS
330
BEC
102
}
330
B9E
100
AcDbEntity
  8
9
100
AcDbPolyline
 90
       12
 70
     1
 43
0.0
 10
-14.41561811090378
 20
58.90010174665076
 10
-14.79964388672215
 20
58.90010174665076
 10
-14.79964388672215
 20
55.92380871629643
 42
0.4142135623731133
 10
-13.99964388672242
 20
55.12380871629648
 10
-11.8233508563676
 20
55.12380871629648
 42
0.4142135623730872
 10
-11.02335085636741
 20
55.92380871629643
 10
-11.02335085636741
 20
58.90010174665076
 10
-11.42338477191788
 20
58.90010174665076
 10
-11.42338477191788
 20
55.91567577726095
 42
-0.4131711701795318
 10
-11.82196067063523
 20
55.51567831234956
 10
-14.0141940096214
 20
55.50787335710947
 42
-0.4152567234624407
 10
-14.41561811090378
 20
55.90787082202087
  0
LWPOLYLINE
  5
BE5
102
{ACAD_REACTORS
330
BEC
102
}
330
B9E
100
AcDbEntity
  8
9
100
AcDbPolyline
 90
        6
 70
     1
 43
0.0
 10
-15.80771578768872
 20
55.507868407665
 10
-18.39994912667453
 20
55.507868407665
 42
-0.4142135623731731
 10
-18.79994912667462
 20
55.90786840766487
 10
-18.79994912667462
 20
58.10010174665103
 42
-0.4142135623730744
 10
-18.39994912667453
 20
58.5001017466509
 10
-15.80771578768872
 20
58.5001017466509
  0
LWPOLYLINE
  5
BE6
102
{ACAD_REACTORS
330
BEC
102
}
330
B9E
100
AcDbEntity
  8
9
100
AcDbPolyline
 90
        8
 70
     1
 43
0.0
 10
-15.4236900118708
 20
59.87619128370352
 10
-15.80771578768872
 20
59.87619128370352
 10
-15.80771578768872
 20
58.90010174665076
 10
-18.39176256411201
 20
58.90010174665076
 42
0.4131164467977967
 10
-19.19175694739761
 20
58.1030995310698
 10
-19.1999120763262
 20
55.92680650071542
 42
0.4153115297271718
 10
-18.39991769304061
 20
55.12380871629648
 10
-15.4236900118708
 20
55.12380871629648
  0
LWPOLYLINE
  5
BE7
102
{ACAD_REACTORS
330
BEC
102
}
330
B9E
100
AcDbEntity
  8
9
100
AcDbPolyline
 90
       10
 70
     1
 43
0.0
 10
-20.59201288790928
 20
58.90010174665076
 10
-23.56830591826338
 20
58.90010174665076
 10
-23.56830591826338
 20
55.12380871629648
 10
-23.18424622689509
 20
55.12380871629648
 10
-23.18424622689509
 20
58.5001017466509
 10
-20.59204680345965
 20
58.5001017466509
 42
-0.4142135623730898
 10
-20.19204680345956
 20
58.1001017466508
 10
-20.19204680345956
 20
55.12380871629648
 10
-19.79201288790909
 20
55.12380871629648
 10
-19.79201288790909
 20
58.10010174665103
 42
0.4142135623731132
  0
LWPOLYLINE
  5
BE8
102
{ACAD_REACTORS
330
BEC
102
}
330
B9E
100
AcDbEntity
  8
9
100
AcDbPolyline
 90
        4
 70
     1
 43
0.0
 10
-24.19231812786165
 20
58.90010174665076
 10
-24.57637781922995
 20
58.90010174665076
 10
-24.57637781922995
 20
55.12380871629648
 10
-24.19231812786165
 20
55.12380871629648
  0
LWPOLYLINE
  5
BE9
102
{ACAD_REACTORS
330
BEC
102
}
330
B9E
100
AcDbEntity
  8
9
100
AcDbPolyline
 90
       10
 70
     1
 43
0.0
 10
-28.57661522808212
 20
58.5001017466509
 10
-25.98444972019706
 20
58.5001017466509
 42
-0.4142135623731731
 10
-25.58444972019652
 20
58.1001017466508
 10
-25.58444972019652
 20
55.12380871629648
 10
-25.2004239443786
 20
55.12380871629648
 10
-25.2004239443786
 20
58.10010174665103
 42
0.4142135623730717
 10
-26.00042394437833
 20
58.90010174665076
 10
-28.97664914363259
 20
58.90010174665076
 10
-28.97664914363259
 20
55.12380871629648
 10
-28.57661522808212
 20
55.12380871629648
  0
LWPOLYLINE
  5
BEA
102
{ACAD_REACTORS
330
BEC
102
}
330
B9E
100
AcDbEntity
  8
9
100
AcDbPolyline
 90
       12
 70
     1
 43
0.0
 10
-29.58465321349832
 20
58.10010174665103
 42
0.4142135623730716
 10
-30.3846532134985
 20
58.90010174665076
 10
-33.07296930642724
 20
58.90010174665076
 10
-33.07296930642724
 20
58.5001017466509
 10
-30.38468712904842
 20
58.5001017466509
 42
-0.4142135623730067
 10
-29.98468712904878
 20
58.1001017466508
 10
-29.98468712904878
 20
57.42799728675618
 10
-32.56098015940324
 20
57.42799728675596
 42
0.4142135623731289
 10
-33.36098015940343
 20
56.627997286756
 10
-33.36098015940343
 20
55.92380871629643
 42
0.4142135623731132
 10
-32.56098015940324
 20
55.12380871629648
 10
-29.58465321349832
 20
55.12380871629648
  0
LWPOLYLINE
  5
BEB
102
{ACAD_REACTORS
330
BEC
102
}
330
B9E
100
AcDbEntity
  8
9
100
AcDbPolyline
 90
       20
 70
     1
 43
0.0
 10
-34.7850262845518
 20
57.42799728675596
 10
-36.96125148380543
 20
57.42799728675596
 42
-0.4142135623730898
 10
-37.36125148380552
 20
57.82799728675604
 10
-37.36125148380552
 20
58.10010174665103
 42
-0.4142135623730744
 10
-36.96125148380543
 20
58.5001017466509
 10
-34.27303713752781
 20
58.50010174665067
 10
-34.27303713752781
 20
58.90010174665076
 10
-36.96128539935535
 20
58.90010174665076
 42
0.4142135623731289
 10
-37.76128539935553
 20
58.1001017466508
 10
-37.76128539935553
 20
57.82796337120567
 42
0.4142135623730716
 10
-36.9612853993558
 20
57.02796337120571
 10
-34.76901814481926
 20
57.02796337120571
 42
-0.414213562373168
 10
-34.36901814481962
 20
56.62796337120562
 10
-34.36901814481962
 20
55.90786840766487
 42
-0.4142135623730744
 10
-34.76901814481926
 20
55.507868407665
 10
-37.76128539935553
 20
55.507868407665
 10
-37.76128539935553
 20
55.12380871629648
 10
-34.7850262845518
 20
55.12380871629648
 42
0.4142135623731289
 10
-33.98502628455162
 20
55.92380871629643
 10
-33.98502628455162
 20
56.627997286756
 42
0.4142135623731132
  0
HATCH
  5
BEC
330
B9E
100
AcDbEntity
  8
9
100
AcDbHatch
 10
0.0
 20
0.0
 30
0.0
210
0.0
220
0.0
230
1.0
  2
SOLID
 70
     1
 71
     1
 91
       13
 92
        7
 72
     1
 73
     1
 93
       20
 10
-34.36901814481962
 20
55.90786840766487
 42
-0.414213562372991
 10
-34.76901814481926
 20
55.507868407665
 42
0.0
 10
-37.76128539935553
 20
55.507868407665
 42
0.0
 10
-37.76128539935553
 20
55.12380871629648
 42
0.0
 10
-34.7850262845518
 20
55.12380871629648
 42
0.4142135623731705
 10
-33.98502628455162
 20
55.92380871629666
 42
0.0
 10
-33.98502628455162
 20
56.627997286756
 42
0.4142135623731547
 10
-34.7850262845518
 20
57.42799728675596
 42
0.0
 10
-36.96125148380543
 20
57.42799728675596
 42
-0.4142135623730898
 10
-37.36125148380552
 20
57.82799728675604
 42
0.0
 10
-37.36125148380552
 20
58.1001017466508
 42
-0.4142135623731575
 10
-36.96125148380543
 20
58.5001017466509
 42
0.0
 10
-34.27303713752781
 20
58.50010174665067
 42
0.0
 10
-34.27303713752781
 20
58.90010174665076
 42
0.0
 10
-36.96128539935535
 20
58.90010174665076
 42
0.4142135623731705
 10
-37.76128539935553
 20
58.10010174665058
 42
0.0
 10
-37.76128539935553
 20
57.82796337120544
 42
0.4142135623730299
 10
-36.9612853993558
 20
57.02796337120571
 42
0.0
 10
-34.76901814481926
 20
57.02796337120571
 42
-0.4142135623730015
 10
-34.36901814481962
 20
56.62796337120608
 42
0.0
 97
        1
330
BEB
 92
        7
 72
     1
 73
     1
 93
       12
 10
-33.36098015940343
 20
55.92380871629666
 42
0.4142135623731547
 10
-32.56098015940324
 20
55.12380871629648
 42
0.0
 10
-29.58465321349877
 20
55.12380871629648
 42
0.0
 10
-29.58465321349832
 20
58.10010174665058
 42
0.4142135623731964
 10
-30.3846532134985
 20
58.90010174665076
 42
0.0
 10
-33.07296930642724
 20
58.90010174665076
 42
0.0
 10
-33.07296930642724
 20
58.50010174665067
 42
0.0
 10
-30.38468712904887
 20
58.5001017466509
 42
-0.4142135623732564
 10
-29.98468712904878
 20
58.10010174665103
 42
0.0
 10
-29.98468712904923
 20
57.42799728675596
 42
0.0
 10
-32.56098015940324
 20
57.42799728675596
 42
0.4142135623731705
 10
-33.36098015940343
 20
56.627997286756
 42
0.0
 97
        1
330
BEA
 92
       22
 72
     1
 73
     1
 93
        6
 10
-32.97692046803468
 20
56.62796337120562
 42
-0.4142135623731576
 10
-32.57692046803459
 20
57.02796337120571
 42
0.0
 10
-29.98468712904878
 20
57.02796337120571
 42
0.0
 10
-29.98468712904878
 20
55.507868407665
 42
0.0
 10
-32.57692046803459
 20
55.507868407665
 42
-0.4142135623731731
 10
-32.97692046803468
 20
55.90786840766487
 42
0.0
 97
        1
330
C11
 92
        7
 72
     1
 73
     1
 93
       10
 10
-28.57661522808212
 20
58.5001017466509
 42
0.0
 10
-25.98444972019661
 20
58.5001017466509
 42
-0.4142135623730067
 10
-25.58444972019652
 20
58.10010174665058
 42
0.0
 10
-25.58444972019606
 20
55.12380871629648
 42
0.0
 10
-25.20042394437906
 20
55.12380871629648
 42
0.0
 10
-25.2004239443786
 20
58.1001017466508
 42
0.4142135623731134
 10
-26.00042394437833
 20
58.90010174665076
 42
0.0
 10
-28.97664914363259
 20
58.90010174665076
 42
0.0
 10
-28.97664914363259
 20
55.12380871629648
 42
0.0
 10
-28.57661522808212
 20
55.12380871629648
 42
0.0
 97
        1
330
BE9
 92
        7
 72
     0
 73
     1
 93
        4
 10
-24.57637781922995
 20
55.12380871629648
 10
-24.19231812786165
 20
55.12380871629648
 10
-24.19231812786165
 20
58.90010174665076
 10
-24.57637781922995
 20
58.90010174665076
 97
        1
330
BE8
 92
        7
 72
     0
 73
     1
 93
        4
 10
-24.19231812786165
 20
59.87619128370352
 10
-24.5763778192304
 20
59.87619128370352
 10
-24.5763778192304
 20
59.28412752246913
 10
-24.1923181278612
 20
59.28412752246913
 97
        1
330
C12
 92
        7
 72
     1
 73
     1
 93
       10
 10
-23.18424622689509
 20
58.5001017466509
 42
0.0
 10
-20.59204680345965
 20
58.5001017466509
 42
-0.4142135623730898
 10
-20.19204680345956
 20
58.1001017466508
 42
0.0
 10
-20.19204680345956
 20
55.12380871629648
 42
0.0
 10
-19.79201288790909
 20
55.12380871629648
 42
0.0
 10
-19.79201288790909
 20
58.1001017466508
 42
0.4142135623731547
 10
-20.59201288790928
 20
58.90010174665076
 42
0.0
 10
-23.56830591826338
 20
58.90010174665076
 42
0.0
 10
-23.56830591826338
 20
55.12380871629648
 42
0.0
 10
-23.18424622689463
 20
55.12380871629648
 42
0.0
 97
        1
330
BE7
 92
        7
 72
     1
 73
     1
 93
        8
 10
-19.1999120763262
 20
55.92680650071542
 42
0.4153115297271299
 10
-18.39991769304061
 20
55.12380871629648
 42
0.0
 10
-15.4236900118708
 20
55.12380871629648
 42
0.0
 10
-15.4236900118708
 20
59.87619128370352
 42
0.0
 10
-15.80771578768872
 20
59.87619128370352
 42
0.0
 10
-15.80771578768872
 20
58.90010174665076
 42
0.0
 10
-18.39176256411201
 20
58.90010174665076
 42
0.4131164467977965
 10
-19.19175694739761
 20
58.1030995310698
 42
0.0
 97
        1
330
BE6
 92
       22
 72
     1
 73
     1
 93
        6
 10
-18.79994912667462
 20
58.1001017466508
 42
-0.4142135623731575
 10
-18.39994912667453
 20
58.5001017466509
 42
0.0
 10
-15.80771578768872
 20
58.50010174665067
 42
0.0
 10
-15.80771578768827
 20
55.507868407665
 42
0.0
 10
-18.39994912667453
 20
55.507868407665
 42
-0.4142135623731731
 10
-18.79994912667462
 20
55.90786840766487
 42
0.0
 97
        1
330
BE5
 92
        7
 72
     1
 73
     1
 93
       12
 10
-14.79964388672215
 20
55.92380871629621
 42
0.4142135623729885
 10
-13.99964388672242
 20
55.12380871629648
 42
0.0
 10
-11.8233508563676
 20
55.12380871629648
 42
0.4142135623731289
 10
-11.02335085636741
 20
55.92380871629666
 42
0.0
 10
-11.02335085636741
 20
58.90010174665076
 42
0.0
 10
-11.42338477191788
 20
58.90010174665076
 42
0.0
 10
-11.42338477191788
 20
55.91567577726095
 42
-0.4131711701795319
 10
-11.82196067063523
 20
55.51567831234956
 42
0.0
 10
-14.01419400962095
 20
55.50787335710947
 42
-0.4152567234626918
 10
-14.41561811090378
 20
55.90787082202087
 42
0.0
 10
-14.41561811090378
 20
58.90010174665076
 42
0.0
 10
-14.7996438867226
 20
58.90010174665076
 42
0.0
 97
        1
330
BE4
 92
        7
 72
     1
 73
     1
 93
       20
 10
-7.423079531965413
 20
57.02796337120571
 42
-0.414213562373168
 10
-7.023079531965322
 20
56.62796337120562
 42
0.0
 10
-7.023079531965322
 20
55.90786840766487
 42
-0.4142135623731575
 10
-7.423079531965413
 20
55.507868407665
 42
0.0
 10
-10.41534678650168
 20
55.507868407665
 42
0.0
 10
-10.41534678650168
 20
55.12380871629648
 42
0.0
 10
-7.445787917283723
 20
55.12380871629648
 42
0.4114777732065809
 10
-6.645822882998345
 20
55.91632914939783
 42
0.0
 10
-6.639238813324936
 20
56.62051771985716
 42
0.4169546541682913
 10
-7.439203847610315
 20
57.42799728675596
 42
0.0
 10
-9.615312870951584
 20
57.42799728675596
 42
-0.4142135623729911
 10
-10.01531287095122
 20
57.82799728675581
 42
0.0
 10
-10.01531287095122
 20
58.10010174665103
 42
-0.414213562372991
 10
-9.615312870951584
 20
58.5001017466509
 42
0.0
 10
-6.92703069357276
 20
58.50010174665067
 42
0.0
 10
-6.927030693572305
 20
58.90010174665076
 42
0.0
 10
-9.615346786501959
 20
58.90010174665076
 42
0.4142135623730467
 10
-10.41534678650168
 20
58.10010174665103
 42
0.0
 10
-10.41534678650168
 20
57.82796337120544
 42
0.4142135623730301
 10
-9.615346786501959
 20
57.02796337120571
 42
0.0
 97
        1
330
BE3
 92
        7
 72
     1
 73
     1
 93
       12
 10
-5.21497371544865
 20
57.42799728675596
 42
0.4142135623730871
 10
-6.014973715448377
 20
56.627997286756
 42
0.0
 10
-6.014973715448377
 20
55.92380871629621
 42
0.4142135623730715
 10
-5.21497371544865
 20
55.12380871629648
 42
0.0
 10
-2.23871460064447
 20
55.12380871629648
 42
0.0
 10
-2.23871460064447
 20
58.10010174665058
 42
0.414213562373155
 10
-3.038714600644652
 20
58.90010174665076
 42
0.0
 10
-5.726962862471737
 20
58.90010174665076
 42
0.0
 10
-5.726962862472191
 20
58.5001017466509
 42
0.0
 10
-3.038748516194573
 20
58.5001017466509
 42
-0.4142135623730067
 10
-2.638748516194482
 20
58.10010174665058
 42
0.0
 10
-2.638748516194482
 20
57.42799728675596
 42
0.0
 97
        1
330
BE2
 92
       22
 72
     1
 73
     1
 93
        6
 10
-2.638748516194937
 20
57.02796337120571
 42
0.0
 10
-2.638748516194482
 20
55.50786840766477
 42
0.0
 10
-5.21497371544865
 20
55.507868407665
 42
-0.4142135623731731
 10
-5.614973715448741
 20
55.90786840766509
 42
0.0
 10
-5.614973715448741
 20
56.62796337120562
 42
-0.4142135623731576
 10
-5.21497371544865
 20
57.02796337120571
 42
0.0
 97
        1
330
C0D
 75
     0
 76
     1
 47
0.0407044778999864
 98
       13
 10
-34.18710075113677
 20
56.16907953933765
 10
-33.12851374392494
 20
56.49471602641233
 10
-33.12851374392494
 20
56.49471602641233
 10
-28.77202873835904
 20
57.51232930166111
 10
-24.41554807250941
 20
57.91937341678636
 10
-24.41554807250941
 20
59.384734621186
 10
-23.31624584658039
 20
58.3264175319116
 10
-19.04119127844888
 20
57.75655517324913
 10
-19.04119127844888
 20
57.75655517324913
 10
-14.64399105416578
 20
57.43091868617466
 10
-8.048195057457178
 20
57.22739662861204
 10
-4.017427461911665
 20
57.18669281458665
 10
-4.017427461911665
 20
57.18669281458665
  0
TEXT
  5
BED
330
B9E
100
AcDbEntity
  8
leg fin
100
AcDbText
 10
3.391127401597259
 20
2.107634911895729
 30
0.0
 40
1.5
  1
Este desenho é propriedade da Sanindusa, S.A., e não pode ser copiado nem divulgado sem nossa autorização.
 50
90.0
 41
0.8
  7
SANINDUSA
100
AcDbText
  0
LINE
  5
BEE
330
B9E
100
AcDbEntity
  8
3
100
AcDbLine
 10
-90.0
 20
4.0
 30
0.0
 11
-90.0
 21
12.0
 31
0.0
  0
TEXT
  5
BEF
330
B9E
100
AcDbEntity
  8
1
100
AcDbText
 10
-39.0
 20
9.25
 30
0.0
 40
2.0
  1
Substituido por:
 41
0.8
  7
SANINDUSA
 11
-39.0
 21
10.25
 31
0.0
100
AcDbText
 73
     2
  0
POINT
  5
BF0
330
B9E
100
AcDbEntity
  8
SANINDUSA
100
AcDbPoint
 10
0.0
 20
0.0
 30
0.0
  0
TEXT
  5
BF1
330
B9E
100
AcDbEntity
  8
1
100
AcDbText
 10
-89.0
 20
16.74927010445663
 30
0.0
 40
2.0
  1
Normas:
 41
0.8
  7
SANINDUSA
 11
-89.0
 21
17.74927010445663
 31
0.0
100
AcDbText
 73
     2
  0
LINE
  5
BF2
330
B9E
100
AcDbEntity
  8
3
100
AcDbLine
 10
-90.0
 20
12.0
 30
0.0
 11
-90.0
 21
20.0
 31
0.0
  0
LINE
  5
BF3
330
B9E
100
AcDbEntity
  8
3
100
AcDbLine
 10
-110.546019464768
 20
12.0
 30
0.0
 11
-110.546019464768
 21
20.0
 31
0.0
  0
TEXT
  5
BF4
330
B9E
100
AcDbEntity
  8
1
100
AcDbText
 10
-109.6177520618648
 20
17.25
 30
0.0
 40
2.0
  1
Cor:
 41
0.8
  7
SANINDUSA
 11
-109.6177520618648
 21
18.25
 31
0.0
100
AcDbText
 73
     2
  0
LINE
  5
BF5
330
B9E
100
AcDbEntity
  8
leg fin
100
AcDbLine
 10
-91.42857142857156
 20
20.0
 30
0.0
 11
-91.42857142857156
 21
28.5
 31
0.0
  0
LINE
  5
BF6
330
B9E
100
AcDbEntity
  8
leg fin
100
AcDbLine
 10
-104.2857142857142
 20
20.0
 30
0.0
 11
-104.2857142857142
 21
28.5
 31
0.0
  0
LINE
  5
BF7
330
B9E
100
AcDbEntity
  8
leg fin
100
AcDbLine
 10
-117.1428571428573
 20
20.0
 30
0.0
 11
-117.1428571428573
 21
28.5
 31
0.0
  0
POINT
  5
BF8
330
B9E
100
AcDbEntity
  8
SANINDUSA
100
AcDbPoint
 10
-117.1428571428573
 20
28.5
 30
0.0
  0
POINT
  5
BF9
330
B9E
100
AcDbEntity
  8
SANINDUSA
100
AcDbPoint
 10
-104.2857142857142
 20
28.5
 30
0.0
  0
POINT
  5
BFA
330
B9E
100
AcDbEntity
  8
SANINDUSA
100
AcDbPoint
 10
-91.42857142857156
 20
28.5
 30
0.0
  0
TEXT
  5
BFB
330
B9E
100
AcDbEntity
  8
1
100
AcDbText
 10
-116.200160604496
 20
26.43288406845113
 30
0.0
 40
1.5
  1
Nº Seq.:
 41
0.8
  7
SANINDUSA
 11
-116.200160604496
 21
27.18288406845113
 31
0.0
100
AcDbText
 73
     2
  0
TEXT
  5
BFC
330
B9E
100
AcDbEntity
  8
1
100
AcDbText
 10
-103.2106584078738
 20
26.43288406845113
 30
0.0
 40
1.5
  1
Tipo:
 41
0.8
  7
SANINDUSA
 11
-103.2106584078738
 21
27.18288406845113
 31
0.0
100
AcDbText
 73
     2
  0
TEXT
  5
BFD
330
B9E
100
AcDbEntity
  8
1
100
AcDbText
 10
-90.22114672289353
 20
26.43288406845113
 30
0.0
 40
1.5
  1
Prod.:
 41
0.8
  7
SANINDUSA
 11
-90.22114672289353
 21
27.18288406845113
 31
0.0
100
AcDbText
 73
     2
  0
TEXT
  5
BFE
330
B9E
100
AcDbEntity
  8
1
100
AcDbText
 10
-64.77320576346574
 20
26.43288406845113
 30
0.0
 40
1.5
  1
Rev.:
 41
0.8
  7
SANINDUSA
 11
-64.77320576346574
 21
27.18288406845113
 31
0.0
100
AcDbText
 73
     2
  0
LINE
  5
BFF
330
B9E
100
AcDbEntity
  8
leg fin
100
AcDbLine
 10
-52.85714285714266
 20
20.0
 30
0.0
 11
-52.85714285714266
 21
28.5
 31
0.0
  0
LINE
  5
C00
330
B9E
100
AcDbEntity
  8
leg fin
100
AcDbLine
 10
-65.71428571428578
 20
20.0
 30
0.0
 11
-65.71428571428578
 21
28.5
 31
0.0
  0
LINE
  5
C01
330
B9E
100
AcDbEntity
  8
leg fin
100
AcDbLine
 10
-78.57142857142844
 20
20.0
 30
0.0
 11
-78.57142857142844
 21
28.5
 31
0.0
  0
POINT
  5
C02
330
B9E
100
AcDbEntity
  8
SANINDUSA
100
AcDbPoint
 10
-78.57142857142844
 20
28.5
 30
0.0
  0
POINT
  5
C03
330
B9E
100
AcDbEntity
  8
SANINDUSA
100
AcDbPoint
 10
-65.71428571428578
 20
28.5
 30
0.0
  0
POINT
  5
C04
330
B9E
100
AcDbEntity
  8
SANINDUSA
100
AcDbPoint
 10
-52.85714285714266
 20
28.5
 30
0.0
  0
TEXT
  5
C05
330
B9E
100
AcDbEntity
  8
1
100
AcDbText
 10
-77.61097961686573
 20
26.43288406845113
 30
0.0
 40
1.5
  1
Peça:
 41
0.8
  7
SANINDUSA
 11
-77.61097961686573
 21
27.18288406845113
 31
0.0
100
AcDbText
 73
     2
  0
TEXT
  5
C06
330
B9E
100
AcDbEntity
  8
1
100
AcDbText
 10
-52.06538060077036
 20
26.43288406845113
 30
0.0
 40
1.5
  1
Alt.:
 41
0.8
  7
SANINDUSA
 11
-52.06538060077036
 21
27.18288406845113
 31
0.0
100
AcDbText
 73
     2
  0
LINE
  5
C07
330
B9E
100
AcDbEntity
  8
3
100
AcDbLine
 10
0.0
 20
12.0
 30
0.0
 11
-40.0
 21
12.0
 31
0.0
  0
LINE
  5
C08
330
B9E
100
AcDbEntity
  8
3
100
AcDbLine
 10
-40.0
 20
32.5
 30
0.0
 11
0.0
 21
32.5
 31
0.0
  0
TEXT
  5
C09
330
B9E
100
AcDbEntity
  8
1
100
AcDbText
 10
-19.0
 20
29.75
 30
0.0
 40
2.0
  1
Folha:
 41
0.8
  7
SANINDUSA
 11
-19.0
 21
30.75
 31
0.0
100
AcDbText
 73
     2
  0
LINE
  5
C0A
330
B9E
100
AcDbEntity
  8
3
100
AcDbLine
 10
-20.0
 20
32.5
 30
0.0
 11
-20.0
 21
20.0
 31
0.0
  0
TEXT
  5
C0B
330
B9E
100
AcDbEntity
  8
1
100
AcDbText
 10
-39.0
 20
29.75
 30
0.0
 40
2.0
  1
Escala:
 41
0.8
  7
SANINDUSA
 11
-39.0
 21
30.75
 31
0.0
100
AcDbText
 73
     2
  0
TEXT
  5
C0C
330
B9E
100
AcDbEntity
  8
1
100
AcDbText
 10
-39.0
 20
17.25
 30
0.0
 40
2.0
  1
Substitui:
 41
0.8
  7
SANINDUSA
 11
-39.0
 21
18.25
 31
0.0
100
AcDbText
 73
     2
  0
LWPOLYLINE
  5
C0D
102
{ACAD_REACTORS
330
BEC
102
}
330
B9E
100
AcDbEntity
  8
9
100
AcDbPolyline
 90
        6
 70
     1
 43
0.0
 10
-2.638748516194482
 20
57.02796337120571
 10
-2.638748516194482
 20
55.50786840766477
 10
-5.21497371544865
 20
55.507868407665
 42
-0.4142135623730898
 10
-5.614973715448741
 20
55.90786840766487
 10
-5.614973715448741
 20
56.62796337120562
 42
-0.4142135623731576
 10
-5.21497371544865
 20
57.02796337120571
  0
LINE
  5
C0E
330
B9E
100
AcDbEntity
  8
3
100
AcDbLine
 10
-40.0
 20
50.0
 30
0.0
 11
0.0
 21
50.0
 31
0.0
  0
ATTDEF
  5
C0F
330
B9E
100
AcDbEntity
  8
1
100
AcDbText
 10
-31.30691739422431
 20
40.25
 30
0.0
 40
2.0
  1
XXXXXXXXXXXXXXX
 41
0.8
  7
SANINDUSA
 72
     4
 11
-20.0
 21
41.25
 31
0.0
100
AcDbAttributeDefinition
  3
Observações:
  2
OBS
 70
     0
  0
TEXT
  5
C10
330
B9E
100
AcDbEntity
  8
1
100
AcDbText
 10
-39.0
 20
47.25
 30
0.0
 40
2.0
  1
Observações:
 41
0.8
  7
SANINDUSA
 11
-39.0
 21
48.25
 31
0.0
100
AcDbText
 73
     2
  0
LWPOLYLINE
  5
C11
102
{ACAD_REACTORS
330
BEC
102
}
330
B9E
100
AcDbEntity
  8
9
100
AcDbPolyline
 90
        6
 70
     1
 43
0.0
 10
-29.98468712904878
 20
57.02796337120571
 10
-29.98468712904878
 20
55.507868407665
 10
-32.57692046803459
 20
55.507868407665
 42
-0.4142135623731731
 10
-32.97692046803468
 20
55.90786840766487
 10
-32.97692046803468
 20
56.62796337120562
 42
-0.4142135623731576
 10
-32.57692046803459
 20
57.02796337120571
  0
LWPOLYLINE
  5
C12
102
{ACAD_REACTORS
330
BEC
102
}
330
B9E
100
AcDbEntity
  8
9
100
AcDbPolyline
 90
        4
 70
     1
 43
0.0
 10
-24.19231812786165
 20
59.87619128370352
 10
-24.57637781922995
 20
59.87619128370352
 10
-24.57637781922995
 20
59.28412752246913
 10
-24.19231812786165
 20
59.28412752246913
  0
ENDBLK
  5
C14
330
B9E
100
AcDbEntity
  8
0
100
AcDbBlockEnd
  0
BLOCK
  5
11F9
330
11F8
100
AcDbEntity
  8
0
100
AcDbBlockBegin
  2
*D8
 70
     1
 10
0.0
 20
0.0
 30
0.0
  3
*D8
  1

  0
LINE
  5
1205
330
11F8
100
AcDbEntity
  8
cotas
100
AcDbLine
 10
2772.922092579262
 20
2229.01330667667
 30
0.0
 11
2772.922092579262
 21
2278.840698450704
 31
0.0
  0
LINE
  5
1206
330
11F8
100
AcDbEntity
  8
cotas
100
AcDbLine
 10
3107.922092579262
 20
2229.012902628852
 30
0.0
 11
3107.922092579262
 21
2278.840698450704
 31
0.0
  0
LINE
  5
1207
330
11F8
100
AcDbEntity
  8
cotas
100
AcDbLine
 10
2774.922092579262
 20
2277.840698450704
 30
0.0
 11
3105.922092579262
 21
2277.840698450704
 31
0.0
  0
SOLID
  5
1208
330
11F8
100
AcDbEntity
  8
cotas
100
AcDbTrace
 10
2774.922092579262
 20
2278.174031784037
 30
0.0
 11
2774.922092579262
 21
2277.50736511737
 31
0.0
 12
2772.922092579262
 22
2277.840698450704
 32
0.0
 13
2772.922092579262
 23
2277.840698450704
 33
0.0
  0
SOLID
  5
1209
330
11F8
100
AcDbEntity
  8
cotas
100
AcDbTrace
 10
3105.922092579262
 20
2278.174031784037
 30
0.0
 11
3105.922092579262
 21
2277.50736511737
 31
0.0
 12
3107.922092579262
 22
2277.840698450704
 32
0.0
 13
3107.922092579262
 23
2277.840698450704
 33
0.0
  0
MTEXT
  5
120A
330
11F8
100
AcDbEntity
  8
cotas
100
AcDbMText
 10
2940.422092579261
 20
2279.882337134385
 30
0.0
 40
2.0
 41
0.0
 71
     5
 72
     1
  1
335
  7
SANINDUSA
 73
     1
 44
1.0
1001
ACAD
1000
MTEXTBEGIN
1070
    73
1070
     1
1070
    44
1040
1.0
1070
    74
1070
     0
1000
MTEXTEND
  0
POINT
  5
120B
330
11F8
100
AcDbEntity
  8
Defpoints
 62
     0
100
AcDbPoint
 10
2772.922092579262
 20
2228.01330667667
 30
0.0
  0
POINT
  5
120C
330
11F8
100
AcDbEntity
  8
Defpoints
 62
     0
100
AcDbPoint
 10
3107.922092579262
 20
2228.012902628852
 30
0.0
  0
POINT
  5
120D
330
11F8
100
AcDbEntity
  8
Defpoints
 62
     0
100
AcDbPoint
 10
3107.922092579262
 20
2277.840698450704
 30
0.0
  0
ENDBLK
  5
11FA
330
11F8
100
AcDbEntity
  8
0
100
AcDbBlockEnd
  0
ENDSEC
  0
SECTION
  2
ENTITIES
  0
LINE
  5
115B
330
1F
100
AcDbEntity
  8
SANINDUSA
100
AcDbLine
 10
3714.532403143592
 20
2065.357455863676
 30
0.0
 11
3714.532403143592
 21
2065.208792536985
 31
0.0
  0
LINE
  5
115C
330
1F
100
AcDbEntity
  8
SANINDUSA
100
AcDbLine
 10
3714.867403143591
 20
2065.208792814046
 30
0.0
 11
3714.867403143591
 21
2065.357455863676
 31
0.0
  0
SPLINE
  5
115D
330
1F
100
AcDbEntity
  8
SANINDUSA
100
AcDbSpline
210
0.0
220
0.0
230
1.0
 70
     8
 71
     3
 72
    34
 73
    30
 74
     0
 42
0.0000000001
 43
0.0000000001
 40
0.0
 40
0.0
 40
0.0
 40
0.0
 40
0.0348312085277121
 40
0.0731788414985468
 40
0.1116455114722467
 40
0.1501750630831094
 40
0.1887025119008499
 40
0.2271586029137477
 40
0.2654879629265587
 40
0.3036387111257812
 40
0.3415962979949509
 40
0.3790113220401236
 40
0.4165229754544861
 40
0.4541956408071989
 40
0.4919942545278938
 40
0.529881603636701
 40
0.5678190544462833
 40
0.6057626901964093
 40
0.6436664644120114
 40
0.68149454998907
 40
0.719214195540848
 40
0.7567965687825854
 40
0.7942174772874339
 40
0.8314579491791715
 40
0.8685046669502725
 40
0.9053502550445941
 40
0.9419934284045138
 40
0.9784390144449714
 40
1.0
 40
1.0
 40
1.0
 40
1.0
 10
3714.866525610844
 20
2065.37218610061
 30
0.0
 10
3714.866282361295
 20
2065.374077894154
 30
0.0
 10
3714.865771304661
 20
2065.378052469419
 30
0.0
 10
3714.86460614552
 20
2065.384073742793
 30
0.0
 10
3714.863121070417
 20
2065.3902495088
 30
0.0
 10
3714.861318656634
 20
2065.396376051751
 30
0.0
 10
3714.859213513934
 20
2065.402433354355
 30
0.0
 10
3714.856809836272
 20
2065.408400632433
 30
0.0
 10
3714.854116200235
 20
2065.414258547213
 30
0.0
 10
3714.851141240822
 20
2065.419990327408
 30
0.0
 10
3714.847900196747
 20
2065.425566825612
 30
0.0
 10
3714.844391234485
 20
2065.430987771307
 30
0.0
 10
3714.840618690433
 20
2065.43626408381
 30
0.0
 10
3714.83656716541
 20
2065.441417933604
 30
0.0
 10
3714.832243047268
 20
2065.446439196191
 30
0.0
 10
3714.827656964122
 20
2065.451313348967
 30
0.0
 10
3714.822820958782
 20
2065.456026037658
 30
0.0
 10
3714.817748482001
 20
2065.460563151285
 30
0.0
 10
3714.812453943242
 20
2065.464911393549
 30
0.0
 10
3714.806952236666
 20
2065.469058614254
 30
0.0
 10
3714.801258311061
 20
2065.472993978181
 30
0.0
 10
3714.795387328756
 20
2065.476707729115
 30
0.0
 10
3714.78935444655
 20
2065.480191192075
 30
0.0
 10
3714.78317468448
 20
2065.48343693576
 30
0.0
 10
3714.776862522826
 20
2065.486438190651
 30
0.0
 10
3714.770432588124
 20
2065.489190882195
 30
0.0
 10
3714.763896410886
 20
2065.491685855997
 30
0.0
 10
3714.758164009883
 20
2065.493634677628
 30
0.0
 10
3714.754593652137
 20
2065.494701291246
 30
0.0
 10
3714.753266553677
 20
2065.495097750478
 30
0.0
  0
SPLINE
  5
115E
330
1F
100
AcDbEntity
  8
SANINDUSA
100
AcDbSpline
210
0.0
220
0.0
230
1.0
 70
     8
 71
     3
 72
    50
 73
    46
 74
     0
 42
0.0000000001
 43
0.0000000001
 40
0.0
 40
0.0
 40
0.0
 40
0.0
 40
0.0125152569920192
 40
0.0360322117445392
 40
0.059527737651545
 40
0.0830183145395
 40
0.1065046775436166
 40
0.1299870540662774
 40
0.1534653708865819
 40
0.1769394882793661
 40
0.200409438451403
 40
0.2238770522362913
 40
0.2472835060494692
 40
0.2705593466640246
 40
0.2939841509919177
 40
0.3175304990838328
 40
0.3411687394296118
 40
0.364866349931694
 40
0.3885887600018124
 40
0.4122902502635221
 40
0.4359329817912863
 40
0.459499252814538
 40
0.4830682578147208
 40
0.5068202007017492
 40
0.5307433355189432
 40
0.5548046496153979
 40
0.5789672389664953
 40
0.6031910528033196
 40
0.6274334191172199
 40
0.6516368201781518
 40
0.6757577716278679
 40
0.6998710431470831
 40
0.7242074770791243
 40
0.7486538001730219
 40
0.7731935417238302
 40
0.7978077805935719
 40
0.8224759113671028
 40
0.8471761878985905
 40
0.8718844796661834
 40
0.8965678324066558
 40
0.9211331299266449
 40
0.9457232425326594
 40
0.9703993901497755
 40
0.9951538881524026
 40
0.9999999999999998
 40
0.9999999999999998
 40
0.9999999999999998
 40
0.9999999999999998
 10
3714.753266553677
 20
2065.495097750478
 30
0.0
 10
3714.7520674616
 20
2065.495439057526
 30
0.0
 10
3714.748615200118
 20
2065.496421701976
 30
0.0
 10
3714.742835847633
 20
2065.497853927376
 30
0.0
 10
3714.735912736479
 20
2065.499310352114
 30
0.0
 10
3714.72892085151
 20
2065.500507544448
 30
0.0
 10
3714.7218739109
 20
2065.501447619859
 30
0.0
 10
3714.714785032952
 20
2065.502127447556
 30
0.0
 10
3714.707668186739
 20
2065.502545785303
 30
0.0
 10
3714.700537280227
 20
2065.502701592405
 30
0.0
 10
3714.69340618699
 20
2065.50259407351
 30
0.0
 10
3714.686294602858
 20
2065.502224532355
 30
0.0
 10
3714.67922970231
 20
2065.50159116824
 30
0.0
 10
3714.672210032939
 20
2065.500697830255
 30
0.0
 10
3714.665230397721
 20
2065.499546837291
 30
0.0
 10
3714.65828239348
 20
2065.498135607561
 30
0.0
 10
3714.651388639833
 20
2065.496466780322
 30
0.0
 10
3714.644572225799
 20
2065.494544196362
 30
0.0
 10
3714.637857439368
 20
2065.492373313239
 30
0.0
 10
3714.63126865092
 20
2065.489961025701
 30
0.0
 10
3714.624827936547
 20
2065.487315142916
 30
0.0
 10
3714.618546449965
 20
2065.484438796246
 30
0.0
 10
3714.612413022392
 20
2065.481331485165
 30
0.0
 10
3714.60641669837
 20
2065.477989476222
 30
0.0
 10
3714.600558408998
 20
2065.474411064752
 30
0.0
 10
3714.594857241612
 20
2065.470604869753
 30
0.0
 10
3714.589333892138
 20
2065.466581823229
 30
0.0
 10
3714.584008900173
 20
2065.462354383846
 30
0.0
 10
3714.578903421139
 20
2065.457937252671
 30
0.0
 10
3714.57403716809
 20
2065.453346562597
 30
0.0
 10
3714.569422532345
 20
2065.448591784381
 30
0.0
 10
3714.565046698231
 20
2065.44366858035
 30
0.0
 10
3714.560906050104
 20
2065.438571873669
 30
0.0
 10
3714.557004711054
 20
2065.433302412779
 30
0.0
 10
3714.553359448811
 20
2065.42787910681
 30
0.0
 10
3714.549980960381
 20
2065.422314913064
 30
0.0
 10
3714.546879337296
 20
2065.416623645771
 30
0.0
 10
3714.544063901823
 20
2065.410819933233
 30
0.0
 10
3714.541543617604
 20
2065.404920017558
 30
0.0
 10
3714.539327494892
 20
2065.398945716584
 30
0.0
 10
3714.537421847127
 20
2065.392907170363
 30
0.0
 10
3714.535814218651
 20
2065.386807972475
 30
0.0
 10
3714.534537536636
 20
2065.380639891464
 30
0.0
 10
3714.533753068161
 20
2065.376093707408
 30
0.0
 10
3714.533490719231
 20
2065.373600084326
 30
0.0
 10
3714.533447768351
 20
2065.373191836779
 30
0.0
  0
SPLINE
  5
115F
330
1F
100
AcDbEntity
  8
SANINDUSA
100
AcDbSpline
210
0.0
220
0.0
230
1.0
 70
     8
 71
     3
 72
    30
 73
    26
 74
     0
 42
0.0000000001
 43
0.0000000001
 40
0.0
 40
0.0
 40
0.0
 40
0.0
 40
0.0001252451609497
 40
0.0489999955324157
 40
0.0976134448290976
 40
0.1459196610549517
 40
0.1938825263138848
 40
0.241476817471345
 40
0.2886889523208231
 40
0.3355174031694361
 40
0.3819727981146991
 40
0.4280760135009508
 40
0.4738275022004565
 40
0.5197085766328995
 40
0.5656388697475372
 40
0.6115579478826553
 40
0.6574072645925894
 40
0.7031348720823072
 40
0.7486915006169655
 40
0.7940326212553233
 40
0.8391203350341703
 40
0.8839330775408463
 40
0.928616165520723
 40
0.9734286780097651
 40
1.0
 40
1.0
 40
1.0
 40
1.0
 10
3714.811166385378
 20
2065.302239781814
 30
0.0
 10
3714.811163791661
 20
2065.302235622849
 30
0.0
 10
3714.810149044789
 20
2065.300608499937
 30
0.0
 10
3714.807872246461
 20
2065.297474724475
 30
0.0
 10
3714.804328548722
 20
2065.292872109863
 30
0.0
 10
3714.800507841756
 20
2065.288455092741
 30
0.0
 10
3714.7964668052
 20
2065.284218398997
 30
0.0
 10
3714.792206928978
 20
2065.280178235566
 30
0.0
 10
3714.787744282393
 20
2065.276343162386
 30
0.0
 10
3714.78309062256
 20
2065.272721952275
 30
0.0
 10
3714.778258511024
 20
2065.269321296346
 30
0.0
 10
3714.773259735963
 20
2065.266148589434
 30
0.0
 10
3714.768092897792
 20
2065.263195311079
 30
0.0
 10
3714.762758823719
 20
2065.260457750863
 30
0.0
 10
3714.75725710869
 20
2065.257936603371
 30
0.0
 10
3714.751609054467
 20
2065.255642633672
 30
0.0
 10
3714.745835619497
 20
2065.253584920556
 30
0.0
 10
3714.739958078985
 20
2065.251771157961
 30
0.0
 10
3714.733997764414
 20
2065.250207776693
 30
0.0
 10
3714.727975962913
 20
2065.248899590351
 30
0.0
 10
3714.721913258193
 20
2065.247851133661
 30
0.0
 10
3714.715821911512
 20
2065.247060613971
 30
0.0
 10
3714.709701471447
 20
2065.246539295999
 30
0.0
 10
3714.704390605169
 20
2065.246272597693
 30
0.0
 10
3714.701120305472
 20
2065.246283968167
 30
0.0
 10
3714.699902996444
 20
2065.246288200616
 30
0.0
  0
SPLINE
  5
1160
330
1F
100
AcDbEntity
  8
SANINDUSA
100
AcDbSpline
210
0.0
220
0.0
230
1.0
 70
     8
 71
     3
 72
    29
 73
    25
 74
     0
 42
0.0000000001
 43
0.0000000001
 40
0.0
 40
0.0
 40
0.0
 40
0.0
 40
0.0362453971265123
 40
0.0812039115836469
 40
0.1260448582574885
 40
0.1707463848317282
 40
0.2154065024970086
 40
0.260326700901911
 40
0.3055378985526571
 40
0.3510026752229895
 40
0.3966772524621624
 40
0.4425129635743369
 40
0.4884581804588937
 40
0.5344603952908616
 40
0.5804591920221903
 40
0.6263092282435104
 40
0.6718692054330028
 40
0.7178416977094413
 40
0.7642193672454234
 40
0.8110118108486899
 40
0.8582172995591101
 40
0.9058229616700138
 40
0.953805048558984
 40
1.0
 40
1.0
 40
1.0
 40
1.0
 10
3714.69990360192
 20
2065.246277445463
 30
0.0
 10
3714.698242012906
 20
2065.246284367538
 30
0.0
 10
3714.694519401536
 20
2065.246299875701
 30
0.0
 10
3714.68875230574
 20
2065.246631614888
 30
0.0
 10
3714.682627075342
 20
2065.2472140038
 30
0.0
 10
3714.676560807189
 20
2065.248059327408
 30
0.0
 10
3714.670552057572
 20
2065.24915578361
 30
0.0
 10
3714.664596591771
 20
2065.250504497069
 30
0.0
 10
3714.658696954694
 20
2065.25210539378
 30
0.0
 10
3714.652870984771
 20
2065.253955736245
 30
0.0
 10
3714.647139685329
 20
2065.256050696195
 30
0.0
 10
3714.641524246046
 20
2065.258384196789
 30
0.0
 10
3714.636045662639
 20
2065.260948844649
 30
0.0
 10
3714.630724957168
 20
2065.263735981472
 30
0.0
 10
3714.625585295533
 20
2065.266733317237
 30
0.0
 10
3714.620653894318
 20
2065.269926140397
 30
0.0
 10
3714.615925224563
 20
2065.273314190156
 30
0.0
 10
3714.611389010127
 20
2065.276899940609
 30
0.0
 10
3714.607033947186
 20
2065.280694045593
 30
0.0
 10
3714.602872874367
 20
2065.284689309391
 30
0.0
 10
3714.598915938152
 20
2065.288877000951
 30
0.0
 10
3714.595182836803
 20
2065.293250949231
 30
0.0
 10
3714.591711103049
 20
2065.29772145037
 30
0.0
 10
3714.589627353719
 20
2065.300795148695
 30
0.0
 10
3714.588605250021
 20
2065.302302834086
 30
0.0
  0
SPLINE
  5
1161
330
1F
100
AcDbEntity
  8
SANINDUSA
100
AcDbSpline
210
0.0
220
0.0
230
1.0
 70
     8
 71
     3
 72
    38
 73
    34
 74
     0
 42
0.0000000001
 43
0.0000000001
 40
0.0
 40
0.0
 40
0.0
 40
0.0
 40
0.0242006529654408
 40
0.0551574134939162
 40
0.0861512040890449
 40
0.1171429274072567
 40
0.1480947506547753
 40
0.178974895693241
 40
0.2097903944030587
 40
0.2407880614915319
 40
0.2721351393030927
 40
0.3037848804178117
 40
0.3356805601531069
 40
0.3677557014947765
 40
0.3999362827042388
 40
0.432142089558747
 40
0.4642765988073528
 40
0.4964588941456362
 40
0.5291826464932985
 40
0.5621641095445832
 40
0.5953940077940409
 40
0.6288556847846463
 40
0.6625272367858775
 40
0.6963824060892121
 40
0.7303916017089496
 40
0.764479986459623
 40
0.798853948115252
 40
0.8332684892821079
 40
0.8676984600496894
 40
0.9021962188662978
 40
0.9368174748483125
 40
0.9716214818182818
 40
1.0
 40
1.0
 40
1.0
 40
1.0
 10
3714.699902567781
 20
2065.413565861184
 30
0.0
 10
3714.70141251363
 20
2065.413559439792
 30
0.0
 10
3714.704853937613
 20
2065.413544804344
 30
0.0
 10
3714.710217387099
 20
2065.413247357381
 30
0.0
 10
3714.715973273258
 20
2065.412722727468
 30
0.0
 10
3714.721681227779
 20
2065.411961364022
 30
0.0
 10
3714.727317672372
 20
2065.410975386557
 30
0.0
 10
3714.732861890648
 20
2065.40976591009
 30
0.0
 10
3714.738310172118
 20
2065.408333699999
 30
0.0
 10
3714.74367323515
 20
2065.406680437864
 30
0.0
 10
3714.748956778361
 20
2065.404804062085
 30
0.0
 10
3714.754148214503
 20
2065.402706511652
 30
0.0
 10
3714.759222205594
 20
2065.40039521279
 30
0.0
 10
3714.764152816141
 20
2065.397879633013
 30
0.0
 10
3714.768913714708
 20
2065.395171186287
 30
0.0
 10
3714.773478907591
 20
2065.392284064627
 30
0.0
 10
3714.777830267394
 20
2065.389226537226
 30
0.0
 10
3714.781985723319
 20
2065.385993152151
 30
0.0
 10
3714.785947096059
 20
2065.382582159017
 30
0.0
 10
3714.789708295192
 20
2065.378992704526
 30
0.0
 10
3714.793245123801
 20
2065.375243963839
 30
0.0
 10
3714.796544769735
 20
2065.371346292991
 30
0.0
 10
3714.79959461547
 20
2065.367311293802
 30
0.0
 10
3714.802382896457
 20
2065.363151232497
 30
0.0
 10
3714.804896402758
 20
2065.358882144085
 30
0.0
 10
3714.807132966383
 20
2065.354506465995
 30
0.0
 10
3714.80908802187
 20
2065.350044115132
 30
0.0
 10
3714.810748158988
 20
2065.34550654731
 30
0.0
 10
3714.812103808036
 20
2065.340913130814
 30
0.0
 10
3714.813155074269
 20
2065.336270165547
 30
0.0
 10
3714.813888935848
 20
2065.3315799065
 30
0.0
 10
3714.814317613155
 20
2065.327146966629
 30
0.0
 10
3714.814353191205
 20
2065.324276626947
 30
0.0
 10
3714.812998732174
 20
2065.308701503746
 30
0.0
  0
SPLINE
  5
1162
330
1F
100
AcDbEntity
  8
SANINDUSA
100
AcDbSpline
210
0.0
220
0.0
230
1.0
 70
     8
 71
     3
 72
    10
 73
     6
 74
     0
 42
0.0000000001
 43
0.0000000001
 40
0.0
 40
0.0
 40
0.0
 40
0.0
 40
0.1318875256831713
 40
0.9125846877113612
 40
1.0
 40
1.0
 40
1.0
 40
1.0
 10
3714.812998732174
 20
2065.308701503746
 30
0.0
 10
3714.812953090027
 20
2065.308438201711
 30
0.0
 10
3714.81263727301
 20
2065.306616305337
 30
0.0
 10
3714.812154711804
 20
2065.304630017866
 30
0.0
 10
3714.81161506946
 20
2065.302925741846
 30
0.0
 10
3714.811560729722
 20
2065.302754128345
 30
0.0
  0
SPLINE
  5
1163
330
1F
100
AcDbEntity
  8
SANINDUSA
100
AcDbSpline
210
0.0
220
0.0
230
1.0
 70
     8
 71
     3
 72
    42
 73
    38
 74
     0
 42
0.0000000001
 43
0.0000000001
 40
0.0
 40
0.0
 40
0.0
 40
0.0
 40
0.0266872633067895
 40
0.0568610509782021
 40
0.0869939368922327
 40
0.1170553060209869
 40
0.146996936808497
 40
0.1774378282194458
 40
0.2077182707551243
 40
0.2378856978168927
 40
0.2679889165093988
 40
0.2980791486221738
 40
0.3282084305195024
 40
0.3584128752787139
 40
0.3885836582410258
 40
0.418211083343963
 40
0.4477406707157181
 40
0.477145148338474
 40
0.5063997633012124
 40
0.5354834237661716
 40
0.5643795780930261
 40
0.5930769838218048
 40
0.6215673276132582
 40
0.6496502028938516
 40
0.6776877057481786
 40
0.7057620210048721
 40
0.7337832836006115
 40
0.7616813833146877
 40
0.7893949753001533
 40
0.8168706547972368
 40
0.8440649129255879
 40
0.8709680612094514
 40
0.8977806246350677
 40
0.9247030908009083
 40
0.9516964515375491
 40
0.978731702710462
 40
0.9999999999999998
 40
0.9999999999999998
 40
0.9999999999999998
 40
0.9999999999999998
 10
3714.588247276287
 20
2065.302749778451
 30
0.0
 10
3714.587872193801
 20
2065.304117368513
 30
0.0
 10
3714.587073026642
 20
2065.307031215744
 30
0.0
 10
3714.586231707201
 20
2065.311534498703
 30
0.0
 10
3714.58564245733
 20
2065.316231899284
 30
0.0
 10
3714.585382296121
 20
2065.320932482817
 30
0.0
 10
3714.585422746992
 20
2065.325658645225
 30
0.0
 10
3714.585772871993
 20
2065.330386115384
 30
0.0
 10
3714.586439051688
 20
2065.335107856089
 30
0.0
 10
3714.587416966995
 20
2065.339783817538
 30
0.0
 10
3714.588705255715
 20
2065.344411756523
 30
0.0
 10
3714.590302710591
 20
2065.348989375728
 30
0.0
 10
3714.592208564606
 20
2065.353512940848
 30
0.0
 10
3714.594416126932
 20
2065.357972951435
 30
0.0
 10
3714.596907400537
 20
2065.362322942701
 30
0.0
 10
3714.599673736229
 20
2065.36654876421
 30
0.0
 10
3714.602697841557
 20
2065.370636235786
 30
0.0
 10
3714.605984086497
 20
2065.374594035786
 30
0.0
 10
3714.609520538394
 20
2065.378408822047
 30
0.0
 10
3714.613294707957
 20
2065.382068302274
 30
0.0
 10
3714.617293515917
 20
2065.385561111209
 30
0.0
 10
3714.621503607692
 20
2065.388877342279
 30
0.0
 10
3714.625900707324
 20
2065.391999386311
 30
0.0
 10
3714.630482684495
 20
2065.394924301838
 30
0.0
 10
3714.635242956298
 20
2065.397657700549
 30
0.0
 10
3714.640187673462
 20
2065.400203827026
 30
0.0
 10
3714.64529887961
 20
2065.402552610644
 30
0.0
 10
3714.650548995781
 20
2065.404690890906
 30
0.0
 10
3714.655911245801
 20
2065.406608143766
 30
0.0
 10
3714.661359403405
 20
2065.408295964719
 30
0.0
 10
3714.66686958549
 20
2065.409748562029
 30
0.0
 10
3714.672434905589
 20
2065.410964725626
 30
0.0
 10
3714.678063128053
 20
2065.411951602163
 30
0.0
 10
3714.683762193702
 20
2065.412714730259
 30
0.0
 10
3714.689524893915
 20
2065.413242939396
 30
0.0
 10
3714.694913620367
 20
2065.413543952863
 30
0.0
 10
3714.698378239833
 20
2065.413559125113
 30
0.0
 10
3714.699903729349
 20
2065.413565805533
 30
0.0
  0
SPLINE
  5
1164
330
1F
100
AcDbEntity
  8
SANINDUSA
100
AcDbSpline
210
0.0
220
0.0
230
1.0
 70
     8
 71
     3
 72
    36
 73
    32
 74
     0
 42
0.0000000001
 43
0.0000000001
 40
0.0
 40
0.0
 40
0.0
 40
0.0
 40
0.0390585003264738
 40
0.078423831314025
 40
0.1038001685025767
 40
0.1292560071101128
 40
0.1548695400359676
 40
0.1800817611174847
 40
0.2067226027133769
 40
0.2334420031789596
 40
0.2595671351838065
 40
0.2857587361019784
 40
0.3120794088323037
 40
0.3380662864517001
 40
0.3652062752602478
 40
0.3924049054990114
 40
0.4381897470160202
 40
0.48421588983835
 40
0.5145808427945881
 40
0.5450047894228152
 40
0.575599010978357
 40
0.606246777998795
 40
0.6366101624823832
 40
0.6670206155840423
 40
0.6975682131358446
 40
0.7281595719530749
 40
0.7889143672019069
 40
0.849982630871464
 40
0.9107334597543841
 40
0.9717711830960009
 40
0.9999999999999998
 40
0.9999999999999998
 40
0.9999999999999998
 40
0.9999999999999998
 10
3714.699903143591
 20
2064.996601757017
 30
0.0
 10
3714.696006554433
 20
2064.996701164005
 30
0.0
 10
3714.688182765801
 20
2064.996900758889
 30
0.0
 10
3714.677907361292
 20
2064.998327277818
 30
0.0
 10
3714.669095459678
 20
2065.000147324692
 30
0.0
 10
3714.66172473351
 20
2065.00211432313
 30
0.0
 10
3714.654489369192
 20
2065.004477021965
 30
0.0
 10
3714.647281810729
 20
2065.007269317653
 30
0.0
 10
3714.640134010493
 20
2065.010490580636
 30
0.0
 10
3714.633089903961
 20
2065.014135007901
 30
0.0
 10
3714.626284140383
 20
2065.01811845721
 30
0.0
 10
3714.619720106338
 20
2065.022416294743
 30
0.0
 10
3714.613385346275
 20
2065.027021770857
 30
0.0
 10
3714.607201815355
 20
2065.031980561052
 30
0.0
 10
3714.601190202035
 20
2065.037280175411
 30
0.0
 10
3714.594010431691
 20
2065.044224505597
 30
0.0
 10
3714.585982503605
 20
2065.052982303059
 30
0.0
 10
3714.578408171537
 20
2065.062540124158
 30
0.0
 10
3714.572274595251
 20
2065.071253968566
 30
0.0
 10
3714.567358508577
 20
2065.078931678795
 30
0.0
 10
3714.562760236944
 20
2065.086836240185
 30
0.0
 10
3714.558497509422
 20
2065.094919734127
 30
0.0
 10
3714.554572132465
 20
2065.103151805097
 30
0.0
 10
3714.550976132101
 20
2065.111521993713
 30
0.0
 10
3714.547695963335
 20
2065.120045285926
 30
0.0
 10
3714.543758834675
 20
2065.131549479156
 30
0.0
 10
3714.539637990401
 20
2065.146194905045
 30
0.0
 10
3714.535944635014
 20
2065.164042938998
 30
0.0
 10
3714.533564695506
 20
2065.182130935067
 30
0.0
 10
3714.532419058634
 20
2065.197072267145
 30
0.0
 10
3714.532523156175
 20
2065.205976409014
 30
0.0
 10
3714.53255607501
 20
2065.208792171671
 30
0.0
  0
SPLINE
  5
1165
330
1F
100
AcDbEntity
  8
SANINDUSA
100
AcDbSpline
210
0.0
220
0.0
230
1.0
 70
     8
 71
     3
 72
    37
 73
    33
 74
     0
 42
0.0000000001
 43
0.0000000001
 40
0.0
 40
0.0
 40
0.0
 40
0.0
 40
0.0221062681881309
 40
0.0590429297337277
 40
0.0960426499674082
 40
0.1319646588834805
 40
0.167946394286221
 40
0.2041134069599702
 40
0.2403446707299351
 40
0.2736102779860347
 40
0.3069296392409387
 40
0.3404184357787505
 40
0.3739672164508237
 40
0.4039121062999336
 40
0.4339045125051847
 40
0.4640481288439358
 40
0.4942459204041
 40
0.547562666680912
 40
0.5743815518770939
 40
0.6012486685013258
 40
0.6488176232193914
 40
0.6967062013739819
 40
0.7253710456366769
 40
0.7541192202716133
 40
0.7830440084861995
 40
0.8115458188474487
 40
0.8417343378220502
 40
0.8720456104092098
 40
0.9141838211932553
 40
0.9353728035226019
 40
0.9563356999031091
 40
1.0
 40
1.0
 40
1.0
 40
1.0
 10
3714.867349230835
 20
2065.208793037969
 30
0.0
 10
3714.867354637732
 20
2065.206588093687
 30
0.0
 10
3714.867369078845
 20
2065.20069897802
 30
0.0
 10
3714.866885574852
 20
2065.191127492509
 30
0.0
 10
3714.865954636229
 20
2065.180208724116
 30
0.0
 10
3714.864569371491
 20
2065.169432623324
 30
0.0
 10
3714.862764771525
 20
2065.158803620249
 30
0.0
 10
3714.860513589653
 20
2065.148228275536
 30
0.0
 10
3714.857886005018
 20
2065.138019577297
 30
0.0
 10
3714.854921743891
 20
2065.128200375797
 30
0.0
 10
3714.851653908169
 20
2065.118766887459
 30
0.0
 10
3714.847988955901
 20
2065.109449967091
 30
0.0
 10
3714.8440682536
 20
2065.100604517365
 30
0.0
 10
3714.839940505458
 20
2065.092241686029
 30
0.0
 10
3714.835644242114
 20
2065.084348705673
 30
0.0
 10
3714.831013309385
 20
2065.076617447825
 30
0.0
 10
3714.824778609967
 20
2065.067147307543
 30
0.0
 10
3714.818172870214
 20
2065.058329478542
 30
0.0
 10
3714.811258534731
 20
2065.050197217736
 30
0.0
 10
3714.804393769984
 20
2065.042786963743
 30
0.0
 10
3714.795564065088
 20
2065.034348864481
 30
0.0
 10
3714.785927613144
 20
2065.02655288682
 30
0.0
 10
3714.777317736727
 20
2065.020531447654
 30
0.0
 10
3714.770000922295
 20
2065.015983274764
 30
0.0
 10
3714.76245453705
 20
2065.011860379719
 30
0.0
 10
3714.75455354358
 20
2065.00811702684
 30
0.0
 10
3714.746311186532
 20
2065.004805753103
 30
0.0
 10
3714.736582080633
 20
2065.00160369509
 30
0.0
 10
3714.72749522254
 20
2064.999380320882
 30
0.0
 10
3714.719206400767
 20
2064.997970133317
 30
0.0
 10
3714.710708867891
 20
2064.996895672627
 30
0.0
 10
3714.704260128244
 20
2064.996720266963
 30
0.0
 10
3714.699903143591
 20
2064.996601757017
 30
0.0
  0
SPLINE
  5
1166
330
1F
100
AcDbEntity
  8
SANINDUSA
100
AcDbSpline
210
0.0
220
0.0
230
1.0
 70
     8
 71
     3
 72
    11
 73
     7
 74
     0
 42
0.0000000001
 43
0.0000000001
 40
0.0
 40
0.0
 40
0.0
 40
0.0
 40
0.1247977975271784
 40
0.5210686402400644
 40
0.9173393829979838
 40
1.0
 40
1.0
 40
1.0
 40
1.0
 10
3714.533485196965
 20
2065.342179394321
 30
0.0
 10
3714.533285857452
 20
2065.343453951506
 30
0.0
 10
3714.532453554554
 20
2065.348775614169
 30
0.0
 10
3714.532335255162
 20
2065.358235027127
 30
0.0
 10
3714.532537040013
 20
2065.367261619188
 30
0.0
 10
3714.533341378063
 20
2065.372147960513
 30
0.0
 10
3714.533480201879
 20
2065.372991313073
 30
0.0
  0
SPLINE
  5
1167
330
1F
100
AcDbEntity
  8
SANINDUSA
100
AcDbSpline
210
0.0
220
0.0
230
1.0
 70
     8
 71
     3
 72
    11
 73
     7
 74
     0
 42
0.0000000001
 43
0.0000000001
 40
0.0
 40
0.0
 40
0.0
 40
0.0
 40
0.1250594323210975
 40
0.5524568939190192
 40
0.9565110305630225
 40
1.0
 40
1.0
 40
1.0
 40
1.0
 10
3714.866413334503
 20
2065.371988135964
 30
0.0
 10
3714.866600014002
 20
2065.370746350228
 30
0.0
 10
3714.867424680916
 20
2065.36526069371
 30
0.0
 10
3714.867456516854
 20
2065.355675685423
 30
0.0
 10
3714.86720502159
 20
2065.346907522378
 30
0.0
 10
3714.866459658769
 20
2065.342473146539
 30
0.0
 10
3714.866387229856
 20
2065.342042246292
 30
0.0
  0
SPLINE
  5
116B
330
1F
100
AcDbEntity
  8
SANINDUSA
100
AcDbSpline
210
0.0
220
0.0
230
1.0
 70
     8
 71
     3
 72
    10
 73
     6
 74
     0
 42
0.0000000001
 43
0.0000000001
 40
0.0
 40
0.0
 40
0.0
 40
0.0
 40
0.3258643791257175
 40
0.6701508741174194
 40
1.0
 40
1.0
 40
1.0
 40
1.0
 10
3714.823352613522
 20
2065.326904518304
 30
0.0
 10
3714.822346554143
 20
2065.324104884262
 30
0.0
 10
3714.820277559752
 20
2065.318347344252
 30
0.0
 10
3714.816209956587
 20
2065.31002024116
 30
0.0
 10
3714.812841917045
 20
2065.304655970148
 30
0.0
 10
3714.811193962442
 20
2065.302031275577
 30
0.0
  0
SPLINE
  5
116D
330
1F
100
AcDbEntity
  8
SANINDUSA
100
AcDbSpline
210
0.0
220
0.0
230
1.0
 70
     8
 71
     3
 72
    10
 73
     6
 74
     0
 42
0.0000000001
 43
0.0000000001
 40
0.0
 40
0.0
 40
0.0
 40
0.0
 40
0.3213894370926561
 40
0.6622814208066902
 40
1.0
 40
1.0
 40
1.0
 40
1.0
 10
3714.576473550331
 20
2065.326850680988
 30
0.0
 10
3714.577459271085
 20
2065.32410197042
 30
0.0
 10
3714.57949052808
 20
2065.318437752091
 30
0.0
 10
3714.583517039467
 20
2065.310142477764
 30
0.0
 10
3714.586887108049
 20
2065.304765643616
 30
0.0
 10
3714.58856426257
 20
2065.302089798458
 30
0.0
  0
LINE
  5
116E
330
1F
100
AcDbEntity
  8
SANINDUSA
100
AcDbLine
 10
3714.811539778092
 20
2065.302603577496
 30
0.0
 11
3714.811628542426
 21
2065.302974581881
 31
0.0
  0
LINE
  5
1170
330
1F
100
AcDbEntity
  8
SANINDUSA
100
AcDbLine
 10
3714.58827425215
 20
2065.30257121417
 30
0.0
 11
3714.58817882653
 21
2065.302970060443
 31
0.0
  0
SPLINE
  5
1171
330
1F
100
AcDbEntity
  8
SANINDUSA
100
AcDbSpline
210
0.0
220
0.0
230
1.0
 70
    11
 71
     3
 72
    98
 73
    94
 74
     0
 42
0.0000000001
 43
0.0000000001
 40
0.0
 40
0.0
 40
0.0
 40
0.0
 40
0.0312499999999992
 40
0.0312499999999992
 40
0.0468749999999989
 40
0.0468749999999989
 40
0.0624999999999985
 40
0.0624999999999985
 40
0.0937499999999977
 40
0.0937499999999977
 40
0.1093749999999972
 40
0.1093749999999972
 40
0.1249999999999966
 40
0.1249999999999966
 40
0.1562499999999961
 40
0.1562499999999961
 40
0.171874999999996
 40
0.171874999999996
 40
0.1874999999999959
 40
0.2031249999999957
 40
0.2031249999999957
 40
0.2187499999999956
 40
0.2187499999999956
 40
0.2499999999999944
 40
0.2499999999999944
 40
0.2656249999999946
 40
0.2656249999999946
 40
0.2812499999999948
 40
0.2812499999999948
 40
0.3124999999999946
 40
0.3124999999999946
 40
0.3281249999999945
 40
0.3281249999999945
 40
0.3437499999999944
 40
0.3437499999999944
 40
0.3749999999999943
 40
0.3749999999999943
 40
0.4062499999999944
 40
0.4062499999999944
 40
0.4218749999999942
 40
0.4218749999999942
 40
0.437499999999994
 40
0.437499999999994
 40
0.4687499999999937
 40
0.4687499999999937
 40
0.4999999999999935
 40
0.4999999999999935
 40
0.5156249999999934
 40
0.5156249999999934
 40
0.5312499999999931
 40
0.5312499999999931
 40
0.5624999999999929
 40
0.5624999999999929
 40
0.5781249999999929
 40
0.5781249999999929
 40
0.5937499999999928
 40
0.6093749999999928
 40
0.6093749999999928
 40
0.6249999999999928
 40
0.6249999999999928
 40
0.6562499999999926
 40
0.6562499999999926
 40
0.6874999999999924
 40
0.6874999999999924
 40
0.7187499999999921
 40
0.7187499999999921
 40
0.734374999999992
 40
0.734374999999992
 40
0.7499999999999919
 40
0.7499999999999919
 40
0.7656249999999917
 40
0.7656249999999917
 40
0.7812499999999915
 40
0.7812499999999915
 40
0.8124999999999912
 40
0.8124999999999912
 40
0.8281249999999914
 40
0.8281249999999914
 40
0.8437499999999918
 40
0.8437499999999918
 40
0.8749999999999925
 40
0.8749999999999925
 40
0.8906249999999932
 40
0.8906249999999932
 40
0.9062499999999939
 40
0.9062499999999939
 40
0.937499999999996
 40
0.937499999999996
 40
0.9531249999999969
 40
0.9531249999999969
 40
0.968749999999998
 40
0.968749999999998
 40
1.0
 40
1.0
 40
1.0
 40
1.0
 10
3714.700330939525
 20
2065.390577664881
 30
0.0
 10
3714.699505475959
 20
2065.390603986211
 30
0.0
 10
3714.698691035253
 20
2065.3905544332
 30
0.0
 10
3714.697485232255
 20
2065.390370946907
 30
0.0
 10
3714.697085960592
 20
2065.390291456689
 30
0.0
 10
3714.696292864183
 20
2065.390094983138
 30
0.0
 10
3714.695897958018
 20
2065.389977410213
 30
0.0
 10
3714.694747038753
 20
2065.389575544962
 30
0.0
 10
3714.694016268275
 20
2065.389241013582
 30
0.0
 10
3714.692974387218
 20
2065.388640176703
 30
0.0
 10
3714.692635068613
 20
2065.388422454951
 30
0.0
 10
3714.691980453224
 20
2065.387956102461
 30
0.0
 10
3714.691668039137
 20
2065.387709702823
 30
0.0
 10
3714.69077408357
 20
2065.386932071488
 30
0.0
 10
3714.690235418852
 20
2065.386362771328
 30
0.0
 10
3714.689515438352
 20
2065.385430674766
 30
0.0
 10
3714.689290658725
 20
2065.385106962652
 30
0.0
 10
3714.688880614328
 20
2065.384447530664
 30
0.0
 10
3714.68850728355
 20
2065.383772657167
 30
0.0
 10
3714.688206273439
 20
2065.383067366034
 30
0.0
 10
3714.687941918177
 20
2065.382346658079
 30
0.0
 10
3714.687827604983
 20
2065.381976598315
 30
0.0
 10
3714.687545729918
 20
2065.380857955358
 30
0.0
 10
3714.687438765049
 20
2065.38010562498
 30
0.0
 10
3714.687396522108
 20
2065.378967538314
 30
0.0
 10
3714.687402283662
 20
2065.37858656607
 30
0.0
 10
3714.687454702134
 20
2065.377821303335
 30
0.0
 10
3714.687501398503
 20
2065.377439408922
 30
0.0
 10
3714.687699524045
 20
2065.376312776147
 30
0.0
 10
3714.687908831584
 20
2065.375580081658
 30
0.0
 10
3714.688339295441
 20
2065.374508789853
 30
0.0
 10
3714.688503431748
 20
2065.374154480683
 30
0.0
 10
3714.688865623339
 20
2065.373468164042
 30
0.0
 10
3714.689063659351
 20
2065.373135517125
 30
0.0
 10
3714.68970737283
 20
2065.372168356583
 30
0.0
 10
3714.690202171192
 20
2065.371564322497
 30
0.0
 10
3714.691328232092
 20
2065.370440930593
 30
0.0
 10
3714.69194296954
 20
2065.369938458205
 30
0.0
 10
3714.692934678691
 20
2065.369274229613
 30
0.0
 10
3714.693277194025
 20
2065.369067586203
 30
0.0
 10
3714.693986621527
 20
2065.36868445663
 30
0.0
 10
3714.694355161274
 20
2065.368507456396
 30
0.0
 10
3714.695474783831
 20
2065.368033315261
 30
0.0
 10
3714.696245612274
 20
2065.367788628186
 30
0.0
 10
3714.697835503268
 20
2065.367440334564
 30
0.0
 10
3714.698659392862
 20
2065.367337589826
 30
0.0
 10
3714.6998931624
 20
2065.367298852456
 30
0.0
 10
3714.700307222949
 20
2065.367304943639
 30
0.0
 10
3714.701127485593
 20
2065.367354801669
 30
0.0
 10
3714.701533502724
 20
2065.367398349311
 30
0.0
 10
3714.702739530707
 20
2065.367583403756
 30
0.0
 10
3714.703527634558
 20
2065.367778795269
 30
0.0
 10
3714.704685079893
 20
2065.368183708704
 30
0.0
 10
3714.705063103783
 20
2065.368336324917
 30
0.0
 10
3714.705795904694
 20
2065.368672660035
 30
0.0
 10
3714.706508083259
 20
2065.369041007954
 30
0.0
 10
3714.707179425051
 20
2065.369472748208
 30
0.0
 10
3714.707829957465
 20
2065.369936791559
 30
0.0
 10
3714.708146260874
 20
2065.370186384804
 30
0.0
 10
3714.709044882714
 20
2065.37096972347
 30
0.0
 10
3714.709581910255
 20
2065.371539943988
 30
0.0
 10
3714.710533842318
 20
2065.372774839568
 30
0.0
 10
3714.710950531753
 20
2065.37344607478
 30
0.0
 10
3714.711624608048
 20
2065.374830421301
 30
0.0
 10
3714.711887252697
 20
2065.375548336437
 30
0.0
 10
3714.712167772809
 20
2065.376664464303
 30
0.0
 10
3714.712242178802
 20
2065.37704423104
 30
0.0
 10
3714.712349347819
 20
2065.377800655344
 30
0.0
 10
3714.712382715524
 20
2065.378179214833
 30
0.0
 10
3714.712409769242
 20
2065.378937015568
 30
0.0
 10
3714.712403454417
 20
2065.379316256826
 30
0.0
 10
3714.71235074168
 20
2065.380075427995
 30
0.0
 10
3714.712304099598
 20
2065.380456699324
 30
0.0
 10
3714.712103314667
 20
2065.381592559391
 30
0.0
 10
3714.711891874217
 20
2065.382325946806
 30
0.0
 10
3714.711462239943
 20
2065.383391448735
 30
0.0
 10
3714.71130014594
 20
2065.383740810733
 30
0.0
 10
3714.710937182575
 20
2065.384427613544
 30
0.0
 10
3714.710736223992
 20
2065.384764613611
 30
0.0
 10
3714.710088379571
 20
2065.385735415571
 30
0.0
 10
3714.709593110291
 20
2065.386337170085
 30
0.0
 10
3714.70875528116
 20
2065.387171728095
 30
0.0
 10
3714.708458388734
 20
2065.387439811456
 30
0.0
 10
3714.707840147256
 20
2065.387945142927
 30
0.0
 10
3714.707519862669
 20
2065.388181842456
 30
0.0
 10
3714.706526437046
 20
2065.388845357757
 30
0.0
 10
3714.705821037295
 20
2065.389226038099
 30
0.0
 10
3714.704696211046
 20
2065.389701628337
 30
0.0
 10
3714.704312497339
 20
2065.389842894581
 30
0.0
 10
3714.703539779723
 20
2065.390087481695
 30
0.0
 10
3714.703149019761
 20
2065.390191563033
 30
0.0
 10
3714.701963757389
 20
2065.390450084795
 30
0.0
 10
3714.701156403092
 20
2065.390551343551
 30
0.0
 10
3714.700330939525
 20
2065.390577664881
 30
0.0
  0
SPLINE
  5
1172
330
1F
100
AcDbEntity
  8
SANINDUSA
100
AcDbSpline
210
0.0
220
0.0
230
1.0
 70
     8
 71
     3
 72
    25
 73
    21
 74
     0
 42
0.0000000001
 43
0.0000000001
 40
0.0
 40
0.0
 40
0.0
 40
0.0
 40
0.0257142106587562
 40
0.0843227919193314
 40
0.1446310962477949
 40
0.2032383411576596
 40
0.263545355255751
 40
0.3221498159194842
 40
0.3824539819165211
 40
0.4410554306112319
 40
0.5013564389074277
 40
0.5798642825616602
 40
0.6384656442470264
 40
0.6987665049825442
 40
0.7573678494535601
 40
0.8176685250121586
 40
0.8762719453536133
 40
0.9365746968873436
 40
0.9951811290125608
 40
1.0
 40
1.0
 40
1.0
 40
1.0
 10
3714.687593213559
 20
2065.38073283923
 30
0.0
 10
3714.687628971701
 20
2065.380451620031
 30
0.0
 10
3714.68774623085
 20
2065.379529437805
 30
0.0
 10
3714.688317967653
 20
2065.378014112819
 30
0.0
 10
3714.689269560127
 20
2065.376269370655
 30
0.0
 10
3714.690554404574
 20
2065.37468935612
 30
0.0
 10
3714.692086246479
 20
2065.373343586792
 30
0.0
 10
3714.693856497178
 20
2065.372246909563
 30
0.0
 10
3714.695781130632
 20
2065.371449824507
 30
0.0
 10
3714.697841192028
 20
2065.37096068868
 30
0.0
 10
3714.700175200756
 20
2065.370783927975
 30
0.0
 10
3714.702511524349
 20
2065.371037632982
 30
0.0
 10
3714.704740345214
 20
2065.371704374237
 30
0.0
 10
3714.706609356774
 20
2065.372609175055
 30
0.0
 10
3714.708304641354
 20
2065.373804169765
 30
0.0
 10
3714.709744529249
 20
2065.375234363586
 30
0.0
 10
3714.710927220237
 20
2065.3768837377
 30
0.0
 10
3714.711749103874
 20
2065.378680761057
 30
0.0
 10
3714.712187777733
 20
2065.379998148716
 30
0.0
 10
3714.712242862845
 20
2065.380694004879
 30
0.0
 10
3714.712247048053
 20
2065.380746874016
 30
0.0
  0
SPLINE
  5
1173
330
1F
100
AcDbEntity
  8
SANINDUSA
100
AcDbSpline
210
0.0
220
0.0
230
1.0
 70
     8
 71
     3
 72
    25
 73
    21
 74
     0
 42
0.0000000001
 43
0.0000000001
 40
0.0
 40
0.0
 40
0.0
 40
0.0
 40
0.0324957708529659
 40
0.0650755678718146
 40
0.1208024779282812
 40
0.1765299458756822
 40
0.2340086597934526
 40
0.2914884839752271
 40
0.3497537206914827
 40
0.4080204507398328
 40
0.4681630818982479
 40
0.5283075238472788
 40
0.5885010147607236
 40
0.6486962050579304
 40
0.7107806346258697
 40
0.772866646721028
 40
0.8334201389287247
 40
0.8939746337699563
 40
0.9563183729538975
 40
1.0
 40
1.0
 40
1.0
 40
1.0
 10
3714.699903143591
 20
2065.213128314603
 30
0.0
 10
3714.697190690475
 20
2065.213161217979
 30
0.0
 10
3714.691758770495
 20
2065.21322710981
 30
0.0
 10
3714.681701831835
 20
2065.213882142626
 30
0.0
 10
3714.669791185037
 20
2065.215309802333
 30
0.0
 10
3714.65605129149
 20
2065.217984260602
 30
0.0
 10
3714.642509326902
 20
2065.221680270672
 30
0.0
 10
3714.629218690278
 20
2065.226412110608
 30
0.0
 10
3714.616430942155
 20
2065.232123053013
 30
0.0
 10
3714.604112052017
 20
2065.238834706629
 30
0.0
 10
3714.592441940168
 20
2065.246504424449
 30
0.0
 10
3714.581522151152
 20
2065.255085010461
 30
0.0
 10
3714.571560961932
 20
2065.264429830866
 30
0.0
 10
3714.562519972297
 20
2065.274556496911
 30
0.0
 10
3714.55450715083
 20
2065.285410193821
 30
0.0
 10
3714.547662682878
 20
2065.296820792174
 30
0.0
 10
3714.542071037938
 20
2065.30857543838
 30
0.0
 10
3714.537731924319
 20
2065.320694871568
 30
0.0
 10
3714.534780514851
 20
2065.331925171216
 30
0.0
 10
3714.533863145861
 20
2065.339187408847
 30
0.0
 10
3714.533485196965
 20
2065.342179394321
 30
0.0
  0
SPLINE
  5
1174
330
1F
100
AcDbEntity
  8
SANINDUSA
100
AcDbSpline
210
0.0
220
0.0
230
1.0
 70
     8
 71
     3
 72
    26
 73
    22
 74
     0
 42
0.0000000001
 43
0.0000000001
 40
0.0
 40
0.0
 40
0.0
 40
0.0
 40
0.0524221870375008
 40
0.1127731409525723
 40
0.1731233142496757
 40
0.2295181091794178
 40
0.2859119752981665
 40
0.3437988437119267
 40
0.4016843866074175
 40
0.4564755916521403
 40
0.5112655842642854
 40
0.5675410324174931
 40
0.6238151009096946
 40
0.6786858423140051
 40
0.7335554569458754
 40
0.790044035398036
 40
0.8465316626220934
 40
0.8846241479877921
 40
0.9227165165808656
 40
0.9613582795994451
 40
1.0
 40
1.0
 40
1.0
 40
1.0
 10
3714.866387229856
 20
2065.342042246292
 30
0.0
 10
3714.865872533354
 20
2065.338459238061
 30
0.0
 10
3714.864765293379
 20
2065.330751297683
 30
0.0
 10
3714.861579725125
 20
2065.319113046358
 30
0.0
 10
3714.857245880204
 20
2065.307455222256
 30
0.0
 10
3714.851869929667
 20
2065.296386093047
 30
0.0
 10
3714.845555032145
 20
2065.28585003074
 30
0.0
 10
3714.83815979172
 20
2065.275681763439
 30
0.0
 10
3714.829856031704
 20
2065.266137576805
 30
0.0
 10
3714.820805229399
 20
2065.25734677881
 30
0.0
 10
3714.811032195652
 20
2065.249253987917
 30
0.0
 10
3714.800391924592
 20
2065.24178281461
 30
0.0
 10
3714.789029294705
 20
2065.235063956761
 30
0.0
 10
3714.777124844168
 20
2065.229204506312
 30
0.0
 10
3714.764657243681
 20
2065.224170451326
 30
0.0
 10
3714.75158625576
 20
2065.219993667412
 30
0.0
 10
3714.739470434641
 20
2065.217088380283
 30
0.0
 10
3714.728639838939
 20
2065.215188316655
 30
0.0
 10
3714.719164336732
 20
2065.214011650398
 30
0.0
 10
3714.709574114585
 20
2065.213267659899
 30
0.0
 10
3714.703126799404
 20
2065.213174763018
 30
0.0
 10
3714.699903143591
 20
2065.213128314603
 30
0.0
  0
SPLINE
  5
1176
330
1F
100
AcDbEntity
  8
SANINDUSA
100
AcDbSpline
210
0.0
220
0.0
230
1.0
 70
     8
 71
     3
 72
    29
 73
    25
 74
     0
 42
0.0000000001
 43
0.0000000001
 40
0.0
 40
0.0
 40
0.0
 40
0.0
 40
0.0511056422853977
 40
0.0951407871474736
 40
0.1393491208101348
 40
0.183562953016302
 40
0.2276056252064661
 40
0.2742622859242676
 40
0.321108332253527
 40
0.3679645017456985
 40
0.4146350222490939
 40
0.4633107406175691
 40
0.5121775925410855
 40
0.5610531325127008
 40
0.6097407443443752
 40
0.6588031653048715
 40
0.7080443260644199
 40
0.7572888941382382
 40
0.8063559783032253
 40
0.8541141349402556
 40
0.9020335190116124
 40
0.9499510775807495
 40
0.9977067364750965
 40
1.0
 40
1.0
 40
1.0
 40
1.0
 10
3714.699903143591
 20
2065.470348374425
 30
0.0
 10
3714.704097663651
 20
2065.470247273905
 30
0.0
 10
3714.711906389307
 20
2065.470059060183
 30
0.0
 10
3714.723225353328
 20
2065.4686034959
 30
0.0
 10
3714.73379804867
 20
2065.46649932652
 30
0.0
 10
3714.744108710169
 20
2065.463631213622
 30
0.0
 10
3714.754263818294
 20
2065.459973761065
 30
0.0
 10
3714.764160617301
 20
2065.455476230308
 30
0.0
 10
3714.77371582459
 20
2065.450155774615
 30
0.0
 10
3714.782668038168
 20
2065.444163152545
 30
0.0
 10
3714.791058488327
 20
2065.437461283072
 30
0.0
 10
3714.798785041994
 20
2065.430054989926
 30
0.0
 10
3714.805791553115
 20
2065.421993680307
 30
0.0
 10
3714.811926361594
 20
2065.413462083853
 30
0.0
 10
3714.817151890828
 20
2065.404513126783
 30
0.0
 10
3714.821413049584
 20
2065.395196680736
 30
0.0
 10
3714.824713315179
 20
2065.385580300032
 30
0.0
 10
3714.827025619662
 20
2065.375769764898
 30
0.0
 10
3714.828318912903
 20
2065.365932447686
 30
0.0
 10
3714.828586575168
 20
2065.356132643859
 30
0.0
 10
3714.827920877884
 20
2065.346418268827
 30
0.0
 10
3714.826202063788
 20
2065.33680715577
 30
0.0
 10
3714.824642877652
 20
2065.330282222344
 30
0.0
 10
3714.823409143749
 20
2065.327052505351
 30
0.0
 10
3714.823352613522
 20
2065.326904518304
 30
0.0
  0
SPLINE
  5
1177
330
1F
100
AcDbEntity
  8
SANINDUSA
100
AcDbSpline
210
0.0
220
0.0
230
1.0
 70
     8
 71
     3
 72
    29
 73
    25
 74
     0
 42
0.0000000001
 43
0.0000000001
 40
0.0
 40
0.0
 40
0.0
 40
0.0
 40
0.0510890160172606
 40
0.0945070754322756
 40
0.1379260423579235
 40
0.1827337949972327
 40
0.2275429933911013
 40
0.2735283725205614
 40
0.3195157058100679
 40
0.3670182580105306
 40
0.4145225161479188
 40
0.4625193445778529
 40
0.5105181566484381
 40
0.5600457303539428
 40
0.6095745441959032
 40
0.6579980899715471
 40
0.7064223874889068
 40
0.756278393844169
 40
0.8061344612243239
 40
0.8533120362125819
 40
0.9004895691536864
 40
0.9489602840459333
 40
0.9974303036738486
 40
1.0
 40
1.0
 40
1.0
 40
1.0
 10
3714.699903143591
 20
2065.470348374425
 30
0.0
 10
3714.695708688672
 20
2065.470246775283
 30
0.0
 10
3714.687949571381
 20
2065.470058831991
 30
0.0
 10
3714.676741012657
 20
2065.468631191517
 30
0.0
 10
3714.666221758601
 20
2065.466566965477
 30
0.0
 10
3714.655858638341
 20
2065.463694228247
 30
0.0
 10
3714.645649807887
 20
2065.460014076013
 30
0.0
 10
3714.635796528914
 20
2065.455554131235
 30
0.0
 10
3714.626278816123
 20
2065.45028953797
 30
0.0
 10
3714.617274304011
 20
2065.444277052128
 30
0.0
 10
3714.608835043028
 20
2065.437534053521
 30
0.0
 10
3714.601131439359
 20
2065.430172095789
 30
0.0
 10
3714.59413794564
 20
2065.422173909052
 30
0.0
 10
3714.587961217315
 20
2065.413608925077
 30
0.0
 10
3714.582704654944
 20
2065.404604319782
 30
0.0
 10
3714.578444471362
 20
2065.395329362591
 30
0.0
 10
3714.575132881065
 20
2065.385771801297
 30
0.0
 10
3714.572797408836
 20
2065.375920729102
 30
0.0
 10
3714.571496824153
 20
2065.366024856965
 30
0.0
 10
3714.571215572582
 20
2065.356258765894
 30
0.0
 10
3714.571852085384
 20
2065.346592355825
 30
0.0
 10
3714.573563537602
 20
2065.336940385623
 30
0.0
 10
3714.575154617698
 20
2065.330312074753
 30
0.0
 10
3714.576410329037
 20
2065.327016598324
 30
0.0
 10
3714.576473550331
 20
2065.326850680988
 30
0.0
  0
LINE
  5
1182
330
1F
100
AcDbEntity
  8
SANINDUSA
100
AcDbLine
 10
3714.053843784364
 20
2065.370712247785
 30
0.0
 11
3714.053843784364
 21
2065.153911563027
 31
0.0
  0
LINE
  5
1183
330
1F
100
AcDbEntity
  8
SANINDUSA
100
AcDbLine
 10
3714.388843784364
 20
2065.153911563027
 30
0.0
 11
3714.388843784364
 21
2065.370711843738
 31
0.0
  0
SPLINE
  5
1184
330
1F
100
AcDbEntity
  8
SANINDUSA
100
AcDbSpline
210
0.0
220
0.0
230
1.0
 70
     8
 71
     3
 72
    79
 73
    75
 74
     0
 42
0.0000000001
 43
0.0000000001
 40
0.0
 40
0.0
 40
0.0
 40
0.0
 40
0.0040672942466333
 40
0.0184434650606007
 40
0.032832786298617
 40
0.0472365573514275
 40
0.0616545801128607
 40
0.0760849059618076
 40
0.0905238459424675
 40
0.1049650022729894
 40
0.1194010362307895
 40
0.1338254392039319
 40
0.1482088273556836
 40
0.1626729614624052
 40
0.1771163108293556
 40
0.1915419554647522
 40
0.2059460401990664
 40
0.2203258778673518
 40
0.2346800951049421
 40
0.2490087107873242
 40
0.2633131631410608
 40
0.2775905323553437
 40
0.2917074847158898
 40
0.3058409530587804
 40
0.3199744456060273
 40
0.3340889950332912
 40
0.3481690283250165
 40
0.3621999191101757
 40
0.376168365333044
 40
0.3900627383749822
 40
0.403880206757134
 40
0.4176086958174681
 40
0.431381457392247
 40
0.445213149210096
 40
0.4590805612779657
 40
0.4729595216297087
 40
0.4868173739879154
 40
0.500630050381243
 40
0.5143749536171658
 40
0.5280332189578179
 40
0.5416432282317964
 40
0.5553193001377636
 40
0.5690879801374257
 40
0.5829313486237454
 40
0.5968297790558194
 40
0.610762280537025
 40
0.6247070840042773
 40
0.6386353903633414
 40
0.6525254425743689
 40
0.6663168189739002
 40
0.6802808975883881
 40
0.694307777714209
 40
0.7083957769061824
 40
0.7225416875116745
 40
0.736741188258038
 40
0.7509889616620216
 40
0.7652788170196217
 40
0.7796038124655502
 40
0.7939248592849382
 40
0.8082473727496431
 40
0.8226458125058474
 40
0.8370661037149556
 40
0.8515088644303709
 40
0.865973126110169
 40
0.8804565832129902
 40
0.8949558961773176
 40
0.9094671374008999
 40
0.9239720140007337
 40
0.9383864165181295
 40
0.9527912166268837
 40
0.967184370487334
 40
0.9815606809997497
 40
0.9959169925961633
 40
1.0
 40
1.0
 40
1.0
 40
1.0
 10
3714.054151791974
 20
2065.14869183642
 30
0.0
 10
3714.054177918179
 20
2065.148273427102
 30
0.0
 10
3714.054296389504
 20
2065.146376117201
 30
0.0
 10
3714.054824046441
 20
2065.143011601127
 30
0.0
 10
3714.055741899157
 20
2065.138609616955
 30
0.0
 10
3714.056996521069
 20
2065.134238542503
 30
0.0
 10
3714.05855554612
 20
2065.129906519894
 30
0.0
 10
3714.060424574885
 20
2065.125623114102
 30
0.0
 10
3714.062598015953
 20
2065.121397720693
 30
0.0
 10
3714.065072211934
 20
2065.117239838137
 30
0.0
 10
3714.067841530362
 20
2065.113159013128
 30
0.0
 10
3714.07089926399
 20
2065.109165548389
 30
0.0
 10
3714.074242852056
 20
2065.105261009451
 30
0.0
 10
3714.077863615685
 20
2065.10144890933
 30
0.0
 10
3714.081760200584
 20
2065.097733864456
 30
0.0
 10
3714.085916648806
 20
2065.094130483504
 30
0.0
 10
3714.090325281646
 20
2065.090644576864
 30
0.0
 10
3714.0949773095
 20
2065.087282120493
 30
0.0
 10
3714.099863733058
 20
2065.084048597398
 30
0.0
 10
3714.1049757088
 20
2065.080948997017
 30
0.0
 10
3714.110302831384
 20
2065.077988264231
 30
0.0
 10
3714.115820145865
 20
2065.075179794912
 30
0.0
 10
3714.121521252045
 20
2065.072526710884
 30
0.0
 10
3714.127395479701
 20
2065.070028697856
 30
0.0
 10
3714.133451400132
 20
2065.067681341764
 30
0.0
 10
3714.139670574804
 20
2065.065491427616
 30
0.0
 10
3714.146034098972
 20
2065.063465141902
 30
0.0
 10
3714.152523145582
 20
2065.061607797826
 30
0.0
 10
3714.159118894036
 20
2065.059924030764
 30
0.0
 10
3714.165803636799
 20
2065.058417289947
 30
0.0
 10
3714.172560069892
 20
2065.057091211434
 30
0.0
 10
3714.179393093313
 20
2065.055943948335
 30
0.0
 10
3714.186309966777
 20
2065.054970276999
 30
0.0
 10
3714.193318329268
 20
2065.054169215855
 30
0.0
 10
3714.200399452599
 20
2065.053543714722
 30
0.0
 10
3714.2075262809
 20
2065.053096944281
 30
0.0
 10
3714.21467121534
 20
2065.052830999738
 30
0.0
 10
3714.221806647587
 20
2065.052746945349
 30
0.0
 10
3714.228907189589
 20
2065.05284462927
 30
0.0
 10
3714.235958019275
 20
2065.053124155213
 30
0.0
 10
3714.242967884516
 20
2065.05358432223
 30
0.0
 10
3714.24995410248
 20
2065.054223209544
 30
0.0
 10
3714.256923879459
 20
2065.055042093684
 30
0.0
 10
3714.263861454228
 20
2065.056040586983
 30
0.0
 10
3714.27074318015
 20
2065.057216861646
 30
0.0
 10
3714.277545048489
 20
2065.058568185692
 30
0.0
 10
3714.284241902353
 20
2065.060090788547
 30
0.0
 10
3714.290809041351
 20
2065.061779700383
 30
0.0
 10
3714.297216198445
 20
2065.06362823049
 30
0.0
 10
3714.303480459951
 20
2065.065639188956
 30
0.0
 10
3714.309608093756
 20
2065.067811954602
 30
0.0
 10
3714.315608553645
 20
2065.070153306586
 30
0.0
 10
3714.32145305669
 20
2065.072654049995
 30
0.0
 10
3714.327128419018
 20
2065.075310383392
 30
0.0
 10
3714.332621416119
 20
2065.078117964599
 30
0.0
 10
3714.337918868077
 20
2065.081072036255
 30
0.0
 10
3714.343007724894
 20
2065.084167245248
 30
0.0
 10
3714.347871779541
 20
2065.087395946055
 30
0.0
 10
3714.352496914349
 20
2065.090748784041
 30
0.0
 10
3714.356882554878
 20
2065.094223621434
 30
0.0
 10
3714.361021565322
 20
2065.09781802383
 30
0.0
 10
3714.364907103548
 20
2065.101528911021
 30
0.0
 10
3714.368526291292
 20
2065.105346323985
 30
0.0
 10
3714.371871747374
 20
2065.109264365419
 30
0.0
 10
3714.374936240486
 20
2065.113276405724
 30
0.0
 10
3714.377712906844
 20
2065.11737546353
 30
0.0
 10
3714.380194497647
 20
2065.121551476756
 30
0.0
 10
3714.382371126385
 20
2065.125790015702
 30
0.0
 10
3714.384236780681
 20
2065.130078557742
 30
0.0
 10
3714.385788750929
 20
2065.134408356162
 30
0.0
 10
3714.387035461952
 20
2065.138777651241
 30
0.0
 10
3714.387943971277
 20
2065.143177321568
 30
0.0
 10
3714.388463847808
 20
2065.14654179058
 30
0.0
 10
3714.388577013298
 20
2065.148439614953
 30
0.0
 10
3714.388602071466
 20
2065.148859849072
 30
0.0
  0
SPLINE
  5
1185
330
1F
100
AcDbEntity
  8
SANINDUSA
100
AcDbSpline
210
0.0
220
0.0
230
1.0
 70
     8
 71
     3
 72
    36
 73
    32
 74
     0
 42
0.0000000001
 43
0.0000000001
 40
0.0
 40
0.0
 40
0.0
 40
0.0
 40
0.0264442458060345
 40
0.0613896927068593
 40
0.096321523264643
 40
0.1312055781407974
 40
0.166009265468969
 40
0.2007087972232093
 40
0.23535822519753
 40
0.2702165303799359
 40
0.3053543428698378
 40
0.3407263303659803
 40
0.3762797276575048
 40
0.4119553286200263
 40
0.4476893682794478
 40
0.4834029897471681
 40
0.5190209633634452
 40
0.5545016524624712
 40
0.5904478512180115
 40
0.6265689167975236
 40
0.6628779837758576
 40
0.6993699395405003
 40
0.736037745825962
 40
0.7728737184081337
 40
0.8098710152602034
 40
0.8470251748306822
 40
0.8843273035015045
 40
0.9217376030886509
 40
0.9594531782021629
 40
0.9974627781220847
 40
1.0
 40
1.0
 40
1.0
 40
1.0
 10
3714.221342854911
 20
2065.228570962473
 30
0.0
 10
3714.222911456662
 20
2065.228567630883
 30
0.0
 10
3714.226552928618
 20
2065.228559896675
 30
0.0
 10
3714.232256189475
 20
2065.228341513878
 30
0.0
 10
3714.238431290087
 20
2065.227950641456
 30
0.0
 10
3714.244553943254
 20
2065.227380581569
 30
0.0
 10
3714.250603081201
 20
2065.226640875073
 30
0.0
 10
3714.256562426621
 20
2065.225731314952
 30
0.0
 10
3714.262433238651
 20
2065.224653122856
 30
0.0
 10
3714.268223349914
 20
2065.223407428664
 30
0.0
 10
3714.273933475941
 20
2065.22199358538
 30
0.0
 10
3714.279546855769
 20
2065.220414478472
 30
0.0
 10
3714.28504009803
 20
2065.218675455586
 30
0.0
 10
3714.290389542153
 20
2065.21678312884
 30
0.0
 10
3714.295570938237
 20
2065.214745613722
 30
0.0
 10
3714.300560590289
 20
2065.212572407944
 30
0.0
 10
3714.305335875339
 20
2065.210273953066
 30
0.0
 10
3714.309908673467
 20
2065.207845428723
 30
0.0
 10
3714.314283022645
 20
2065.20528999128
 30
0.0
 10
3714.318457888822
 20
2065.202605269149
 30
0.0
 10
3714.32241098938
 20
2065.199805033558
 30
0.0
 10
3714.326131610079
 20
2065.19689652274
 30
0.0
 10
3714.329608999924
 20
2065.193887956537
 30
0.0
 10
3714.332833100502
 20
2065.19078799366
 30
0.0
 10
3714.335794393912
 20
2065.18760552562
 30
0.0
 10
3714.338485197003
 20
2065.18434989212
 30
0.0
 10
3714.340893924978
 20
2065.181030996633
 30
0.0
 10
3714.34303199959
 20
2065.177652485423
 30
0.0
 10
3714.344854825655
 20
2065.174216529769
 30
0.0
 10
3714.345995314943
 20
2065.171826195329
 30
0.0
 10
3714.346441449437
 20
2065.170578834644
 30
0.0
 10
3714.346469366353
 20
2065.170500780911
 30
0.0
  0
SPLINE
  5
1186
330
1F
100
AcDbEntity
  8
SANINDUSA
100
AcDbSpline
210
0.0
220
0.0
230
1.0
 70
     8
 71
     3
 72
    35
 73
    31
 74
     0
 42
0.0000000001
 43
0.0000000001
 40
0.0
 40
0.0
 40
0.0
 40
0.0
 40
0.0278879413725075
 40
0.0664918423493447
 40
0.10480923258932
 40
0.1428357268268967
 40
0.1804592380763735
 40
0.2177888151888869
 40
0.254975409800773
 40
0.2920191304854747
 40
0.3289168867662985
 40
0.3656638152102205
 40
0.4022547460804132
 40
0.4386856547206866
 40
0.474953879394601
 40
0.5111060300515757
 40
0.5466889854537241
 40
0.5824133803124488
 40
0.618214579845257
 40
0.6540208970817413
 40
0.6897514822572618
 40
0.7253444528920933
 40
0.7607434244676102
 40
0.7958994500060737
 40
0.8307779803879277
 40
0.8654710512095491
 40
0.9002758054428895
 40
0.9352053637494114
 40
0.9702280595432821
 40
1.0
 40
1.0
 40
1.0
 40
1.0
 10
3714.096304715486
 20
2065.170659528972
 30
0.0
 10
3714.096651223605
 20
2065.171513609768
 30
0.0
 10
3714.097477385813
 20
2065.173549952462
 30
0.0
 10
3714.099139638148
 20
2065.176731752271
 30
0.0
 10
3714.101228599776
 20
2065.180190804643
 30
0.0
 10
3714.103611517315
 20
2065.183577426994
 30
0.0
 10
3714.10626729206
 20
2065.186884325663
 30
0.0
 10
3714.109192514812
 20
2065.190108236071
 30
0.0
 10
3714.11238324747
 20
2065.193247912321
 30
0.0
 10
3714.115835387594
 20
2065.196298902635
 30
0.0
 10
3714.119539730122
 20
2065.199252473125
 30
0.0
 10
3714.123486347781
 20
2065.202100065191
 30
0.0
 10
3714.127664513892
 20
2065.204833525685
 30
0.0
 10
3714.132063132701
 20
2065.207444895804
 30
0.0
 10
3714.136671805956
 20
2065.209928777701
 30
0.0
 10
3714.141462630956
 20
2065.21226646665
 30
0.0
 10
3714.146435877292
 20
2065.214461566485
 30
0.0
 10
3714.15158254535
 20
2065.216514189628
 30
0.0
 10
3714.156917847566
 20
2065.218429491121
 30
0.0
 10
3714.162418514681
 20
2065.220197492066
 30
0.0
 10
3714.168060289295
 20
2065.221809372278
 30
0.0
 10
3714.173818531517
 20
2065.223257678072
 30
0.0
 10
3714.179669392687
 20
2065.22453640442
 30
0.0
 10
3714.185589627778
 20
2065.225641024138
 30
0.0
 10
3714.191564114892
 20
2065.226568693101
 30
0.0
 10
3714.197596145218
 20
2065.22732186545
 30
0.0
 10
3714.203692121424
 20
2065.227905330088
 30
0.0
 10
3714.209852766195
 20
2065.228312524817
 30
0.0
 10
3714.215745383204
 20
2065.228551151303
 30
0.0
 10
3714.219582097775
 20
2065.228567998282
 30
0.0
 10
3714.221344997366
 20
2065.228575739159
 30
0.0
  0
SPLINE
  5
1187
330
1F
100
AcDbEntity
  8
SANINDUSA
100
AcDbSpline
210
0.0
220
0.0
230
1.0
 70
     8
 71
     3
 72
    36
 73
    32
 74
     0
 42
0.0000000001
 43
0.0000000001
 40
0.0
 40
0.0
 40
0.0
 40
0.0
 40
0.0353624551367786
 40
0.0728695491163474
 40
0.1103976071654042
 40
0.1478785999537403
 40
0.1852628894095562
 40
0.2225054991084543
 40
0.2595665110995058
 40
0.29641149506905
 40
0.3330120275899985
 40
0.3693462823209253
 40
0.4053996301481115
 40
0.4411651778196114
 40
0.4766441838754147
 40
0.5118463112286241
 40
0.5467896987352042
 40
0.581465401292398
 40
0.6158291490098942
 40
0.6501932073298314
 40
0.6845569044790059
 40
0.7188637143149615
 40
0.7530664950803972
 40
0.787121099248548
 40
0.8209884057536328
 40
0.8546361070716594
 40
0.8880454195924286
 40
0.921329545455339
 40
0.9547002690208078
 40
0.9881836563770869
 40
1.0
 40
1.0
 40
1.0
 40
1.0
 10
3714.335107888667
 20
2065.188282834148
 30
0.0
 10
3714.334872945857
 20
2065.186980294926
 30
0.0
 10
3714.33438881158
 20
2065.184296220942
 30
0.0
 10
3714.333266566963
 20
2065.18025806914
 30
0.0
 10
3714.331839202857
 20
2065.176174721284
 30
0.0
 10
3714.330099927639
 20
2065.172139286527
 30
0.0
 10
3714.328064009549
 20
2065.168166731092
 30
0.0
 10
3714.325736767163
 20
2065.164271600631
 30
0.0
 10
3714.323127653653
 20
2065.160467662328
 30
0.0
 10
3714.320246336854
 20
2065.156767983092
 30
0.0
 10
3714.317103518332
 20
2065.153184765465
 30
0.0
 10
3714.313710467241
 20
2065.149729264478
 30
0.0
 10
3714.31007887684
 20
2065.146411706703
 30
0.0
 10
3714.306220619316
 20
2065.143241245571
 30
0.0
 10
3714.302147536551
 20
2065.140225935887
 30
0.0
 10
3714.297871189791
 20
2065.137372790062
 30
0.0
 10
3714.293404305187
 20
2065.134688604256
 30
0.0
 10
3714.288762460045
 20
2065.132181295425
 30
0.0
 10
3714.283950123809
 20
2065.129849271743
 30
0.0
 10
3714.27897153805
 20
2065.12769110427
 30
0.0
 10
3714.273828551664
 20
2065.125707735926
 30
0.0
 10
3714.268540615883
 20
2065.123907415761
 30
0.0
 10
3714.263130230421
 20
2065.122298237655
 30
0.0
 10
3714.257619881406
 20
2065.120886869308
 30
0.0
 10
3714.252032010032
 20
2065.119678863404
 30
0.0
 10
3714.246388376979
 20
2065.118677792116
 30
0.0
 10
3714.240702471411
 20
2065.117887310211
 30
0.0
 10
3714.234974977597
 20
2065.117299949598
 30
0.0
 10
3714.229203505508
 20
2065.11693089196
 30
0.0
 10
3714.224651064498
 20
2065.116761663281
 30
0.0
 10
3714.222028338574
 20
2065.116786681764
 30
0.0
 10
3714.221344205797
 20
2065.116793207784
 30
0.0
  0
SPLINE
  5
1188
330
1F
100
AcDbEntity
  8
SANINDUSA
100
AcDbSpline
210
0.0
220
0.0
230
1.0
 70
     8
 71
     3
 72
    37
 73
    33
 74
     0
 42
0.0000000001
 43
0.0000000001
 40
0.0
 40
0.0
 40
0.0
 40
0.0
 40
0.0087529958529483
 40
0.0422810887056378
 40
0.0757742912787527
 40
0.1092021915096665
 40
0.1425375662735151
 40
0.1758105426628187
 40
0.2092378739335978
 40
0.2429247558238384
 40
0.2768414123490078
 40
0.3109514511249719
 40
0.3452127150047513
 40
0.3795790373227504
 40
0.4140022458909847
 40
0.4484251094535023
 40
0.4827401728857323
 40
0.517220219410965
 40
0.5519791660640751
 40
0.5870353955143197
 40
0.6224000407965257
 40
0.6580764725025939
 40
0.6940604663218126
 40
0.7303405343104053
 40
0.7668984104305223
 40
0.8037096567726727
 40
0.8407443354981285
 40
0.8779676758655146
 40
0.9153406648667971
 40
0.9528205151804744
 40
0.9903610251709235
 40
0.9999999999999998
 40
0.9999999999999998
 40
0.9999999999999998
 40
0.9999999999999998
 10
3714.221343155486
 20
2065.116789513092
 30
0.0
 10
3714.220836392703
 20
2065.11678345572
 30
0.0
 10
3714.21838849
 20
2065.116754195763
 30
0.0
 10
3714.214002204312
 20
2065.116908200051
 30
0.0
 10
3714.208209773234
 20
2065.117258358418
 30
0.0
 10
3714.202466816801
 20
2065.117830070274
 30
0.0
 10
3714.196792378018
 20
2065.118601006782
 30
0.0
 10
3714.191190814573
 20
2065.119575427516
 30
0.0
 10
3714.185657850844
 20
2065.120749659114
 30
0.0
 10
3714.180193500825
 20
2065.122124485361
 30
0.0
 10
3714.174812061305
 20
2065.123697720686
 30
0.0
 10
3714.169535504589
 20
2065.125464625767
 30
0.0
 10
3714.164386112057
 20
2065.127419123158
 30
0.0
 10
3714.159386152556
 20
2065.129553880808
 30
0.0
 10
3714.15455771329
 20
2065.13186010803
 30
0.0
 10
3714.149925205125
 20
2065.134326542017
 30
0.0
 10
3714.14549540738
 20
2065.136947974861
 30
0.0
 10
3714.141266001615
 20
2065.139722192746
 30
0.0
 10
3714.137232119415
 20
2065.142652419524
 30
0.0
 10
3714.133400479874
 20
2065.145735445492
 30
0.0
 10
3714.129781921455
 20
2065.148964845428
 30
0.0
 10
3714.126387612854
 20
2065.1523332386
 30
0.0
 10
3714.123228896166
 20
2065.155832248636
 30
0.0
 10
3714.120317100964
 20
2065.15945250083
 30
0.0
 10
3714.117663269961
 20
2065.163183654037
 30
0.0
 10
3714.115278206533
 20
2065.167014480934
 30
0.0
 10
3714.113171324511
 20
2065.170932919698
 30
0.0
 10
3714.111354073422
 20
2065.174926361936
 30
0.0
 10
3714.109826257975
 20
2065.178981134174
 30
0.0
 10
3714.10862668519
 20
2065.183085033911
 30
0.0
 10
3714.107886793269
 20
2065.18619350444
 30
0.0
 10
3714.107649065577
 20
2065.187935048785
 30
0.0
 10
3714.10760049677
 20
2065.188290853902
 30
0.0
  0
SPLINE
  5
1189
330
1F
100
AcDbEntity
  8
SANINDUSA
100
AcDbSpline
210
0.0
220
0.0
230
1.0
 70
    24
 71
     3
 72
    63
 73
    59
 74
     0
 42
0.0000000001
 43
0.0000000001
 40
0.0
 40
0.0
 40
0.0
 40
0.0
 40
0.0162604078684513
 40
0.0467757097928938
 40
0.0771510996859988
 40
0.107673540288173
 40
0.1380507245352263
 40
0.1533135435190667
 40
0.1685980201062218
 40
0.1837796084954026
 40
0.1989845072431448
 40
0.2142633365195535
 40
0.2295685467414482
 40
0.2503245166283808
 40
0.2676882102904222
 40
0.2850998999686962
 40
0.3096918655854783
 40
0.3344487847965492
 40
0.3491957952445905
 40
0.3640077443135056
 40
0.3788659547725357
 40
0.393529680539182
 40
0.4090627191243858
 40
0.4246599595200065
 40
0.4458826322566338
 40
0.4672895244387643
 40
0.479533075739021
 40
0.4918139536146185
 40
0.5042034211081317
 40
0.5166320203374229
 40
0.5293278486539666
 40
0.5420650848956575
 40
0.5543359225357177
 40
0.5666425029819632
 40
0.5790460910577082
 40
0.5914841792549919
 40
0.6041611795998678
 40
0.6168719047203851
 40
0.6365317432672688
 40
0.6563027225787343
 40
0.6763624592846407
 40
0.6965206576495988
 40
0.7117846924465559
 40
0.727085279888698
 40
0.7424562558743697
 40
0.757644059634873
 40
0.7734588194716277
 40
0.7893048426186286
 40
0.8170695579720385
 40
0.8449809100423896
 40
0.8727426451997047
 40
0.9006294713306843
 40
0.9189742445149002
 40
0.9373517412890521
 40
0.9558266780475957
 40
0.9743336164057298
 40
0.9926780918572355
 40
1.0
 40
1.0
 40
1.0
 40
1.0
 10
3714.053996715782
 20
2065.370711997285
 30
0.0
 10
3714.053971443521
 20
2065.370711997285
 30
0.0
 10
3714.053898743749
 20
2065.370711997285
 30
0.0
 10
3714.055130891342
 20
2065.370711997285
 30
0.0
 10
3714.057604219775
 20
2065.370711997285
 30
0.0
 10
3714.061383331494
 20
2065.370711997285
 30
0.0
 10
3714.065576185609
 20
2065.370711997285
 30
0.0
 10
3714.06957112938
 20
2065.370711997285
 30
0.0
 10
3714.072892617561
 20
2065.370711997285
 30
0.0
 10
3714.076534120152
 20
2065.370711997285
 30
0.0
 10
3714.080500560377
 20
2065.370711997285
 30
0.0
 10
3714.084807162866
 20
2065.370711997285
 30
0.0
 10
3714.090008196544
 20
2065.370711997285
 30
0.0
 10
3714.09588026698
 20
2065.370711997285
 30
0.0
 10
3714.10248905808
 20
2065.370711997285
 30
0.0
 10
3714.110046723571
 20
2065.370711997285
 30
0.0
 10
3714.119212415456
 20
2065.370711997285
 30
0.0
 10
3714.128749765823
 20
2065.370711997285
 30
0.0
 10
3714.137309910733
 20
2065.370711997285
 30
0.0
 10
3714.144594390624
 20
2065.370711997285
 30
0.0
 10
3714.152136825667
 20
2065.370711997285
 30
0.0
 10
3714.160060230213
 20
2065.370711997285
 30
0.0
 10
3714.168362368373
 20
2065.370711997285
 30
0.0
 10
3714.178115553099
 20
2065.370711997285
 30
0.0
 10
3714.189264721273
 20
2065.370711997285
 30
0.0
 10
3714.200019133914
 20
2065.370711997285
 30
0.0
 10
3714.20911887166
 20
2065.370711997285
 30
0.0
 10
3714.216470290779
 20
2065.370711997285
 30
0.0
 10
3714.223873738346
 20
2065.370711997285
 30
0.0
 10
3714.23135199668
 20
2065.370711997285
 30
0.0
 10
3714.23886739468
 20
2065.370711997285
 30
0.0
 10
3714.246294834127
 20
2065.370711997285
 30
0.0
 10
3714.253567706688
 20
2065.370711997285
 30
0.0
 10
3714.260679827936
 20
2065.370711997285
 30
0.0
 10
3714.267708605555
 20
2065.370711997285
 30
0.0
 10
3714.274672560473
 20
2065.370711997285
 30
0.0
 10
3714.281540037774
 20
2065.370711997285
 30
0.0
 10
3714.289515912906
 20
2065.370711997285
 30
0.0
 10
3714.298428710252
 20
2065.370711997285
 30
0.0
 10
3714.308110855534
 20
2065.370711997285
 30
0.0
 10
3714.317349687692
 20
2065.370711997285
 30
0.0
 10
3714.325384946665
 20
2065.370711997285
 30
0.0
 10
3714.332309394634
 20
2065.370711997285
 30
0.0
 10
3714.338248218644
 20
2065.370711997285
 30
0.0
 10
3714.343842044325
 20
2065.370711997285
 30
0.0
 10
3714.349160074704
 20
2065.370711997285
 30
0.0
 10
3714.354185935575
 20
2065.370711997285
 30
0.0
 10
3714.360112826213
 20
2065.370711997285
 30
0.0
 10
3714.366508644979
 20
2065.370711997285
 30
0.0
 10
3714.372879663514
 20
2065.370711997285
 30
0.0
 10
3714.3781826801
 20
2065.370711997285
 30
0.0
 10
3714.381936357282
 20
2065.370711997285
 30
0.0
 10
3714.384538214184
 20
2065.370711997285
 30
0.0
 10
3714.386303311675
 20
2065.370711997285
 30
0.0
 10
3714.387624668119
 20
2065.370711997285
 30
0.0
 10
3714.388460847844
 20
2065.370711997285
 30
0.0
 10
3714.388850663529
 20
2065.370711997285
 30
0.0
 10
3714.388803364663
 20
2065.370711997285
 30
0.0
 10
3714.388789871607
 20
2065.370711997285
 30
0.0
  0
SPLINE
  5
118A
330
1F
100
AcDbEntity
  8
SANINDUSA
100
AcDbSpline
210
0.0
220
0.0
230
1.0
 70
     8
 71
     3
 72
     9
 73
     5
 74
     0
 42
0.0000000001
 43
0.0000000001
 40
0.0
 40
0.0
 40
0.0
 40
0.0
 40
0.5471229349006835
 40
1.0
 40
1.0
 40
1.0
 40
1.0
 10
3714.054188075638
 20
2065.148979672472
 30
0.0
 10
3714.054002821485
 20
2065.150792784629
 30
0.0
 10
3714.053664224543
 20
2065.154106687304
 30
0.0
 10
3714.05403941535
 20
2065.157418556555
 30
0.0
 10
3714.054209330661
 20
2065.158918426181
 30
0.0
  0
SPLINE
  5
118B
330
1F
100
AcDbEntity
  8
SANINDUSA
100
AcDbSpline
210
0.0
220
0.0
230
1.0
 70
     8
 71
     3
 72
     9
 73
     5
 74
     0
 42
0.0000000001
 43
0.0000000001
 40
0.0
 40
0.0
 40
0.0
 40
0.0
 40
0.6464609353019466
 40
1.0
 40
1.0
 40
1.0
 40
1.0
 10
3714.388505517928
 20
2065.15873516469
 30
0.0
 10
3714.388710705898
 20
2065.156666233115
 30
0.0
 10
3714.389028107859
 20
2065.153465836212
 30
0.0
 10
3714.388642944555
 20
2065.15027023009
 30
0.0
 10
3714.388506774282
 20
2065.14914045849
 30
0.0
  0
SPLINE
  5
1190
330
1F
100
AcDbEntity
  8
SANINDUSA
100
AcDbSpline
210
0.0
220
0.0
230
1.0
 70
     8
 71
     3
 72
     9
 73
     5
 74
     0
 42
0.0000000001
 43
0.0000000001
 40
0.0
 40
0.0
 40
0.0
 40
0.0
 40
0.6976455498600192
 40
1.0
 40
1.0
 40
1.0
 40
1.0
 10
3714.346320840524
 20
2065.170744600568
 30
0.0
 10
3714.347070690279
 20
2065.168877285957
 30
0.0
 10
3714.348145519403
 20
2065.16620069093
 30
0.0
 10
3714.348605055791
 20
2065.163471262428
 30
0.0
 10
3714.348743998664
 20
2065.162646007575
 30
0.0
  0
SPLINE
  5
1191
330
1F
100
AcDbEntity
  8
SANINDUSA
100
AcDbSpline
210
0.0
220
0.0
230
1.0
 70
     8
 71
     3
 72
     9
 73
     5
 74
     0
 42
0.0000000001
 43
0.0000000001
 40
0.0
 40
0.0
 40
0.0
 40
0.0
 40
0.7041152908954472
 40
0.9999999999999998
 40
0.9999999999999998
 40
0.9999999999999998
 40
0.9999999999999998
 10
3714.096426152505
 20
2065.17091609075
 30
0.0
 10
3714.095652498837
 20
2065.168991955856
 30
0.0
 10
3714.094553738906
 20
2065.16625925722
 30
0.0
 10
3714.094083195489
 20
2065.163472615381
 30
0.0
 10
3714.093943968887
 20
2065.162648090671
 30
0.0
  0
SPLINE
  5
1193
330
1F
100
AcDbEntity
  8
SANINDUSA
100
AcDbSpline
210
0.0
220
0.0
230
1.0
 70
    11
 71
     3
 72
    90
 73
    86
 74
     0
 42
0.0000000001
 43
0.0000000001
 40
0.0
 40
0.0
 40
0.0
 40
0.0
 40
0.0312499999999997
 40
0.0312499999999997
 40
0.0468749999999995
 40
0.0468749999999995
 40
0.0624999999999994
 40
0.0624999999999994
 40
0.0937499999999986
 40
0.0937499999999986
 40
0.1249999999999977
 40
0.1249999999999977
 40
0.1562499999999968
 40
0.1562499999999968
 40
0.1718749999999969
 40
0.1718749999999969
 40
0.1874999999999971
 40
0.2031249999999972
 40
0.2031249999999972
 40
0.2187499999999974
 40
0.2187499999999974
 40
0.2499999999999989
 40
0.2499999999999989
 40
0.2812500000000004
 40
0.2812500000000004
 40
0.3125000000000019
 40
0.3125000000000019
 40
0.3281250000000024
 40
0.3281250000000024
 40
0.3437500000000029
 40
0.3437500000000029
 40
0.375000000000004
 40
0.375000000000004
 40
0.4062500000000051
 40
0.4062500000000051
 40
0.421875000000005
 40
0.421875000000005
 40
0.4375000000000048
 40
0.4375000000000048
 40
0.4687500000000043
 40
0.4687500000000043
 40
0.5000000000000038
 40
0.5000000000000038
 40
0.5312500000000032
 40
0.5312500000000032
 40
0.5625000000000027
 40
0.5625000000000027
 40
0.5781250000000023
 40
0.5781250000000023
 40
0.5937500000000022
 40
0.5937500000000022
 40
0.6250000000000022
 40
0.6250000000000022
 40
0.6562500000000023
 40
0.6562500000000023
 40
0.6718750000000023
 40
0.6718750000000023
 40
0.6875000000000023
 40
0.6875000000000023
 40
0.7187500000000031
 40
0.7187500000000031
 40
0.7500000000000037
 40
0.7500000000000037
 40
0.7812500000000044
 40
0.7812500000000044
 40
0.7968750000000044
 40
0.7968750000000044
 40
0.8125000000000044
 40
0.8281250000000044
 40
0.8281250000000044
 40
0.8437500000000046
 40
0.8437500000000046
 40
0.8750000000000046
 40
0.8750000000000046
 40
0.8906250000000042
 40
0.8906250000000042
 40
0.9062500000000037
 40
0.9062500000000037
 40
0.9375000000000024
 40
0.9375000000000024
 40
0.9531250000000019
 40
0.9531250000000019
 40
0.9687500000000014
 40
0.9687500000000014
 40
1.0
 40
1.0
 40
1.0
 40
1.0
 10
3714.221771580297
 20
2065.209951262336
 30
0.0
 10
3714.221276556517
 20
2065.209923062569
 30
0.0
 10
3714.220787039214
 20
2065.209943799966
 30
0.0
 10
3714.220060684735
 20
2065.210045305761
 30
0.0
 10
3714.219819896652
 20
2065.210090961677
 30
0.0
 10
3714.219341041419
 20
2065.210206454958
 30
0.0
 10
3714.219102347576
 20
2065.21027664881
 30
0.0
 10
3714.218405888381
 20
2065.210519256531
 30
0.0
 10
3714.217962534327
 20
2065.210724304487
 30
0.0
 10
3714.217117350816
 20
2065.211220234496
 30
0.0
 10
3714.216713971333
 20
2065.211513834944
 30
0.0
 10
3714.215983992591
 20
2065.212163630974
 30
0.0
 10
3714.21565263032
 20
2065.212521974239
 30
0.0
 10
3714.215207234054
 20
2065.213110856703
 30
0.0
 10
3714.215067782471
 20
2065.213315598447
 30
0.0
 10
3714.214812348965
 20
2065.213733348008
 30
0.0
 10
3714.21457867999
 20
2065.214161510583
 30
0.0
 10
3714.214387890686
 20
2065.214610188414
 30
0.0
 10
3714.214218836894
 20
2065.215069265306
 30
0.0
 10
3714.214144868155
 20
2065.215305301957
 30
0.0
 10
3714.213959516928
 20
2065.216019270286
 30
0.0
 10
3714.213884305916
 20
2065.216500612741
 30
0.0
 10
3714.213828086499
 20
2065.217473746241
 30
0.0
 10
3714.213848324899
 20
2065.217970718084
 30
0.0
 10
3714.213984255885
 20
2065.218938342275
 30
0.0
 10
3714.214098743628
 20
2065.219411489095
 30
0.0
 10
3714.214340710717
 20
2065.22010510789
 30
0.0
 10
3714.214433781336
 20
2065.22033482224
 30
0.0
 10
3714.214640573574
 20
2065.220780407504
 30
0.0
 10
3714.21475428248
 20
2065.220996707342
 30
0.0
 10
3714.215125618917
 20
2065.221626587271
 30
0.0
 10
3714.215413160898
 20
2065.222021333672
 30
0.0
 10
3714.216071405497
 20
2065.222758470135
 30
0.0
 10
3714.216432537024
 20
2065.223089860252
 30
0.0
 10
3714.217017321601
 20
2065.223530419738
 30
0.0
 10
3714.217219645553
 20
2065.223667962561
 30
0.0
 10
3714.217639401258
 20
2065.223924029414
 30
0.0
 10
3714.217857831478
 20
2065.224042924144
 30
0.0
 10
3714.218522471106
 20
2065.224363298736
 30
0.0
 10
3714.218981303296
 20
2065.224531332475
 30
0.0
 10
3714.219930065638
 20
2065.224777401988
 30
0.0
 10
3714.220423205452
 20
2065.224854912921
 30
0.0
 10
3714.221407295315
 20
2065.224911067839
 30
0.0
 10
3714.221906080694
 20
2065.22489018561
 30
0.0
 10
3714.222877592506
 20
2065.224753484817
 30
0.0
 10
3714.223352617354
 20
2065.224638642447
 30
0.0
 10
3714.224048944568
 20
2065.224396149209
 30
0.0
 10
3714.224279505373
 20
2065.224302912483
 30
0.0
 10
3714.224726365001
 20
2065.224095987668
 30
0.0
 10
3714.22494326999
 20
2065.223982236214
 30
0.0
 10
3714.225574867153
 20
2065.223610834781
 30
0.0
 10
3714.225970628865
 20
2065.22332333316
 30
0.0
 10
3714.226709496096
 20
2065.222665295455
 30
0.0
 10
3714.227040708073
 20
2065.222305269034
 30
0.0
 10
3714.227481575081
 20
2065.221721649797
 30
0.0
 10
3714.227619197029
 20
2065.221519738258
 30
0.0
 10
3714.22787536544
 20
2065.221100849282
 30
0.0
 10
3714.22799416555
 20
2065.220883072091
 30
0.0
 10
3714.228314074844
 20
2065.220220852266
 30
0.0
 10
3714.228481829614
 20
2065.219763661599
 30
0.0
 10
3714.228727253343
 20
2065.218818186491
 30
0.0
 10
3714.228804168858
 20
2065.218326562219
 30
0.0
 10
3714.228859431483
 20
2065.217353033071
 30
0.0
 10
3714.22883961834
 20
2065.216866427535
 30
0.0
 10
3714.228737123632
 20
2065.2161367632
 30
0.0
 10
3714.228690561419
 20
2065.215893595278
 30
0.0
 10
3714.228574972326
 20
2065.215418057973
 30
0.0
 10
3714.228436617777
 20
2065.214950557014
 30
0.0
 10
3714.228253442672
 20
2065.214498878034
 30
0.0
 10
3714.228047564546
 20
2065.214055213416
 30
0.0
 10
3714.227932633172
 20
2065.213836336051
 30
0.0
 10
3714.227557109993
 20
2065.213200126229
 30
0.0
 10
3714.227268767621
 20
2065.212806474825
 30
0.0
 10
3714.226780848316
 20
2065.212260459085
 30
0.0
 10
3714.226608907654
 20
2065.212085917511
 30
0.0
 10
3714.226245870373
 20
2065.21175220646
 30
0.0
 10
3714.226055472638
 20
2065.211593871121
 30
0.0
 10
3714.225467916692
 20
2065.211152062922
 30
0.0
 10
3714.225050974552
 20
2065.210898089223
 30
0.0
 10
3714.224387548023
 20
2065.210578227392
 30
0.0
 10
3714.224158712222
 20
2065.210481429238
 30
0.0
 10
3714.223695616197
 20
2065.210312011513
 30
0.0
 10
3714.223461376628
 20
2065.210239207607
 30
0.0
 10
3714.222750773819
 20
2065.21005566793
 30
0.0
 10
3714.222266604077
 20
2065.209979462105
 30
0.0
 10
3714.221771580297
 20
2065.209951262336
 30
0.0
  0
SPLINE
  5
1195
330
1F
100
AcDbEntity
  8
SANINDUSA
100
AcDbSpline
210
0.0
220
0.0
230
1.0
 70
     8
 71
     3
 72
    12
 73
     8
 74
     0
 42
0.0000000001
 43
0.0000000001
 40
0.0
 40
0.0
 40
0.0
 40
0.0
 40
0.2169498972278671
 40
0.4338963692169063
 40
0.6509468978972998
 40
0.8682447355082082
 40
0.9999999999999998
 40
0.9999999999999998
 40
0.9999999999999998
 40
0.9999999999999998
 10
3714.221771017816
 20
2065.211413308631
 30
0.0
 10
3714.220925664613
 20
2065.211447870674
 30
0.0
 10
3714.219234971555
 20
2065.211516994214
 30
0.0
 10
3714.216914514797
 20
2065.212672765246
 30
0.0
 10
3714.215131518584
 20
2065.214469416487
 30
0.0
 10
3714.214071650139
 20
2065.216464925455
 30
0.0
 10
3714.213995160785
 20
2065.217814663025
 30
0.0
 10
3714.213966288745
 20
2065.218324141466
 30
0.0
  0
SPLINE
  5
1196
330
1F
100
AcDbEntity
  8
SANINDUSA
100
AcDbSpline
210
0.0
220
0.0
230
1.0
 70
     8
 71
     3
 72
    12
 73
     8
 74
     0
 42
0.0000000001
 43
0.0000000001
 40
0.0
 40
0.0
 40
0.0
 40
0.0
 40
0.1138595492089661
 40
0.3371110820483268
 40
0.560277328549371
 40
0.7832162061854299
 40
1.0
 40
1.0
 40
1.0
 40
1.0
 10
3714.228737208062
 20
2065.218876089601
 30
0.0
 10
3714.228756879174
 20
2065.218446857143
 30
0.0
 10
3714.228815120665
 20
2065.217176001783
 30
0.0
 10
3714.227987800897
 20
2065.215153934275
 30
0.0
 10
3714.2264082483
 20
2065.213173915763
 30
0.0
 10
3714.224237001512
 20
2065.211791308762
 30
0.0
 10
3714.222585305762
 20
2065.21153812736
 30
0.0
 10
3714.221771017816
 20
2065.211413308631
 30
0.0
  0
SPLINE
  5
1197
330
1F
100
AcDbEntity
  8
SANINDUSA
100
AcDbSpline
210
0.0
220
0.0
230
1.0
 70
     8
 71
     3
 72
    47
 73
    43
 74
     0
 42
0.0000000001
 43
0.0000000001
 40
0.0
 40
0.0
 40
0.0
 40
0.0
 40
0.0132966347521549
 40
0.0424895062513823
 40
0.0718879523003139
 40
0.0992256320563969
 40
0.1267353675248952
 40
0.1547925067199913
 40
0.1830417148941803
 40
0.2093095359580478
 40
0.2359158101737076
 40
0.2626958143777434
 40
0.2898352093695907
 40
0.3156014103210938
 40
0.3417149962632541
 40
0.368006902282104
 40
0.3946672817491132
 40
0.4103514467007541
 40
0.4261165338338391
 40
0.4419224861340377
 40
0.457811127164049
 40
0.4787060270828696
 40
0.499697693735712
 40
0.5254783143748803
 40
0.551633331878659
 40
0.5779781498335987
 40
0.6047114524161739
 40
0.623819319359101
 40
0.6468443556472012
 40
0.6699928823468211
 40
0.6982128511969123
 40
0.7266531043916573
 40
0.7557785154278048
 40
0.7851354703372078
 40
0.8141124750136643
 40
0.8433072634753246
 40
0.8731793726386115
 40
0.9032809123000774
 40
0.932210126280777
 40
0.9613415185760054
 40
0.9911059693818565
 40
1.0
 40
1.0
 40
1.0
 40
1.0
 10
3714.054209330661
 20
2065.158918426181
 30
0.0
 10
3714.054288874682
 20
2065.16022277675
 30
0.0
 10
3714.054543058259
 20
2065.164390839773
 30
0.0
 10
3714.05630476748
 20
2065.171390621358
 30
0.0
 10
3714.059387052599
 20
2065.179645268351
 30
0.0
 10
3714.063629550702
 20
2065.187566639562
 30
0.0
 10
3714.06886562338
 20
2065.195151960065
 30
0.0
 10
3714.075242249138
 20
2065.202553926531
 30
0.0
 10
3714.082566789544
 20
2065.209528454105
 30
0.0
 10
3714.09071624145
 20
2065.216028412507
 30
0.0
 10
3714.099585987267
 20
2065.222033257878
 30
0.0
 10
3714.109389849767
 20
2065.227675036358
 30
0.0
 10
3714.11987234504
 20
2065.232787498279
 30
0.0
 10
3714.130963370369
 20
2065.237359495251
 30
0.0
 10
3714.142547396163
 20
2065.241365941
 30
0.0
 10
3714.154815015542
 20
2065.24485784941
 30
0.0
 10
3714.165879335367
 20
2065.247372475928
 30
0.0
 10
3714.17547128986
 20
2065.249135979398
 30
0.0
 10
3714.183390245721
 20
2065.250345528705
 30
0.0
 10
3714.191442427065
 20
2065.251329872086
 30
0.0
 10
3714.200451807441
 20
2065.252160772236
 30
0.0
 10
3714.210432044511
 20
2065.252738849255
 30
0.0
 10
3714.222174540001
 20
2065.252965318731
 30
0.0
 10
3714.234832056115
 20
2065.252665480911
 30
0.0
 10
3714.248322390777
 20
2065.251697949745
 30
0.0
 10
3714.261780657533
 20
2065.250066959789
 30
0.0
 10
3714.273773978595
 20
2065.247993842755
 30
0.0
 10
3714.284920094633
 20
2065.245548710699
 30
0.0
 10
3714.295191395442
 20
2065.242834357966
 30
0.0
 10
3714.306465021865
 20
2065.239266759872
 30
0.0
 10
3714.317980886506
 20
2065.234899078921
 30
0.0
 10
3714.329581036669
 20
2065.229607715348
 30
0.0
 10
3714.340452824216
 20
2065.223680106552
 30
0.0
 10
3714.350413707636
 20
2065.217191107837
 30
0.0
 10
3714.359340304421
 20
2065.210229597315
 30
0.0
 10
3714.367218099364
 20
2065.202815484473
 30
0.0
 10
3714.374018288783
 20
2065.194943737253
 30
0.0
 10
3714.379555870271
 20
2065.186791000027
 30
0.0
 10
3714.383835704526
 20
2065.17847257348
 30
0.0
 10
3714.386769924618
 20
2065.170012932532
 30
0.0
 10
3714.388334574844
 20
2065.163401310016
 30
0.0
 10
3714.388473545422
 20
2065.159607901747
 30
0.0
 10
3714.388505517928
 20
2065.15873516469
 30
0.0
  0
SPLINE
  5
1198
330
1F
100
AcDbEntity
  8
SANINDUSA
100
AcDbSpline
210
0.0
220
0.0
230
1.0
 70
     8
 71
     3
 72
    29
 73
    25
 74
     0
 42
0.0000000001
 43
0.0000000001
 40
0.0
 40
0.0
 40
0.0
 40
0.0
 40
0.0352076323079473
 40
0.0866437993852623
 40
0.1384161486448867
 40
0.1912503947781369
 40
0.2444528474122996
 40
0.2934275064626655
 40
0.3427038277997956
 40
0.3929407753152889
 40
0.4435167098870471
 40
0.4900922233174124
 40
0.5369528542899071
 40
0.5847239389464037
 40
0.6328179563505404
 40
0.6779594195894271
 40
0.7233884358235131
 40
0.7697389270670266
 40
0.8164144894806806
 40
0.8521909707688271
 40
0.8881225750231253
 40
0.9245362476707274
 40
0.961116082387878
 40
0.9999999999999998
 40
0.9999999999999998
 40
0.9999999999999998
 40
0.9999999999999998
 10
3714.348743998664
 20
2065.162646007575
 30
0.0
 10
3714.34906686707
 20
2065.161162763864
 30
0.0
 10
3714.349861426194
 20
2065.157512593088
 30
0.0
 10
3714.350011989463
 20
2065.151628872016
 30
0.0
 10
3714.349387510105
 20
2065.145013722621
 30
0.0
 10
3714.347747229353
 20
2065.138374098134
 30
0.0
 10
3714.345195263469
 20
2065.131950232024
 30
0.0
 10
3714.341806697294
 20
2065.125810162894
 30
0.0
 10
3714.337663169386
 20
2065.119955422805
 30
0.0
 10
3714.332652135882
 20
2065.114245194787
 30
0.0
 10
3714.326933444242
 20
2065.108884859469
 30
0.0
 10
3714.320625697024
 20
2065.103916998284
 30
0.0
 10
3714.313784040227
 20
2065.099334950442
 30
0.0
 10
3714.30623803173
 20
2065.095029613593
 30
0.0
 10
3714.298189343432
 20
2065.091136780841
 30
0.0
 10
3714.289753086429
 20
2065.087684348654
 30
0.0
 10
3714.280968058118
 20
2065.084661797271
 30
0.0
 10
3714.27167223171
 20
2065.082026099368
 30
0.0
 10
3714.262691570458
 20
2065.079990710795
 30
0.0
 10
3714.254216290856
 20
2065.078478535342
 30
0.0
 10
3714.246331460991
 20
2065.077386519317
 30
0.0
 10
3714.238276519285
 20
2065.07659283296
 30
0.0
 10
3714.229924117984
 20
2065.076071782968
 30
0.0
 10
3714.224261526245
 20
2065.07600529174
 30
0.0
 10
3714.221343784364
 20
2065.07597103106
 30
0.0
  0
SPLINE
  5
119A
330
1F
100
AcDbEntity
  8
SANINDUSA
100
AcDbSpline
210
0.0
220
0.0
230
1.0
 70
     8
 71
     3
 72
    29
 73
    25
 74
     0
 42
0.0000000001
 43
0.0000000001
 40
0.0
 40
0.0
 40
0.0
 40
0.0
 40
0.0352235294563803
 40
0.0866588716502885
 40
0.1384303906351421
 40
0.1912637894639484
 40
0.2444653888887281
 40
0.2934392625309679
 40
0.3427147936222043
 40
0.3929509354862122
 40
0.4435260589701391
 40
0.490100825467551
 40
0.5372649676184476
 40
0.5847310356041831
 40
0.632824281723071
 40
0.6782631804770049
 40
0.7237006833662692
 40
0.7697428630566288
 40
0.8164176769328408
 40
0.8523516368135751
 40
0.8882856635629037
 40
0.9247012629328676
 40
0.9611167059704708
 40
1.0
 40
1.0
 40
1.0
 40
1.0
 10
3714.093943968887
 20
2065.162648090671
 30
0.0
 10
3714.093620939445
 20
2065.161164153912
 30
0.0
 10
3714.092826204579
 20
2065.157513290778
 30
0.0
 10
3714.092675565531
 20
2065.15162887266
 30
0.0
 10
3714.093300062397
 20
2065.145013722443
 30
0.0
 10
3714.094940338342
 20
2065.138374098187
 30
0.0
 10
3714.097492305518
 20
2065.131950231994
 30
0.0
 10
3714.100880871341
 20
2065.125810162957
 30
0.0
 10
3714.105024399457
 20
2065.119955422576
 30
0.0
 10
3714.110035432466
 20
2065.114245195658
 30
0.0
 10
3714.115754125846
 20
2065.108884856304
 30
0.0
 10
3714.122075194006
 20
2065.103906513058
 30
0.0
 10
3714.128919012451
 20
2065.099325354065
 30
0.0
 10
3714.136466941631
 20
2065.095021256804
 30
0.0
 10
3714.1445150704
 20
2065.091128418023
 30
0.0
 10
3714.152972491284
 20
2065.087670121448
 30
0.0
 10
3714.16175970275
 20
2065.084649627203
 30
0.0
 10
3714.171036835204
 20
2065.082021324124
 30
0.0
 10
3714.180006924195
 20
2065.079988046793
 30
0.0
 10
3714.188494501874
 20
2065.078475112834
 30
0.0
 10
3714.196391535309
 20
2065.077382086348
 30
0.0
 10
3714.204435405035
 20
2065.076591539085
 30
0.0
 10
3714.212775711575
 20
2065.076071499012
 30
0.0
 10
3714.218426031979
 20
2065.076005244192
 30
0.0
 10
3714.221343784364
 20
2065.07597103106
 30
0.0
  0
LINE
  5
119E
330
1F
100
AcDbEntity
  8
SANINDUSA
100
AcDbLine
 10
3715.106233318265
 20
2064.996601757017
 30
0.0
 11
3715.422001214744
 21
2065.213128314603
 31
0.0
  0
LINE
  5
119F
330
1F
100
AcDbEntity
  8
SANINDUSA
100
AcDbLine
 10
3715.2240662903
 20
2065.50178341275
 30
0.0
 11
3715.106211399017
 21
2065.420968630156
 31
0.0
  0
ARC
  5
11A0
330
1F
100
AcDbEntity
  8
SANINDUSA
100
AcDbCircle
 10
3715.419173508485
 20
2065.217252056166
 30
0.0
 40
0.0049999981510894
100
AcDbArc
 50
304.4068899381647
 51
34.44160069963181
  0
ARC
  5
11A1
330
1F
100
AcDbEntity
  8
SANINDUSA
100
AcDbCircle
 10
3715.226893933005
 20
2065.497659767183
 30
0.0
 40
0.0049999999746378
100
AcDbArc
 50
34.43895346186148
 51
124.4562985061044
  0
SPLINE
  5
11A2
330
1F
100
AcDbEntity
  8
SANINDUSA
100
AcDbSpline
210
0.0
220
0.0
230
1.0
 70
    24
 71
     3
 72
    62
 73
    58
 74
     0
 42
0.0000000001
 43
0.0000000001
 40
0.0
 40
0.0
 40
0.0
 40
0.0
 40
0.0195294676871029
 40
0.03921235241354
 40
0.0519277636637592
 40
0.0647288203266102
 40
0.0775694435658838
 40
0.0905605413859502
 40
0.1035898114528738
 40
0.1167223027388289
 40
0.1298067398368086
 40
0.1429609475386714
 40
0.1561471851428483
 40
0.1694531436081259
 40
0.1827884761018586
 40
0.1962046358077263
 40
0.2190973115503096
 40
0.2421106392894042
 40
0.2573075124191057
 40
0.2725339644851819
 40
0.2878027084589093
 40
0.3031267626520965
 40
0.3183200778150775
 40
0.3335369802410696
 40
0.3487879886440759
 40
0.3640838384215117
 40
0.3944615744003916
 40
0.4249960463353965
 40
0.4553717991092312
 40
0.4858910007101813
 40
0.5162660843370809
 40
0.5467815928728014
 40
0.5771571884298761
 40
0.6076798356916625
 40
0.6380572256148345
 40
0.6533201479393051
 40
0.6686047280137287
 40
0.6837986859738125
 40
0.6990160118856475
 40
0.7142703539136477
 40
0.729575667763193
 40
0.750331778183471
 40
0.767695589410626
 40
0.7851073969789826
 40
0.8096995291016526
 40
0.83445661593547
 40
0.8491874593860543
 40
0.8639608554346253
 40
0.8788970264915858
 40
0.89388381570025
 40
0.9090710718462291
 40
0.9246684178467619
 40
0.9458912342766598
 40
0.9672982713993636
 40
0.9795593853281742
 40
0.9919036355961109
 40
1.0
 40
1.0
 40
1.0
 40
1.0
 10
3715.106233318265
 20
2064.996601757017
 30
0.0
 10
3715.106233318265
 20
2064.996701165163
 30
0.0
 10
3715.106233318265
 20
2064.996900762371
 30
0.0
 10
3715.106233318265
 20
2064.998328010733
 30
0.0
 10
3715.106233318265
 20
2065.000152623884
 30
0.0
 10
3715.106233318265
 20
2065.002128591657
 30
0.0
 10
3715.106233318265
 20
2065.004525411827
 30
0.0
 10
3715.106233318265
 20
2065.007336948427
 30
0.0
 10
3715.106233318265
 20
2065.010557998142
 30
0.0
 10
3715.106233318265
 20
2065.014159916498
 30
0.0
 10
3715.106233318265
 20
2065.018128809268
 30
0.0
 10
3715.106233318265
 20
2065.022439499996
 30
0.0
 10
3715.106233318265
 20
2065.027093668143
 30
0.0
 10
3715.106233318265
 20
2065.032071295109
 30
0.0
 10
3715.106233318265
 20
2065.037363056077
 30
0.0
 10
3715.106233318265
 20
2065.044251477429
 30
0.0
 10
3715.106233318265
 20
2065.052982305401
 30
0.0
 10
3715.106233318265
 20
2065.062542349294
 30
0.0
 10
3715.106233318265
 20
2065.071260985131
 30
0.0
 10
3715.106233318265
 20
2065.078939000635
 30
0.0
 10
3715.106233318265
 20
2065.086841275644
 30
0.0
 10
3715.106233318265
 20
2065.094921755604
 30
0.0
 10
3715.106233318265
 20
2065.103158023882
 30
0.0
 10
3715.106233318265
 20
2065.111528374702
 30
0.0
 10
3715.106233318265
 20
2065.120049619348
 30
0.0
 10
3715.106233318265
 20
2065.131549479009
 30
0.0
 10
3715.106233318265
 20
2065.146194908829
 30
0.0
 10
3715.106233318265
 20
2065.16404292474
 30
0.0
 10
3715.106233318265
 20
2065.182130988088
 30
0.0
 10
3715.106233318265
 20
2065.200311041429
 30
0.0
 10
3715.106233318265
 20
2065.218557649889
 30
0.0
 10
3715.106233318265
 20
2065.236731039391
 30
0.0
 10
3715.106233318265
 20
2065.254804039732
 30
0.0
 10
3715.106233318265
 20
2065.2726313285
 30
0.0
 10
3715.106233318265
 20
2065.287247113923
 30
0.0
 10
3715.106233318265
 20
2065.298726553979
 30
0.0
 10
3715.106233318265
 20
2065.307226274429
 30
0.0
 10
3715.106233318265
 20
2065.315583406551
 30
0.0
 10
3715.106233318265
 20
2065.323785475797
 30
0.0
 10
3715.106233318265
 20
2065.33184027944
 30
0.0
 10
3715.106233318265
 20
2065.340660652191
 30
0.0
 10
3715.106233318265
 20
2065.349561202742
 30
0.0
 10
3715.106233318265
 20
2065.358456107429
 30
0.0
 10
3715.106233318265
 20
2065.367579312377
 30
0.0
 10
3715.106233318265
 20
2065.377259045807
 30
0.0
 10
3715.106233318265
 20
2065.38579587443
 30
0.0
 10
3715.106233318265
 20
2065.392437668892
 30
0.0
 10
3715.106233318265
 20
2065.397491998945
 30
0.0
 10
3715.106233318265
 20
2065.402155815215
 30
0.0
 10
3715.106233318265
 20
2065.406406575243
 30
0.0
 10
3715.106233318265
 20
2065.410222592098
 30
0.0
 10
3715.106233318265
 20
2065.413948908342
 30
0.0
 10
3715.106233318265
 20
2065.417259163635
 30
0.0
 10
3715.106233318265
 20
2065.419393842894
 30
0.0
 10
3715.106233318265
 20
2065.420477872273
 30
0.0
 10
3715.106233318265
 20
2065.420941701068
 30
0.0
 10
3715.106233318265
 20
2065.420938093512
 30
0.0
 10
3715.106233318265
 20
2065.420936664588
 30
0.0
  0
SPLINE
  5
11A3
330
1F
100
AcDbEntity
  8
SANINDUSA
100
AcDbSpline
210
0.0
220
0.0
230
1.0
 70
    24
 71
     3
 72
    96
 73
    92
 74
     0
 42
0.0000000001
 43
0.0000000001
 40
0.0
 40
0.0
 40
0.0
 40
0.0
 40
0.0312499999999999
 40
0.0312499999999999
 40
0.0624999999999998
 40
0.0624999999999998
 40
0.0937499999999997
 40
0.0937499999999997
 40
0.1093749999999996
 40
0.1093749999999996
 40
0.1249999999999996
 40
0.1249999999999996
 40
0.1562499999999995
 40
0.1562499999999995
 40
0.1874999999999995
 40
0.1874999999999995
 40
0.2031249999999995
 40
0.2031249999999995
 40
0.2187499999999995
 40
0.2187499999999995
 40
0.2499999999999996
 40
0.2499999999999996
 40
0.2812499999999998
 40
0.2812499999999998
 40
0.2968749999999998
 40
0.2968749999999998
 40
0.3046874999999999
 40
0.3046874999999999
 40
0.3124999999999999
 40
0.3124999999999999
 40
0.34375
 40
0.34375
 40
0.3750000000000002
 40
0.3750000000000002
 40
0.4062500000000005
 40
0.4062500000000005
 40
0.4218750000000006
 40
0.4218750000000006
 40
0.4375000000000006
 40
0.4375000000000006
 40
0.4687500000000007
 40
0.4687500000000007
 40
0.5000000000000009
 40
0.5000000000000009
 40
0.515625000000001
 40
0.515625000000001
 40
0.523437500000001
 40
0.523437500000001
 40
0.5312500000000011
 40
0.5312500000000011
 40
0.5625000000000013
 40
0.5625000000000013
 40
0.5937500000000014
 40
0.5937500000000014
 40
0.6250000000000015
 40
0.6250000000000015
 40
0.6406250000000016
 40
0.6406250000000016
 40
0.6562500000000016
 40
0.6562500000000016
 40
0.6875000000000017
 40
0.6875000000000017
 40
0.7187500000000018
 40
0.7187500000000018
 40
0.7500000000000019
 40
0.7500000000000019
 40
0.7578125000000019
 40
0.7578125000000019
 40
0.7656250000000019
 40
0.7656250000000019
 40
0.7812500000000019
 40
0.7812500000000019
 40
0.8125000000000015
 40
0.8125000000000015
 40
0.8437500000000014
 40
0.8437500000000014
 40
0.8593750000000014
 40
0.8593750000000014
 40
0.8671875000000014
 40
0.8671875000000014
 40
0.8750000000000014
 40
0.8750000000000014
 40
0.906250000000001
 40
0.906250000000001
 40
0.9375000000000007
 40
0.9375000000000007
 40
0.9687500000000003
 40
0.9687500000000003
 40
0.9843750000000001
 40
0.9843750000000001
 40
1.0
 40
1.0
 40
1.0
 40
1.0
 10
3715.231017576338
 20
2065.500487410268
 30
0.0
 10
3715.231017576338
 20
2065.500487410268
 30
0.0
 10
3715.231182062517
 20
2065.500247534589
 30
0.0
 10
3715.231827498099
 20
2065.499306274365
 30
0.0
 10
3715.232308485605
 20
2065.498604834252
 30
0.0
 10
3715.233584428379
 20
2065.496744084375
 30
0.0
 10
3715.23437937271
 20
2065.495584790558
 30
0.0
 10
3715.235812474087
 20
2065.493494851049
 30
0.0
 10
3715.236331720105
 20
2065.492737617274
 30
0.0
 10
3715.237439320608
 20
2065.491122366539
 30
0.0
 10
3715.238028619761
 20
2065.490262971941
 30
0.0
 10
3715.239900643948
 20
2065.487532936669
 30
0.0
 10
3715.241287241103
 20
2065.485510815818
 30
0.0
 10
3715.244331529397
 20
2065.481071228722
 30
0.0
 10
3715.245989230377
 20
2065.478653748126
 30
0.0
 10
3715.248680635695
 20
2065.474728782038
 30
0.0
 10
3715.249612401261
 20
2065.473369957254
 30
0.0
 10
3715.251543624589
 20
2065.470553589901
 30
0.0
 10
3715.252535898424
 20
2065.469106523892
 30
0.0
 10
3715.255590558403
 20
2065.464651811422
 30
0.0
 10
3715.257730593249
 20
2065.461530927271
 30
0.0
 10
3715.262211395943
 20
2065.454996423344
 30
0.0
 10
3715.264552180526
 20
2065.451582779159
 30
0.0
 10
3715.268213532559
 20
2065.446243307445
 30
0.0
 10
3715.269459056884
 20
2065.444426917805
 30
0.0
 10
3715.271365310257
 20
2065.441646964969
 30
0.0
 10
3715.272007058724
 20
2065.440711081788
 30
0.0
 10
3715.27330331167
 20
2065.438820712908
 30
0.0
 10
3715.27395676823
 20
2065.437867755425
 30
0.0
 10
3715.277239769888
 20
2065.433080044673
 30
0.0
 10
3715.279926552943
 20
2065.429161819384
 30
0.0
 10
3715.285416328524
 20
2065.421155896662
 30
0.0
 10
3715.288219334501
 20
2065.417068179613
 30
0.0
 10
3715.293940437014
 20
2065.408724905114
 30
0.0
 10
3715.296858531365
 20
2065.404469350852
 30
0.0
 10
3715.301323560188
 20
2065.397957850486
 30
0.0
 10
3715.302829208576
 20
2065.395762113253
 30
0.0
 10
3715.305840711091
 20
2065.391370338752
 30
0.0
 10
3715.307349675371
 20
2065.389169765844
 30
0.0
 10
3715.311886025729
 20
2065.382554254904
 30
0.0
 10
3715.314922847878
 20
2065.378125555937
 30
0.0
 10
3715.321021247297
 20
2065.369232056785
 30
0.0
 10
3715.324082824925
 20
2065.364767256077
 30
0.0
 10
3715.328693956745
 20
2065.35804268884
 30
0.0
 10
3715.330234133546
 20
2065.355796597672
 30
0.0
 10
3715.332549172729
 20
2065.352420498864
 30
0.0
 10
3715.333321648479
 20
2065.351293971728
 30
0.0
 10
3715.334868208954
 20
2065.349038571034
 30
0.0
 10
3715.335642088331
 20
2065.347909996943
 30
0.0
 10
3715.339495501225
 20
2065.342290436473
 30
0.0
 10
3715.342543146485
 20
2065.337845953803
 30
0.0
 10
3715.348570079932
 20
2065.329056675859
 30
0.0
 10
3715.351549364216
 20
2065.324711886278
 30
0.0
 10
3715.357439459511
 20
2065.316122163973
 30
0.0
 10
3715.360350275478
 20
2065.311877224019
 30
0.0
 10
3715.364663617918
 20
2065.305586932963
 30
0.0
 10
3715.366092762182
 20
2065.303502764245
 30
0.0
 10
3715.368932159364
 20
2065.299361976687
 30
0.0
 10
3715.370331123952
 20
2065.297321819997
 30
0.0
 10
3715.374466821935
 20
2065.291290593771
 30
0.0
 10
3715.377142500857
 20
2065.28738856201
 30
0.0
 10
3715.382332764996
 20
2065.279819426807
 30
0.0
 10
3715.384847352443
 20
2065.276152320114
 30
0.0
 10
3715.389712672334
 20
2065.26905706194
 30
0.0
 10
3715.392063430198
 20
2065.265628873388
 30
0.0
 10
3715.394894656213
 20
2065.261500002116
 30
0.0
 10
3715.395456276697
 20
2065.260680972244
 30
0.0
 10
3715.396563024306
 20
2065.259066965313
 30
0.0
 10
3715.397108542346
 20
2065.258271418173
 30
0.0
 10
3715.398721719018
 20
2065.255918868858
 30
0.0
 10
3715.399766014556
 20
2065.254395937866
 30
0.0
 10
3715.402806421305
 20
2065.249962011356
 30
0.0
 10
3715.404710273665
 20
2065.247185559998
 30
0.0
 10
3715.408271656171
 20
2065.241991877176
 30
0.0
 10
3715.409929204798
 20
2065.239574618764
 30
0.0
 10
3715.412225198193
 20
2065.236226295063
 30
0.0
 10
3715.412958749183
 20
2065.235156533201
 30
0.0
 10
3715.414010127052
 20
2065.233623273809
 30
0.0
 10
3715.414352925233
 20
2065.233123359796
 30
0.0
 10
3715.415019067372
 20
2065.232151902509
 30
0.0
 10
3715.415342354173
 20
2065.23168044259
 30
0.0
 10
3715.416910325253
 20
2065.229393818099
 30
0.0
 10
3715.418009987665
 20
2065.227790143748
 30
0.0
 10
3715.419905587521
 20
2065.225025727292
 30
0.0
 10
3715.420701519378
 20
2065.223864993333
 30
0.0
 10
3715.421986198475
 20
2065.221991502983
 30
0.0
 10
3715.422474987594
 20
2065.221278685519
 30
0.0
 10
3715.422967995694
 20
2065.220559715372
 30
0.0
 10
3715.423091459643
 20
2065.22037966378
 30
0.0
 10
3715.42325599608
 20
2065.22013971481
 30
0.0
 10
3715.423297217224
 20
2065.22007960064
 30
0.0
 10
3715.423297217224
 20
2065.22007960064
 30
0.0
  0
SPLINE
  5
11A5
330
1F
100
AcDbEntity
  8
SANINDUSA
100
AcDbSpline
210
0.0
220
0.0
230
1.0
 70
     8
 71
     3
 72
    12
 73
     8
 74
     0
 42
0.0000000001
 43
0.0000000001
 40
0.0
 40
0.0
 40
0.0
 40
0.0
 40
0.1516811340191775
 40
0.4052406120875797
 40
0.6436122139335243
 40
0.8685598683312628
 40
1.0
 40
1.0
 40
1.0
 40
1.0
 10
3715.986620882912
 20
2065.143748101803
 30
0.0
 10
3715.98692143861
 20
2065.143953158086
 30
0.0
 10
3715.98772442163
 20
2065.144500999016
 30
0.0
 10
3715.988786434782
 20
2065.145640604974
 30
0.0
 10
3715.989745621477
 20
2065.147066940382
 30
0.0
 10
3715.990361856196
 20
2065.148364674134
 30
0.0
 10
3715.99056771274
 20
2065.149194117926
 30
0.0
 10
3715.990643635127
 20
2065.149500026843
 30
0.0
  0
SPLINE
  5
11A7
330
1F
100
AcDbEntity
  8
SANINDUSA
100
AcDbSpline
210
0.0
220
0.0
230
1.0
 70
     8
 71
     3
 72
    11
 73
     7
 74
     0
 42
0.0000000001
 43
0.0000000001
 40
0.0
 40
0.0
 40
0.0
 40
0.0
 40
0.1577116442539999
 40
0.558740983888681
 40
0.9419289271783059
 40
1.0
 40
1.0
 40
1.0
 40
1.0
 10
3716.000897048818
 20
2065.15351616003
 30
0.0
 10
3716.000883709112
 20
2065.153771851447
 30
0.0
 10
3716.000836449186
 20
2065.154677715277
 30
0.0
 10
3716.000544855002
 20
2065.156181652003
 30
0.0
 10
3716.000232493577
 20
2065.157515857179
 30
0.0
 10
3715.999982519323
 20
2065.158186793079
 30
0.0
 10
3715.999949621925
 20
2065.158275090352
 30
0.0
  0
LINE
  5
11A8
330
1F
100
AcDbEntity
  8
SANINDUSA
100
AcDbLine
 10
3715.789791254998
 20
2064.996601757017
 30
0.0
 11
3716.105559151478
 21
2065.213128314603
 31
0.0
  0
LINE
  5
11A9
330
1F
100
AcDbEntity
  8
SANINDUSA
100
AcDbLine
 10
3715.907624227035
 20
2065.50178341275
 30
0.0
 11
3715.789791254998
 21
2065.420983660496
 31
0.0
  0
ARC
  5
11AA
330
1F
100
AcDbEntity
  8
SANINDUSA
100
AcDbCircle
 10
3715.910451868813
 20
2065.49765976849
 30
0.0
 40
0.0050000000000002
100
AcDbArc
 50
34.43898931494316
 51
124.4389893149431
  0
ARC
  5
11AB
330
1F
100
AcDbEntity
  8
SANINDUSA
100
AcDbCircle
 10
3716.1027315097
 20
2065.217251958862
 30
0.0
 40
0.005
100
AcDbArc
 50
304.4389893149432
 51
34.43898931494316
  0
SPLINE
  5
11AC
330
1F
100
AcDbEntity
  8
SANINDUSA
100
AcDbSpline
210
0.0
220
0.0
230
1.0
 70
     8
 71
     3
 72
    16
 73
    12
 74
     0
 42
0.0000000001
 43
0.0000000001
 40
0.0
 40
0.0
 40
0.0
 40
0.0
 40
0.2499999999999999
 40
0.2499999999999999
 40
0.3749999999999998
 40
0.3749999999999998
 40
0.4999999999999999
 40
0.4999999999999999
 40
0.75
 40
0.75
 40
1.0
 40
1.0
 40
1.0
 40
1.0
 10
3715.859960710435
 20
2065.192571309406
 30
0.0
 10
3715.856630472688
 20
2065.191963773934
 30
0.0
 10
3715.853285146256
 20
2065.191431160712
 30
0.0
 10
3715.848268529046
 20
2065.190625612783
 30
0.0
 10
3715.846596517667
 20
2065.190355903804
 30
0.0
 10
3715.843253621038
 20
2065.189809573447
 30
0.0
 10
3715.841582701774
 20
2065.189533156047
 30
0.0
 10
3715.836569770651
 20
2065.188704997279
 30
0.0
 10
3715.833227699983
 20
2065.188153721239
 30
0.0
 10
3715.826526358643
 20
2065.18717359018
 30
0.0
 10
3715.823166370431
 20
2065.186749842256
 30
0.0
 10
3715.819791254998
 20
2065.186433762324
 30
0.0
  0
SPLINE
  5
11AD
330
1F
100
AcDbEntity
  8
SANINDUSA
100
AcDbSpline
210
0.0
220
0.0
230
1.0
 70
     8
 71
     3
 72
    26
 73
    22
 74
     0
 42
0.0000000001
 43
0.0000000001
 40
0.0
 40
0.0
 40
0.0
 40
0.0
 40
0.1249999999999984
 40
0.1249999999999984
 40
0.2499999999999968
 40
0.2499999999999968
 40
0.3749999999999952
 40
0.3749999999999952
 40
0.4374999999999955
 40
0.4374999999999955
 40
0.499999999999996
 40
0.499999999999996
 40
0.5624999999999964
 40
0.5624999999999964
 40
0.6249999999999966
 40
0.6249999999999966
 40
0.7499999999999974
 40
0.7499999999999974
 40
0.874999999999998
 40
0.874999999999998
 40
1.0
 40
1.0
 40
1.0
 40
1.0
 10
3715.819791254998
 20
2065.141433762324
 30
0.0
 10
3715.822011127582
 20
2065.140572655158
 30
0.0
 10
3715.824215445947
 20
2065.139671861789
 30
0.0
 10
3715.828618587255
 20
2065.137856253622
 30
0.0
 10
3715.83081751504
 20
2065.136941706327
 30
0.0
 10
3715.835241648929
 20
2065.135179660207
 30
0.0
 10
3715.837466886307
 20
2065.134332241179
 30
0.0
 10
3715.840851224378
 20
2065.133179710312
 30
0.0
 10
3715.84198696928
 20
2065.13281554823
 30
0.0
 10
3715.844264231159
 20
2065.132142796183
 30
0.0
 10
3715.845407234473
 20
2065.131833710712
 30
0.0
 10
3715.847703664941
 20
2065.131280601059
 30
0.0
 10
3715.848857104594
 20
2065.13103665488
 30
0.0
 10
3715.851175741823
 20
2065.130622150637
 30
0.0
 10
3715.8523408577
 20
2065.130451082617
 30
0.0
 10
3715.855850219075
 20
2065.130025346556
 30
0.0
 10
3715.858208519843
 20
2065.129858405682
 30
0.0
 10
3715.862940572379
 20
2065.129620962671
 30
0.0
 10
3715.865313242319
 20
2065.129548749243
 30
0.0
 10
3715.870054124182
 20
2065.129373365092
 30
0.0
 10
3715.872423849505
 20
2065.129269452835
 30
0.0
 10
3715.874791254999
 20
2065.129112958754
 30
0.0
  0
SPLINE
  5
11AE
330
1F
100
AcDbEntity
  8
SANINDUSA
100
AcDbSpline
210
0.0
220
0.0
230
1.0
 70
    24
 71
     3
 72
    92
 73
    88
 74
     0
 42
0.0000000001
 43
0.0000000001
 40
0.0
 40
0.0
 40
0.0
 40
0.0
 40
0.0312500000000001
 40
0.0312500000000001
 40
0.0390625000000002
 40
0.0390625000000002
 40
0.0468750000000003
 40
0.0468750000000003
 40
0.0625000000000004
 40
0.0625000000000004
 40
0.0937500000000006
 40
0.0937500000000006
 40
0.1250000000000007
 40
0.1250000000000007
 40
0.1406250000000009
 40
0.1406250000000009
 40
0.1484375000000009
 40
0.1484375000000009
 40
0.1562500000000009
 40
0.1562500000000009
 40
0.1875000000000009
 40
0.1875000000000009
 40
0.2500000000000009
 40
0.2500000000000009
 40
0.2578125000000009
 40
0.2578125000000009
 40
0.2656250000000009
 40
0.2656250000000009
 40
0.2812500000000009
 40
0.2812500000000009
 40
0.3125000000000008
 40
0.3125000000000008
 40
0.3437500000000006
 40
0.3437500000000006
 40
0.3750000000000004
 40
0.3750000000000004
 40
0.3828125000000004
 40
0.3828125000000004
 40
0.3906250000000004
 40
0.3906250000000004
 40
0.4062500000000004
 40
0.4062500000000004
 40
0.4375000000000005
 40
0.4375000000000005
 40
0.5000000000000005
 40
0.5000000000000005
 40
0.5156250000000006
 40
0.5156250000000006
 40
0.5312500000000005
 40
0.5312500000000005
 40
0.5625000000000005
 40
0.5625000000000005
 40
0.5781250000000006
 40
0.5781250000000006
 40
0.5937500000000007
 40
0.5937500000000007
 40
0.6250000000000007
 40
0.6250000000000007
 40
0.6562500000000007
 40
0.6562500000000007
 40
0.6875000000000007
 40
0.6875000000000007
 40
0.7500000000000006
 40
0.7500000000000006
 40
0.7812500000000005
 40
0.7812500000000005
 40
0.7968750000000005
 40
0.7968750000000005
 40
0.8125000000000003
 40
0.8125000000000003
 40
0.8437500000000003
 40
0.8437500000000003
 40
0.8750000000000001
 40
0.8750000000000001
 40
0.8828125000000001
 40
0.8828125000000001
 40
0.8906250000000003
 40
0.8906250000000003
 40
0.9062500000000001
 40
0.9062500000000001
 40
0.9375000000000001
 40
0.9375000000000001
 40
0.9687500000000001
 40
0.9687500000000001
 40
0.9843750000000001
 40
0.9843750000000001
 40
1.0
 40
1.0
 40
1.0
 40
1.0
 10
3715.875545701047
 20
2065.4149344703
 30
0.0
 10
3715.875545701047
 20
2065.4149344703
 30
0.0
 10
3715.875693957079
 20
2065.414768313428
 30
0.0
 10
3715.876066411835
 20
2065.414350887461
 30
0.0
 10
3715.87615025265
 20
2065.414256923475
 30
0.0
 10
3715.876336651422
 20
2065.414048018404
 30
0.0
 10
3715.87643917675
 20
2065.413933113887
 30
0.0
 10
3715.876773065162
 20
2065.413558910872
 30
0.0
 10
3715.877031014623
 20
2065.413269815884
 30
0.0
 10
3715.877907774745
 20
2065.412287193338
 30
0.0
 10
3715.878630207914
 20
2065.411477531605
 30
0.0
 10
3715.880343264401
 20
2065.409557635975
 30
0.0
 10
3715.881333542847
 20
2065.408447788589
 30
0.0
 10
3715.883019325127
 20
2065.406558460329
 30
0.0
 10
3715.883614664129
 20
2065.405891238462
 30
0.0
 10
3715.884558858148
 20
2065.404833039864
 30
0.0
 10
3715.884882620491
 20
2065.404470185566
 30
0.0
 10
3715.885544817012
 20
2065.40372803362
 30
0.0
 10
3715.885882886786
 20
2065.403349144372
 30
0.0
 10
3715.887607434405
 20
2065.401416370139
 30
0.0
 10
3715.889095844294
 20
2065.399748245554
 30
0.0
 10
3715.893870014604
 20
2065.394397628813
 30
0.0
 10
3715.897461624831
 20
2065.390372357706
 30
0.0
 10
3715.901957336629
 20
2065.385333821322
 30
0.0
 10
3715.902463244372
 20
2065.384766828889
 30
0.0
 10
3715.903487919889
 20
2065.383618431237
 30
0.0
 10
3715.904006593868
 20
2065.383037131138
 30
0.0
 10
3715.905572691792
 20
2065.38128193825
 30
0.0
 10
3715.9066331992
 20
2065.380093382267
 30
0.0
 10
3715.909862542656
 20
2065.376474119015
 30
0.0
 10
3715.912078861458
 20
2065.373990195796
 30
0.0
 10
3715.916633826707
 20
2065.368885251537
 30
0.0
 10
3715.918972671782
 20
2065.366264007887
 30
0.0
 10
3715.923772525265
 20
2065.360884606914
 30
0.0
 10
3715.926233158734
 20
2065.358126869806
 30
0.0
 10
3715.929386069439
 20
2065.354593268004
 30
0.0
 10
3715.930021244908
 20
2065.353881399706
 30
0.0
 10
3715.931292667893
 20
2065.352456461619
 30
0.0
 10
3715.931929556252
 20
2065.35174267361
 30
0.0
 10
3715.93384369416
 20
2065.349597417435
 30
0.0
 10
3715.93512441588
 20
2065.348162057859
 30
0.0
 10
3715.938980149237
 20
2065.343840772671
 30
0.0
 10
3715.941568692494
 20
2065.340939681594
 30
0.0
 10
3715.949386878153
 20
2065.332177506732
 30
0.0
 10
3715.954669123294
 20
2065.32625746881
 30
0.0
 10
3715.961361575025
 20
2065.318756952084
 30
0.0
 10
3715.962704566489
 20
2065.317251804142
 30
0.0
 10
3715.965399801339
 20
2065.314231139236
 30
0.0
 10
3715.96674408806
 20
2065.312724539646
 30
0.0
 10
3715.970764127592
 20
2065.308219109503
 30
0.0
 10
3715.973428337765
 20
2065.305233215278
 30
0.0
 10
3715.977400993017
 20
2065.300780890725
 30
0.0
 10
3715.9787212463
 20
2065.299301226436
 30
0.0
 10
3715.981353665565
 20
2065.29635096164
 30
0.0
 10
3715.98265958512
 20
2065.294887361774
 30
0.0
 10
3715.986541525797
 20
2065.290536704921
 30
0.0
 10
3715.989084345534
 20
2065.287686858146
 30
0.0
 10
3715.994080379399
 20
2065.282087589436
 30
0.0
 10
3715.996533852466
 20
2065.279337877295
 30
0.0
 10
3716.001349027865
 20
2065.273941304398
 30
0.0
 10
3716.003711557196
 20
2065.271293516789
 30
0.0
 10
3716.010650876139
 20
2065.263516325424
 30
0.0
 10
3716.014946467709
 20
2065.258702072336
 30
0.0
 10
3716.020894117318
 20
2065.252036287181
 30
0.0
 10
3716.022793656138
 20
2065.249907392829
 30
0.0
 10
3716.025512227159
 20
2065.246860574079
 30
0.0
 10
3716.026398279478
 20
2065.24586753737
 30
0.0
 10
3716.028108015188
 20
2065.243951363477
 30
0.0
 10
3716.028933660965
 20
2065.243026026962
 30
0.0
 10
3716.031323859998
 20
2065.240347228735
 30
0.0
 10
3716.032801589995
 20
2065.238691073561
 30
0.0
 10
3716.03552290804
 20
2065.235641176103
 30
0.0
 10
3716.036767229548
 20
2065.2342466118
 30
0.0
 10
3716.03817109581
 20
2065.23267323887
 30
0.0
 10
3716.038444323243
 20
2065.232367021208
 30
0.0
 10
3716.038975376994
 20
2065.231771846569
 30
0.0
 10
3716.039233472113
 20
2065.231482588336
 30
0.0
 10
3716.039980139444
 20
2065.230645766341
 30
0.0
 10
3716.040442312467
 20
2065.230127789279
 30
0.0
 10
3716.041723234952
 20
2065.228692204696
 30
0.0
 10
3716.042436528658
 20
2065.22789278595
 30
0.0
 10
3716.043586965267
 20
2065.226603442466
 30
0.0
 10
3716.044023006368
 20
2065.226114752565
 30
0.0
 10
3716.044462882003
 20
2065.225621765138
 30
0.0
 10
3716.044573709173
 20
2065.225497556392
 30
0.0
 10
3716.04472203784
 20
2065.225331318114
 30
0.0
 10
3716.044759177564
 20
2065.225289694038
 30
0.0
 10
3716.044759189762
 20
2065.225289680367
 30
0.0
  0
ARC
  5
11AF
330
1F
100
AcDbEntity
  8
SANINDUSA
100
AcDbCircle
 10
3715.878530328923
 20
2065.417597550554
 30
0.0
 40
0.0040000000000002
100
AcDbArc
 50
221.7414297296422
 51
318.4389892958543
  0
SPLINE
  5
11B1
330
1F
100
AcDbEntity
  8
SANINDUSA
100
AcDbSpline
210
0.0
220
0.0
230
1.0
 70
     8
 71
     3
 72
    26
 73
    22
 74
     0
 42
0.0000000001
 43
0.0000000001
 40
0.0
 40
0.0
 40
0.0
 40
0.0
 40
0.1249999999999962
 40
0.1249999999999962
 40
0.2499999999999924
 40
0.2499999999999924
 40
0.3124999999999906
 40
0.3124999999999906
 40
0.3749999999999887
 40
0.3749999999999887
 40
0.49999999999998
 40
0.49999999999998
 40
0.5624999999999791
 40
0.5624999999999791
 40
0.6249999999999783
 40
0.6249999999999783
 40
0.7499999999999855
 40
0.7499999999999855
 40
0.8749999999999927
 40
0.8749999999999927
 40
1.0
 40
1.0
 40
1.0
 40
1.0
 10
3716.046346978524
 20
2065.231700938911
 30
0.0
 10
3716.04604084905
 20
2065.231586853189
 30
0.0
 10
3716.045754782433
 20
2065.231438162653
 30
0.0
 10
3716.045221405342
 20
2065.231073934211
 30
0.0
 10
3716.044973822741
 20
2065.23085636092
 30
0.0
 10
3716.044652106915
 20
2065.230495842691
 30
0.0
 10
3716.044552232652
 20
2065.230369365455
 30
0.0
 10
3716.044367427988
 20
2065.230103617793
 30
0.0
 10
3716.044282084478
 20
2065.229963402416
 30
0.0
 10
3716.04405506693
 20
2065.229533338305
 30
0.0
 10
3716.043940165621
 20
2065.229232466627
 30
0.0
 10
3716.043822720113
 20
2065.228759822098
 30
0.0
 10
3716.043792989589
 20
2065.228598587129
 30
0.0
 10
3716.043753757756
 20
2065.228277654899
 30
0.0
 10
3716.043743939063
 20
2065.228116862641
 30
0.0
 10
3716.043743578135
 20
2065.227633517308
 30
0.0
 10
3716.043783274475
 20
2065.227306063801
 30
0.0
 10
3716.043938148914
 20
2065.226679573878
 30
0.0
 10
3716.044052872229
 20
2065.226376900053
 30
0.0
 10
3716.044356978577
 20
2065.225799684748
 30
0.0
 10
3716.044541684806
 20
2065.22553344747
 30
0.0
 10
3716.044759189762
 20
2065.225289680367
 30
0.0
  0
LINE
  5
11B2
330
1F
100
AcDbEntity
  8
SANINDUSA
100
AcDbLine
 10
3716.000931788518
 20
2065.153509034387
 30
0.0
 11
3716.095780223663
 21
2065.218547961344
 31
0.0
  0
LINE
  5
11B3
330
1F
100
AcDbEntity
  8
SANINDUSA
100
AcDbLine
 10
3715.909155866331
 20
2065.490708482453
 30
0.0
 11
3715.815171974203
 21
2065.426262384994
 31
0.0
  0
LINE
  5
11B4
330
1F
100
AcDbEntity
  8
SANINDUSA
100
AcDbLine
 10
3715.789791254998
 20
2065.00872695426
 30
0.0
 11
3715.986647065778
 21
2065.143713795937
 31
0.0
  0
SPLINE
  5
11B5
330
1F
100
AcDbEntity
  8
SANINDUSA
100
AcDbSpline
210
0.0
220
0.0
230
1.0
 70
    24
 71
     3
 72
   108
 73
   104
 74
     0
 42
0.0000000001
 43
0.0000000001
 40
0.0
 40
0.0
 40
0.0
 40
0.0
 40
0.0312500000000004
 40
0.0312500000000004
 40
0.0390625000000005
 40
0.0390625000000005
 40
0.0468750000000006
 40
0.0468750000000006
 40
0.0625000000000008
 40
0.0625000000000008
 40
0.0937500000000012
 40
0.0937500000000012
 40
0.1093750000000014
 40
0.1093750000000014
 40
0.1171875000000015
 40
0.1171875000000015
 40
0.1250000000000016
 40
0.1250000000000016
 40
0.1562500000000017
 40
0.1562500000000017
 40
0.1875000000000019
 40
0.1875000000000019
 40
0.2031250000000019
 40
0.2031250000000019
 40
0.2187500000000019
 40
0.2187500000000019
 40
0.2343750000000019
 40
0.2343750000000019
 40
0.2500000000000019
 40
0.2500000000000019
 40
0.2812500000000019
 40
0.2812500000000019
 40
0.2968750000000018
 40
0.2968750000000018
 40
0.3125000000000017
 40
0.3125000000000017
 40
0.3437500000000014
 40
0.3437500000000014
 40
0.3593750000000013
 40
0.3593750000000013
 40
0.3750000000000011
 40
0.3750000000000011
 40
0.406250000000001
 40
0.406250000000001
 40
0.4218750000000008
 40
0.4218750000000008
 40
0.4375000000000007
 40
0.4375000000000007
 40
0.4687500000000006
 40
0.4687500000000006
 40
0.5000000000000002
 40
0.5000000000000002
 40
0.53125
 40
0.53125
 40
0.546875
 40
0.546875
 40
0.5624999999999999
 40
0.5624999999999999
 40
0.5937499999999995
 40
0.5937499999999995
 40
0.6093749999999995
 40
0.6093749999999995
 40
0.6249999999999993
 40
0.6249999999999993
 40
0.6562499999999992
 40
0.6562499999999992
 40
0.6718749999999992
 40
0.6718749999999992
 40
0.6874999999999992
 40
0.6874999999999992
 40
0.7187499999999992
 40
0.7187499999999992
 40
0.7343749999999992
 40
0.7343749999999992
 40
0.7499999999999993
 40
0.7499999999999993
 40
0.7812499999999995
 40
0.7812499999999995
 40
0.7968749999999996
 40
0.7968749999999996
 40
0.8124999999999996
 40
0.8124999999999996
 40
0.8281249999999996
 40
0.8281249999999996
 40
0.8359374999999998
 40
0.8359374999999998
 40
0.8437499999999998
 40
0.8437499999999998
 40
0.8749999999999998
 40
0.8749999999999998
 40
0.9062499999999998
 40
0.9062499999999998
 40
0.9218749999999998
 40
0.9218749999999998
 40
0.9296874999999996
 40
0.9296874999999996
 40
0.9374999999999996
 40
0.9374999999999996
 40
0.9687499999999998
 40
0.9687499999999998
 40
0.9843749999999998
 40
0.9843749999999998
 40
1.0
 40
1.0
 40
1.0
 40
1.0
 10
3715.789791254998
 20
2065.408858463253
 30
0.0
 10
3715.789791254998
 20
2065.408858463253
 30
0.0
 10
3715.789791254998
 20
2065.408448884713
 30
0.0
 10
3715.789791254998
 20
2065.407419390603
 30
0.0
 10
3715.789791254998
 20
2065.407187540672
 30
0.0
 10
3715.789791254998
 20
2065.406671493301
 30
0.0
 10
3715.789791254998
 20
2065.406387276373
 30
0.0
 10
3715.789791254998
 20
2065.405463263905
 30
0.0
 10
3715.789791254998
 20
2065.404750294335
 30
0.0
 10
3715.789791254998
 20
2065.402331891312
 30
0.0
 10
3715.789791254998
 20
2065.400347828426
 30
0.0
 10
3715.789791254998
 20
2065.396841700192
 30
0.0
 10
3715.789791254998
 20
2065.395584423975
 30
0.0
 10
3715.789791254998
 20
2065.393567225382
 30
0.0
 10
3715.789791254998
 20
2065.392872162286
 30
0.0
 10
3715.789791254998
 20
2065.391441871849
 30
0.0
 10
3715.789791254998
 20
2065.390708334851
 30
0.0
 10
3715.789791254998
 20
2065.38695128323
 30
0.0
 10
3715.789791254998
 20
2065.383660675372
 30
0.0
 10
3715.789791254998
 20
2065.376558300549
 30
0.0
 10
3715.789791254998
 20
2065.37274630775
 30
0.0
 10
3715.789791254998
 20
2065.366657649487
 30
0.0
 10
3715.789791254998
 20
2065.364562964694
 30
0.0
 10
3715.789791254998
 20
2065.360281292985
 30
0.0
 10
3715.789791254998
 20
2065.358091742103
 30
0.0
 10
3715.789791254998
 20
2065.35361896406
 30
0.0
 10
3715.789791254998
 20
2065.351335732324
 30
0.0
 10
3715.789791254998
 20
2065.346678453102
 30
0.0
 10
3715.789791254998
 20
2065.344302832312
 30
0.0
 10
3715.789791254998
 20
2065.337077898226
 30
0.0
 10
3715.789791254998
 20
2065.332120442182
 30
0.0
 10
3715.789791254998
 20
2065.324486719957
 30
0.0
 10
3715.789791254998
 20
2065.321909147142
 30
0.0
 10
3715.789791254998
 20
2065.316689476492
 30
0.0
 10
3715.789791254998
 20
2065.314047373598
 30
0.0
 10
3715.789791254998
 20
2065.306061732206
 30
0.0
 10
3715.789791254998
 20
2065.300647323129
 30
0.0
 10
3715.789791254998
 20
2065.292396415629
 30
0.0
 10
3715.789791254998
 20
2065.289624522551
 30
0.0
 10
3715.789791254998
 20
2065.284038209764
 30
0.0
 10
3715.789791254998
 20
2065.281225777649
 30
0.0
 10
3715.789791254998
 20
2065.272756115678
 30
0.0
 10
3715.789791254998
 20
2065.267057302955
 30
0.0
 10
3715.789791254998
 20
2065.258433014052
 30
0.0
 10
3715.789791254998
 20
2065.255545551771
 30
0.0
 10
3715.789791254998
 20
2065.249745403714
 30
0.0
 10
3715.789791254998
 20
2065.246836940035
 30
0.0
 10
3715.789791254998
 20
2065.238099662455
 30
0.0
 10
3715.789791254998
 20
2065.23225357179
 30
0.0
 10
3715.789791254998
 20
2065.220519489466
 30
0.0
 10
3715.789791254998
 20
2065.214624494036
 30
0.0
 10
3715.789791254998
 20
2065.202861872682
 30
0.0
 10
3715.789791254998
 20
2065.196987301668
 30
0.0
 10
3715.789791254998
 20
2065.188185603761
 30
0.0
 10
3715.789791254998
 20
2065.185252100001
 30
0.0
 10
3715.789791254998
 20
2065.179394239806
 30
0.0
 10
3715.789791254998
 20
2065.176474059113
 30
0.0
 10
3715.789791254998
 20
2065.167739837566
 30
0.0
 10
3715.789791254998
 20
2065.161952062387
 30
0.0
 10
3715.789791254998
 20
2065.153324202111
 30
0.0
 10
3715.789791254998
 20
2065.150455017465
 30
0.0
 10
3715.789791254998
 20
2065.144746047689
 30
0.0
 10
3715.789791254998
 20
2065.141908187237
 30
0.0
 10
3715.789791254998
 20
2065.133445052481
 30
0.0
 10
3715.789791254998
 20
2065.127870104894
 30
0.0
 10
3715.789791254998
 20
2065.119612702236
 30
0.0
 10
3715.789791254998
 20
2065.116875020324
 30
0.0
 10
3715.789791254998
 20
2065.111452264216
 30
0.0
 10
3715.789791254998
 20
2065.108767182131
 30
0.0
 10
3715.789791254998
 20
2065.100792369034
 30
0.0
 10
3715.789791254998
 20
2065.095582844843
 30
0.0
 10
3715.789791254998
 20
2065.087938952658
 30
0.0
 10
3715.789791254998
 20
2065.085416782918
 30
0.0
 10
3715.789791254998
 20
2065.080452663454
 30
0.0
 10
3715.789791254998
 20
2065.078009059563
 30
0.0
 10
3715.789791254998
 20
2065.070796759461
 30
0.0
 10
3715.789791254998
 20
2065.06614617075
 30
0.0
 10
3715.789791254998
 20
2065.059425694511
 30
0.0
 10
3715.789791254998
 20
2065.057233213945
 30
0.0
 10
3715.789791254998
 20
2065.05295858036
 30
0.0
 10
3715.789791254998
 20
2065.050874540019
 30
0.0
 10
3715.789791254998
 20
2065.046816775533
 30
0.0
 10
3715.789791254998
 20
2065.044843044991
 30
0.0
 10
3715.789791254998
 20
2065.041968849397
 30
0.0
 10
3715.789791254998
 20
2065.041024191183
 30
0.0
 10
3715.789791254998
 20
2065.039172006486
 30
0.0
 10
3715.789791254998
 20
2065.038263913432
 30
0.0
 10
3715.789791254998
 20
2065.03381397886
 30
0.0
 10
3715.789791254998
 20
2065.030542913
 30
0.0
 10
3715.789791254998
 20
2065.024604823985
 30
0.0
 10
3715.789791254998
 20
2065.021937571362
 30
0.0
 10
3715.789791254998
 20
2065.018427287914
 30
0.0
 10
3715.789791254998
 20
2065.017339166903
 30
0.0
 10
3715.789791254998
 20
2065.015836951309
 30
0.0
 10
3715.789791254998
 20
2065.015358970559
 30
0.0
 10
3715.789791254998
 20
2065.014453978578
 30
0.0
 10
3715.789791254998
 20
2065.014026139533
 30
0.0
 10
3715.789791254998
 20
2065.012010041085
 30
0.0
 10
3715.789791254998
 20
2065.010789937176
 30
0.0
 10
3715.789791254998
 20
2065.009558847179
 30
0.0
 10
3715.789791254998
 20
2065.009248551551
 30
0.0
 10
3715.789791254998
 20
2065.00883260969
 30
0.0
 10
3715.789791254998
 20
2065.00872695426
 30
0.0
 10
3715.789791254998
 20
2065.00872695426
 30
0.0
  0
LINE
  5
11B6
330
1F
100
AcDbEntity
  8
SANINDUSA
100
AcDbLine
 10
3715.800887251464
 20
2065.416467146545
 30
0.0
 11
3715.789791254998
 21
2065.408858463253
 31
0.0
  0
ARC
  5
11B7
330
1F
100
AcDbEntity
  8
SANINDUSA
100
AcDbCircle
 10
3715.80654253502
 20
2065.408219858026
 30
0.0
 40
0.0100000000000002
100
AcDbArc
 50
330.6133807237097
 51
124.4389893149431
  0
ARC
  5
11B8
330
1F
100
AcDbEntity
  8
SANINDUSA
100
AcDbCircle
 10
3715.980991782223
 20
2065.151961084456
 30
0.0
 40
0.0100000000000001
100
AcDbArc
 50
304.4389893149432
 51
97.87710416033862
  0
ARC
  5
11B9
330
1F
100
AcDbEntity
  8
SANINDUSA
100
AcDbCircle
 10
3715.80654253502
 20
2065.408219858026
 30
0.0
 40
0.02
100
AcDbArc
 50
27.70122282278604
 51
64.43898932092711
  0
ARC
  5
11BA
330
1F
100
AcDbEntity
  8
SANINDUSA
100
AcDbCircle
 10
3715.980991782223
 20
2065.151961084456
 30
0.0
 40
0.02
100
AcDbArc
 50
4.438989313042393
 51
40.78926204766532
  0
LINE
  5
11BB
330
1F
100
AcDbEntity
  8
SANINDUSA
100
AcDbLine
 10
3715.930646357236
 20
2065.470348374425
 30
0.0
 11
3715.881523327777
 21
2065.4149438818
 31
0.0
  0
LINE
  5
11BD
330
1F
100
AcDbEntity
  8
SANINDUSA
100
AcDbLine
 10
3716.046346978524
 20
2065.231700938911
 30
0.0
 11
3716.084532221223
 21
2065.245931489451
 31
0.0
  0
ARC
  5
11BE
330
1F
100
AcDbEntity
  8
SANINDUSA
100
AcDbCircle
 10
3715.957282353732
 20
2065.323328709755
 30
0.0
 40
0.1630000000000003
100
AcDbArc
 50
283.789440137355
 51
315.2587169578629
  0
ARC
  5
11BF
330
1F
100
AcDbEntity
  8
SANINDUSA
100
AcDbCircle
 10
3715.957282353732
 20
2065.323328709755
 30
0.0
 40
0.1630000000000001
100
AcDbArc
 50
128.2241424912454
 51
144.7010447160113
  0
SPLINE
  5
11C0
330
1F
100
AcDbEntity
  8
SANINDUSA
100
AcDbSpline
210
0.0
220
0.0
230
1.0
 70
     8
 71
     3
 72
    16
 73
    12
 74
     0
 42
0.0000000001
 43
0.0000000001
 40
0.0
 40
0.0
 40
0.0
 40
0.0
 40
0.25
 40
0.25
 40
0.5
 40
0.5
 40
0.75
 40
0.75
 40
0.875
 40
0.875
 40
1.0
 40
1.0
 40
1.0
 40
1.0
 10
3716.084532221223
 20
2065.245931489451
 30
0.0
 10
3716.085054926024
 20
2065.246126286617
 30
0.0
 10
3716.085594850819
 20
2065.246230590997
 30
0.0
 10
3716.086709038431
 20
2065.246258750045
 30
0.0
 10
3716.087254601899
 20
2065.246181521141
 30
0.0
 10
3716.088316293239
 20
2065.245845877767
 30
0.0
 10
3716.088807965701
 20
2065.245594833565
 30
0.0
 10
3716.089478352868
 20
2065.245098125751
 30
0.0
 10
3716.089687053653
 20
2065.244914520434
 30
0.0
 10
3716.090069415337
 20
2065.244517827286
 30
0.0
 10
3716.090244182078
 20
2065.244303934633
 30
0.0
 10
3716.090401914375
 20
2065.244073908366
 30
0.0
  0
ARC
  5
11C1
330
1F
100
AcDbEntity
  8
SANINDUSA
100
AcDbCircle
 10
3715.926905108668
 20
2065.473665460368
 30
0.0
 40
0.0050000000000002
100
AcDbArc
 50
318.4389892958543
 51
34.43898931494316
  0
SPLINE
  5
11C2
330
1F
100
AcDbEntity
  8
SANINDUSA
100
AcDbSpline
210
0.0
220
0.0
230
1.0
 70
    24
 71
     3
 72
   102
 73
    98
 74
     0
 42
0.0000000001
 43
0.0000000001
 40
0.0
 40
0.0
 40
0.0
 40
0.0
 40
0.0312500000000001
 40
0.0312500000000001
 40
0.0625000000000002
 40
0.0625000000000002
 40
0.0937500000000004
 40
0.0937500000000004
 40
0.1015625000000004
 40
0.1015625000000004
 40
0.1093750000000004
 40
0.1093750000000004
 40
0.1250000000000004
 40
0.1250000000000004
 40
0.1562500000000004
 40
0.1562500000000004
 40
0.1875000000000004
 40
0.1875000000000004
 40
0.1953125000000003
 40
0.1953125000000003
 40
0.2031250000000003
 40
0.2031250000000003
 40
0.2187500000000003
 40
0.2187500000000003
 40
0.2500000000000002
 40
0.2500000000000002
 40
0.2812500000000002
 40
0.2812500000000002
 40
0.2968750000000002
 40
0.2968750000000002
 40
0.3046875000000002
 40
0.3046875000000002
 40
0.3125000000000002
 40
0.3125000000000002
 40
0.34375
 40
0.34375
 40
0.375
 40
0.375
 40
0.40625
 40
0.40625
 40
0.4140625
 40
0.4140625
 40
0.421875
 40
0.421875
 40
0.4375
 40
0.4375
 40
0.46875
 40
0.46875
 40
0.4999999999999999
 40
0.4999999999999999
 40
0.5156249999999999
 40
0.5156249999999999
 40
0.5312499999999999
 40
0.5312499999999999
 40
0.5624999999999999
 40
0.5624999999999999
 40
0.5937499999999999
 40
0.5937499999999999
 40
0.6249999999999999
 40
0.6249999999999999
 40
0.6328124999999999
 40
0.6328124999999999
 40
0.6406249999999999
 40
0.6406249999999999
 40
0.65625
 40
0.65625
 40
0.6875
 40
0.6875
 40
0.7187500000000001
 40
0.7187500000000001
 40
0.7500000000000002
 40
0.7500000000000002
 40
0.7578125000000001
 40
0.7578125000000001
 40
0.765625
 40
0.765625
 40
0.7812500000000001
 40
0.7812500000000001
 40
0.8125000000000001
 40
0.8125000000000001
 40
0.8437500000000003
 40
0.8437500000000003
 40
0.8593750000000003
 40
0.8593750000000003
 40
0.8671875000000003
 40
0.8671875000000003
 40
0.8750000000000003
 40
0.8750000000000003
 40
0.9062500000000003
 40
0.9062500000000003
 40
0.9375000000000001
 40
0.9375000000000001
 40
0.9687500000000001
 40
0.9687500000000001
 40
0.984375
 40
0.984375
 40
1.0
 40
1.0
 40
1.0
 40
1.0
 10
3716.090401914375
 20
2065.244073908366
 30
0.0
 10
3716.090401892473
 20
2065.244073940307
 30
0.0
 10
3716.090264127953
 20
2065.244274846899
 30
0.0
 10
3716.089723728542
 20
2065.245062929374
 30
0.0
 10
3716.089321067624
 20
2065.245650143213
 30
0.0
 10
3716.088253087173
 20
2065.247207614703
 30
0.0
 10
3716.08758876187
 20
2065.248176422437
 30
0.0
 10
3716.086589490139
 20
2065.249633693712
 30
0.0
 10
3716.086380942523
 20
2065.249937825651
 30
0.0
 10
3716.085947935504
 20
2065.250569294221
 30
0.0
 10
3716.085723896454
 20
2065.250896017835
 30
0.0
 10
3716.085029556184
 20
2065.251908597396
 30
0.0
 10
3716.084537035685
 20
2065.252626856457
 30
0.0
 10
3716.08297351642
 20
2065.254906988718
 30
0.0
 10
3716.081815757719
 20
2065.256595386824
 30
0.0
 10
3716.07927475692
 20
2065.260301012989
 30
0.0
 10
3716.077891316364
 20
2065.262318530466
 30
0.0
 10
3716.076019993086
 20
2065.26504754358
 30
0.0
 10
3716.075638626483
 20
2065.26560370321
 30
0.0
 10
3716.074861557256
 20
2065.266736929165
 30
0.0
 10
3716.074465430573
 20
2065.267314613912
 30
0.0
 10
3716.0732616572
 20
2065.269070116746
 30
0.0
 10
3716.072437046037
 20
2065.270272674695
 30
0.0
 10
3716.069898900479
 20
2065.273974136966
 30
0.0
 10
3716.068121056252
 20
2065.276566826462
 30
0.0
 10
3716.064399155513
 20
2065.281994598374
 30
0.0
 10
3716.062455618181
 20
2065.28482892365
 30
0.0
 10
3716.059414953376
 20
2065.28926322649
 30
0.0
 10
3716.058380495574
 20
2065.290771810785
 30
0.0
 10
3716.056797254041
 20
2065.293080704688
 30
0.0
 10
3716.056263569893
 20
2065.29385899407
 30
0.0
 10
3716.055190268428
 20
2065.295424225372
 30
0.0
 10
3716.054650446177
 20
2065.296211466154
 30
0.0
 10
3716.051935791679
 20
2065.300170337299
 30
0.0
 10
3716.049713980516
 20
2065.303410478578
 30
0.0
 10
3716.045173718014
 20
2065.310031694728
 30
0.0
 10
3716.042855252093
 20
2065.313412790862
 30
0.0
 10
3716.038122477496
 20
2065.320314753816
 30
0.0
 10
3716.035708453372
 20
2065.323835205663
 30
0.0
 10
3716.032629405677
 20
2065.328325483552
 30
0.0
 10
3716.032010314295
 20
2065.32922832515
 30
0.0
 10
3716.030772182855
 20
2065.3310339335
 30
0.0
 10
3716.030152379556
 20
2065.331937813312
 30
0.0
 10
3716.028290787713
 20
2065.334652634749
 30
0.0
 10
3716.027046818113
 20
2065.336466757082
 30
0.0
 10
3716.023306416007
 20
2065.341921510154
 30
0.0
 10
3716.020801415592
 20
2065.345574635759
 30
0.0
 10
3716.015768926417
 20
2065.352913682472
 30
0.0
 10
3716.013241442836
 20
2065.356599596027
 30
0.0
 10
3716.009433128395
 20
2065.362153387923
 30
0.0
 10
3716.008160860865
 20
2065.36400877807
 30
0.0
 10
3716.005610512977
 20
2065.367728035406
 30
0.0
 10
3716.004330890744
 20
2065.369594151163
 30
0.0
 10
3716.000521667009
 20
2065.375149269109
 30
0.0
 10
3715.998009515213
 20
2065.378812823812
 30
0.0
 10
3715.993037994838
 20
2065.386062957692
 30
0.0
 10
3715.990578790236
 20
2065.389649297736
 30
0.0
 10
3715.98571375983
 20
2065.396744133745
 30
0.0
 10
3715.983307936106
 20
2065.400252626675
 30
0.0
 10
3715.980335101369
 20
2065.404588010668
 30
0.0
 10
3715.979742245877
 20
2065.405452591594
 30
0.0
 10
3715.978560022108
 20
2065.407176667923
 30
0.0
 10
3715.97796988403
 20
2065.408037285954
 30
0.0
 10
3715.976210993432
 20
2065.410602334743
 30
0.0
 10
3715.97505506675
 20
2065.412288061153
 30
0.0
 10
3715.971636729602
 20
2065.41727313616
 30
0.0
 10
3715.969423713527
 20
2065.420500451271
 30
0.0
 10
3715.965126807551
 20
2065.426766772485
 30
0.0
 10
3715.963043263207
 20
2065.429805274654
 30
0.0
 10
3715.959008797564
 20
2065.435688870383
 30
0.0
 10
3715.957057841202
 20
2065.438534015079
 30
0.0
 10
3715.954706188268
 20
2065.44196350894
 30
0.0
 10
3715.954239666755
 20
2065.442643852813
 30
0.0
 10
3715.95332046487
 20
2065.443984355563
 30
0.0
 10
3715.952867304828
 20
2065.444645213957
 30
0.0
 10
3715.951527021574
 20
2065.446599793701
 30
0.0
 10
3715.95065907231
 20
2065.447865553045
 30
0.0
 10
3715.948131145247
 20
2065.451552113346
 30
0.0
 10
3715.946546863301
 20
2065.453862524517
 30
0.0
 10
3715.943581197569
 20
2065.458187453709
 30
0.0
 10
3715.942199036981
 20
2065.460203104567
 30
0.0
 10
3715.940284126499
 20
2065.462995682353
 30
0.0
 10
3715.939672218604
 20
2065.463888048033
 30
0.0
 10
3715.938794935236
 20
2065.465167419612
 30
0.0
 10
3715.938508857371
 20
2065.465584616498
 30
0.0
 10
3715.93795262052
 20
2065.466395795239
 30
0.0
 10
3715.937682609887
 20
2065.466789560745
 30
0.0
 10
3715.936372595902
 20
2065.468699997807
 30
0.0
 10
3715.935453363976
 20
2065.470040544366
 30
0.0
 10
3715.933868192645
 20
2065.472352252557
 30
0.0
 10
3715.933202239638
 20
2065.473323434026
 30
0.0
 10
3715.932126958165
 20
2065.47489155284
 30
0.0
 10
3715.931716578091
 20
2065.47549002378
 30
0.0
 10
3715.931303527153
 20
2065.476092389732
 30
0.0
 10
3715.931200293076
 20
2065.476242939428
 30
0.0
 10
3715.931062964427
 20
2065.476443210375
 30
0.0
 10
3715.931028752927
 20
2065.476493102146
 30
0.0
 10
3715.931028752927
 20
2065.476493102146
 30
0.0
  0
SPLINE
  5
11C3
330
1F
100
AcDbEntity
  8
SANINDUSA
100
AcDbSpline
210
0.0
220
0.0
230
1.0
 70
    24
 71
     3
 72
    52
 73
    48
 74
     0
 42
0.0000000001
 43
0.0000000001
 40
0.0
 40
0.0
 40
0.0
 40
0.0
 40
0.0625000000000007
 40
0.0625000000000007
 40
0.0937500000000011
 40
0.0937500000000011
 40
0.1250000000000015
 40
0.1562500000000019
 40
0.1562500000000019
 40
0.1875000000000023
 40
0.1875000000000023
 40
0.2500000000000031
 40
0.2500000000000031
 40
0.2812500000000035
 40
0.2812500000000035
 40
0.3125000000000039
 40
0.3125000000000039
 40
0.375000000000004
 40
0.375000000000004
 40
0.4062500000000049
 40
0.4062500000000049
 40
0.4375000000000058
 40
0.4375000000000058
 40
0.5000000000000046
 40
0.5000000000000046
 40
0.5625000000000034
 40
0.5625000000000034
 40
0.5937500000000025
 40
0.5937500000000025
 40
0.6250000000000016
 40
0.6250000000000016
 40
0.6875000000000015
 40
0.6875000000000015
 40
0.7187500000000019
 40
0.7187500000000019
 40
0.7500000000000023
 40
0.7500000000000023
 40
0.812500000000001
 40
0.812500000000001
 40
0.8437500000000008
 40
0.8437500000000008
 40
0.8750000000000007
 40
0.9062500000000005
 40
0.9062500000000005
 40
0.9375000000000003
 40
0.9375000000000003
 40
1.0
 40
1.0
 40
1.0
 40
1.0
 10
3715.801365581976
 20
2065.370857230512
 30
0.0
 10
3715.801365581976
 20
2065.370857230512
 30
0.0
 10
3715.801395108036
 20
2065.370932762776
 30
0.0
 10
3715.801483234506
 20
2065.371158203866
 30
0.0
 10
3715.801520029975
 20
2065.37125233233
 30
0.0
 10
3715.801606903224
 20
2065.371474567358
 30
0.0
 10
3715.801707298612
 20
2065.371731394
 30
0.0
 10
3715.801834333322
 20
2065.372056367779
 30
0.0
 10
3715.801974870966
 20
2065.372415883856
 30
0.0
 10
3715.802052349458
 20
2065.372614085194
 30
0.0
 10
3715.802302329616
 20
2065.373253570609
 30
0.0
 10
3715.802490944063
 20
2065.373736073094
 30
0.0
 10
3715.802805936683
 20
2065.374541867345
 30
0.0
 10
3715.802916317826
 20
2065.374824237195
 30
0.0
 10
3715.803148176089
 20
2065.375417361318
 30
0.0
 10
3715.803268967782
 20
2065.375726362173
 30
0.0
 10
3715.803640305048
 20
2065.376676290202
 30
0.0
 10
3715.803901764799
 20
2065.377345136287
 30
0.0
 10
3715.804314927675
 20
2065.378402055083
 30
0.0
 10
3715.804456974028
 20
2065.378765425812
 30
0.0
 10
3715.804743099832
 20
2065.379497367301
 30
0.0
 10
3715.8048873612
 20
2065.379866403432
 30
0.0
 10
3715.805323654793
 20
2065.380982488147
 30
0.0
 10
3715.805619162252
 20
2065.381738425437
 30
0.0
 10
3715.806219831459
 20
2065.383274992841
 30
0.0
 10
3715.806516068913
 20
2065.384032793786
 30
0.0
 10
3715.806952119924
 20
2065.385148247271
 30
0.0
 10
3715.807096213829
 20
2065.38551685061
 30
0.0
 10
3715.807381835695
 20
2065.386247492565
 30
0.0
 10
3715.807523917586
 20
2065.38661094817
 30
0.0
 10
3715.807937396078
 20
2065.387668654458
 30
0.0
 10
3715.808198697474
 20
2065.388337079748
 30
0.0
 10
3715.808569386413
 20
2065.389285323413
 30
0.0
 10
3715.808689617848
 20
2065.389592882036
 30
0.0
 10
3715.808921668106
 20
2065.390186478812
 30
0.0
 10
3715.809032054077
 20
2065.390468851662
 30
0.0
 10
3715.809346850889
 20
2065.391274117039
 30
0.0
 10
3715.809535054503
 20
2065.391755550022
 30
0.0
 10
3715.809784205257
 20
2065.392392887686
 30
0.0
 10
3715.80986169259
 20
2065.392591103259
 30
0.0
 10
3715.810002115845
 20
2065.39295031115
 30
0.0
 10
3715.81012895333
 20
2065.393274765938
 30
0.0
 10
3715.810229026615
 20
2065.393530756717
 30
0.0
 10
3715.810315533113
 20
2065.393752043138
 30
0.0
 10
3715.810352141409
 20
2065.393845688305
 30
0.0
 10
3715.810439453088
 20
2065.394069034276
 30
0.0
 10
3715.810468221881
 20
2065.394142625681
 30
0.0
 10
3715.810468221881
 20
2065.394142625681
 30
0.0
  0
ARC
  5
11C4
330
1F
100
AcDbEntity
  8
SANINDUSA
100
AcDbCircle
 10
3715.957282353732
 20
2065.323328709755
 30
0.0
 40
0.163
100
AcDbArc
 50
163.0470675840328
 51
233.3399971391984
  0
ARC
  5
11C5
330
1F
100
AcDbEntity
  8
SANINDUSA
100
AcDbCircle
 10
3715.957282353732
 20
2065.323328709755
 30
0.0
 40
0.1630000000000003
100
AcDbArc
 50
276.4421936248861
 51
277.8771041603386
  0
ARC
  5
11C6
330
1F
100
AcDbEntity
  8
SANINDUSA
100
AcDbCircle
 10
3715.957282353732
 20
2065.323328709755
 30
0.0
 40
0.1629999999999999
100
AcDbArc
 50
150.6133807237097
 51
154.2502579835197
  0
ARC
  5
11C7
330
1F
100
AcDbEntity
  8
SANINDUSA
100
AcDbCircle
 10
3715.957282353732
 20
2065.323328709755
 30
0.0
 40
0.1530000000000003
100
AcDbArc
 50
267.4833486495996
 51
311.7414297296422
  0
SPLINE
  5
11C8
330
1F
100
AcDbEntity
  8
SANINDUSA
100
AcDbSpline
210
0.0
220
0.0
230
1.0
 70
    24
 71
     3
 72
    51
 73
    47
 74
     0
 42
0.0000000001
 43
0.0000000001
 40
0.0
 40
0.0
 40
0.0
 40
0.0
 40
0.03125
 40
0.03125
 40
0.0624999999999999
 40
0.0624999999999999
 40
0.1249999999999998
 40
0.1249999999999998
 40
0.1874999999999997
 40
0.1874999999999997
 40
0.2187499999999996
 40
0.2187499999999996
 40
0.2499999999999996
 40
0.2499999999999996
 40
0.3124999999999987
 40
0.3124999999999987
 40
0.3749999999999978
 40
0.3749999999999978
 40
0.4374999999999969
 40
0.4374999999999969
 40
0.4687499999999965
 40
0.4687499999999965
 40
0.499999999999996
 40
0.5312499999999956
 40
0.5312499999999956
 40
0.5624999999999951
 40
0.5624999999999951
 40
0.6249999999999952
 40
0.6249999999999952
 40
0.6562499999999949
 40
0.6562499999999949
 40
0.6874999999999945
 40
0.6874999999999945
 40
0.7499999999999969
 40
0.7499999999999969
 40
0.7812499999999968
 40
0.7812499999999968
 40
0.8124999999999966
 40
0.8124999999999966
 40
0.8749999999999976
 40
0.8749999999999976
 40
0.9374999999999987
 40
0.9374999999999987
 40
0.9687499999999992
 40
0.9687499999999992
 40
1.0
 40
1.0
 40
1.0
 40
1.0
 10
3715.935608045226
 20
2065.171871704797
 30
0.0
 10
3715.935608045226
 20
2065.171871704797
 30
0.0
 10
3715.935620321135
 20
2065.171870557731
 30
0.0
 10
3715.935668816125
 20
2065.171866026389
 30
0.0
 10
3715.935704924913
 20
2065.171862652419
 30
0.0
 10
3715.935848022584
 20
2065.171849281744
 30
0.0
 10
3715.93598944102
 20
2065.171836068159
 30
0.0
 10
3715.936368148172
 20
2065.171800685726
 30
0.0
 10
3715.936599237522
 20
2065.171779096109
 30
0.0
 10
3715.937005602846
 20
2065.171741134774
 30
0.0
 10
3715.937151101501
 20
2065.171727543264
 30
0.0
 10
3715.937462633237
 20
2065.17169844349
 30
0.0
 10
3715.937629292993
 20
2065.171682876701
 30
0.0
 10
3715.938149600251
 20
2065.171634280245
 30
0.0
 10
3715.938526303459
 20
2065.171599099655
 30
0.0
 10
3715.939338786153
 20
2065.17152323113
 30
0.0
 10
3715.93977780225
 20
2065.17148224114
 30
0.0
 10
3715.940678932762
 20
2065.171398116435
 30
0.0
 10
3715.941144973727
 20
2065.171354614987
 30
0.0
 10
3715.941867788553
 20
2065.171287155626
 30
0.0
 10
3715.942112579836
 20
2065.171264311215
 30
0.0
 10
3715.94259938567
 20
2065.171218884856
 30
0.0
 10
3715.943086110609
 20
2065.171173469347
 30
0.0
 10
3715.943572676227
 20
2065.171128075307
 30
0.0
 10
3715.94405916111
 20
2065.171082692101
 30
0.0
 10
3715.944303621168
 20
2065.17105988858
 30
0.0
 10
3715.945027142509
 20
2065.17099240253
 30
0.0
 10
3715.945493287645
 20
2065.170948929588
 30
0.0
 10
3715.946168852877
 20
2065.170885934225
 30
0.0
 10
3715.94639007086
 20
2065.170865307425
 30
0.0
 10
3715.946824325382
 20
2065.170824819269
 30
0.0
 10
3715.947036136681
 20
2065.170805072162
 30
0.0
 10
3715.947645885662
 20
2065.170748228799
 30
0.0
 10
3715.948022503182
 20
2065.170713123535
 30
0.0
 10
3715.94854236842
 20
2065.170664670484
 30
0.0
 10
3715.94870893647
 20
2065.170649146678
 30
0.0
 10
3715.949020839789
 20
2065.170620079214
 30
0.0
 10
3715.949166435571
 20
2065.170606511264
 30
0.0
 10
3715.949572909935
 20
2065.170568633686
 30
0.0
 10
3715.949803771164
 20
2065.170547122753
 30
0.0
 10
3715.950182165457
 20
2065.170511866729
 30
0.0
 10
3715.950324219198
 20
2065.170498632138
 30
0.0
 10
3715.950467375754
 20
2065.170485294997
 30
0.0
 10
3715.950503478504
 20
2065.170481931554
 30
0.0
 10
3715.950551939609
 20
2065.170477416787
 30
0.0
 10
3715.950564165036
 20
2065.170476277845
 30
0.0
 10
3715.950564165036
 20
2065.170476277845
 30
0.0
  0
ARC
  5
11C9
330
1F
100
AcDbEntity
  8
SANINDUSA
100
AcDbCircle
 10
3715.957282353732
 20
2065.323328709755
 30
0.0
 40
0.1530000000000002
100
AcDbArc
 50
256.9097505936856
 51
261.8559610328556
  0
SPLINE
  5
11CA
330
1F
100
AcDbEntity
  8
SANINDUSA
100
AcDbSpline
210
0.0
220
0.0
230
1.0
 70
    24
 71
     3
 72
    48
 73
    44
 74
     0
 42
0.0000000001
 43
0.0000000001
 40
0.0
 40
0.0
 40
0.0
 40
0.0
 40
0.0312499999999994
 40
0.0312499999999994
 40
0.0624999999999987
 40
0.0624999999999987
 40
0.1249999999999973
 40
0.1249999999999973
 40
0.187499999999996
 40
0.187499999999996
 40
0.2499999999999947
 40
0.2499999999999947
 40
0.2812499999999937
 40
0.2812499999999937
 40
0.3124999999999928
 40
0.3124999999999928
 40
0.374999999999994
 40
0.374999999999994
 40
0.4374999999999953
 40
0.4374999999999953
 40
0.4687499999999966
 40
0.4687499999999966
 40
0.4999999999999979
 40
0.4999999999999979
 40
0.5625000000000005
 40
0.5625000000000005
 40
0.6250000000000031
 40
0.6250000000000031
 40
0.6875000000000055
 40
0.6875000000000055
 40
0.7187500000000053
 40
0.7187500000000053
 40
0.7500000000000049
 40
0.7500000000000049
 40
0.8125000000000033
 40
0.8125000000000033
 40
0.8750000000000015
 40
0.8750000000000015
 40
0.9062500000000014
 40
0.9062500000000014
 40
0.937500000000001
 40
0.937500000000001
 40
1.0
 40
1.0
 40
1.0
 40
1.0
 10
3715.922630064109
 20
2065.174304487483
 30
0.0
 10
3715.922620430799
 20
2065.174306727496
 30
0.0
 10
3715.922599838627
 20
2065.174312086381
 30
0.0
 10
3715.922536213587
 20
2065.17432919093
 30
0.0
 10
3715.922492942524
 20
2065.174341003433
 30
0.0
 10
3715.922332027544
 20
2065.174385325748
 30
0.0
 10
3715.922183111604
 20
2065.174426757693
 30
0.0
 10
3715.921802830012
 20
2065.174533159105
 30
0.0
 10
3715.921568951006
 20
2065.174598839444
 30
0.0
 10
3715.921036292126
 20
2065.17474882683
 30
0.0
 10
3715.920736148787
 20
2065.174833512325
 30
0.0
 10
3715.9202343974
 20
2065.174975320587
 30
0.0
 10
3715.920057960623
 20
2065.175025222877
 30
0.0
 10
3715.91969509687
 20
2065.175127923355
 30
0.0
 10
3715.919507855219
 20
2065.175180951587
 30
0.0
 10
3715.918929042629
 20
2065.175344973637
 30
0.0
 10
3715.918519811632
 20
2065.175461066605
 30
0.0
 10
3715.917657127417
 20
2065.175706055144
 30
0.0
 10
3715.917216168693
 20
2065.175831402148
 30
0.0
 10
3715.916540877992
 20
2065.176023536986
 30
0.0
 10
3715.916313456105
 20
2065.176088272435
 30
0.0
 10
3715.915853864847
 20
2065.176219153787
 30
0.0
 10
3715.915620798547
 20
2065.176285555593
 30
0.0
 10
3715.914928541887
 20
2065.176482871239
 30
0.0
 10
3715.914472283588
 20
2065.176613035794
 30
0.0
 10
3715.913570115242
 20
2065.176870642797
 30
0.0
 10
3715.913120561018
 20
2065.176999129559
 30
0.0
 10
3715.912267155727
 20
2065.17724327669
 30
0.0
 10
3715.911859598662
 20
2065.177359993349
 30
0.0
 10
3715.911277327994
 20
2065.17752692916
 30
0.0
 10
3715.911087197412
 20
2065.177581472198
 30
0.0
 10
3715.910723851895
 20
2065.177685772141
 30
0.0
 10
3715.910550127158
 20
2065.177735674835
 30
0.0
 10
3715.910052268638
 20
2065.177878788351
 30
0.0
 10
3715.909751234642
 20
2065.177965465712
 30
0.0
 10
3715.909213263551
 20
2065.17812067956
 30
0.0
 10
3715.908981850063
 20
2065.178187623529
 30
0.0
 10
3715.908694631461
 20
2065.178271011933
 30
0.0
 10
3715.908608814789
 20
2065.178295988525
 30
0.0
 10
3715.908459763069
 20
2065.178339503097
 30
0.0
 10
3715.908396066188
 20
2065.178358174982
 30
0.0
 10
3715.908236952401
 20
2065.178405078521
 30
0.0
 10
3715.908173138068
 20
2065.178424309046
 30
0.0
 10
3715.908154013858
 20
2065.178430793203
 30
0.0
  0
ARC
  5
11CB
330
1F
100
AcDbEntity
  8
SANINDUSA
100
AcDbCircle
 10
3715.957282353732
 20
2065.323328709755
 30
0.0
 40
0.153
100
AcDbArc
 50
163.2959789724695
 51
251.2705229822142
  0
SPLINE
  5
11CC
330
1F
100
AcDbEntity
  8
SANINDUSA
100
AcDbSpline
210
0.0
220
0.0
230
1.0
 70
    24
 71
     3
 72
    52
 73
    48
 74
     0
 42
0.0000000001
 43
0.0000000001
 40
0.0
 40
0.0
 40
0.0
 40
0.0
 40
0.0312500000000008
 40
0.0312500000000008
 40
0.0625000000000016
 40
0.0937500000000023
 40
0.0937500000000023
 40
0.1250000000000031
 40
0.1250000000000031
 40
0.1875000000000054
 40
0.1875000000000054
 40
0.2187500000000068
 40
0.2187500000000068
 40
0.2500000000000082
 40
0.2500000000000082
 40
0.3125000000000098
 40
0.3125000000000098
 40
0.3437500000000115
 40
0.3437500000000115
 40
0.3750000000000133
 40
0.3750000000000133
 40
0.4375000000000152
 40
0.4375000000000152
 40
0.500000000000017
 40
0.500000000000017
 40
0.5312500000000171
 40
0.5312500000000171
 40
0.5625000000000173
 40
0.5625000000000173
 40
0.6250000000000144
 40
0.6250000000000144
 40
0.6875000000000117
 40
0.6875000000000117
 40
0.7500000000000088
 40
0.7500000000000088
 40
0.7812500000000073
 40
0.7812500000000073
 40
0.812500000000006
 40
0.8437500000000046
 40
0.8437500000000046
 40
0.8750000000000033
 40
0.8750000000000033
 40
0.9375000000000015
 40
0.9375000000000015
 40
0.9687500000000008
 40
0.9687500000000008
 40
1.0
 40
1.0
 40
1.0
 40
1.0
 10
3715.810738597935
 20
2065.367305153871
 30
0.0
 10
3715.810738597935
 20
2065.367305153871
 30
0.0
 10
3715.810746095712
 20
2065.367324295793
 30
0.0
 10
3715.810775546394
 20
2065.367399483754
 30
0.0
 10
3715.810819410768
 20
2065.367511470042
 30
0.0
 10
3715.810891638194
 20
2065.367695867451
 30
0.0
 10
3715.810978226541
 20
2065.36791692834
 30
0.0
 10
3715.811028996804
 20
2065.368046545264
 30
0.0
 10
3715.811201564108
 20
2065.368487110825
 30
0.0
 10
3715.811342074868
 20
2065.368845835488
 30
0.0
 10
3715.811589948323
 20
2065.369478656463
 30
0.0
 10
3715.811678802083
 20
2065.369705499959
 30
0.0
 10
3715.81186933475
 20
2065.370191929049
 30
0.0
 10
3715.811970641629
 20
2065.37045056485
 30
0.0
 10
3715.812287217804
 20
2065.371258780894
 30
0.0
 10
3715.812516869681
 20
2065.37184507891
 30
0.0
 10
3715.812889353048
 20
2065.372796021237
 30
0.0
 10
3715.813018976902
 20
2065.373126947866
 30
0.0
 10
3715.813283394695
 20
2065.373801999323
 30
0.0
 10
3715.813418194374
 20
2065.374146138814
 30
0.0
 10
3715.813830172275
 20
2065.375197904464
 30
0.0
 10
3715.81411485565
 20
2065.375924689617
 30
0.0
 10
3715.814705031043
 20
2065.377431379056
 30
0.0
 10
3715.815002398207
 20
2065.378190540969
 30
0.0
 10
3715.815447998636
 20
2065.379328130881
 30
0.0
 10
3715.815596665921
 20
2065.379707668572
 30
0.0
 10
3715.8158942735
 20
2065.380467439827
 30
0.0
 10
3715.816043890471
 20
2065.380849400887
 30
0.0
 10
3715.816484054054
 20
2065.381973104353
 30
0.0
 10
3715.816768281558
 20
2065.382698712963
 30
0.0
 10
3715.8173185645
 20
2065.384103534794
 30
0.0
 10
3715.817586363491
 20
2065.384787199088
 30
0.0
 10
3715.818081142309
 20
2065.38605031748
 30
0.0
 10
3715.818310875791
 20
2065.386636801425
 30
0.0
 10
3715.818628495938
 20
2065.38744764868
 30
0.0
 10
3715.818729966415
 20
2065.38770669071
 30
0.0
 10
3715.818919344399
 20
2065.388190149701
 30
0.0
 10
3715.819096370152
 20
2065.3886420745
 30
0.0
 10
3715.819249125838
 20
2065.389032040198
 30
0.0
 10
3715.819389611173
 20
2065.389390681039
 30
0.0
 10
3715.819453968797
 20
2065.38955497758
 30
0.0
 10
3715.819626137149
 20
2065.389994500503
 30
0.0
 10
3715.819711808577
 20
2065.390213207964
 30
0.0
 10
3715.819798491331
 20
2065.390434497141
 30
0.0
 10
3715.819820363152
 20
2065.390490332881
 30
0.0
 10
3715.819849753977
 20
2065.390565363589
 30
0.0
 10
3715.819857243533
 20
2065.390584483389
 30
0.0
 10
3715.819857243533
 20
2065.390584483389
 30
0.0
  0
ARC
  5
11CD
330
1F
100
AcDbEntity
  8
SANINDUSA
100
AcDbCircle
 10
3715.957282353732
 20
2065.323328709755
 30
0.0
 40
0.1529999999999997
100
AcDbArc
 50
131.7414297296422
 51
153.9228994194186
  0
LINE
  5
11CE
330
1F
100
AcDbEntity
  8
SANINDUSA
100
AcDbLine
 10
3715.810468221881
 20
2065.394142625681
 30
0.0
 11
3715.819857243533
 21
2065.390584483389
 31
0.0
  0
LINE
  5
11CF
330
1F
100
AcDbEntity
  8
SANINDUSA
100
AcDbLine
 10
3715.810738597935
 20
2065.367305153871
 30
0.0
 11
3715.801365581976
 21
2065.370857230512
 31
0.0
  0
LINE
  5
11D0
330
1F
100
AcDbEntity
  8
SANINDUSA
100
AcDbLine
 10
3715.819791254998
 20
2065.14913774904
 30
0.0
 11
3715.819791254998
 21
2065.178670449585
 31
0.0
  0
SPLINE
  5
11D1
330
1F
100
AcDbEntity
  8
SANINDUSA
100
AcDbSpline
210
0.0
220
0.0
230
1.0
 70
     8
 71
     3
 72
    20
 73
    16
 74
     0
 42
0.0000000001
 43
0.0000000001
 40
0.0
 40
0.0
 40
0.0
 40
0.0
 40
0.1250000000000001
 40
0.1250000000000001
 40
0.2500000000000003
 40
0.2500000000000003
 40
0.3750000000000005
 40
0.3750000000000005
 40
0.5000000000000007
 40
0.5000000000000007
 40
0.6250000000000009
 40
0.6250000000000009
 40
0.7500000000000011
 40
0.7500000000000011
 40
1.0
 40
1.0
 40
1.0
 40
1.0
 10
3715.869635707298
 20
2065.185898489755
 30
0.0
 10
3715.867648786845
 20
2065.185132661103
 30
0.0
 10
3715.865655271154
 20
2065.184384493357
 30
0.0
 10
3715.861638817529
 20
2065.182966945552
 30
0.0
 10
3715.859613563055
 20
2065.182296996837
 30
0.0
 10
3715.855546957576
 20
2065.181093205717
 30
0.0
 10
3715.853503016167
 20
2065.180558317956
 30
0.0
 10
3715.849385493227
 20
2065.179675231129
 30
0.0
 10
3715.847310825405
 20
2065.179333874089
 30
0.0
 10
3715.843132882203
 20
2065.178831345089
 30
0.0
 10
3715.841029987303
 20
2065.17866777667
 30
0.0
 10
3715.836802722071
 20
2065.178475903131
 30
0.0
 10
3715.834675853715
 20
2065.178447604933
 30
0.0
 10
3715.828291465855
 20
2065.178500277296
 30
0.0
 10
3715.82404136691
 20
2065.178717211174
 30
0.0
 10
3715.819791254998
 20
2065.178933762324
 30
0.0
  0
SPLINE
  5
11D3
330
1F
100
AcDbEntity
  8
SANINDUSA
100
AcDbSpline
210
0.0
220
0.0
230
1.0
 70
     8
 71
     3
 72
    16
 73
    12
 74
     0
 42
0.0000000001
 43
0.0000000001
 40
0.0
 40
0.0
 40
0.0
 40
0.0
 40
0.2499999999999999
 40
0.2499999999999999
 40
0.4999999999999999
 40
0.4999999999999999
 40
0.6249999999999999
 40
0.6249999999999999
 40
0.7499999999999997
 40
0.7499999999999997
 40
1.0
 40
1.0
 40
1.0
 40
1.0
 10
3715.819791254998
 20
2065.148933762325
 30
0.0
 10
3715.824286854829
 20
2065.147560639024
 30
0.0
 10
3715.828782323882
 20
2065.146187077053
 30
0.0
 10
3715.837823945278
 20
2065.143609962037
 30
0.0
 10
3715.842366863429
 20
2065.142406403209
 30
0.0
 10
3715.849250892102
 20
2065.140877584675
 30
0.0
 10
3715.8515558288
 20
2065.140418866302
 30
0.0
 10
3715.856177911966
 20
2065.13959854767
 30
0.0
 10
3715.858495777514
 20
2065.139234032647
 30
0.0
 10
3715.865463415037
 20
2065.138234404543
 30
0.0
 10
3715.870127294492
 20
2065.1376936539
 30
0.0
 10
3715.874791254999
 20
2065.137153445396
 30
0.0
  0
LINE
  5
11D4
330
1F
100
AcDbEntity
  8
SANINDUSA
100
AcDbLine
 10
3715.920795562396
 20
2065.164464887385
 30
0.0
 11
3715.922630064109
 21
2065.174304487483
 31
0.0
  0
SPLINE
  5
11D5
330
1F
100
AcDbEntity
  8
SANINDUSA
100
AcDbSpline
210
0.0
220
0.0
230
1.0
 70
    24
 71
     3
 72
    48
 73
    44
 74
     0
 42
0.0000000001
 43
0.0000000001
 40
0.0
 40
0.0
 40
0.0
 40
0.0
 40
0.0312500000000005
 40
0.0312500000000005
 40
0.0625000000000009
 40
0.0625000000000009
 40
0.125000000000002
 40
0.125000000000002
 40
0.1875000000000031
 40
0.1875000000000031
 40
0.2500000000000042
 40
0.2500000000000042
 40
0.2812500000000042
 40
0.2812500000000042
 40
0.3125000000000042
 40
0.3125000000000042
 40
0.3750000000000041
 40
0.3750000000000041
 40
0.4375000000000041
 40
0.4375000000000041
 40
0.4687500000000041
 40
0.4687500000000041
 40
0.5000000000000041
 40
0.5000000000000041
 40
0.5625000000000052
 40
0.5625000000000052
 40
0.6250000000000062
 40
0.6250000000000062
 40
0.6875000000000071
 40
0.6875000000000071
 40
0.7187500000000071
 40
0.7187500000000071
 40
0.7500000000000068
 40
0.7500000000000068
 40
0.8125000000000049
 40
0.8125000000000049
 40
0.8750000000000031
 40
0.8750000000000031
 40
0.9375000000000014
 40
0.9375000000000014
 40
0.9687500000000007
 40
0.9687500000000007
 40
1.0
 40
1.0
 40
1.0
 40
1.0
 10
3715.920795562396
 20
2065.164464887385
 30
0.0
 10
3715.920785923906
 20
2065.16446710109
 30
0.0
 10
3715.92076531031
 20
2065.164472370791
 30
0.0
 10
3715.920701552835
 20
2065.164489183873
 30
0.0
 10
3715.920658275822
 20
2065.16450076471
 30
0.0
 10
3715.92049740268
 20
2065.16454418209
 30
0.0
 10
3715.920348477121
 20
2065.164584762776
 30
0.0
 10
3715.919967688659
 20
2065.164689084929
 30
0.0
 10
3715.91973371207
 20
2065.164753412454
 30
0.0
 10
3715.919200924951
 20
2065.164900265572
 30
0.0
 10
3715.918900503137
 20
2065.164983230275
 30
0.0
 10
3715.918397750139
 20
2065.165122293773
 30
0.0
 10
3715.918221284518
 20
2065.165171138895
 30
0.0
 10
3715.917858378335
 20
2065.165271655196
 30
0.0
 10
3715.917671044112
 20
2065.165323573445
 30
0.0
 10
3715.917091702078
 20
2065.165484224377
 30
0.0
 10
3715.916680780428
 20
2065.16559829003
 30
0.0
 10
3715.915818148955
 20
2065.165837980248
 30
0.0
 10
3715.915376878668
 20
2065.165960703242
 30
0.0
 10
3715.914700565849
 20
2065.166148957069
 30
0.0
 10
3715.914472710328
 20
2065.166212408033
 30
0.0
 10
3715.914012050326
 20
2065.166340742479
 30
0.0
 10
3715.913778770044
 20
2065.166405758935
 30
0.0
 10
3715.91308623672
 20
2065.166598852283
 30
0.0
 10
3715.912629437256
 20
2065.166726324259
 30
0.0
 10
3715.911725527077
 20
2065.166978776227
 30
0.0
 10
3715.911275409739
 20
2065.167104599376
 30
0.0
 10
3715.910421430125
 20
2065.167343532615
 30
0.0
 10
3715.910013269495
 20
2065.167457841714
 30
0.0
 10
3715.909429743962
 20
2065.167621434221
 30
0.0
 10
3715.909239345011
 20
2065.167674843489
 30
0.0
 10
3715.908875995057
 20
2065.167776829027
 30
0.0
 10
3715.908702190001
 20
2065.16782564449
 30
0.0
 10
3715.908203915409
 20
2065.167965687011
 30
0.0
 10
3715.907902369753
 20
2065.168050570205
 30
0.0
 10
3715.907363187829
 20
2065.168202640689
 30
0.0
 10
3715.907132143173
 20
2065.168267969239
 30
0.0
 10
3715.906748638441
 20
2065.168376781325
 30
0.0
 10
3715.906599092368
 20
2065.168419440076
 30
0.0
 10
3715.906439806805
 20
2065.168465296046
 30
0.0
 10
3715.906397354376
 20
2065.168477615376
 30
0.0
 10
3715.906334034324
 20
2065.168496238143
 30
0.0
 10
3715.906313136172
 20
2065.168502552525
 30
0.0
 10
3715.906303573013
 20
2065.168505701399
 30
0.0
  0
LINE
  5
11D6
330
1F
100
AcDbEntity
  8
SANINDUSA
100
AcDbLine
 10
3715.908154013858
 20
2065.178430793203
 30
0.0
 11
3715.906303573013
 21
2065.168505701399
 31
0.0
  0
ARC
  5
11D7
330
1F
100
AcDbEntity
  8
SANINDUSA
100
AcDbCircle
 10
3715.957282353732
 20
2065.323328709755
 30
0.0
 40
0.1630000000000002
100
AcDbArc
 50
257.0650103609401
 51
261.8423507108982
  0
SPLINE
  5
11D8
330
1F
100
AcDbEntity
  8
SANINDUSA
100
AcDbSpline
210
0.0
220
0.0
230
1.0
 70
    24
 71
     3
 72
    51
 73
    47
 74
     0
 42
0.0000000001
 43
0.0000000001
 40
0.0
 40
0.0
 40
0.0
 40
0.0
 40
0.0312500000000014
 40
0.0312500000000014
 40
0.0625000000000028
 40
0.0625000000000028
 40
0.1250000000000059
 40
0.1250000000000059
 40
0.1875000000000089
 40
0.1875000000000089
 40
0.2187500000000097
 40
0.2187500000000097
 40
0.2500000000000105
 40
0.2500000000000105
 40
0.3125000000000121
 40
0.3125000000000121
 40
0.3750000000000137
 40
0.3750000000000137
 40
0.4375000000000153
 40
0.4375000000000153
 40
0.4687500000000142
 40
0.4687500000000142
 40
0.5000000000000132
 40
0.5312500000000121
 40
0.5312500000000121
 40
0.5625000000000111
 40
0.5625000000000111
 40
0.6250000000000089
 40
0.6250000000000089
 40
0.6562500000000088
 40
0.6562500000000088
 40
0.6875000000000088
 40
0.6875000000000088
 40
0.7500000000000068
 40
0.7500000000000068
 40
0.7812500000000066
 40
0.7812500000000066
 40
0.8125000000000063
 40
0.8125000000000063
 40
0.8750000000000042
 40
0.8750000000000042
 40
0.9375000000000021
 40
0.9375000000000021
 40
0.968750000000001
 40
0.968750000000001
 40
1.0
 40
1.0
 40
1.0
 40
1.0
 10
3715.934153095084
 20
2065.16197804383
 30
0.0
 10
3715.934153095084
 20
2065.16197804383
 30
0.0
 10
3715.9341653633
 20
2065.16197685742
 30
0.0
 10
3715.934213826872
 20
2065.16197217074
 30
0.0
 10
3715.934249912352
 20
2065.161968681096
 30
0.0
 10
3715.934392919075
 20
2065.161954851838
 30
0.0
 10
3715.934534249053
 20
2065.16194118488
 30
0.0
 10
3715.934912726949
 20
2065.161904587186
 30
0.0
 10
3715.935143679426
 20
2065.161882255552
 30
0.0
 10
3715.935549813576
 20
2065.161842987871
 30
0.0
 10
3715.935695230716
 20
2065.161828928416
 30
0.0
 10
3715.936006591006
 20
2065.161798826164
 30
0.0
 10
3715.936173162886
 20
2065.161782722592
 30
0.0
 10
3715.936693204044
 20
2065.161732449059
 30
0.0
 10
3715.937069720295
 20
2065.161696053139
 30
0.0
 10
3715.937881812868
 20
2065.161617560394
 30
0.0
 10
3715.938320635381
 20
2065.161575149952
 30
0.0
 10
3715.939221382825
 20
2065.161488106166
 30
0.0
 10
3715.939687228447
 20
2065.161443093805
 30
0.0
 10
3715.940409744629
 20
2065.161373288913
 30
0.0
 10
3715.940654442825
 20
2065.161349649095
 30
0.0
 10
3715.941141060612
 20
2065.161302640648
 30
0.0
 10
3715.941627596258
 20
2065.161255642866
 30
0.0
 10
3715.942113970139
 20
2065.161208666169
 30
0.0
 10
3715.942600262044
 20
2065.161161700119
 30
0.0
 10
3715.942844624385
 20
2065.161138100997
 30
0.0
 10
3715.943567858066
 20
2065.161068259236
 30
0.0
 10
3715.944033811333
 20
2065.16102326808
 30
0.0
 10
3715.944709089856
 20
2065.16095807184
 30
0.0
 10
3715.944930212446
 20
2065.160936724249
 30
0.0
 10
3715.945364276716
 20
2065.160894821008
 30
0.0
 10
3715.945575986852
 20
2065.160874384257
 30
0.0
 10
3715.946185446088
 20
2065.160815554865
 30
0.0
 10
3715.946561878878
 20
2065.160779222666
 30
0.0
 10
3715.947081481426
 20
2065.160729075953
 30
0.0
 10
3715.947247962884
 20
2065.160713009572
 30
0.0
 10
3715.94755969004
 20
2065.160682927249
 30
0.0
 10
3715.947705203076
 20
2065.160668885498
 30
0.0
 10
3715.948111444827
 20
2065.160629685064
 30
0.0
 10
3715.948342171637
 20
2065.160607422672
 30
0.0
 10
3715.948720340478
 20
2065.160570935185
 30
0.0
 10
3715.948862292312
 20
2065.160557239789
 30
0.0
 10
3715.949005354876
 20
2065.160543437393
 30
0.0
 10
3715.94904143384
 20
2065.160539956615
 30
0.0
 10
3715.949089863094
 20
2065.160535284336
 30
0.0
 10
3715.949102080885
 20
2065.160534105618
 30
0.0
 10
3715.949102080885
 20
2065.160534105618
 30
0.0
  0
ARC
  5
11D9
330
1F
100
AcDbEntity
  8
SANINDUSA
100
AcDbCircle
 10
3715.957282353732
 20
2065.323328709755
 30
0.0
 40
0.1630000000000002
100
AcDbArc
 50
267.1233614962627
 51
270.9694012228455
  0
ARC
  5
11DA
330
1F
100
AcDbEntity
  8
SANINDUSA
100
AcDbCircle
 10
3715.957282353732
 20
2065.323328709755
 30
0.0
 40
0.1630000000000001
100
AcDbArc
 50
237.472150573142
 51
251.7747669368901
  0
LINE
  5
11DB
330
1F
100
AcDbEntity
  8
SANINDUSA
100
AcDbLine
 10
3715.935608045226
 20
2065.171871704797
 30
0.0
 11
3715.934153095084
 21
2065.16197804383
 31
0.0
  0
LINE
  5
11DC
330
1F
100
AcDbEntity
  8
SANINDUSA
100
AcDbLine
 10
3715.949102080885
 20
2065.160534105618
 30
0.0
 11
3715.950564165036
 21
2065.170476277845
 31
0.0
  0
ARC
  5
11DD
330
1F
100
AcDbEntity
  8
SANINDUSA
100
AcDbCircle
 10
3715.888137095021
 20
2065.260087895152
 30
0.0
 40
0.1236567441856342
100
AcDbArc
 50
263.8041986675616
 51
298.6159776412697
  0
LINE
  5
11DE
330
1F
100
AcDbEntity
  8
SANINDUSA
100
AcDbLine
 10
3715.947360845034
 20
2065.151535890025
 30
0.0
 11
3715.9600400588
 21
2065.160352039453
 31
0.0
  0
LINE
  5
11DF
330
1F
100
AcDbEntity
  8
SANINDUSA
100
AcDbLine
 10
3715.975571072771
 20
2065.16135796315
 30
0.0
 11
3715.951951017097
 21
2065.144934394295
 31
0.0
  0
ARC
  5
11E0
330
1F
100
AcDbEntity
  8
SANINDUSA
100
AcDbCircle
 10
3715.888137095021
 20
2065.260087895152
 30
0.0
 40
0.1316531253347541
100
AcDbArc
 50
264.1818622023896
 51
298.9936411687182
  0
LINE
  5
11E1
330
1F
100
AcDbEntity
  8
SANINDUSA
100
AcDbLine
 10
3715.819791254998
 20
2065.148933762325
 30
0.0
 11
3715.819791254998
 21
2065.141433762324
 31
0.0
  0
LINE
  5
11E2
330
1F
100
AcDbEntity
  8
SANINDUSA
100
AcDbLine
 10
3716.073060027317
 20
2065.20859192272
 30
0.0
 11
3716.058065957901
 21
2065.225396417245
 31
0.0
  0
LINE
  5
11E3
330
1F
100
AcDbEntity
  8
SANINDUSA
100
AcDbLine
 10
3716.058065957901
 20
2065.225396417245
 30
0.0
 11
3716.084363821732
 21
2065.235196880825
 31
0.0
  0
LINE
  5
11E4
330
1F
100
AcDbEntity
  8
SANINDUSA
100
AcDbLine
 10
3715.789791254998
 20
2064.996601757017
 30
0.0
 11
3715.789791254998
 21
2065.00872695426
 31
0.0
  0
LINE
  5
11E5
330
1F
100
AcDbEntity
  8
SANINDUSA
100
AcDbLine
 10
3716.095780223663
 20
2065.218547961344
 30
0.0
 11
3716.084363821732
 21
2065.235196880825
 31
0.0
  0
LINE
  5
11E6
330
1F
100
AcDbEntity
  8
SANINDUSA
100
AcDbLine
 10
3716.059145173463
 20
2065.209166693496
 30
0.0
 11
3716.044759189762
 21
2065.225289680367
 31
0.0
  0
LINE
  5
11E7
330
1F
100
AcDbEntity
  8
SANINDUSA
100
AcDbLine
 10
3716.106855153959
 20
2065.22007960064
 30
0.0
 11
3716.090401914375
 21
2065.244073908366
 31
0.0
  0
LINE
  5
11E8
330
1F
100
AcDbEntity
  8
SANINDUSA
100
AcDbLine
 10
3715.878516114668
 20
2065.426625601519
 30
0.0
 11
3715.856427819526
 21
2065.451380898062
 31
0.0
  0
LINE
  5
11E9
330
1F
100
AcDbEntity
  8
SANINDUSA
100
AcDbLine
 10
3715.920572268531
 20
2065.474059562578
 30
0.0
 11
3715.878516114668
 21
2065.426625601519
 31
0.0
  0
LINE
  5
11EA
330
1F
100
AcDbEntity
  8
SANINDUSA
100
AcDbLine
 10
3715.789791254998
 20
2065.408858463253
 30
0.0
 11
3715.789791254998
 21
2065.420983660496
 31
0.0
  0
LINE
  5
11EB
330
1F
100
AcDbEntity
  8
SANINDUSA
100
AcDbLine
 10
3715.920572268531
 20
2065.474059562578
 30
0.0
 11
3715.909155866331
 21
2065.490708482453
 31
0.0
  0
LINE
  5
11EC
330
1F
100
AcDbEntity
  8
SANINDUSA
100
AcDbLine
 10
3715.875545701047
 20
2065.4149344703
 30
0.0
 11
3715.855419534
 21
2065.437490726014
 31
0.0
  0
LINE
  5
11ED
330
1F
100
AcDbEntity
  8
SANINDUSA
100
AcDbLine
 10
3715.931028752927
 20
2065.476493102146
 30
0.0
 11
3715.914575513072
 21
2065.500487410268
 31
0.0
  0
LINE
  5
11EF
330
1F
100
AcDbEntity
  8
SANINDUSA
100
AcDbLine
 10
3715.819791254998
 20
2065.186433762324
 30
0.0
 11
3715.819791254998
 21
2065.178933762324
 31
0.0
  0
ENDSEC
  0
SECTION
  2
OBJECTS
  0
DICTIONARY
  5
C
330
0
100
AcDbDictionary
281
     1
  3
ACAD_2007HEADERVARS_RT
350
12B4
  3
ACAD_COLOR
350
EE6
  3
ACAD_GROUP
350
D
  3
ACAD_LAYOUT
350
1A
  3
ACAD_MATERIAL
350
EE5
  3
ACAD_MLEADERSTYLE
350
10A8
  3
ACAD_MLINESTYLE
350
17
  3
ACAD_PLOTSETTINGS
350
19
  3
ACAD_PLOTSTYLENAME
350
E
  3
ACAD_SCALELIST
350
1096
  3
ACAD_TABLESTYLE
350
EE7
  3
ACAD_VISUALSTYLE
350
1082
  3
ACDB_RECOMPOSE_DATA
350
12B2
  3
AcDbVariableDictionary
350
3D
  3
AEC_PROPERTY_SET_DEFS
350
1155
  3
ASE_INDEX_DICTIONARY
350
1066
  3
Autodesk_PNP
350
10B2
  3
DWGPROPS
350
12B3
  0
DICTIONARY
  5
1051
330
2
100
AcDbDictionary
280
     1
281
     1
  3
ACAD_LAYERFILTERS
360
1065
  3
ACLYDICTIONARY
360
1064
  0
DICTIONARY
  5
120F
330
10
100
AcDbDictionary
280
     1
281
     1
  3
ADSK_XREC_LAYER_RECONCILED
360
1210
  0
DICTIONARY
  5
1211
330
2F
100
AcDbDictionary
280
     1
281
     1
  3
ADSK_XREC_LAYER_RECONCILED
360
1212
  0
DICTIONARY
  5
1213
330
30
100
AcDbDictionary
280
     1
281
     1
  3
ADSK_XREC_LAYER_RECONCILED
360
1214
  0
DICTIONARY
  5
1215
330
31
100
AcDbDictionary
280
     1
281
     1
  3
ADSK_XREC_LAYER_RECONCILED
360
1216
  0
DICTIONARY
  5
1217
330
32
100
AcDbDictionary
280
     1
281
     1
  3
ADSK_XREC_LAYER_RECONCILED
360
1218
  0
DICTIONARY
  5
1219
330
33
100
AcDbDictionary
280
     1
281
     1
  3
ADSK_XREC_LAYER_RECONCILED
360
121A
  0
DICTIONARY
  5
121B
330
34
100
AcDbDictionary
280
     1
281
     1
  3
ADSK_XREC_LAYER_RECONCILED
360
121C
  0
DICTIONARY
  5
121D
330
35
100
AcDbDictionary
280
     1
281
     1
  3
ADSK_XREC_LAYER_RECONCILED
360
121E
  0
DICTIONARY
  5
121F
330
36
100
AcDbDictionary
280
     1
281
     1
  3
ADSK_XREC_LAYER_RECONCILED
360
1220
  0
DICTIONARY
  5
1221
330
37
100
AcDbDictionary
280
     1
281
     1
  3
ADSK_XREC_LAYER_RECONCILED
360
1222
  0
DICTIONARY
  5
1223
330
5D6
100
AcDbDictionary
280
     1
281
     1
  3
ADSK_XREC_LAYER_RECONCILED
360
1224
  0
DICTIONARY
  5
1225
330
8AF
100
AcDbDictionary
280
     1
281
     1
  3
ADSK_XREC_LAYER_RECONCILED
360
1226
  0
DICTIONARY
  5
1227
330
8F8
100
AcDbDictionary
280
     1
281
     1
  3
ADSK_XREC_LAYER_RECONCILED
360
1228
  0
DICTIONARY
  5
1229
330
91D
100
AcDbDictionary
280
     1
281
     1
  3
ADSK_XREC_LAYER_RECONCILED
360
122A
  0
DICTIONARY
  5
122B
330
C7B
100
AcDbDictionary
280
     1
281
     1
  3
ADSK_XREC_LAYER_RECONCILED
360
122C
  0
DICTIONARY
  5
122D
330
1060
100
AcDbDictionary
280
     1
281
     1
  3
ADSK_XREC_LAYER_RECONCILED
360
122E
  0
DICTIONARY
  5
12B4
102
{ACAD_REACTORS
330
C
102
}
330
C
100
AcDbDictionary
281
     1
  3
DIMJOGANG
350
12B5
  0
DICTIONARY
  5
EE6
102
{ACAD_REACTORS
330
C
102
}
330
C
100
AcDbDictionary
281
     1
  0
DICTIONARY
  5
D
102
{ACAD_REACTORS
330
C
102
}
330
C
100
AcDbDictionary
281
     1
  0
DICTIONARY
  5
1A
102
{ACAD_REACTORS
330
C
102
}
330
C
100
AcDbDictionary
281
     1
  3
Layout1
350
1E
  3
Layout2
350
26
  3
Model
350
22
  0
DICTIONARY
  5
EE5
102
{ACAD_REACTORS
330
C
102
}
330
C
100
AcDbDictionary
281
     1
  3
ByBlock
350
1072
  3
ByLayer
350
106A
  3
Global
350
107A
  0
DICTIONARY
  5
10A8
102
{ACAD_REACTORS
330
C
102
}
330
C
100
AcDbDictionary
281
     1
  3
Standard
350
10A9
  0
DICTIONARY
  5
17
102
{ACAD_REACTORS
330
C
102
}
330
C
100
AcDbDictionary
281
     1
  3
Standard
350
18
  0
DICTIONARY
  5
19
102
{ACAD_REACTORS
330
C
102
}
330
C
100
AcDbDictionary
281
     1
  0
ACDBDICTIONARYWDFLT
  5
E
102
{ACAD_REACTORS
330
C
102
}
330
C
100
AcDbDictionary
281
     1
  3
Normal
350
F
100
AcDbDictionaryWithDefault
340
F
  0
DICTIONARY
  5
1096
102
{ACAD_REACTORS
330
C
102
}
330
C
100
AcDbDictionary
281
     1
  3
A0
350
1097
  3
A1
350
1098
  3
A2
350
1099
  3
A3
350
109A
  3
A4
350
109B
  3
A5
350
109C
  3
A6
350
109D
  3
A7
350
109E
  3
A8
350
109F
  3
A9
350
10A0
  3
B0
350
10A1
  3
B1
350
10A2
  3
B2
350
10A3
  3
B3
350
10A4
  3
B4
350
10A5
  3
B5
350
10A6
  3
B6
350
10A7
  0
DICTIONARY
  5
EE7
102
{ACAD_REACTORS
330
C
102
}
330
C
100
AcDbDictionary
281
     1
  3
Standard
350
EE8
  0
DICTIONARY
  5
1082
102
{ACAD_REACTORS
330
C
102
}
330
C
100
AcDbDictionary
281
     1
  3
2dWireframe
350
1088
  3
3D Hidden
350
108A
  3
3dWireframe
350
1089
  3
Basic
350
1087
  3
Brighten
350
108E
  3
ColorChange
350
1092
  3
Conceptual
350
108B
  3
Dim
350
108D
  3
EdgeColorOff
350
1095
  3
Facepattern
350
1091
  3
Flat
350
1083
  3
FlatWithEdges
350
1084
  3
Gouraud
350
1085
  3
GouraudWithEdges
350
1086
  3
JitterOff
350
1093
  3
Linepattern
350
1090
  3
OverhangOff
350
1094
  3
Realistic
350
108C
  3
Thicken
350
108F
  0
XRECORD
  5
12B2
102
{ACAD_REACTORS
330
C
102
}
330
C
100
AcDbXrecord
280
     1
 90
        1
330
EE8
  0
DICTIONARY
  5
3D
102
{ACAD_REACTORS
330
C
102
}
330
C
100
AcDbDictionary
281
     1
  3
CANNOSCALE
350
12AC
  3
CMLEADERSTYLE
350
12AB
  3
CTABLESTYLE
350
1049
  3
DIMASSOC
350
3F
  3
HIDETEXT
350
3E
  3
INDEXCTL
350
12AE
  3
SORTENTS
350
12AD
  3
XCLIPFRAME
350
12AF
  0
DICTIONARY
  5
1155
102
{ACAD_REACTORS
330
C
102
}
330
C
100
AcDbDictionary
281
     1
  0
DICTIONARY
  5
1066
102
{ACAD_REACTORS
330
C
102
}
330
C
100
AcDbDictionary
281
     1
  3
ASEBlockHierarchyIndexRecord
350
1067
1001
DCO15
1040
1602247867.484
  0
DICTIONARY
  5
10B2
102
{ACAD_REACTORS
330
C
102
}
330
C
100
AcDbDictionary
281
     1
  0
XRECORD
  5
12B3
102
{ACAD_REACTORS
330
C
102
}
330
C
100
AcDbXrecord
280
     1
  1
DWGPROPS COOKIE
  2

  3

  4

  6

  7

  8
Julio
  9

300
=
301
=
302
=
303
=
304
=
305
=
306
=
307
=
308
=
309
=
 40
0.0022585763888889
 41
2456149.679329236
 42
2456149.681587628
  1

 90
        0
  0
DICTIONARY
  5
1065
102
{ACAD_REACTORS
330
1051
102
}
330
1051
100
AcDbDictionary
281
     1
  0
DICTIONARY
  5
1064
102
{ACAD_REACTORS
330
1051
102
}
330
1051
100
AcDbDictionary
281
     1
1001
ACAD
1000
<All
  0
XRECORD
  5
1210
102
{ACAD_REACTORS
330
120F
102
}
330
120F
100
AcDbXrecord
280
     1
290
     1
  0
XRECORD
  5
1212
102
{ACAD_REACTORS
330
1211
102
}
330
1211
100
AcDbXrecord
280
     1
290
     1
  0
XRECORD
  5
1214
102
{ACAD_REACTORS
330
1213
102
}
330
1213
100
AcDbXrecord
280
     1
290
     1
  0
XRECORD
  5
1216
102
{ACAD_REACTORS
330
1215
102
}
330
1215
100
AcDbXrecord
280
     1
290
     1
  0
XRECORD
  5
1218
102
{ACAD_REACTORS
330
1217
102
}
330
1217
100
AcDbXrecord
280
     1
290
     1
  0
XRECORD
  5
121A
102
{ACAD_REACTORS
330
1219
102
}
330
1219
100
AcDbXrecord
280
     1
290
     1
  0
XRECORD
  5
121C
102
{ACAD_REACTORS
330
121B
102
}
330
121B
100
AcDbXrecord
280
     1
290
     1
  0
XRECORD
  5
121E
102
{ACAD_REACTORS
330
121D
102
}
330
121D
100
AcDbXrecord
280
     1
290
     1
  0
XRECORD
  5
1220
102
{ACAD_REACTORS
330
121F
102
}
330
121F
100
AcDbXrecord
280
     1
290
     1
  0
XRECORD
  5
1222
102
{ACAD_REACTORS
330
1221
102
}
330
1221
100
AcDbXrecord
280
     1
290
     1
  0
XRECORD
  5
1224
102
{ACAD_REACTORS
330
1223
102
}
330
1223
100
AcDbXrecord
280
     1
290
     1
  0
XRECORD
  5
1226
102
{ACAD_REACTORS
330
1225
102
}
330
1225
100
AcDbXrecord
280
     1
290
     1
  0
XRECORD
  5
1228
102
{ACAD_REACTORS
330
1227
102
}
330
1227
100
AcDbXrecord
280
     1
290
     1
  0
XRECORD
  5
122A
102
{ACAD_REACTORS
330
1229
102
}
330
1229
100
AcDbXrecord
280
     1
290
     1
  0
XRECORD
  5
122C
102
{ACAD_REACTORS
330
122B
102
}
330
122B
100
AcDbXrecord
280
     1
290
     1
  0
XRECORD
  5
122E
102
{ACAD_REACTORS
330
122D
102
}
330
122D
100
AcDbXrecord
280
     1
290
     1
  0
XRECORD
  5
12B5
102
{ACAD_REACTORS
330
12B4
102
}
330
12B4
100
AcDbXrecord
280
     1
 40
1.570796326794896
  0
LAYOUT
  5
1E
102
{ACAD_XDICTIONARY
360
12B6
102
}
102
{ACAD_REACTORS
330
1A
102
}
330
1A
100
AcDbPlotSettings
  1

  2
Ploter HP500
  4

  6

 40
0.0
 41
0.0
 42
0.0
 43
0.0
 44
0.0
 45
0.0
 46
0.0
 47
0.0
 48
0.0
 49
0.0
140
0.0
141
0.0
142
1.0
143
1.0
 70
   688
 72
     0
 73
     0
 74
     5
  7
sanindusa.ctb
 75
    16
147
1.0
148
0.0
149
0.0
100
AcDbLayout
  1
Layout1
 70
     1
 71
     1
 10
0.0
 20
0.0
 11
420.0
 21
297.0
 12
0.0
 22
0.0
 32
0.0
 14
1.000000000000000E+20
 24
1.000000000000000E+20
 34
1.000000000000000E+20
 15
-1.000000000000000E+20
 25
-1.000000000000000E+20
 35
-1.000000000000000E+20
146
0.0
 13
0.0
 23
0.0
 33
0.0
 16
1.0
 26
0.0
 36
0.0
 17
0.0
 27
1.0
 37
0.0
 76
     0
330
1B
  0
LAYOUT
  5
26
102
{ACAD_XDICTIONARY
360
12BA
102
}
102
{ACAD_REACTORS
330
1A
102
}
330
1A
100
AcDbPlotSettings
  1

  2
Ploter HP500
  4

  6

 40
0.0
 41
0.0
 42
0.0
 43
0.0
 44
0.0
 45
0.0
 46
0.0
 47
0.0
 48
0.0
 49
0.0
140
0.0
141
0.0
142
1.0
143
1.0
 70
   688
 72
     0
 73
     0
 74
     5
  7
sanindusa.ctb
 75
    16
147
1.0
148
0.0
149
0.0
100
AcDbLayout
  1
Layout2
 70
     1
 71
     2
 10
0.0
 20
0.0
 11
12.0
 21
9.0
 12
0.0
 22
0.0
 32
0.0
 14
0.0
 24
0.0
 34
0.0
 15
0.0
 25
0.0
 35
0.0
146
0.0
 13
0.0
 23
0.0
 33
0.0
 16
1.0
 26
0.0
 36
0.0
 17
0.0
 27
1.0
 37
0.0
 76
     0
330
23
  0
LAYOUT
  5
22
102
{ACAD_XDICTIONARY
360
12B8
102
}
102
{ACAD_REACTORS
330
1A
102
}
330
1A
100
AcDbPlotSettings
  1

  2
Ploter HP500
  4
User268
  6

 40
4.995333194732666
 41
16.97565841674804
 42
4.995330810546875
 43
16.97567749023437
 44
209.9733276367187
 45
296.9259948730469
 46
0.0
 47
0.0
 48
0.0
 49
0.0
140
0.0
141
0.0
142
1.0
143
1.0
 70
 11952
 72
     1
 73
     1
 74
     0
  7
sanindusa.ctb
 75
     0
147
1.0
148
-427.5957866592534
149
7.362384574453926
100
AcDbLayout
  1
Model
 70
     1
 71
     0
 10
0.0
 20
0.0
 11
12.0
 21
9.0
 12
0.0
 22
0.0
 32
0.0
 14
0.0
 24
0.0
 34
0.0
 15
0.0
 25
0.0
 35
0.0
146
0.0
 13
0.0
 23
0.0
 33
0.0
 16
1.0
 26
0.0
 36
0.0
 17
0.0
 27
1.0
 37
0.0
 76
     0
330
1F
331
1068
  0
MATERIAL
  5
1072
102
{ACAD_XDICTIONARY
360
1073
102
}
102
{ACAD_REACTORS
330
EE5
102
}
330
EE5
100
AcDbMaterial
  1
ByBlock
 72
     0
 43
0.0008202099737533
 43
0.0
 43
0.0
 43
0.0
 43
0.0
 43
0.0008202099737533
 43
0.0
 43
0.0
 43
0.0
 43
0.0
 43
1.0
 43
0.0
 43
0.0
 43
0.0
 43
0.0
 43
1.0
 77
     0
 47
0.0008202099737533
 47
0.0
 47
0.0
 47
0.0
 47
0.0
 47
0.0008202099737533
 47
0.0
 47
0.0
 47
0.0
 47
0.0
 47
1.0
 47
0.0
 47
0.0
 47
0.0
 47
0.0
 47
1.0
171
     0
 49
0.0008202099737533
 49
0.0
 49
0.0
 49
0.0
 49
0.0
 49
0.0008202099737533
 49
0.0
 49
0.0
 49
0.0
 49
0.0
 49
1.0
 49
0.0
 49
0.0
 49
0.0
 49
0.0
 49
1.0
175
     0
142
0.0008202099737533
142
0.0
142
0.0
142
0.0
142
0.0
142
0.0008202099737533
142
0.0
142
0.0
142
0.0
142
0.0
142
1.0
142
0.0
142
0.0
142
0.0
142
0.0
142
1.0
179
     0
144
0.0008202099737533
144
0.0
144
0.0
144
0.0
144
0.0
144
0.0008202099737533
144
0.0
144
0.0
144
0.0
144
0.0
144
1.0
144
0.0
144
0.0
144
0.0
144
0.0
144
1.0
147
0.0008202099737533
147
0.0
147
0.0
147
0.0
147
0.0
147
0.0008202099737533
147
0.0
147
0.0
147
0.0
147
0.0
147
1.0
147
0.0
147
0.0
147
0.0
147
0.0
147
1.0
  0
MATERIAL
  5
106A
102
{ACAD_XDICTIONARY
360
106B
102
}
102
{ACAD_REACTORS
330
EE5
102
}
330
EE5
100
AcDbMaterial
  1
ByLayer
 72
     0
 43
0.0008202099737533
 43
0.0
 43
0.0
 43
0.0
 43
0.0
 43
0.0008202099737533
 43
0.0
 43
0.0
 43
0.0
 43
0.0
 43
1.0
 43
0.0
 43
0.0
 43
0.0
 43
0.0
 43
1.0
 77
     0
 47
0.0008202099737533
 47
0.0
 47
0.0
 47
0.0
 47
0.0
 47
0.0008202099737533
 47
0.0
 47
0.0
 47
0.0
 47
0.0
 47
1.0
 47
0.0
 47
0.0
 47
0.0
 47
0.0
 47
1.0
171
     0
 49
0.0008202099737533
 49
0.0
 49
0.0
 49
0.0
 49
0.0
 49
0.0008202099737533
 49
0.0
 49
0.0
 49
0.0
 49
0.0
 49
1.0
 49
0.0
 49
0.0
 49
0.0
 49
0.0
 49
1.0
175
     0
142
0.0008202099737533
142
0.0
142
0.0
142
0.0
142
0.0
142
0.0008202099737533
142
0.0
142
0.0
142
0.0
142
0.0
142
1.0
142
0.0
142
0.0
142
0.0
142
0.0
142
1.0
179
     0
144
0.0008202099737533
144
0.0
144
0.0
144
0.0
144
0.0
144
0.0008202099737533
144
0.0
144
0.0
144
0.0
144
0.0
144
1.0
144
0.0
144
0.0
144
0.0
144
0.0
144
1.0
147
0.0008202099737533
147
0.0
147
0.0
147
0.0
147
0.0
147
0.0008202099737533
147
0.0
147
0.0
147
0.0
147
0.0
147
1.0
147
0.0
147
0.0
147
0.0
147
0.0
147
1.0
  0
MATERIAL
  5
107A
102
{ACAD_XDICTIONARY
360
107B
102
}
102
{ACAD_REACTORS
330
EE5
102
}
330
EE5
100
AcDbMaterial
  1
Global
 72
     0
 43
0.0008202099737533
 43
0.0
 43
0.0
 43
0.0
 43
0.0
 43
0.0008202099737533
 43
0.0
 43
0.0
 43
0.0
 43
0.0
 43
1.0
 43
0.0
 43
0.0
 43
0.0
 43
0.0
 43
1.0
 77
     0
 47
0.0008202099737533
 47
0.0
 47
0.0
 47
0.0
 47
0.0
 47
0.0008202099737533
 47
0.0
 47
0.0
 47
0.0
 47
0.0
 47
1.0
 47
0.0
 47
0.0
 47
0.0
 47
0.0
 47
1.0
171
     0
 49
0.0008202099737533
 49
0.0
 49
0.0
 49
0.0
 49
0.0
 49
0.0008202099737533
 49
0.0
 49
0.0
 49
0.0
 49
0.0
 49
1.0
 49
0.0
 49
0.0
 49
0.0
 49
0.0
 49
1.0
175
     0
142
0.0008202099737533
142
0.0
142
0.0
142
0.0
142
0.0
142
0.0008202099737533
142
0.0
142
0.0
142
0.0
142
0.0
142
1.0
142
0.0
142
0.0
142
0.0
142
0.0
142
1.0
179
     0
144
0.0008202099737533
144
0.0
144
0.0
144
0.0
144
0.0
144
0.0008202099737533
144
0.0
144
0.0
144
0.0
144
0.0
144
1.0
144
0.0
144
0.0
144
0.0
144
0.0
144
1.0
147
0.0008202099737533
147
0.0
147
0.0
147
0.0
147
0.0
147
0.0008202099737533
147
0.0
147
0.0
147
0.0
147
0.0
147
1.0
147
0.0
147
0.0
147
0.0
147
0.0
147
1.0
  0
MLEADERSTYLE
  5
10A9
102
{ACAD_REACTORS
330
10A8
102
}
330
10A8
100
AcDbMLeaderStyle
170
     2
171
     1
172
     0
 90
        2
 40
0.0
 41
0.0
173
     1
 91
-1056964608
340
14
 92
       -2
290
     1
 42
2.0
291
     1
 43
0.36
  3
Standard
 44
4.0
300

342
11
174
     1
178
     6
175
     1
176
     0
 93
-1056964608
 45
4.0
292
     0
297
     0
 46
4.0
 94
-1056964608
 47
1.0
 49
1.0
140
1.0
293
     1
141
0.0
294
     1
177
     0
142
1.0
295
     0
296
     0
143
0.125
1001
ACAD_MLEADERVER
1070
     2
  0
MLINESTYLE
  5
18
102
{ACAD_REACTORS
330
17
102
}
330
17
100
AcDbMlineStyle
  2
STANDARD
 70
     0
  3

 62
   256
 51
90.0
 52
90.0
 71
     2
 49
0.5
 62
   256
  6
BYLAYER
 49
-0.5
 62
   256
  6
BYLAYER
  0
ACDBPLACEHOLDER
  5
F
102
{ACAD_REACTORS
330
E
102
}
330
E
  0
SCALE
  5
1097
102
{ACAD_REACTORS
330
1096
102
}
330
1096
100
AcDbScale
 70
     0
300
1:1
140
1.0
141
1.0
290
     1
  0
SCALE
  5
1098
102
{ACAD_REACTORS
330
1096
102
}
330
1096
100
AcDbScale
 70
     0
300
1:2
140
1.0
141
2.0
290
     0
  0
SCALE
  5
1099
102
{ACAD_REACTORS
330
1096
102
}
330
1096
100
AcDbScale
 70
     0
300
1:4
140
1.0
141
4.0
290
     0
  0
SCALE
  5
109A
102
{ACAD_REACTORS
330
1096
102
}
330
1096
100
AcDbScale
 70
     0
300
1:5
140
1.0
141
5.0
290
     0
  0
SCALE
  5
109B
102
{ACAD_REACTORS
330
1096
102
}
330
1096
100
AcDbScale
 70
     0
300
1:8
140
1.0
141
8.0
290
     0
  0
SCALE
  5
109C
102
{ACAD_REACTORS
330
1096
102
}
330
1096
100
AcDbScale
 70
     0
300
1:10
140
1.0
141
10.0
290
     0
  0
SCALE
  5
109D
102
{ACAD_REACTORS
330
1096
102
}
330
1096
100
AcDbScale
 70
     0
300
1:16
140
1.0
141
16.0
290
     0
  0
SCALE
  5
109E
102
{ACAD_REACTORS
330
1096
102
}
330
1096
100
AcDbScale
 70
     0
300
1:20
140
1.0
141
20.0
290
     0
  0
SCALE
  5
109F
102
{ACAD_REACTORS
330
1096
102
}
330
1096
100
AcDbScale
 70
     0
300
1:30
140
1.0
141
30.0
290
     0
  0
SCALE
  5
10A0
102
{ACAD_REACTORS
330
1096
102
}
330
1096
100
AcDbScale
 70
     0
300
1:40
140
1.0
141
40.0
290
     0
  0
SCALE
  5
10A1
102
{ACAD_REACTORS
330
1096
102
}
330
1096
100
AcDbScale
 70
     0
300
1:50
140
1.0
141
50.0
290
     0
  0
SCALE
  5
10A2
102
{ACAD_REACTORS
330
1096
102
}
330
1096
100
AcDbScale
 70
     0
300
1:100
140
1.0
141
100.0
290
     0
  0
SCALE
  5
10A3
102
{ACAD_REACTORS
330
1096
102
}
330
1096
100
AcDbScale
 70
     0
300
2:1
140
2.0
141
1.0
290
     0
  0
SCALE
  5
10A4
102
{ACAD_REACTORS
330
1096
102
}
330
1096
100
AcDbScale
 70
     0
300
4:1
140
4.0
141
1.0
290
     0
  0
SCALE
  5
10A5
102
{ACAD_REACTORS
330
1096
102
}
330
1096
100
AcDbScale
 70
     0
300
8:1
140
8.0
141
1.0
290
     0
  0
SCALE
  5
10A6
102
{ACAD_REACTORS
330
1096
102
}
330
1096
100
AcDbScale
 70
     0
300
10:1
140
10.0
141
1.0
290
     0
  0
SCALE
  5
10A7
102
{ACAD_REACTORS
330
1096
102
}
330
1096
100
AcDbScale
 70
     0
300
100:1
140
100.0
141
1.0
290
     0
  0
TABLESTYLE
  5
EE8
102
{ACAD_XDICTIONARY
360
12B0
102
}
102
{ACAD_REACTORS
330
EE7
102
}
330
EE7
100
AcDbTableStyle
  3
Standard
 70
     0
 71
     0
 40
1.5
 41
1.5
280
     0
281
     0
  7
Standard
140
4.5
170
     2
 62
     0
 63
     7
283
     0
274
    -2
284
     1
 64
     0
275
    -2
285
     1
 65
     0
276
    -2
286
     1
 66
     0
277
    -2
287
     1
 67
     0
278
    -2
288
     1
 68
     0
279
    -2
289
     1
 69
     0
  7
Standard
140
6.0
170
     5
 62
     0
 63
     7
283
     0
274
    -2
284
     1
 64
     0
275
    -2
285
     1
 65
     0
276
    -2
286
     1
 66
     0
277
    -2
287
     1
 67
     0
278
    -2
288
     1
 68
     0
279
    -2
289
     1
 69
     0
  7
Standard
140
4.5
170
     5
 62
     0
 63
     7
283
     0
274
    -2
284
     1
 64
     0
275
    -2
285
     1
 65
     0
276
    -2
286
     1
 66
     0
277
    -2
287
     1
 67
     0
278
    -2
288
     1
 68
     0
279
    -2
289
     1
 69
     0
  0
VISUALSTYLE
  5
1088
102
{ACAD_XDICTIONARY
360
12CA
102
}
102
{ACAD_REACTORS
330
1082
102
}
330
1082
100
AcDbVisualStyle
  2
2dWireframe
 70
     4
 71
     0
 72
     2
 73
     0
 90
        0
 40
-0.6
 41
-30.0
 62
     5
 63
     7
 74
     1
 91
        4
 64
     7
 65
   257
 75
     1
175
     1
 42
1.0
 92
        0
 66
   257
 43
1.0
 76
     1
 77
     6
 78
     2
 67
     7
 79
     5
170
     0
171
     0
290
     0
174
     0
 93
        1
 44
0.0
173
     0
291
     0
 45
0.0
1001
ACAD
1000
AcDbSavedByObjectVersion
1070
     0
  0
VISUALSTYLE
  5
108A
102
{ACAD_XDICTIONARY
360
12CE
102
}
102
{ACAD_REACTORS
330
1082
102
}
330
1082
100
AcDbVisualStyle
  2
3D Hidden
 70
     6
 71
     1
 72
     2
 73
     2
 90
        0
 40
-0.6
 41
-30.0
 62
     5
 63
     7
 74
     2
 91
        2
 64
     7
 65
   257
 75
     2
175
     1
 42
179.0
 92
        0
 66
   257
 43
1.0
 76
     1
 77
     6
 78
     2
 67
     7
 79
     3
170
     0
171
     0
290
     0
174
     0
 93
        1
 44
0.0
173
     0
291
     0
 45
0.0
1001
ACAD
1000
AcDbSavedByObjectVersion
1070
     0
  0
VISUALSTYLE
  5
1089
102
{ACAD_XDICTIONARY
360
12CC
102
}
102
{ACAD_REACTORS
330
1082
102
}
330
1082
100
AcDbVisualStyle
  2
3dWireframe
 70
     5
 71
     0
 72
     2
 73
     0
 90
        0
 40
-0.6
 41
-30.0
 62
     5
 63
     7
 74
     1
 91
        4
 64
     7
 65
   257
 75
     1
175
     1
 42
1.0
 92
        0
 66
   257
 43
1.0
 76
     1
 77
     6
 78
     2
 67
     7
 79
     5
170
     0
171
     0
290
     0
174
     0
 93
        1
 44
0.0
173
     0
291
     0
 45
0.0
1001
ACAD
1000
AcDbSavedByObjectVersion
1070
     0
  0
VISUALSTYLE
  5
1087
102
{ACAD_XDICTIONARY
360
12C8
102
}
102
{ACAD_REACTORS
330
1082
102
}
330
1082
100
AcDbVisualStyle
  2
Basic
 70
     7
 71
     1
 72
     0
 73
     1
 90
        0
 40
-0.6
 41
-30.0
 62
     5
 63
     7
 74
     0
 91
        4
 64
     7
 65
   257
 75
     1
175
     1
 42
1.0
 92
        8
 66
     7
 43
1.0
 76
     1
 77
     6
 78
     2
 67
     7
 79
     5
170
     0
171
     0
290
     0
174
     0
 93
        1
 44
0.0
173
     0
291
     1
 45
0.0
1001
ACAD
1000
AcDbSavedByObjectVersion
1070
     0
  0
VISUALSTYLE
  5
108E
102
{ACAD_XDICTIONARY
360
12D6
102
}
102
{ACAD_REACTORS
330
1082
102
}
330
1082
100
AcDbVisualStyle
  2
Brighten
 70
    12
 71
     2
 72
     2
 73
     0
 90
        0
 40
-0.6
 41
-30.0
 62
     5
 63
     7
 74
     1
 91
        4
 64
     7
 65
   257
 75
     1
175
     1
 42
1.0
 92
        8
 66
     7
 43
1.0
 76
     1
 77
     6
 78
     2
 67
     7
 79
     5
170
     0
171
     0
290
     0
174
     0
 93
        1
 44
50.0
173
     0
291
     1
 45
0.0
1001
ACAD
1000
AcDbSavedByObjectVersion
1070
     0
  0
VISUALSTYLE
  5
1092
102
{ACAD_XDICTIONARY
360
12DE
102
}
102
{ACAD_REACTORS
330
1082
102
}
330
1082
100
AcDbVisualStyle
  2
ColorChange
 70
    16
 71
     2
 72
     2
 73
     3
 90
        0
 40
-0.6
 41
-30.0
 62
     5
 63
     8
 74
     1
 91
        4
 64
     7
 65
   257
 75
     1
175
     1
 42
1.0
 92
        8
 66
     8
 43
1.0
 76
     1
 77
     6
 78
     2
 67
     7
 79
     5
170
     0
171
     0
290
     0
174
     0
 93
        1
 44
0.0
173
     0
291
     1
 45
0.0
1001
ACAD
1000
AcDbSavedByObjectVersion
1070
     0
  0
VISUALSTYLE
  5
108B
102
{ACAD_XDICTIONARY
360
12D0
102
}
102
{ACAD_REACTORS
330
1082
102
}
330
1082
100
AcDbVisualStyle
  2
Conceptual
 70
     9
 71
     3
 72
     2
 73
     0
 90
        0
 40
-0.6
 41
-30.0
 62
     5
 63
     7
 74
     2
 91
        2
 64
     7
 65
   257
 75
     1
175
     1
 42
179.0
 92
        8
 66
     7
 43
1.0
 76
     1
 77
     6
 78
     2
 67
     7
 79
     3
170
     0
171
     0
290
     0
174
     0
 93
        1
 44
0.0
173
     0
291
     0
 45
0.0
1001
ACAD
1000
AcDbSavedByObjectVersion
1070
     0
  0
VISUALSTYLE
  5
108D
102
{ACAD_XDICTIONARY
360
12D4
102
}
102
{ACAD_REACTORS
330
1082
102
}
330
1082
100
AcDbVisualStyle
  2
Dim
 70
    11
 71
     2
 72
     2
 73
     0
 90
        0
 40
-0.6
 41
-30.0
 62
     5
 63
     7
 74
     1
 91
        4
 64
     7
 65
   257
 75
     1
175
     1
 42
1.0
 92
        8
 66
     7
 43
1.0
 76
     1
 77
     6
 78
     2
 67
     7
 79
     5
170
     0
171
     0
290
     0
174
     0
 93
        1
 44
-50.0
173
     0
291
     1
 45
0.0
1001
ACAD
1000
AcDbSavedByObjectVersion
1070
     0
  0
VISUALSTYLE
  5
1095
102
{ACAD_XDICTIONARY
360
12E4
102
}
102
{ACAD_REACTORS
330
1082
102
}
330
1082
100
AcDbVisualStyle
  2
EdgeColorOff
 70
    22
 71
     2
 72
     2
 73
     0
 90
        0
 40
-0.6
 41
-30.0
 62
     5
 63
     7
 74
     1
 91
        4
 64
     7
 65
   257
 75
     1
175
     1
 42
1.0
 92
        8
 66
     7
 43
1.0
 76
     1
 77
     6
 78
     2
 67
     7
 79
     5
170
     0
171
     0
290
     0
174
     0
 93
        1
 44
0.0
173
     0
291
     1
 45
0.0
1001
ACAD
1000
AcDbSavedByObjectVersion
1070
     0
  0
VISUALSTYLE
  5
1091
102
{ACAD_XDICTIONARY
360
12DC
102
}
102
{ACAD_REACTORS
330
1082
102
}
330
1082
100
AcDbVisualStyle
  2
Facepattern
 70
    15
 71
     2
 72
     2
 73
     0
 90
        0
 40
-0.6
 41
-30.0
 62
     5
 63
     7
 74
     1
 91
        4
 64
     7
 65
   257
 75
     1
175
     1
 42
1.0
 92
        8
 66
     7
 43
1.0
 76
     1
 77
     6
 78
     2
 67
     7
 79
     5
170
     0
171
     0
290
     0
174
     0
 93
        1
 44
0.0
173
     0
291
     1
 45
0.0
1001
ACAD
1000
AcDbSavedByObjectVersion
1070
     0
  0
VISUALSTYLE
  5
1083
102
{ACAD_XDICTIONARY
360
12C0
102
}
102
{ACAD_REACTORS
330
1082
102
}
330
1082
100
AcDbVisualStyle
  2
Flat
 70
     0
 71
     2
 72
     1
 73
     1
 90
        2
 40
-0.6
 41
30.0
 62
     5
 63
     7
 74
     0
 91
        4
 64
     7
 65
   257
 75
     1
175
     1
 42
1.0
 92
        8
 66
     7
 43
1.0
 76
     1
 77
     6
 78
     2
 67
     7
 79
     5
170
     0
171
     0
290
     0
174
     0
 93
       13
 44
0.0
173
     0
291
     1
 45
0.0
1001
ACAD
1000
AcDbSavedByObjectVersion
1070
     0
  0
VISUALSTYLE
  5
1084
102
{ACAD_XDICTIONARY
360
12C2
102
}
102
{ACAD_REACTORS
330
1082
102
}
330
1082
100
AcDbVisualStyle
  2
FlatWithEdges
 70
     1
 71
     2
 72
     1
 73
     1
 90
        2
 40
-0.6
 41
30.0
 62
     5
 63
     7
 74
     1
 91
        4
 64
     7
 65
   257
 75
     1
175
     1
 42
1.0
 92
        0
 66
   257
 43
1.0
 76
     1
 77
     6
 78
     2
 67
     7
 79
     5
170
     0
171
     0
290
     0
174
     0
 93
       13
 44
0.0
173
     0
291
     1
 45
0.0
1001
ACAD
1000
AcDbSavedByObjectVersion
1070
     0
  0
VISUALSTYLE
  5
1085
102
{ACAD_XDICTIONARY
360
12C4
102
}
102
{ACAD_REACTORS
330
1082
102
}
330
1082
100
AcDbVisualStyle
  2
Gouraud
 70
     2
 71
     2
 72
     2
 73
     1
 90
        2
 40
-0.6
 41
30.0
 62
     5
 63
     7
 74
     0
 91
        4
 64
     7
 65
   257
 75
     1
175
     1
 42
1.0
 92
        0
 66
     7
 43
1.0
 76
     1
 77
     6
 78
     2
 67
     7
 79
     5
170
     0
171
     0
290
     0
174
     0
 93
       13
 44
0.0
173
     0
291
     1
 45
0.0
1001
ACAD
1000
AcDbSavedByObjectVersion
1070
     0
  0
VISUALSTYLE
  5
1086
102
{ACAD_XDICTIONARY
360
12C6
102
}
102
{ACAD_REACTORS
330
1082
102
}
330
1082
100
AcDbVisualStyle
  2
GouraudWithEdges
 70
     3
 71
     2
 72
     2
 73
     1
 90
        2
 40
-0.6
 41
30.0
 62
     5
 63
     7
 74
     1
 91
        4
 64
     7
 65
   257
 75
     1
175
     1
 42
1.0
 92
        0
 66
   257
 43
1.0
 76
     1
 77
     6
 78
     2
 67
     7
 79
     5
170
     0
171
     0
290
     0
174
     0
 93
       13
 44
0.0
173
     0
291
     1
 45
0.0
1001
ACAD
1000
AcDbSavedByObjectVersion
1070
     0
  0
VISUALSTYLE
  5
1093
102
{ACAD_XDICTIONARY
360
12E0
102
}
102
{ACAD_REACTORS
330
1082
102
}
330
1082
100
AcDbVisualStyle
  2
JitterOff
 70
    20
 71
     2
 72
     2
 73
     0
 90
        0
 40
-0.6
 41
-30.0
 62
     5
 63
     7
 74
     1
 91
        4
 64
     7
 65
   257
 75
     1
175
     1
 42
1.0
 92
       10
 66
     7
 43
1.0
 76
     1
 77
     6
 78
     2
 67
     7
 79
     5
170
     0
171
     0
290
     0
174
     0
 93
        1
 44
0.0
173
     0
291
     1
 45
0.0
1001
ACAD
1000
AcDbSavedByObjectVersion
1070
     0
  0
VISUALSTYLE
  5
1090
102
{ACAD_XDICTIONARY
360
12DA
102
}
102
{ACAD_REACTORS
330
1082
102
}
330
1082
100
AcDbVisualStyle
  2
Linepattern
 70
    14
 71
     2
 72
     2
 73
     0
 90
        0
 40
-0.6
 41
-30.0
 62
     5
 63
     7
 74
     1
 91
        4
 64
     7
 65
   257
 75
     7
175
     7
 42
1.0
 92
        8
 66
     7
 43
1.0
 76
     1
 77
     6
 78
     2
 67
     7
 79
     5
170
     0
171
     0
290
     0
174
     0
 93
        1
 44
0.0
173
     0
291
     1
 45
0.0
1001
ACAD
1000
AcDbSavedByObjectVersion
1070
     0
  0
VISUALSTYLE
  5
1094
102
{ACAD_XDICTIONARY
360
12E2
102
}
102
{ACAD_REACTORS
330
1082
102
}
330
1082
100
AcDbVisualStyle
  2
OverhangOff
 70
    21
 71
     2
 72
     2
 73
     0
 90
        0
 40
-0.6
 41
-30.0
 62
     5
 63
     7
 74
     1
 91
        4
 64
     7
 65
   257
 75
     1
175
     1
 42
1.0
 92
        9
 66
     7
 43
1.0
 76
     1
 77
     6
 78
     2
 67
     7
 79
     5
170
     0
171
     0
290
     0
174
     0
 93
        1
 44
0.0
173
     0
291
     1
 45
0.0
1001
ACAD
1000
AcDbSavedByObjectVersion
1070
     0
  0
VISUALSTYLE
  5
108C
102
{ACAD_XDICTIONARY
360
12D2
102
}
102
{ACAD_REACTORS
330
1082
102
}
330
1082
100
AcDbVisualStyle
  2
Realistic
 70
     8
 71
     2
 72
     2
 73
     0
 90
        0
 40
-0.6
 41
-30.0
 62
     5
 63
     7
 74
     1
 91
        0
 64
     7
 65
   257
 75
     1
175
     1
 42
1.0
 92
        8
 66
     8
 43
1.0
 76
     1
 77
     6
 78
     2
 67
     7
 79
     5
170
     0
171
     0
290
     0
174
     0
 93
       13
 44
0.0
173
     0
291
     0
 45
0.0
1001
ACAD
1000
AcDbSavedByObjectVersion
1070
     0
  0
VISUALSTYLE
  5
108F
102
{ACAD_XDICTIONARY
360
12D8
102
}
102
{ACAD_REACTORS
330
1082
102
}
330
1082
100
AcDbVisualStyle
  2
Thicken
 70
    13
 71
     2
 72
     2
 73
     0
 90
        0
 40
-0.6
 41
-30.0
 62
     5
 63
     7
 74
     1
 91
        4
 64
     7
 65
   257
 75
     1
175
     1
 42
1.0
 92
       12
 66
     7
 43
1.0
 76
     1
 77
     6
 78
     2
 67
     7
 79
     5
170
     0
171
     0
290
     0
174
     0
 93
        1
 44
0.0
173
     0
291
     1
 45
0.0
1001
ACAD
1000
AcDbSavedByObjectVersion
1070
     0
  0
DICTIONARYVAR
  5
12AC
102
{ACAD_REACTORS
330
3D
102
}
330
3D
100
DictionaryVariables
280
     0
  1
1:1
  0
DICTIONARYVAR
  5
12AB
102
{ACAD_REACTORS
330
3D
102
}
330
3D
100
DictionaryVariables
280
     0
  1
STANDARD
  0
DICTIONARYVAR
  5
1049
102
{ACAD_REACTORS
330
3D
102
}
330
3D
100
DictionaryVariables
280
     0
  1
STANDARD
  0
DICTIONARYVAR
  5
3F
102
{ACAD_REACTORS
330
3D
102
}
330
3D
100
DictionaryVariables
280
     0
  1
2
  0
DICTIONARYVAR
  5
3E
102
{ACAD_REACTORS
330
3D
102
}
330
3D
100
DictionaryVariables
280
     0
  1
1
  0
DICTIONARYVAR
  5
12AE
102
{ACAD_REACTORS
330
3D
102
}
330
3D
100
DictionaryVariables
280
     0
  1
0
  0
DICTIONARYVAR
  5
12AD
102
{ACAD_REACTORS
330
3D
102
}
330
3D
100
DictionaryVariables
280
     0
  1
127
  0
DICTIONARYVAR
  5
12AF
102
{ACAD_REACTORS
330
3D
102
}
330
3D
100
DictionaryVariables
280
     0
  1
0
  0
XRECORD
  5
1067
102
{ACAD_REACTORS
330
1066
102
}
330
1066
100
AcDbXrecord
280
     1
  0
DICTIONARY
  5
12B6
330
1E
100
AcDbDictionary
280
     1
281
     1
  3
ACAD_XREC_ROUNDTRIP
360
12B7
  0
DICTIONARY
  5
12BA
330
26
100
AcDbDictionary
280
     1
281
     1
  3
ACAD_XREC_ROUNDTRIP
360
12BB
  0
DICTIONARY
  5
12B8
330
22
100
AcDbDictionary
280
     1
281
     1
  3
ACAD_XREC_ROUNDTRIP
360
12B9
  0
DICTIONARY
  5
1073
330
1072
100
AcDbDictionary
280
     1
281
     1
  3
ACAD_XREC_ROUNDTRIP
360
12BE
  3
BUMPTILE
360
1075
  3
DIFFUSETILE
360
1074
  3
OPACITYTILE
360
1078
  3
REFLECTIONTILE
360
1077
  3
REFRACTIONTILE
360
1079
  3
SPECULARTILE
360
1076
  0
DICTIONARY
  5
106B
330
106A
100
AcDbDictionary
280
     1
281
     1
  3
ACAD_XREC_ROUNDTRIP
360
12BD
  3
BUMPTILE
360
106D
  3
DIFFUSETILE
360
106C
  3
OPACITYTILE
360
1070
  3
REFLECTIONTILE
360
106F
  3
REFRACTIONTILE
360
1071
  3
SPECULARTILE
360
106E
  0
DICTIONARY
  5
107B
330
107A
100
AcDbDictionary
280
     1
281
     1
  3
ACAD_XREC_ROUNDTRIP
360
12BF
  3
BUMPTILE
360
107D
  3
DIFFUSETILE
360
107C
  3
OPACITYTILE
360
1080
  3
REFLECTIONTILE
360
107F
  3
REFRACTIONTILE
360
1081
  3
SPECULARTILE
360
107E
  0
DICTIONARY
  5
12B0
330
EE8
100
AcDbDictionary
280
     1
281
     1
  3
ACAD_ROUNDTRIP_2008_TABLESTYLE_CELLSTYLEMAP
360
12B1
  3
ACAD_XREC_ROUNDTRIP
360
12BC
  0
DICTIONARY
  5
12CA
330
1088
100
AcDbDictionary
280
     1
281
     1
  3
ACAD_XREC_ROUNDTRIP
360
12CB
  0
DICTIONARY
  5
12CE
330
108A
100
AcDbDictionary
280
     1
281
     1
  3
ACAD_XREC_ROUNDTRIP
360
12CF
  0
DICTIONARY
  5
12CC
330
1089
100
AcDbDictionary
280
     1
281
     1
  3
ACAD_XREC_ROUNDTRIP
360
12CD
  0
DICTIONARY
  5
12C8
330
1087
100
AcDbDictionary
280
     1
281
     1
  3
ACAD_XREC_ROUNDTRIP
360
12C9
  0
DICTIONARY
  5
12D6
330
108E
100
AcDbDictionary
280
     1
281
     1
  3
ACAD_XREC_ROUNDTRIP
360
12D7
  0
DICTIONARY
  5
12DE
330
1092
100
AcDbDictionary
280
     1
281
     1
  3
ACAD_XREC_ROUNDTRIP
360
12DF
  0
DICTIONARY
  5
12D0
330
108B
100
AcDbDictionary
280
     1
281
     1
  3
ACAD_XREC_ROUNDTRIP
360
12D1
  0
DICTIONARY
  5
12D4
330
108D
100
AcDbDictionary
280
     1
281
     1
  3
ACAD_XREC_ROUNDTRIP
360
12D5
  0
DICTIONARY
  5
12E4
330
1095
100
AcDbDictionary
280
     1
281
     1
  3
ACAD_XREC_ROUNDTRIP
360
12E5
  0
DICTIONARY
  5
12DC
330
1091
100
AcDbDictionary
280
     1
281
     1
  3
ACAD_XREC_ROUNDTRIP
360
12DD
  0
DICTIONARY
  5
12C0
330
1083
100
AcDbDictionary
280
     1
281
     1
  3
ACAD_XREC_ROUNDTRIP
360
12C1
  0
DICTIONARY
  5
12C2
330
1084
100
AcDbDictionary
280
     1
281
     1
  3
ACAD_XREC_ROUNDTRIP
360
12C3
  0
DICTIONARY
  5
12C4
330
1085
100
AcDbDictionary
280
     1
281
     1
  3
ACAD_XREC_ROUNDTRIP
360
12C5
  0
DICTIONARY
  5
12C6
330
1086
100
AcDbDictionary
280
     1
281
     1
  3
ACAD_XREC_ROUNDTRIP
360
12C7
  0
DICTIONARY
  5
12E0
330
1093
100
AcDbDictionary
280
     1
281
     1
  3
ACAD_XREC_ROUNDTRIP
360
12E1
  0
DICTIONARY
  5
12DA
330
1090
100
AcDbDictionary
280
     1
281
     1
  3
ACAD_XREC_ROUNDTRIP
360
12DB
  0
DICTIONARY
  5
12E2
330
1094
100
AcDbDictionary
280
     1
281
     1
  3
ACAD_XREC_ROUNDTRIP
360
12E3
  0
DICTIONARY
  5
12D2
330
108C
100
AcDbDictionary
280
     1
281
     1
  3
ACAD_XREC_ROUNDTRIP
360
12D3
  0
DICTIONARY
  5
12D8
330
108F
100
AcDbDictionary
280
     1
281
     1
  3
ACAD_XREC_ROUNDTRIP
360
12D9
  0
XRECORD
  5
12B7
102
{ACAD_REACTORS
330
12B6
102
}
330
12B6
100
AcDbXrecord
280
     1
102
SHADEPLOT
 70
     0
102
SHADEPLOTRESLEVEL
 70
     2
102
SHADEPLOTCUSTOMDPI
 70
   300
  0
XRECORD
  5
12BB
102
{ACAD_REACTORS
330
12BA
102
}
330
12BA
100
AcDbXrecord
280
     1
102
SHADEPLOT
 70
     0
102
SHADEPLOTRESLEVEL
 70
     2
102
SHADEPLOTCUSTOMDPI
 70
   300
  0
XRECORD
  5
12B9
102
{ACAD_REACTORS
330
12B8
102
}
330
12B8
100
AcDbXrecord
280
     1
102
SHADEPLOT
 70
     0
102
SHADEPLOTRESLEVEL
 70
     2
102
SHADEPLOTCUSTOMDPI
 70
   300
  0
XRECORD
  5
12BE
102
{ACAD_REACTORS
330
1073
102
}
330
1073
100
AcDbXrecord
280
     1
102
MATERIAL
148
0.0
149
0.0
149
0.0
 93
        0
 94
      127
282
     0
 72
     0
 77
     0
171
     0
175
     0
179
     0
273
     0
  0
XRECORD
  5
1075
102
{ACAD_REACTORS
330
1073
102
}
330
1073
100
AcDbXrecord
280
     1
270
     1
271
     1
  0
XRECORD
  5
1074
102
{ACAD_REACTORS
330
1073
102
}
330
1073
100
AcDbXrecord
280
     1
270
     1
271
     1
  0
XRECORD
  5
1078
102
{ACAD_REACTORS
330
1073
102
}
330
1073
100
AcDbXrecord
280
     1
270
     1
271
     1
  0
XRECORD
  5
1077
102
{ACAD_REACTORS
330
1073
102
}
330
1073
100
AcDbXrecord
280
     1
270
     1
271
     1
  0
XRECORD
  5
1079
102
{ACAD_REACTORS
330
1073
102
}
330
1073
100
AcDbXrecord
280
     1
270
     1
271
     1
  0
XRECORD
  5
1076
102
{ACAD_REACTORS
330
1073
102
}
330
1073
100
AcDbXrecord
280
     1
270
     1
271
     1
  0
XRECORD
  5
12BD
102
{ACAD_REACTORS
330
106B
102
}
330
106B
100
AcDbXrecord
280
     1
102
MATERIAL
148
0.0
149
0.0
149
0.0
 93
        0
 94
      127
282
     0
 72
     0
 77
     0
171
     0
175
     0
179
     0
273
     0
  0
XRECORD
  5
106D
102
{ACAD_REACTORS
330
106B
102
}
330
106B
100
AcDbXrecord
280
     1
270
     1
271
     1
  0
XRECORD
  5
106C
102
{ACAD_REACTORS
330
106B
102
}
330
106B
100
AcDbXrecord
280
     1
270
     1
271
     1
  0
XRECORD
  5
1070
102
{ACAD_REACTORS
330
106B
102
}
330
106B
100
AcDbXrecord
280
     1
270
     1
271
     1
  0
XRECORD
  5
106F
102
{ACAD_REACTORS
330
106B
102
}
330
106B
100
AcDbXrecord
280
     1
270
     1
271
     1
  0
XRECORD
  5
1071
102
{ACAD_REACTORS
330
106B
102
}
330
106B
100
AcDbXrecord
280
     1
270
     1
271
     1
  0
XRECORD
  5
106E
102
{ACAD_REACTORS
330
106B
102
}
330
106B
100
AcDbXrecord
280
     1
270
     1
271
     1
  0
XRECORD
  5
12BF
102
{ACAD_REACTORS
330
107B
102
}
330
107B
100
AcDbXrecord
280
     1
102
MATERIAL
148
0.0
149
0.0
149
0.0
 93
        0
 94
      127
282
     0
 72
     0
 77
     0
171
     0
175
     0
179
     0
273
     0
  0
XRECORD
  5
107D
102
{ACAD_REACTORS
330
107B
102
}
330
107B
100
AcDbXrecord
280
     1
270
     1
271
     1
  0
XRECORD
  5
107C
102
{ACAD_REACTORS
330
107B
102
}
330
107B
100
AcDbXrecord
280
     1
270
     1
271
     1
  0
XRECORD
  5
1080
102
{ACAD_REACTORS
330
107B
102
}
330
107B
100
AcDbXrecord
280
     1
270
     1
271
     1
  0
XRECORD
  5
107F
102
{ACAD_REACTORS
330
107B
102
}
330
107B
100
AcDbXrecord
280
     1
270
     1
271
     1
  0
XRECORD
  5
1081
102
{ACAD_REACTORS
330
107B
102
}
330
107B
100
AcDbXrecord
280
     1
270
     1
271
     1
  0
XRECORD
  5
107E
102
{ACAD_REACTORS
330
107B
102
}
330
107B
100
AcDbXrecord
280
     1
270
     1
271
     1
  0
CELLSTYLEMAP
  5
12B1
102
{ACAD_REACTORS
330
12B0
102
}
330
12B0
100
AcDbCellStyleMap
 90
        3
300
CELLSTYLE
  1
TABLEFORMAT_BEGIN
 90
        5
170
     1
 91
        0
 92
    32768
 62
   257
 93
        1
300
CONTENTFORMAT
  1
CONTENTFORMAT_BEGIN
 90
        0
 91
        0
 92
        4
 93
        0
300

 40
0.0
140
1.0
 94
        5
 62
     0
340
11
144
6.0
309
CONTENTFORMAT_END
171
     1
301
MARGIN
  1
CELLMARGIN_BEGIN
 40
1.5
 40
1.5
 40
1.5
 40
1.5
 40
0.18
 40
0.18
309
CELLMARGIN_END
 94
        6
 95
        1
302
GRIDFORMAT
  1
GRIDFORMAT_BEGIN
 90
        0
 91
        1
 62
     0
 92
       -2
340
0
 93
        0
 40
0.045
309
GRIDFORMAT_END
 95
        2
302
GRIDFORMAT
  1
GRIDFORMAT_BEGIN
 90
        0
 91
        1
 62
     0
 92
       -2
340
0
 93
        0
 40
0.045
309
GRIDFORMAT_END
 95
        4
302
GRIDFORMAT
  1
GRIDFORMAT_BEGIN
 90
        0
 91
        1
 62
     0
 92
       -2
340
0
 93
        0
 40
0.045
309
GRIDFORMAT_END
 95
        8
302
GRIDFORMAT
  1
GRIDFORMAT_BEGIN
 90
        0
 91
        1
 62
     0
 92
       -2
340
0
 93
        0
 40
0.045
309
GRIDFORMAT_END
 95
       16
302
GRIDFORMAT
  1
GRIDFORMAT_BEGIN
 90
        0
 91
        1
 62
     0
 92
       -2
340
0
 93
        0
 40
0.045
309
GRIDFORMAT_END
 95
       32
302
GRIDFORMAT
  1
GRIDFORMAT_BEGIN
 90
        0
 91
        1
 62
     0
 92
       -2
340
0
 93
        0
 40
0.045
309
GRIDFORMAT_END
309
TABLEFORMAT_END
  1
CELLSTYLE_BEGIN
 90
        1
 91
        1
300
_TITLE
309
CELLSTYLE_END
300
CELLSTYLE
  1
TABLEFORMAT_BEGIN
 90
        5
170
     1
 91
        0
 92
        0
 62
   257
 93
        1
300
CONTENTFORMAT
  1
CONTENTFORMAT_BEGIN
 90
        0
 91
        0
 92
        4
 93
        0
300

 40
0.0
140
1.0
 94
        5
 62
     0
340
11
144
4.5
309
CONTENTFORMAT_END
171
     1
301
MARGIN
  1
CELLMARGIN_BEGIN
 40
1.5
 40
1.5
 40
1.5
 40
1.5
 40
0.18
 40
0.18
309
CELLMARGIN_END
 94
        6
 95
        1
302
GRIDFORMAT
  1
GRIDFORMAT_BEGIN
 90
        0
 91
        1
 62
     0
 92
       -2
340
0
 93
        0
 40
0.045
309
GRIDFORMAT_END
 95
        2
302
GRIDFORMAT
  1
GRIDFORMAT_BEGIN
 90
        0
 91
        1
 62
     0
 92
       -2
340
0
 93
        0
 40
0.045
309
GRIDFORMAT_END
 95
        4
302
GRIDFORMAT
  1
GRIDFORMAT_BEGIN
 90
        0
 91
        1
 62
     0
 92
       -2
340
0
 93
        0
 40
0.045
309
GRIDFORMAT_END
 95
        8
302
GRIDFORMAT
  1
GRIDFORMAT_BEGIN
 90
        0
 91
        1
 62
     0
 92
       -2
340
0
 93
        0
 40
0.045
309
GRIDFORMAT_END
 95
       16
302
GRIDFORMAT
  1
GRIDFORMAT_BEGIN
 90
        0
 91
        1
 62
     0
 92
       -2
340
0
 93
        0
 40
0.045
309
GRIDFORMAT_END
 95
       32
302
GRIDFORMAT
  1
GRIDFORMAT_BEGIN
 90
        0
 91
        1
 62
     0
 92
       -2
340
0
 93
        0
 40
0.045
309
GRIDFORMAT_END
309
TABLEFORMAT_END
  1
CELLSTYLE_BEGIN
 90
        2
 91
        1
300
_HEADER
309
CELLSTYLE_END
300
CELLSTYLE
  1
TABLEFORMAT_BEGIN
 90
        5
170
     1
 91
        0
 92
        0
 62
   257
 93
        1
300
CONTENTFORMAT
  1
CONTENTFORMAT_BEGIN
 90
        0
 91
        0
 92
        4
 93
        0
300

 40
0.0
140
1.0
 94
        2
 62
     0
340
11
144
4.5
309
CONTENTFORMAT_END
171
     1
301
MARGIN
  1
CELLMARGIN_BEGIN
 40
1.5
 40
1.5
 40
1.5
 40
1.5
 40
0.18
 40
0.18
309
CELLMARGIN_END
 94
        6
 95
        1
302
GRIDFORMAT
  1
GRIDFORMAT_BEGIN
 90
        0
 91
        1
 62
     0
 92
       -2
340
0
 93
        0
 40
0.045
309
GRIDFORMAT_END
 95
        2
302
GRIDFORMAT
  1
GRIDFORMAT_BEGIN
 90
        0
 91
        1
 62
     0
 92
       -2
340
0
 93
        0
 40
0.045
309
GRIDFORMAT_END
 95
        4
302
GRIDFORMAT
  1
GRIDFORMAT_BEGIN
 90
        0
 91
        1
 62
     0
 92
       -2
340
0
 93
        0
 40
0.045
309
GRIDFORMAT_END
 95
        8
302
GRIDFORMAT
  1
GRIDFORMAT_BEGIN
 90
        0
 91
        1
 62
     0
 92
       -2
340
0
 93
        0
 40
0.045
309
GRIDFORMAT_END
 95
       16
302
GRIDFORMAT
  1
GRIDFORMAT_BEGIN
 90
        0
 91
        1
 62
     0
 92
       -2
340
0
 93
        0
 40
0.045
309
GRIDFORMAT_END
 95
       32
302
GRIDFORMAT
  1
GRIDFORMAT_BEGIN
 90
        0
 91
        1
 62
     0
 92
       -2
340
0
 93
        0
 40
0.045
309
GRIDFORMAT_END
309
TABLEFORMAT_END
  1
CELLSTYLE_BEGIN
 90
        3
 91
        2
300
_DATA
309
CELLSTYLE_END
  0
XRECORD
  5
12BC
102
{ACAD_REACTORS
330
12B0
102
}
330
12B0
100
AcDbXrecord
280
     1
102
ACAD_ROUNDTRIP_PRE2007_TABLESTYLE
 90
        4
 91
        0
  1

 92
        4
 93
        0
  2

 94
        4
 95
        0
  3

  0
XRECORD
  5
12CB
102
{ACAD_REACTORS
330
12CA
102
}
330
12CA
100
AcDbXrecord
280
     1
102
RTVSPropertyOp0
 70
     1
102
RTVSPropertyOp1
 70
     1
102
RTVSPropertyOp2
 70
     1
102
RTVSPropertyOp3
 70
     1
102
RTVSPropertyOp4
 70
     1
102
RTVSPropertyOp5
 70
     1
102
RTVSPropertyOp6
 70
     1
102
RTVSPropertyOp7
 70
     1
102
RTVSPropertyOp8
 70
     1
102
RTVSPropertyOp9
 70
     1
102
RTVSPropertyOp10
 70
     1
102
RTVSPropertyOp11
 70
     1
102
RTVSPropertyOp12
 70
     1
102
RTVSPropertyOp13
 70
     1
102
RTVSPropertyOp14
 70
     1
102
RTVSPropertyOp15
 70
     1
102
RTVSPropertyOp16
 70
     1
102
RTVSPropertyOp17
 70
     1
102
RTVSPropertyOp18
 70
     1
102
RTVSPropertyOp19
 70
     1
102
RTVSPropertyOp20
 70
     1
102
RTVSPropertyOp21
 70
     1
102
RTVSPropertyOp22
 70
     1
102
RTVSPropertyOp23
 70
     1
102
RTVSPropertyOp24
 70
     1
102
RTVSPropertyOp25
 70
     1
102
RTVSPropertyOp26
 70
     1
102
RTVSPropertyOp27
 70
     1
  0
XRECORD
  5
12CF
102
{ACAD_REACTORS
330
12CE
102
}
330
12CE
100
AcDbXrecord
280
     1
102
RTVSPropertyOp0
 70
     1
102
RTVSPropertyOp1
 70
     1
102
RTVSPropertyOp2
 70
     1
102
RTVSPropertyOp3
 70
     1
102
RTVSPropertyOp4
 70
     1
102
RTVSPropertyOp5
 70
     1
102
RTVSPropertyOp6
 70
     1
102
RTVSPropertyOp7
 70
     1
102
RTVSPropertyOp8
 70
     1
102
RTVSPropertyOp9
 70
     1
102
RTVSPropertyOp10
 70
     1
102
RTVSPropertyOp11
 70
     1
102
RTVSPropertyOp12
 70
     1
102
RTVSPropertyOp13
 70
     1
102
RTVSPropertyOp14
 70
     1
102
RTVSPropertyOp15
 70
     1
102
RTVSPropertyOp16
 70
     1
102
RTVSPropertyOp17
 70
     1
102
RTVSPropertyOp18
 70
     1
102
RTVSPropertyOp19
 70
     1
102
RTVSPropertyOp20
 70
     1
102
RTVSPropertyOp21
 70
     1
102
RTVSPropertyOp22
 70
     1
102
RTVSPropertyOp23
 70
     1
102
RTVSPropertyOp24
 70
     1
102
RTVSPropertyOp25
 70
     1
102
RTVSPropertyOp26
 70
     1
102
RTVSPropertyOp27
 70
     1
  0
XRECORD
  5
12CD
102
{ACAD_REACTORS
330
12CC
102
}
330
12CC
100
AcDbXrecord
280
     1
102
RTVSPropertyOp0
 70
     1
102
RTVSPropertyOp1
 70
     1
102
RTVSPropertyOp2
 70
     1
102
RTVSPropertyOp3
 70
     1
102
RTVSPropertyOp4
 70
     1
102
RTVSPropertyOp5
 70
     1
102
RTVSPropertyOp6
 70
     1
102
RTVSPropertyOp7
 70
     1
102
RTVSPropertyOp8
 70
     1
102
RTVSPropertyOp9
 70
     1
102
RTVSPropertyOp10
 70
     1
102
RTVSPropertyOp11
 70
     1
102
RTVSPropertyOp12
 70
     1
102
RTVSPropertyOp13
 70
     1
102
RTVSPropertyOp14
 70
     1
102
RTVSPropertyOp15
 70
     1
102
RTVSPropertyOp16
 70
     1
102
RTVSPropertyOp17
 70
     1
102
RTVSPropertyOp18
 70
     1
102
RTVSPropertyOp19
 70
     1
102
RTVSPropertyOp20
 70
     1
102
RTVSPropertyOp21
 70
     1
102
RTVSPropertyOp22
 70
     1
102
RTVSPropertyOp23
 70
     1
102
RTVSPropertyOp24
 70
     1
102
RTVSPropertyOp25
 70
     1
102
RTVSPropertyOp26
 70
     1
102
RTVSPropertyOp27
 70
     1
  0
XRECORD
  5
12C9
102
{ACAD_REACTORS
330
12C8
102
}
330
12C8
100
AcDbXrecord
280
     1
102
RTVSPropertyOp0
 70
     1
102
RTVSPropertyOp1
 70
     1
102
RTVSPropertyOp2
 70
     1
102
RTVSPropertyOp3
 70
     1
102
RTVSPropertyOp4
 70
     1
102
RTVSPropertyOp5
 70
     1
102
RTVSPropertyOp6
 70
     1
102
RTVSPropertyOp7
 70
     1
102
RTVSPropertyOp8
 70
     1
102
RTVSPropertyOp9
 70
     1
102
RTVSPropertyOp10
 70
     1
102
RTVSPropertyOp11
 70
     1
102
RTVSPropertyOp12
 70
     1
102
RTVSPropertyOp13
 70
     1
102
RTVSPropertyOp14
 70
     1
102
RTVSPropertyOp15
 70
     1
102
RTVSPropertyOp16
 70
     1
102
RTVSPropertyOp17
 70
     1
102
RTVSPropertyOp18
 70
     1
102
RTVSPropertyOp19
 70
     1
102
RTVSPropertyOp20
 70
     1
102
RTVSPropertyOp21
 70
     1
102
RTVSPropertyOp22
 70
     1
102
RTVSPropertyOp23
 70
     1
102
RTVSPropertyOp24
 70
     1
102
RTVSPropertyOp25
 70
     1
102
RTVSPropertyOp26
 70
     1
102
RTVSPropertyOp27
 70
     1
  0
XRECORD
  5
12D7
102
{ACAD_REACTORS
330
12D6
102
}
330
12D6
100
AcDbXrecord
280
     1
102
RTVSPropertyOp0
 70
     1
102
RTVSPropertyOp1
 70
     1
102
RTVSPropertyOp2
 70
     1
102
RTVSPropertyOp3
 70
     1
102
RTVSPropertyOp4
 70
     1
102
RTVSPropertyOp5
 70
     1
102
RTVSPropertyOp6
 70
     1
102
RTVSPropertyOp7
 70
     1
102
RTVSPropertyOp8
 70
     1
102
RTVSPropertyOp9
 70
     1
102
RTVSPropertyOp10
 70
     1
102
RTVSPropertyOp11
 70
     1
102
RTVSPropertyOp12
 70
     1
102
RTVSPropertyOp13
 70
     1
102
RTVSPropertyOp14
 70
     1
102
RTVSPropertyOp15
 70
     1
102
RTVSPropertyOp16
 70
     1
102
RTVSPropertyOp17
 70
     1
102
RTVSPropertyOp18
 70
     1
102
RTVSPropertyOp19
 70
     1
102
RTVSPropertyOp20
 70
     1
102
RTVSPropertyOp21
 70
     1
102
RTVSPropertyOp22
 70
     1
102
RTVSPropertyOp23
 70
     1
102
RTVSPropertyOp24
 70
     1
102
RTVSPropertyOp25
 70
     1
102
RTVSPropertyOp26
 70
     1
102
RTVSPropertyOp27
 70
     1
  0
XRECORD
  5
12DF
102
{ACAD_REACTORS
330
12DE
102
}
330
12DE
100
AcDbXrecord
280
     1
102
RTVSPropertyOp0
 70
     1
102
RTVSPropertyOp1
 70
     1
102
RTVSPropertyOp2
 70
     1
102
RTVSPropertyOp3
 70
     1
102
RTVSPropertyOp4
 70
     1
102
RTVSPropertyOp5
 70
     1
102
RTVSPropertyOp6
 70
     1
102
RTVSPropertyOp7
 70
     1
102
RTVSPropertyOp8
 70
     1
102
RTVSPropertyOp9
 70
     1
102
RTVSPropertyOp10
 70
     1
102
RTVSPropertyOp11
 70
     1
102
RTVSPropertyOp12
 70
     1
102
RTVSPropertyOp13
 70
     1
102
RTVSPropertyOp14
 70
     1
102
RTVSPropertyOp15
 70
     1
102
RTVSPropertyOp16
 70
     1
102
RTVSPropertyOp17
 70
     1
102
RTVSPropertyOp18
 70
     1
102
RTVSPropertyOp19
 70
     1
102
RTVSPropertyOp20
 70
     1
102
RTVSPropertyOp21
 70
     1
102
RTVSPropertyOp22
 70
     1
102
RTVSPropertyOp23
 70
     1
102
RTVSPropertyOp24
 70
     1
102
RTVSPropertyOp25
 70
     1
102
RTVSPropertyOp26
 70
     1
102
RTVSPropertyOp27
 70
     1
  0
XRECORD
  5
12D1
102
{ACAD_REACTORS
330
12D0
102
}
330
12D0
100
AcDbXrecord
280
     1
102
RTVSPropertyOp0
 70
     1
102
RTVSPropertyOp1
 70
     1
102
RTVSPropertyOp2
 70
     1
102
RTVSPropertyOp3
 70
     1
102
RTVSPropertyOp4
 70
     1
102
RTVSPropertyOp5
 70
     1
102
RTVSPropertyOp6
 70
     1
102
RTVSPropertyOp7
 70
     1
102
RTVSPropertyOp8
 70
     1
102
RTVSPropertyOp9
 70
     1
102
RTVSPropertyOp10
 70
     1
102
RTVSPropertyOp11
 70
     1
102
RTVSPropertyOp12
 70
     1
102
RTVSPropertyOp13
 70
     1
102
RTVSPropertyOp14
 70
     1
102
RTVSPropertyOp15
 70
     1
102
RTVSPropertyOp16
 70
     1
102
RTVSPropertyOp17
 70
     1
102
RTVSPropertyOp18
 70
     1
102
RTVSPropertyOp19
 70
     1
102
RTVSPropertyOp20
 70
     1
102
RTVSPropertyOp21
 70
     1
102
RTVSPropertyOp22
 70
     1
102
RTVSPropertyOp23
 70
     1
102
RTVSPropertyOp24
 70
     1
102
RTVSPropertyOp25
 70
     1
102
RTVSPropertyOp26
 70
     1
102
RTVSPropertyOp27
 70
     1
  0
XRECORD
  5
12D5
102
{ACAD_REACTORS
330
12D4
102
}
330
12D4
100
AcDbXrecord
280
     1
102
RTVSPropertyOp0
 70
     1
102
RTVSPropertyOp1
 70
     1
102
RTVSPropertyOp2
 70
     1
102
RTVSPropertyOp3
 70
     1
102
RTVSPropertyOp4
 70
     1
102
RTVSPropertyOp5
 70
     1
102
RTVSPropertyOp6
 70
     1
102
RTVSPropertyOp7
 70
     1
102
RTVSPropertyOp8
 70
     1
102
RTVSPropertyOp9
 70
     1
102
RTVSPropertyOp10
 70
     1
102
RTVSPropertyOp11
 70
     1
102
RTVSPropertyOp12
 70
     1
102
RTVSPropertyOp13
 70
     1
102
RTVSPropertyOp14
 70
     1
102
RTVSPropertyOp15
 70
     1
102
RTVSPropertyOp16
 70
     1
102
RTVSPropertyOp17
 70
     1
102
RTVSPropertyOp18
 70
     1
102
RTVSPropertyOp19
 70
     1
102
RTVSPropertyOp20
 70
     1
102
RTVSPropertyOp21
 70
     1
102
RTVSPropertyOp22
 70
     1
102
RTVSPropertyOp23
 70
     1
102
RTVSPropertyOp24
 70
     1
102
RTVSPropertyOp25
 70
     1
102
RTVSPropertyOp26
 70
     1
102
RTVSPropertyOp27
 70
     1
  0
XRECORD
  5
12E5
102
{ACAD_REACTORS
330
12E4
102
}
330
12E4
100
AcDbXrecord
280
     1
102
RTVSPropertyOp0
 70
     0
102
RTVSPropertyOp1
 70
     0
102
RTVSPropertyOp2
 70
     0
102
RTVSPropertyOp3
 70
     0
102
RTVSPropertyOp4
 70
     0
102
RTVSPropertyOp5
 70
     0
102
RTVSPropertyOp6
 70
     0
102
RTVSPropertyOp7
 70
     0
102
RTVSPropertyOp8
 70
     0
102
RTVSPropertyOp9
 70
     0
102
RTVSPropertyOp10
 70
     0
102
RTVSPropertyOp11
 70
     0
102
RTVSPropertyOp12
 70
     0
102
RTVSPropertyOp13
 70
     0
102
RTVSPropertyOp14
 70
     2
102
RTVSPropertyOp15
 70
     0
102
RTVSPropertyOp16
 70
     0
102
RTVSPropertyOp17
 70
     0
102
RTVSPropertyOp18
 70
     0
102
RTVSPropertyOp19
 70
     0
102
RTVSPropertyOp20
 70
     0
102
RTVSPropertyOp21
 70
     0
102
RTVSPropertyOp22
 70
     0
102
RTVSPropertyOp23
 70
     0
102
RTVSPropertyOp24
 70
     0
102
RTVSPropertyOp25
 70
     0
102
RTVSPropertyOp26
 70
     0
102
RTVSPropertyOp27
 70
     0
  0
XRECORD
  5
12DD
102
{ACAD_REACTORS
330
12DC
102
}
330
12DC
100
AcDbXrecord
280
     1
102
RTVSPropertyOp0
 70
     1
102
RTVSPropertyOp1
 70
     1
102
RTVSPropertyOp2
 70
     1
102
RTVSPropertyOp3
 70
     1
102
RTVSPropertyOp4
 70
     1
102
RTVSPropertyOp5
 70
     1
102
RTVSPropertyOp6
 70
     1
102
RTVSPropertyOp7
 70
     1
102
RTVSPropertyOp8
 70
     1
102
RTVSPropertyOp9
 70
     1
102
RTVSPropertyOp10
 70
     1
102
RTVSPropertyOp11
 70
     1
102
RTVSPropertyOp12
 70
     1
102
RTVSPropertyOp13
 70
     1
102
RTVSPropertyOp14
 70
     1
102
RTVSPropertyOp15
 70
     1
102
RTVSPropertyOp16
 70
     1
102
RTVSPropertyOp17
 70
     1
102
RTVSPropertyOp18
 70
     1
102
RTVSPropertyOp19
 70
     1
102
RTVSPropertyOp20
 70
     1
102
RTVSPropertyOp21
 70
     1
102
RTVSPropertyOp22
 70
     1
102
RTVSPropertyOp23
 70
     1
102
RTVSPropertyOp24
 70
     1
102
RTVSPropertyOp25
 70
     1
102
RTVSPropertyOp26
 70
     1
102
RTVSPropertyOp27
 70
     1
  0
XRECORD
  5
12C1
102
{ACAD_REACTORS
330
12C0
102
}
330
12C0
100
AcDbXrecord
280
     1
102
RTVSPropertyOp0
 70
     1
102
RTVSPropertyOp1
 70
     1
102
RTVSPropertyOp2
 70
     1
102
RTVSPropertyOp3
 70
     1
102
RTVSPropertyOp4
 70
     1
102
RTVSPropertyOp5
 70
     1
102
RTVSPropertyOp6
 70
     1
102
RTVSPropertyOp7
 70
     1
102
RTVSPropertyOp8
 70
     1
102
RTVSPropertyOp9
 70
     1
102
RTVSPropertyOp10
 70
     1
102
RTVSPropertyOp11
 70
     1
102
RTVSPropertyOp12
 70
     1
102
RTVSPropertyOp13
 70
     1
102
RTVSPropertyOp14
 70
     1
102
RTVSPropertyOp15
 70
     1
102
RTVSPropertyOp16
 70
     1
102
RTVSPropertyOp17
 70
     1
102
RTVSPropertyOp18
 70
     1
102
RTVSPropertyOp19
 70
     1
102
RTVSPropertyOp20
 70
     1
102
RTVSPropertyOp21
 70
     1
102
RTVSPropertyOp22
 70
     1
102
RTVSPropertyOp23
 70
     1
102
RTVSPropertyOp24
 70
     1
102
RTVSPropertyOp25
 70
     1
102
RTVSPropertyOp26
 70
     1
102
RTVSPropertyOp27
 70
     1
  0
XRECORD
  5
12C3
102
{ACAD_REACTORS
330
12C2
102
}
330
12C2
100
AcDbXrecord
280
     1
102
RTVSPropertyOp0
 70
     1
102
RTVSPropertyOp1
 70
     1
102
RTVSPropertyOp2
 70
     1
102
RTVSPropertyOp3
 70
     1
102
RTVSPropertyOp4
 70
     1
102
RTVSPropertyOp5
 70
     1
102
RTVSPropertyOp6
 70
     1
102
RTVSPropertyOp7
 70
     1
102
RTVSPropertyOp8
 70
     1
102
RTVSPropertyOp9
 70
     1
102
RTVSPropertyOp10
 70
     1
102
RTVSPropertyOp11
 70
     1
102
RTVSPropertyOp12
 70
     1
102
RTVSPropertyOp13
 70
     1
102
RTVSPropertyOp14
 70
     1
102
RTVSPropertyOp15
 70
     1
102
RTVSPropertyOp16
 70
     1
102
RTVSPropertyOp17
 70
     1
102
RTVSPropertyOp18
 70
     1
102
RTVSPropertyOp19
 70
     1
102
RTVSPropertyOp20
 70
     1
102
RTVSPropertyOp21
 70
     1
102
RTVSPropertyOp22
 70
     1
102
RTVSPropertyOp23
 70
     1
102
RTVSPropertyOp24
 70
     1
102
RTVSPropertyOp25
 70
     1
102
RTVSPropertyOp26
 70
     1
102
RTVSPropertyOp27
 70
     1
  0
XRECORD
  5
12C5
102
{ACAD_REACTORS
330
12C4
102
}
330
12C4
100
AcDbXrecord
280
     1
102
RTVSPropertyOp0
 70
     1
102
RTVSPropertyOp1
 70
     1
102
RTVSPropertyOp2
 70
     1
102
RTVSPropertyOp3
 70
     1
102
RTVSPropertyOp4
 70
     1
102
RTVSPropertyOp5
 70
     1
102
RTVSPropertyOp6
 70
     1
102
RTVSPropertyOp7
 70
     1
102
RTVSPropertyOp8
 70
     1
102
RTVSPropertyOp9
 70
     1
102
RTVSPropertyOp10
 70
     1
102
RTVSPropertyOp11
 70
     1
102
RTVSPropertyOp12
 70
     1
102
RTVSPropertyOp13
 70
     1
102
RTVSPropertyOp14
 70
     1
102
RTVSPropertyOp15
 70
     1
102
RTVSPropertyOp16
 70
     1
102
RTVSPropertyOp17
 70
     1
102
RTVSPropertyOp18
 70
     1
102
RTVSPropertyOp19
 70
     1
102
RTVSPropertyOp20
 70
     1
102
RTVSPropertyOp21
 70
     1
102
RTVSPropertyOp22
 70
     1
102
RTVSPropertyOp23
 70
     1
102
RTVSPropertyOp24
 70
     1
102
RTVSPropertyOp25
 70
     1
102
RTVSPropertyOp26
 70
     1
102
RTVSPropertyOp27
 70
     1
  0
XRECORD
  5
12C7
102
{ACAD_REACTORS
330
12C6
102
}
330
12C6
100
AcDbXrecord
280
     1
102
RTVSPropertyOp0
 70
     1
102
RTVSPropertyOp1
 70
     1
102
RTVSPropertyOp2
 70
     1
102
RTVSPropertyOp3
 70
     1
102
RTVSPropertyOp4
 70
     1
102
RTVSPropertyOp5
 70
     1
102
RTVSPropertyOp6
 70
     1
102
RTVSPropertyOp7
 70
     1
102
RTVSPropertyOp8
 70
     1
102
RTVSPropertyOp9
 70
     1
102
RTVSPropertyOp10
 70
     1
102
RTVSPropertyOp11
 70
     1
102
RTVSPropertyOp12
 70
     1
102
RTVSPropertyOp13
 70
     1
102
RTVSPropertyOp14
 70
     1
102
RTVSPropertyOp15
 70
     1
102
RTVSPropertyOp16
 70
     1
102
RTVSPropertyOp17
 70
     1
102
RTVSPropertyOp18
 70
     1
102
RTVSPropertyOp19
 70
     1
102
RTVSPropertyOp20
 70
     1
102
RTVSPropertyOp21
 70
     1
102
RTVSPropertyOp22
 70
     1
102
RTVSPropertyOp23
 70
     1
102
RTVSPropertyOp24
 70
     1
102
RTVSPropertyOp25
 70
     1
102
RTVSPropertyOp26
 70
     1
102
RTVSPropertyOp27
 70
     1
  0
XRECORD
  5
12E1
102
{ACAD_REACTORS
330
12E0
102
}
330
12E0
100
AcDbXrecord
280
     1
102
RTVSPropertyOp0
 70
     0
102
RTVSPropertyOp1
 70
     0
102
RTVSPropertyOp2
 70
     0
102
RTVSPropertyOp3
 70
     0
102
RTVSPropertyOp4
 70
     0
102
RTVSPropertyOp5
 70
     0
102
RTVSPropertyOp6
 70
     0
102
RTVSPropertyOp7
 70
     0
102
RTVSPropertyOp8
 70
     0
102
RTVSPropertyOp9
 70
     0
102
RTVSPropertyOp10
 70
     0
102
RTVSPropertyOp11
 70
     0
102
RTVSPropertyOp12
 70
     0
102
RTVSPropertyOp13
 70
     0
102
RTVSPropertyOp14
 70
     2
102
RTVSPropertyOp15
 70
     0
102
RTVSPropertyOp16
 70
     0
102
RTVSPropertyOp17
 70
     0
102
RTVSPropertyOp18
 70
     0
102
RTVSPropertyOp19
 70
     0
102
RTVSPropertyOp20
 70
     0
102
RTVSPropertyOp21
 70
     0
102
RTVSPropertyOp22
 70
     0
102
RTVSPropertyOp23
 70
     0
102
RTVSPropertyOp24
 70
     0
102
RTVSPropertyOp25
 70
     0
102
RTVSPropertyOp26
 70
     0
102
RTVSPropertyOp27
 70
     0
  0
XRECORD
  5
12DB
102
{ACAD_REACTORS
330
12DA
102
}
330
12DA
100
AcDbXrecord
280
     1
102
RTVSPropertyOp0
 70
     1
102
RTVSPropertyOp1
 70
     1
102
RTVSPropertyOp2
 70
     1
102
RTVSPropertyOp3
 70
     1
102
RTVSPropertyOp4
 70
     1
102
RTVSPropertyOp5
 70
     1
102
RTVSPropertyOp6
 70
     1
102
RTVSPropertyOp7
 70
     1
102
RTVSPropertyOp8
 70
     1
102
RTVSPropertyOp9
 70
     1
102
RTVSPropertyOp10
 70
     1
102
RTVSPropertyOp11
 70
     1
102
RTVSPropertyOp12
 70
     1
102
RTVSPropertyOp13
 70
     1
102
RTVSPropertyOp14
 70
     1
102
RTVSPropertyOp15
 70
     1
102
RTVSPropertyOp16
 70
     1
102
RTVSPropertyOp17
 70
     1
102
RTVSPropertyOp18
 70
     1
102
RTVSPropertyOp19
 70
     1
102
RTVSPropertyOp20
 70
     1
102
RTVSPropertyOp21
 70
     1
102
RTVSPropertyOp22
 70
     1
102
RTVSPropertyOp23
 70
     1
102
RTVSPropertyOp24
 70
     1
102
RTVSPropertyOp25
 70
     1
102
RTVSPropertyOp26
 70
     1
102
RTVSPropertyOp27
 70
     1
  0
XRECORD
  5
12E3
102
{ACAD_REACTORS
330
12E2
102
}
330
12E2
100
AcDbXrecord
280
     1
102
RTVSPropertyOp0
 70
     0
102
RTVSPropertyOp1
 70
     0
102
RTVSPropertyOp2
 70
     0
102
RTVSPropertyOp3
 70
     0
102
RTVSPropertyOp4
 70
     0
102
RTVSPropertyOp5
 70
     0
102
RTVSPropertyOp6
 70
     0
102
RTVSPropertyOp7
 70
     0
102
RTVSPropertyOp8
 70
     0
102
RTVSPropertyOp9
 70
     0
102
RTVSPropertyOp10
 70
     0
102
RTVSPropertyOp11
 70
     0
102
RTVSPropertyOp12
 70
     0
102
RTVSPropertyOp13
 70
     0
102
RTVSPropertyOp14
 70
     2
102
RTVSPropertyOp15
 70
     0
102
RTVSPropertyOp16
 70
     0
102
RTVSPropertyOp17
 70
     0
102
RTVSPropertyOp18
 70
     0
102
RTVSPropertyOp19
 70
     0
102
RTVSPropertyOp20
 70
     0
102
RTVSPropertyOp21
 70
     0
102
RTVSPropertyOp22
 70
     0
102
RTVSPropertyOp23
 70
     0
102
RTVSPropertyOp24
 70
     0
102
RTVSPropertyOp25
 70
     0
102
RTVSPropertyOp26
 70
     0
102
RTVSPropertyOp27
 70
     0
  0
XRECORD
  5
12D3
102
{ACAD_REACTORS
330
12D2
102
}
330
12D2
100
AcDbXrecord
280
     1
102
RTVSPropertyOp0
 70
     1
102
RTVSPropertyOp1
 70
     1
102
RTVSPropertyOp2
 70
     1
102
RTVSPropertyOp3
 70
     1
102
RTVSPropertyOp4
 70
     1
102
RTVSPropertyOp5
 70
     1
102
RTVSPropertyOp6
 70
     1
102
RTVSPropertyOp7
 70
     1
102
RTVSPropertyOp8
 70
     1
102
RTVSPropertyOp9
 70
     1
102
RTVSPropertyOp10
 70
     1
102
RTVSPropertyOp11
 70
     1
102
RTVSPropertyOp12
 70
     1
102
RTVSPropertyOp13
 70
     1
102
RTVSPropertyOp14
 70
     1
102
RTVSPropertyOp15
 70
     1
102
RTVSPropertyOp16
 70
     1
102
RTVSPropertyOp17
 70
     1
102
RTVSPropertyOp18
 70
     1
102
RTVSPropertyOp19
 70
     1
102
RTVSPropertyOp20
 70
     1
102
RTVSPropertyOp21
 70
     1
102
RTVSPropertyOp22
 70
     1
102
RTVSPropertyOp23
 70
     1
102
RTVSPropertyOp24
 70
     1
102
RTVSPropertyOp25
 70
     1
102
RTVSPropertyOp26
 70
     1
102
RTVSPropertyOp27
 70
     1
  0
XRECORD
  5
12D9
102
{ACAD_REACTORS
330
12D8
102
}
330
12D8
100
AcDbXrecord
280
     1
102
RTVSPropertyOp0
 70
     1
102
RTVSPropertyOp1
 70
     1
102
RTVSPropertyOp2
 70
     1
102
RTVSPropertyOp3
 70
     1
102
RTVSPropertyOp4
 70
     1
102
RTVSPropertyOp5
 70
     1
102
RTVSPropertyOp6
 70
     1
102
RTVSPropertyOp7
 70
     1
102
RTVSPropertyOp8
 70
     1
102
RTVSPropertyOp9
 70
     1
102
RTVSPropertyOp10
 70
     1
102
RTVSPropertyOp11
 70
     1
102
RTVSPropertyOp12
 70
     1
102
RTVSPropertyOp13
 70
     1
102
RTVSPropertyOp14
 70
     1
102
RTVSPropertyOp15
 70
     1
102
RTVSPropertyOp16
 70
     1
102
RTVSPropertyOp17
 70
     1
102
RTVSPropertyOp18
 70
     1
102
RTVSPropertyOp19
 70
     1
102
RTVSPropertyOp20
 70
     1
102
RTVSPropertyOp21
 70
     1
102
RTVSPropertyOp22
 70
     1
102
RTVSPropertyOp23
 70
     1
102
RTVSPropertyOp24
 70
     1
102
RTVSPropertyOp25
 70
     1
102
RTVSPropertyOp26
 70
     1
102
RTVSPropertyOp27
 70
     1
  0
ENDSEC
  0
EOF
