  0
SECTION
  2
HEADER
  9
$ACADVER
  1
AC1015
  9
$ACADMAINTVER
 70
    20
  9
$DWGCODEPAGE
  3
ANSI_1252
  9
$INSBASE
 10
0.0
 20
0.0
 30
0.0
  9
$EXTMIN
 10
4975.300519372854
 20
1415.365792078508
 30
0.0
  9
$EXTMAX
 10
4977.900052620587
 20
1415.905792078515
 30
0.0
  9
$LIMMIN
 10
0.0
 20
0.0
  9
$LIMMAX
 10
420.0
 20
297.0
  9
$ORTHOMODE
 70
     0
  9
$REGENMODE
 70
     1
  9
$FILLMODE
 70
     1
  9
$QTEXTMODE
 70
     0
  9
$MIRRTEXT
 70
     1
  9
$LTSCALE
 40
1.0
  9
$ATTMODE
 70
     1
  9
$TEXTSIZE
 40
2.5
  9
$TRACEWID
 40
1.0
  9
$TEXTSTYLE
  7
SANINDUSA
  9
$CLAYER
  8
cotas
  9
$CELTYPE
  6
ByLayer
  9
$CECOLOR
 62
   256
  9
$CELTSCALE
 40
1.0
  9
$DISPSILH
 70
     0
  9
$DIMSCALE
 40
1.0
  9
$DIMASZ
 40
2.0
  9
$DIMEXO
 40
1.0
  9
$DIMDLI
 40
1.0
  9
$DIMRND
 40
0.0
  9
$DIMDLE
 40
0.0
  9
$DIMEXE
 40
1.0
  9
$DIMTP
 40
0.0
  9
$DIMTM
 40
0.0
  9
$DIMTXT
 40
2.0
  9
$DIMCEN
 40
0.0
  9
$DIMTSZ
 40
0.0
  9
$DIMTOL
 70
     0
  9
$DIMLIM
 70
     0
  9
$DIMTIH
 70
     0
  9
$DIMTOH
 70
     0
  9
$DIMSE1
 70
     0
  9
$DIMSE2
 70
     0
  9
$DIMTAD
 70
     1
  9
$DIMZIN
 70
     8
  9
$DIMBLK
  1

  9
$DIMASO
 70
     1
  9
$DIMSHO
 70
     1
  9
$DIMPOST
  1

  9
$DIMAPOST
  1

  9
$DIMALT
 70
     0
  9
$DIMALTD
 70
     3
  9
$DIMALTF
 40
0.03937007874016
  9
$DIMLFAC
 40
1.0
  9
$DIMTOFL
 70
     1
  9
$DIMTVP
 40
0.0
  9
$DIMTIX
 70
     0
  9
$DIMSOXD
 70
     0
  9
$DIMSAH
 70
     0
  9
$DIMBLK1
  1

  9
$DIMBLK2
  1

  9
$DIMSTYLE
  2
SANINDUSA
  9
$DIMCLRD
 70
   256
  9
$DIMCLRE
 70
   256
  9
$DIMCLRT
 70
   256
  9
$DIMTFAC
 40
1.0
  9
$DIMGAP
 40
1.0
  9
$DIMJUST
 70
     0
  9
$DIMSD1
 70
     0
  9
$DIMSD2
 70
     0
  9
$DIMTOLJ
 70
     0
  9
$DIMTZIN
 70
     8
  9
$DIMALTZ
 70
     0
  9
$DIMALTTZ
 70
     0
  9
$DIMUPT
 70
     0
  9
$DIMDEC
 70
     1
  9
$DIMTDEC
 70
     1
  9
$DIMALTU
 70
     2
  9
$DIMALTTD
 70
     3
  9
$DIMTXSTY
  7
SANINDUSA
  9
$DIMAUNIT
 70
     0
  9
$DIMADEC
 70
     1
  9
$DIMALTRND
 40
0.0
  9
$DIMAZIN
 70
     0
  9
$DIMDSEP
 70
    44
  9
$DIMATFIT
 70
     3
  9
$DIMFRAC
 70
     0
  9
$DIMLDRBLK
  1

  9
$DIMLUNIT
 70
     2
  9
$DIMLWD
 70
    -1
  9
$DIMLWE
 70
    -1
  9
$DIMTMOVE
 70
     0
  9
$LUNITS
 70
     2
  9
$LUPREC
 70
     4
  9
$SKETCHINC
 40
1.0
  9
$FILLETRAD
 40
0.0
  9
$AUNITS
 70
     0
  9
$AUPREC
 70
     0
  9
$MENU
  1
.
  9
$ELEVATION
 40
0.0
  9
$PELEVATION
 40
0.0
  9
$THICKNESS
 40
0.0
  9
$LIMCHECK
 70
     0
  9
$CHAMFERA
 40
10.0
  9
$CHAMFERB
 40
10.0
  9
$CHAMFERC
 40
20.0
  9
$CHAMFERD
 40
0.0
  9
$SKPOLY
 70
     0
  9
$TDCREATE
 40
2453139.447040648
  9
$TDUCREATE
 40
2453139.405373982
  9
$TDUPDATE
 40
2456149.701092836
  9
$TDUUPDATE
 40
2456149.659426169
  9
$TDINDWG
 40
0.0048404861
  9
$TDUSRTIMER
 40
0.0048404861
  9
$USRTIMER
 70
     1
  9
$ANGBASE
 50
0.0
  9
$ANGDIR
 70
     0
  9
$PDMODE
 70
     0
  9
$PDSIZE
 40
0.0
  9
$PLINEWID
 40
0.0
  9
$SPLFRAME
 70
     0
  9
$SPLINETYPE
 70
     6
  9
$SPLINESEGS
 70
     8
  9
$HANDSEED
  5
19F1
  9
$SURFTAB1
 70
     6
  9
$SURFTAB2
 70
     6
  9
$SURFTYPE
 70
     6
  9
$SURFU
 70
     6
  9
$SURFV
 70
     6
  9
$UCSBASE
  2

  9
$UCSNAME
  2

  9
$UCSORG
 10
0.0
 20
0.0
 30
0.0
  9
$UCSXDIR
 10
1.0
 20
0.0
 30
0.0
  9
$UCSYDIR
 10
0.0
 20
1.0
 30
0.0
  9
$UCSORTHOREF
  2

  9
$UCSORTHOVIEW
 70
     0
  9
$UCSORGTOP
 10
0.0
 20
0.0
 30
0.0
  9
$UCSORGBOTTOM
 10
0.0
 20
0.0
 30
0.0
  9
$UCSORGLEFT
 10
0.0
 20
0.0
 30
0.0
  9
$UCSORGRIGHT
 10
0.0
 20
0.0
 30
0.0
  9
$UCSORGFRONT
 10
0.0
 20
0.0
 30
0.0
  9
$UCSORGBACK
 10
0.0
 20
0.0
 30
0.0
  9
$PUCSBASE
  2

  9
$PUCSNAME
  2

  9
$PUCSORG
 10
0.0
 20
0.0
 30
0.0
  9
$PUCSXDIR
 10
1.0
 20
0.0
 30
0.0
  9
$PUCSYDIR
 10
0.0
 20
1.0
 30
0.0
  9
$PUCSORTHOREF
  2

  9
$PUCSORTHOVIEW
 70
     0
  9
$PUCSORGTOP
 10
0.0
 20
0.0
 30
0.0
  9
$PUCSORGBOTTOM
 10
0.0
 20
0.0
 30
0.0
  9
$PUCSORGLEFT
 10
0.0
 20
0.0
 30
0.0
  9
$PUCSORGRIGHT
 10
0.0
 20
0.0
 30
0.0
  9
$PUCSORGFRONT
 10
0.0
 20
0.0
 30
0.0
  9
$PUCSORGBACK
 10
0.0
 20
0.0
 30
0.0
  9
$USERI1
 70
     0
  9
$USERI2
 70
     0
  9
$USERI3
 70
     0
  9
$USERI4
 70
     0
  9
$USERI5
 70
     0
  9
$USERR1
 40
0.0
  9
$USERR2
 40
0.0
  9
$USERR3
 40
0.0
  9
$USERR4
 40
0.0
  9
$USERR5
 40
0.0
  9
$WORLDVIEW
 70
     1
  9
$SHADEDGE
 70
     3
  9
$SHADEDIF
 70
    70
  9
$TILEMODE
 70
     1
  9
$MAXACTVP
 70
    64
  9
$PINSBASE
 10
0.0
 20
0.0
 30
0.0
  9
$PLIMCHECK
 70
     0
  9
$PEXTMIN
 10
1.000000000000000E+20
 20
1.000000000000000E+20
 30
1.000000000000000E+20
  9
$PEXTMAX
 10
-1.000000000000000E+20
 20
-1.000000000000000E+20
 30
-1.000000000000000E+20
  9
$PLIMMIN
 10
0.0
 20
0.0
  9
$PLIMMAX
 10
420.0
 20
297.0
  9
$UNITMODE
 70
     0
  9
$VISRETAIN
 70
     1
  9
$PLINEGEN
 70
     0
  9
$PSLTSCALE
 70
     1
  9
$TREEDEPTH
 70
  3020
  9
$CMLSTYLE
  2
Standard
  9
$CMLJUST
 70
     0
  9
$CMLSCALE
 40
20.0
  9
$PROXYGRAPHICS
 70
     1
  9
$MEASUREMENT
 70
     1
  9
$CELWEIGHT
370
    -1
  9
$ENDCAPS
280
     0
  9
$JOINSTYLE
280
     0
  9
$LWDISPLAY
290
     0
  9
$INSUNITS
 70
     4
  9
$HYPERLINKBASE
  1

  9
$STYLESHEET
  1
monochrome.ctb
  9
$XEDIT
290
     1
  9
$CEPSNTYPE
380
     0
  9
$PSTYLEMODE
290
     1
  9
$FINGERPRINTGUID
  2
{B98A73AA-52AA-4C10-B469-C0E7150AC31F}
  9
$VERSIONGUID
  2
{ECD21D1F-5D7C-42AA-8AE4-0C2CC7A97942}
  9
$EXTNAMES
290
     1
  9
$PSVPSCALE
 40
0.0
  9
$OLESTARTUP
290
     0
  0
ENDSEC
  0
SECTION
  2
CLASSES
  0
CLASS
  1
ACDBDICTIONARYWDFLT
  2
AcDbDictionaryWithDefault
  3
ObjectDBX Classes
 90
        0
280
     0
281
     0
  0
CLASS
  1
ACDBPLACEHOLDER
  2
AcDbPlaceHolder
  3
ObjectDBX Classes
 90
        0
280
     0
281
     0
  0
CLASS
  1
LAYOUT
  2
AcDbLayout
  3
ObjectDBX Classes
 90
        0
280
     0
281
     0
  0
CLASS
  1
DICTIONARYVAR
  2
AcDbDictionaryVar
  3
ObjectDBX Classes
 90
        0
280
     0
281
     0
  0
CLASS
  1
DIMASSOC
  2
AcDbDimAssoc
  3
"AcDbDimAssoc|Product Desc:     AcDim ARX App For Dimension|Company:          Autodesk, Inc.|WEB Address:      www.autodesk.com"
 90
    32768
280
     0
281
     0
  0
CLASS
  1
MATERIAL
  2
AcDbMaterial
  3
ObjectDBX Classes
 90
     1153
280
     0
281
     0
  0
CLASS
  1
VISUALSTYLE
  2
AcDbVisualStyle
  3
ObjectDBX Classes
 90
     4095
280
     0
281
     0
  0
CLASS
  1
TABLESTYLE
  2
AcDbTableStyle
  3
ObjectDBX Classes
 90
     4095
280
     0
281
     0
  0
CLASS
  1
SCALE
  2
AcDbScale
  3
ObjectDBX Classes
 90
     1153
280
     0
281
     0
  0
CLASS
  1
MLEADERSTYLE
  2
AcDbMLeaderStyle
  3
ACDB_MLEADERSTYLE_CLASS
 90
     4095
280
     0
281
     0
  0
CLASS
  1
CELLSTYLEMAP
  2
AcDbCellStyleMap
  3
ObjectDBX Classes
 90
     1152
280
     0
281
     0
  0
ENDSEC
  0
SECTION
  2
TABLES
  0
TABLE
  2
VPORT
  5
8
330
0
100
AcDbSymbolTable
 70
     1
  0
VPORT
  5
1935
330
8
100
AcDbSymbolTableRecord
100
AcDbViewportTableRecord
  2
*Active
 70
     0
 10
0.0
 20
0.0
 11
1.0
 21
1.0
 12
4976.600285996721
 22
1415.635792078511
 13
0.0
 23
0.0
 14
10.0
 24
10.0
 15
10.0
 25
10.0
 16
0.0
 26
0.0
 36
1.0
 17
0.0
 27
0.0
 37
0.0
 40
1.585818388542659
 41
1.645464025026068
 42
50.0
 43
0.0
 44
0.0
 50
0.0
 51
0.0
 71
     0
 72
   100
 73
     1
 74
     2
 75
     0
 76
     0
 77
     0
 78
     0
281
     0
 65
     1
110
0.0
120
0.0
130
0.0
111
1.0
121
0.0
131
0.0
112
0.0
122
1.0
132
0.0
 79
     0
146
0.0
  0
ENDTAB
  0
TABLE
  2
LTYPE
  5
5
330
0
100
AcDbSymbolTable
 70
     3
  0
LTYPE
  5
14
330
5
100
AcDbSymbolTableRecord
100
AcDbLinetypeTableRecord
  2
ByBlock
 70
     0
  3

 72
    65
 73
     0
 40
0.0
  0
LTYPE
  5
15
330
5
100
AcDbSymbolTableRecord
100
AcDbLinetypeTableRecord
  2
ByLayer
 70
     0
  3

 72
    65
 73
     0
 40
0.0
  0
LTYPE
  5
16
330
5
100
AcDbSymbolTableRecord
100
AcDbLinetypeTableRecord
  2
Continuous
 70
     0
  3
Solid line
 72
    65
 73
     0
 40
0.0
  0
LTYPE
  5
2D
330
5
100
AcDbSymbolTableRecord
100
AcDbLinetypeTableRecord
  2
DASHDOT
 70
     0
  3
Dash dot __ . __ . __ . __ . __ . __ . __ . __
 72
    65
 73
     4
 40
25.4
 49
12.7
 74
     0
 49
-6.349999999999999
 74
     0
 49
0.0
 74
     0
 49
-6.349999999999999
 74
     0
  0
LTYPE
  5
2E
330
5
100
AcDbSymbolTableRecord
100
AcDbLinetypeTableRecord
  2
HIDDEN
 70
     0
  3
Hidden __ __ __ __ __ __ __ __ __ __ __ __ __ _
 72
    65
 73
     2
 40
9.524999999999998
 49
6.349999999999999
 74
     0
 49
-3.174999999999999
 74
     0
  0
ENDTAB
  0
TABLE
  2
LAYER
  5
2
330
0
100
AcDbSymbolTable
 70
    16
  0
LAYER
  5
10
102
{ACAD_XDICTIONARY
360
1980
102
}
330
2
100
AcDbSymbolTableRecord
100
AcDbLayerTableRecord
  2
0
 70
     0
 62
     7
  6
Continuous
370
    -3
390
F
  0
LAYER
  5
2F
102
{ACAD_XDICTIONARY
360
1982
102
}
330
2
100
AcDbSymbolTableRecord
100
AcDbLayerTableRecord
  2
1
 70
     0
 62
     1
  6
Continuous
370
    -3
390
F
  0
LAYER
  5
30
102
{ACAD_XDICTIONARY
360
1984
102
}
330
2
100
AcDbSymbolTableRecord
100
AcDbLayerTableRecord
  2
2
 70
     0
 62
     2
  6
Continuous
370
    -3
390
F
  0
LAYER
  5
31
102
{ACAD_XDICTIONARY
360
1986
102
}
330
2
100
AcDbSymbolTableRecord
100
AcDbLayerTableRecord
  2
3
 70
     0
 62
     3
  6
Continuous
370
    -3
390
F
  0
LAYER
  5
32
102
{ACAD_XDICTIONARY
360
1988
102
}
330
2
100
AcDbSymbolTableRecord
100
AcDbLayerTableRecord
  2
4
 70
     0
 62
     4
  6
Continuous
370
    -3
390
F
  0
LAYER
  5
33
102
{ACAD_XDICTIONARY
360
198A
102
}
330
2
100
AcDbSymbolTableRecord
100
AcDbLayerTableRecord
  2
5
 70
     0
 62
     5
  6
Continuous
370
    -3
390
F
  0
LAYER
  5
34
102
{ACAD_XDICTIONARY
360
198C
102
}
330
2
100
AcDbSymbolTableRecord
100
AcDbLayerTableRecord
  2
6
 70
     0
 62
     6
  6
Continuous
370
    -3
390
F
  0
LAYER
  5
35
102
{ACAD_XDICTIONARY
360
198E
102
}
330
2
100
AcDbSymbolTableRecord
100
AcDbLayerTableRecord
  2
7
 70
     0
 62
     7
  6
Continuous
370
    -3
390
F
  0
LAYER
  5
36
102
{ACAD_XDICTIONARY
360
1990
102
}
330
2
100
AcDbSymbolTableRecord
100
AcDbLayerTableRecord
  2
cen
 70
     0
 62
     7
  6
DASHDOT
370
    -3
390
F
  0
LAYER
  5
37
102
{ACAD_XDICTIONARY
360
1992
102
}
330
2
100
AcDbSymbolTableRecord
100
AcDbLayerTableRecord
  2
hid
 70
     0
 62
     7
  6
HIDDEN
370
    -3
390
F
  0
LAYER
  5
5D6
102
{ACAD_XDICTIONARY
360
1994
102
}
330
2
100
AcDbSymbolTableRecord
100
AcDbLayerTableRecord
  2
hatch
 70
     0
 62
     9
  6
Continuous
370
    -3
390
F
  0
LAYER
  5
8AF
102
{ACAD_XDICTIONARY
360
1996
102
}
330
2
100
AcDbSymbolTableRecord
100
AcDbLayerTableRecord
  2
9
 70
     0
 62
     9
  6
Continuous
370
    -3
390
F
  0
LAYER
  5
8F8
102
{ACAD_XDICTIONARY
360
1998
102
}
330
2
100
AcDbSymbolTableRecord
100
AcDbLayerTableRecord
  2
leg fin
 70
     0
 62
     9
  6
Continuous
370
    -3
390
F
  0
LAYER
  5
91D
102
{ACAD_XDICTIONARY
360
199A
102
}
330
2
100
AcDbSymbolTableRecord
100
AcDbLayerTableRecord
  2
cotas
 70
     0
 62
     1
  6
Continuous
370
    -3
390
F
  0
LAYER
  5
92F
330
2
100
AcDbSymbolTableRecord
100
AcDbLayerTableRecord
  2
Defpoints
 70
     0
 62
     7
  6
Continuous
290
     0
370
    -3
390
F
  0
LAYER
  5
BA2
102
{ACAD_XDICTIONARY
360
199C
102
}
330
2
100
AcDbSymbolTableRecord
100
AcDbLayerTableRecord
  2
Sanindusa
 70
     0
 62
     3
  6
Continuous
370
    -3
390
F
  0
ENDTAB
  0
TABLE
  2
STYLE
  5
3
330
0
100
AcDbSymbolTable
 70
     3
  0
STYLE
  5
11
330
3
100
AcDbSymbolTableRecord
100
AcDbTextStyleTableRecord
  2
Standard
 70
     0
 40
0.0
 41
1.0
 50
0.0
 71
     0
 42
2.5
  3
Avgardn.ttf
  4

1001
ACAD
1000
AvantGarde Bk BT
1071
       34
  0
STYLE
  5
2C
330
3
100
AcDbSymbolTableRecord
100
AcDbTextStyleTableRecord
  2

 70
     1
 40
0.0
 41
1.0
 50
0.0
 71
     0
 42
2.5
  3
ltypeshp.shx
  4

  0
STYLE
  5
91F
330
3
100
AcDbSymbolTableRecord
100
AcDbTextStyleTableRecord
  2
SANINDUSA
 70
     0
 40
0.0
 41
1.0
 50
0.0
 71
     0
 42
2.5
  3
verdana.TTF
  4

1001
ACAD
1000
Verdana
1071
       34
  0
ENDTAB
  0
TABLE
  2
VIEW
  5
6
330
0
100
AcDbSymbolTable
 70
     0
  0
ENDTAB
  0
TABLE
  2
UCS
  5
7
330
0
100
AcDbSymbolTable
 70
     0
  0
ENDTAB
  0
TABLE
  2
APPID
  5
9
330
0
100
AcDbSymbolTable
 70
     3
  0
APPID
  5
12
330
9
100
AcDbSymbolTableRecord
100
AcDbRegAppTableRecord
  2
ACAD
 70
     0
  0
APPID
  5
3A
330
9
100
AcDbSymbolTableRecord
100
AcDbRegAppTableRecord
  2
DCO15
 70
     0
  0
APPID
  5
19F0
330
9
100
AcDbSymbolTableRecord
100
AcDbRegAppTableRecord
  2
ACAD_MLEADERVER
 70
     0
  0
ENDTAB
  0
TABLE
  2
DIMSTYLE
  5
A
330
0
100
AcDbSymbolTable
 70
     2
100
AcDbDimStyleTable
 71
     1
340
921
  0
DIMSTYLE
105
45
330
A
100
AcDbSymbolTableRecord
100
AcDbDimStyleTableRecord
  2
STANDARD
 70
     0
289
     0
340
11
  0
DIMSTYLE
105
921
330
A
100
AcDbSymbolTableRecord
100
AcDbDimStyleTableRecord
  2
SANINDUSA
 70
     0
 41
2.0
 42
1.0
 43
1.0
 44
1.0
 73
     0
 74
     0
 77
     1
 78
     8
140
2.0
141
0.0
143
0.03937007874016
147
1.0
171
     3
172
     1
176
   256
177
   256
178
   256
179
     1
271
     1
272
     1
274
     3
278
    44
283
     0
284
     8
340
91F
371
    -1
372
    -1
  0
ENDTAB
  0
TABLE
  2
BLOCK_RECORD
  5
1
330
0
100
AcDbSymbolTable
 70
    40
  0
BLOCK_RECORD
  5
1F
330
1
100
AcDbSymbolTableRecord
100
AcDbBlockTableRecord
  2
*Model_Space
340
22
  0
BLOCK_RECORD
  5
1B
330
1
100
AcDbSymbolTableRecord
100
AcDbBlockTableRecord
  2
*Paper_Space
340
1E
  0
BLOCK_RECORD
  5
23
330
1
100
AcDbSymbolTableRecord
100
AcDbBlockTableRecord
  2
*Paper_Space0
340
26
  0
BLOCK_RECORD
  5
919
330
1
100
AcDbSymbolTableRecord
100
AcDbBlockTableRecord
  2
_DotSmall
340
0
  0
BLOCK_RECORD
  5
922
330
1
100
AcDbSymbolTableRecord
100
AcDbBlockTableRecord
  2
base para cotas
340
0
310
2800000020000000200000000100080000000000000400000000000000000000000000000000000000000000000080000080000000808000800000008000800080800000C0C0C000C0DCC000F0CAA6000020400000206000002080000020A0000020C0000020E00000400000004020000040400000406000004080000040A0
310
000040C0000040E00000600000006020000060400000606000006080000060A0000060C0000060E00000800000008020000080400000806000008080000080A0000080C0000080E00000A0000000A0200000A0400000A0600000A0800000A0A00000A0C00000A0E00000C0000000C0200000C0400000C0600000C0800000C0
310
A00000C0C00000C0E00000E0000000E0200000E0400000E0600000E0800000E0A00000E0C00000E0E00040000000400020004000400040006000400080004000A0004000C0004000E00040200000402020004020400040206000402080004020A0004020C0004020E000404000004040200040404000404060004040800040
310
40A0004040C0004040E00040600000406020004060400040606000406080004060A0004060C0004060E00040800000408020004080400040806000408080004080A0004080C0004080E00040A0000040A0200040A0400040A0600040A0800040A0A00040A0C00040A0E00040C0000040C0200040C0400040C0600040C08000
310
40C0A00040C0C00040C0E00040E0000040E0200040E0400040E0600040E0800040E0A00040E0C00040E0E00080000000800020008000400080006000800080008000A0008000C0008000E00080200000802020008020400080206000802080008020A0008020C0008020E00080400000804020008040400080406000804080
310
008040A0008040C0008040E00080600000806020008060400080606000806080008060A0008060C0008060E00080800000808020008080400080806000808080008080A0008080C0008080E00080A0000080A0200080A0400080A0600080A0800080A0A00080A0C00080A0E00080C0000080C0200080C0400080C0600080C0
310
800080C0A00080C0C00080C0E00080E0000080E0200080E0400080E0600080E0800080E0A00080E0C00080E0E000C0000000C0002000C0004000C0006000C0008000C000A000C000C000C000E000C0200000C0202000C0204000C0206000C0208000C020A000C020C000C020E000C0400000C0402000C0404000C0406000C0
310
408000C040A000C040C000C040E000C0600000C0602000C0604000C0606000C0608000C060A000C060C000C060E000C0800000C0802000C0804000C0806000C0808000C080A000C080C000C080E000C0A00000C0A02000C0A04000C0A06000C0A08000C0A0A000C0A0C000C0A0E000C0C00000C0C02000C0C04000C0C06000
310
C0C08000C0C0A000F0FBFF00A4A0A000808080000000FF0000FF000000FFFF00FF000000FF00FF00FFFF0000FFFFFF00A4A4A4A4A4A4A4A4A4A4A4A4A4A4A4A4A4A4A4A4A4A4A4A4A4A4A4A4A4A4A4A4A4A4A4A4A4A4A4A4A4A4A4A4A4A4A4A4A4A4A4A4A4A4A4A4A4A4A4A4A4A4A4A4A4A4A4A4A4A4A4A4A4A4A4A4A4A4A4
310
A4A4A4A4A4A4A4A4A4A4A4A4A4A4A4A4A4A4A4A4A4A4A4A4A4A4A4A4A4A4A4A4A4A4A4A4A4A4A4A4A4A4A4A4A4A4A4A4A4A4A4A4A4A4A4A4A4A4A4A4A4A4A4A4A4A4A4A4A4A4A4A4A4A4A4A4A4A4A4A4A4A4A4A4A4A4A4A4A4A4A4A4A4A4A4A4A4A4A4A4A4A4A4A4A4A4A4A4A4A4A4A4A4A4A4A4A4A4A4A4A4A4A4A4A4A4A4
310
A4A4A4A4A4A4A4A4A4A4A4A4A4A4A4A4A4A4A4A4A4A4A4A4A4A4A4A4A4A4A4A4A4A4A4A4A4A4A4A4A4A4A4A4A4A4A4A4A4A4A4A4A4A4A4A4A4A4A4A4A4A4A4A4A4A4A4A4A4A4A4A4A4A4A4A4A4A4A4A4A4A4A4A4A4A4A4A4A4A4A4A4A4A4A4A4A4A4A4A4A4A4A4A4A4A4A4A4A4A4A4A4A4A4A4A4A4A4A4A4A4A4A4A4A4A4A4
310
A4A4A4A4A4A4A4A4A4A4A4A4A4A4A4A4A4A4A4A4A4A4A4A4A4A4A4A4A4A4A4A4A4A4A4A4A4A4A4A4A4A4A4A4A4A4A4A4A4A4A4A4A4A4A4A4A4A4A4A4A4A4A4A4A4A4A4A4A4A4A4A4A4A4A4A4A4A4A4A4A4A4A4A4A4A4A4A4A4A4A4A4A4A4A4A4A4A4A4A4A4A4A4A4A4A4A4A4A4A4A4A4A4A4A4A4F9F9F9F9F9F9F9F9F9F9F9
310
F9F9F9F9F9F9F9F9F9F9F9F9F9F9F9F9F9F9F9A4A4F9F9F9F9F9F9F9F9F9F9F9F9F9F9F9F9F9F9F9F9F9F9F9F9F9F9F9F9F9F9A4A4F9F9F9F9F9F9F9F9F9F9F9F9F9F9F9F9F9F9F9F9F9F9F9F9F9F9F9F9F9F9A4A4F9A4A4A4A4A4A4A4A4A4A4A4A4A4A4A4A4A4A4A4A4A4A4A4A4A4A4A4A4F9A4A4A4A4A4A4A4A4A4A4A4A4
310
A4A4A4A4A4A4A4A4A4A4A4A4A4A4A4A4A4A4A4A4A4A4A4A4A4A4A4A4A4A4A4A4A4A4A4A4A4A4A4A4A4A4A4A4A4A4A4A4A4A4A4A4A4A4A4A4A4A4A4A4A4A4A4A4A4A4A4A4A4A4A4A4A4A4A4A4A4A4A4A4A4A4A4A4A4A4A4A4A4A4A4A4A4A4A4A4A4A4A4A4A4A4A4A4A4A4A4A4A4A4A4A4A4A4A4A4A4A4A4A4A4A4A4A4A4A4A4
310
A4A4A4A4A4A4A4A4A4A4A4A4A4A4A4A4A4A4A4A4A4A4A4A4A4A4A4A4A4A4A4A4A4A4A4A4A4A4A4A4A4A4A4A4A4A4A4A4A4A4A4A4A4A4A4A4A4A4A4A4A4A4A4A4A4A4A4A4A4A4A4A4A4A4A4A4A4A4A4A4A4A4A4A4A4A4A4A4A4A4A4A4A4A4A4A4A4A4A4A4A4A4A4A4A4A4A4A4A4A4A4A4A4A4A4A4A4A4A4A4A4A4A4A4A4A4A4
310
A4A4A4A4A4A4A4A4A4A4A4A4A4A4A4A4A4A4A4A4A4A4A4A4A4A4A4A4A4A4A4A4A4A4A4A4A4A4A4A4A4A4A4A4A4A4A4A4A4A4A4A4A4A4A4A4A4A4A4A4A4A4A4A4A4A4A4A4A4A4A4A4A4A4A4A4A4A4A4A4A4A4A4A4A4A4A4A4A4A4A4A4A4A4A4A4A4A4A4A4A4A4A4A4A4A4A4A4A4A4A4A4A4A4A4A4A4A4A4A4A4A4A4A4A4A4A4
310
A4A4A4A4A4A4A4A4A4A4A4A4A4A4A4A4A4A4A4A4A4A4A4A4A4A4A4A4A4A4A4A4A4A4A4A4A4A4A4A4A4A4A4A4A4A4A4A4A4A4A4A4A4A4A4A4
1001
ACAD
1000
DesignCenter Data
1002
{
1070
     1
1070
     4
1002
}
  0
BLOCK_RECORD
  5
AA8
330
1
100
AcDbSymbolTableRecord
100
AcDbBlockTableRecord
  2
_CLOSED
340
0
  0
ENDTAB
  0
ENDSEC
  0
SECTION
  2
BLOCKS
  0
BLOCK
  5
20
330
1F
100
AcDbEntity
  8
0
100
AcDbBlockBegin
  2
*Model_Space
 70
     0
 10
0.0
 20
0.0
 30
0.0
  3
*Model_Space
  1

  0
ENDBLK
  5
21
330
1F
100
AcDbEntity
  8
0
100
AcDbBlockEnd
  0
BLOCK
  5
1C
330
1B
100
AcDbEntity
 67
     1
  8
0
100
AcDbBlockBegin
  2
*Paper_Space
 70
     0
 10
0.0
 20
0.0
 30
0.0
  3
*Paper_Space
  1

  0
ENDBLK
  5
1D
330
1B
100
AcDbEntity
 67
     1
  8
0
100
AcDbBlockEnd
  0
BLOCK
  5
24
330
23
100
AcDbEntity
 67
     1
  8
0
100
AcDbBlockBegin
  2
*Paper_Space0
 70
     0
 10
0.0
 20
0.0
 30
0.0
  3
*Paper_Space0
  1

  0
ENDBLK
  5
25
330
23
100
AcDbEntity
 67
     1
  8
0
100
AcDbBlockEnd
  0
BLOCK
  5
91B
330
919
100
AcDbEntity
  8
0
100
AcDbBlockBegin
  2
_DotSmall
 70
     0
 10
0.0
 20
0.0
 30
0.0
  3
_DotSmall
  1

  0
LWPOLYLINE
  5
91A
330
919
100
AcDbEntity
  8
0
  6
ByBlock
 62
     0
100
AcDbPolyline
 90
        2
 70
     1
 43
0.5
 10
-0.0625
 20
0.0
 42
1.0
 10
0.0625
 20
0.0
 42
1.0
  0
ENDBLK
  5
91C
330
919
100
AcDbEntity
  8
0
100
AcDbBlockEnd
  0
BLOCK
  5
92A
330
922
100
AcDbEntity
  8
0
100
AcDbBlockBegin
  2
base para cotas
 70
     0
 10
0.0
 20
0.0
 30
0.0
  3
base para cotas
  1

  0
LINE
  5
B36
330
922
100
AcDbEntity
  8
cotas
100
AcDbLine
 10
0.0
 20
-30.0
 30
0.0
 11
327.1260136525398
 21
-30.0
 31
0.0
  0
LINE
  5
B37
330
922
100
AcDbEntity
  8
cotas
100
AcDbLine
 10
0.0
 20
-25.0
 30
0.0
 11
327.1260136525398
 21
-25.0
 31
0.0
  0
LINE
  5
B38
330
922
100
AcDbEntity
  8
cotas
100
AcDbLine
 10
0.0
 20
-20.0
 30
0.0
 11
327.1260136525398
 21
-20.0
 31
0.0
  0
LINE
  5
B39
330
922
100
AcDbEntity
  8
cotas
100
AcDbLine
 10
0.0
 20
-15.0
 30
0.0
 11
327.1260136525398
 21
-15.0
 31
0.0
  0
LINE
  5
B3A
330
922
100
AcDbEntity
  8
cotas
100
AcDbLine
 10
0.0
 20
-10.0
 30
0.0
 11
327.1260136525398
 21
-10.0
 31
0.0
  0
LINE
  5
B3B
330
922
100
AcDbEntity
  8
cotas
100
AcDbLine
 10
0.0
 20
0.0
 30
0.0
 11
0.0
 21
-30.0
 31
0.0
  0
LINE
  5
B3C
330
922
100
AcDbEntity
  8
cotas
100
AcDbLine
 10
327.1260136525398
 20
-30.0
 30
0.0
 11
327.1260136525398
 21
0.0
 31
0.0
  0
ENDBLK
  5
92B
330
922
100
AcDbEntity
  8
0
100
AcDbBlockEnd
  0
BLOCK
  5
AAD
330
AA8
100
AcDbEntity
  8
0
100
AcDbBlockBegin
  2
_CLOSED
 70
     0
 10
0.0
 20
0.0
 30
0.0
  3
_CLOSED
  1

  0
LINE
  5
AA9
330
AA8
100
AcDbEntity
  8
0
100
AcDbLine
 10
-1.0
 20
0.166667
 30
0.0
 11
0.0
 21
0.0
 31
0.0
  0
LINE
  5
AAA
330
AA8
100
AcDbEntity
  8
0
100
AcDbLine
 10
0.0
 20
0.0
 30
0.0
 11
-1.0
 21
-0.166667
 31
0.0
  0
LINE
  5
AAB
330
AA8
100
AcDbEntity
  8
0
100
AcDbLine
 10
-1.0
 20
0.166667
 30
0.0
 11
-1.0
 21
-0.166667
 31
0.0
  0
LINE
  5
AAC
330
AA8
100
AcDbEntity
  8
0
100
AcDbLine
 10
0.0
 20
0.0
 30
0.0
 11
-1.0
 21
0.0
 31
0.0
  0
ENDBLK
  5
AAE
330
AA8
100
AcDbEntity
  8
0
100
AcDbBlockEnd
  0
ENDSEC
  0
SECTION
  2
ENTITIES
  0
LINE
  5
FF7
330
1F
100
AcDbEntity
  8
Sanindusa
100
AcDbLine
 10
4977.360049230817
 20
1415.608844819056
 30
0.0
 11
4977.360049230817
 21
1415.782852612933
 31
0.0
  0
LINE
  5
FF9
330
1F
100
AcDbEntity
  8
Sanindusa
100
AcDbLine
 10
4977.595417944236
 20
1415.678721185908
 30
0.0
 11
4977.588237902985
 21
1415.685267506618
 31
0.0
  0
LINE
  5
FFA
330
1F
100
AcDbEntity
  8
Sanindusa
100
AcDbLine
 10
4977.652123474264
 20
1415.685238972749
 30
0.0
 11
4977.644769230252
 21
1415.678847024613
 31
0.0
  0
LWPOLYLINE
  5
FFB
330
1F
100
AcDbEntity
  8
Sanindusa
100
AcDbPolyline
 90
       13
 70
   128
 43
0.0
 10
4977.584618825229
 20
1415.666732860195
 10
4977.584539681726
 20
1415.671266988451
 42
0.3597791844687959
 10
4977.580395729777
 20
1415.676106031825
 10
4977.579365452225
 20
1415.676284904721
 10
4977.574390632363
 20
1415.677722604591
 10
4977.56711446158
 20
1415.68098462373
 10
4977.560482531793
 20
1415.685412458322
 10
4977.554682708861
 20
1415.690901911674
 10
4977.549877786193
 20
1415.697280098944
 10
4977.546217979988
 20
1415.704392709328
 10
4977.543800917965
 20
1415.712017891457
 10
4977.542068204065
 20
1415.721791489302
 10
4977.540671009397
 20
1415.73162868608
  0
LINE
  5
FFC
330
1F
100
AcDbEntity
  8
Sanindusa
100
AcDbLine
 10
4977.508859473043
 20
1415.822048499373
 30
0.0
 11
4977.538079264092
 21
1415.66586976202
 31
0.0
  0
LWPOLYLINE
  5
FFD
330
1F
100
AcDbEntity
  8
Sanindusa
100
AcDbPolyline
 90
       10
 70
   128
 43
0.0
 10
4977.529596415635
 20
1415.656833227226
 10
4977.500592959689
 20
1415.811855661197
 42
0.518133256366661
 10
4977.497622304451
 20
1415.813217149569
 10
4977.497076559543
 20
1415.812900056655
 10
4977.493859377545
 20
1415.811546702146
 10
4977.490541443681
 20
1415.810634138552
 10
4977.487179589287
 20
1415.810158402068
 10
4977.485184683298
 20
1415.810075850568
 10
4977.483096658874
 20
1415.810068212757
 10
4977.468549230817
 20
1415.8100749405
  0
LWPOLYLINE
  5
FFE
330
1F
100
AcDbEntity
  8
Sanindusa
100
AcDbPolyline
 90
       16
 70
   128
 43
0.0
 10
4977.799926655205
 20
1415.517205736849
 10
4977.81132689707
 20
1415.527064985459
 10
4977.822099616741
 20
1415.537649840223
 10
4977.832183562504
 20
1415.548893153913
 10
4977.841517482641
 20
1415.560727779303
 10
4977.850594940023
 20
1415.573946564784
 10
4977.858788182916
 20
1415.587794900076
 10
4977.866045799602
 20
1415.602176144303
 10
4977.872316378364
 20
1415.616993656592
 10
4977.877548507485
 20
1415.632150796069
 10
4977.881638454348
 20
1415.647589681474
 10
4977.88461705212
 20
1415.663322255162
 10
4977.886600915411
 20
1415.679246447777
 10
4977.887706658835
 20
1415.695260189964
 10
4977.888050897
 20
1415.711261412367
 10
4977.888049230855
 20
1415.835074940562
  0
LWPOLYLINE
  5
FFF
330
1F
100
AcDbEntity
  8
Sanindusa
100
AcDbPolyline
 90
       18
 70
   128
 43
0.0
 10
4977.804748793553
 20
1415.505699667791
 10
4977.818860401315
 20
1415.517680902494
 10
4977.832051317751
 20
1415.530684347271
 10
4977.844231522389
 20
1415.544629455927
 10
4977.855335227872
 20
1415.559411131085
 10
4977.865297666053
 20
1415.574923431635
 10
4977.873912452248
 20
1415.590771983147
 10
4977.881339520824
 20
1415.607160936426
 10
4977.887560438346
 20
1415.624033255603
 10
4977.892556771401
 20
1415.641331904851
 10
4977.895926929848
 20
1415.656875752168
 10
4977.898310710961
 20
1415.672657974308
 10
4977.899687048666
 20
1415.688631201293
 10
4977.900049774437
 20
1415.704746595334
 10
4977.900051999171
 20
1415.720902642584
 10
4977.900052620587
 20
1415.737058850019
 10
4977.900052148862
 20
1415.75321516667
 10
4977.900049230823
 20
1415.842074940576
  0
LWPOLYLINE
  5
1000
330
1F
100
AcDbEntity
  8
Sanindusa
100
AcDbPolyline
 90
       12
 70
   128
 43
0.0
 10
4977.79642235784
 20
1415.721642238266
 10
4977.786387615697
 20
1415.71537571688
 10
4977.776101852669
 20
1415.709530351708
 10
4977.765508689543
 20
1415.70408025248
 10
4977.754697560174
 20
1415.699076447629
 10
4977.743764176558
 20
1415.694557144575
 10
4977.732653592518
 20
1415.690492946207
 10
4977.721305698468
 20
1415.686868996329
 10
4977.70981665317
 20
1415.683720995568
 10
4977.709562216464
 20
1415.683659138657
 42
0.3758155103905151
 10
4977.705771246994
 20
1415.678273477392
 10
4977.723001152122
 20
1415.515767992659
  0
LINE
  5
1005
330
1F
100
AcDbEntity
  8
Sanindusa
100
AcDbLine
 10
4977.654066533554
 20
1415.642074940562
 30
0.0
 11
4977.644049230817
 21
1415.642074940562
 31
0.0
  0
LINE
  5
1006
330
1F
100
AcDbEntity
  8
Sanindusa
100
AcDbLine
 10
4977.716067949323
 20
1415.503636314777
 30
0.0
 11
4977.640065497485
 21
1415.502215822494
 31
0.0
  0
LINE
  5
1009
330
1F
100
AcDbEntity
  8
Sanindusa
100
AcDbLine
 10
4977.640065497485
 20
1415.502215822494
 30
0.0
 11
4977.415550889284
 21
1415.498113075814
 31
0.0
  0
LINE
  5
1014
330
1F
100
AcDbEntity
  8
Sanindusa
100
AcDbLine
 10
4977.360049230817
 20
1415.49911347456
 30
0.0
 11
4977.360049230817
 21
1415.608844819056
 31
0.0
  0
LINE
  5
101F
330
1F
100
AcDbEntity
  8
Sanindusa
100
AcDbLine
 10
4977.414608305224
 20
1415.52152027718
 30
0.0
 11
4977.411266977458
 21
1415.503890226381
 31
0.0
  0
LINE
  5
1020
330
1F
100
AcDbEntity
  8
Sanindusa
100
AcDbLine
 10
4977.371658474317
 20
1415.522432171327
 30
0.0
 11
4977.370504943144
 21
1415.504390257764
 31
0.0
  0
LINE
  5
1022
330
1F
100
AcDbEntity
  8
Sanindusa
100
AcDbLine
 10
4977.409301957443
 20
1415.502262645951
 30
0.0
 11
4977.372500867798
 21
1415.502262645951
 31
0.0
  0
LINE
  5
1023
330
1F
100
AcDbEntity
  8
Sanindusa
100
AcDbLine
 10
4977.408527942515
 20
1415.497981816342
 30
0.0
 11
4977.372221133538
 21
1415.497303238997
 31
0.0
  0
LINE
  5
1024
330
1F
100
AcDbEntity
  8
Sanindusa
100
AcDbLine
 10
4977.372500867798
 20
1415.502262645951
 30
0.0
 11
4977.372206838676
 21
1415.497303022931
 31
0.0
  0
ARC
  5
1025
330
1F
100
AcDbEntity
  8
Sanindusa
100
AcDbCircle
 10
4977.372500867798
 20
1415.504262645951
 30
0.0
 40
0.0020000000000002
100
AcDbArc
 50
176.341705697398
 51
270.0
  0
LINE
  5
1026
330
1F
100
AcDbEntity
  8
Sanindusa
100
AcDbLine
 10
4977.370189827866
 20
1415.499461667428
 30
0.0
 11
4977.370504943144
 21
1415.504390257764
 31
0.0
  0
ARC
  5
1027
330
1F
100
AcDbEntity
  8
Sanindusa
100
AcDbCircle
 10
4977.372183759896
 20
1415.499302889769
 30
0.0
 40
0.0020000000000008
100
AcDbArc
 50
176.341705697437
 51
271.0707383229277
  0
LINE
  5
102B
330
1F
100
AcDbEntity
  8
Sanindusa
100
AcDbLine
 10
4977.372221133538
 20
1415.497303238997
 30
0.0
 11
4977.368397349888
 21
1415.497231772156
 31
0.0
  0
ARC
  5
102D
330
1F
100
AcDbEntity
  8
Sanindusa
100
AcDbCircle
 10
4977.362049230817
 20
1415.49911347456
 30
0.0
 40
0.0020000000000003
100
AcDbArc
 50
180.0
 51
271.0707383228756
  0
LINE
  5
102F
330
1F
100
AcDbEntity
  8
Sanindusa
100
AcDbLine
 10
4977.368397349888
 20
1415.497231772156
 30
0.0
 11
4977.362086604459
 21
1415.497113823788
 31
0.0
  0
LINE
  5
1030
330
1F
100
AcDbEntity
  8
Sanindusa
100
AcDbLine
 10
4977.408527942515
 20
1415.497981816342
 30
0.0
 11
4977.409301957443
 21
1415.502262645951
 31
0.0
  0
LINE
  5
1031
330
1F
100
AcDbEntity
  8
Sanindusa
100
AcDbLine
 10
4977.411266977458
 20
1415.503890226381
 30
0.0
 11
4977.410460712933
 21
1415.499636083852
 31
0.0
  0
ARC
  5
1034
330
1F
100
AcDbEntity
  8
Sanindusa
100
AcDbCircle
 10
4977.409301957443
 20
1415.504262645951
 30
0.0
 40
0.0020000000000002
100
AcDbArc
 50
270.0
 51
349.2683263283343
  0
ARC
  5
1035
330
1F
100
AcDbEntity
  8
Sanindusa
100
AcDbCircle
 10
4977.408490568873
 20
1415.499981467115
 30
0.0
 40
0.002
100
AcDbArc
 50
271.0707383229277
 51
349.2683263283471
  0
LINE
  5
1036
330
1F
100
AcDbEntity
  8
Sanindusa
100
AcDbLine
 10
4977.415550889284
 20
1415.498113075814
 30
0.0
 11
4977.408527942515
 21
1415.497981816342
 31
0.0
  0
LINE
  5
1037
330
1F
100
AcDbEntity
  8
Sanindusa
100
AcDbLine
 10
4977.402675743292
 20
1415.512262645951
 30
0.0
 11
4977.381028691969
 21
1415.512262645951
 31
0.0
  0
LINE
  5
1038
330
1F
100
AcDbEntity
  8
Sanindusa
100
AcDbLine
 10
4977.375809218867
 20
1415.527042235668
 30
0.0
 11
4977.416994485975
 21
1415.534053098696
 31
0.0
  0
LINE
  5
1039
330
1F
100
AcDbEntity
  8
Sanindusa
100
AcDbLine
 10
4977.381385776902
 20
1415.517847666675
 30
0.0
 11
4977.404479291459
 21
1415.521778816787
 31
0.0
  0
LINE
  5
103A
330
1F
100
AcDbEntity
  8
Sanindusa
100
AcDbLine
 10
4977.381385776902
 20
1415.517847666675
 30
0.0
 11
4977.381028691969
 21
1415.512262645951
 31
0.0
  0
ARC
  5
103B
330
1F
100
AcDbEntity
  8
Sanindusa
100
AcDbCircle
 10
4977.376648285952
 20
1415.522113141793
 30
0.0
 40
0.0050000000000002
100
AcDbArc
 50
99.66071076257218
 51
176.341705697398
  0
ARC
  5
103F
330
1F
100
AcDbEntity
  8
Sanindusa
100
AcDbCircle
 10
4977.417555835248
 20
1415.520961647825
 30
0.0
 40
0.003
100
AcDbArc
 50
99.66071076257218
 51
169.2683263283662
  0
ARC
  5
1040
330
1F
100
AcDbEntity
  8
Sanindusa
100
AcDbCircle
 10
4977.417330114389
 20
1415.532081460821
 30
0.0
 40
0.0020000005860653
100
AcDbArc
 50
0.9751713300097454
 51
99.66075383867881
  0
LINE
  5
1041
330
1F
100
AcDbEntity
  8
Sanindusa
100
AcDbLine
 10
4977.419433121647
 20
1415.52604677161
 30
0.0
 11
4977.419329825304
 21
1415.532115499088
 31
0.0
  0
ARC
  5
1042
330
1F
100
AcDbEntity
  8
Sanindusa
100
AcDbCircle
 10
4977.417433409758
 20
1415.52601273532
 30
0.0
 40
0.0020000015260101
100
AcDbArc
 50
279.6606856830701
 51
0.9751142351123737
  0
LINE
  5
1043
330
1F
100
AcDbEntity
  8
Sanindusa
100
AcDbLine
 10
4977.417769035985
 20
1415.524041096118
 30
0.0
 11
4977.417052394997
 21
1415.52391910415
 31
0.0
  0
LINE
  5
104A
330
1F
100
AcDbEntity
  8
Sanindusa
100
AcDbLine
 10
4977.404479291459
 20
1415.521778816787
 30
0.0
 11
4977.402675743292
 21
1415.512262645951
 31
0.0
  0
LINE
  5
1066
330
1F
100
AcDbEntity
  8
Sanindusa
100
AcDbLine
 10
4977.580719345615
 20
1415.647060854383
 30
0.0
 11
4977.55717931794
 21
1415.64994148939
 31
0.0
  0
LINE
  5
1067
330
1F
100
AcDbEntity
  8
Sanindusa
100
AcDbLine
 10
4977.542386659405
 20
1415.661826289326
 30
0.0
 11
4977.596170696507
 21
1415.655244641154
 31
0.0
  0
ARC
  5
1068
330
1F
100
AcDbEntity
  8
Sanindusa
100
AcDbCircle
 10
4977.534511139403
 20
1415.657752732685
 30
0.0
 40
0.005
100
AcDbArc
 50
190.5970704016129
 51
263.0233006969616
  0
ARC
  5
1069
330
1F
100
AcDbEntity
  8
Sanindusa
100
AcDbCircle
 10
4977.54299398786
 20
1415.666789267479
 30
0.0
 40
0.005
100
AcDbArc
 50
190.5970704016065
 51
263.0233006969358
  0
ARC
  5
106A
330
1F
100
AcDbEntity
  8
Sanindusa
100
AcDbCircle
 10
4977.548487832592
 20
1415.644262645951
 30
0.0
 40
0.0019999999999998
100
AcDbArc
 50
270.0
 51
334.660710762565
  0
LINE
  5
106B
330
1F
100
AcDbEntity
  8
Sanindusa
100
AcDbLine
 10
4977.541849117032
 20
1415.642262645951
 30
0.0
 11
4977.548487832592
 21
1415.642262645951
 31
0.0
  0
ARC
  5
106C
330
1F
100
AcDbEntity
  8
Sanindusa
100
AcDbCircle
 10
4977.541849117032
 20
1415.644262645951
 30
0.0
 40
0.002
100
AcDbArc
 50
154.6607107625472
 51
270.0
  0
LINE
  5
106D
330
1F
100
AcDbEntity
  8
Sanindusa
100
AcDbLine
 10
4977.540041538458
 20
1415.645118601383
 30
0.0
 11
4977.54017397133
 21
1415.645398268773
 31
0.0
  0
LINE
  5
1078
330
1F
100
AcDbEntity
  8
Sanindusa
100
AcDbLine
 10
4977.536262353352
 20
1415.652501135508
 30
0.0
 11
4977.533903810948
 21
1415.652789754532
 31
0.0
  0
ARC
  5
1079
330
1F
100
AcDbEntity
  8
Sanindusa
100
AcDbCircle
 10
4977.535655024897
 20
1415.647538157355
 30
0.0
 40
0.005
100
AcDbArc
 50
334.6607107625532
 51
83.02330069696239
  0
ARC
  5
107A
330
1F
100
AcDbEntity
  8
Sanindusa
100
AcDbCircle
 10
4977.556571989485
 20
1415.644978511237
 30
0.0
 40
0.0050000000000002
100
AcDbArc
 50
83.02330069696239
 51
154.6607107625472
  0
LINE
  5
107B
330
1F
100
AcDbEntity
  8
Sanindusa
100
AcDbLine
 10
4977.552053043053
 20
1415.647118399818
 30
0.0
 11
4977.550295411165
 21
1415.643406690518
 31
0.0
  0
LINE
  5
1082
330
1F
100
AcDbEntity
  8
Sanindusa
100
AcDbLine
 10
4977.644049230817
 20
1415.642074940562
 30
0.0
 11
4977.596049230817
 21
1415.642074940562
 31
0.0
  0
ARC
  5
1083
330
1F
100
AcDbEntity
  8
Sanindusa
100
AcDbCircle
 10
4977.596049230817
 20
1415.643074940562
 30
0.0
 40
0.0009999999999999
100
AcDbArc
 50
270.0
 51
0.0
  0
LINE
  5
1084
330
1F
100
AcDbEntity
  8
Sanindusa
100
AcDbLine
 10
4977.596049230817
 20
1415.642074940562
 30
0.0
 11
4977.58603192808
 21
1415.642074940562
 31
0.0
  0
ARC
  5
1085
330
1F
100
AcDbEntity
  8
Sanindusa
100
AcDbCircle
 10
4977.58603192808
 20
1415.643074940562
 30
0.0
 40
0.0009999999999999
100
AcDbArc
 50
189.372014096313
 51
270.0
  0
LWPOLYLINE
  5
1086
330
1F
100
AcDbEntity
  8
Sanindusa
100
AcDbPolyline
 90
        7
 70
   128
 43
0.0
 10
4977.597049230817
 20
1415.675026350221
 10
4977.596980277251
 20
1415.675853866553
 10
4977.596767374055
 20
1415.676681382885
 10
4977.596428394917
 20
1415.677439427098
 10
4977.595953580567
 20
1415.678149823115
 10
4977.595697791532
 20
1415.678445127796
 10
4977.595417944203
 20
1415.678721185937
  0
LINE
  5
1089
330
1F
100
AcDbEntity
  8
Sanindusa
100
AcDbLine
 10
4977.597049230817
 20
1415.675026350221
 30
0.0
 11
4977.597049230817
 21
1415.666341560759
 31
0.0
  0
ARC
  5
108A
330
1F
100
AcDbEntity
  8
Sanindusa
100
AcDbCircle
 10
4977.596049230817
 20
1415.666341560759
 30
0.0
 40
0.0009999999999999
100
AcDbArc
 50
263.0233006969091
 51
0.0
  0
LINE
  5
108B
330
1F
100
AcDbEntity
  8
Sanindusa
100
AcDbLine
 10
4977.584618825229
 20
1415.666732860195
 30
0.0
 11
4977.595927765126
 21
1415.665348965129
 31
0.0
  0
ARC
  5
108C
330
1F
100
AcDbEntity
  8
Sanindusa
100
AcDbCircle
 10
4977.596049230817
 20
1415.654252045523
 30
0.0
 40
0.001
100
AcDbArc
 50
0.0
 51
83.02330069696239
  0
LINE
  5
1091
330
1F
100
AcDbEntity
  8
Sanindusa
100
AcDbLine
 10
4977.597049230817
 20
1415.654252045523
 30
0.0
 11
4977.597049230817
 21
1415.643074940562
 31
0.0
  0
ARC
  5
1092
330
1F
100
AcDbEntity
  8
Sanindusa
100
AcDbCircle
 10
4977.580112017161
 20
1415.64209787623
 30
0.0
 40
0.0050000000000002
100
AcDbArc
 50
9.372014096306632
 51
83.02330069696239
  0
ARC
  5
109B
330
1F
100
AcDbEntity
  8
Sanindusa
100
AcDbCircle
 10
4977.644049230817
 20
1415.643074940562
 30
0.0
 40
0.0009999999999999
100
AcDbArc
 50
180.0
 51
270.0
  0
ARC
  5
109C
330
1F
100
AcDbEntity
  8
Sanindusa
100
AcDbCircle
 10
4977.648049235757
 20
1415.675073218405
 30
0.0
 40
0.0050000049410466
100
AcDbArc
 50
130.9955638753665
 51
180.0
  0
LINE
  5
109D
330
1F
100
AcDbEntity
  8
Sanindusa
100
AcDbLine
 10
4977.643049230817
 20
1415.643074940562
 30
0.0
 11
4977.643049230817
 21
1415.675073217988
 31
0.0
  0
LINE
  5
109E
330
1F
100
AcDbEntity
  8
Sanindusa
100
AcDbLine
 10
4977.803548854354
 20
1415.505271340326
 30
0.0
 11
4977.794228767586
 21
1415.505097147113
 31
0.0
  0
LINE
  5
109F
330
1F
100
AcDbEntity
  8
Sanindusa
100
AcDbLine
 10
4977.799926655205
 20
1415.517205736849
 30
0.0
 11
4977.723001152122
 21
1415.515767992659
 31
0.0
  0
LINE
  5
10A3
330
1F
100
AcDbEntity
  8
Sanindusa
100
AcDbLine
 10
4977.71404172342
 20
1415.505425094293
 30
0.0
 11
4977.696050092854
 21
1415.675114864757
 31
0.0
  0
LINE
  5
10A4
330
1F
100
AcDbEntity
  8
Sanindusa
100
AcDbLine
 10
4977.724233267732
 20
1415.503788925273
 30
0.0
 11
4977.716067949323
 21
1415.503636314777
 31
0.0
  0
ARC
  5
10A5
330
1F
100
AcDbEntity
  8
Sanindusa
100
AcDbCircle
 10
4977.71603057568
 20
1415.50563596555
 30
0.0
 40
0.0020000000000002
100
AcDbArc
 50
186.0522655406726
 51
271.0707383228756
  0
LINE
  5
10A6
330
1F
100
AcDbEntity
  8
Sanindusa
100
AcDbLine
 10
4977.793230117283
 20
1415.505078482253
 30
0.0
 11
4977.724233267732
 21
1415.503788925273
 31
0.0
  0
LINE
  5
10A7
330
1F
100
AcDbEntity
  8
Sanindusa
100
AcDbLine
 10
4977.78755929082
 20
1415.506972843314
 30
0.0
 11
4977.730827985413
 21
1415.505912530395
 31
0.0
  0
ARC
  5
10A8
330
1F
100
AcDbEntity
  8
Sanindusa
100
AcDbCircle
 10
4977.731014853628
 20
1415.495914276534
 30
0.0
 40
0.0100000000000002
100
AcDbArc
 50
91.07073832287566
 51
124.6280480847601
  0
ARC
  5
10A9
330
1F
100
AcDbEntity
  8
Sanindusa
100
AcDbCircle
 10
4977.72419589409
 20
1415.505788576045
 30
0.0
 40
0.002000000000001
100
AcDbArc
 50
271.0707383228756
 51
304.6280480847564
  0
LWPOLYLINE
  5
10AA
330
1F
100
AcDbEntity
  8
Sanindusa
100
AcDbPolyline
 90
        6
 70
   128
 43
0.0
 10
4977.79311718824
 20
1415.505409763148
 10
4977.79316311533
 20
1415.505381383399
 10
4977.793461202294
 20
1415.50523485747
 10
4977.793788893142
 20
1415.505137718063
 10
4977.79400635335
 20
1415.505105376246
 10
4977.794228767586
 20
1415.505097147113
  0
ARC
  5
10AC
330
1F
100
AcDbEntity
  8
Sanindusa
100
AcDbCircle
 10
4977.787746160529
 20
1415.496974559582
 30
0.0
 40
0.0100000298929136
100
AcDbArc
 50
57.51348020179863
 51
91.07074368991346
  0
LWPOLYLINE
  5
10AE
330
1F
100
AcDbEntity
  8
Sanindusa
100
AcDbPolyline
 90
        5
 70
   128
 43
0.0
 10
4977.690200823733
 20
1415.679510148206
 10
4977.685507440236
 20
1415.678714162053
 10
4977.675465955266
 20
1415.677280603696
 10
4977.665570651284
 20
1415.676221097269
 10
4977.660198379911
 20
1415.675790284385
  0
ARC
  5
10AF
330
1F
100
AcDbEntity
  8
Sanindusa
100
AcDbCircle
 10
4977.654066533554
 20
1415.643074940562
 30
0.0
 40
0.001
100
AcDbArc
 50
270.0
 51
359.0000000000243
  0
LINE
  5
10B0
330
1F
100
AcDbEntity
  8
Sanindusa
100
AcDbLine
 10
4977.655552200022
 20
1415.670890027031
 30
0.0
 11
4977.655066381249
 21
1415.643057488156
 31
0.0
  0
ARC
  5
10B1
330
1F
100
AcDbEntity
  8
Sanindusa
100
AcDbCircle
 10
4977.660551438498
 20
1415.670802764999
 30
0.0
 40
0.0049999999999999
100
AcDbArc
 50
94.04912298254064
 51
178.9999999999982
  0
ARC
  5
10B2
330
1F
100
AcDbEntity
  8
Sanindusa
100
AcDbCircle
 10
4977.691077962203
 20
1415.674587686616
 30
0.0
 40
0.0050000000000001
100
AcDbArc
 50
6.052265540594893
 51
100.1035482050754
  0
ARC
  5
10B3
330
1F
100
AcDbEntity
  8
Sanindusa
100
AcDbCircle
 10
4977.803511480711
 20
1415.507270991098
 30
0.0
 40
0.0020000000000014
100
AcDbArc
 50
271.0707383228756
 51
308.2180854166673
  0
LINE
  5
10C2
330
1F
100
AcDbEntity
  8
Sanindusa
100
AcDbLine
 10
4977.530759636037
 20
1415.847074940562
 30
0.0
 11
4977.864764695336
 21
1415.847074940562
 31
0.0
  0
LWPOLYLINE
  5
10C4
330
1F
100
AcDbEntity
  8
Sanindusa
100
AcDbPolyline
 90
       14
 70
   128
 43
0.0
 10
4977.500049489377
 20
1415.842074795817
 10
4977.500054311553
 20
1415.837676888787
 10
4977.499567619511
 20
1415.833295040567
 10
4977.49782736719
 20
1415.829219285767
 10
4977.495869458039
 20
1415.82669054859
 10
4977.493432009327
 20
1415.824636273746
 10
4977.49076600845
 20
1415.823203007253
 10
4977.487856751189
 20
1415.822335348686
 10
4977.484645368189
 20
1415.822070360458
 10
4977.481093053029
 20
1415.822074942037
 10
4977.479123279536
 20
1415.822074920175
 10
4977.47689078796
 20
1415.822074936547
 10
4977.475361901553
 20
1415.822074940286
 10
4977.468549230815
 20
1415.822074940562
  0
LINE
  5
10C8
330
1F
100
AcDbEntity
  8
Sanindusa
100
AcDbLine
 10
4977.360049230817
 20
1415.782864825793
 30
0.0
 11
4977.360048612704
 21
1415.800668166235
 31
0.0
  0
LWPOLYLINE
  5
1104
330
1F
100
AcDbEntity
  8
Sanindusa
100
AcDbPolyline
 90
        4
 70
   128
 43
0.0
 10
4977.431549230816
 20
1415.810074940424
 10
4977.383357522862
 20
1415.81007509819
 10
4977.369342889687
 20
1415.810075295397
 10
4977.36204907038
 20
1415.810075571488
  0
LWPOLYLINE
  5
1105
330
1F
100
AcDbEntity
  8
Sanindusa
100
AcDbPolyline
 90
        6
 70
   128
 43
0.0
 10
4977.431549230817
 20
1415.822074940562
 10
4977.417739367505
 20
1415.822074940562
 10
4977.403927857435
 20
1415.822074940562
 10
4977.390117179581
 20
1415.822074940562
 10
4977.376286835084
 20
1415.822074974772
 10
4977.362049391262
 20
1415.822075571635
  0
ARC
  5
1108
330
1F
100
AcDbEntity
  8
Sanindusa
100
AcDbCircle
 10
4977.362049230828
 20
1415.812075571493
 30
0.0
 40
0.0020000000111634
100
AcDbArc
 50
180.0
 51
269.9954035010776
  0
LINE
  5
110A
330
1F
100
AcDbEntity
  8
Sanindusa
100
AcDbLine
 10
4977.360048612704
 20
1415.800668166235
 30
0.0
 11
4977.360049230817
 21
1415.810386249753
 31
0.0
  0
ARC
  5
110B
330
1F
100
AcDbEntity
  8
Sanindusa
100
AcDbCircle
 10
4977.362049230826
 20
1415.820075571632
 30
0.0
 40
0.0020000000093932
100
AcDbArc
 50
89.99540386001264
 51
180.0
  0
LINE
  5
110C
330
1F
100
AcDbEntity
  8
Sanindusa
100
AcDbLine
 10
4977.360049230817
 20
1415.820075571619
 30
0.0
 11
4977.360049230817
 21
1415.812075744915
 31
0.0
  0
LWPOLYLINE
  5
110E
330
1F
100
AcDbEntity
  8
Sanindusa
100
AcDbPolyline
 90
       21
 70
   128
 43
0.0
 10
4977.431549230817
 20
1415.822074940562
 10
4977.431549230818
 20
1415.822074940571
 10
4977.431656671618
 20
1415.822065008827
 10
4977.432252385154
 20
1415.822009646177
 10
4977.433348376667
 20
1415.821912496924
 10
4977.43491590682
 20
1415.821783820798
 10
4977.436907971505
 20
1415.821638366391
 10
4977.439281227209
 20
1415.821491800257
 10
4977.441960717529
 20
1415.821360817204
 10
4977.444871908801
 20
1415.821261038289
 10
4977.447931644451
 20
1415.821202790772
 10
4977.451036392841
 20
1415.821193947851
 10
4977.454113020129
 20
1415.821233754142
 10
4977.457074122031
 20
1415.821318980941
 10
4977.459836198567
 20
1415.821438836974
 10
4977.462327335219
 20
1415.821581088996
 10
4977.46447187247
 20
1415.821728961355
 10
4977.466212878569
 20
1415.821866429653
 10
4977.467496490365
 20
1415.821977789966
 10
4977.468282296968
 20
1415.82204982042
 10
4977.468549230815
 20
1415.822074940562
  0
ARC
  5
110F
330
1F
100
AcDbEntity
  8
Sanindusa
100
AcDbCircle
 10
4977.431549230812
 20
1415.811074940429
 30
0.0
 40
0.0010000000052264
100
AcDbArc
 50
270.0000003344433
 51
0.0
  0
ARC
  5
1110
330
1F
100
AcDbEntity
  8
Sanindusa
100
AcDbCircle
 10
4977.431549230811
 20
1415.821074940556
 30
0.0
 40
0.0010000000061885
100
AcDbArc
 50
0.0
 51
89.99999960964244
  0
LINE
  5
1111
330
1F
100
AcDbEntity
  8
Sanindusa
100
AcDbLine
 10
4977.432549230817
 20
1415.811074921042
 30
0.0
 11
4977.432549230817
 21
1415.821074940551
 31
0.0
  0
ARC
  5
1112
330
1F
100
AcDbEntity
  8
Sanindusa
100
AcDbCircle
 10
4977.46854923082
 20
1415.811074940437
 30
0.0
 40
0.0010000000030395
100
AcDbArc
 50
180.0
 51
269.999999819855
  0
ARC
  5
1113
330
1F
100
AcDbEntity
  8
Sanindusa
100
AcDbCircle
 10
4977.46854923082
 20
1415.821074940558
 30
0.0
 40
0.0010000000039402
100
AcDbArc
 50
90.00000027889383
 51
180.0
  0
LINE
  5
1114
330
1F
100
AcDbEntity
  8
Sanindusa
100
AcDbLine
 10
4977.467549230817
 20
1415.821074940551
 30
0.0
 11
4977.467549230817
 21
1415.811074940445
 31
0.0
  0
LWPOLYLINE
  5
1118
330
1F
100
AcDbEntity
  8
Sanindusa
100
AcDbPolyline
 90
        5
 70
   128
 43
0.0
 10
4977.538046740331
 20
1415.748673664438
 10
4977.534723582279
 20
1415.770273979805
 10
4977.53306201919
 20
1415.781074139941
 10
4977.531400456051
 20
1415.791874300069
 10
4977.530546827815
 20
1415.797422883371
  0
LWPOLYLINE
  5
1119
330
1F
100
AcDbEntity
  8
Sanindusa
100
AcDbPolyline
 90
       15
 70
   128
 43
0.0
 10
4977.583373902628
 20
1415.687700811193
 10
4977.57837757173
 20
1415.689040965678
 10
4977.573688070911
 20
1415.691068991938
 10
4977.569367553174
 20
1415.693731032012
 10
4977.565236421068
 20
1415.697209077869
 10
4977.561673542997
 20
1415.701281940144
 10
4977.558755179649
 20
1415.705884219133
 10
4977.556557584525
 20
1415.710950515155
 10
4977.554860595508
 20
1415.718307175196
 10
4977.553697599883
 20
1415.725882626927
 10
4977.552530952428
 20
1415.73345673185
 10
4977.55136387191
 20
1415.741030677059
 10
4977.550198619438
 20
1415.748605384405
 10
4977.549033096351
 20
1415.756179816052
 10
4977.542641222325
 20
1415.797726997753
  0
LWPOLYLINE
  5
111E
330
1F
100
AcDbEntity
  8
Sanindusa
100
AcDbPolyline
 90
        5
 70
   128
 43
0.0
 10
4977.540671009397
 20
1415.73162868608
 10
4977.540014623114
 20
1415.735889881498
 10
4977.539358276394
 20
1415.740151083013
 10
4977.53870264645
 20
1415.744412395004
 10
4977.538046740331
 20
1415.748673664438
  0
ARC
  5
1122
330
1F
100
AcDbEntity
  8
Sanindusa
100
AcDbCircle
 10
4977.581500404181
 20
1415.677877777664
 30
0.0
 40
0.0100000992063759
100
AcDbArc
 50
47.64337137182785
 51
79.20194400485917
  0
LINE
  5
1127
330
1F
100
AcDbEntity
  8
Sanindusa
100
AcDbLine
 10
4977.541652850629
 20
1415.798574940562
 30
0.0
 11
4977.531535199513
 21
1415.798574940562
 31
0.0
  0
ARC
  5
1128
330
1F
100
AcDbEntity
  8
Sanindusa
100
AcDbCircle
 10
4977.530759636037
 20
1415.842074940562
 30
0.0
 40
0.005
100
AcDbArc
 50
8.746162371029111
 51
90.0
  0
LINE
  5
1129
330
1F
100
AcDbEntity
  8
Sanindusa
100
AcDbLine
 10
4977.527073660825
 20
1415.825574940562
 30
0.0
 11
4977.537191311941
 21
1415.825574940562
 31
0.0
  0
ARC
  5
112A
330
1F
100
AcDbEntity
  8
Sanindusa
100
AcDbCircle
 10
4977.51377419681
 20
1415.822968004832
 30
0.0
 40
0.005
100
AcDbArc
 50
153.8070090032356
 51
190.5970704016065
  0
ARC
  5
112B
330
1F
100
AcDbEntity
  8
Sanindusa
100
AcDbCircle
 10
4977.531535199513
 20
1415.797574940562
 30
0.0
 40
0.0009999999999999
100
AcDbArc
 50
90.0
 51
188.74616265186
  0
ARC
  5
112C
330
1F
100
AcDbEntity
  8
Sanindusa
100
AcDbCircle
 10
4977.485245187851
 20
1415.837001682877
 30
0.0
 40
0.0267938432982256
100
AcDbArc
 50
333.8070090032414
 51
355.8763076391745
  0
ARC
  5
112D
330
1F
100
AcDbEntity
  8
Sanindusa
100
AcDbCircle
 10
4977.505049489376
 20
1415.842074940562
 30
0.0
 40
0.0050000000000004
100
AcDbArc
 50
90.0
 51
180.0
  0
ARC
  5
112E
330
1F
100
AcDbEntity
  8
Sanindusa
100
AcDbCircle
 10
4977.527073660825
 20
1415.826574940562
 30
0.0
 40
0.001
100
AcDbArc
 50
188.7461658329172
 51
270.0
  0
LINE
  5
112F
330
1F
100
AcDbEntity
  8
Sanindusa
100
AcDbLine
 10
4977.526085289136
 20
1415.826422883317
 30
0.0
 11
4977.524754203358
 21
1415.835074940562
 31
0.0
  0
LINE
  5
1130
330
1F
100
AcDbEntity
  8
Sanindusa
100
AcDbLine
 10
4977.511969665446
 20
1415.835074940562
 30
0.0
 11
4977.524754203358
 21
1415.835074940562
 31
0.0
  0
LINE
  5
1131
330
1F
100
AcDbEntity
  8
Sanindusa
100
AcDbLine
 10
4977.505049489376
 20
1415.847074940562
 30
0.0
 11
4977.530759636037
 21
1415.847074940562
 31
0.0
  0
ARC
  5
1133
330
1F
100
AcDbEntity
  8
Sanindusa
100
AcDbCircle
 10
4977.541652850629
 20
1415.797574940562
 30
0.0
 40
0.0009999999999999
100
AcDbArc
 50
8.746162634472383
 51
90.0
  0
ARC
  5
1134
330
1F
100
AcDbEntity
  8
Sanindusa
100
AcDbCircle
 10
4977.537191311941
 20
1415.826574940562
 30
0.0
 40
0.0009999999999999
100
AcDbArc
 50
270.0
 51
8.746162652044249
  0
LINE
  5
1135
330
1F
100
AcDbEntity
  8
Sanindusa
100
AcDbLine
 10
4977.538179683637
 20
1415.826726997753
 30
0.0
 11
4977.535701494524
 21
1415.842835226493
 31
0.0
  0
LWPOLYLINE
  5
1136
330
1F
100
AcDbEntity
  8
Sanindusa
100
AcDbPolyline
 90
       21
 70
   128
 43
0.0
 10
4977.538179683637
 20
1415.826726997753
 10
4977.538229293774
 20
1415.826551216861
 10
4977.538373136225
 20
1415.826034422337
 10
4977.538636232342
 20
1415.825068457357
 10
4977.538987235668
 20
1415.823732609888
 10
4977.539408663353
 20
1415.822048270151
 10
4977.539870189697
 20
1415.82008373369
 10
4977.540341121042
 20
1415.817913016259
 10
4977.540801333862
 20
1415.815580748508
 10
4977.541229408318
 20
1415.813142119788
 10
4977.541608272144
 20
1415.810670034403
 10
4977.541920021778
 20
1415.808274897647
 10
4977.542168195197
 20
1415.805982775646
 10
4977.542350606388
 20
1415.803887383538
 10
4977.542478052695
 20
1415.802019223934
 10
4977.542559256235
 20
1415.800438883541
 10
4977.54260624705
 20
1415.799187615473
 10
4977.542629955554
 20
1415.798313740479
 10
4977.542639551451
 20
1415.797826714552
 10
4977.542641222325
 20
1415.797726997753
 10
4977.542641222325
 20
1415.797726997753
  0
LWPOLYLINE
  5
1138
330
1F
100
AcDbEntity
  8
Sanindusa
100
AcDbPolyline
 90
        7
 70
   128
 43
0.0
 10
4977.823501521772
 20
1415.742126428062
 10
4977.819851937702
 20
1415.738886957453
 10
4977.816096221499
 20
1415.735763125184
 10
4977.81224863445
 20
1415.732761608008
 10
4977.808324508032
 20
1415.729855063482
 10
4977.802425842651
 20
1415.725676444003
 10
4977.79642235784
 20
1415.721642238266
  0
LWPOLYLINE
  5
1139
330
1F
100
AcDbEntity
  8
Sanindusa
100
AcDbPolyline
 90
       25
 70
   128
 43
0.0
 10
4977.859778772995
 20
1415.842449878453
 10
4977.858598351064
 20
1415.832051676894
 10
4977.856574736857
 20
1415.821515023807
 10
4977.853553261784
 20
1415.810594604934
 10
4977.84941029651
 20
1415.799364937862
 10
4977.84441868105
 20
1415.788751756168
 10
4977.840174306273
 20
1415.781225484273
 10
4977.83533732075
 20
1415.773785398184
 10
4977.829746271867
 20
1415.766310798672
 10
4977.826767678045
 20
1415.762727277104
 10
4977.823516034592
 20
1415.759076151235
 10
4977.81991773805
 20
1415.75532071486
 10
4977.815866908304
 20
1415.751409542871
 10
4977.811161011867
 20
1415.747247017577
 10
4977.80080124401
 20
1415.739225293236
 10
4977.789543595743
 20
1415.731482381177
 10
4977.777450818082
 20
1415.724041056521
 10
4977.764499693184
 20
1415.716988182528
 10
4977.750671058836
 20
1415.710414686552
 10
4977.735993395463
 20
1415.704435062661
 10
4977.721430203928
 20
1415.699448257416
 10
4977.706231143339
 20
1415.695193642418
 10
4977.690503666187
 20
1415.691764253272
 10
4977.67438346511
 20
1415.689238835509
 10
4977.658025397307
 20
1415.687669696381
  0
ARC
  5
113A
330
1F
100
AcDbEntity
  8
Sanindusa
100
AcDbCircle
 10
4977.658683494349
 20
1415.677691353201
 30
0.0
 40
0.0100000212169399
100
AcDbArc
 50
93.77333730512251
 51
130.9955392896693
  0
LWPOLYLINE
  5
113B
330
1F
100
AcDbEntity
  8
Sanindusa
100
AcDbPolyline
 90
       11
 70
   128
 43
0.0
 10
4977.871116373541
 20
1415.835074940562
 10
4977.870061270273
 20
1415.827749852601
 10
4977.868646077925
 20
1415.820485802918
 10
4977.86685303684
 20
1415.81322999205
 10
4977.864701663555
 20
1415.806072211238
 10
4977.860323644849
 20
1415.794367558921
 10
4977.854987969577
 20
1415.783067974864
 10
4977.848532946004
 20
1415.77194621566
 10
4977.841156091448
 20
1415.761413759957
 10
4977.83278086567
 20
1415.75142352968
 10
4977.823501521772
 20
1415.742126428062
  0
LINE
  5
113F
330
1F
100
AcDbEntity
  8
Sanindusa
100
AcDbLine
 10
4977.864764695336
 20
1415.847074940562
 30
0.0
 11
4977.895049230824
 21
1415.847074940562
 31
0.0
  0
LINE
  5
1140
330
1F
100
AcDbEntity
  8
Sanindusa
100
AcDbLine
 10
4977.871116373541
 20
1415.835074940562
 30
0.0
 11
4977.888049230855
 21
1415.835074940562
 31
0.0
  0
ARC
  5
1141
330
1F
100
AcDbEntity
  8
Sanindusa
100
AcDbCircle
 10
4977.864764695336
 20
1415.842074940562
 30
0.0
 40
0.005
100
AcDbArc
 50
90.0
 51
175.6994914255499
  0
ARC
  5
1142
330
1F
100
AcDbEntity
  8
Sanindusa
100
AcDbCircle
 10
4977.895049230824
 20
1415.842074940562
 30
0.0
 40
0.005
100
AcDbArc
 50
0.0
 51
90.0
  0
LINE
  5
1149
330
1F
100
AcDbEntity
  8
Sanindusa
100
AcDbLine
 10
4976.856722712795
 20
1415.847074940562
 30
0.0
 11
4977.039222861083
 21
1415.847074940562
 31
0.0
  0
LWPOLYLINE
  5
114A
330
1F
100
AcDbEntity
  8
Sanindusa
100
AcDbPolyline
 90
       52
 70
   128
 43
0.0
 10
4977.04422272098
 20
1415.607185632491
 10
4977.044116927562
 20
1415.606586490943
 10
4977.044035058639
 20
1415.606099694822
 10
4977.043917408504
 20
1415.605410382582
 10
4977.043753905292
 20
1415.604485791025
 10
4977.043651473279
 20
1415.603925121541
 10
4977.043533230619
 20
1415.603293472739
 10
4977.043397551604
 20
1415.602586801299
 10
4977.043242715764
 20
1415.60180107296
 10
4977.043113546457
 20
1415.601160440884
 10
4977.042971908759
 20
1415.600471824644
 10
4977.042816945352
 20
1415.599733573342
 10
4977.042615855196
 20
1415.598797559477
 10
4977.042393207521
 20
1415.597787708835
 10
4977.042256459575
 20
1415.59718003917
 10
4977.042111878248
 20
1415.59654721858
 10
4977.0420365423
 20
1415.596221230782
 10
4977.041959116512
 20
1415.595888780896
 10
4977.041879554704
 20
1415.595549811602
 10
4977.041797809465
 20
1415.595204266
 10
4977.041627598058
 20
1415.594493336483
 10
4977.041355107764
 20
1415.593378285842
 10
4977.041061450315
 20
1415.59220672212
 10
4977.04065357049
 20
1415.590628076429
 10
4977.040208588254
 20
1415.588964895241
 10
4977.039725212974
 20
1415.587221829215
 10
4977.039201732743
 20
1415.585403705137
 10
4977.038636114056
 20
1415.583515523156
 10
4977.038026181744
 20
1415.581562426202
 10
4977.037369606277
 20
1415.579549685904
 10
4977.036386131516
 20
1415.57669464037
 10
4977.035303420815
 20
1415.573750918145
 10
4977.034115726973
 20
1415.570732018652
 10
4977.032818953722
 20
1415.567650577403
 10
4977.031397502978
 20
1415.564485773757
 10
4977.029868257512
 20
1415.561278373221
 10
4977.028238554486
 20
1415.558036525421
 10
4977.026513224148
 20
1415.554765070113
 10
4977.024694802636
 20
1415.551468196164
 10
4977.02278508105
 20
1415.548150551584
 10
4977.021293545095
 20
1415.545651701669
 10
4977.019751482696
 20
1415.543146255048
 10
4977.018158922757
 20
1415.540636581554
 10
4977.016515732612
 20
1415.538125143404
 10
4977.013076268255
 20
1415.533107176371
 10
4977.009429721904
 20
1415.528113199497
 10
4977.00557170256
 20
1415.523164344279
 10
4977.001497514783
 20
1415.518281509249
 10
4976.997202706915
 20
1415.513484984878
 10
4976.992683311283
 20
1415.50879424317
 10
4976.987936876668
 20
1415.504227831058
 10
4976.983615108733
 20
1415.500375608576
  0
LWPOLYLINE
  5
114D
330
1F
100
AcDbEntity
  8
Sanindusa
100
AcDbPolyline
 90
       55
 70
   128
 43
0.0
 10
4976.669222704611
 20
1415.60718563249
 10
4976.667496536313
 20
1415.614527498148
 10
4976.666169538149
 20
1415.620876000926
 10
4976.665160128631
 20
1415.626261747192
 10
4976.66434937861
 20
1415.631013297544
 10
4976.66368616656
 20
1415.635231016824
 10
4976.663321351715
 20
1415.637699801866
 10
4976.663007364328
 20
1415.640111092215
 10
4976.662742675667
 20
1415.642944693404
 10
4976.662526741979
 20
1415.646103796668
 10
4976.662359285588
 20
1415.649435654965
 10
4976.662231554036
 20
1415.653110898696
 10
4976.662151077612
 20
1415.656995902023
 10
4976.662117818121
 20
1415.66056722232
 10
4976.662116115965
 20
1415.663985465873
 10
4976.662138186298
 20
1415.667277000554
 10
4976.66217673638
 20
1415.670320902548
 10
4976.662224721598
 20
1415.673070624803
 10
4976.662295693079
 20
1415.676321276797
 10
4976.662391168878
 20
1415.679950516043
 10
4976.662528538199
 20
1415.684384230118
 10
4976.662718739769
 20
1415.689671551978
 10
4976.662937733372
 20
1415.695036260606
 10
4976.663231012802
 20
1415.701447827635
 10
4976.663505171281
 20
1415.706877460128
 10
4976.663780714222
 20
1415.711911784702
 10
4976.664036628454
 20
1415.716316634352
 10
4976.66429777815
 20
1415.720612099604
 10
4976.664520465293
 20
1415.724153539999
 10
4976.664739780714
 20
1415.727558212261
 10
4976.665056687462
 20
1415.732373726727
 10
4976.665401246862
 20
1415.737524527539
 10
4976.665685849087
 20
1415.741754803176
 10
4976.665956494894
 20
1415.745792010347
 10
4976.666325355028
 20
1415.751382229111
 10
4976.666579224614
 20
1415.755337095592
 10
4976.666779567839
 20
1415.758548949335
 10
4976.667024802537
 20
1415.762643010143
 10
4976.667277880761
 20
1415.767156167175
 10
4976.667489246446
 20
1415.771233720208
 10
4976.667719487246
 20
1415.775982283961
 10
4976.667943183166
 20
1415.780972690566
 10
4976.668143283973
 20
1415.785820983815
 10
4976.668283048046
 20
1415.789375628782
 10
4976.6684012037
 20
1415.792586541897
 10
4976.668493508293
 20
1415.795383873867
 10
4976.668543252078
 20
1415.797067839855
 10
4976.66860420247
 20
1415.79924271689
 10
4976.668682221475
 20
1415.802170765887
 10
4976.668773976037
 20
1415.805863963705
 10
4976.668875229695
 20
1415.810337219358
 10
4976.668980843895
 20
1415.815608220048
 10
4976.669084815978
 20
1415.821697197389
 10
4976.669179634375
 20
1415.828628157819
 10
4976.669222704608
 20
1415.832965365144
  0
LINE
  5
114E
330
1F
100
AcDbEntity
  8
Sanindusa
100
AcDbLine
 10
4976.669222704608
 20
1415.84207494056
 30
0.0
 11
4976.669222704611
 21
1415.607184270204
 31
0.0
  0
LWPOLYLINE
  5
114F
330
1F
100
AcDbEntity
  8
Sanindusa
100
AcDbPolyline
 90
       34
 70
   128
 43
0.0
 10
4976.729761912118
 20
1415.50014623796
 10
4976.726309611307
 20
1415.503253876103
 10
4976.721622079164
 20
1415.507775687941
 10
4976.717212596437
 20
1415.512314770802
 10
4976.713068264604
 20
1415.516848480652
 10
4976.709176970286
 20
1415.521354924323
 10
4976.707322854915
 20
1415.523591383664
 10
4976.705528256348
 20
1415.525813363932
 10
4976.703792278224
 20
1415.528018524733
 10
4976.702114250649
 20
1415.530204650019
 10
4976.699966350701
 20
1415.533086329529
 10
4976.697918211762
 20
1415.535931416167
 10
4976.695963171219
 20
1415.538752626291
 10
4976.693190639263
 20
1415.542972285075
 10
4976.690590837602
 20
1415.547223537231
 10
4976.688137842572
 20
1415.551559321361
 10
4976.685802877766
 20
1415.556032425182
 10
4976.684298359323
 20
1415.55911710561
 10
4976.682827423527
 20
1415.562302626802
 10
4976.681384656184
 20
1415.565605511634
 10
4976.679966408014
 20
1415.56904282723
 10
4976.67857094316
 20
1415.572632244159
 10
4976.677198853604
 20
1415.576392114348
 10
4976.676187212241
 20
1415.579335355625
 10
4976.675193457637
 20
1415.582393574922
 10
4976.674222124945
 20
1415.585570477673
 10
4976.673291305185
 20
1415.588823000115
 10
4976.672423009428
 20
1415.592080489282
 10
4976.671634282975
 20
1415.595270373862
 10
4976.670937153706
 20
1415.598318646819
 10
4976.67033897535
 20
1415.601150118454
 10
4976.669840289797
 20
1415.603703600899
 10
4976.669429229184
 20
1415.605975396834
 10
4976.66922443481
 20
1415.607186707616
  0
LWPOLYLINE
  5
1151
330
1F
100
AcDbEntity
  8
Sanindusa
100
AcDbPolyline
 90
       49
 70
   128
 43
0.0
 10
4976.772540243121
 20
1415.502215822494
 10
4976.772720484249
 20
1415.502318708339
 10
4976.773260435818
 20
1415.50242115361
 10
4976.77415778567
 20
1415.502522719622
 10
4976.775408691215
 20
1415.502622971453
 10
4976.777007795885
 20
1415.50272147981
 10
4976.778948252067
 20
1415.502817822865
 10
4976.781221750428
 20
1415.502911588062
 10
4976.783818555503
 20
1415.503002373883
 10
4976.786727547372
 20
1415.503089791571
 10
4976.789936269285
 20
1415.503173466789
 10
4976.793430981001
 20
1415.503253041228
 10
4976.79719671763
 20
1415.503328174136
 10
4976.801217353711
 20
1415.503398543784
 10
4976.805475672258
 20
1415.503463848838
 10
4976.809953438502
 20
1415.503523809651
 10
4976.814631477957
 20
1415.503578169463
 10
4976.819489758543
 20
1415.503626695496
 10
4976.824507476355
 20
1415.503669179954
 10
4976.829663144755
 20
1415.503705440912
 10
4976.83493468638
 20
1415.503735323095
 10
4976.84029952768
 20
1415.503758698543
 10
4976.845734695578
 20
1415.50377546716
 10
4976.851216915854
 20
1415.503785557138
 10
4976.856722712795
 20
1415.503788925272
 10
4976.862228509739
 20
1415.503785557138
 10
4976.867710730015
 20
1415.50377546716
 10
4976.873145897912
 20
1415.503758698543
 10
4976.878510739211
 20
1415.503735323095
 10
4976.883782280836
 20
1415.503705440912
 10
4976.888937949237
 20
1415.503669179954
 10
4976.893955667049
 20
1415.503626695496
 10
4976.898813947634
 20
1415.503578169463
 10
4976.903491987091
 20
1415.503523809651
 10
4976.907969753334
 20
1415.503463848838
 10
4976.912228071881
 20
1415.503398543784
 10
4976.916248707961
 20
1415.503328174136
 10
4976.920014444591
 20
1415.503253041228
 10
4976.923509156307
 20
1415.503173466789
 10
4976.92671787822
 20
1415.503089791571
 10
4976.929626870088
 20
1415.503002373883
 10
4976.932223675163
 20
1415.502911588062
 10
4976.934497173526
 20
1415.502817822865
 10
4976.936437629706
 20
1415.50272147981
 10
4976.938036734376
 20
1415.502622971453
 10
4976.939287639922
 20
1415.502522719622
 10
4976.940184989774
 20
1415.50242115361
 10
4976.940724941342
 20
1415.502318708339
 10
4976.940905182472
 20
1415.502215822494
  0
ARC
  5
1153
330
1F
100
AcDbEntity
  8
Sanindusa
100
AcDbCircle
 10
4976.856722712795
 20
1415.021141234909
 30
0.0
 40
0.4811214110419919
100
AcDbArc
 50
82.39087524678984
 51
97.60912475321015
  0
LWPOLYLINE
  5
1154
330
1F
100
AcDbEntity
  8
Sanindusa
100
AcDbPolyline
 90
       28
 70
   128
 43
0.0
 10
4976.856722712795
 20
1415.505699667791
 10
4976.847738946641
 20
1415.505693140511
 10
4976.838805479093
 20
1415.505673685764
 10
4976.830020021997
 20
1415.50564148364
 10
4976.819944026287
 20
1415.50558725806
 10
4976.81018018414
 20
1415.505515777795
 10
4976.80084228208
 20
1415.505428116576
 10
4976.792044106634
 20
1415.505325348134
 10
4976.783566123136
 20
1415.505203821197
 10
4976.775702767245
 20
1415.505067385471
 10
4976.768525528975
 20
1415.50491783323
 10
4976.762105898351
 20
1415.504756956751
 10
4976.756528886991
 20
1415.504584627552
 10
4976.75174208957
 20
1415.504402427987
 10
4976.747707885527
 20
1415.504217392131
 10
4976.744388654299
 20
1415.504036554058
 10
4976.740383143201
 20
1415.50376057631
 10
4976.737335995103
 20
1415.503472027396
 10
4976.735105342728
 20
1415.50317365563
 10
4976.733549318802
 20
1415.502868209329
 10
4976.73252605605
 20
1415.502558436806
 10
4976.731893687198
 20
1415.502247086379
 10
4976.731701696111
 20
1415.502122249083
 10
4976.730985977145
 20
1415.501622803186
 10
4976.729915608394
 20
1415.500623483223
 10
4976.729646887627
 20
1415.499624374926
 10
4976.730470468674
 20
1415.498606586324
 10
4976.731921247034
 20
1415.497588268833
  0
LWPOLYLINE
  5
1156
330
1F
100
AcDbEntity
  8
Sanindusa
100
AcDbPolyline
 90
       24
 70
   128
 43
0.0
 10
4976.856722712795
 20
1415.505097147113
 10
4976.845840609011
 20
1415.505084993709
 10
4976.8351050634
 20
1415.505049583418
 10
4976.825829827501
 20
1415.504999035798
 10
4976.816823023644
 20
1415.504931389324
 10
4976.808192743102
 20
1415.504848149111
 10
4976.800047077148
 20
1415.504750820272
 10
4976.7914881048
 20
1415.504625226471
 10
4976.783588636129
 20
1415.504483977726
 10
4976.776432257977
 20
1415.504329406144
 10
4976.770102557183
 20
1415.504163843837
 10
4976.764715882331
 20
1415.503989442687
 10
4976.760185013784
 20
1415.503805954571
 10
4976.756425792352
 20
1415.503616090816
 10
4976.753354058844
 20
1415.503422562745
 10
4976.749463353707
 20
1415.503108911729
 10
4976.74654558135
 20
1415.502791113392
 10
4976.744506560963
 20
1415.502470742304
 10
4976.743252111742
 20
1415.502149373034
 10
4976.741324809778
 20
1415.501276282768
 10
4976.7403124906
 20
1415.500402503832
 10
4976.740089970521
 20
1415.49952837735
 10
4976.74053206585
 20
1415.498654244442
 10
4976.741513592902
 20
1415.497780446229
  0
LWPOLYLINE
  5
1157
330
1F
100
AcDbEntity
  8
Sanindusa
100
AcDbPolyline
 90
       47
 70
   128
 43
0.0
 10
4976.932738438034
 20
1415.502215822494
 10
4976.932561227833
 20
1415.502312760316
 10
4976.932030423468
 20
1415.502409246168
 10
4976.93114849979
 20
1415.502504830191
 10
4976.929919568738
 20
1415.502599066726
 10
4976.928349360155
 20
1415.502691516399
 10
4976.926445195076
 20
1415.502781748168
 10
4976.924215951601
 20
1415.50286934133
 10
4976.921672023491
 20
1415.502953887486
 10
4976.918825271711
 20
1415.503034992442
 10
4976.915688969135
 20
1415.503112278049
 10
4976.912277738652
 20
1415.503185383967
 10
4976.908607484992
 20
1415.503253969342
 10
4976.904695320573
 20
1415.503317714397
 10
4976.900559485713
 20
1415.503376321923
 10
4976.896219263579
 20
1415.503429518665
 10
4976.891694890296
 20
1415.503477056596
 10
4976.887007460576
 20
1415.50351871407
 10
4976.882178829383
 20
1415.503554296863
 10
4976.877231510022
 20
1415.50358363907
 10
4976.872188569182
 20
1415.503606603885
 10
4976.86707351938
 20
1415.503623084236
 10
4976.86191020934
 20
1415.503633003282
 10
4976.856722712795
 20
1415.503636314777
 10
4976.851535216252
 20
1415.503633003282
 10
4976.846371906212
 20
1415.503623084236
 10
4976.84125685641
 20
1415.503606603885
 10
4976.83621391557
 20
1415.50358363907
 10
4976.831266596209
 20
1415.503554296863
 10
4976.826437965016
 20
1415.50351871407
 10
4976.821750535296
 20
1415.503477056596
 10
4976.817226162012
 20
1415.503429518665
 10
4976.812885939879
 20
1415.503376321923
 10
4976.808750105019
 20
1415.503317714397
 10
4976.8048379406
 20
1415.503253969342
 10
4976.801167686941
 20
1415.503185383967
 10
4976.797756456457
 20
1415.503112278049
 10
4976.794620153881
 20
1415.503034992442
 10
4976.791773402101
 20
1415.502953887486
 10
4976.789229473991
 20
1415.50286934133
 10
4976.787000230515
 20
1415.502781748168
 10
4976.785096065437
 20
1415.502691516399
 10
4976.783525856854
 20
1415.502599066726
 10
4976.782296925801
 20
1415.502504830191
 10
4976.781415002125
 20
1415.502409246168
 10
4976.780884197758
 20
1415.502312760316
 10
4976.780706987558
 20
1415.502215822494
  0
LWPOLYLINE
  5
1159
330
1F
100
AcDbEntity
  8
Sanindusa
100
AcDbPolyline
 90
       21
 70
   128
 43
0.0
 10
4976.741513592902
 20
1415.497780446229
 10
4976.74176370004
 20
1415.497735565434
 10
4976.74238342391
 20
1415.49769195331
 10
4976.743357754614
 20
1415.497650666154
 10
4976.744663093582
 20
1415.497612703954
 10
4976.74626782512
 20
1415.497578986166
 10
4976.748133082162
 20
1415.497550329444
 10
4976.750213687638
 20
1415.497527427862
 10
4976.752459248676
 20
1415.497510836104
 10
4976.754815377132
 20
1415.497500956026
 10
4976.757225006885
 20
1415.497498026927
 10
4976.759629776
 20
1415.497502119751
 10
4976.761971440266
 20
1415.497513135367
 10
4976.764193283891
 20
1415.497530806976
 10
4976.766241493174
 20
1415.497554706564
 10
4976.768066459886
 20
1415.497584255278
 10
4976.769623982802
 20
1415.497618737439
 10
4976.77087633826
 20
1415.497657317878
 10
4976.771793193847
 20
1415.497699062167
 10
4976.772352343054
 20
1415.497742959245
 10
4976.772540243121
 20
1415.497787945914
  0
LINE
  5
115B
330
1F
100
AcDbEntity
  8
Sanindusa
100
AcDbLine
 10
4976.787455171552
 20
1415.497303238997
 30
0.0
 11
4976.752087518214
 21
1415.497303238997
 31
0.0
  0
ARC
  5
115F
330
1F
100
AcDbEntity
  8
Sanindusa
100
AcDbCircle
 10
4976.74599285736
 20
1415.49911347456
 30
0.0
 40
0.0020000000000002
100
AcDbArc
 50
270.0
 51
292.8288135071912
  0
LWPOLYLINE
  5
1160
330
1F
100
AcDbEntity
  8
Sanindusa
100
AcDbPolyline
 90
        9
 70
   128
 43
0.0
 10
4976.733214956951
 20
1415.497113823788
 10
4976.733039306123
 20
1415.497121464487
 10
4976.732865013843
 20
1415.497144512107
 10
4976.732693428148
 20
1415.497182788388
 10
4976.732525876143
 20
1415.49723599729
 10
4976.732363653737
 20
1415.497303727274
 10
4976.732208015615
 20
1415.497385454492
 10
4976.732060165539
 20
1415.497480546838
 10
4976.731921247034
 20
1415.497588268833
  0
LINE
  5
1161
330
1F
100
AcDbEntity
  8
Sanindusa
100
AcDbLine
 10
4976.74599285736
 20
1415.497113823788
 30
0.0
 11
4976.733214956952
 21
1415.497113823788
 31
0.0
  0
LWPOLYLINE
  5
1163
330
1F
100
AcDbEntity
  8
Sanindusa
100
AcDbPolyline
 90
        4
 70
   128
 43
0.0
 10
4976.752087518214
 20
1415.497303238997
 10
4976.74932020333
 20
1415.49729652666
 10
4976.747396474792
 20
1415.497280683037
 10
4976.746768815627
 20
1415.497270138246
  0
LINE
  5
116C
330
1F
100
AcDbEntity
  8
Sanindusa
100
AcDbLine
 10
4976.780706987558
 20
1415.502215822494
 30
0.0
 11
4976.780706987558
 21
1415.498113075814
 31
0.0
  0
LINE
  5
116E
330
1F
100
AcDbEntity
  8
Sanindusa
100
AcDbLine
 10
4976.772540243121
 20
1415.497787945915
 30
0.0
 11
4976.772540243121
 21
1415.502215822494
 31
0.0
  0
LINE
  5
1170
330
1F
100
AcDbEntity
  8
Sanindusa
100
AcDbLine
 10
4976.787608730881
 20
1415.497981816342
 30
0.0
 11
4976.792344752924
 21
1415.497981816342
 31
0.0
  0
LINE
  5
1171
330
1F
100
AcDbEntity
  8
Sanindusa
100
AcDbLine
 10
4976.792344752924
 20
1415.497981816342
 30
0.0
 11
4976.793015383639
 21
1415.498026114492
 31
0.0
  0
LINE
  5
1172
330
1F
100
AcDbEntity
  8
Sanindusa
100
AcDbLine
 10
4976.788175082468
 20
1415.497354458727
 30
0.0
 11
4976.787455171552
 21
1415.497303238997
 31
0.0
  0
LINE
  5
1173
330
1F
100
AcDbEntity
  8
Sanindusa
100
AcDbLine
 10
4976.788175082468
 20
1415.497354458727
 30
0.0
 11
4976.793015383639
 21
1415.498026114492
 31
0.0
  0
LWPOLYLINE
  5
1175
330
1F
100
AcDbEntity
  8
Sanindusa
100
AcDbPolyline
 90
        9
 70
   128
 43
0.0
 10
4976.780706987558
 20
1415.498113075814
 10
4976.780838974048
 20
1415.498087345034
 10
4976.781229975053
 20
1415.498062670073
 10
4976.781865301455
 20
1415.498039977919
 10
4976.782721085318
 20
1415.498020121071
 10
4976.783765176572
 20
1415.498003845511
 10
4976.784958350809
 20
1415.497991762679
 10
4976.786255782881
 20
1415.497984326502
 10
4976.78760873088
 20
1415.497981816342
  0
LWPOLYLINE
  5
1181
330
1F
100
AcDbEntity
  8
Sanindusa
100
AcDbPolyline
 90
       28
 70
   128
 43
0.0
 10
4976.856722712795
 20
1415.505699667791
 10
4976.865706478951
 20
1415.505693140511
 10
4976.8746399465
 20
1415.505673685764
 10
4976.883425403594
 20
1415.50564148364
 10
4976.893501399305
 20
1415.50558725806
 10
4976.903265241452
 20
1415.505515777795
 10
4976.912603143513
 20
1415.505428116576
 10
4976.921401318958
 20
1415.505325348134
 10
4976.929879302455
 20
1415.505203821197
 10
4976.937742658348
 20
1415.505067385471
 10
4976.944919896617
 20
1415.50491783323
 10
4976.951339527242
 20
1415.504756956751
 10
4976.9569165386
 20
1415.504584627552
 10
4976.961703336022
 20
1415.504402427987
 10
4976.965737540065
 20
1415.504217392131
 10
4976.969056771292
 20
1415.504036554058
 10
4976.97306228239
 20
1415.50376057631
 10
4976.976109430489
 20
1415.503472027396
 10
4976.978340082863
 20
1415.50317365563
 10
4976.97989610679
 20
1415.502868209329
 10
4976.980919369542
 20
1415.502558436806
 10
4976.981551738395
 20
1415.502247086379
 10
4976.98174372948
 20
1415.502122249083
 10
4976.982459448447
 20
1415.501622803186
 10
4976.983529817198
 20
1415.500623483223
 10
4976.983798537965
 20
1415.499624374926
 10
4976.982974956918
 20
1415.498606586324
 10
4976.981524178558
 20
1415.497588268833
  0
LWPOLYLINE
  5
1183
330
1F
100
AcDbEntity
  8
Sanindusa
100
AcDbPolyline
 90
       24
 70
   128
 43
0.0
 10
4976.856722712795
 20
1415.505097147113
 10
4976.86760481658
 20
1415.505084993709
 10
4976.878340362191
 20
1415.505049583418
 10
4976.887615598091
 20
1415.504999035798
 10
4976.896622401948
 20
1415.504931389324
 10
4976.90525268249
 20
1415.504848149111
 10
4976.913398348443
 20
1415.504750820272
 10
4976.921957320792
 20
1415.504625226471
 10
4976.929856789463
 20
1415.504483977726
 10
4976.937013167615
 20
1415.504329406144
 10
4976.943342868409
 20
1415.504163843837
 10
4976.948729543261
 20
1415.503989442687
 10
4976.953260411808
 20
1415.503805954571
 10
4976.957019633241
 20
1415.503616090816
 10
4976.960091366748
 20
1415.503422562745
 10
4976.963982071885
 20
1415.503108911729
 10
4976.966899844242
 20
1415.502791113392
 10
4976.968938864628
 20
1415.502470742304
 10
4976.970193313849
 20
1415.502149373034
 10
4976.972120615814
 20
1415.501276282768
 10
4976.973132934991
 20
1415.500402503832
 10
4976.973355455071
 20
1415.49952837735
 10
4976.972913359742
 20
1415.498654244442
 10
4976.97193183269
 20
1415.497780446229
  0
LINE
  5
1186
330
1F
100
AcDbEntity
  8
Sanindusa
100
AcDbLine
 10
4976.940905182472
 20
1415.497787945915
 30
0.0
 11
4976.940905182472
 21
1415.502215822494
 31
0.0
  0
LINE
  5
118A
330
1F
100
AcDbEntity
  8
Sanindusa
100
AcDbLine
 10
4976.932738438034
 20
1415.502215822494
 30
0.0
 11
4976.932738438034
 21
1415.498113075814
 31
0.0
  0
LINE
  5
118E
330
1F
100
AcDbEntity
  8
Sanindusa
100
AcDbLine
 10
4976.925990254041
 20
1415.497303238997
 30
0.0
 11
4976.961357907378
 21
1415.497303238997
 31
0.0
  0
LWPOLYLINE
  5
118F
330
1F
100
AcDbEntity
  8
Sanindusa
100
AcDbPolyline
 90
       21
 70
   128
 43
0.0
 10
4976.97193183269
 20
1415.497780446229
 10
4976.971681725551
 20
1415.497735565434
 10
4976.971062001682
 20
1415.49769195331
 10
4976.970087670977
 20
1415.497650666154
 10
4976.968782332011
 20
1415.497612703954
 10
4976.967177600473
 20
1415.497578986166
 10
4976.96531234343
 20
1415.497550329444
 10
4976.963231737954
 20
1415.497527427862
 10
4976.960986176916
 20
1415.497510836104
 10
4976.95863004846
 20
1415.497500956026
 10
4976.956220418706
 20
1415.497498026927
 10
4976.953815649592
 20
1415.497502119751
 10
4976.951473985326
 20
1415.497513135367
 10
4976.9492521417
 20
1415.497530806976
 10
4976.947203932418
 20
1415.497554706564
 10
4976.945378965705
 20
1415.497584255278
 10
4976.94382144279
 20
1415.497618737439
 10
4976.942569087331
 20
1415.497657317878
 10
4976.941652231744
 20
1415.497699062167
 10
4976.941093082538
 20
1415.497742959245
 10
4976.940905182472
 20
1415.497787945914
  0
LINE
  5
1192
330
1F
100
AcDbEntity
  8
Sanindusa
100
AcDbLine
 10
4976.921100672669
 20
1415.497981816342
 30
0.0
 11
4976.920430041952
 21
1415.498026114492
 31
0.0
  0
LWPOLYLINE
  5
1193
330
1F
100
AcDbEntity
  8
Sanindusa
100
AcDbPolyline
 90
        9
 70
   128
 43
0.0
 10
4976.932738438034
 20
1415.498113075814
 10
4976.932606451544
 20
1415.498087345034
 10
4976.932215450538
 20
1415.498062670073
 10
4976.931580124137
 20
1415.498039977919
 10
4976.930724340274
 20
1415.498020121071
 10
4976.929680249021
 20
1415.498003845511
 10
4976.928487074783
 20
1415.497991762679
 10
4976.927189642711
 20
1415.497984326502
 10
4976.925836694711
 20
1415.497981816342
  0
LINE
  5
1194
330
1F
100
AcDbEntity
  8
Sanindusa
100
AcDbLine
 10
4976.925270343125
 20
1415.497354458727
 30
0.0
 11
4976.925990254041
 21
1415.497303238997
 31
0.0
  0
LINE
  5
1195
330
1F
100
AcDbEntity
  8
Sanindusa
100
AcDbLine
 10
4976.925836694711
 20
1415.497981816342
 30
0.0
 11
4976.921100672669
 21
1415.497981816342
 31
0.0
  0
LINE
  5
1196
330
1F
100
AcDbEntity
  8
Sanindusa
100
AcDbLine
 10
4976.925270343125
 20
1415.497354458727
 30
0.0
 11
4976.920430041952
 21
1415.498026114492
 31
0.0
  0
LWPOLYLINE
  5
1198
330
1F
100
AcDbEntity
  8
Sanindusa
100
AcDbPolyline
 90
        9
 70
   128
 43
0.0
 10
4976.98023046864
 20
1415.497113823788
 10
4976.980406119468
 20
1415.497121464487
 10
4976.980580411749
 20
1415.497144512107
 10
4976.980751997444
 20
1415.497182788388
 10
4976.980919549449
 20
1415.49723599729
 10
4976.981081771856
 20
1415.497303727274
 10
4976.981237409976
 20
1415.497385454492
 10
4976.981385260053
 20
1415.497480546838
 10
4976.981524178558
 20
1415.497588268833
  0
LWPOLYLINE
  5
1199
330
1F
100
AcDbEntity
  8
Sanindusa
100
AcDbPolyline
 90
        4
 70
   128
 43
0.0
 10
4976.961357907378
 20
1415.497303238997
 10
4976.964125222262
 20
1415.49729652666
 10
4976.966048950799
 20
1415.497280683037
 10
4976.966723236035
 20
1415.497269354919
  0
LINE
  5
119B
330
1F
100
AcDbEntity
  8
Sanindusa
100
AcDbLine
 10
4976.967452568231
 20
1415.497113823788
 30
0.0
 11
4976.98023046864
 21
1415.497113823788
 31
0.0
  0
LWPOLYLINE
  5
119D
330
1F
100
AcDbEntity
  8
Sanindusa
100
AcDbPolyline
 90
        3
 70
   128
 43
0.0
 10
4976.967452568231
 20
1415.497113823788
 10
4976.966840094466
 20
1415.497210338976
 10
4976.966723236035
 20
1415.497269354919
  0
LINE
  5
11AB
330
1F
100
AcDbEntity
  8
Sanindusa
100
AcDbLine
 10
4976.856722712795
 20
1415.847074940562
 30
0.0
 11
4976.674222564509
 21
1415.847074940562
 31
0.0
  0
LWPOLYLINE
  5
11AD
330
1F
100
AcDbEntity
  8
Sanindusa
100
AcDbPolyline
 90
        9
 70
   128
 43
0.0
 10
4976.674222564509
 20
1415.847074940562
 10
4976.673247140231
 20
1415.846978866964
 10
4976.67230920096
 20
1415.846694338225
 10
4976.671444791178
 20
1415.846232288624
 10
4976.670687129668
 20
1415.845610474468
 10
4976.670065332935
 20
1415.844852791727
 10
4976.669603296281
 20
1415.843988357723
 10
4976.669318775513
 20
1415.843050392171
 10
4976.669222704608
 20
1415.84207494056
  0
LWPOLYLINE
  5
11AE
330
1F
100
AcDbEntity
  8
Sanindusa
100
AcDbPolyline
 90
       61
 70
   128
 43
0.0
 10
4977.044222720984
 20
1415.833101870649
 10
4977.044274902794
 20
1415.827936232473
 10
4977.044374427561
 20
1415.820773542789
 10
4977.044483074635
 20
1415.814533634897
 10
4977.044593271791
 20
1415.809195318861
 10
4977.04470096524
 20
1415.804641527645
 10
4977.044797104927
 20
1415.800994548981
 10
4977.044878320993
 20
1415.798161052521
 10
4977.04496183568
 20
1415.795444615383
 10
4977.045052571654
 20
1415.79268126695
 10
4977.045150806873
 20
1415.789872586135
 10
4977.045233155664
 20
1415.787641892858
 10
4977.045314130469
 20
1415.785543230772
 10
4977.04539068447
 20
1415.78363559853
 10
4977.045462136373
 20
1415.781915167245
 10
4977.045536165405
 20
1415.780187889995
 10
4977.045643604981
 20
1415.777770492487
 10
4977.045913815263
 20
1415.772082231152
 10
4977.046159660488
 20
1415.767302954122
 10
4977.046357961228
 20
1415.763728411025
 10
4977.04656021225
 20
1415.760286181497
 10
4977.046777100061
 20
1415.756753937353
 10
4977.047001166023
 20
1415.753220852409
 10
4977.047193253966
 20
1415.750261102307
 10
4977.047418874713
 20
1415.746843592946
 10
4977.047676605329
 20
1415.742989595383
 10
4977.047893762795
 20
1415.73976092658
 10
4977.048058682489
 20
1415.737308886491
 10
4977.048273527987
 20
1415.734102855777
 10
4977.048492590425
 20
1415.730806455549
 10
4977.048661172599
 20
1415.728240506657
 10
4977.048948287333
 20
1415.723786869252
 10
4977.04928779342
 20
1415.718328543959
 10
4977.049673788328
 20
1415.711750192165
 10
4977.050037568726
 20
1415.70500297738
 10
4977.050339594034
 20
1415.698802935624
 10
4977.050590628923
 20
1415.693084732891
 10
4977.050799015965
 20
1415.687761943808
 10
4977.050969562457
 20
1415.682777816025
 10
4977.051107160615
 20
1415.67802075285
 10
4977.051220373174
 20
1415.67308145559
 10
4977.051297718935
 20
1415.668158770331
 10
4977.051329296417
 20
1415.663991044685
 10
4977.051330288843
 20
1415.661305732145
 10
4977.051305034717
 20
1415.657811823957
 10
4977.051240735198
 20
1415.654161500639
 10
4977.051157435511
 20
1415.651289401723
 10
4977.051057890376
 20
1415.64879208996
 10
4977.050938112594
 20
1415.646441924307
 10
4977.050603380585
 20
1415.641747990238
 10
4977.050309650212
 20
1415.638915949609
 10
4977.049991116924
 20
1415.636663013265
 10
4977.049659449704
 20
1415.634622177556
 10
4977.049312939794
 20
1415.632642573598
 10
4977.049023509967
 20
1415.630929849282
 10
4977.048666075815
 20
1415.62880106649
 10
4977.048228562742
 20
1415.626254701809
 10
4977.047696118509
 20
1415.623288871287
 10
4977.046807657252
 20
1415.618678140522
 10
4977.04566930227
 20
1415.613312220866
 10
4977.04422272098
 20
1415.607185632491
  0
LINE
  5
11AF
330
1F
100
AcDbEntity
  8
Sanindusa
100
AcDbLine
 10
4977.044222720984
 20
1415.84207494056
 30
0.0
 11
4977.04422272098
 21
1415.607184270204
 31
0.0
  0
LWPOLYLINE
  5
11B0
330
1F
100
AcDbEntity
  8
Sanindusa
100
AcDbPolyline
 90
        9
 70
   128
 43
0.0
 10
4977.039222861083
 20
1415.847074940562
 10
4977.040198285362
 20
1415.846978866964
 10
4977.041136224631
 20
1415.846694338225
 10
4977.042000634414
 20
1415.846232288624
 10
4977.042758295925
 20
1415.845610474468
 10
4977.043380092657
 20
1415.844852791727
 10
4977.043842129312
 20
1415.843988357723
 10
4977.044126650078
 20
1415.843050392171
 10
4977.044222720984
 20
1415.84207494056
  0
LWPOLYLINE
  5
120C
330
1F
100
AcDbEntity
  8
Sanindusa
100
AcDbPolyline
 90
       21
 70
   128
 43
0.0
 10
4975.307626809759
 20
1415.553293607493
 10
4975.308195538485
 20
1415.540047648207
 10
4975.309692213964
 20
1415.526841453717
 10
4975.312099788062
 20
1415.513770141834
 10
4975.315401212649
 20
1415.500928830368
 10
4975.320505338562
 20
1415.485969874099
 10
4975.326855564447
 20
1415.471435539603
 10
4975.334383151682
 20
1415.457475224882
 10
4975.34301936164
 20
1415.444238327936
 10
4975.352710256227
 20
1415.431829730818
 10
4975.363442056096
 20
1415.420233543782
 10
4975.375098901076
 20
1415.409568202212
 10
4975.387564930998
 20
1415.399952141489
 10
4975.40081050865
 20
1415.3914325591
 10
4975.414775626399
 20
1415.384031054627
 10
4975.429309393412
 20
1415.377820242082
 10
4975.444260918854
 20
1415.372872735479
 10
4975.456079805517
 20
1415.369933027606
 10
4975.468982869532
 20
1415.367642008443
 10
4975.48203051369
 20
1415.36625693802
 10
4975.495126817947
 20
1415.365792078508
  0
LWPOLYLINE
  5
120E
330
1F
100
AcDbEntity
  8
Sanindusa
100
AcDbPolyline
 90
       41
 70
   128
 43
0.0
 10
4975.495126817947
 20
1415.406062536335
 10
4975.483429300804
 20
1415.406533665743
 10
4975.471805854388
 20
1415.407932684329
 10
4975.459687980423
 20
1415.410416685425
 10
4975.447780004599
 20
1415.413925768705
 10
4975.436206738534
 20
1415.418417265017
 10
4975.42509299385
 20
1415.423848505205
 10
4975.414473802963
 20
1415.430217292877
 10
4975.404392454301
 20
1415.437483298018
 10
4975.394952364609
 20
1415.445564991346
 10
4975.386256950627
 20
1415.45438084358
 10
4975.37835042193
 20
1415.463903466383
 10
4975.371247550517
 20
1415.474093605418
 10
4975.365018257894
 20
1415.484840155916
 10
4975.359732465566
 20
1415.496032013106
 10
4975.355420386479
 20
1415.507635099751
 10
4975.352087040374
 20
1415.519602222618
 10
4975.349763338745
 20
1415.531805500786
 10
4975.348480193087
 20
1415.544117053334
 10
4975.348227330375
 20
1415.558560753131
 10
4975.349183485299
 20
1415.573023153969
 10
4975.35128438414
 20
1415.587371470711
 10
4975.354465753177
 20
1415.60147291822
 10
4975.358244623482
 20
1415.613985326209
 10
4975.362849941372
 20
1415.626233440808
 10
4975.3682384558
 20
1415.638142731978
 10
4975.374712979007
 20
1415.650219967342
 10
4975.382023369505
 20
1415.661866794741
 10
4975.390112259256
 20
1415.673007600452
 10
4975.398922280221
 20
1415.68356677075
 10
4975.408396064363
 20
1415.693468691911
 10
4975.415908287554
 20
1415.700337560504
 10
4975.423898505781
 20
1415.706690023803
 10
4975.432340817516
 20
1415.712407633995
 10
4975.441209321235
 20
1415.717371943264
 10
4975.450463027282
 20
1415.721525911698
 10
4975.46006767381
 20
1415.724898891535
 10
4975.469920244773
 20
1415.727458307685
 10
4975.479917724124
 20
1415.729171585056
 10
4975.48750697398
 20
1415.729896599768
 10
4975.495126817947
 20
1415.730139814807
  0
LWPOLYLINE
  5
120F
330
1F
100
AcDbEntity
  8
Sanindusa
100
AcDbPolyline
 90
       41
 70
   128
 43
0.0
 10
4975.495126817947
 20
1415.406062536335
 10
4975.506824335091
 20
1415.406533665743
 10
4975.518447781507
 20
1415.407932684329
 10
4975.530565655471
 20
1415.410416685425
 10
4975.542473631296
 20
1415.413925768705
 10
4975.554046897361
 20
1415.418417265017
 10
4975.565160642045
 20
1415.423848505205
 10
4975.575779832933
 20
1415.430217292877
 10
4975.585861181593
 20
1415.437483298018
 10
4975.595301271285
 20
1415.445564991346
 10
4975.603996685268
 20
1415.45438084358
 10
4975.611903213965
 20
1415.463903466383
 10
4975.619006085377
 20
1415.474093605418
 10
4975.625235378
 20
1415.484840155916
 10
4975.630521170328
 20
1415.496032013106
 10
4975.634833249415
 20
1415.507635099751
 10
4975.63816659552
 20
1415.519602222618
 10
4975.640490297149
 20
1415.531805500786
 10
4975.641773442808
 20
1415.544117053334
 10
4975.64202630552
 20
1415.558560753131
 10
4975.641070150595
 20
1415.573023153969
 10
4975.638969251754
 20
1415.587371470711
 10
4975.635787882717
 20
1415.60147291822
 10
4975.632009012413
 20
1415.613985326209
 10
4975.627403694523
 20
1415.626233440808
 10
4975.622015180094
 20
1415.638142731978
 10
4975.615540656888
 20
1415.650219967342
 10
4975.608230266389
 20
1415.661866794741
 10
4975.600141376639
 20
1415.673007600452
 10
4975.591331355673
 20
1415.68356677075
 10
4975.581857571532
 20
1415.693468691911
 10
4975.57434534834
 20
1415.700337560504
 10
4975.566355130116
 20
1415.706690023803
 10
4975.55791281838
 20
1415.712407633995
 10
4975.54904431466
 20
1415.717371943264
 10
4975.539790608613
 20
1415.721525911698
 10
4975.530185962085
 20
1415.724898891535
 10
4975.520333391123
 20
1415.727458307685
 10
4975.510335911771
 20
1415.729171585056
 10
4975.502746661915
 20
1415.729896599768
 10
4975.495126817947
 20
1415.730139814807
  0
LWPOLYLINE
  5
1211
330
1F
100
AcDbEntity
  8
Sanindusa
100
AcDbPolyline
 90
       21
 70
   128
 43
0.0
 10
4975.682626826134
 20
1415.553293607493
 10
4975.68205809741
 20
1415.540047648207
 10
4975.680561421931
 20
1415.526841453717
 10
4975.678153847832
 20
1415.513770141834
 10
4975.674852423246
 20
1415.500928830368
 10
4975.669748297333
 20
1415.485969874099
 10
4975.663398071447
 20
1415.471435539603
 10
4975.655870484214
 20
1415.457475224882
 10
4975.647234274254
 20
1415.444238327936
 10
4975.637543379669
 20
1415.431829730818
 10
4975.626811579799
 20
1415.420233543782
 10
4975.615154734818
 20
1415.409568202212
 10
4975.602688704896
 20
1415.399952141489
 10
4975.589443127245
 20
1415.3914325591
 10
4975.575478009496
 20
1415.384031054627
 10
4975.560944242482
 20
1415.377820242082
 10
4975.545992717041
 20
1415.372872735479
 10
4975.534173830379
 20
1415.369933027606
 10
4975.521270766362
 20
1415.367642008443
 10
4975.508223122204
 20
1415.36625693802
 10
4975.495126817947
 20
1415.365792078508
  0
LWPOLYLINE
  5
1222
330
1F
100
AcDbEntity
  8
Sanindusa
100
AcDbPolyline
 90
       16
 70
   128
 43
0.0
 10
4975.600126415166
 20
1415.725598003364
 10
4975.600126460413
 20
1415.72559796397
 10
4975.61129673976
 20
1415.715070026496
 10
4975.621694218254
 20
1415.703719721887
 10
4975.631348129
 20
1415.691686848502
 10
4975.640287705106
 20
1415.6791112047
 10
4975.648542179676
 20
1415.66613258884
 10
4975.655427681173
 20
1415.654128641251
 10
4975.661764960244
 20
1415.641760288962
 10
4975.667444575599
 20
1415.629063989405
 10
4975.672357085941
 20
1415.61607620001
 10
4975.676393049983
 20
1415.602833378206
 10
4975.67944302643
 20
1415.589371981425
 10
4975.681029560643
 20
1415.579343691703
 10
4975.682275638415
 20
1415.56634616859
 10
4975.682626826134
 20
1415.553293607493
  0
LWPOLYLINE
  5
1223
330
1F
100
AcDbEntity
  8
Sanindusa
100
AcDbPolyline
 90
       16
 70
   128
 43
0.0
 10
4975.390127220728
 20
1415.725598003364
 10
4975.39012717548
 20
1415.72559796397
 10
4975.378956896134
 20
1415.715070026496
 10
4975.368559417642
 20
1415.703719721887
 10
4975.358905506894
 20
1415.691686848502
 10
4975.349965930789
 20
1415.6791112047
 10
4975.341711456217
 20
1415.66613258884
 10
4975.334825954721
 20
1415.654128641251
 10
4975.32848867565
 20
1415.641760288962
 10
4975.322809060298
 20
1415.629063989405
 10
4975.317896549952
 20
1415.61607620001
 10
4975.313860585911
 20
1415.602833378206
 10
4975.310810609465
 20
1415.589371981425
 10
4975.309224075252
 20
1415.579343691703
 10
4975.307977997481
 20
1415.56634616859
 10
4975.307626809759
 20
1415.553293607493
  0
LWPOLYLINE
  5
1224
330
1F
100
AcDbEntity
  8
Sanindusa
100
AcDbPolyline
 90
       65
 70
   128
 43
0.0
 10
4975.685128322109
 20
1415.903787915197
 10
4975.685111049395
 20
1415.889808289557
 10
4975.685090534595
 20
1415.875171187336
 10
4975.685074975851
 20
1415.861150991903
 10
4975.685062414754
 20
1415.848062520226
 10
4975.685056203893
 20
1415.836063501454
 10
4975.685057254461
 20
1415.825391686664
 10
4975.685066147934
 20
1415.815933077152
 10
4975.685083487744
 20
1415.807538319795
 10
4975.685109729725
 20
1415.800029282357
 10
4975.685163048607
 20
1415.79052396094
 10
4975.685233438574
 20
1415.781824333792
 10
4975.68531779299
 20
1415.773793299987
 10
4975.685413336378
 20
1415.766381172883
 10
4975.685516908434
 20
1415.759548634797
 10
4975.685625775388
 20
1415.753264515986
 10
4975.685802061541
 20
1415.744440287986
 10
4975.685977645113
 20
1415.736831821712
 10
4975.686145166843
 20
1415.730373931925
 10
4975.686215451189
 20
1415.727853895981
 10
4975.686304504506
 20
1415.72479524399
 10
4975.686417733026
 20
1415.721094244105
 10
4975.686557142707
 20
1415.716781516488
 10
4975.686722600858
 20
1415.711950078734
 10
4975.686881676086
 20
1415.707543337962
 10
4975.687020629884
 20
1415.703849690108
 10
4975.68717747516
 20
1415.699825216387
 10
4975.687327672442
 20
1415.696115772306
 10
4975.687488694553
 20
1415.692311460942
 10
4975.687689611439
 20
1415.687702634502
 10
4975.687897525489
 20
1415.682985093391
 10
4975.688133022859
 20
1415.677642521812
 10
4975.688342893175
 20
1415.672820001486
 10
4975.688503551815
 20
1415.669045081225
 10
4975.688618329562
 20
1415.666280409015
 10
4975.688720544734
 20
1415.663754474108
 10
4975.688857012459
 20
1415.660259759265
 10
4975.689021881997
 20
1415.655787353804
 10
4975.68920217218
 20
1415.650443865719
 10
4975.689415037029
 20
1415.643048927868
 10
4975.689564538493
 20
1415.636401072973
 10
4975.689661947058
 20
1415.630470844391
 10
4975.68971771282
 20
1415.624999059409
 10
4975.689735956592
 20
1415.620043345322
 10
4975.689728739478
 20
1415.616749564233
 10
4975.68969603155
 20
1415.612738286787
 10
4975.689618546343
 20
1415.607995779471
 10
4975.689507139827
 20
1415.603718174069
 10
4975.68934836339
 20
1415.599416453869
 10
4975.689118539292
 20
1415.594847798248
 10
4975.688808980267
 20
1415.590213008171
 10
4975.688693908123
 20
1415.588756878439
 10
4975.688614851793
 20
1415.587817827676
 10
4975.688559344111
 20
1415.58718462089
 10
4975.688468372951
 20
1415.586189215709
 10
4975.688277693171
 20
1415.584260516746
 10
4975.687996819263
 20
1415.581755450698
 10
4975.687611701905
 20
1415.578853735603
 10
4975.687187602223
 20
1415.576239276146
 10
4975.686668343396
 20
1415.573517924026
 10
4975.68604905416
 20
1415.570387934963
 10
4975.685328213359
 20
1415.566817732528
 10
4975.684509352832
 20
1415.562786497945
 10
4975.683602760971
 20
1415.558279484002
 10
4975.682626826132
 20
1415.553293590977
  0
LWPOLYLINE
  5
1225
330
1F
100
AcDbEntity
  8
Sanindusa
100
AcDbPolyline
 90
       65
 70
   128
 43
0.0
 10
4975.307626809763
 20
1415.553293590977
 10
4975.30688509131
 20
1415.557050971927
 10
4975.306161570159
 20
1415.560560520395
 10
4975.305473042709
 20
1415.563817282141
 10
4975.304831900143
 20
1415.566824718298
 10
4975.304246500325
 20
1415.569591973671
 10
4975.30372170454
 20
1415.572131818274
 10
4975.303369308247
 20
1415.573923955
 10
4975.303052386158
 20
1415.575774123004
 10
4975.302770211081
 20
1415.5776489661
 10
4975.302521566669
 20
1415.579491483167
 10
4975.302118511523
 20
1415.582899493671
 10
4975.301795678973
 20
1415.586078534068
 10
4975.30151646994
 20
1415.589291281423
 10
4975.301265883382
 20
1415.592735038487
 10
4975.301039743488
 20
1415.596580775426
 10
4975.300835310019
 20
1415.601145596832
 10
4975.300681984354
 20
1415.605992787634
 10
4975.300592701555
 20
1415.610247023194
 10
4975.300545720203
 20
1415.613848521808
 10
4975.300521786074
 20
1415.617498112793
 10
4975.300519372854
 20
1415.621407345557
 10
4975.300536357664
 20
1415.625064210982
 10
4975.300564604324
 20
1415.628228924103
 10
4975.300612297968
 20
1415.631930511402
 10
4975.300691424845
 20
1415.636516018752
 10
4975.300813205259
 20
1415.64203134418
 10
4975.300966846266
 20
1415.647697630797
 10
4975.301131203401
 20
1415.652882591714
 10
4975.301294428224
 20
1415.657528349634
 10
4975.301450049595
 20
1415.661647119706
 10
4975.301685450685
 20
1415.667496137286
 10
4975.301913238398
 20
1415.672878095163
 10
4975.302162646097
 20
1415.678599403537
 10
4975.302455457811
 20
1415.685235807787
 10
4975.302772565854
 20
1415.692487938929
 10
4975.303093622477
 20
1415.700265916043
 10
4975.303263962879
 20
1415.704661444558
 10
4975.303415665871
 20
1415.708733612092
 10
4975.303531008314
 20
1415.711949360362
 10
4975.303608110945
 20
1415.714165947752
 10
4975.303659412199
 20
1415.715673878951
 10
4975.303719113668
 20
1415.717464339006
 10
4975.303796828675
 20
1415.719855358411
 10
4975.303891257049
 20
1415.722860296734
 10
4975.304000654243
 20
1415.726496137361
 10
4975.30412273293
 20
1415.730783967457
 10
4975.304273287047
 20
1415.736479367111
 10
4975.304432155922
 20
1415.743090472785
 10
4975.304593967504
 20
1415.750671676731
 10
4975.304752431807
 20
1415.759289182417
 10
4975.304900241464
 20
1415.769023504335
 10
4975.305028296338
 20
1415.779983545131
 10
4975.305079873264
 20
1415.78572132513
 10
4975.305123729777
 20
1415.791796877758
 10
4975.305158668043
 20
1415.798264155646
 10
4975.305184137226
 20
1415.805395359535
 10
4975.305200486562
 20
1415.813357126396
 10
4975.305208250386
 20
1415.822308615002
 10
4975.305208144599
 20
1415.832440544235
 10
4975.305200006268
 20
1415.844865733816
 10
4975.305184831976
 20
1415.858537129137
 10
4975.305166038578
 20
1415.873317013153
 10
4975.305144041605
 20
1415.88884756848
 10
4975.30512516698
 20
1415.903787955685
  0
ARC
  5
122A
330
1F
100
AcDbEntity
  8
Sanindusa
100
AcDbCircle
 10
4975.495125152938
 20
1415.645792078515
 30
0.0
 40
0.0230000000602669
100
AcDbArc
 50
270.0041477425511
 51
89.9958522574489
  0
ARC
  5
1232
330
1F
100
AcDbEntity
  8
Sanindusa
100
AcDbCircle
 10
4975.495128482958
 20
1415.645792078515
 30
0.0
 40
0.0230000000602667
100
AcDbArc
 50
90.00414774255112
 51
269.9958522574489
  0
LINE
  5
1236
330
1F
100
AcDbEntity
  8
Sanindusa
100
AcDbLine
 10
4975.495126817947
 20
1415.905792078515
 30
0.0
 11
4975.59905649993
 21
1415.905792078515
 31
0.0
  0
LWPOLYLINE
  5
1237
330
1F
100
AcDbEntity
  8
Sanindusa
100
AcDbPolyline
 90
       11
 70
   128
 43
0.0
 10
4975.495126817947
 20
1415.765791819954
 10
4975.498273455013
 20
1415.765757761869
 10
4975.512213374941
 20
1415.764786448045
 10
4975.526061236133
 20
1415.762523328907
 10
4975.539660475257
 20
1415.759041031284
 10
4975.55285452899
 20
1415.754412182008
 10
4975.565511828706
 20
1415.74872165057
 10
4975.577697060025
 20
1415.741978280111
 10
4975.58927898606
 20
1415.734248325789
 10
4975.600126369924
 20
1415.725598042763
 10
4975.600126415166
 20
1415.725598003364
  0
LWPOLYLINE
  5
123A
330
1F
100
AcDbEntity
  8
Sanindusa
100
AcDbPolyline
 90
        7
 70
   128
 43
0.0
 10
4975.663151350614
 20
1415.85039638903
 10
4975.659163896521
 20
1415.85045159316
 10
4975.654834848437
 20
1415.850493695669
 10
4975.646119605028
 20
1415.850536142442
 10
4975.636393690037
 20
1415.850534326535
 10
4975.62540026668
 20
1415.850486220181
 10
4975.613494052834
 20
1415.850391916488
  0
LWPOLYLINE
  5
123B
330
1F
100
AcDbEntity
  8
Sanindusa
100
AcDbPolyline
 90
        7
 70
   128
 43
0.0
 10
4975.613491812395
 20
1415.825192361996
 10
4975.61992211839
 20
1415.825136586483
 10
4975.626118493911
 20
1415.825093688872
 10
4975.636757358422
 20
1415.825049309327
 10
4975.646452119742
 20
1415.825049091867
 10
4975.655367041329
 20
1415.825095248045
 10
4975.663140925339
 20
1415.825188049448
  0
LINE
  5
1241
330
1F
100
AcDbEntity
  8
Sanindusa
100
AcDbLine
 10
4975.665030775569
 20
1415.827137267958
 30
0.0
 11
4975.66503933107
 21
1415.848447120043
 31
0.0
  0
LWPOLYLINE
  5
1244
330
1F
100
AcDbEntity
  8
Sanindusa
100
AcDbPolyline
 90
        8
 70
   128
 43
0.0
 10
4975.663140925339
 20
1415.825188049448
 10
4975.663862275441
 20
1415.825317785824
 10
4975.664480075901
 20
1415.825716153218
 10
4975.664792272518
 20
1415.826129441076
 10
4975.664874011602
 20
1415.826296833795
 10
4975.66500743931
 20
1415.826763750148
 10
4975.665026451459
 20
1415.826931743807
 10
4975.665030775569
 20
1415.827137267958
  0
LWPOLYLINE
  5
1248
330
1F
100
AcDbEntity
  8
Sanindusa
100
AcDbPolyline
 90
        7
 70
   128
 43
0.0
 10
4975.66503933107
 20
1415.848447120043
 10
4975.664989419965
 20
1415.848961210121
 10
4975.664965777085
 20
1415.849053798259
 10
4975.664720246708
 20
1415.849589075951
 10
4975.66432146865
 20
1415.850015108286
 10
4975.663770688287
 20
1415.850302663884
 10
4975.663151350614
 20
1415.85039638903
  0
LINE
  5
124A
330
1F
100
AcDbEntity
  8
Sanindusa
100
AcDbLine
 10
4975.612295533699
 20
1415.84838490411
 30
0.0
 11
4975.612294097277
 21
1415.82719906055
 31
0.0
  0
LWPOLYLINE
  5
124C
330
1F
100
AcDbEntity
  8
Sanindusa
100
AcDbPolyline
 90
        7
 70
   128
 43
0.0
 10
4975.612304109529
 20
1415.827203168062
 10
4975.612354233413
 20
1415.826603160054
 10
4975.61256027063
 20
1415.825987226876
 10
4975.612857834928
 20
1415.825535082121
 10
4975.613163077395
 20
1415.825281856342
 10
4975.613411620276
 20
1415.82519617154
 10
4975.613456867662
 20
1415.825203895852
  0
LWPOLYLINE
  5
1250
330
1F
100
AcDbEntity
  8
Sanindusa
100
AcDbPolyline
 90
        7
 70
   128
 43
0.0
 10
4975.613427153574
 20
1415.850378495714
 10
4975.613231591424
 20
1415.850336484719
 10
4975.612927440262
 20
1415.850120562381
 10
4975.61262583838
 20
1415.849719327528
 10
4975.612388115911
 20
1415.849120363426
 10
4975.61229580844
 20
1415.848424904613
 10
4975.612299353787
 20
1415.848389031144
  0
LWPOLYLINE
  5
1254
330
1F
100
AcDbEntity
  8
Sanindusa
100
AcDbPolyline
 90
       13
 70
   128
 43
0.0
 10
4975.618090476172
 20
1415.849769738211
 10
4975.619357564521
 20
1415.849763308516
 10
4975.620305404635
 20
1415.849744194813
 10
4975.62090814191
 20
1415.849712918475
 10
4975.621149335243
 20
1415.84967033264
 10
4975.621022405508
 20
1415.849617598938
 10
4975.620530815018
 20
1415.849556155806
 10
4975.619687973081
 20
1415.849487679254
 10
4975.618516870226
 20
1415.849414037142
 10
4975.617049451086
 20
1415.849337238237
 10
4975.615325743032
 20
1415.84925937741
 10
4975.613392764324
 20
1415.849182578505
 10
4975.612429973586
 20
1415.849147560895
  0
LWPOLYLINE
  5
1255
330
1F
100
AcDbEntity
  8
Sanindusa
100
AcDbPolyline
 90
        5
 70
   128
 43
0.0
 10
4975.612635295849
 20
1415.849710717901
 10
4975.612757023167
 20
1415.849712918475
 10
4975.61474457172
 20
1415.849744194813
 10
4975.616538702457
 20
1415.849763308516
 10
4975.618090476172
 20
1415.849769738211
  0
LINE
  5
1257
330
1F
100
AcDbEntity
  8
Sanindusa
100
AcDbLine
 10
4975.59905649993
 20
1415.905792078515
 30
0.0
 11
4975.683127902378
 21
1415.905792078472
 31
0.0
  0
LWPOLYLINE
  5
1258
330
1F
100
AcDbEntity
  8
Sanindusa
100
AcDbPolyline
 90
        9
 70
   128
 43
0.0
 10
4975.685128322109
 20
1415.903787915197
 10
4975.685093943588
 20
1415.904161254027
 10
4975.684981862469
 20
1415.904543310399
 10
4975.684796320918
 20
1415.904895593708
 10
4975.684544672376
 20
1415.905204142152
 10
4975.684236890258
 20
1415.905456727238
 10
4975.683885172683
 20
1415.905643338435
 10
4975.683503459036
 20
1415.905756579907
 10
4975.683127902377
 20
1415.905792078472
  0
LWPOLYLINE
  5
1259
330
1F
100
AcDbEntity
  8
Sanindusa
100
AcDbPolyline
 90
       11
 70
   128
 43
0.0
 10
4975.495126817947
 20
1415.765791819954
 10
4975.491980180883
 20
1415.765757761869
 10
4975.478040260952
 20
1415.764786448045
 10
4975.464192399762
 20
1415.762523328907
 10
4975.450593160637
 20
1415.759041031284
 10
4975.437399106905
 20
1415.754412182008
 10
4975.424741807189
 20
1415.74872165057
 10
4975.41255657587
 20
1415.741978280111
 10
4975.400974649835
 20
1415.734248325789
 10
4975.390127265971
 20
1415.725598042763
 10
4975.390127220728
 20
1415.725598003364
  0
LWPOLYLINE
  5
125C
330
1F
100
AcDbEntity
  8
Sanindusa
100
AcDbPolyline
 90
       21
 70
   128
 43
0.0
 10
4975.495126817947
 20
1415.798292078515
 10
4975.495100295153
 20
1415.798292098614
 10
4975.492161736212
 20
1415.798546918213
 10
4975.48930749594
 20
1415.799287973226
 10
4975.486616516976
 20
1415.800502765645
 10
4975.484166910209
 20
1415.80214911614
 10
4975.482037987451
 20
1415.80417862726
 10
4975.480276166093
 20
1415.806534209456
 10
4975.478939123523
 20
1415.809147704631
 10
4975.478054235651
 20
1415.81194800077
 10
4975.477653515349
 20
1415.814858428872
 10
4975.4777418416
 20
1415.817795225384
 10
4975.478327777732
 20
1415.820688981354
 10
4975.479388092161
 20
1415.823443386288
 10
4975.480898193687
 20
1415.825977124339
 10
4975.482809265449
 20
1415.828223003679
 10
4975.485062949422
 20
1415.830106699871
 10
4975.487598880376
 20
1415.831590184601
 10
4975.490353651332
 20
1415.832626713706
 10
4975.493243514536
 20
1415.833190445342
 10
4975.495126817947
 20
1415.833292078515
  0
LWPOLYLINE
  5
125E
330
1F
100
AcDbEntity
  8
Sanindusa
100
AcDbPolyline
 90
       21
 70
   128
 43
0.0
 10
4975.495126817947
 20
1415.798292078515
 10
4975.495153340742
 20
1415.798292098614
 10
4975.498091899684
 20
1415.798546918213
 10
4975.500946139954
 20
1415.799287973226
 10
4975.503637118919
 20
1415.800502765645
 10
4975.506086725687
 20
1415.80214911614
 10
4975.508215648442
 20
1415.80417862726
 10
4975.509977469801
 20
1415.806534209456
 10
4975.511314512371
 20
1415.809147704631
 10
4975.512199400245
 20
1415.81194800077
 10
4975.512600120545
 20
1415.814858428872
 10
4975.512511794295
 20
1415.817795225384
 10
4975.511925858163
 20
1415.820688981354
 10
4975.510865543733
 20
1415.823443386288
 10
4975.509355442207
 20
1415.825977124339
 10
4975.507444370446
 20
1415.828223003679
 10
4975.505190686472
 20
1415.830106699871
 10
4975.502654755519
 20
1415.831590184601
 10
4975.499899984562
 20
1415.832626713706
 10
4975.497010121358
 20
1415.833190445342
 10
4975.495126817947
 20
1415.833292078515
  0
LWPOLYLINE
  5
125F
330
1F
100
AcDbEntity
  8
Sanindusa
100
AcDbPolyline
 90
        4
 70
   128
 43
0.0
 10
4975.508548692443
 20
1415.725212512758
 10
4975.508548692443
 20
1415.725212512758
 10
4975.508465874252
 20
1415.725339450479
 10
4975.507636702344
 20
1415.72579298954
  0
LWPOLYLINE
  5
1260
330
1F
100
AcDbEntity
  8
Sanindusa
100
AcDbPolyline
 90
        4
 70
   128
 43
0.0
 10
4975.483382490385
 20
1415.726073586298
 10
4975.482186940205
 20
1415.725562339051
 10
4975.481733231988
 20
1415.725303373328
 10
4975.481704943452
 20
1415.725212512758
  0
LWPOLYLINE
  5
1262
330
1F
100
AcDbEntity
  8
Sanindusa
100
AcDbPolyline
 90
       10
 70
   128
 43
0.0
 10
4975.495126817947
 20
1415.724188458703
 10
4975.493546296678
 20
1415.724189999134
 10
4975.491331212406
 20
1415.724198965804
 10
4975.489221960606
 20
1415.72422164121
 10
4975.487269532849
 20
1415.724267221027
 10
4975.485538988151
 20
1415.724346968261
 10
4975.484085742319
 20
1415.724472842478
 10
4975.482942854714
 20
1415.724654059031
 10
4975.482139637215
 20
1415.724901242104
 10
4975.481704943452
 20
1415.725212512758
  0
LWPOLYLINE
  5
1264
330
1F
100
AcDbEntity
  8
Sanindusa
100
AcDbPolyline
 90
       10
 70
   128
 43
0.0
 10
4975.495126817947
 20
1415.724188458703
 10
4975.496707339218
 20
1415.724189999134
 10
4975.498922423489
 20
1415.724198965804
 10
4975.501031675289
 20
1415.72422164121
 10
4975.502984103045
 20
1415.724267221027
 10
4975.504714647744
 20
1415.724346968261
 10
4975.506167893574
 20
1415.724472842478
 10
4975.507310781182
 20
1415.724654059031
 10
4975.508113998681
 20
1415.724901242104
 10
4975.508548692443
 20
1415.725212512758
  0
LWPOLYLINE
  5
1267
330
1F
100
AcDbEntity
  8
Sanindusa
100
AcDbPolyline
 90
        7
 70
   128
 43
0.0
 10
4975.32710228528
 20
1415.85039638903
 10
4975.331089739373
 20
1415.85045159316
 10
4975.335418787456
 20
1415.850493695669
 10
4975.344134030867
 20
1415.850536142442
 10
4975.353859945857
 20
1415.850534326535
 10
4975.364853369215
 20
1415.850486220181
 10
4975.376759583062
 20
1415.850391916488
  0
LWPOLYLINE
  5
1268
330
1F
100
AcDbEntity
  8
Sanindusa
100
AcDbPolyline
 90
        7
 70
   128
 43
0.0
 10
4975.3767618235
 20
1415.825192361996
 10
4975.370331517504
 20
1415.825136586483
 10
4975.364135141983
 20
1415.825093688872
 10
4975.353496277472
 20
1415.825049309327
 10
4975.343801516153
 20
1415.825049091867
 10
4975.334886594566
 20
1415.825095248045
 10
4975.327112710555
 20
1415.825188049448
  0
LWPOLYLINE
  5
126D
330
1F
100
AcDbEntity
  8
Sanindusa
100
AcDbPolyline
 90
        3
 70
   128
 43
0.0
 10
4975.377960386929
 20
1415.827199058279
 10
4975.377958417322
 20
1415.842029153208
 10
4975.377958337167
 20
1415.848384904884
  0
LWPOLYLINE
  5
126F
330
1F
100
AcDbEntity
  8
Sanindusa
100
AcDbPolyline
 90
        7
 70
   128
 43
0.0
 10
4975.376825396153
 20
1415.825213624558
 10
4975.376949284353
 20
1415.825219063133
 10
4975.377238839139
 20
1415.825383583583
 10
4975.377547883302
 20
1415.82573166549
 10
4975.377799060558
 20
1415.826240600226
 10
4975.377944329732
 20
1415.826899706304
 10
4975.377940526963
 20
1415.827198303407
  0
LWPOLYLINE
  5
1273
330
1F
100
AcDbEntity
  8
Sanindusa
100
AcDbPolyline
 90
        7
 70
   128
 43
0.0
 10
4975.37794195307
 20
1415.848387287051
 10
4975.377950704793
 20
1415.848595032629
 10
4975.377821506525
 20
1415.849271823186
 10
4975.377565199177
 20
1415.849822907641
 10
4975.377255214123
 20
1415.850185119802
 10
4975.376971830971
 20
1415.850356690692
 10
4975.376805795979
 20
1415.850379798131
  0
LWPOLYLINE
  5
1277
330
1F
100
AcDbEntity
  8
Sanindusa
100
AcDbPolyline
 90
       13
 70
   128
 43
0.0
 10
4975.372163159723
 20
1415.849769738211
 10
4975.370896071375
 20
1415.849763308516
 10
4975.369948231258
 20
1415.849744194813
 10
4975.369345493984
 20
1415.849712918475
 10
4975.369104300651
 20
1415.84967033264
 10
4975.369231230385
 20
1415.849617598938
 10
4975.369722820875
 20
1415.849556155806
 10
4975.370565662814
 20
1415.849487679254
 10
4975.371736765669
 20
1415.849414037142
 10
4975.373204184808
 20
1415.849337238237
 10
4975.374927892864
 20
1415.84925937741
 10
4975.376860871571
 20
1415.849182578505
 10
4975.377813634847
 20
1415.84914791572
  0
LWPOLYLINE
  5
1278
330
1F
100
AcDbEntity
  8
Sanindusa
100
AcDbPolyline
 90
        5
 70
   128
 43
0.0
 10
4975.377605000712
 20
1415.849710960532
 10
4975.377496612729
 20
1415.849712918475
 10
4975.375509064175
 20
1415.849744194813
 10
4975.373714933437
 20
1415.849763308516
 10
4975.372163159723
 20
1415.849769738211
  0
LINE
  5
127A
330
1F
100
AcDbEntity
  8
Sanindusa
100
AcDbLine
 10
4975.325222860325
 20
1415.827137267958
 30
0.0
 11
4975.325214304825
 21
1415.848447120043
 31
0.0
  0
LWPOLYLINE
  5
127D
330
1F
100
AcDbEntity
  8
Sanindusa
100
AcDbPolyline
 90
        8
 70
   128
 43
0.0
 10
4975.327112710555
 20
1415.825188049448
 10
4975.326391360454
 20
1415.825317785824
 10
4975.325773559994
 20
1415.825716153218
 10
4975.325461363376
 20
1415.826129441076
 10
4975.325379624292
 20
1415.826296833795
 10
4975.325246196584
 20
1415.826763750148
 10
4975.325227184436
 20
1415.826931743807
 10
4975.325222860325
 20
1415.827137267958
  0
LWPOLYLINE
  5
1281
330
1F
100
AcDbEntity
  8
Sanindusa
100
AcDbPolyline
 90
        7
 70
   128
 43
0.0
 10
4975.325214304825
 20
1415.848447120043
 10
4975.325264215929
 20
1415.848961210121
 10
4975.32528785881
 20
1415.849053798259
 10
4975.325533389188
 20
1415.849589075951
 10
4975.325932167245
 20
1415.850015108286
 10
4975.326482947608
 20
1415.850302663884
 10
4975.32710228528
 20
1415.85039638903
  0
LINE
  5
1284
330
1F
100
AcDbEntity
  8
Sanindusa
100
AcDbLine
 10
4975.495126817947
 20
1415.905792078515
 30
0.0
 11
4975.391197135965
 21
1415.905792078515
 31
0.0
  0
LINE
  5
1286
330
1F
100
AcDbEntity
  8
Sanindusa
100
AcDbLine
 10
4975.391197135965
 20
1415.905792078515
 30
0.0
 11
4975.307125733517
 21
1415.905792078472
 31
0.0
  0
LWPOLYLINE
  5
1287
330
1F
100
AcDbEntity
  8
Sanindusa
100
AcDbPolyline
 90
        9
 70
   128
 43
0.0
 10
4975.307125733517
 20
1415.905792078472
 10
4975.306755976277
 20
1415.905757678511
 10
4975.306379403503
 20
1415.905647773574
 10
4975.306031527426
 20
1415.905466477044
 10
4975.305725731401
 20
1415.905220763691
 10
4975.305473779897
 20
1415.904920086505
 10
4975.305285365895
 20
1415.904576013026
 10
4975.305167737989
 20
1415.904201780317
 10
4975.30512516698
 20
1415.903787955685
  0
LINE
  5
145A
330
1F
100
AcDbEntity
  8
Sanindusa
100
AcDbLine
 10
4976.060098048561
 20
1415.847074940562
 30
0.0
 11
4976.021133549657
 21
1415.847074940562
 31
0.0
  0
LINE
  5
145D
330
1F
100
AcDbEntity
  8
Sanindusa
100
AcDbLine
 10
4975.952320993332
 20
1415.498406249305
 30
0.0
 11
4976.055752600727
 21
1415.500339394836
 31
0.0
  0
ARC
  5
145E
330
1F
100
AcDbEntity
  8
Sanindusa
100
AcDbCircle
 10
4976.148155972396
 20
1415.72872305938
 30
0.0
 40
0.2679805216607428
100
AcDbArc
 50
303.4537376383875
 51
0.0550949569618257
  0
LINE
  5
145F
330
1F
100
AcDbEntity
  8
Sanindusa
100
AcDbLine
 10
4976.055750120908
 20
1415.500339348488
 30
0.0
 11
4976.2948186995
 21
1415.504807560537
 31
0.0
  0
ARC
  5
1460
330
1F
100
AcDbEntity
  8
Sanindusa
100
AcDbCircle
 10
4976.294781325857
 20
1415.506807211309
 30
0.0
 40
0.002
100
AcDbArc
 50
271.0707383228495
 51
303.4537376383875
  0
LWPOLYLINE
  5
1461
330
1F
100
AcDbEntity
  8
Sanindusa
100
AcDbPolyline
 90
        4
 70
   128
 43
0.0
 10
4976.416136349546
 20
1415.72844475782
 10
4976.416136680869
 20
1415.737058850019
 10
4976.416136209143
 20
1415.75321516667
 10
4976.416133291106
 20
1415.842074940576
  0
LINE
  5
1463
330
1F
100
AcDbEntity
  8
Sanindusa
100
AcDbLine
 10
4976.411133291106
 20
1415.847074940562
 30
0.0
 11
4976.228594332454
 21
1415.847074940562
 31
0.0
  0
ARC
  5
1464
330
1F
100
AcDbEntity
  8
Sanindusa
100
AcDbCircle
 10
4976.411133291106
 20
1415.842074940562
 30
0.0
 40
0.005
100
AcDbArc
 50
0.0000001551451235
 51
90.0
  0
LINE
  5
1466
330
1F
100
AcDbEntity
  8
Sanindusa
100
AcDbLine
 10
4976.228594332454
 20
1415.847074940562
 30
0.0
 11
4976.060098048561
 21
1415.847074940562
 31
0.0
  0
LINE
  5
1468
330
1F
100
AcDbEntity
  8
Sanindusa
100
AcDbLine
 10
4975.876133291099
 20
1415.607518095886
 30
0.0
 11
4975.876133291099
 21
1415.49911347456
 31
0.0
  0
LINE
  5
1469
330
1F
100
AcDbEntity
  8
Sanindusa
100
AcDbLine
 10
4975.878170664742
 20
1415.497113823788
 30
0.0
 11
4975.952323559807
 21
1415.498406297272
 31
0.0
  0
ARC
  5
146C
330
1F
100
AcDbEntity
  8
Sanindusa
100
AcDbCircle
 10
4975.878133291099
 20
1415.49911347456
 30
0.0
 40
0.0020000000000002
100
AcDbArc
 50
180.0
 51
271.0707383232405
  0
LWPOLYLINE
  5
146D
330
1F
100
AcDbEntity
  8
Sanindusa
100
AcDbPolyline
 90
        6
 70
   128
 43
0.0
 10
4975.954726127448
 20
1415.780472606302
 10
4975.955389979574
 20
1415.780424957596
 10
4975.955979226267
 20
1415.780251425374
 10
4975.956427719782
 20
1415.779968300148
 10
4975.956684184475
 20
1415.779604010963
 10
4975.956733007618
 20
1415.779349332722
  0
LWPOLYLINE
  5
146F
330
1F
100
AcDbEntity
  8
Sanindusa
100
AcDbPolyline
 90
        6
 70
   128
 43
0.0
 10
4975.931533453126
 20
1415.779352085275
 10
4975.931651699072
 20
1415.779747411808
 10
4975.931982303132
 20
1415.780085039979
 10
4975.932488446346
 20
1415.780330437321
 10
4975.933113536604
 20
1415.780459262211
 10
4975.933540378338
 20
1415.780474338056
  0
LINE
  5
1476
330
1F
100
AcDbEntity
  8
Sanindusa
100
AcDbLine
 10
4975.876133291099
 20
1415.789586310955
 30
0.0
 11
4975.876133291099
 21
1415.607518095886
 31
0.0
  0
LINE
  5
1479
330
1F
100
AcDbEntity
  8
Sanindusa
100
AcDbLine
 10
4975.954788101656
 20
1415.717075745101
 30
0.0
 11
4975.93347824957
 21
1415.717075745101
 31
0.0
  0
LWPOLYLINE
  5
147A
330
1F
100
AcDbEntity
  8
Sanindusa
100
AcDbPolyline
 90
        7
 70
   128
 43
0.0
 10
4975.956733007618
 20
1415.779349332722
 10
4975.956788783131
 20
1415.774030102912
 10
4975.956831680742
 20
1415.768414599548
 10
4975.956876060287
 20
1415.757451474952
 10
4975.956876277747
 20
1415.745645274878
 10
4975.956830121568
 20
1415.732695950963
 10
4975.956737320165
 20
1415.719031471621
  0
LWPOLYLINE
  5
147D
330
1F
100
AcDbEntity
  8
Sanindusa
100
AcDbPolyline
 90
        8
 70
   128
 43
0.0
 10
4975.956737320165
 20
1415.719031471621
 10
4975.95660758379
 20
1415.718316672588
 10
4975.956209216396
 20
1415.717683100908
 10
4975.955795928538
 20
1415.717351791995
 10
4975.955628535818
 20
1415.717262720425
 10
4975.955161619466
 20
1415.717111027471
 10
4975.954993625806
 20
1415.717086337495
 10
4975.954788101656
 20
1415.717075745101
  0
LWPOLYLINE
  5
1485
330
1F
100
AcDbEntity
  8
Sanindusa
100
AcDbPolyline
 90
       39
 70
   128
 43
0.0
 10
4975.932155631403
 20
1415.74566092774
 10
4975.932162061099
 20
1415.743826318237
 10
4975.932181174801
 20
1415.74180817453
 10
4975.932212451138
 20
1415.739661546316
 10
4975.932255036974
 20
1415.737444988019
 10
4975.932307770676
 20
1415.735218961569
 10
4975.932369213808
 20
1415.733044187167
 10
4975.93243769036
 20
1415.730979986989
 10
4975.932511332472
 20
1415.729082667034
 10
4975.932588131377
 20
1415.727403981244
 10
4975.932665992203
 20
1415.725989719793
 10
4975.932742791108
 20
1415.724878460046
 10
4975.93281643322
 20
1415.724100514271
 10
4975.932884909773
 20
1415.723677102803
 10
4975.932946352905
 20
1415.723619775201
 10
4975.932999086607
 20
1415.723930095213
 10
4975.933041672442
 20
1415.724599598119
 10
4975.933072948779
 20
1415.725610021624
 10
4975.933092062483
 20
1415.72693380401
 10
4975.933098492178
 20
1415.728534835943
 10
4975.933092062483
 20
1415.730369445445
 10
4975.933072948779
 20
1415.732387589153
 10
4975.933041672442
 20
1415.734534217366
 10
4975.932999086607
 20
1415.736750775664
 10
4975.932946352905
 20
1415.738976802113
 10
4975.932884909773
 20
1415.741151576515
 10
4975.93281643322
 20
1415.743215776694
 10
4975.932742791108
 20
1415.745113096649
 10
4975.932665992203
 20
1415.746791782438
 10
4975.932588131377
 20
1415.748206043889
 10
4975.932511332472
 20
1415.749317303636
 10
4975.93243769036
 20
1415.750095249411
 10
4975.932369213808
 20
1415.750518660879
 10
4975.932307770676
 20
1415.750575988482
 10
4975.932255036974
 20
1415.750265668469
 10
4975.932212451138
 20
1415.749596165563
 10
4975.932181174801
 20
1415.748585742058
 10
4975.932162061099
 20
1415.747261959673
 10
4975.932155631403
 20
1415.74566092774
  0
LWPOLYLINE
  5
1486
330
1F
100
AcDbEntity
  8
Sanindusa
100
AcDbPolyline
 90
        7
 70
   128
 43
0.0
 10
4975.931528980584
 20
1415.719031471621
 10
4975.931473776455
 20
1415.726383657637
 10
4975.931431673945
 20
1415.733560690845
 10
4975.931389227172
 20
1415.746099180389
 10
4975.931391043078
 20
1415.757871186821
 10
4975.931439149433
 20
1415.769098197836
 10
4975.931533453126
 20
1415.779352085275
  0
LWPOLYLINE
  5
1489
330
1F
100
AcDbEntity
  8
Sanindusa
100
AcDbPolyline
 90
        7
 70
   128
 43
0.0
 10
4975.93347824957
 20
1415.717075745101
 10
4975.932964159493
 20
1415.717143255086
 10
4975.932871571355
 20
1415.717170542218
 10
4975.932336293663
 20
1415.717439544495
 10
4975.931910261328
 20
1415.717858330951
 10
4975.931622705729
 20
1415.718419023797
 10
4975.931528980584
 20
1415.719031471621
  0
LWPOLYLINE
  5
1491
330
1F
100
AcDbEntity
  8
Sanindusa
100
AcDbPolyline
 90
        6
 70
   128
 43
0.0
 10
4975.9526332911
 20
1415.822074940562
 10
4975.938823427788
 20
1415.822074940562
 10
4975.925011917716
 20
1415.822074940562
 10
4975.911201239863
 20
1415.822074940562
 10
4975.897370895365
 20
1415.822074974772
 10
4975.878133451544
 20
1415.822075571635
  0
LINE
  5
1493
330
1F
100
AcDbEntity
  8
Sanindusa
100
AcDbLine
 10
4975.933540378338
 20
1415.780474338056
 30
0.0
 11
4975.954726127448
 21
1415.780472606302
 31
0.0
  0
LWPOLYLINE
  5
1494
330
1F
100
AcDbEntity
  8
Sanindusa
100
AcDbPolyline
 90
       14
 70
   128
 43
0.0
 10
4976.016133549659
 20
1415.842074795817
 10
4976.016138371836
 20
1415.837676888787
 10
4976.015651679793
 20
1415.833295040567
 10
4976.013911427472
 20
1415.829219285767
 10
4976.01195351832
 20
1415.82669054859
 10
4976.00951606961
 20
1415.824636273746
 10
4976.006850068733
 20
1415.823203007253
 10
4976.003940811472
 20
1415.822335348686
 10
4976.00072942847
 20
1415.822070360458
 10
4975.997177113311
 20
1415.822074942037
 10
4975.995207339818
 20
1415.822074920175
 10
4975.992974848242
 20
1415.822074936547
 10
4975.991445961835
 20
1415.822074940286
 10
4975.989633291098
 20
1415.822074940562
  0
LWPOLYLINE
  5
1495
330
1F
100
AcDbEntity
  8
Sanindusa
100
AcDbPolyline
 90
       21
 70
   128
 43
0.0
 10
4975.9526332911
 20
1415.822074940562
 10
4975.9526332911
 20
1415.822074940571
 10
4975.952740731901
 20
1415.822065008827
 10
4975.953336445436
 20
1415.822009646177
 10
4975.95443243695
 20
1415.821912496924
 10
4975.955999967101
 20
1415.821783820798
 10
4975.957992031787
 20
1415.821638366391
 10
4975.960365287492
 20
1415.821491800257
 10
4975.96304477781
 20
1415.821360817204
 10
4975.965955969083
 20
1415.821261038289
 10
4975.969015704734
 20
1415.821202790771
 10
4975.972120453122
 20
1415.821193947851
 10
4975.975197080412
 20
1415.821233754142
 10
4975.978158182313
 20
1415.821318980941
 10
4975.980920258851
 20
1415.821438836974
 10
4975.983411395501
 20
1415.821581088996
 10
4975.985555932752
 20
1415.821728961354
 10
4975.987296938852
 20
1415.821866429653
 10
4975.988580550646
 20
1415.821977789966
 10
4975.98936635725
 20
1415.82204982042
 10
4975.989633291098
 20
1415.822074940562
  0
ARC
  5
1498
330
1F
100
AcDbEntity
  8
Sanindusa
100
AcDbCircle
 10
4976.021133549657
 20
1415.842074940562
 30
0.0
 40
0.0050000000000003
100
AcDbArc
 50
90.0
 51
180.0016586589027
  0
ARC
  5
149B
330
1F
100
AcDbEntity
  8
Sanindusa
100
AcDbCircle
 10
4975.878133291108
 20
1415.820075571632
 30
0.0
 40
0.0020000000093932
100
AcDbArc
 50
90.0
 51
180.0000003702951
  0
LINE
  5
149D
330
1F
100
AcDbEntity
  8
Sanindusa
100
AcDbLine
 10
4975.876133291099
 20
1415.820075571619
 30
0.0
 11
4975.876133291099
 21
1415.789586310955
 31
0.0
  0
LINE
  5
1929
330
1F
100
AcDbEntity
  8
Sanindusa
100
AcDbLine
 10
4977.417084364317
 20
1415.534068398457
 30
0.0
 11
4977.429068840401
 21
1415.53610848527
 31
0.0
  0
LINE
  5
192A
330
1F
100
AcDbEntity
  8
Sanindusa
100
AcDbLine
 10
4977.429068840401
 20
1415.53610848527
 30
0.0
 11
4977.483054788191
 21
1415.545298375538
 31
0.0
  0
ARC
  5
192B
330
1F
100
AcDbEntity
  8
Sanindusa
100
AcDbCircle
 10
4977.481376654021
 20
1415.555156563288
 30
0.0
 40
0.0099999999999999
100
AcDbArc
 50
279.6607107625721
 51
334.6607107625702
  0
LINE
  5
192C
330
1F
100
AcDbEntity
  8
Sanindusa
100
AcDbLine
 10
4977.490485073193
 20
1415.550792514106
 30
0.0
 11
4977.534848106984
 21
1415.634151283346
 31
0.0
  0
LINE
  5
192D
330
1F
100
AcDbEntity
  8
Sanindusa
100
AcDbLine
 10
4977.534848106984
 20
1415.634151283346
 30
0.0
 11
4977.540041538458
 21
1415.645118601383
 31
0.0
  0
LINE
  5
192E
330
1F
100
AcDbEntity
  8
9
100
AcDbLine
 10
4977.420351443092
 20
1415.524480692697
 30
0.0
 11
4977.417859682782
 21
1415.524056526691
 31
0.0
  0
LWPOLYLINE
  5
192F
330
1F
100
AcDbEntity
  8
Sanindusa
100
AcDbPolyline
 90
       11
 70
   128
 43
0.0
 10
4977.428066807156
 20
1415.523012190617
 10
4977.428067069567
 20
1415.523016383521
 10
4977.428057625258
 20
1415.523095378338
 10
4977.428037242529
 20
1415.523143653312
 10
4977.427955274057
 20
1415.523243979493
 10
4977.427910634912
 20
1415.523281070537
 10
4977.427664377196
 20
1415.523424256262
 10
4977.426240068124
 20
1415.523904065319
 10
4977.424781140849
 20
1415.524199069862
 10
4977.422060343554
 20
1415.524553034479
 10
4977.420351443091
 20
1415.524480692697
  0
LWPOLYLINE
  5
1930
330
1F
100
AcDbEntity
  8
Sanindusa
100
AcDbPolyline
 90
        6
 70
   128
 43
0.0
 10
4977.550295411165
 20
1415.643406690518
 10
4977.549610838063
 20
1415.640859110394
 10
4977.549748322317
 20
1415.638857811076
 10
4977.550182378679
 20
1415.636100256008
 10
4977.550743624499
 20
1415.633153405236
 10
4977.550748003783
 20
1415.633130839868
  0
LINE
  5
1931
330
1F
100
AcDbEntity
  8
Sanindusa
100
AcDbLine
 10
4977.583373902628
 20
1415.687700811193
 30
0.0
 11
4977.658025397307
 21
1415.687669696381
 31
0.0
  0
ENDSEC
  0
SECTION
  2
OBJECTS
  0
DICTIONARY
  5
C
330
0
100
AcDbDictionary
281
     1
  3
ACAD_COLOR
350
1964
  3
ACAD_GROUP
350
D
  3
ACAD_LAYOUT
350
1A
  3
ACAD_MATERIAL
350
1937
  3
ACAD_MLEADERSTYLE
350
1979
  3
ACAD_MLINESTYLE
350
17
  3
ACAD_PLOTSETTINGS
350
19
  3
ACAD_PLOTSTYLENAME
350
E
  3
ACAD_SCALELIST
350
1967
  3
ACAD_TABLESTYLE
350
1965
  3
ACAD_VISUALSTYLE
350
1950
  3
ACDB_RECOMPOSE_DATA
350
19A6
  3
AcDbVariableDictionary
350
3D
  3
ASE_INDEX_DICTIONARY
350
1932
  3
DWGPROPS
350
19A7
  0
DICTIONARY
  5
1980
330
10
100
AcDbDictionary
280
     1
281
     1
  3
ADSK_XREC_LAYER_RECONCILED
360
1981
  0
DICTIONARY
  5
1982
330
2F
100
AcDbDictionary
280
     1
281
     1
  3
ADSK_XREC_LAYER_RECONCILED
360
1983
  0
DICTIONARY
  5
1984
330
30
100
AcDbDictionary
280
     1
281
     1
  3
ADSK_XREC_LAYER_RECONCILED
360
1985
  0
DICTIONARY
  5
1986
330
31
100
AcDbDictionary
280
     1
281
     1
  3
ADSK_XREC_LAYER_RECONCILED
360
1987
  0
DICTIONARY
  5
1988
330
32
100
AcDbDictionary
280
     1
281
     1
  3
ADSK_XREC_LAYER_RECONCILED
360
1989
  0
DICTIONARY
  5
198A
330
33
100
AcDbDictionary
280
     1
281
     1
  3
ADSK_XREC_LAYER_RECONCILED
360
198B
  0
DICTIONARY
  5
198C
330
34
100
AcDbDictionary
280
     1
281
     1
  3
ADSK_XREC_LAYER_RECONCILED
360
198D
  0
DICTIONARY
  5
198E
330
35
100
AcDbDictionary
280
     1
281
     1
  3
ADSK_XREC_LAYER_RECONCILED
360
198F
  0
DICTIONARY
  5
1990
330
36
100
AcDbDictionary
280
     1
281
     1
  3
ADSK_XREC_LAYER_RECONCILED
360
1991
  0
DICTIONARY
  5
1992
330
37
100
AcDbDictionary
280
     1
281
     1
  3
ADSK_XREC_LAYER_RECONCILED
360
1993
  0
DICTIONARY
  5
1994
330
5D6
100
AcDbDictionary
280
     1
281
     1
  3
ADSK_XREC_LAYER_RECONCILED
360
1995
  0
DICTIONARY
  5
1996
330
8AF
100
AcDbDictionary
280
     1
281
     1
  3
ADSK_XREC_LAYER_RECONCILED
360
1997
  0
DICTIONARY
  5
1998
330
8F8
100
AcDbDictionary
280
     1
281
     1
  3
ADSK_XREC_LAYER_RECONCILED
360
1999
  0
DICTIONARY
  5
199A
330
91D
100
AcDbDictionary
280
     1
281
     1
  3
ADSK_XREC_LAYER_RECONCILED
360
199B
  0
DICTIONARY
  5
199C
330
BA2
100
AcDbDictionary
280
     1
281
     1
  3
ADSK_XREC_LAYER_RECONCILED
360
199D
  0
DICTIONARY
  5
1964
102
{ACAD_REACTORS
330
C
102
}
330
C
100
AcDbDictionary
281
     1
  0
DICTIONARY
  5
D
102
{ACAD_REACTORS
330
C
102
}
330
C
100
AcDbDictionary
281
     1
  0
DICTIONARY
  5
1A
102
{ACAD_REACTORS
330
C
102
}
330
C
100
AcDbDictionary
281
     1
  3
Layout1
350
1E
  3
Layout2
350
26
  3
Model
350
22
  0
DICTIONARY
  5
1937
102
{ACAD_REACTORS
330
C
102
}
330
C
100
AcDbDictionary
281
     1
  3
ByBlock
350
1940
  3
ByLayer
350
1938
  3
Global
350
1948
  0
DICTIONARY
  5
1979
102
{ACAD_REACTORS
330
C
102
}
330
C
100
AcDbDictionary
281
     1
  3
Standard
350
197A
  0
DICTIONARY
  5
17
102
{ACAD_REACTORS
330
C
102
}
330
C
100
AcDbDictionary
281
     1
  3
Standard
350
18
  0
DICTIONARY
  5
19
102
{ACAD_REACTORS
330
C
102
}
330
C
100
AcDbDictionary
281
     1
  0
ACDBDICTIONARYWDFLT
  5
E
102
{ACAD_REACTORS
330
C
102
}
330
C
100
AcDbDictionary
281
     1
  3
Normal
350
F
100
AcDbDictionaryWithDefault
340
F
  0
DICTIONARY
  5
1967
102
{ACAD_REACTORS
330
C
102
}
330
C
100
AcDbDictionary
281
     1
  3
A0
350
1968
  3
A1
350
1969
  3
A2
350
196A
  3
A3
350
196B
  3
A4
350
196C
  3
A5
350
196D
  3
A6
350
196E
  3
A7
350
196F
  3
A8
350
1970
  3
A9
350
1971
  3
B0
350
1972
  3
B1
350
1973
  3
B2
350
1974
  3
B3
350
1975
  3
B4
350
1976
  3
B5
350
1977
  3
B6
350
1978
  0
DICTIONARY
  5
1965
102
{ACAD_REACTORS
330
C
102
}
330
C
100
AcDbDictionary
281
     1
  3
Standard
350
1966
  0
DICTIONARY
  5
1950
102
{ACAD_REACTORS
330
C
102
}
330
C
100
AcDbDictionary
281
     1
  3
2dWireframe
350
1956
  3
3D Hidden
350
1958
  3
3dWireframe
350
1957
  3
Basic
350
1955
  3
Brighten
350
195C
  3
ColorChange
350
1960
  3
Conceptual
350
1959
  3
Dim
350
195B
  3
EdgeColorOff
350
1963
  3
Facepattern
350
195F
  3
Flat
350
1951
  3
FlatWithEdges
350
1952
  3
Gouraud
350
1953
  3
GouraudWithEdges
350
1954
  3
JitterOff
350
1961
  3
Linepattern
350
195E
  3
OverhangOff
350
1962
  3
Realistic
350
195A
  3
Thicken
350
195D
  0
XRECORD
  5
19A6
102
{ACAD_REACTORS
330
C
102
}
330
C
100
AcDbXrecord
280
     1
 90
        1
330
1966
  0
DICTIONARY
  5
3D
102
{ACAD_REACTORS
330
C
102
}
330
C
100
AcDbDictionary
281
     1
  3
CANNOSCALE
350
19A0
  3
CMLEADERSTYLE
350
199F
  3
CTABLESTYLE
350
199E
  3
DIMASSOC
350
3F
  3
HIDETEXT
350
3E
  3
INDEXCTL
350
19A2
  3
SORTENTS
350
19A1
  3
XCLIPFRAME
350
19A3
  0
DICTIONARY
  5
1932
102
{ACAD_REACTORS
330
C
102
}
330
C
100
AcDbDictionary
281
     1
  3
ASEBlockHierarchyIndexRecord
350
1933
1001
DCO15
1040
1525081703.171
  0
XRECORD
  5
19A7
102
{ACAD_REACTORS
330
C
102
}
330
C
100
AcDbXrecord
280
     1
  1
DWGPROPS COOKIE
  2

  3

  4

  6

  7

  8
Julio
  9

300
=
301
=
302
=
303
=
304
=
305
=
306
=
307
=
308
=
309
=
 40
0.0048401273148148
 41
2453139.447040648
 42
2456149.701092836
  1

 90
        0
  0
XRECORD
  5
1981
102
{ACAD_REACTORS
330
1980
102
}
330
1980
100
AcDbXrecord
280
     1
290
     1
  0
XRECORD
  5
1983
102
{ACAD_REACTORS
330
1982
102
}
330
1982
100
AcDbXrecord
280
     1
290
     1
  0
XRECORD
  5
1985
102
{ACAD_REACTORS
330
1984
102
}
330
1984
100
AcDbXrecord
280
     1
290
     1
  0
XRECORD
  5
1987
102
{ACAD_REACTORS
330
1986
102
}
330
1986
100
AcDbXrecord
280
     1
290
     1
  0
XRECORD
  5
1989
102
{ACAD_REACTORS
330
1988
102
}
330
1988
100
AcDbXrecord
280
     1
290
     1
  0
XRECORD
  5
198B
102
{ACAD_REACTORS
330
198A
102
}
330
198A
100
AcDbXrecord
280
     1
290
     1
  0
XRECORD
  5
198D
102
{ACAD_REACTORS
330
198C
102
}
330
198C
100
AcDbXrecord
280
     1
290
     1
  0
XRECORD
  5
198F
102
{ACAD_REACTORS
330
198E
102
}
330
198E
100
AcDbXrecord
280
     1
290
     1
  0
XRECORD
  5
1991
102
{ACAD_REACTORS
330
1990
102
}
330
1990
100
AcDbXrecord
280
     1
290
     1
  0
XRECORD
  5
1993
102
{ACAD_REACTORS
330
1992
102
}
330
1992
100
AcDbXrecord
280
     1
290
     1
  0
XRECORD
  5
1995
102
{ACAD_REACTORS
330
1994
102
}
330
1994
100
AcDbXrecord
280
     1
290
     1
  0
XRECORD
  5
1997
102
{ACAD_REACTORS
330
1996
102
}
330
1996
100
AcDbXrecord
280
     1
290
     1
  0
XRECORD
  5
1999
102
{ACAD_REACTORS
330
1998
102
}
330
1998
100
AcDbXrecord
280
     1
290
     1
  0
XRECORD
  5
199B
102
{ACAD_REACTORS
330
199A
102
}
330
199A
100
AcDbXrecord
280
     1
290
     1
  0
XRECORD
  5
199D
102
{ACAD_REACTORS
330
199C
102
}
330
199C
100
AcDbXrecord
280
     1
290
     1
  0
LAYOUT
  5
1E
102
{ACAD_XDICTIONARY
360
19A8
102
}
102
{ACAD_REACTORS
330
1A
102
}
330
1A
100
AcDbPlotSettings
  1

  2
Ploter HP500
  4

  6

 40
0.0
 41
0.0
 42
0.0
 43
0.0
 44
0.0
 45
0.0
 46
0.0
 47
0.0
 48
0.0
 49
0.0
140
0.0
141
0.0
142
1.0
143
1.0
 70
   688
 72
     0
 73
     0
 74
     5
  7
monochrome.ctb
 75
    16
147
1.0
148
0.0
149
0.0
100
AcDbLayout
  1
Layout1
 70
     1
 71
     1
 10
0.0
 20
0.0
 11
420.0
 21
297.0
 12
0.0
 22
0.0
 32
0.0
 14
1.000000000000000E+20
 24
1.000000000000000E+20
 34
1.000000000000000E+20
 15
-1.000000000000000E+20
 25
-1.000000000000000E+20
 35
-1.000000000000000E+20
146
0.0
 13
0.0
 23
0.0
 33
0.0
 16
1.0
 26
0.0
 36
0.0
 17
0.0
 27
1.0
 37
0.0
 76
     0
330
1B
  0
LAYOUT
  5
26
102
{ACAD_XDICTIONARY
360
19AC
102
}
102
{ACAD_REACTORS
330
1A
102
}
330
1A
100
AcDbPlotSettings
  1

  2
Ploter HP500
  4

  6

 40
0.0
 41
0.0
 42
0.0
 43
0.0
 44
0.0
 45
0.0
 46
0.0
 47
0.0
 48
0.0
 49
0.0
140
0.0
141
0.0
142
1.0
143
1.0
 70
   688
 72
     0
 73
     0
 74
     5
  7
monochrome.ctb
 75
    16
147
1.0
148
0.0
149
0.0
100
AcDbLayout
  1
Layout2
 70
     1
 71
     2
 10
0.0
 20
0.0
 11
12.0
 21
9.0
 12
0.0
 22
0.0
 32
0.0
 14
0.0
 24
0.0
 34
0.0
 15
0.0
 25
0.0
 35
0.0
146
0.0
 13
0.0
 23
0.0
 33
0.0
 16
1.0
 26
0.0
 36
0.0
 17
0.0
 27
1.0
 37
0.0
 76
     0
330
23
  0
LAYOUT
  5
22
102
{ACAD_XDICTIONARY
360
19AA
102
}
102
{ACAD_REACTORS
330
1A
102
}
330
1A
100
AcDbPlotSettings
  1

  2
Ploter HP500
  4
User268
  6

 40
4.995333194732666
 41
16.97565841674804
 42
4.995330810546875
 43
16.97567749023437
 44
209.9733276367187
 45
296.9259948730469
 46
0.0
 47
0.0
 48
0.0
 49
0.0
140
0.0
141
0.0
142
1.0
143
1.0
 70
 11952
 72
     1
 73
     1
 74
     0
  7

 75
     0
147
1.0
148
-427.5957866592534
149
7.362384574453926
100
AcDbLayout
  1
Model
 70
     1
 71
     0
 10
0.0
 20
0.0
 11
12.0
 21
9.0
 12
0.0
 22
0.0
 32
0.0
 14
0.0
 24
0.0
 34
0.0
 15
0.0
 25
0.0
 35
0.0
146
0.0
 13
0.0
 23
0.0
 33
0.0
 16
1.0
 26
0.0
 36
0.0
 17
0.0
 27
1.0
 37
0.0
 76
     0
330
1F
331
1935
  0
MATERIAL
  5
1940
102
{ACAD_XDICTIONARY
360
1941
102
}
102
{ACAD_REACTORS
330
1937
102
}
330
1937
100
AcDbMaterial
  1
ByBlock
 72
     0
 43
0.0008202099737533
 43
0.0
 43
0.0
 43
0.0
 43
0.0
 43
0.0008202099737533
 43
0.0
 43
0.0
 43
0.0
 43
0.0
 43
1.0
 43
0.0
 43
0.0
 43
0.0
 43
0.0
 43
1.0
 77
     0
 47
0.0008202099737533
 47
0.0
 47
0.0
 47
0.0
 47
0.0
 47
0.0008202099737533
 47
0.0
 47
0.0
 47
0.0
 47
0.0
 47
1.0
 47
0.0
 47
0.0
 47
0.0
 47
0.0
 47
1.0
171
     0
 49
0.0008202099737533
 49
0.0
 49
0.0
 49
0.0
 49
0.0
 49
0.0008202099737533
 49
0.0
 49
0.0
 49
0.0
 49
0.0
 49
1.0
 49
0.0
 49
0.0
 49
0.0
 49
0.0
 49
1.0
175
     0
142
0.0008202099737533
142
0.0
142
0.0
142
0.0
142
0.0
142
0.0008202099737533
142
0.0
142
0.0
142
0.0
142
0.0
142
1.0
142
0.0
142
0.0
142
0.0
142
0.0
142
1.0
179
     0
144
0.0008202099737533
144
0.0
144
0.0
144
0.0
144
0.0
144
0.0008202099737533
144
0.0
144
0.0
144
0.0
144
0.0
144
1.0
144
0.0
144
0.0
144
0.0
144
0.0
144
1.0
147
0.0008202099737533
147
0.0
147
0.0
147
0.0
147
0.0
147
0.0008202099737533
147
0.0
147
0.0
147
0.0
147
0.0
147
1.0
147
0.0
147
0.0
147
0.0
147
0.0
147
1.0
  0
MATERIAL
  5
1938
102
{ACAD_XDICTIONARY
360
1939
102
}
102
{ACAD_REACTORS
330
1937
102
}
330
1937
100
AcDbMaterial
  1
ByLayer
 72
     0
 43
0.0008202099737533
 43
0.0
 43
0.0
 43
0.0
 43
0.0
 43
0.0008202099737533
 43
0.0
 43
0.0
 43
0.0
 43
0.0
 43
1.0
 43
0.0
 43
0.0
 43
0.0
 43
0.0
 43
1.0
 77
     0
 47
0.0008202099737533
 47
0.0
 47
0.0
 47
0.0
 47
0.0
 47
0.0008202099737533
 47
0.0
 47
0.0
 47
0.0
 47
0.0
 47
1.0
 47
0.0
 47
0.0
 47
0.0
 47
0.0
 47
1.0
171
     0
 49
0.0008202099737533
 49
0.0
 49
0.0
 49
0.0
 49
0.0
 49
0.0008202099737533
 49
0.0
 49
0.0
 49
0.0
 49
0.0
 49
1.0
 49
0.0
 49
0.0
 49
0.0
 49
0.0
 49
1.0
175
     0
142
0.0008202099737533
142
0.0
142
0.0
142
0.0
142
0.0
142
0.0008202099737533
142
0.0
142
0.0
142
0.0
142
0.0
142
1.0
142
0.0
142
0.0
142
0.0
142
0.0
142
1.0
179
     0
144
0.0008202099737533
144
0.0
144
0.0
144
0.0
144
0.0
144
0.0008202099737533
144
0.0
144
0.0
144
0.0
144
0.0
144
1.0
144
0.0
144
0.0
144
0.0
144
0.0
144
1.0
147
0.0008202099737533
147
0.0
147
0.0
147
0.0
147
0.0
147
0.0008202099737533
147
0.0
147
0.0
147
0.0
147
0.0
147
1.0
147
0.0
147
0.0
147
0.0
147
0.0
147
1.0
  0
MATERIAL
  5
1948
102
{ACAD_XDICTIONARY
360
1949
102
}
102
{ACAD_REACTORS
330
1937
102
}
330
1937
100
AcDbMaterial
  1
Global
 72
     0
 43
0.0008202099737533
 43
0.0
 43
0.0
 43
0.0
 43
0.0
 43
0.0008202099737533
 43
0.0
 43
0.0
 43
0.0
 43
0.0
 43
1.0
 43
0.0
 43
0.0
 43
0.0
 43
0.0
 43
1.0
 77
     0
 47
0.0008202099737533
 47
0.0
 47
0.0
 47
0.0
 47
0.0
 47
0.0008202099737533
 47
0.0
 47
0.0
 47
0.0
 47
0.0
 47
1.0
 47
0.0
 47
0.0
 47
0.0
 47
0.0
 47
1.0
171
     0
 49
0.0008202099737533
 49
0.0
 49
0.0
 49
0.0
 49
0.0
 49
0.0008202099737533
 49
0.0
 49
0.0
 49
0.0
 49
0.0
 49
1.0
 49
0.0
 49
0.0
 49
0.0
 49
0.0
 49
1.0
175
     0
142
0.0008202099737533
142
0.0
142
0.0
142
0.0
142
0.0
142
0.0008202099737533
142
0.0
142
0.0
142
0.0
142
0.0
142
1.0
142
0.0
142
0.0
142
0.0
142
0.0
142
1.0
179
     0
144
0.0008202099737533
144
0.0
144
0.0
144
0.0
144
0.0
144
0.0008202099737533
144
0.0
144
0.0
144
0.0
144
0.0
144
1.0
144
0.0
144
0.0
144
0.0
144
0.0
144
1.0
147
0.0008202099737533
147
0.0
147
0.0
147
0.0
147
0.0
147
0.0008202099737533
147
0.0
147
0.0
147
0.0
147
0.0
147
1.0
147
0.0
147
0.0
147
0.0
147
0.0
147
1.0
  0
MLEADERSTYLE
  5
197A
102
{ACAD_REACTORS
330
1979
102
}
330
1979
100
AcDbMLeaderStyle
170
     2
171
     1
172
     0
 90
        2
 40
0.0
 41
0.0
173
     1
 91
-1056964608
340
14
 92
       -2
290
     1
 42
2.0
291
     1
 43
0.36
  3
Standard
 44
4.0
300

342
11
174
     1
178
     6
175
     1
176
     0
 93
-1056964608
 45
4.0
292
     0
297
     0
 46
4.0
 94
-1056964608
 47
1.0
 49
1.0
140
1.0
293
     1
141
0.0
294
     1
177
     0
142
1.0
295
     0
296
     0
143
0.125
1001
ACAD_MLEADERVER
1070
     2
  0
MLINESTYLE
  5
18
102
{ACAD_REACTORS
330
17
102
}
330
17
100
AcDbMlineStyle
  2
STANDARD
 70
     0
  3

 62
   256
 51
90.0
 52
90.0
 71
     2
 49
0.5
 62
   256
  6
BYLAYER
 49
-0.5
 62
   256
  6
BYLAYER
  0
ACDBPLACEHOLDER
  5
F
102
{ACAD_REACTORS
330
E
102
}
330
E
  0
SCALE
  5
1968
102
{ACAD_REACTORS
330
1967
102
}
330
1967
100
AcDbScale
 70
     0
300
1:1
140
1.0
141
1.0
290
     1
  0
SCALE
  5
1969
102
{ACAD_REACTORS
330
1967
102
}
330
1967
100
AcDbScale
 70
     0
300
1:2
140
1.0
141
2.0
290
     0
  0
SCALE
  5
196A
102
{ACAD_REACTORS
330
1967
102
}
330
1967
100
AcDbScale
 70
     0
300
1:4
140
1.0
141
4.0
290
     0
  0
SCALE
  5
196B
102
{ACAD_REACTORS
330
1967
102
}
330
1967
100
AcDbScale
 70
     0
300
1:5
140
1.0
141
5.0
290
     0
  0
SCALE
  5
196C
102
{ACAD_REACTORS
330
1967
102
}
330
1967
100
AcDbScale
 70
     0
300
1:8
140
1.0
141
8.0
290
     0
  0
SCALE
  5
196D
102
{ACAD_REACTORS
330
1967
102
}
330
1967
100
AcDbScale
 70
     0
300
1:10
140
1.0
141
10.0
290
     0
  0
SCALE
  5
196E
102
{ACAD_REACTORS
330
1967
102
}
330
1967
100
AcDbScale
 70
     0
300
1:16
140
1.0
141
16.0
290
     0
  0
SCALE
  5
196F
102
{ACAD_REACTORS
330
1967
102
}
330
1967
100
AcDbScale
 70
     0
300
1:20
140
1.0
141
20.0
290
     0
  0
SCALE
  5
1970
102
{ACAD_REACTORS
330
1967
102
}
330
1967
100
AcDbScale
 70
     0
300
1:30
140
1.0
141
30.0
290
     0
  0
SCALE
  5
1971
102
{ACAD_REACTORS
330
1967
102
}
330
1967
100
AcDbScale
 70
     0
300
1:40
140
1.0
141
40.0
290
     0
  0
SCALE
  5
1972
102
{ACAD_REACTORS
330
1967
102
}
330
1967
100
AcDbScale
 70
     0
300
1:50
140
1.0
141
50.0
290
     0
  0
SCALE
  5
1973
102
{ACAD_REACTORS
330
1967
102
}
330
1967
100
AcDbScale
 70
     0
300
1:100
140
1.0
141
100.0
290
     0
  0
SCALE
  5
1974
102
{ACAD_REACTORS
330
1967
102
}
330
1967
100
AcDbScale
 70
     0
300
2:1
140
2.0
141
1.0
290
     0
  0
SCALE
  5
1975
102
{ACAD_REACTORS
330
1967
102
}
330
1967
100
AcDbScale
 70
     0
300
4:1
140
4.0
141
1.0
290
     0
  0
SCALE
  5
1976
102
{ACAD_REACTORS
330
1967
102
}
330
1967
100
AcDbScale
 70
     0
300
8:1
140
8.0
141
1.0
290
     0
  0
SCALE
  5
1977
102
{ACAD_REACTORS
330
1967
102
}
330
1967
100
AcDbScale
 70
     0
300
10:1
140
10.0
141
1.0
290
     0
  0
SCALE
  5
1978
102
{ACAD_REACTORS
330
1967
102
}
330
1967
100
AcDbScale
 70
     0
300
100:1
140
100.0
141
1.0
290
     0
  0
TABLESTYLE
  5
1966
102
{ACAD_XDICTIONARY
360
19A4
102
}
102
{ACAD_REACTORS
330
1965
102
}
330
1965
100
AcDbTableStyle
  3
Standard
 70
     0
 71
     0
 40
1.5
 41
1.5
280
     0
281
     0
  7
Standard
140
4.5
170
     2
 62
     0
 63
     7
283
     0
274
    -2
284
     1
 64
     0
275
    -2
285
     1
 65
     0
276
    -2
286
     1
 66
     0
277
    -2
287
     1
 67
     0
278
    -2
288
     1
 68
     0
279
    -2
289
     1
 69
     0
  7
Standard
140
6.0
170
     5
 62
     0
 63
     7
283
     0
274
    -2
284
     1
 64
     0
275
    -2
285
     1
 65
     0
276
    -2
286
     1
 66
     0
277
    -2
287
     1
 67
     0
278
    -2
288
     1
 68
     0
279
    -2
289
     1
 69
     0
  7
Standard
140
4.5
170
     5
 62
     0
 63
     7
283
     0
274
    -2
284
     1
 64
     0
275
    -2
285
     1
 65
     0
276
    -2
286
     1
 66
     0
277
    -2
287
     1
 67
     0
278
    -2
288
     1
 68
     0
279
    -2
289
     1
 69
     0
  0
VISUALSTYLE
  5
1956
102
{ACAD_XDICTIONARY
360
19D3
102
}
102
{ACAD_REACTORS
330
1950
102
}
330
1950
100
AcDbVisualStyle
  2
2dWireframe
 70
     4
 71
     0
 72
     2
 73
     0
 90
        0
 40
-0.6
 41
-30.0
 62
     5
 63
     7
 74
     1
 91
        4
 64
     7
 65
   257
 75
     1
175
     1
 42
1.0
 92
        0
 66
   257
 43
1.0
 76
     1
 77
     6
 78
     2
 67
     7
 79
     5
170
     0
171
     0
290
     0
174
     0
 93
        1
 44
0.0
173
     0
291
     0
 45
0.0
1001
ACAD
1000
AcDbSavedByObjectVersion
1070
     0
  0
VISUALSTYLE
  5
1958
102
{ACAD_XDICTIONARY
360
19D7
102
}
102
{ACAD_REACTORS
330
1950
102
}
330
1950
100
AcDbVisualStyle
  2
3D Hidden
 70
     6
 71
     1
 72
     2
 73
     2
 90
        0
 40
-0.6
 41
-30.0
 62
     5
 63
     7
 74
     2
 91
        2
 64
     7
 65
   257
 75
     2
175
     1
 42
179.0
 92
        0
 66
   257
 43
1.0
 76
     1
 77
     6
 78
     2
 67
     7
 79
     3
170
     0
171
     0
290
     0
174
     0
 93
        1
 44
0.0
173
     0
291
     0
 45
0.0
1001
ACAD
1000
AcDbSavedByObjectVersion
1070
     0
  0
VISUALSTYLE
  5
1957
102
{ACAD_XDICTIONARY
360
19D5
102
}
102
{ACAD_REACTORS
330
1950
102
}
330
1950
100
AcDbVisualStyle
  2
3dWireframe
 70
     5
 71
     0
 72
     2
 73
     0
 90
        0
 40
-0.6
 41
-30.0
 62
     5
 63
     7
 74
     1
 91
        4
 64
     7
 65
   257
 75
     1
175
     1
 42
1.0
 92
        0
 66
   257
 43
1.0
 76
     1
 77
     6
 78
     2
 67
     7
 79
     5
170
     0
171
     0
290
     0
174
     0
 93
        1
 44
0.0
173
     0
291
     0
 45
0.0
1001
ACAD
1000
AcDbSavedByObjectVersion
1070
     0
  0
VISUALSTYLE
  5
1955
102
{ACAD_XDICTIONARY
360
19D1
102
}
102
{ACAD_REACTORS
330
1950
102
}
330
1950
100
AcDbVisualStyle
  2
Basic
 70
     7
 71
     1
 72
     0
 73
     1
 90
        0
 40
-0.6
 41
-30.0
 62
     5
 63
     7
 74
     0
 91
        4
 64
     7
 65
   257
 75
     1
175
     1
 42
1.0
 92
        8
 66
     7
 43
1.0
 76
     1
 77
     6
 78
     2
 67
     7
 79
     5
170
     0
171
     0
290
     0
174
     0
 93
        1
 44
0.0
173
     0
291
     1
 45
0.0
1001
ACAD
1000
AcDbSavedByObjectVersion
1070
     0
  0
VISUALSTYLE
  5
195C
102
{ACAD_XDICTIONARY
360
19DF
102
}
102
{ACAD_REACTORS
330
1950
102
}
330
1950
100
AcDbVisualStyle
  2
Brighten
 70
    12
 71
     2
 72
     2
 73
     0
 90
        0
 40
-0.6
 41
-30.0
 62
     5
 63
     7
 74
     1
 91
        4
 64
     7
 65
   257
 75
     1
175
     1
 42
1.0
 92
        8
 66
     7
 43
1.0
 76
     1
 77
     6
 78
     2
 67
     7
 79
     5
170
     0
171
     0
290
     0
174
     0
 93
        1
 44
50.0
173
     0
291
     1
 45
0.0
1001
ACAD
1000
AcDbSavedByObjectVersion
1070
     0
  0
VISUALSTYLE
  5
1960
102
{ACAD_XDICTIONARY
360
19E7
102
}
102
{ACAD_REACTORS
330
1950
102
}
330
1950
100
AcDbVisualStyle
  2
ColorChange
 70
    16
 71
     2
 72
     2
 73
     3
 90
        0
 40
-0.6
 41
-30.0
 62
     5
 63
     8
 74
     1
 91
        4
 64
     7
 65
   257
 75
     1
175
     1
 42
1.0
 92
        8
 66
     8
 43
1.0
 76
     1
 77
     6
 78
     2
 67
     7
 79
     5
170
     0
171
     0
290
     0
174
     0
 93
        1
 44
0.0
173
     0
291
     1
 45
0.0
1001
ACAD
1000
AcDbSavedByObjectVersion
1070
     0
  0
VISUALSTYLE
  5
1959
102
{ACAD_XDICTIONARY
360
19D9
102
}
102
{ACAD_REACTORS
330
1950
102
}
330
1950
100
AcDbVisualStyle
  2
Conceptual
 70
     9
 71
     3
 72
     2
 73
     0
 90
        0
 40
-0.6
 41
-30.0
 62
     5
 63
     7
 74
     2
 91
        2
 64
     7
 65
   257
 75
     1
175
     1
 42
179.0
 92
        8
 66
     7
 43
1.0
 76
     1
 77
     6
 78
     2
 67
     7
 79
     3
170
     0
171
     0
290
     0
174
     0
 93
        1
 44
0.0
173
     0
291
     0
 45
0.0
1001
ACAD
1000
AcDbSavedByObjectVersion
1070
     0
  0
VISUALSTYLE
  5
195B
102
{ACAD_XDICTIONARY
360
19DD
102
}
102
{ACAD_REACTORS
330
1950
102
}
330
1950
100
AcDbVisualStyle
  2
Dim
 70
    11
 71
     2
 72
     2
 73
     0
 90
        0
 40
-0.6
 41
-30.0
 62
     5
 63
     7
 74
     1
 91
        4
 64
     7
 65
   257
 75
     1
175
     1
 42
1.0
 92
        8
 66
     7
 43
1.0
 76
     1
 77
     6
 78
     2
 67
     7
 79
     5
170
     0
171
     0
290
     0
174
     0
 93
        1
 44
-50.0
173
     0
291
     1
 45
0.0
1001
ACAD
1000
AcDbSavedByObjectVersion
1070
     0
  0
VISUALSTYLE
  5
1963
102
{ACAD_XDICTIONARY
360
19ED
102
}
102
{ACAD_REACTORS
330
1950
102
}
330
1950
100
AcDbVisualStyle
  2
EdgeColorOff
 70
    22
 71
     2
 72
     2
 73
     0
 90
        0
 40
-0.6
 41
-30.0
 62
     5
 63
     7
 74
     1
 91
        4
 64
     7
 65
   257
 75
     1
175
     1
 42
1.0
 92
        8
 66
     7
 43
1.0
 76
     1
 77
     6
 78
     2
 67
     7
 79
     5
170
     0
171
     0
290
     0
174
     0
 93
        1
 44
0.0
173
     0
291
     1
 45
0.0
1001
ACAD
1000
AcDbSavedByObjectVersion
1070
     0
  0
VISUALSTYLE
  5
195F
102
{ACAD_XDICTIONARY
360
19E5
102
}
102
{ACAD_REACTORS
330
1950
102
}
330
1950
100
AcDbVisualStyle
  2
Facepattern
 70
    15
 71
     2
 72
     2
 73
     0
 90
        0
 40
-0.6
 41
-30.0
 62
     5
 63
     7
 74
     1
 91
        4
 64
     7
 65
   257
 75
     1
175
     1
 42
1.0
 92
        8
 66
     7
 43
1.0
 76
     1
 77
     6
 78
     2
 67
     7
 79
     5
170
     0
171
     0
290
     0
174
     0
 93
        1
 44
0.0
173
     0
291
     1
 45
0.0
1001
ACAD
1000
AcDbSavedByObjectVersion
1070
     0
  0
VISUALSTYLE
  5
1951
102
{ACAD_XDICTIONARY
360
19C9
102
}
102
{ACAD_REACTORS
330
1950
102
}
330
1950
100
AcDbVisualStyle
  2
Flat
 70
     0
 71
     2
 72
     1
 73
     1
 90
        2
 40
-0.6
 41
30.0
 62
     5
 63
     7
 74
     0
 91
        4
 64
     7
 65
   257
 75
     1
175
     1
 42
1.0
 92
        8
 66
     7
 43
1.0
 76
     1
 77
     6
 78
     2
 67
     7
 79
     5
170
     0
171
     0
290
     0
174
     0
 93
       13
 44
0.0
173
     0
291
     1
 45
0.0
1001
ACAD
1000
AcDbSavedByObjectVersion
1070
     0
  0
VISUALSTYLE
  5
1952
102
{ACAD_XDICTIONARY
360
19CB
102
}
102
{ACAD_REACTORS
330
1950
102
}
330
1950
100
AcDbVisualStyle
  2
FlatWithEdges
 70
     1
 71
     2
 72
     1
 73
     1
 90
        2
 40
-0.6
 41
30.0
 62
     5
 63
     7
 74
     1
 91
        4
 64
     7
 65
   257
 75
     1
175
     1
 42
1.0
 92
        0
 66
   257
 43
1.0
 76
     1
 77
     6
 78
     2
 67
     7
 79
     5
170
     0
171
     0
290
     0
174
     0
 93
       13
 44
0.0
173
     0
291
     1
 45
0.0
1001
ACAD
1000
AcDbSavedByObjectVersion
1070
     0
  0
VISUALSTYLE
  5
1953
102
{ACAD_XDICTIONARY
360
19CD
102
}
102
{ACAD_REACTORS
330
1950
102
}
330
1950
100
AcDbVisualStyle
  2
Gouraud
 70
     2
 71
     2
 72
     2
 73
     1
 90
        2
 40
-0.6
 41
30.0
 62
     5
 63
     7
 74
     0
 91
        4
 64
     7
 65
   257
 75
     1
175
     1
 42
1.0
 92
        0
 66
     7
 43
1.0
 76
     1
 77
     6
 78
     2
 67
     7
 79
     5
170
     0
171
     0
290
     0
174
     0
 93
       13
 44
0.0
173
     0
291
     1
 45
0.0
1001
ACAD
1000
AcDbSavedByObjectVersion
1070
     0
  0
VISUALSTYLE
  5
1954
102
{ACAD_XDICTIONARY
360
19CF
102
}
102
{ACAD_REACTORS
330
1950
102
}
330
1950
100
AcDbVisualStyle
  2
GouraudWithEdges
 70
     3
 71
     2
 72
     2
 73
     1
 90
        2
 40
-0.6
 41
30.0
 62
     5
 63
     7
 74
     1
 91
        4
 64
     7
 65
   257
 75
     1
175
     1
 42
1.0
 92
        0
 66
   257
 43
1.0
 76
     1
 77
     6
 78
     2
 67
     7
 79
     5
170
     0
171
     0
290
     0
174
     0
 93
       13
 44
0.0
173
     0
291
     1
 45
0.0
1001
ACAD
1000
AcDbSavedByObjectVersion
1070
     0
  0
VISUALSTYLE
  5
1961
102
{ACAD_XDICTIONARY
360
19E9
102
}
102
{ACAD_REACTORS
330
1950
102
}
330
1950
100
AcDbVisualStyle
  2
JitterOff
 70
    20
 71
     2
 72
     2
 73
     0
 90
        0
 40
-0.6
 41
-30.0
 62
     5
 63
     7
 74
     1
 91
        4
 64
     7
 65
   257
 75
     1
175
     1
 42
1.0
 92
       10
 66
     7
 43
1.0
 76
     1
 77
     6
 78
     2
 67
     7
 79
     5
170
     0
171
     0
290
     0
174
     0
 93
        1
 44
0.0
173
     0
291
     1
 45
0.0
1001
ACAD
1000
AcDbSavedByObjectVersion
1070
     0
  0
VISUALSTYLE
  5
195E
102
{ACAD_XDICTIONARY
360
19E3
102
}
102
{ACAD_REACTORS
330
1950
102
}
330
1950
100
AcDbVisualStyle
  2
Linepattern
 70
    14
 71
     2
 72
     2
 73
     0
 90
        0
 40
-0.6
 41
-30.0
 62
     5
 63
     7
 74
     1
 91
        4
 64
     7
 65
   257
 75
     7
175
     7
 42
1.0
 92
        8
 66
     7
 43
1.0
 76
     1
 77
     6
 78
     2
 67
     7
 79
     5
170
     0
171
     0
290
     0
174
     0
 93
        1
 44
0.0
173
     0
291
     1
 45
0.0
1001
ACAD
1000
AcDbSavedByObjectVersion
1070
     0
  0
VISUALSTYLE
  5
1962
102
{ACAD_XDICTIONARY
360
19EB
102
}
102
{ACAD_REACTORS
330
1950
102
}
330
1950
100
AcDbVisualStyle
  2
OverhangOff
 70
    21
 71
     2
 72
     2
 73
     0
 90
        0
 40
-0.6
 41
-30.0
 62
     5
 63
     7
 74
     1
 91
        4
 64
     7
 65
   257
 75
     1
175
     1
 42
1.0
 92
        9
 66
     7
 43
1.0
 76
     1
 77
     6
 78
     2
 67
     7
 79
     5
170
     0
171
     0
290
     0
174
     0
 93
        1
 44
0.0
173
     0
291
     1
 45
0.0
1001
ACAD
1000
AcDbSavedByObjectVersion
1070
     0
  0
VISUALSTYLE
  5
195A
102
{ACAD_XDICTIONARY
360
19DB
102
}
102
{ACAD_REACTORS
330
1950
102
}
330
1950
100
AcDbVisualStyle
  2
Realistic
 70
     8
 71
     2
 72
     2
 73
     0
 90
        0
 40
-0.6
 41
-30.0
 62
     5
 63
     7
 74
     1
 91
        0
 64
     7
 65
   257
 75
     1
175
     1
 42
1.0
 92
        8
 66
     8
 43
1.0
 76
     1
 77
     6
 78
     2
 67
     7
 79
     5
170
     0
171
     0
290
     0
174
     0
 93
       13
 44
0.0
173
     0
291
     0
 45
0.0
1001
ACAD
1000
AcDbSavedByObjectVersion
1070
     0
  0
VISUALSTYLE
  5
195D
102
{ACAD_XDICTIONARY
360
19E1
102
}
102
{ACAD_REACTORS
330
1950
102
}
330
1950
100
AcDbVisualStyle
  2
Thicken
 70
    13
 71
     2
 72
     2
 73
     0
 90
        0
 40
-0.6
 41
-30.0
 62
     5
 63
     7
 74
     1
 91
        4
 64
     7
 65
   257
 75
     1
175
     1
 42
1.0
 92
       12
 66
     7
 43
1.0
 76
     1
 77
     6
 78
     2
 67
     7
 79
     5
170
     0
171
     0
290
     0
174
     0
 93
        1
 44
0.0
173
     0
291
     1
 45
0.0
1001
ACAD
1000
AcDbSavedByObjectVersion
1070
     0
  0
DICTIONARYVAR
  5
19A0
102
{ACAD_REACTORS
330
3D
102
}
330
3D
100
DictionaryVariables
280
     0
  1
1:1
  0
DICTIONARYVAR
  5
199F
102
{ACAD_REACTORS
330
3D
102
}
330
3D
100
DictionaryVariables
280
     0
  1
STANDARD
  0
DICTIONARYVAR
  5
199E
102
{ACAD_REACTORS
330
3D
102
}
330
3D
100
DictionaryVariables
280
     0
  1
STANDARD
  0
DICTIONARYVAR
  5
3F
102
{ACAD_REACTORS
330
3D
102
}
330
3D
100
DictionaryVariables
280
     0
  1
2
  0
DICTIONARYVAR
  5
3E
102
{ACAD_REACTORS
330
3D
102
}
330
3D
100
DictionaryVariables
280
     0
  1
1
  0
DICTIONARYVAR
  5
19A2
102
{ACAD_REACTORS
330
3D
102
}
330
3D
100
DictionaryVariables
280
     0
  1
0
  0
DICTIONARYVAR
  5
19A1
102
{ACAD_REACTORS
330
3D
102
}
330
3D
100
DictionaryVariables
280
     0
  1
127
  0
DICTIONARYVAR
  5
19A3
102
{ACAD_REACTORS
330
3D
102
}
330
3D
100
DictionaryVariables
280
     0
  1
2
  0
XRECORD
  5
1933
102
{ACAD_REACTORS
330
1932
102
}
330
1932
100
AcDbXrecord
280
     1
  0
DICTIONARY
  5
19A8
330
1E
100
AcDbDictionary
280
     1
281
     1
  3
ACAD_XREC_ROUNDTRIP
360
19A9
  0
DICTIONARY
  5
19AC
330
26
100
AcDbDictionary
280
     1
281
     1
  3
ACAD_XREC_ROUNDTRIP
360
19AD
  0
DICTIONARY
  5
19AA
330
22
100
AcDbDictionary
280
     1
281
     1
  3
ACAD_XREC_ROUNDTRIP
360
19AB
  0
DICTIONARY
  5
1941
330
1940
100
AcDbDictionary
280
     1
281
     1
  3
ACAD_XREC_ROUNDTRIP
360
19C7
  3
BUMPTILE
360
1943
  3
DIFFUSETILE
360
1942
  3
OPACITYTILE
360
1946
  3
REFLECTIONTILE
360
1945
  3
REFRACTIONTILE
360
1947
  3
SPECULARTILE
360
1944
  0
DICTIONARY
  5
1939
330
1938
100
AcDbDictionary
280
     1
281
     1
  3
ACAD_XREC_ROUNDTRIP
360
19C6
  3
BUMPTILE
360
193B
  3
DIFFUSETILE
360
193A
  3
OPACITYTILE
360
193E
  3
REFLECTIONTILE
360
193D
  3
REFRACTIONTILE
360
193F
  3
SPECULARTILE
360
193C
  0
DICTIONARY
  5
1949
330
1948
100
AcDbDictionary
280
     1
281
     1
  3
ACAD_XREC_ROUNDTRIP
360
19C8
  3
BUMPTILE
360
194B
  3
DIFFUSETILE
360
194A
  3
OPACITYTILE
360
194E
  3
REFLECTIONTILE
360
194D
  3
REFRACTIONTILE
360
194F
  3
SPECULARTILE
360
194C
  0
DICTIONARY
  5
19A4
330
1966
100
AcDbDictionary
280
     1
281
     1
  3
ACAD_ROUNDTRIP_2008_TABLESTYLE_CELLSTYLEMAP
360
19A5
  3
ACAD_XREC_ROUNDTRIP
360
19EF
  0
DICTIONARY
  5
19D3
330
1956
100
AcDbDictionary
280
     1
281
     1
  3
ACAD_XREC_ROUNDTRIP
360
19D4
  0
DICTIONARY
  5
19D7
330
1958
100
AcDbDictionary
280
     1
281
     1
  3
ACAD_XREC_ROUNDTRIP
360
19D8
  0
DICTIONARY
  5
19D5
330
1957
100
AcDbDictionary
280
     1
281
     1
  3
ACAD_XREC_ROUNDTRIP
360
19D6
  0
DICTIONARY
  5
19D1
330
1955
100
AcDbDictionary
280
     1
281
     1
  3
ACAD_XREC_ROUNDTRIP
360
19D2
  0
DICTIONARY
  5
19DF
330
195C
100
AcDbDictionary
280
     1
281
     1
  3
ACAD_XREC_ROUNDTRIP
360
19E0
  0
DICTIONARY
  5
19E7
330
1960
100
AcDbDictionary
280
     1
281
     1
  3
ACAD_XREC_ROUNDTRIP
360
19E8
  0
DICTIONARY
  5
19D9
330
1959
100
AcDbDictionary
280
     1
281
     1
  3
ACAD_XREC_ROUNDTRIP
360
19DA
  0
DICTIONARY
  5
19DD
330
195B
100
AcDbDictionary
280
     1
281
     1
  3
ACAD_XREC_ROUNDTRIP
360
19DE
  0
DICTIONARY
  5
19ED
330
1963
100
AcDbDictionary
280
     1
281
     1
  3
ACAD_XREC_ROUNDTRIP
360
19EE
  0
DICTIONARY
  5
19E5
330
195F
100
AcDbDictionary
280
     1
281
     1
  3
ACAD_XREC_ROUNDTRIP
360
19E6
  0
DICTIONARY
  5
19C9
330
1951
100
AcDbDictionary
280
     1
281
     1
  3
ACAD_XREC_ROUNDTRIP
360
19CA
  0
DICTIONARY
  5
19CB
330
1952
100
AcDbDictionary
280
     1
281
     1
  3
ACAD_XREC_ROUNDTRIP
360
19CC
  0
DICTIONARY
  5
19CD
330
1953
100
AcDbDictionary
280
     1
281
     1
  3
ACAD_XREC_ROUNDTRIP
360
19CE
  0
DICTIONARY
  5
19CF
330
1954
100
AcDbDictionary
280
     1
281
     1
  3
ACAD_XREC_ROUNDTRIP
360
19D0
  0
DICTIONARY
  5
19E9
330
1961
100
AcDbDictionary
280
     1
281
     1
  3
ACAD_XREC_ROUNDTRIP
360
19EA
  0
DICTIONARY
  5
19E3
330
195E
100
AcDbDictionary
280
     1
281
     1
  3
ACAD_XREC_ROUNDTRIP
360
19E4
  0
DICTIONARY
  5
19EB
330
1962
100
AcDbDictionary
280
     1
281
     1
  3
ACAD_XREC_ROUNDTRIP
360
19EC
  0
DICTIONARY
  5
19DB
330
195A
100
AcDbDictionary
280
     1
281
     1
  3
ACAD_XREC_ROUNDTRIP
360
19DC
  0
DICTIONARY
  5
19E1
330
195D
100
AcDbDictionary
280
     1
281
     1
  3
ACAD_XREC_ROUNDTRIP
360
19E2
  0
XRECORD
  5
19A9
102
{ACAD_REACTORS
330
19A8
102
}
330
19A8
100
AcDbXrecord
280
     1
102
SHADEPLOT
 70
     0
102
SHADEPLOTRESLEVEL
 70
     2
102
SHADEPLOTCUSTOMDPI
 70
   300
  0
XRECORD
  5
19AD
102
{ACAD_REACTORS
330
19AC
102
}
330
19AC
100
AcDbXrecord
280
     1
102
SHADEPLOT
 70
     0
102
SHADEPLOTRESLEVEL
 70
     2
102
SHADEPLOTCUSTOMDPI
 70
   300
  0
XRECORD
  5
19AB
102
{ACAD_REACTORS
330
19AA
102
}
330
19AA
100
AcDbXrecord
280
     1
102
SHADEPLOT
 70
     0
102
SHADEPLOTRESLEVEL
 70
     2
102
SHADEPLOTCUSTOMDPI
 70
   300
  0
XRECORD
  5
19C7
102
{ACAD_REACTORS
330
1941
102
}
330
1941
100
AcDbXrecord
280
     1
102
MATERIAL
148
0.0
149
0.0
149
0.0
 93
        0
 94
      127
282
     0
 72
     0
 77
     0
171
     0
175
     0
179
     0
273
     0
  0
XRECORD
  5
1943
102
{ACAD_REACTORS
330
1941
102
}
330
1941
100
AcDbXrecord
280
     1
270
     1
271
     1
  0
XRECORD
  5
1942
102
{ACAD_REACTORS
330
1941
102
}
330
1941
100
AcDbXrecord
280
     1
270
     1
271
     1
  0
XRECORD
  5
1946
102
{ACAD_REACTORS
330
1941
102
}
330
1941
100
AcDbXrecord
280
     1
270
     1
271
     1
  0
XRECORD
  5
1945
102
{ACAD_REACTORS
330
1941
102
}
330
1941
100
AcDbXrecord
280
     1
270
     1
271
     1
  0
XRECORD
  5
1947
102
{ACAD_REACTORS
330
1941
102
}
330
1941
100
AcDbXrecord
280
     1
270
     1
271
     1
  0
XRECORD
  5
1944
102
{ACAD_REACTORS
330
1941
102
}
330
1941
100
AcDbXrecord
280
     1
270
     1
271
     1
  0
XRECORD
  5
19C6
102
{ACAD_REACTORS
330
1939
102
}
330
1939
100
AcDbXrecord
280
     1
102
MATERIAL
148
0.0
149
0.0
149
0.0
 93
        0
 94
      127
282
     0
 72
     0
 77
     0
171
     0
175
     0
179
     0
273
     0
  0
XRECORD
  5
193B
102
{ACAD_REACTORS
330
1939
102
}
330
1939
100
AcDbXrecord
280
     1
270
     1
271
     1
  0
XRECORD
  5
193A
102
{ACAD_REACTORS
330
1939
102
}
330
1939
100
AcDbXrecord
280
     1
270
     1
271
     1
  0
XRECORD
  5
193E
102
{ACAD_REACTORS
330
1939
102
}
330
1939
100
AcDbXrecord
280
     1
270
     1
271
     1
  0
XRECORD
  5
193D
102
{ACAD_REACTORS
330
1939
102
}
330
1939
100
AcDbXrecord
280
     1
270
     1
271
     1
  0
XRECORD
  5
193F
102
{ACAD_REACTORS
330
1939
102
}
330
1939
100
AcDbXrecord
280
     1
270
     1
271
     1
  0
XRECORD
  5
193C
102
{ACAD_REACTORS
330
1939
102
}
330
1939
100
AcDbXrecord
280
     1
270
     1
271
     1
  0
XRECORD
  5
19C8
102
{ACAD_REACTORS
330
1949
102
}
330
1949
100
AcDbXrecord
280
     1
102
MATERIAL
148
0.0
149
0.0
149
0.0
 93
        0
 94
      127
282
     0
 72
     0
 77
     0
171
     0
175
     0
179
     0
273
     0
  0
XRECORD
  5
194B
102
{ACAD_REACTORS
330
1949
102
}
330
1949
100
AcDbXrecord
280
     1
270
     1
271
     1
  0
XRECORD
  5
194A
102
{ACAD_REACTORS
330
1949
102
}
330
1949
100
AcDbXrecord
280
     1
270
     1
271
     1
  0
XRECORD
  5
194E
102
{ACAD_REACTORS
330
1949
102
}
330
1949
100
AcDbXrecord
280
     1
270
     1
271
     1
  0
XRECORD
  5
194D
102
{ACAD_REACTORS
330
1949
102
}
330
1949
100
AcDbXrecord
280
     1
270
     1
271
     1
  0
XRECORD
  5
194F
102
{ACAD_REACTORS
330
1949
102
}
330
1949
100
AcDbXrecord
280
     1
270
     1
271
     1
  0
XRECORD
  5
194C
102
{ACAD_REACTORS
330
1949
102
}
330
1949
100
AcDbXrecord
280
     1
270
     1
271
     1
  0
CELLSTYLEMAP
  5
19A5
102
{ACAD_REACTORS
330
19A4
102
}
330
19A4
100
AcDbCellStyleMap
 90
        3
300
CELLSTYLE
  1
TABLEFORMAT_BEGIN
 90
        5
170
     1
 91
        0
 92
    32768
 62
   257
 93
        1
300
CONTENTFORMAT
  1
CONTENTFORMAT_BEGIN
 90
        0
 91
        0
 92
      512
 93
        0
300

 40
0.0
140
1.0
 94
        5
 62
     0
340
11
144
6.0
309
CONTENTFORMAT_END
171
     1
301
MARGIN
  1
CELLMARGIN_BEGIN
 40
1.5
 40
1.5
 40
1.5
 40
1.5
 40
4.5
 40
4.5
309
CELLMARGIN_END
 94
        6
 95
        1
302
GRIDFORMAT
  1
GRIDFORMAT_BEGIN
 90
        0
 91
        1
 62
     0
 92
       -2
340
0
 93
        0
 40
1.125
309
GRIDFORMAT_END
 95
        2
302
GRIDFORMAT
  1
GRIDFORMAT_BEGIN
 90
        0
 91
        1
 62
     0
 92
       -2
340
0
 93
        0
 40
1.125
309
GRIDFORMAT_END
 95
        4
302
GRIDFORMAT
  1
GRIDFORMAT_BEGIN
 90
        0
 91
        1
 62
     0
 92
       -2
340
0
 93
        0
 40
1.125
309
GRIDFORMAT_END
 95
        8
302
GRIDFORMAT
  1
GRIDFORMAT_BEGIN
 90
        0
 91
        1
 62
     0
 92
       -2
340
0
 93
        0
 40
1.125
309
GRIDFORMAT_END
 95
       16
302
GRIDFORMAT
  1
GRIDFORMAT_BEGIN
 90
        0
 91
        1
 62
     0
 92
       -2
340
0
 93
        0
 40
1.125
309
GRIDFORMAT_END
 95
       32
302
GRIDFORMAT
  1
GRIDFORMAT_BEGIN
 90
        0
 91
        1
 62
     0
 92
       -2
340
0
 93
        0
 40
1.125
309
GRIDFORMAT_END
309
TABLEFORMAT_END
  1
CELLSTYLE_BEGIN
 90
        1
 91
        1
300
_TITLE
309
CELLSTYLE_END
300
CELLSTYLE
  1
TABLEFORMAT_BEGIN
 90
        5
170
     1
 91
        0
 92
        0
 62
   257
 93
        1
300
CONTENTFORMAT
  1
CONTENTFORMAT_BEGIN
 90
        0
 91
        0
 92
      512
 93
        0
300

 40
0.0
140
1.0
 94
        5
 62
     0
340
11
144
4.5
309
CONTENTFORMAT_END
171
     1
301
MARGIN
  1
CELLMARGIN_BEGIN
 40
1.5
 40
1.5
 40
1.5
 40
1.5
 40
4.5
 40
4.5
309
CELLMARGIN_END
 94
        6
 95
        1
302
GRIDFORMAT
  1
GRIDFORMAT_BEGIN
 90
        0
 91
        1
 62
     0
 92
       -2
340
0
 93
        0
 40
1.125
309
GRIDFORMAT_END
 95
        2
302
GRIDFORMAT
  1
GRIDFORMAT_BEGIN
 90
        0
 91
        1
 62
     0
 92
       -2
340
0
 93
        0
 40
1.125
309
GRIDFORMAT_END
 95
        4
302
GRIDFORMAT
  1
GRIDFORMAT_BEGIN
 90
        0
 91
        1
 62
     0
 92
       -2
340
0
 93
        0
 40
1.125
309
GRIDFORMAT_END
 95
        8
302
GRIDFORMAT
  1
GRIDFORMAT_BEGIN
 90
        0
 91
        1
 62
     0
 92
       -2
340
0
 93
        0
 40
1.125
309
GRIDFORMAT_END
 95
       16
302
GRIDFORMAT
  1
GRIDFORMAT_BEGIN
 90
        0
 91
        1
 62
     0
 92
       -2
340
0
 93
        0
 40
1.125
309
GRIDFORMAT_END
 95
       32
302
GRIDFORMAT
  1
GRIDFORMAT_BEGIN
 90
        0
 91
        1
 62
     0
 92
       -2
340
0
 93
        0
 40
1.125
309
GRIDFORMAT_END
309
TABLEFORMAT_END
  1
CELLSTYLE_BEGIN
 90
        2
 91
        1
300
_HEADER
309
CELLSTYLE_END
300
CELLSTYLE
  1
TABLEFORMAT_BEGIN
 90
        5
170
     1
 91
        0
 92
        0
 62
   257
 93
        1
300
CONTENTFORMAT
  1
CONTENTFORMAT_BEGIN
 90
        0
 91
        0
 92
      512
 93
        0
300

 40
0.0
140
1.0
 94
        2
 62
     0
340
11
144
4.5
309
CONTENTFORMAT_END
171
     1
301
MARGIN
  1
CELLMARGIN_BEGIN
 40
1.5
 40
1.5
 40
1.5
 40
1.5
 40
4.5
 40
4.5
309
CELLMARGIN_END
 94
        6
 95
        1
302
GRIDFORMAT
  1
GRIDFORMAT_BEGIN
 90
        0
 91
        1
 62
     0
 92
       -2
340
0
 93
        0
 40
1.125
309
GRIDFORMAT_END
 95
        2
302
GRIDFORMAT
  1
GRIDFORMAT_BEGIN
 90
        0
 91
        1
 62
     0
 92
       -2
340
0
 93
        0
 40
1.125
309
GRIDFORMAT_END
 95
        4
302
GRIDFORMAT
  1
GRIDFORMAT_BEGIN
 90
        0
 91
        1
 62
     0
 92
       -2
340
0
 93
        0
 40
1.125
309
GRIDFORMAT_END
 95
        8
302
GRIDFORMAT
  1
GRIDFORMAT_BEGIN
 90
        0
 91
        1
 62
     0
 92
       -2
340
0
 93
        0
 40
1.125
309
GRIDFORMAT_END
 95
       16
302
GRIDFORMAT
  1
GRIDFORMAT_BEGIN
 90
        0
 91
        1
 62
     0
 92
       -2
340
0
 93
        0
 40
1.125
309
GRIDFORMAT_END
 95
       32
302
GRIDFORMAT
  1
GRIDFORMAT_BEGIN
 90
        0
 91
        1
 62
     0
 92
       -2
340
0
 93
        0
 40
1.125
309
GRIDFORMAT_END
309
TABLEFORMAT_END
  1
CELLSTYLE_BEGIN
 90
        3
 91
        2
300
_DATA
309
CELLSTYLE_END
  0
XRECORD
  5
19EF
102
{ACAD_REACTORS
330
19A4
102
}
330
19A4
100
AcDbXrecord
280
     1
102
ACAD_ROUNDTRIP_PRE2007_TABLESTYLE
 90
      512
 91
        0
  1

 92
      512
 93
        0
  2

 94
      512
 95
        0
  3

  0
XRECORD
  5
19D4
102
{ACAD_REACTORS
330
19D3
102
}
330
19D3
100
AcDbXrecord
280
     1
102
RTVSPropertyOp0
 70
     1
102
RTVSPropertyOp1
 70
     1
102
RTVSPropertyOp2
 70
     1
102
RTVSPropertyOp3
 70
     1
102
RTVSPropertyOp4
 70
     1
102
RTVSPropertyOp5
 70
     1
102
RTVSPropertyOp6
 70
     1
102
RTVSPropertyOp7
 70
     1
102
RTVSPropertyOp8
 70
     1
102
RTVSPropertyOp9
 70
     1
102
RTVSPropertyOp10
 70
     1
102
RTVSPropertyOp11
 70
     1
102
RTVSPropertyOp12
 70
     1
102
RTVSPropertyOp13
 70
     1
102
RTVSPropertyOp14
 70
     1
102
RTVSPropertyOp15
 70
     1
102
RTVSPropertyOp16
 70
     1
102
RTVSPropertyOp17
 70
     1
102
RTVSPropertyOp18
 70
     1
102
RTVSPropertyOp19
 70
     1
102
RTVSPropertyOp20
 70
     1
102
RTVSPropertyOp21
 70
     1
102
RTVSPropertyOp22
 70
     1
102
RTVSPropertyOp23
 70
     1
102
RTVSPropertyOp24
 70
     1
102
RTVSPropertyOp25
 70
     1
102
RTVSPropertyOp26
 70
     1
102
RTVSPropertyOp27
 70
     1
  0
XRECORD
  5
19D8
102
{ACAD_REACTORS
330
19D7
102
}
330
19D7
100
AcDbXrecord
280
     1
102
RTVSPropertyOp0
 70
     1
102
RTVSPropertyOp1
 70
     1
102
RTVSPropertyOp2
 70
     1
102
RTVSPropertyOp3
 70
     1
102
RTVSPropertyOp4
 70
     1
102
RTVSPropertyOp5
 70
     1
102
RTVSPropertyOp6
 70
     1
102
RTVSPropertyOp7
 70
     1
102
RTVSPropertyOp8
 70
     1
102
RTVSPropertyOp9
 70
     1
102
RTVSPropertyOp10
 70
     1
102
RTVSPropertyOp11
 70
     1
102
RTVSPropertyOp12
 70
     1
102
RTVSPropertyOp13
 70
     1
102
RTVSPropertyOp14
 70
     1
102
RTVSPropertyOp15
 70
     1
102
RTVSPropertyOp16
 70
     1
102
RTVSPropertyOp17
 70
     1
102
RTVSPropertyOp18
 70
     1
102
RTVSPropertyOp19
 70
     1
102
RTVSPropertyOp20
 70
     1
102
RTVSPropertyOp21
 70
     1
102
RTVSPropertyOp22
 70
     1
102
RTVSPropertyOp23
 70
     1
102
RTVSPropertyOp24
 70
     1
102
RTVSPropertyOp25
 70
     1
102
RTVSPropertyOp26
 70
     1
102
RTVSPropertyOp27
 70
     1
  0
XRECORD
  5
19D6
102
{ACAD_REACTORS
330
19D5
102
}
330
19D5
100
AcDbXrecord
280
     1
102
RTVSPropertyOp0
 70
     1
102
RTVSPropertyOp1
 70
     1
102
RTVSPropertyOp2
 70
     1
102
RTVSPropertyOp3
 70
     1
102
RTVSPropertyOp4
 70
     1
102
RTVSPropertyOp5
 70
     1
102
RTVSPropertyOp6
 70
     1
102
RTVSPropertyOp7
 70
     1
102
RTVSPropertyOp8
 70
     1
102
RTVSPropertyOp9
 70
     1
102
RTVSPropertyOp10
 70
     1
102
RTVSPropertyOp11
 70
     1
102
RTVSPropertyOp12
 70
     1
102
RTVSPropertyOp13
 70
     1
102
RTVSPropertyOp14
 70
     1
102
RTVSPropertyOp15
 70
     1
102
RTVSPropertyOp16
 70
     1
102
RTVSPropertyOp17
 70
     1
102
RTVSPropertyOp18
 70
     1
102
RTVSPropertyOp19
 70
     1
102
RTVSPropertyOp20
 70
     1
102
RTVSPropertyOp21
 70
     1
102
RTVSPropertyOp22
 70
     1
102
RTVSPropertyOp23
 70
     1
102
RTVSPropertyOp24
 70
     1
102
RTVSPropertyOp25
 70
     1
102
RTVSPropertyOp26
 70
     1
102
RTVSPropertyOp27
 70
     1
  0
XRECORD
  5
19D2
102
{ACAD_REACTORS
330
19D1
102
}
330
19D1
100
AcDbXrecord
280
     1
102
RTVSPropertyOp0
 70
     1
102
RTVSPropertyOp1
 70
     1
102
RTVSPropertyOp2
 70
     1
102
RTVSPropertyOp3
 70
     1
102
RTVSPropertyOp4
 70
     1
102
RTVSPropertyOp5
 70
     1
102
RTVSPropertyOp6
 70
     1
102
RTVSPropertyOp7
 70
     1
102
RTVSPropertyOp8
 70
     1
102
RTVSPropertyOp9
 70
     1
102
RTVSPropertyOp10
 70
     1
102
RTVSPropertyOp11
 70
     1
102
RTVSPropertyOp12
 70
     1
102
RTVSPropertyOp13
 70
     1
102
RTVSPropertyOp14
 70
     1
102
RTVSPropertyOp15
 70
     1
102
RTVSPropertyOp16
 70
     1
102
RTVSPropertyOp17
 70
     1
102
RTVSPropertyOp18
 70
     1
102
RTVSPropertyOp19
 70
     1
102
RTVSPropertyOp20
 70
     1
102
RTVSPropertyOp21
 70
     1
102
RTVSPropertyOp22
 70
     1
102
RTVSPropertyOp23
 70
     1
102
RTVSPropertyOp24
 70
     1
102
RTVSPropertyOp25
 70
     1
102
RTVSPropertyOp26
 70
     1
102
RTVSPropertyOp27
 70
     1
  0
XRECORD
  5
19E0
102
{ACAD_REACTORS
330
19DF
102
}
330
19DF
100
AcDbXrecord
280
     1
102
RTVSPropertyOp0
 70
     1
102
RTVSPropertyOp1
 70
     1
102
RTVSPropertyOp2
 70
     1
102
RTVSPropertyOp3
 70
     1
102
RTVSPropertyOp4
 70
     1
102
RTVSPropertyOp5
 70
     1
102
RTVSPropertyOp6
 70
     1
102
RTVSPropertyOp7
 70
     1
102
RTVSPropertyOp8
 70
     1
102
RTVSPropertyOp9
 70
     1
102
RTVSPropertyOp10
 70
     1
102
RTVSPropertyOp11
 70
     1
102
RTVSPropertyOp12
 70
     1
102
RTVSPropertyOp13
 70
     1
102
RTVSPropertyOp14
 70
     1
102
RTVSPropertyOp15
 70
     1
102
RTVSPropertyOp16
 70
     1
102
RTVSPropertyOp17
 70
     1
102
RTVSPropertyOp18
 70
     1
102
RTVSPropertyOp19
 70
     1
102
RTVSPropertyOp20
 70
     1
102
RTVSPropertyOp21
 70
     1
102
RTVSPropertyOp22
 70
     1
102
RTVSPropertyOp23
 70
     1
102
RTVSPropertyOp24
 70
     1
102
RTVSPropertyOp25
 70
     1
102
RTVSPropertyOp26
 70
     1
102
RTVSPropertyOp27
 70
     1
  0
XRECORD
  5
19E8
102
{ACAD_REACTORS
330
19E7
102
}
330
19E7
100
AcDbXrecord
280
     1
102
RTVSPropertyOp0
 70
     1
102
RTVSPropertyOp1
 70
     1
102
RTVSPropertyOp2
 70
     1
102
RTVSPropertyOp3
 70
     1
102
RTVSPropertyOp4
 70
     1
102
RTVSPropertyOp5
 70
     1
102
RTVSPropertyOp6
 70
     1
102
RTVSPropertyOp7
 70
     1
102
RTVSPropertyOp8
 70
     1
102
RTVSPropertyOp9
 70
     1
102
RTVSPropertyOp10
 70
     1
102
RTVSPropertyOp11
 70
     1
102
RTVSPropertyOp12
 70
     1
102
RTVSPropertyOp13
 70
     1
102
RTVSPropertyOp14
 70
     1
102
RTVSPropertyOp15
 70
     1
102
RTVSPropertyOp16
 70
     1
102
RTVSPropertyOp17
 70
     1
102
RTVSPropertyOp18
 70
     1
102
RTVSPropertyOp19
 70
     1
102
RTVSPropertyOp20
 70
     1
102
RTVSPropertyOp21
 70
     1
102
RTVSPropertyOp22
 70
     1
102
RTVSPropertyOp23
 70
     1
102
RTVSPropertyOp24
 70
     1
102
RTVSPropertyOp25
 70
     1
102
RTVSPropertyOp26
 70
     1
102
RTVSPropertyOp27
 70
     1
  0
XRECORD
  5
19DA
102
{ACAD_REACTORS
330
19D9
102
}
330
19D9
100
AcDbXrecord
280
     1
102
RTVSPropertyOp0
 70
     1
102
RTVSPropertyOp1
 70
     1
102
RTVSPropertyOp2
 70
     1
102
RTVSPropertyOp3
 70
     1
102
RTVSPropertyOp4
 70
     1
102
RTVSPropertyOp5
 70
     1
102
RTVSPropertyOp6
 70
     1
102
RTVSPropertyOp7
 70
     1
102
RTVSPropertyOp8
 70
     1
102
RTVSPropertyOp9
 70
     1
102
RTVSPropertyOp10
 70
     1
102
RTVSPropertyOp11
 70
     1
102
RTVSPropertyOp12
 70
     1
102
RTVSPropertyOp13
 70
     1
102
RTVSPropertyOp14
 70
     1
102
RTVSPropertyOp15
 70
     1
102
RTVSPropertyOp16
 70
     1
102
RTVSPropertyOp17
 70
     1
102
RTVSPropertyOp18
 70
     1
102
RTVSPropertyOp19
 70
     1
102
RTVSPropertyOp20
 70
     1
102
RTVSPropertyOp21
 70
     1
102
RTVSPropertyOp22
 70
     1
102
RTVSPropertyOp23
 70
     1
102
RTVSPropertyOp24
 70
     1
102
RTVSPropertyOp25
 70
     1
102
RTVSPropertyOp26
 70
     1
102
RTVSPropertyOp27
 70
     1
  0
XRECORD
  5
19DE
102
{ACAD_REACTORS
330
19DD
102
}
330
19DD
100
AcDbXrecord
280
     1
102
RTVSPropertyOp0
 70
     1
102
RTVSPropertyOp1
 70
     1
102
RTVSPropertyOp2
 70
     1
102
RTVSPropertyOp3
 70
     1
102
RTVSPropertyOp4
 70
     1
102
RTVSPropertyOp5
 70
     1
102
RTVSPropertyOp6
 70
     1
102
RTVSPropertyOp7
 70
     1
102
RTVSPropertyOp8
 70
     1
102
RTVSPropertyOp9
 70
     1
102
RTVSPropertyOp10
 70
     1
102
RTVSPropertyOp11
 70
     1
102
RTVSPropertyOp12
 70
     1
102
RTVSPropertyOp13
 70
     1
102
RTVSPropertyOp14
 70
     1
102
RTVSPropertyOp15
 70
     1
102
RTVSPropertyOp16
 70
     1
102
RTVSPropertyOp17
 70
     1
102
RTVSPropertyOp18
 70
     1
102
RTVSPropertyOp19
 70
     1
102
RTVSPropertyOp20
 70
     1
102
RTVSPropertyOp21
 70
     1
102
RTVSPropertyOp22
 70
     1
102
RTVSPropertyOp23
 70
     1
102
RTVSPropertyOp24
 70
     1
102
RTVSPropertyOp25
 70
     1
102
RTVSPropertyOp26
 70
     1
102
RTVSPropertyOp27
 70
     1
  0
XRECORD
  5
19EE
102
{ACAD_REACTORS
330
19ED
102
}
330
19ED
100
AcDbXrecord
280
     1
102
RTVSPropertyOp0
 70
     0
102
RTVSPropertyOp1
 70
     0
102
RTVSPropertyOp2
 70
     0
102
RTVSPropertyOp3
 70
     0
102
RTVSPropertyOp4
 70
     0
102
RTVSPropertyOp5
 70
     0
102
RTVSPropertyOp6
 70
     0
102
RTVSPropertyOp7
 70
     0
102
RTVSPropertyOp8
 70
     0
102
RTVSPropertyOp9
 70
     0
102
RTVSPropertyOp10
 70
     0
102
RTVSPropertyOp11
 70
     0
102
RTVSPropertyOp12
 70
     0
102
RTVSPropertyOp13
 70
     0
102
RTVSPropertyOp14
 70
     2
102
RTVSPropertyOp15
 70
     0
102
RTVSPropertyOp16
 70
     0
102
RTVSPropertyOp17
 70
     0
102
RTVSPropertyOp18
 70
     0
102
RTVSPropertyOp19
 70
     0
102
RTVSPropertyOp20
 70
     0
102
RTVSPropertyOp21
 70
     0
102
RTVSPropertyOp22
 70
     0
102
RTVSPropertyOp23
 70
     0
102
RTVSPropertyOp24
 70
     0
102
RTVSPropertyOp25
 70
     0
102
RTVSPropertyOp26
 70
     0
102
RTVSPropertyOp27
 70
     0
  0
XRECORD
  5
19E6
102
{ACAD_REACTORS
330
19E5
102
}
330
19E5
100
AcDbXrecord
280
     1
102
RTVSPropertyOp0
 70
     1
102
RTVSPropertyOp1
 70
     1
102
RTVSPropertyOp2
 70
     1
102
RTVSPropertyOp3
 70
     1
102
RTVSPropertyOp4
 70
     1
102
RTVSPropertyOp5
 70
     1
102
RTVSPropertyOp6
 70
     1
102
RTVSPropertyOp7
 70
     1
102
RTVSPropertyOp8
 70
     1
102
RTVSPropertyOp9
 70
     1
102
RTVSPropertyOp10
 70
     1
102
RTVSPropertyOp11
 70
     1
102
RTVSPropertyOp12
 70
     1
102
RTVSPropertyOp13
 70
     1
102
RTVSPropertyOp14
 70
     1
102
RTVSPropertyOp15
 70
     1
102
RTVSPropertyOp16
 70
     1
102
RTVSPropertyOp17
 70
     1
102
RTVSPropertyOp18
 70
     1
102
RTVSPropertyOp19
 70
     1
102
RTVSPropertyOp20
 70
     1
102
RTVSPropertyOp21
 70
     1
102
RTVSPropertyOp22
 70
     1
102
RTVSPropertyOp23
 70
     1
102
RTVSPropertyOp24
 70
     1
102
RTVSPropertyOp25
 70
     1
102
RTVSPropertyOp26
 70
     1
102
RTVSPropertyOp27
 70
     1
  0
XRECORD
  5
19CA
102
{ACAD_REACTORS
330
19C9
102
}
330
19C9
100
AcDbXrecord
280
     1
102
RTVSPropertyOp0
 70
     1
102
RTVSPropertyOp1
 70
     1
102
RTVSPropertyOp2
 70
     1
102
RTVSPropertyOp3
 70
     1
102
RTVSPropertyOp4
 70
     1
102
RTVSPropertyOp5
 70
     1
102
RTVSPropertyOp6
 70
     1
102
RTVSPropertyOp7
 70
     1
102
RTVSPropertyOp8
 70
     1
102
RTVSPropertyOp9
 70
     1
102
RTVSPropertyOp10
 70
     1
102
RTVSPropertyOp11
 70
     1
102
RTVSPropertyOp12
 70
     1
102
RTVSPropertyOp13
 70
     1
102
RTVSPropertyOp14
 70
     1
102
RTVSPropertyOp15
 70
     1
102
RTVSPropertyOp16
 70
     1
102
RTVSPropertyOp17
 70
     1
102
RTVSPropertyOp18
 70
     1
102
RTVSPropertyOp19
 70
     1
102
RTVSPropertyOp20
 70
     1
102
RTVSPropertyOp21
 70
     1
102
RTVSPropertyOp22
 70
     1
102
RTVSPropertyOp23
 70
     1
102
RTVSPropertyOp24
 70
     1
102
RTVSPropertyOp25
 70
     1
102
RTVSPropertyOp26
 70
     1
102
RTVSPropertyOp27
 70
     1
  0
XRECORD
  5
19CC
102
{ACAD_REACTORS
330
19CB
102
}
330
19CB
100
AcDbXrecord
280
     1
102
RTVSPropertyOp0
 70
     1
102
RTVSPropertyOp1
 70
     1
102
RTVSPropertyOp2
 70
     1
102
RTVSPropertyOp3
 70
     1
102
RTVSPropertyOp4
 70
     1
102
RTVSPropertyOp5
 70
     1
102
RTVSPropertyOp6
 70
     1
102
RTVSPropertyOp7
 70
     1
102
RTVSPropertyOp8
 70
     1
102
RTVSPropertyOp9
 70
     1
102
RTVSPropertyOp10
 70
     1
102
RTVSPropertyOp11
 70
     1
102
RTVSPropertyOp12
 70
     1
102
RTVSPropertyOp13
 70
     1
102
RTVSPropertyOp14
 70
     1
102
RTVSPropertyOp15
 70
     1
102
RTVSPropertyOp16
 70
     1
102
RTVSPropertyOp17
 70
     1
102
RTVSPropertyOp18
 70
     1
102
RTVSPropertyOp19
 70
     1
102
RTVSPropertyOp20
 70
     1
102
RTVSPropertyOp21
 70
     1
102
RTVSPropertyOp22
 70
     1
102
RTVSPropertyOp23
 70
     1
102
RTVSPropertyOp24
 70
     1
102
RTVSPropertyOp25
 70
     1
102
RTVSPropertyOp26
 70
     1
102
RTVSPropertyOp27
 70
     1
  0
XRECORD
  5
19CE
102
{ACAD_REACTORS
330
19CD
102
}
330
19CD
100
AcDbXrecord
280
     1
102
RTVSPropertyOp0
 70
     1
102
RTVSPropertyOp1
 70
     1
102
RTVSPropertyOp2
 70
     1
102
RTVSPropertyOp3
 70
     1
102
RTVSPropertyOp4
 70
     1
102
RTVSPropertyOp5
 70
     1
102
RTVSPropertyOp6
 70
     1
102
RTVSPropertyOp7
 70
     1
102
RTVSPropertyOp8
 70
     1
102
RTVSPropertyOp9
 70
     1
102
RTVSPropertyOp10
 70
     1
102
RTVSPropertyOp11
 70
     1
102
RTVSPropertyOp12
 70
     1
102
RTVSPropertyOp13
 70
     1
102
RTVSPropertyOp14
 70
     1
102
RTVSPropertyOp15
 70
     1
102
RTVSPropertyOp16
 70
     1
102
RTVSPropertyOp17
 70
     1
102
RTVSPropertyOp18
 70
     1
102
RTVSPropertyOp19
 70
     1
102
RTVSPropertyOp20
 70
     1
102
RTVSPropertyOp21
 70
     1
102
RTVSPropertyOp22
 70
     1
102
RTVSPropertyOp23
 70
     1
102
RTVSPropertyOp24
 70
     1
102
RTVSPropertyOp25
 70
     1
102
RTVSPropertyOp26
 70
     1
102
RTVSPropertyOp27
 70
     1
  0
XRECORD
  5
19D0
102
{ACAD_REACTORS
330
19CF
102
}
330
19CF
100
AcDbXrecord
280
     1
102
RTVSPropertyOp0
 70
     1
102
RTVSPropertyOp1
 70
     1
102
RTVSPropertyOp2
 70
     1
102
RTVSPropertyOp3
 70
     1
102
RTVSPropertyOp4
 70
     1
102
RTVSPropertyOp5
 70
     1
102
RTVSPropertyOp6
 70
     1
102
RTVSPropertyOp7
 70
     1
102
RTVSPropertyOp8
 70
     1
102
RTVSPropertyOp9
 70
     1
102
RTVSPropertyOp10
 70
     1
102
RTVSPropertyOp11
 70
     1
102
RTVSPropertyOp12
 70
     1
102
RTVSPropertyOp13
 70
     1
102
RTVSPropertyOp14
 70
     1
102
RTVSPropertyOp15
 70
     1
102
RTVSPropertyOp16
 70
     1
102
RTVSPropertyOp17
 70
     1
102
RTVSPropertyOp18
 70
     1
102
RTVSPropertyOp19
 70
     1
102
RTVSPropertyOp20
 70
     1
102
RTVSPropertyOp21
 70
     1
102
RTVSPropertyOp22
 70
     1
102
RTVSPropertyOp23
 70
     1
102
RTVSPropertyOp24
 70
     1
102
RTVSPropertyOp25
 70
     1
102
RTVSPropertyOp26
 70
     1
102
RTVSPropertyOp27
 70
     1
  0
XRECORD
  5
19EA
102
{ACAD_REACTORS
330
19E9
102
}
330
19E9
100
AcDbXrecord
280
     1
102
RTVSPropertyOp0
 70
     0
102
RTVSPropertyOp1
 70
     0
102
RTVSPropertyOp2
 70
     0
102
RTVSPropertyOp3
 70
     0
102
RTVSPropertyOp4
 70
     0
102
RTVSPropertyOp5
 70
     0
102
RTVSPropertyOp6
 70
     0
102
RTVSPropertyOp7
 70
     0
102
RTVSPropertyOp8
 70
     0
102
RTVSPropertyOp9
 70
     0
102
RTVSPropertyOp10
 70
     0
102
RTVSPropertyOp11
 70
     0
102
RTVSPropertyOp12
 70
     0
102
RTVSPropertyOp13
 70
     0
102
RTVSPropertyOp14
 70
     2
102
RTVSPropertyOp15
 70
     0
102
RTVSPropertyOp16
 70
     0
102
RTVSPropertyOp17
 70
     0
102
RTVSPropertyOp18
 70
     0
102
RTVSPropertyOp19
 70
     0
102
RTVSPropertyOp20
 70
     0
102
RTVSPropertyOp21
 70
     0
102
RTVSPropertyOp22
 70
     0
102
RTVSPropertyOp23
 70
     0
102
RTVSPropertyOp24
 70
     0
102
RTVSPropertyOp25
 70
     0
102
RTVSPropertyOp26
 70
     0
102
RTVSPropertyOp27
 70
     0
  0
XRECORD
  5
19E4
102
{ACAD_REACTORS
330
19E3
102
}
330
19E3
100
AcDbXrecord
280
     1
102
RTVSPropertyOp0
 70
     1
102
RTVSPropertyOp1
 70
     1
102
RTVSPropertyOp2
 70
     1
102
RTVSPropertyOp3
 70
     1
102
RTVSPropertyOp4
 70
     1
102
RTVSPropertyOp5
 70
     1
102
RTVSPropertyOp6
 70
     1
102
RTVSPropertyOp7
 70
     1
102
RTVSPropertyOp8
 70
     1
102
RTVSPropertyOp9
 70
     1
102
RTVSPropertyOp10
 70
     1
102
RTVSPropertyOp11
 70
     1
102
RTVSPropertyOp12
 70
     1
102
RTVSPropertyOp13
 70
     1
102
RTVSPropertyOp14
 70
     1
102
RTVSPropertyOp15
 70
     1
102
RTVSPropertyOp16
 70
     1
102
RTVSPropertyOp17
 70
     1
102
RTVSPropertyOp18
 70
     1
102
RTVSPropertyOp19
 70
     1
102
RTVSPropertyOp20
 70
     1
102
RTVSPropertyOp21
 70
     1
102
RTVSPropertyOp22
 70
     1
102
RTVSPropertyOp23
 70
     1
102
RTVSPropertyOp24
 70
     1
102
RTVSPropertyOp25
 70
     1
102
RTVSPropertyOp26
 70
     1
102
RTVSPropertyOp27
 70
     1
  0
XRECORD
  5
19EC
102
{ACAD_REACTORS
330
19EB
102
}
330
19EB
100
AcDbXrecord
280
     1
102
RTVSPropertyOp0
 70
     0
102
RTVSPropertyOp1
 70
     0
102
RTVSPropertyOp2
 70
     0
102
RTVSPropertyOp3
 70
     0
102
RTVSPropertyOp4
 70
     0
102
RTVSPropertyOp5
 70
     0
102
RTVSPropertyOp6
 70
     0
102
RTVSPropertyOp7
 70
     0
102
RTVSPropertyOp8
 70
     0
102
RTVSPropertyOp9
 70
     0
102
RTVSPropertyOp10
 70
     0
102
RTVSPropertyOp11
 70
     0
102
RTVSPropertyOp12
 70
     0
102
RTVSPropertyOp13
 70
     0
102
RTVSPropertyOp14
 70
     2
102
RTVSPropertyOp15
 70
     0
102
RTVSPropertyOp16
 70
     0
102
RTVSPropertyOp17
 70
     0
102
RTVSPropertyOp18
 70
     0
102
RTVSPropertyOp19
 70
     0
102
RTVSPropertyOp20
 70
     0
102
RTVSPropertyOp21
 70
     0
102
RTVSPropertyOp22
 70
     0
102
RTVSPropertyOp23
 70
     0
102
RTVSPropertyOp24
 70
     0
102
RTVSPropertyOp25
 70
     0
102
RTVSPropertyOp26
 70
     0
102
RTVSPropertyOp27
 70
     0
  0
XRECORD
  5
19DC
102
{ACAD_REACTORS
330
19DB
102
}
330
19DB
100
AcDbXrecord
280
     1
102
RTVSPropertyOp0
 70
     1
102
RTVSPropertyOp1
 70
     1
102
RTVSPropertyOp2
 70
     1
102
RTVSPropertyOp3
 70
     1
102
RTVSPropertyOp4
 70
     1
102
RTVSPropertyOp5
 70
     1
102
RTVSPropertyOp6
 70
     1
102
RTVSPropertyOp7
 70
     1
102
RTVSPropertyOp8
 70
     1
102
RTVSPropertyOp9
 70
     1
102
RTVSPropertyOp10
 70
     1
102
RTVSPropertyOp11
 70
     1
102
RTVSPropertyOp12
 70
     1
102
RTVSPropertyOp13
 70
     1
102
RTVSPropertyOp14
 70
     1
102
RTVSPropertyOp15
 70
     1
102
RTVSPropertyOp16
 70
     1
102
RTVSPropertyOp17
 70
     1
102
RTVSPropertyOp18
 70
     1
102
RTVSPropertyOp19
 70
     1
102
RTVSPropertyOp20
 70
     1
102
RTVSPropertyOp21
 70
     1
102
RTVSPropertyOp22
 70
     1
102
RTVSPropertyOp23
 70
     1
102
RTVSPropertyOp24
 70
     1
102
RTVSPropertyOp25
 70
     1
102
RTVSPropertyOp26
 70
     1
102
RTVSPropertyOp27
 70
     1
  0
XRECORD
  5
19E2
102
{ACAD_REACTORS
330
19E1
102
}
330
19E1
100
AcDbXrecord
280
     1
102
RTVSPropertyOp0
 70
     1
102
RTVSPropertyOp1
 70
     1
102
RTVSPropertyOp2
 70
     1
102
RTVSPropertyOp3
 70
     1
102
RTVSPropertyOp4
 70
     1
102
RTVSPropertyOp5
 70
     1
102
RTVSPropertyOp6
 70
     1
102
RTVSPropertyOp7
 70
     1
102
RTVSPropertyOp8
 70
     1
102
RTVSPropertyOp9
 70
     1
102
RTVSPropertyOp10
 70
     1
102
RTVSPropertyOp11
 70
     1
102
RTVSPropertyOp12
 70
     1
102
RTVSPropertyOp13
 70
     1
102
RTVSPropertyOp14
 70
     1
102
RTVSPropertyOp15
 70
     1
102
RTVSPropertyOp16
 70
     1
102
RTVSPropertyOp17
 70
     1
102
RTVSPropertyOp18
 70
     1
102
RTVSPropertyOp19
 70
     1
102
RTVSPropertyOp20
 70
     1
102
RTVSPropertyOp21
 70
     1
102
RTVSPropertyOp22
 70
     1
102
RTVSPropertyOp23
 70
     1
102
RTVSPropertyOp24
 70
     1
102
RTVSPropertyOp25
 70
     1
102
RTVSPropertyOp26
 70
     1
102
RTVSPropertyOp27
 70
     1
  0
ENDSEC
  0
EOF
