  0
SECTION
  2
HEADER
  9
$ACADVER
  1
AC1015
  9
$ACADMAINTVER
 70
    20
  9
$DWGCODEPAGE
  3
ANSI_1252
  9
$INSBASE
 10
0.0
 20
0.0
 30
0.0
  9
$EXTMIN
 10
417.1929946276277
 20
392.145539753281
 30
-0.0000000349181977
  9
$EXTMAX
 10
419.8205576183049
 20
392.7448020162714
 30
0.0000000814935717
  9
$LIMMIN
 10
0.0
 20
0.0
  9
$LIMMAX
 10
420.0
 20
297.0
  9
$ORTHOMODE
 70
     1
  9
$REGENMODE
 70
     1
  9
$FILLMODE
 70
     1
  9
$QTEXTMODE
 70
     0
  9
$MIRRTEXT
 70
     1
  9
$LTSCALE
 40
1.0
  9
$ATTMODE
 70
     1
  9
$TEXTSIZE
 40
2.5
  9
$TRACEWID
 40
1.0
  9
$TEXTSTYLE
  7
Standard
  9
$CLAYER
  8
0
  9
$CELTYPE
  6
ByLayer
  9
$CECOLOR
 62
   256
  9
$CELTSCALE
 40
1.0
  9
$DISPSILH
 70
     0
  9
$DIMSCALE
 40
1.0
  9
$DIMASZ
 40
2.5
  9
$DIMEXO
 40
0.625
  9
$DIMDLI
 40
3.75
  9
$DIMRND
 40
0.0
  9
$DIMDLE
 40
0.0
  9
$DIMEXE
 40
1.25
  9
$DIMTP
 40
0.0
  9
$DIMTM
 40
0.0
  9
$DIMTXT
 40
2.5
  9
$DIMCEN
 40
2.5
  9
$DIMTSZ
 40
0.0
  9
$DIMTOL
 70
     0
  9
$DIMLIM
 70
     0
  9
$DIMTIH
 70
     0
  9
$DIMTOH
 70
     0
  9
$DIMSE1
 70
     0
  9
$DIMSE2
 70
     0
  9
$DIMTAD
 70
     1
  9
$DIMZIN
 70
     8
  9
$DIMBLK
  1

  9
$DIMASO
 70
     1
  9
$DIMSHO
 70
     1
  9
$DIMPOST
  1

  9
$DIMAPOST
  1

  9
$DIMALT
 70
     0
  9
$DIMALTD
 70
     3
  9
$DIMALTF
 40
0.03937007874016
  9
$DIMLFAC
 40
1.0
  9
$DIMTOFL
 70
     1
  9
$DIMTVP
 40
0.0
  9
$DIMTIX
 70
     0
  9
$DIMSOXD
 70
     0
  9
$DIMSAH
 70
     0
  9
$DIMBLK1
  1

  9
$DIMBLK2
  1

  9
$DIMSTYLE
  2
ISO-25
  9
$DIMCLRD
 70
     0
  9
$DIMCLRE
 70
     0
  9
$DIMCLRT
 70
     0
  9
$DIMTFAC
 40
1.0
  9
$DIMGAP
 40
0.625
  9
$DIMJUST
 70
     0
  9
$DIMSD1
 70
     0
  9
$DIMSD2
 70
     0
  9
$DIMTOLJ
 70
     0
  9
$DIMTZIN
 70
     8
  9
$DIMALTZ
 70
     0
  9
$DIMALTTZ
 70
     0
  9
$DIMUPT
 70
     0
  9
$DIMDEC
 70
     2
  9
$DIMTDEC
 70
     2
  9
$DIMALTU
 70
     2
  9
$DIMALTTD
 70
     3
  9
$DIMTXSTY
  7
Standard
  9
$DIMAUNIT
 70
     0
  9
$DIMADEC
 70
     0
  9
$DIMALTRND
 40
0.0
  9
$DIMAZIN
 70
     0
  9
$DIMDSEP
 70
    44
  9
$DIMATFIT
 70
     3
  9
$DIMFRAC
 70
     0
  9
$DIMLDRBLK
  1

  9
$DIMLUNIT
 70
     2
  9
$DIMLWD
 70
    -2
  9
$DIMLWE
 70
    -2
  9
$DIMTMOVE
 70
     0
  9
$LUNITS
 70
     2
  9
$LUPREC
 70
     4
  9
$SKETCHINC
 40
1.0
  9
$FILLETRAD
 40
10.0
  9
$AUNITS
 70
     0
  9
$AUPREC
 70
     0
  9
$MENU
  1
.
  9
$ELEVATION
 40
0.0
  9
$PELEVATION
 40
0.0
  9
$THICKNESS
 40
0.0
  9
$LIMCHECK
 70
     0
  9
$CHAMFERA
 40
10.0
  9
$CHAMFERB
 40
10.0
  9
$CHAMFERC
 40
20.0
  9
$CHAMFERD
 40
0.0
  9
$SKPOLY
 70
     0
  9
$TDCREATE
 40
2452830.681038773
  9
$TDUCREATE
 40
2452830.639372107
  9
$TDUPDATE
 40
2456149.675143230
  9
$TDUUPDATE
 40
2456149.633476563
  9
$TDINDWG
 40
0.0075195255
  9
$TDUSRTIMER
 40
0.0075195255
  9
$USRTIMER
 70
     1
  9
$ANGBASE
 50
0.0
  9
$ANGDIR
 70
     0
  9
$PDMODE
 70
     0
  9
$PDSIZE
 40
0.0
  9
$PLINEWID
 40
0.0
  9
$SPLFRAME
 70
     0
  9
$SPLINETYPE
 70
     6
  9
$SPLINESEGS
 70
     8
  9
$HANDSEED
  5
4E7
  9
$SURFTAB1
 70
     6
  9
$SURFTAB2
 70
     6
  9
$SURFTYPE
 70
     6
  9
$SURFU
 70
     6
  9
$SURFV
 70
     6
  9
$UCSBASE
  2

  9
$UCSNAME
  2

  9
$UCSORG
 10
0.0
 20
0.0
 30
0.0
  9
$UCSXDIR
 10
1.0
 20
0.0
 30
0.0
  9
$UCSYDIR
 10
0.0
 20
1.0
 30
0.0
  9
$UCSORTHOREF
  2

  9
$UCSORTHOVIEW
 70
     0
  9
$UCSORGTOP
 10
0.0
 20
0.0
 30
0.0
  9
$UCSORGBOTTOM
 10
0.0
 20
0.0
 30
0.0
  9
$UCSORGLEFT
 10
0.0
 20
0.0
 30
0.0
  9
$UCSORGRIGHT
 10
0.0
 20
0.0
 30
0.0
  9
$UCSORGFRONT
 10
0.0
 20
0.0
 30
0.0
  9
$UCSORGBACK
 10
0.0
 20
0.0
 30
0.0
  9
$PUCSBASE
  2

  9
$PUCSNAME
  2

  9
$PUCSORG
 10
0.0
 20
0.0
 30
0.0
  9
$PUCSXDIR
 10
1.0
 20
0.0
 30
0.0
  9
$PUCSYDIR
 10
0.0
 20
1.0
 30
0.0
  9
$PUCSORTHOREF
  2

  9
$PUCSORTHOVIEW
 70
     0
  9
$PUCSORGTOP
 10
0.0
 20
0.0
 30
0.0
  9
$PUCSORGBOTTOM
 10
0.0
 20
0.0
 30
0.0
  9
$PUCSORGLEFT
 10
0.0
 20
0.0
 30
0.0
  9
$PUCSORGRIGHT
 10
0.0
 20
0.0
 30
0.0
  9
$PUCSORGFRONT
 10
0.0
 20
0.0
 30
0.0
  9
$PUCSORGBACK
 10
0.0
 20
0.0
 30
0.0
  9
$USERI1
 70
     0
  9
$USERI2
 70
     0
  9
$USERI3
 70
     0
  9
$USERI4
 70
     0
  9
$USERI5
 70
     0
  9
$USERR1
 40
0.0
  9
$USERR2
 40
0.0
  9
$USERR3
 40
0.0
  9
$USERR4
 40
0.0
  9
$USERR5
 40
0.0
  9
$WORLDVIEW
 70
     1
  9
$SHADEDGE
 70
     3
  9
$SHADEDIF
 70
    70
  9
$TILEMODE
 70
     1
  9
$MAXACTVP
 70
    64
  9
$PINSBASE
 10
0.0
 20
0.0
 30
0.0
  9
$PLIMCHECK
 70
     0
  9
$PEXTMIN
 10
1.000000000000000E+20
 20
1.000000000000000E+20
 30
1.000000000000000E+20
  9
$PEXTMAX
 10
-1.000000000000000E+20
 20
-1.000000000000000E+20
 30
-1.000000000000000E+20
  9
$PLIMMIN
 10
0.0
 20
0.0
  9
$PLIMMAX
 10
420.0
 20
297.0
  9
$UNITMODE
 70
     0
  9
$VISRETAIN
 70
     1
  9
$PLINEGEN
 70
     0
  9
$PSLTSCALE
 70
     1
  9
$TREEDEPTH
 70
  3020
  9
$CMLSTYLE
  2
Standard
  9
$CMLJUST
 70
     0
  9
$CMLSCALE
 40
20.0
  9
$PROXYGRAPHICS
 70
     1
  9
$MEASUREMENT
 70
     1
  9
$CELWEIGHT
370
    -1
  9
$ENDCAPS
280
     0
  9
$JOINSTYLE
280
     0
  9
$LWDISPLAY
290
     0
  9
$INSUNITS
 70
     4
  9
$HYPERLINKBASE
  1

  9
$STYLESHEET
  1

  9
$XEDIT
290
     1
  9
$CEPSNTYPE
380
     0
  9
$PSTYLEMODE
290
     1
  9
$FINGERPRINTGUID
  2
{CBBAFF15-A7B7-490C-BD90-BC64E6747815}
  9
$VERSIONGUID
  2
{051D144E-5D96-4819-A7B2-A846B6D701F6}
  9
$EXTNAMES
290
     1
  9
$PSVPSCALE
 40
0.0
  9
$OLESTARTUP
290
     0
  0
ENDSEC
  0
SECTION
  2
CLASSES
  0
CLASS
  1
ACDBDICTIONARYWDFLT
  2
AcDbDictionaryWithDefault
  3
ObjectDBX Classes
 90
        0
280
     0
281
     0
  0
CLASS
  1
ACDBPLACEHOLDER
  2
AcDbPlaceHolder
  3
ObjectDBX Classes
 90
        0
280
     0
281
     0
  0
CLASS
  1
LAYOUT
  2
AcDbLayout
  3
ObjectDBX Classes
 90
        0
280
     0
281
     0
  0
CLASS
  1
DIMASSOC
  2
AcDbDimAssoc
  3
"AcDbDimAssoc|Product Desc:     AcDim ARX App For Dimension|Company:          Autodesk, Inc.|WEB Address:      www.autodesk.com"
 90
    32768
280
     0
281
     0
  0
CLASS
  1
DICTIONARYVAR
  2
AcDbDictionaryVar
  3
ObjectDBX Classes
 90
        0
280
     0
281
     0
  0
CLASS
  1
MATERIAL
  2
AcDbMaterial
  3
ObjectDBX Classes
 90
     1153
280
     0
281
     0
  0
CLASS
  1
VISUALSTYLE
  2
AcDbVisualStyle
  3
ObjectDBX Classes
 90
     4095
280
     0
281
     0
  0
CLASS
  1
TABLESTYLE
  2
AcDbTableStyle
  3
ObjectDBX Classes
 90
     4095
280
     0
281
     0
  0
CLASS
  1
SCALE
  2
AcDbScale
  3
ObjectDBX Classes
 90
     1153
280
     0
281
     0
  0
CLASS
  1
MLEADERSTYLE
  2
AcDbMLeaderStyle
  3
ACDB_MLEADERSTYLE_CLASS
 90
     4095
280
     0
281
     0
  0
CLASS
  1
CELLSTYLEMAP
  2
AcDbCellStyleMap
  3
ObjectDBX Classes
 90
     1152
280
     0
281
     0
  0
ENDSEC
  0
SECTION
  2
TABLES
  0
TABLE
  2
VPORT
  5
8
330
0
100
AcDbSymbolTable
 70
     1
  0
VPORT
  5
458
330
8
100
AcDbSymbolTableRecord
100
AcDbViewportTableRecord
  2
*Active
 70
     0
 10
0.0
 20
0.0
 11
1.0
 21
1.0
 12
418.5067761229663
 22
392.4451708847762
 13
0.0
 23
0.0
 14
10.0
 24
10.0
 15
10.0
 25
10.0
 16
0.0
 26
0.0
 36
1.0
 17
0.0
 27
0.0
 37
0.0
 40
1.602917643505403
 41
1.645464025026068
 42
50.0
 43
0.0
 44
0.0
 50
0.0
 51
0.0
 71
     0
 72
   100
 73
     1
 74
     3
 75
     0
 76
     0
 77
     0
 78
     0
281
     0
 65
     1
110
0.0
120
0.0
130
0.0
111
1.0
121
0.0
131
0.0
112
0.0
122
1.0
132
0.0
 79
     0
146
0.0
  0
ENDTAB
  0
TABLE
  2
LTYPE
  5
5
330
0
100
AcDbSymbolTable
 70
     2
  0
LTYPE
  5
14
330
5
100
AcDbSymbolTableRecord
100
AcDbLinetypeTableRecord
  2
ByBlock
 70
     0
  3

 72
    65
 73
     0
 40
0.0
  0
LTYPE
  5
15
330
5
100
AcDbSymbolTableRecord
100
AcDbLinetypeTableRecord
  2
ByLayer
 70
     0
  3

 72
    65
 73
     0
 40
0.0
  0
LTYPE
  5
16
330
5
100
AcDbSymbolTableRecord
100
AcDbLinetypeTableRecord
  2
Continuous
 70
     0
  3
Solid line
 72
    65
 73
     0
 40
0.0
  0
LTYPE
  5
D9
330
5
100
AcDbSymbolTableRecord
100
AcDbLinetypeTableRecord
  2
CENTER
 70
     0
  3
Center ____ _ ____ _ ____ _ ____ _ ____ _ ____
 72
    65
 73
     4
 40
10.16
 49
6.349999999999999
 74
     0
 49
-1.27
 74
     0
 49
1.27
 74
     0
 49
-1.27
 74
     0
  0
ENDTAB
  0
TABLE
  2
LAYER
  5
2
330
0
100
AcDbSymbolTable
 70
     7
  0
LAYER
  5
10
102
{ACAD_XDICTIONARY
360
4A0
102
}
330
2
100
AcDbSymbolTableRecord
100
AcDbLayerTableRecord
  2
0
 70
     0
 62
     7
  6
Continuous
370
    -3
390
F
  0
LAYER
  5
DA
102
{ACAD_XDICTIONARY
360
4A2
102
}
330
2
100
AcDbSymbolTableRecord
100
AcDbLayerTableRecord
  2
3
 70
     0
 62
     3
  6
Continuous
370
    -3
390
F
  0
LAYER
  5
DB
330
2
100
AcDbSymbolTableRecord
100
AcDbLayerTableRecord
  2
Defpoints
 70
     0
 62
     7
  6
Continuous
290
     0
370
    -3
390
F
  0
LAYER
  5
DC
102
{ACAD_XDICTIONARY
360
4A4
102
}
330
2
100
AcDbSymbolTableRecord
100
AcDbLayerTableRecord
  2
9
 70
     0
 62
     9
  6
Continuous
370
    -3
390
F
  0
LAYER
  5
DD
102
{ACAD_XDICTIONARY
360
4A6
102
}
330
2
100
AcDbSymbolTableRecord
100
AcDbLayerTableRecord
  2
hatch
 70
     0
 62
     9
  6
Continuous
370
    -3
390
F
  0
LAYER
  5
DE
102
{ACAD_XDICTIONARY
360
4A8
102
}
330
2
100
AcDbSymbolTableRecord
100
AcDbLayerTableRecord
  2
INDUSA
 70
     0
 62
     1
  6
Continuous
370
    -3
390
F
  0
LAYER
  5
DF
102
{ACAD_XDICTIONARY
360
4AA
102
}
330
2
100
AcDbSymbolTableRecord
100
AcDbLayerTableRecord
  2
INDUSA CEN
 70
     0
 62
     9
  6
CENTER
370
    -3
390
F
  0
ENDTAB
  0
TABLE
  2
STYLE
  5
3
330
0
100
AcDbSymbolTable
 70
     2
  0
STYLE
  5
11
330
3
100
AcDbSymbolTableRecord
100
AcDbTextStyleTableRecord
  2
Standard
 70
     0
 40
0.0
 41
1.0
 50
0.0
 71
     0
 42
2.5
  3
txt
  4

  0
STYLE
  5
E0
330
3
100
AcDbSymbolTableRecord
100
AcDbTextStyleTableRecord
  2
SANINDUSA
 70
     0
 40
0.0
 41
1.0
 50
0.0
 71
     0
 42
2.5
  3
simplex.shx
  4

  0
ENDTAB
  0
TABLE
  2
VIEW
  5
6
330
0
100
AcDbSymbolTable
 70
     0
  0
ENDTAB
  0
TABLE
  2
UCS
  5
7
330
0
100
AcDbSymbolTable
 70
     0
  0
ENDTAB
  0
TABLE
  2
APPID
  5
9
330
0
100
AcDbSymbolTable
 70
     3
  0
APPID
  5
12
330
9
100
AcDbSymbolTableRecord
100
AcDbRegAppTableRecord
  2
ACAD
 70
     0
  0
APPID
  5
44C
330
9
100
AcDbSymbolTableRecord
100
AcDbRegAppTableRecord
  2
DCO15
 70
     0
  0
APPID
  5
4E6
330
9
100
AcDbSymbolTableRecord
100
AcDbRegAppTableRecord
  2
ACAD_MLEADERVER
 70
     0
  0
ENDTAB
  0
TABLE
  2
DIMSTYLE
  5
A
330
0
100
AcDbSymbolTable
 70
     3
100
AcDbDimStyleTable
 71
     1
340
27
  0
DIMSTYLE
105
27
330
A
100
AcDbSymbolTableRecord
100
AcDbDimStyleTableRecord
  2
ISO-25
 70
     0
 41
2.5
 42
0.625
 43
3.75
 44
1.25
 73
     0
 74
     0
 77
     1
 78
     8
140
2.5
141
2.5
143
0.03937007874016
147
0.625
171
     3
172
     1
271
     2
272
     2
274
     3
278
    44
283
     0
284
     8
340
11
  0
DIMSTYLE
105
E1
330
A
100
AcDbSymbolTableRecord
100
AcDbDimStyleTableRecord
  2
SANINDUSA
 70
     0
 41
3.0
 42
1.0
 43
1.0
 44
1.0
 73
     0
 74
     0
 77
     1
 78
     8
140
2.0
141
0.0
143
0.03937007874016
147
1.0
171
     3
172
     1
176
     1
177
     1
178
     1
179
     1
271
     1
272
     1
274
     3
278
    44
283
     0
284
     8
340
E0
371
    -1
372
    -1
  0
DIMSTYLE
105
415
330
A
100
AcDbSymbolTableRecord
100
AcDbDimStyleTableRecord
  2
STANDARD
 70
     0
289
     0
340
11
  0
ENDTAB
  0
TABLE
  2
BLOCK_RECORD
  5
1
330
0
100
AcDbSymbolTable
 70
     1
  0
BLOCK_RECORD
  5
1F
330
1
100
AcDbSymbolTableRecord
100
AcDbBlockTableRecord
  2
*Model_Space
340
22
  0
BLOCK_RECORD
  5
1B
330
1
100
AcDbSymbolTableRecord
100
AcDbBlockTableRecord
  2
*Paper_Space
340
1E
  0
BLOCK_RECORD
  5
23
330
1
100
AcDbSymbolTableRecord
100
AcDbBlockTableRecord
  2
*Paper_Space0
340
26
  0
ENDTAB
  0
ENDSEC
  0
SECTION
  2
BLOCKS
  0
BLOCK
  5
20
330
1F
100
AcDbEntity
  8
0
100
AcDbBlockBegin
  2
*Model_Space
 70
     0
 10
0.0
 20
0.0
 30
0.0
  3
*Model_Space
  1

  0
ENDBLK
  5
21
330
1F
100
AcDbEntity
  8
0
100
AcDbBlockEnd
  0
BLOCK
  5
1C
330
1B
100
AcDbEntity
 67
     1
  8
0
100
AcDbBlockBegin
  2
*Paper_Space
 70
     0
 10
0.0
 20
0.0
 30
0.0
  3
*Paper_Space
  1

  0
ENDBLK
  5
1D
330
1B
100
AcDbEntity
 67
     1
  8
0
100
AcDbBlockEnd
  0
BLOCK
  5
24
330
23
100
AcDbEntity
 67
     1
  8
0
100
AcDbBlockBegin
  2
*Paper_Space0
 70
     0
 10
0.0
 20
0.0
 30
0.0
  3
*Paper_Space0
  1

  0
ENDBLK
  5
25
330
23
100
AcDbEntity
 67
     1
  8
0
100
AcDbBlockEnd
  0
ENDSEC
  0
SECTION
  2
ENTITIES
  0
LINE
  5
1DC
330
1F
100
AcDbEntity
  8
3
100
AcDbLine
 10
417.4294388804137
 20
392.5750523734174
 30
0.0
 11
417.4323599775425
 21
392.5757089724988
 31
0.0
  0
LWPOLYLINE
  5
1E3
330
1F
100
AcDbEntity
  8
3
  6
Continuous
100
AcDbPolyline
 90
       48
 70
   128
 43
0.0
 10
417.4426181975271
 20
392.6208300444647
 10
417.4260384449409
 20
392.6202152426468
 10
417.4095262427273
 20
392.6183807122194
 10
417.3932158892236
 20
392.615341265722
 10
417.3785656425924
 20
392.6115133087415
 10
417.3641582912115
 20
392.6066883254474
 10
417.3500890533573
 20
392.6009054025671
 10
417.3364531473064
 20
392.5942036268283
 10
417.323345791335
 20
392.5866220849584
 10
417.3107874595634
 20
392.5781598720439
 10
417.2987885213991
 20
392.5688369966956
 10
417.2874258646455
 20
392.5587219322255
 10
417.2767763771058
 20
392.5478831519458
 10
417.2669169465835
 20
392.5363891291685
 10
417.2578677149411
 20
392.524246598777
 10
417.2496311956479
 20
392.5114771412367
 10
417.2422572805783
 20
392.4981708065373
 10
417.2357958616061
 20
392.4844176446682
 10
417.2302968306057
 20
392.4703077056192
 10
417.2257770596682
 20
392.4558543051534
 10
417.2222316678585
 20
392.4410783486443
 10
417.219677934069
 20
392.4260813177024
 10
417.2181331371923
 20
392.4109646939384
 10
417.217614556121
 20
392.3958299589629
 10
417.2180584930598
 20
392.3817069851329
 10
417.2195265952914
 20
392.3666346743447
 10
417.222017753042
 20
392.3516448913219
 10
417.2255083467151
 20
392.3368378319345
 10
417.2299747567137
 20
392.3223136920519
 10
417.2353933634414
 20
392.3081726675439
 10
417.2417676994982
 20
392.2944359762034
 10
417.2490801014456
 20
392.2811157957913
 10
417.2572751160209
 20
392.2682988557597
 10
417.2662972899614
 20
392.2560718855607
 10
417.2760911700042
 20
392.2445216146466
 10
417.2866530807
 20
392.2336692203367
 10
417.2979623109323
 20
392.2235203626793
 10
417.3099378252709
 20
392.2141385267698
 10
417.3224985882853
 20
392.2055871977037
 10
417.3355635645452
 20
392.1979298605765
 10
417.3491222897903
 20
392.1911852758705
 10
417.3631533338142
 20
392.1853519370572
 10
417.3775592149858
 20
392.1804629272455
 10
417.3922424516743
 20
392.1765513295441
 10
417.4071055622488
 20
392.1736502270617
 10
417.4188852386904
 20
392.1720860810859
 10
417.4307392954044
 20
392.1711447087442
 10
417.4426181975271
 20
392.170830043795
  0
LWPOLYLINE
  5
1E6
330
1F
100
AcDbEntity
  8
3
  6
Continuous
100
AcDbPolyline
 90
       48
 70
   128
 43
0.0
 10
417.4426181975271
 20
392.6208300444647
 10
417.4591979501133
 20
392.6202152426468
 10
417.475710152327
 20
392.6183807122194
 10
417.4920205058307
 20
392.615341265722
 10
417.5066707524619
 20
392.6115133087415
 10
417.5210781038428
 20
392.6066883254474
 10
417.5351473416969
 20
392.6009054025671
 10
417.5487832477479
 20
392.5942036268283
 10
417.5618906037192
 20
392.5866220849584
 10
417.5744489354908
 20
392.5781598720439
 10
417.5864478736551
 20
392.5688369966956
 10
417.5978105304087
 20
392.5587219322255
 10
417.6084600179485
 20
392.5478831519458
 10
417.6183194484707
 20
392.5363891291685
 10
417.6273686801131
 20
392.524246598777
 10
417.6356051994063
 20
392.5114771412367
 10
417.642979114476
 20
392.4981708065373
 10
417.6494405334481
 20
392.4844176446682
 10
417.6549395644485
 20
392.4703077056192
 10
417.659459335386
 20
392.4558543051534
 10
417.6630047271959
 20
392.4410783486443
 10
417.6655584609853
 20
392.4260813177024
 10
417.6671032578619
 20
392.4109646939384
 10
417.6676218389332
 20
392.3958299589629
 10
417.6671779019945
 20
392.3817069851329
 10
417.665709799763
 20
392.3666346743447
 10
417.6632186420122
 20
392.3516448913219
 10
417.6597280483392
 20
392.3368378319345
 10
417.6552616383405
 20
392.3223136920519
 10
417.6498430316128
 20
392.3081726675439
 10
417.6434686955561
 20
392.2944359762034
 10
417.6361562936087
 20
392.2811157957913
 10
417.6279612790334
 20
392.2682988557597
 10
417.6189391050929
 20
392.2560718855607
 10
417.60914522505
 20
392.2445216146466
 10
417.5985833143543
 20
392.2336692203367
 10
417.5872740841219
 20
392.2235203626793
 10
417.5752985697833
 20
392.2141385267698
 10
417.5627378067689
 20
392.2055871977037
 10
417.549672830509
 20
392.1979298605765
 10
417.5361141052639
 20
392.1911852758705
 10
417.5220830612401
 20
392.1853519370572
 10
417.5076771800684
 20
392.1804629272455
 10
417.4929939433799
 20
392.1765513295441
 10
417.4781308328054
 20
392.1736502270617
 10
417.4663511563639
 20
392.1720860810859
 10
417.4544970996499
 20
392.1711447087442
 10
417.4426181975271
 20
392.170830043795
  0
LWPOLYLINE
  5
1E8
330
1F
100
AcDbEntity
  8
3
  6
Continuous
100
AcDbPolyline
 90
       59
 70
   128
 43
0.0
 10
417.6676227041449
 20
392.7188333657501
 10
417.6676362974125
 20
392.7112558661379
 10
417.6676693277291
 20
392.7008264601649
 10
417.66771135007
 20
392.6913162927482
 10
417.6677589182803
 20
392.6827250462157
 10
417.6678089972995
 20
392.675052351164
 10
417.6678580628623
 20
392.6684103549487
 10
417.6679051492041
 20
392.6626266298625
 10
417.6679546330115
 20
392.6570472601291
 10
417.6680090784905
 20
392.6513929771854
 10
417.6682500958013
 20
392.6305961539112
 10
417.6685688443019
 20
392.6090574789542
 10
417.6688361667193
 20
392.5937935395696
 10
417.669139764485
 20
392.5787077155647
 10
417.6694546498344
 20
392.5637967626702
 10
417.6697535755817
 20
392.5488063881071
 10
417.6700240446625
 20
392.533763301291
 10
417.6702117711505
 20
392.5217960472032
 10
417.6703711380644
 20
392.5097621443575
 10
417.6704963793254
 20
392.4976796393796
 10
417.6705809096985
 20
392.4856135596511
 10
417.6706032998315
 20
392.4803995428671
 10
417.670615247568
 20
392.4758456420829
 10
417.6706194510498
 20
392.4720541115097
 10
417.6706188305817
 20
392.4689955240335
 10
417.6706170808675
 20
392.4674362816586
 10
417.6706145421055
 20
392.4659751943807
 10
417.6706096810065
 20
392.4639930419845
 10
417.6706009985528
 20
392.4614503474364
 10
417.6705870066717
 20
392.458432047076
 10
417.6705579920391
 20
392.4538816992516
 10
417.6705253408099
 20
392.450007158146
 10
417.6704877510577
 20
392.4463823356114
 10
417.6704349878195
 20
392.4421636631814
 10
417.6703627349501
 20
392.437377862274
 10
417.6703057028022
 20
392.4341280340774
 10
417.6702514029193
 20
392.4313435496549
 10
417.6702024839975
 20
392.4290391853208
 10
417.6701605331367
 20
392.4271906930554
 10
417.6701224156603
 20
392.4255990881466
 10
417.6700715193639
 20
392.4235879292039
 10
417.6700046749517
 20
392.421117987668
 10
417.6699202756303
 20
392.4182345115098
 10
417.6698344591847
 20
392.4155290031909
 10
417.6697585262529
 20
392.4132980299717
 10
417.669694094306
 20
392.4115105008918
 10
417.6696337467018
 20
392.4099154219354
 10
417.6695374875261
 20
392.4075135502988
 10
417.6694092381902
 20
392.4045527369736
 10
417.6692575016448
 20
392.4013518891125
 10
417.6691166756852
 20
392.3986314983765
 10
417.6689732280892
 20
392.3960732032916
 10
417.668831778194
 20
392.3937317250281
 10
417.668668812461
 20
392.3912268787782
 10
417.6684634658114
 20
392.3883236248706
 10
417.6682018430867
 20
392.3849693015853
 10
417.6678146759585
 20
392.3805788959894
 10
417.6673977914236
 20
392.376445381365
 10
417.6669333764385
 20
392.3723848198683
  0
CIRCLE
  5
1E9
330
1F
100
AcDbEntity
  8
3
  6
Continuous
100
AcDbCircle
 10
417.4426181975271
 20
392.3958300444647
 30
0.0
 40
0.1801711958886413
  0
LINE
  5
1EA
330
1F
100
AcDbEntity
  8
3
  6
Continuous
100
AcDbLine
 10
417.4426181975271
 20
392.7208300444647
 30
0.0
 11
417.6654916013546
 21
392.7208300444647
 31
0.0
  0
LWPOLYLINE
  5
1F8
330
1F
100
AcDbEntity
  8
3
  6
Continuous
100
AcDbPolyline
 90
        9
 70
   128
 43
0.0
 10
417.6676207556488
 20
392.7188078475083
 10
417.667585652746
 20
392.7192037603044
 10
417.6674729515538
 20
392.7195849132722
 10
417.6672871031822
 20
392.7199362528555
 10
417.6670354476732
 20
392.7202439029715
 10
417.6667279241085
 20
392.7204957130436
 10
417.6663766780661
 20
392.7206817378861
 10
417.6659955819348
 20
392.7207946304871
 10
417.6656206394678
 20
392.7208300444503
  0
LINE
  5
1F9
330
1F
100
AcDbEntity
  8
3
  6
Continuous
100
AcDbLine
 10
417.4426181975271
 20
392.7208300444647
 30
0.0
 11
417.2197447936997
 21
392.7208300444647
 31
0.0
  0
LWPOLYLINE
  5
1FA
330
1F
100
AcDbEntity
  8
3
  6
Continuous
100
AcDbPolyline
 90
       20
 70
   128
 43
0.0
 10
417.4426181975271
 20
392.6408300444647
 10
417.4401058408404
 20
392.6410122774218
 10
417.4376453820322
 20
392.6415514537595
 10
417.434898215688
 20
392.6426268625182
 10
417.432369263329
 20
392.6441452163797
 10
417.4301342147448
 20
392.64606877603
 10
417.4282513546112
 20
392.6483378562845
 10
417.4267821290811
 20
392.6508863823293
 10
417.4257572305345
 20
392.6536441302453
 10
417.42521227777
 20
392.6565349388054
 10
417.4251557972505
 20
392.6594765943228
 10
417.4255949155718
 20
392.6623793095433
 10
417.4265096626966
 20
392.6651685461728
 10
417.4278891703591
 20
392.6677769508803
 10
417.4296840951884
 20
392.6701181315313
 10
417.4318432709216
 20
392.6721173684235
 10
417.4343051951267
 20
392.6737295246862
 10
417.4370058817818
 20
392.6749038264338
 10
417.439865102083
 20
392.6756121295668
 10
417.4426181975271
 20
392.6758300444647
  0
LWPOLYLINE
  5
1FC
330
1F
100
AcDbEntity
  8
3
  6
Continuous
100
AcDbPolyline
 90
       28
 70
   128
 43
0.0
 10
417.4294388804137
 20
392.5750523734174
 10
417.4292109486301
 20
392.5749145285936
 10
417.4292877350308
 20
392.574734475935
 10
417.4297478973931
 20
392.574562953516
 10
417.4305736078726
 20
392.5744041605473
 10
417.4317449992168
 20
392.5742622504366
 10
417.4332256140544
 20
392.5741396695488
 10
417.4349723446709
 20
392.5740392655767
 10
417.4369362001034
 20
392.5739620015399
 10
417.4390581702766
 20
392.5739094239099
 10
417.4412809980022
 20
392.5738816912418
 10
417.4426181975271
 20
392.5738772468362
 10
417.4457702963233
 20
392.5739022888298
 10
417.4479138969826
 20
392.573950370115
 10
417.4499077633562
 20
392.5740227335767
 10
417.4516932950955
 20
392.5741186695751
 10
417.4532230423429
 20
392.5742363262336
 10
417.4544521534353
 20
392.5743741294198
 10
417.4553480807841
 20
392.5745288166353
 10
417.4558822823919
 20
392.5746976272196
 10
417.4560423157873
 20
392.5748757068484
 10
417.455817736469
 20
392.5750587745971
 10
417.4552193348721
 20
392.5752408805755
 10
417.4542578230137
 20
392.5754163498631
 10
417.4529651670497
 20
392.5755791734363
 10
417.4513760466261
 20
392.5757230986617
 10
417.449537127589
 20
392.5758433206346
 10
417.4489682651285
 20
392.5758677443283
  0
LWPOLYLINE
  5
1FE
330
1F
100
AcDbEntity
  8
3
  6
Continuous
100
AcDbPolyline
 90
       20
 70
   128
 43
0.0
 10
417.4426181975271
 20
392.6408300444647
 10
417.4451305542139
 20
392.6410122774218
 10
417.4475910130221
 20
392.6415514537595
 10
417.4503381793662
 20
392.6426268625182
 10
417.4528671317252
 20
392.6441452163797
 10
417.4551021803095
 20
392.64606877603
 10
417.4569850404431
 20
392.6483378562845
 10
417.4584542659731
 20
392.6508863823293
 10
417.4594791645198
 20
392.6536441302453
 10
417.4600241172842
 20
392.6565349388054
 10
417.4600805978037
 20
392.6594765943228
 10
417.4596414794825
 20
392.6623793095433
 10
417.4587267323578
 20
392.6651685461728
 10
417.4573472246952
 20
392.6677769508803
 10
417.4555522998659
 20
392.6701181315313
 10
417.4533931241326
 20
392.6721173684235
 10
417.4509311999275
 20
392.6737295246862
 10
417.4482305132724
 20
392.6749038264338
 10
417.4453712929713
 20
392.6756121295668
 10
417.4426181975271
 20
392.6758300444647
  0
LINE
  5
201
330
1F
100
AcDbEntity
  8
9
  6
Continuous
100
AcDbLine
 10
417.4297711726563
 20
392.5751488946718
 30
0.0
 11
417.4297651869811
 21
392.5751467062912
 31
0.0
  0
CIRCLE
  5
202
330
1F
100
AcDbEntity
  8
3
  6
Continuous
100
AcDbCircle
 10
417.4426181975271
 20
392.3958300444647
 30
0.0
 40
0.0225
  0
LWPOLYLINE
  5
206
330
1F
100
AcDbEntity
  8
3
  6
Continuous
100
AcDbPolyline
 90
        9
 70
   128
 43
0.0
 10
417.2196157555864
 20
392.7208300444503
 10
417.219247010396
 20
392.7207958023598
 10
417.218871410765
 20
392.720686467927
 10
417.2185242785685
 20
392.7205061117204
 10
417.2182188941517
 20
392.7202616336836
 10
417.2179669407017
 20
392.7199623868897
 10
417.2177780572808
 20
392.7196198197169
 10
417.2176594700611
 20
392.7192470378649
 10
417.217615715871
 20
392.7188583029657
  0
LWPOLYLINE
  5
397
330
1F
100
AcDbEntity
  8
3
  6
Continuous
100
AcDbPolyline
 90
       54
 70
   128
 43
0.0
 10
417.2181201642038
 20
392.3739256790691
 10
417.2177458220858
 20
392.3773216872526
 10
417.2174762324794
 20
392.3800071543147
 10
417.2172849224514
 20
392.3820611762703
 10
417.217094209576
 20
392.3842516179485
 10
417.2168918187796
 20
392.3867553850531
 10
417.2163318430661
 20
392.3949157862082
 10
417.2159503290686
 20
392.401931371923
 10
417.215710964321
 20
392.4072238275514
 10
417.2154318185658
 20
392.4146340556946
 10
417.2152009118841
 20
392.4222339230196
 10
417.2150309415647
 20
392.429174274183
 10
417.2148666744065
 20
392.4378037115869
 10
417.2147287874715
 20
392.4482131798206
 10
417.2146959615693
 20
392.4516879670938
 10
417.2146719546558
 20
392.4547715792522
 10
417.2146545040611
 20
392.4575062423566
 10
417.2146397673124
 20
392.4604081046737
 10
417.2146278742046
 20
392.4636000010696
 10
417.2146204454324
 20
392.4667221502892
 10
417.2146180192619
 20
392.4684941784864
 10
417.214617123371
 20
392.4696427785662
 10
417.2146167648552
 20
392.47067931987
 10
417.214616860658
 20
392.471835405644
 10
417.2146175642619
 20
392.4731126799382
 10
417.2146190437405
 20
392.4745129069123
 10
417.2146285309055
 20
392.4789718914721
 10
417.2146494169139
 20
392.484400237388
 10
417.2146865564482
 20
392.4908286103668
 10
417.2147444541874
 20
392.4981874829794
 10
417.2148277382017
 20
392.5064909377261
 10
417.2149255679464
 20
392.514593037582
 10
417.2150497581797
 20
392.5234799184503
 10
417.2152030171474
 20
392.5331738917975
 10
417.2153876158523
 20
392.5436928741681
 10
417.215555131947
 20
392.5525206020882
 10
417.2157265135114
 20
392.5610892185056
 10
417.2158909887957
 20
392.5690147296695
 10
417.2160448520807
 20
392.5762729881371
 10
417.2162083080158
 20
392.5840163341555
 10
417.2163423972111
 20
392.5907504241313
 10
417.2164503326049
 20
392.5965006558294
 10
417.2165521072533
 20
392.6022102584008
 10
417.2166556334656
 20
392.6083310887228
 10
417.2167601631376
 20
392.6148639397007
 10
417.2168852784316
 20
392.6232485589018
 10
417.2170076713709
 20
392.6322296587952
 10
417.2171257142062
 20
392.6419124111554
 10
417.2172403294156
 20
392.6526997553175
 10
417.2173480887958
 20
392.6646326395303
 10
417.2174439631751
 20
392.6774678081191
 10
417.2175255264182
 20
392.6914083748012
 10
417.2175866081423
 20
392.7064541722667
 10
417.2176125524444
 20
392.7188334114661
  0
LWPOLYLINE
  5
39A
330
1F
100
AcDbEntity
  8
3
  6
Continuous
100
AcDbPolyline
 90
       20
 70
   128
 43
0.0
 10
419.0837470671606
 20
392.6634788905723
 10
419.0837472784872
 20
392.5159064340182
 10
419.0837468532923
 20
392.4993422185766
 10
419.0833364712513
 20
392.482824154744
 10
419.0820282887998
 20
392.4664306377045
 10
419.079835269427
 20
392.4501975661334
 10
419.0767705568442
 20
392.4341600613699
 10
419.0728500713272
 20
392.4183526933395
 10
419.0680894258705
 20
392.4028097753541
 10
419.0614878011568
 20
392.3850510538881
 10
419.0537690983751
 20
392.36773741942
 10
419.0449456818615
 20
392.3509132071347
 10
419.0350435562768
 20
392.3346345543537
 10
419.0241005663663
 20
392.3189689810332
 10
419.0121626322371
 20
392.3039982945054
 10
419.0000401368131
 20
392.2905972698669
 10
418.9871275524488
 20
392.2779512018562
 10
418.9734822590194
 20
392.2661105118861
 10
418.9591661903405
 20
392.2551232023492
 10
418.9442509056325
 20
392.2450325547813
  0
LINE
  5
39B
330
1F
100
AcDbEntity
  8
3
  6
Continuous
100
AcDbLine
 10
419.0787470671606
 20
392.6684788899555
 30
0.0
 11
418.638747066491
 21
392.6684788899555
 31
0.0
  0
LWPOLYLINE
  5
39C
330
1F
100
AcDbEntity
  8
3
100
AcDbPolyline
 90
       20
 70
   128
 43
0.0
 10
419.7995602331026
 20
392.6620058753303
 10
419.7995604444292
 20
392.5144334187762
 10
419.7995600192343
 20
392.4978692033346
 10
419.7991496371933
 20
392.481351139502
 10
419.7978414547419
 20
392.4649576224626
 10
419.795648435369
 20
392.4487245508914
 10
419.7925837227862
 20
392.4326870461279
 10
419.7886632372692
 20
392.4168796780975
 10
419.7839025918126
 20
392.4013367601121
 10
419.7773009670988
 20
392.3835780386461
 10
419.7695822643172
 20
392.3662644041781
 10
419.7607588478035
 20
392.3494401918927
 10
419.7508567222188
 20
392.3331615391117
 10
419.7399137323083
 20
392.3174959657913
 10
419.7279757981791
 20
392.3025252792634
 10
419.715853302755
 20
392.289124254625
 10
419.7029407183909
 20
392.2764781866143
 10
419.6892954249614
 20
392.2646374966441
 10
419.6749793562826
 20
392.2536501871072
 10
419.6600640715745
 20
392.2435595395393
  0
LWPOLYLINE
  5
39D
330
1F
100
AcDbEntity
  8
3
100
AcDbPolyline
 90
       21
 70
   128
 43
0.0
 10
419.7895602336138
 20
392.6570058747135
 10
419.7895600581585
 20
392.5369731360932
 10
419.7895604132403
 20
392.5181107516107
 10
419.7895603006686
 20
392.4992474628041
 10
419.7891157328457
 20
392.480992493347
 10
419.7875535867409
 20
392.4629647480364
 10
419.7848852499575
 20
392.4451497227515
 10
419.78116860233
 20
392.4277472144688
 10
419.7764069093286
 20
392.4106468595941
 10
419.7706200127209
 20
392.3938969666755
 10
419.7638194953657
 20
392.3775369406501
 10
419.7560149826426
 20
392.3616033502034
 10
419.747219979372
 20
392.3461351911105
 10
419.7374640443806
 20
392.3311879196988
 10
419.7267855267484
 20
392.316829699126
 10
419.7152300724757
 20
392.3031399509433
 10
419.7028414147696
 20
392.290187679209
 10
419.6896744502192
 20
392.2780262944396
 10
419.6757912986488
 20
392.2667090050645
 10
419.665403485664
 20
392.2591184354678
 10
419.6547106220206
 20
392.2520058747135
  0
ARC
  5
39E
330
1F
100
AcDbEntity
  8
3
100
AcDbCircle
 10
419.5347863888064
 20
392.657033028703
 30
0.0
 40
0.2300000000000001
100
AcDbArc
 50
297.422556379294
 51
359.9932356130574
  0
ARC
  5
39F
330
1F
100
AcDbEntity
  8
3
100
AcDbCircle
 10
419.5347863888064
 20
392.657033028703
 30
0.0
 40
0.2200000000000003
100
AcDbArc
 50
292.843037047905
 51
1.266427956071758
  0
LINE
  5
3A0
330
1F
100
AcDbEntity
  8
3
100
AcDbLine
 10
419.3893890365443
 20
392.6670058747135
 30
0.0
 11
419.7597314283217
 21
392.6670058747135
 31
0.0
  0
LINE
  5
3A1
330
1F
100
AcDbEntity
  8
3
100
AcDbLine
 10
419.7945602331026
 20
392.6670058747135
 30
0.0
 11
419.7597314283217
 21
392.6670058747135
 31
0.0
  0
ARC
  5
3A2
330
1F
100
AcDbEntity
  8
3
100
AcDbCircle
 10
419.7945602331026
 20
392.6620058747135
 30
0.0
 40
0.005
100
AcDbArc
 50
0.000000000000007
 51
90.0
  0
LINE
  5
3A3
330
1F
100
AcDbEntity
  8
3
100
AcDbLine
 10
419.7895602336138
 20
392.6570058747135
 30
0.0
 11
419.7647863872034
 21
392.6570058747135
 31
0.0
  0
ARC
  5
3A4
330
1F
100
AcDbEntity
  8
3
100
AcDbCircle
 10
419.7597314283217
 20
392.6620058747135
 30
0.0
 40
0.0050000000000001
100
AcDbArc
 50
90.0
 51
181.2664279560717
  0
ARC
  5
3A5
330
1F
100
AcDbEntity
  8
3
  6
Continuous
100
AcDbCircle
 10
419.0787470671606
 20
392.6634788899555
 30
0.0
 40
0.005
100
AcDbArc
 50
0.000000000000007
 51
90.0
  0
LINE
  5
3A6
330
1F
100
AcDbEntity
  8
3
100
AcDbLine
 10
419.2820364231393
 20
392.62588816039
 30
0.0
 11
419.2599574301096
 21
392.5434882366233
 31
0.0
  0
LINE
  5
3A7
330
1F
100
AcDbEntity
  8
3
100
AcDbLine
 10
419.249560232433
 20
392.5440058747136
 30
0.0
 11
419.249560232433
 21
392.6450058747136
 31
0.0
  0
ARC
  5
3A8
330
1F
100
AcDbEntity
  8
3
100
AcDbCircle
 10
419.6143340760597
 20
392.657033028703
 30
0.0
 40
0.2200000000000003
100
AcDbArc
 50
188.0706669083215
 51
247.156962952095
  0
ARC
  5
3A9
330
1F
100
AcDbEntity
  8
3
100
AcDbCircle
 10
419.6143340760597
 20
392.657033028703
 30
0.0
 40
0.2300000000000003
100
AcDbArc
 50
187.7869410157598
 51
243.6537061793174
  0
LWPOLYLINE
  5
3AA
330
1F
100
AcDbEntity
  8
3
100
AcDbPolyline
 90
       19
 70
   128
 43
0.0
 10
419.355098600002
 20
392.6333129544131
 10
419.3569397774963
 20
392.6166973616958
 10
419.3598838139295
 20
392.600186101351
 10
419.3639035027058
 20
392.5838840166156
 10
419.3689716372294
 20
392.5678959507263
 10
419.3750610109044
 20
392.55232674692
 10
419.3823507639526
 20
392.5368432372331
 10
419.3906845525363
 20
392.5218307596483
 10
419.3999999900595
 20
392.5073836434181
 10
419.4102346899257
 20
392.4935962177952
 10
419.4213262655392
 20
392.4805628120322
 10
419.4334409920299
 20
392.4681354983653
 10
419.4464048538691
 20
392.4565079471901
 10
419.4601282979241
 20
392.4457563050898
 10
419.4745217710628
 20
392.4359567186473
 10
419.4894957201529
 20
392.4271853344455
 10
419.5047779483655
 20
392.4195771109149
 10
419.5205525202214
 20
392.4130010351318
 10
419.5367162994951
 20
392.4075114487595
  0
ARC
  5
3AB
330
1F
100
AcDbEntity
  8
3
100
AcDbCircle
 10
419.6246754820145
 20
392.6604230199793
 30
0.0
 40
0.2603088895062929
100
AcDbArc
 50
180.7521595213528
 51
250.8880241583133
  0
LINE
  5
3AC
330
1F
100
AcDbEntity
  8
3
100
AcDbLine
 10
419.5748046266865
 20
392.2420058747135
 30
0.0
 11
419.2515602324331
 21
392.2420058747135
 31
0.0
  0
LWPOLYLINE
  5
3AD
330
1F
100
AcDbEntity
  8
3
100
AcDbPolyline
 90
        5
 70
   128
 43
0.0
 10
419.647353330057
 20
392.2520058747135
 10
419.6455340446285
 20
392.3070055756697
 10
419.6435692538851
 20
392.3664298564749
 10
419.6421407162644
 20
392.409653507236
 10
419.6407127202193
 20
392.4528771757997
  0
LWPOLYLINE
  5
3AE
330
1F
100
AcDbEntity
  8
3
100
AcDbPolyline
 90
        6
 70
   128
 43
0.0
 10
419.6376136486989
 20
392.2439397443857
 10
419.6365265425259
 20
392.2767991735339
 10
419.6353757373388
 20
392.3115924817586
 10
419.6342252346731
 20
392.3463857999957
 10
419.6330750500446
 20
392.3811791287506
 10
419.6310907917199
 20
392.4412275046791
  0
LINE
  5
3AF
330
1F
100
AcDbEntity
  8
3
100
AcDbLine
 10
419.638855980166
 20
392.2420058747135
 30
0.0
 11
419.5748046266865
 21
392.2420058747135
 31
0.0
  0
ARC
  5
3B0
330
1F
100
AcDbEntity
  8
3
100
AcDbCircle
 10
419.6547106220206
 20
392.2520058747135
 30
0.0
 40
0.0100000000000002
100
AcDbArc
 50
270.0
 51
302.3673084610624
  0
LWPOLYLINE
  5
3B1
330
1F
100
AcDbEntity
  8
3
100
AcDbPolyline
 90
        6
 70
   128
 43
0.0
 10
419.6376136486989
 20
392.2439397443857
 10
419.6377482134018
 20
392.2432818800183
 10
419.6380929451786
 20
392.2427056411457
 10
419.6386090002932
 20
392.2422759513468
 10
419.639238259384
 20
392.2420412485184
 10
419.6396127948479
 20
392.2420058747135
  0
LINE
  5
3B2
330
1F
100
AcDbEntity
  8
0
 62
     7
100
AcDbLine
 10
419.639257554789
 20
392.2420058747135
 30
0.0
 11
419.638855980166
 21
392.2420058747135
 31
0.0
  0
LINE
  5
3B3
330
1F
100
AcDbEntity
  8
3
100
AcDbLine
 10
419.647353330057
 20
392.2520058747135
 30
0.0
 11
419.6547106220206
 21
392.2520058747135
 31
0.0
  0
LINE
  5
3B4
330
1F
100
AcDbEntity
  8
3
100
AcDbLine
 10
419.6547106220206
 20
392.2420058747135
 30
0.0
 11
419.6396127948479
 21
392.2420058747135
 31
0.0
  0
ARC
  5
3B5
330
1F
100
AcDbEntity
  8
3
100
AcDbCircle
 10
419.5566406755076
 20
392.5405363698121
 30
0.0
 40
0.1000000000000002
100
AcDbArc
 50
243.6537061793174
 51
252.0008013736952
  0
ARC
  5
3B6
330
1F
100
AcDbEntity
  8
3
100
AcDbCircle
 10
419.519560232433
 20
392.4264090692159
 30
0.0
 40
0.0200000000000001
100
AcDbArc
 50
0.000000000000007
 51
72.00080137369524
  0
ARC
  5
3B7
330
1F
100
AcDbEntity
  8
3
100
AcDbCircle
 10
419.602060232433
 20
392.4336200281566
 30
0.0
 40
0.005
100
AcDbArc
 50
114.5869186474941
 51
180.0
  0
ARC
  5
3B8
330
1F
100
AcDbEntity
  8
3
100
AcDbCircle
 10
419.629560232433
 20
392.4264090692159
 30
0.0
 40
0.02
100
AcDbArc
 50
107.9991986263048
 51
180.0
  0
ARC
  5
3B9
330
1F
100
AcDbEntity
  8
3
100
AcDbCircle
 10
419.5470602324331
 20
392.4336200281566
 30
0.0
 40
0.005
100
AcDbArc
 50
0.000000000000007
 51
65.4130813524825
  0
LINE
  5
3BA
330
1F
100
AcDbEntity
  8
3
100
AcDbLine
 10
419.555491839863
 20
392.4120058747135
 30
0.0
 11
419.598060232433
 21
392.4120058747135
 31
0.0
  0
LINE
  5
3BB
330
1F
100
AcDbEntity
  8
3
100
AcDbLine
 10
419.598060232433
 20
392.4020058747135
 30
0.0
 11
419.551060232433
 21
392.4020058747135
 31
0.0
  0
LINE
  5
3BC
330
1F
100
AcDbEntity
  8
3
100
AcDbLine
 10
419.598060232433
 20
392.4256200281566
 30
0.0
 11
419.5552482681467
 21
392.4256200281566
 31
0.0
  0
LINE
  5
3BD
330
1F
100
AcDbEntity
  8
3
100
AcDbLine
 10
419.598060232433
 20
392.4020058747135
 30
0.0
 11
419.608560232433
 21
392.4020058747135
 31
0.0
  0
ARC
  5
3BE
330
1F
100
AcDbEntity
  8
3
100
AcDbCircle
 10
419.608560232433
 20
392.4030058747135
 30
0.0
 40
0.0009999999999999
100
AcDbArc
 50
270.0
 51
0.000000000000007
  0
LINE
  5
3BF
330
1F
100
AcDbEntity
  8
3
100
AcDbLine
 10
419.609560232433
 20
392.4264090692159
 30
0.0
 11
419.609560232433
 21
392.4030058747135
 31
0.0
  0
LINE
  5
3C0
330
1F
100
AcDbEntity
  8
3
100
AcDbLine
 10
419.599060232433
 20
392.4130058747135
 30
0.0
 11
419.599060232433
 21
392.4246200281566
 31
0.0
  0
ARC
  5
3C1
330
1F
100
AcDbEntity
  8
3
100
AcDbCircle
 10
419.598060232433
 20
392.4246200281566
 30
0.0
 40
0.0009999999999999
100
AcDbArc
 50
0.000000000000007
 51
90.0
  0
LINE
  5
3C2
330
1F
100
AcDbEntity
  8
3
100
AcDbLine
 10
419.5970602324329
 20
392.4266200281565
 30
0.0
 11
419.5970602324329
 21
392.4336200281566
 31
0.0
  0
ARC
  5
3C3
330
1F
100
AcDbEntity
  8
3
100
AcDbCircle
 10
419.598060232433
 20
392.4266200281565
 30
0.0
 40
0.0010000000000002
100
AcDbArc
 50
180.0
 51
270.0
  0
LINE
  5
3C4
330
1F
100
AcDbEntity
  8
3
100
AcDbLine
 10
419.5970602324329
 20
392.4030058747135
 30
0.0
 11
419.5970602324329
 21
392.4110058747135
 31
0.0
  0
ARC
  5
3C5
330
1F
100
AcDbEntity
  8
3
100
AcDbCircle
 10
419.598060232433
 20
392.4030058747135
 30
0.0
 40
0.0010000000000002
100
AcDbArc
 50
180.0
 51
270.0
  0
ARC
  5
3C6
330
1F
100
AcDbEntity
  8
3
100
AcDbCircle
 10
419.598060232433
 20
392.4110058747135
 30
0.0
 40
0.0010000000000002
100
AcDbArc
 50
90.0
 51
180.0
  0
ARC
  5
3C7
330
1F
100
AcDbEntity
  8
3
100
AcDbCircle
 10
419.598060232433
 20
392.4130058747135
 30
0.0
 40
0.0009999999999999
100
AcDbArc
 50
270.0
 51
0.000000000000007
  0
LINE
  5
3C8
330
1F
100
AcDbEntity
  8
3
100
AcDbLine
 10
419.551060232433
 20
392.4256200281566
 30
0.0
 11
419.539560232433
 21
392.4256200281566
 31
0.0
  0
LINE
  5
3C9
330
1F
100
AcDbEntity
  8
3
100
AcDbLine
 10
419.5437538911527
 20
392.4120058747135
 30
0.0
 11
419.551060232433
 21
392.4120058747135
 31
0.0
  0
LINE
  5
3CA
330
1F
100
AcDbEntity
  8
3
100
AcDbLine
 10
419.540560232433
 20
392.4020058747135
 30
0.0
 11
419.551060232433
 21
392.4020058747135
 31
0.0
  0
LINE
  5
3CB
330
1F
100
AcDbEntity
  8
3
100
AcDbLine
 10
419.551060232433
 20
392.4120058747135
 30
0.0
 11
419.555491839863
 21
392.4120058747135
 31
0.0
  0
LWPOLYLINE
  5
3CC
330
1F
100
AcDbEntity
  8
3
100
AcDbPolyline
 90
        9
 70
   128
 43
0.0
 10
419.555491839863
 20
392.4120058747135
 10
419.5553335394865
 20
392.4120250894331
 10
419.5551813225048
 20
392.412081995181
 10
419.5550410385309
 20
392.4121744051012
 10
419.5549180785994
 20
392.4122987679323
 10
419.5548171679916
 20
392.4124503044805
 10
419.5547421846454
 20
392.4126231912811
 10
419.5546960101287
 20
392.4128107843915
 10
419.5546804189025
 20
392.4130058747135
  0
LWPOLYLINE
  5
3CD
330
1F
100
AcDbEntity
  8
3
100
AcDbPolyline
 90
        4
 70
   128
 43
0.0
 10
419.5544264824323
 20
392.4246200281566
 10
419.5544768436659
 20
392.4214615467755
 10
419.5545634296697
 20
392.4172647013547
 10
419.5546804189025
 20
392.4130058747135
  0
LWPOLYLINE
  5
3CE
330
1F
100
AcDbEntity
  8
3
100
AcDbPolyline
 90
        9
 70
   128
 43
0.0
 10
419.5544264824323
 20
392.4246200281566
 10
419.5544422728144
 20
392.4248151184785
 10
419.5544890371451
 20
392.4250027115889
 10
419.5545649782974
 20
392.4251755983896
 10
419.5546671778954
 20
392.4253271349377
 10
419.5547917084658
 20
392.4254514977688
 10
419.5549337843688
 20
392.4255439076891
 10
419.555087945707
 20
392.4256008134369
 10
419.5552482681466
 20
392.4256200281565
  0
LINE
  5
3CF
330
1F
100
AcDbEntity
  8
3
100
AcDbLine
 10
419.5552482681467
 20
392.4256200281566
 30
0.0
 11
419.551060232433
 21
392.4256200281566
 31
0.0
  0
LINE
  5
3D0
330
1F
100
AcDbEntity
  8
3
100
AcDbLine
 10
419.552060232433
 20
392.4336200281566
 30
0.0
 11
419.552060232433
 21
392.4266200281565
 31
0.0
  0
LINE
  5
3D1
330
1F
100
AcDbEntity
  8
3
100
AcDbLine
 10
419.552060232433
 20
392.4110058747135
 30
0.0
 11
419.552060232433
 21
392.4030058747135
 31
0.0
  0
ARC
  5
3D2
330
1F
100
AcDbEntity
  8
3
100
AcDbCircle
 10
419.551060232433
 20
392.4110058747135
 30
0.0
 40
0.0009999999999999
100
AcDbArc
 50
0.000000000000007
 51
90.0
  0
ARC
  5
3D3
330
1F
100
AcDbEntity
  8
3
100
AcDbCircle
 10
419.551060232433
 20
392.4266200281565
 30
0.0
 40
0.0009999999999999
100
AcDbArc
 50
270.0
 51
0.000000000000007
  0
ARC
  5
3D4
330
1F
100
AcDbEntity
  8
3
100
AcDbCircle
 10
419.551060232433
 20
392.4030058747135
 30
0.0
 40
0.0009999999999999
100
AcDbArc
 50
270.0
 51
0.000000000000007
  0
LWPOLYLINE
  5
3D5
330
1F
100
AcDbEntity
  8
3
100
AcDbPolyline
 90
        6
 70
   128
 43
0.0
 10
419.5422807894521
 20
392.4246412559408
 10
419.5422570166608
 20
392.4249530636006
 10
419.5421956186544
 20
392.4252269752696
 10
419.5421024572046
 20
392.4254443206525
 10
419.5419825129396
 20
392.4255843144398
 10
419.5418797326272
 20
392.4256200281565
  0
LWPOLYLINE
  5
3D6
330
1F
100
AcDbEntity
  8
3
100
AcDbPolyline
 90
        7
 70
   128
 43
0.0
 10
419.5422807894521
 20
392.4246412559408
 10
419.5422893138267
 20
392.4237155254437
 10
419.5423087370461
 20
392.4218111578101
 10
419.5423309160605
 20
392.4199070034443
 10
419.5423561568597
 20
392.4180030623564
 10
419.5423784334127
 20
392.4165034354252
 10
419.5424479590975
 20
392.4122282380872
  0
LINE
  5
3D7
330
1F
100
AcDbEntity
  8
3
100
AcDbLine
 10
419.539560232433
 20
392.4256200281566
 30
0.0
 11
419.539560232433
 21
392.4264090692159
 31
0.0
  0
ARC
  5
3D8
330
1F
100
AcDbEntity
  8
3
100
AcDbCircle
 10
419.540560232433
 20
392.4030058747135
 30
0.0
 40
0.0010000000000002
100
AcDbArc
 50
180.0
 51
270.0
  0
LINE
  5
3D9
330
1F
100
AcDbEntity
  8
3
100
AcDbLine
 10
419.539560232433
 20
392.4030058747135
 30
0.0
 11
419.539560232433
 21
392.4036821526169
 31
0.0
  0
ARC
  5
3DA
330
1F
100
AcDbEntity
  8
3
100
AcDbCircle
 10
419.5355602324331
 20
392.4036821526169
 30
0.0
 40
0.0039999999999999
100
AcDbArc
 50
0.000000000000007
 51
73.20089963119851
  0
LWPOLYLINE
  5
3DB
330
1F
100
AcDbEntity
  8
3
100
AcDbPolyline
 90
        5
 70
   128
 43
0.0
 10
419.5437538911527
 20
392.4120058747135
 10
419.5420968382431
 20
392.4122880240596
 10
419.5406266049546
 20
392.413102842236
 10
419.539560232433
 20
392.4142787707554
 10
419.5394463420426
 20
392.4144622270556
  0
ARC
  5
3DD
330
1F
100
AcDbEntity
  8
3
100
AcDbCircle
 10
419.5870815975466
 20
392.4663559487476
 30
0.0
 40
0.0310000000000001
100
AcDbArc
 50
294.5869186474942
 51
323.2701867211619
  0
ARC
  5
3DE
330
1F
100
AcDbEntity
  8
3
100
AcDbCircle
 10
419.5924797893584
 20
392.5405363698121
 30
0.0
 40
0.1000000000000003
100
AcDbArc
 50
287.9991986263048
 51
288.670377168246
  0
ARC
  5
3DF
330
1F
100
AcDbEntity
  8
3
100
AcDbCircle
 10
419.6279562904902
 20
392.4358557933911
 30
0.0
 40
0.0199999999999998
100
AcDbArc
 50
112.843037047905
 51
143.2701867211618
  0
LWPOLYLINE
  5
3E0
330
1F
100
AcDbEntity
  8
3
100
AcDbPolyline
 90
        7
 70
   128
 43
0.0
 10
419.6244921118521
 20
392.4457987784951
 10
419.6261508051096
 20
392.4460616664518
 10
419.6278030163246
 20
392.4457606802858
 10
419.6292622716531
 20
392.4449297827889
 10
419.6303639653051
 20
392.4436628642292
 10
419.6309840489552
 20
392.4421028990336
 10
419.6310907917199
 20
392.4412275046791
  0
ARC
  5
3E1
330
1F
100
AcDbEntity
  8
3
100
AcDbCircle
 10
419.5211641743758
 20
392.4358557933911
 30
0.0
 40
0.0199999999999996
100
AcDbArc
 50
36.72981327883815
 51
67.15696295209496
  0
ARC
  5
3E2
330
1F
100
AcDbEntity
  8
3
100
AcDbCircle
 10
419.5620388673193
 20
392.4663559487476
 30
0.0
 40
0.0310000000000001
100
AcDbArc
 50
216.7298132788382
 51
245.4130813525058
  0
LINE
  5
3E3
330
1F
100
AcDbEntity
  8
3
100
AcDbLine
 10
419.249560232433
 20
392.2440058747135
 30
0.0
 11
419.249560232433
 21
392.5227333181256
 31
0.0
  0
ARC
  5
3E4
330
1F
100
AcDbEntity
  8
3
100
AcDbCircle
 10
419.2515602324331
 20
392.2440058747135
 30
0.0
 40
0.002
100
AcDbArc
 50
180.0
 51
270.0
  0
LINE
  5
3E5
330
1F
100
AcDbEntity
  8
3
100
AcDbLine
 10
419.2515602324331
 20
392.5420058747135
 30
0.0
 11
419.258025578457
 21
392.5420058747135
 31
0.0
  0
ARC
  5
3E6
330
1F
100
AcDbEntity
  8
3
100
AcDbCircle
 10
419.258025578457
 20
392.5440058747136
 30
0.0
 40
0.0020000000000001
100
AcDbArc
 50
270.0
 51
345.0000000000056
  0
LINE
  5
3E7
330
1F
100
AcDbEntity
  8
3
100
AcDbLine
 10
419.249560232433
 20
392.5440058747136
 30
0.0
 11
419.249560232433
 21
392.5227333181256
 31
0.0
  0
ARC
  5
3E8
330
1F
100
AcDbEntity
  8
3
100
AcDbCircle
 10
419.2515602324331
 20
392.5440058747136
 30
0.0
 40
0.002
100
AcDbArc
 50
180.0
 51
270.0
  0
LINE
  5
3E9
330
1F
100
AcDbEntity
  8
3
  6
Continuous
100
AcDbLine
 10
418.535747066491
 20
392.6484788899555
 30
0.0
 11
418.577747066491
 21
392.6484788899555
 31
0.0
  0
LINE
  5
3EA
330
1F
100
AcDbEntity
  8
3
  6
Continuous
100
AcDbLine
 10
418.535747066491
 20
392.2434788899555
 30
0.0
 11
418.6089892637205
 21
392.2434788899555
 31
0.0
  0
LWPOLYLINE
  5
3EB
330
1F
100
AcDbEntity
  8
3
100
AcDbPolyline
 90
       17
 70
   128
 43
0.0
 10
419.330560232433
 20
392.6370058747135
 10
419.3305602324329
 20
392.6370058747135
 10
419.3301415120739
 20
392.6369708168516
 10
419.329224146794
 20
392.6368966006581
 10
419.3278227346488
 20
392.6367907388197
 10
419.3259721162069
 20
392.6366645020574
 10
419.3237314574519
 20
392.6365324633756
 10
419.3211643758501
 20
392.6364097222899
 10
419.3183435312792
 20
392.6363093831804
 10
419.3153420990001
 20
392.6362434057931
 10
419.3122489549862
 20
392.636218318192
 10
419.3091404426575
 20
392.6362382279252
 10
419.3061140559829
 20
392.6362998674872
 10
419.3032564030632
 20
392.6363973296366
 10
419.3006463468875
 20
392.6365187753523
 10
419.2983650534571
 20
392.6366507427328
 10
419.2964686082784
 20
392.6367784264092
  0
LWPOLYLINE
  5
3EC
330
1F
100
AcDbEntity
  8
3
100
AcDbPolyline
 90
       21
 70
   128
 43
0.0
 10
419.293560232433
 20
392.6470058747135
 10
419.2935602324331
 20
392.6470058747135
 10
419.2937904975635
 20
392.6469878451598
 10
419.294538631835
 20
392.6469310064341
 10
419.2957797379731
 20
392.6468433169162
 10
419.2974823453791
 20
392.6467356500655
 10
419.2995954984821
 20
392.6466224003129
 10
419.3020682691928
 20
392.6465185769069
 10
419.3048251767587
 20
392.64643760928
 10
419.3077723036815
 20
392.6463911164404
 10
419.3108400182182
 20
392.6463826717469
 10
419.3139498327497
 20
392.64641330606
 10
419.3170051443996
 20
392.6464762823398
 10
419.3199219098177
 20
392.6465627578263
 10
419.3226163762684
 20
392.6466606827477
 10
419.3250170352899
 20
392.6467588429485
 10
419.3270518190705
 20
392.6468476850675
 10
419.3286585677691
 20
392.6469197567191
 10
419.3297966741512
 20
392.6469713426259
 10
419.3303673409124
 20
392.6469971622677
 10
419.330560232433
 20
392.6470058747135
  0
LINE
  5
3ED
330
1F
100
AcDbEntity
  8
3
  6
Continuous
100
AcDbLine
 10
418.7551002051913
 20
392.2434788899555
 30
0.0
 11
418.9388974560786
 21
392.2434788899555
 31
0.0
  0
ARC
  5
3EE
330
1F
100
AcDbEntity
  8
3
  6
Continuous
100
AcDbCircle
 10
418.9388974560786
 20
392.2534788899555
 30
0.0
 40
0.01
100
AcDbArc
 50
270.0
 51
302.3673084610624
  0
ARC
  5
3EF
330
1F
100
AcDbEntity
  8
9
  6
Continuous
100
AcDbCircle
 10
418.9238082452726
 20
392.2454788899555
 30
0.0
 40
0.002
100
AcDbArc
 50
269.9999997309811
 51
270.0008328804492
  0
LINE
  5
3F0
330
1F
100
AcDbEntity
  8
3
100
AcDbLine
 10
419.3893890365443
 20
392.6670058747135
 30
0.0
 11
419.3545602324331
 21
392.6670058747135
 31
0.0
  0
LWPOLYLINE
  5
3F1
330
1F
100
AcDbEntity
  8
3
100
AcDbPolyline
 90
       20
 70
   128
 43
0.0
 10
419.3943706053023
 20
392.6530240971297
 10
419.3943882495265
 20
392.6528336550443
 10
419.3944399155675
 20
392.6522732036888
 10
419.3945241093153
 20
392.6513532375924
 10
419.3946370100118
 20
392.6501054566355
 10
419.394775120858
 20
392.6485562359453
 10
419.394932678098
 20
392.6467569305637
 10
419.3951083517135
 20
392.6447071473833
 10
419.3952923601238
 20
392.64250841998
 10
419.395475748304
 20
392.6402585717436
 10
419.3956558009626
 20
392.637989418122
 10
419.3958273233818
 20
392.6357654432199
 10
419.3959861163504
 20
392.6336488230467
 10
419.3961280264611
 20
392.6317046360252
 10
419.3962506073489
 20
392.6299827950391
 10
419.3963510113211
 20
392.6285402525865
 10
419.3964282753578
 20
392.6274092199573
 10
419.3964808529878
 20
392.6266287852185
 10
419.3965085856559
 20
392.6262130968347
 10
419.3965130300616
 20
392.6261462690754
  0
LWPOLYLINE
  5
3F2
330
1F
100
AcDbEntity
  8
3
100
AcDbPolyline
 90
       20
 70
   128
 43
0.0
 10
419.3864549641717
 20
392.6258703849581
 10
419.386450572126
 20
392.6259384075235
 10
419.3864234195506
 20
392.6263576662958
 10
419.3863720301614
 20
392.6271437630895
 10
419.3862968009189
 20
392.6282793141315
 10
419.3861991371415
 20
392.6297273439691
 10
419.3860802214498
 20
392.6314527602871
 10
419.3859426533444
 20
392.6334016059607
 10
419.3857867859511
 20
392.6355519157297
 10
419.3856183889169
 20
392.6378133785015
 10
419.3854431129156
 20
392.6401030689299
 10
419.3852647277349
 20
392.6423733931648
 10
419.385088549084
 20
392.6445593974019
 10
419.384920276025
 20
392.6466002228273
 10
419.3847657923952
 20
392.6484351113963
 10
419.384630411873
 20
392.6500149973547
 10
419.3845197225177
 20
392.6512879956843
 10
419.3844372555643
 20
392.6522258277649
 10
419.3843868530304
 20
392.6527949294408
 10
419.3843696438537
 20
392.6529882888882
  0
LINE
  5
3F3
330
1F
100
AcDbEntity
  8
3
100
AcDbLine
 10
419.3874457429191
 20
392.6270058747135
 30
0.0
 11
419.395522934398
 21
392.6270058747135
 31
0.0
  0
ARC
  5
3F4
330
1F
100
AcDbEntity
  8
3
100
AcDbCircle
 10
419.395522934398
 20
392.6260058747136
 30
0.0
 40
0.001
100
AcDbArc
 50
8.070666908321507
 51
90.0
  0
ARC
  5
3F5
330
1F
100
AcDbEntity
  8
3
100
AcDbCircle
 10
419.3874457429191
 20
392.6260058747136
 30
0.0
 40
0.0010000000000001
100
AcDbArc
 50
90.0
 51
187.7869410157598
  0
LINE
  5
3F6
330
1F
100
AcDbEntity
  8
3
100
AcDbLine
 10
419.3933707713443
 20
392.6520058747135
 30
0.0
 11
419.3853694892111
 21
392.6520058747135
 31
0.0
  0
ARC
  5
3F7
330
1F
100
AcDbEntity
  8
3
100
AcDbCircle
 10
419.3893890365443
 20
392.6620058747135
 30
0.0
 40
0.0050000000000001
100
AcDbArc
 50
358.7335720439282
 51
90.0
  0
ARC
  5
3F8
330
1F
100
AcDbEntity
  8
3
100
AcDbCircle
 10
419.3933707713443
 20
392.6530058747135
 30
0.0
 40
0.0010000000000002
100
AcDbArc
 50
270.0
 51
1.044125334162553
  0
ARC
  5
3F9
330
1F
100
AcDbEntity
  8
3
100
AcDbCircle
 10
419.6143340760597
 20
392.657033028703
 30
0.0
 40
0.22
100
AcDbArc
 50
178.7335720439282
 51
181.0441253333808
  0
ARC
  5
3FA
330
1F
100
AcDbEntity
  8
3
100
AcDbCircle
 10
419.3853694892111
 20
392.6530058747135
 30
0.0
 40
0.0010000000000002
100
AcDbArc
 50
181.0076455103909
 51
270.0
  0
ARC
  5
3FB
330
1F
100
AcDbEntity
  8
3
100
AcDbCircle
 10
419.6143340760597
 20
392.657033028703
 30
0.0
 40
0.2300000000000001
100
AcDbArc
 50
180.0
 51
181.0076455100522
  0
LINE
  5
3FC
330
1F
100
AcDbEntity
  8
3
100
AcDbLine
 10
419.3843340776626
 20
392.6570058747135
 30
0.0
 11
419.3643890224123
 21
392.6570058714957
 31
0.0
  0
ARC
  5
3FD
330
1F
100
AcDbEntity
  8
3
100
AcDbCircle
 10
419.330560232433
 20
392.6460058747135
 30
0.0
 40
0.0009999999999999
100
AcDbArc
 50
90.00000000002605
 51
180.0
  0
LWPOLYLINE
  5
3FE
330
1F
100
AcDbEntity
  8
3
100
AcDbPolyline
 90
        9
 70
   128
 43
0.0
 10
419.330560232433
 20
392.6470058747135
 10
419.3369783201562
 20
392.6470058747135
 10
419.3406070572522
 20
392.6470601172427
 10
419.3439329730185
 20
392.6480114925559
 10
419.346673480274
 20
392.6499800280585
 10
419.3486086810234
 20
392.6527458257552
 10
419.3494688736096
 20
392.6556497106591
 10
419.349560232433
 20
392.6588159809511
 10
419.349560232433
 20
392.6620058747135
  0
LINE
  5
3FF
330
1F
100
AcDbEntity
  8
3
100
AcDbLine
 10
419.3511104046635
 20
392.6370058747135
 30
0.0
 11
419.330560232433
 21
392.6370058747135
 31
0.0
  0
LINE
  5
400
330
1F
100
AcDbEntity
  8
3
100
AcDbLine
 10
419.3511263399686
 20
392.6369914064893
 30
0.0
 11
419.3511104046635
 21
392.6370058747135
 31
0.0
  0
ARC
  5
401
330
1F
100
AcDbEntity
  8
3
100
AcDbCircle
 10
419.3511104046635
 20
392.6330058747136
 30
0.0
 40
0.0040000000000001
100
AcDbArc
 50
4.402924796147082
 51
90.0
  0
ARC
  5
402
330
1F
100
AcDbEntity
  8
3
100
AcDbCircle
 10
419.330560232433
 20
392.6380058747136
 30
0.0
 40
0.0010000000000002
100
AcDbArc
 50
180.0
 51
270.0
  0
LINE
  5
403
330
1F
100
AcDbEntity
  8
3
100
AcDbLine
 10
419.329560232433
 20
392.6380058747136
 30
0.0
 11
419.329560232433
 21
392.6460058747135
 31
0.0
  0
ARC
  5
404
330
1F
100
AcDbEntity
  8
3
100
AcDbCircle
 10
419.3545602324331
 20
392.6620058747135
 30
0.0
 40
0.005
100
AcDbArc
 50
90.0
 51
180.0
  0
LINE
  5
405
330
1F
100
AcDbEntity
  8
3
100
AcDbLine
 10
418.7551002051913
 20
392.2434788899555
 30
0.0
 11
418.6089892637205
 21
392.2434788899555
 31
0.0
  0
LWPOLYLINE
  5
406
330
1F
100
AcDbEntity
  8
3
  6
Continuous
100
AcDbPolyline
 90
       21
 70
   128
 43
0.0
 10
418.577747066491
 20
392.6484788899555
 10
418.5777470664911
 20
392.6484788899555
 10
418.5779773316215
 20
392.6484608604017
 10
418.578725465893
 20
392.6484040216761
 10
418.5799665720311
 20
392.6483163321582
 10
418.5816691794371
 20
392.6482086653074
 10
418.5837823325401
 20
392.6480954155548
 10
418.5862551032507
 20
392.6479915921488
 10
418.5890120108167
 20
392.647910624522
 10
418.5919591377395
 20
392.6478641316824
 10
418.5950268522762
 20
392.6478556869889
 10
418.5981366668078
 20
392.647886321302
 10
418.6011919784575
 20
392.6479492975817
 10
418.6041087438757
 20
392.6480357730683
 10
418.6068032103263
 20
392.6481336979897
 10
418.6092038693479
 20
392.6482318581904
 10
418.6112386531284
 20
392.6483207003095
 10
418.6128454018271
 20
392.6483927719611
 10
418.6139835082093
 20
392.6484443578678
 10
418.6145541749704
 20
392.6484701775097
 10
418.614747066491
 20
392.6484788899555
  0
ARC
  5
407
330
1F
100
AcDbEntity
  8
3
  6
Continuous
100
AcDbCircle
 10
418.638747066491
 20
392.6634788899555
 30
0.0
 40
0.005
100
AcDbArc
 50
90.0
 51
180.0
  0
LWPOLYLINE
  5
408
330
1F
100
AcDbEntity
  8
3
  6
Continuous
100
AcDbPolyline
 90
        9
 70
   128
 43
0.0
 10
418.614747066491
 20
392.6484788899555
 10
418.6211651542143
 20
392.6484788899555
 10
418.6247938913102
 20
392.6485331324847
 10
418.6281198070764
 20
392.6494845077979
 10
418.6308603143319
 20
392.6514530433005
 10
418.6327955150814
 20
392.6542188409972
 10
418.6336557076677
 20
392.6571227259011
 10
418.633747066491
 20
392.6602889961931
 10
418.633747066491
 20
392.6634788899555
  0
LINE
  5
409
330
1F
100
AcDbEntity
  8
3
  6
Continuous
100
AcDbLine
 10
418.533747066491
 20
392.6464788899555
 30
0.0
 11
418.533747066491
 21
392.2471532853194
 31
0.0
  0
LINE
  5
40A
330
1F
100
AcDbEntity
  8
3
100
AcDbLine
 10
419.2515602324331
 20
392.6470058747135
 30
0.0
 11
419.293560232433
 21
392.6470058747135
 31
0.0
  0
ARC
  5
40B
330
1F
100
AcDbEntity
  8
3
100
AcDbCircle
 10
419.293560232433
 20
392.6460058747135
 30
0.0
 40
0.0009999999999999
100
AcDbArc
 50
0.000000000000007
 51
90.00000000026055
  0
LWPOLYLINE
  5
40C
330
1F
100
AcDbEntity
  8
3
100
AcDbPolyline
 90
        4
 70
   128
 43
0.0
 10
419.2964686082784
 20
392.6367784264092
 10
419.2951421068835
 20
392.6368232956361
 10
419.2942300287985
 20
392.6367876238126
 10
419.2937455498143
 20
392.6367460555245
  0
ARC
  5
40D
330
1F
100
AcDbEntity
  8
3
100
AcDbCircle
 10
419.293560232433
 20
392.6377287342453
 30
0.0
 40
0.0009999999999999
100
AcDbArc
 50
280.6796369756385
 51
0.000000000000007
  0
ARC
  5
40E
330
1F
100
AcDbEntity
  8
3
100
AcDbCircle
 10
419.2965253105336
 20
392.6220058747135
 30
0.0
 40
0.0150000000000002
100
AcDbArc
 50
100.6796369756385
 51
165.0000000000055
  0
LINE
  5
40F
330
1F
100
AcDbEntity
  8
3
100
AcDbLine
 10
419.294560232433
 20
392.6460058747135
 30
0.0
 11
419.294560232433
 21
392.6377287342453
 31
0.0
  0
ARC
  5
410
330
1F
100
AcDbEntity
  8
3
100
AcDbCircle
 10
419.2515602324331
 20
392.6450058747136
 30
0.0
 40
0.0020000000000003
100
AcDbArc
 50
90.0
 51
180.0
  0
LINE
  5
411
330
1F
100
AcDbEntity
  8
3
  6
Continuous
100
AcDbLine
 10
418.533747066491
 20
392.2471532853194
 30
0.0
 11
418.533747066491
 21
392.2454788899555
 31
0.0
  0
LWPOLYLINE
  5
412
330
1F
100
AcDbEntity
  8
9
  6
Continuous
100
AcDbPolyline
 90
        9
 70
   128
 43
0.0
 10
418.5357464107177
 20
392.2455718841603
 10
418.5353563230868
 20
392.2456023588341
 10
418.5349812452577
 20
392.2456924099433
 10
418.5346355852635
 20
392.2458385783142
 10
418.5343326210968
 20
392.2460352491155
 10
418.5340839906559
 20
392.2462748675436
 10
418.5338992446938
 20
392.2465482290279
 10
418.5337854799399
 20
392.2468448328113
 10
418.533747066491
 20
392.2471532853194
  0
ARC
  5
413
330
1F
100
AcDbEntity
  8
3
  6
Continuous
100
AcDbCircle
 10
418.535747066491
 20
392.2454788899555
 30
0.0
 40
0.002
100
AcDbArc
 50
180.0
 51
270.0
  0
ARC
  5
414
330
1F
100
AcDbEntity
  8
3
  6
Continuous
100
AcDbCircle
 10
418.535747066491
 20
392.6464788899555
 30
0.0
 40
0.0020000000000003
100
AcDbArc
 50
90.0
 51
180.0
  0
LINE
  5
431
330
1F
100
AcDbEntity
  8
3
  6
Continuous
100
AcDbLine
 10
418.0890776559945
 20
392.6693384905068
 30
0.0
 11
417.8690740341994
 21
392.6693384905068
 31
0.0
  0
LWPOLYLINE
  5
433
330
1F
100
AcDbEntity
  8
3
  6
Continuous
100
AcDbPolyline
 90
       76
 70
   128
 43
0.0
 10
417.8640730023436
 20
392.6643439370646
 10
417.8640703507586
 20
392.6614981106764
 10
417.8640572270847
 20
392.6547100981677
 10
417.8640415799176
 20
392.6489742527378
 10
417.8640257538889
 20
392.6442903571456
 10
417.864011435359
 20
392.6406196172017
 10
417.8639961159448
 20
392.637110694734
 10
417.8639778651533
 20
392.6334151432479
 10
417.8639337155095
 20
392.6261567802809
 10
417.8638728391719
 20
392.6182954568356
 10
417.8637951289527
 20
392.6099399879973
 10
417.8636730585528
 20
392.599052438217
 10
417.8635351316889
 20
392.5887768462805
 10
417.8633785588226
 20
392.5791239742027
 10
417.8631960961574
 20
392.5700612851853
 10
417.8630069587237
 20
392.5616600123873
 10
417.8627891777482
 20
392.5528814530064
 10
417.8625537789445
 20
392.543611638933
 10
417.8623089650823
 20
392.5338886964179
 10
417.8620672781971
 20
392.5239412421838
 10
417.8619070643229
 20
392.5170324483121
 10
417.8617585342706
 20
392.5103128989115
 10
417.8616223006552
 20
392.5037827492241
 10
417.861499247481
 20
392.4974443722252
 10
417.8613904845408
 20
392.4913020057756
 10
417.8613018543675
 20
392.4856939066157
 10
417.8612364207587
 20
392.4809816755485
 10
417.8612051921909
 20
392.4784594373215
 10
417.8611802671561
 20
392.4762556584761
 10
417.8611602415954
 20
392.4743134655092
 10
417.8611394560823
 20
392.472066428631
 10
417.8611180152936
 20
392.4693645996777
 10
417.8610986022502
 20
392.4662855167226
 10
417.8610858157007
 20
392.4634562869954
 10
417.8610776223563
 20
392.4602355510774
 10
417.8610765645632
 20
392.4572768117105
 10
417.8610829948063
 20
392.4540670315637
 10
417.8610995639603
 20
392.4505980081027
 10
417.8611188110098
 20
392.4480331572622
 10
417.8611468442308
 20
392.4452663322138
 10
417.8611857302819
 20
392.4423208540018
 10
417.86123401225
 20
392.439419960149
 10
417.8612819397078
 20
392.4370292865033
 10
417.8613264027956
 20
392.4351010550018
 10
417.8613924998793
 20
392.4325976325207
 10
417.8614867004348
 20
392.429556243112
 10
417.8615988652512
 20
392.4264878325577
 10
417.861714746352
 20
392.4237575450939
 10
417.8618759135688
 20
392.4204838655003
 10
417.8620932182257
 20
392.4167430265504
 10
417.8623783887712
 20
392.4126231451637
 10
417.8627067766949
 20
392.4086200063683
 10
417.863095183064
 20
392.404571810359
 10
417.8636026116538
 20
392.4000372431503
 10
417.8642780023853
 20
392.3948836360456
 10
417.8651783312601
 20
392.3890353813013
 10
417.8660708096922
 20
392.3840070808237
 10
417.8668154021482
 20
392.3802303072685
 10
417.8673796237161
 20
392.3775673984378
 10
417.8679599853715
 20
392.3749777526428
 10
417.8686156259459
 20
392.3722089365878
 10
417.8701482916016
 20
392.366267098408
 10
417.8720650084848
 20
392.3596439448786
 10
417.8748333519778
 20
392.3512080637185
 10
417.8783436200455
 20
392.3418627558305
 10
417.8827171000831
 20
392.331685521488
 10
417.8880733130451
 20
392.3207869048978
 10
417.893140630358
 20
392.3116472416926
 10
417.8989570664923
 20
392.3022337400705
 10
417.905358982235
 20
392.2929310214838
 10
417.9121154484116
 20
392.2840853948435
 10
417.9191842661101
 20
392.2757112451489
 10
417.9283956388016
 20
392.2659210593718
 10
417.9379491755122
 20
392.2568922129406
 10
417.9477675632622
 20
392.2486247493718
 10
417.9534772794363
 20
392.2443384905069
  0
LWPOLYLINE
  5
434
330
1F
100
AcDbEntity
  8
3
  6
Continuous
100
AcDbPolyline
 90
        9
 70
   128
 43
0.0
 10
417.8640740238273
 20
392.6643452239695
 10
417.8641713397511
 20
392.6653201897164
 10
417.8644569241709
 20
392.6662574570908
 10
417.8649198103181
 20
392.6671210339532
 10
417.8655422228356
 20
392.6678777579643
 10
417.8663002603703
 20
392.6684985700565
 10
417.867164813414
 20
392.6689596303353
 10
417.8681026821409
 20
392.6692432335586
 10
417.8690740341994
 20
392.6693384905068
  0
LWPOLYLINE
  5
43A
330
1F
100
AcDbEntity
  8
3
  6
Continuous
100
AcDbPolyline
 90
       74
 70
   128
 43
0.0
 10
418.2246780325526
 20
392.2443384905069
 10
418.2303877487269
 20
392.2486247493718
 10
418.2402061364768
 20
392.2568922129406
 10
418.2497596731875
 20
392.2659210593718
 10
418.258971045879
 20
392.2757112451489
 10
418.2660398635774
 20
392.2840853948435
 10
418.2727963297541
 20
392.2929310214838
 10
418.2791982454967
 20
392.3022337400705
 10
418.2850146816311
 20
392.3116472416926
 10
418.2900819989439
 20
392.3207869048978
 10
418.295438211906
 20
392.331685521488
 10
418.2998116919436
 20
392.3418627558305
 10
418.3033219600112
 20
392.3512080637185
 10
418.3060903035044
 20
392.3596439448786
 10
418.3077439287075
 20
392.3653106732738
 10
418.3091109943744
 20
392.3704776562212
 10
418.3102392017514
 20
392.3751687207261
 10
418.3108047764676
 20
392.3777009921185
 10
418.3113632691232
 20
392.3803439857179
 10
418.3120993404266
 20
392.3840858195863
 10
418.3129769807289
 20
392.3890353813013
 10
418.3138773096038
 20
392.3948836360456
 10
418.3145527003352
 20
392.4000372431503
 10
418.315060128925
 20
392.404571810359
 10
418.3154485352941
 20
392.4086200063683
 10
418.3157447016689
 20
392.4122001240398
 10
418.3160077571667
 20
392.4158989402408
 10
418.3162188009236
 20
392.4193742028322
 10
418.3163776152488
 20
392.4224164793126
 10
418.3165126929419
 20
392.4254122408829
 10
418.3166440420427
 20
392.428840096349
 10
418.3167575280811
 20
392.4324125133408
 10
418.3168201199314
 20
392.4347457672464
 10
418.316868127117
 20
392.4367891959608
 10
418.3169192367184
 20
392.4393086416631
 10
418.3169708923087
 20
392.4424092210305
 10
418.3170117446553
 20
392.4455533089019
 10
418.3170403842935
 20
392.4484895009351
 10
418.3170593202753
 20
392.451189626513
 10
418.3170739680535
 20
392.4546040275335
 10
418.31707902446
 20
392.4577748720506
 10
418.3170769333978
 20
392.4607078051291
 10
418.3170672274227
 20
392.4640511686074
 10
418.3170455661158
 20
392.4681572002098
 10
418.3170227829526
 20
392.4712463355766
 10
418.3169999086445
 20
392.4738146774148
 10
418.3169785286373
 20
392.4759303544064
 10
418.3169523422545
 20
392.4782707481041
 10
418.3169188912303
 20
392.4809816755485
 10
418.3168534576216
 20
392.4856939066157
 10
418.3167648274483
 20
392.4913020057756
 10
418.3166560645081
 20
392.4974443722252
 10
418.3165330113339
 20
392.5037827492241
 10
418.3163967777185
 20
392.5103128989115
 10
418.3162482476662
 20
392.5170324483121
 10
418.3160880337919
 20
392.5239412421838
 10
418.3158463469068
 20
392.5338886964179
 10
418.3156015330446
 20
392.543611638933
 10
418.3153661342409
 20
392.5528814530064
 10
418.3151483532654
 20
392.5616600123873
 10
418.3149592158317
 20
392.5700612851853
 10
418.3147736621874
 20
392.5792938912092
 10
418.314614908631
 20
392.5891396372534
 10
418.3144751610781
 20
392.5996306578135
 10
418.3143520005116
 20
392.6107552303758
 10
418.3142523918199
 20
392.621991275624
 10
418.3142108789192
 20
392.6277405214731
 10
418.3141788849995
 20
392.6331440456227
 10
418.3141542718333
 20
392.6381956513408
 10
418.3141343681874
 20
392.6430081865047
 10
418.3141176076494
 20
392.6477488776409
 10
418.3141004990912
 20
392.6537173104499
 10
418.3140858515168
 20
392.6609137630356
 10
418.3140825146646
 20
392.6643439373539
  0
LINE
  5
43C
330
1F
100
AcDbEntity
  8
3
  6
Continuous
100
AcDbLine
 10
418.0890776559945
 20
392.6693384905068
 30
0.0
 11
418.3090812777897
 21
392.6693384905068
 31
0.0
  0
LWPOLYLINE
  5
43F
330
1F
100
AcDbEntity
  8
3
  6
Continuous
100
AcDbPolyline
 90
        9
 70
   128
 43
0.0
 10
418.3090812777897
 20
392.6693384905068
 10
418.3100529565336
 20
392.6692431688505
 10
418.3109911141535
 20
392.6689593759635
 10
418.3118558828277
 20
392.6684980157228
 10
418.3126140319802
 20
392.6678768168771
 10
418.3132364281171
 20
392.6671196503135
 10
418.3136991543427
 20
392.6662556117679
 10
418.3139844294175
 20
392.6653179037596
 10
418.3140812910398
 20
392.6643425597134
  0
LINE
  5
440
330
1F
100
AcDbEntity
  8
3
  6
Continuous
100
AcDbLine
 10
418.2246780325527
 20
392.2443384905069
 30
0.0
 11
418.0890776559945
 21
392.2443384905069
 31
0.0
  0
LINE
  5
442
330
1F
100
AcDbEntity
  8
3
  6
Continuous
100
AcDbLine
 10
417.9534772794363
 20
392.2443384905069
 30
0.0
 11
418.0890776559945
 21
392.2443384905069
 31
0.0
  0
LINE
  5
445
330
1F
100
AcDbEntity
  8
3
  6
Continuous
100
AcDbLine
 10
418.2212607581802
 20
392.2443384905069
 30
0.0
 11
418.222590882619
 21
392.2443384905069
 31
0.0
  0
ENDSEC
  0
SECTION
  2
OBJECTS
  0
DICTIONARY
  5
C
330
0
100
AcDbDictionary
281
     1
  3
ACAD_COLOR
350
487
  3
ACAD_GROUP
350
D
  3
ACAD_LAYOUT
350
1A
  3
ACAD_MATERIAL
350
45A
  3
ACAD_MLEADERSTYLE
350
49C
  3
ACAD_MLINESTYLE
350
17
  3
ACAD_PLOTSETTINGS
350
19
  3
ACAD_PLOTSTYLENAME
350
E
  3
ACAD_SCALELIST
350
48A
  3
ACAD_TABLESTYLE
350
488
  3
ACAD_VISUALSTYLE
350
473
  3
ACDB_RECOMPOSE_DATA
350
4B4
  3
AcDbVariableDictionary
350
44F
  3
ASE_INDEX_DICTIONARY
350
44B
  3
DWGPROPS
350
4B5
  0
DICTIONARY
  5
4A0
330
10
100
AcDbDictionary
280
     1
281
     1
  3
ADSK_XREC_LAYER_RECONCILED
360
4A1
  0
DICTIONARY
  5
4A2
330
DA
100
AcDbDictionary
280
     1
281
     1
  3
ADSK_XREC_LAYER_RECONCILED
360
4A3
  0
DICTIONARY
  5
4A4
330
DC
100
AcDbDictionary
280
     1
281
     1
  3
ADSK_XREC_LAYER_RECONCILED
360
4A5
  0
DICTIONARY
  5
4A6
330
DD
100
AcDbDictionary
280
     1
281
     1
  3
ADSK_XREC_LAYER_RECONCILED
360
4A7
  0
DICTIONARY
  5
4A8
330
DE
100
AcDbDictionary
280
     1
281
     1
  3
ADSK_XREC_LAYER_RECONCILED
360
4A9
  0
DICTIONARY
  5
4AA
330
DF
100
AcDbDictionary
280
     1
281
     1
  3
ADSK_XREC_LAYER_RECONCILED
360
4AB
  0
DICTIONARY
  5
487
102
{ACAD_REACTORS
330
C
102
}
330
C
100
AcDbDictionary
281
     1
  0
DICTIONARY
  5
D
102
{ACAD_REACTORS
330
C
102
}
330
C
100
AcDbDictionary
281
     1
  0
DICTIONARY
  5
1A
102
{ACAD_REACTORS
330
C
102
}
330
C
100
AcDbDictionary
281
     1
  3
Layout1
350
1E
  3
Layout2
350
26
  3
Model
350
22
  0
DICTIONARY
  5
45A
102
{ACAD_REACTORS
330
C
102
}
330
C
100
AcDbDictionary
281
     1
  3
ByBlock
350
463
  3
ByLayer
350
45B
  3
Global
350
46B
  0
DICTIONARY
  5
49C
102
{ACAD_REACTORS
330
C
102
}
330
C
100
AcDbDictionary
281
     1
  3
Standard
350
49D
  0
DICTIONARY
  5
17
102
{ACAD_REACTORS
330
C
102
}
330
C
100
AcDbDictionary
281
     1
  3
Standard
350
18
  0
DICTIONARY
  5
19
102
{ACAD_REACTORS
330
C
102
}
330
C
100
AcDbDictionary
281
     1
  0
ACDBDICTIONARYWDFLT
  5
E
102
{ACAD_REACTORS
330
C
102
}
330
C
100
AcDbDictionary
281
     1
  3
Normal
350
F
100
AcDbDictionaryWithDefault
340
F
  0
DICTIONARY
  5
48A
102
{ACAD_REACTORS
330
C
102
}
330
C
100
AcDbDictionary
281
     1
  3
A0
350
48B
  3
A1
350
48C
  3
A2
350
48D
  3
A3
350
48E
  3
A4
350
48F
  3
A5
350
490
  3
A6
350
491
  3
A7
350
492
  3
A8
350
493
  3
A9
350
494
  3
B0
350
495
  3
B1
350
496
  3
B2
350
497
  3
B3
350
498
  3
B4
350
499
  3
B5
350
49A
  3
B6
350
49B
  0
DICTIONARY
  5
488
102
{ACAD_REACTORS
330
C
102
}
330
C
100
AcDbDictionary
281
     1
  3
Standard
350
489
  0
DICTIONARY
  5
473
102
{ACAD_REACTORS
330
C
102
}
330
C
100
AcDbDictionary
281
     1
  3
2dWireframe
350
479
  3
3D Hidden
350
47B
  3
3dWireframe
350
47A
  3
Basic
350
478
  3
Brighten
350
47F
  3
ColorChange
350
483
  3
Conceptual
350
47C
  3
Dim
350
47E
  3
EdgeColorOff
350
486
  3
Facepattern
350
482
  3
Flat
350
474
  3
FlatWithEdges
350
475
  3
Gouraud
350
476
  3
GouraudWithEdges
350
477
  3
JitterOff
350
484
  3
Linepattern
350
481
  3
OverhangOff
350
485
  3
Realistic
350
47D
  3
Thicken
350
480
  0
XRECORD
  5
4B4
102
{ACAD_REACTORS
330
C
102
}
330
C
100
AcDbXrecord
280
     1
 90
        1
330
489
  0
DICTIONARY
  5
44F
102
{ACAD_REACTORS
330
C
102
}
330
C
100
AcDbDictionary
281
     1
  3
CANNOSCALE
350
4AE
  3
CMLEADERSTYLE
350
4AD
  3
CTABLESTYLE
350
4AC
  3
DIMASSOC
350
451
  3
HIDETEXT
350
450
  3
INDEXCTL
350
4B0
  3
SORTENTS
350
4AF
  3
XCLIPFRAME
350
4B1
  0
DICTIONARY
  5
44B
102
{ACAD_REACTORS
330
C
102
}
330
C
100
AcDbDictionary
281
     1
  3
ASEBlockHierarchyIndexRecord
350
44D
1001
DCO15
1040
1471245993.265
  0
XRECORD
  5
4B5
102
{ACAD_REACTORS
330
C
102
}
330
C
100
AcDbXrecord
280
     1
  1
DWGPROPS COOKIE
  2

  3

  4

  6

  7

  8
Julio
  9

300
=
301
=
302
=
303
=
304
=
305
=
306
=
307
=
308
=
309
=
 40
0.0075193402777778
 41
2452830.681038773
 42
2456149.67514323
  1

 90
        0
  0
XRECORD
  5
4A1
102
{ACAD_REACTORS
330
4A0
102
}
330
4A0
100
AcDbXrecord
280
     1
290
     1
  0
XRECORD
  5
4A3
102
{ACAD_REACTORS
330
4A2
102
}
330
4A2
100
AcDbXrecord
280
     1
290
     1
  0
XRECORD
  5
4A5
102
{ACAD_REACTORS
330
4A4
102
}
330
4A4
100
AcDbXrecord
280
     1
290
     1
  0
XRECORD
  5
4A7
102
{ACAD_REACTORS
330
4A6
102
}
330
4A6
100
AcDbXrecord
280
     1
290
     1
  0
XRECORD
  5
4A9
102
{ACAD_REACTORS
330
4A8
102
}
330
4A8
100
AcDbXrecord
280
     1
290
     1
  0
XRECORD
  5
4AB
102
{ACAD_REACTORS
330
4AA
102
}
330
4AA
100
AcDbXrecord
280
     1
290
     1
  0
LAYOUT
  5
1E
102
{ACAD_XDICTIONARY
360
4B6
102
}
102
{ACAD_REACTORS
330
1A
102
}
330
1A
100
AcDbPlotSettings
  1

  2
PLOTER 500
  4

  6

 40
0.0
 41
0.0
 42
0.0
 43
0.0
 44
0.0
 45
0.0
 46
0.0
 47
0.0
 48
0.0
 49
0.0
140
0.0
141
0.0
142
1.0
143
1.0
 70
   688
 72
     0
 73
     0
 74
     5
  7
monochrome.ctb
 75
    16
147
1.0
148
0.0
149
0.0
100
AcDbLayout
  1
Layout1
 70
     1
 71
     1
 10
0.0
 20
0.0
 11
420.0
 21
297.0
 12
0.0
 22
0.0
 32
0.0
 14
1.000000000000000E+20
 24
1.000000000000000E+20
 34
1.000000000000000E+20
 15
-1.000000000000000E+20
 25
-1.000000000000000E+20
 35
-1.000000000000000E+20
146
0.0
 13
0.0
 23
0.0
 33
0.0
 16
1.0
 26
0.0
 36
0.0
 17
0.0
 27
1.0
 37
0.0
 76
     0
330
1B
  0
LAYOUT
  5
26
102
{ACAD_XDICTIONARY
360
4BA
102
}
102
{ACAD_REACTORS
330
1A
102
}
330
1A
100
AcDbPlotSettings
  1

  2
PLOTER 500
  4

  6

 40
0.0
 41
0.0
 42
0.0
 43
0.0
 44
0.0
 45
0.0
 46
0.0
 47
0.0
 48
0.0
 49
0.0
140
0.0
141
0.0
142
1.0
143
1.0
 70
   688
 72
     0
 73
     0
 74
     5
  7
monochrome.ctb
 75
    16
147
1.0
148
0.0
149
0.0
100
AcDbLayout
  1
Layout2
 70
     1
 71
     2
 10
0.0
 20
0.0
 11
12.0
 21
9.0
 12
0.0
 22
0.0
 32
0.0
 14
0.0
 24
0.0
 34
0.0
 15
0.0
 25
0.0
 35
0.0
146
0.0
 13
0.0
 23
0.0
 33
0.0
 16
1.0
 26
0.0
 36
0.0
 17
0.0
 27
1.0
 37
0.0
 76
     0
330
23
  0
LAYOUT
  5
22
102
{ACAD_XDICTIONARY
360
4B8
102
}
102
{ACAD_REACTORS
330
1A
102
}
330
1A
100
AcDbPlotSettings
  1

  2
PLOTER 500
  4

  6

 40
0.0
 41
0.0
 42
0.0
 43
0.0
 44
0.0
 45
0.0
 46
0.0
 47
0.0
 48
0.0
 49
0.0
140
0.0
141
0.0
142
1.0
143
1.0
 70
  1712
 72
     0
 73
     0
 74
     0
  7
monochrome.ctb
 75
     0
147
1.0
148
0.0
149
0.0
100
AcDbLayout
  1
Model
 70
     1
 71
     0
 10
0.0
 20
0.0
 11
12.0
 21
9.0
 12
0.0
 22
0.0
 32
0.0
 14
0.0
 24
0.0
 34
0.0
 15
0.0
 25
0.0
 35
0.0
146
0.0
 13
0.0
 23
0.0
 33
0.0
 16
1.0
 26
0.0
 36
0.0
 17
0.0
 27
1.0
 37
0.0
 76
     0
330
1F
331
458
  0
MATERIAL
  5
463
102
{ACAD_XDICTIONARY
360
464
102
}
102
{ACAD_REACTORS
330
45A
102
}
330
45A
100
AcDbMaterial
  1
ByBlock
 72
     0
 43
0.0008202099737533
 43
0.0
 43
0.0
 43
0.0
 43
0.0
 43
0.0008202099737533
 43
0.0
 43
0.0
 43
0.0
 43
0.0
 43
1.0
 43
0.0
 43
0.0
 43
0.0
 43
0.0
 43
1.0
 77
     0
 47
0.0008202099737533
 47
0.0
 47
0.0
 47
0.0
 47
0.0
 47
0.0008202099737533
 47
0.0
 47
0.0
 47
0.0
 47
0.0
 47
1.0
 47
0.0
 47
0.0
 47
0.0
 47
0.0
 47
1.0
171
     0
 49
0.0008202099737533
 49
0.0
 49
0.0
 49
0.0
 49
0.0
 49
0.0008202099737533
 49
0.0
 49
0.0
 49
0.0
 49
0.0
 49
1.0
 49
0.0
 49
0.0
 49
0.0
 49
0.0
 49
1.0
175
     0
142
0.0008202099737533
142
0.0
142
0.0
142
0.0
142
0.0
142
0.0008202099737533
142
0.0
142
0.0
142
0.0
142
0.0
142
1.0
142
0.0
142
0.0
142
0.0
142
0.0
142
1.0
179
     0
144
0.0008202099737533
144
0.0
144
0.0
144
0.0
144
0.0
144
0.0008202099737533
144
0.0
144
0.0
144
0.0
144
0.0
144
1.0
144
0.0
144
0.0
144
0.0
144
0.0
144
1.0
147
0.0008202099737533
147
0.0
147
0.0
147
0.0
147
0.0
147
0.0008202099737533
147
0.0
147
0.0
147
0.0
147
0.0
147
1.0
147
0.0
147
0.0
147
0.0
147
0.0
147
1.0
  0
MATERIAL
  5
45B
102
{ACAD_XDICTIONARY
360
45C
102
}
102
{ACAD_REACTORS
330
45A
102
}
330
45A
100
AcDbMaterial
  1
ByLayer
 72
     0
 43
0.0008202099737533
 43
0.0
 43
0.0
 43
0.0
 43
0.0
 43
0.0008202099737533
 43
0.0
 43
0.0
 43
0.0
 43
0.0
 43
1.0
 43
0.0
 43
0.0
 43
0.0
 43
0.0
 43
1.0
 77
     0
 47
0.0008202099737533
 47
0.0
 47
0.0
 47
0.0
 47
0.0
 47
0.0008202099737533
 47
0.0
 47
0.0
 47
0.0
 47
0.0
 47
1.0
 47
0.0
 47
0.0
 47
0.0
 47
0.0
 47
1.0
171
     0
 49
0.0008202099737533
 49
0.0
 49
0.0
 49
0.0
 49
0.0
 49
0.0008202099737533
 49
0.0
 49
0.0
 49
0.0
 49
0.0
 49
1.0
 49
0.0
 49
0.0
 49
0.0
 49
0.0
 49
1.0
175
     0
142
0.0008202099737533
142
0.0
142
0.0
142
0.0
142
0.0
142
0.0008202099737533
142
0.0
142
0.0
142
0.0
142
0.0
142
1.0
142
0.0
142
0.0
142
0.0
142
0.0
142
1.0
179
     0
144
0.0008202099737533
144
0.0
144
0.0
144
0.0
144
0.0
144
0.0008202099737533
144
0.0
144
0.0
144
0.0
144
0.0
144
1.0
144
0.0
144
0.0
144
0.0
144
0.0
144
1.0
147
0.0008202099737533
147
0.0
147
0.0
147
0.0
147
0.0
147
0.0008202099737533
147
0.0
147
0.0
147
0.0
147
0.0
147
1.0
147
0.0
147
0.0
147
0.0
147
0.0
147
1.0
  0
MATERIAL
  5
46B
102
{ACAD_XDICTIONARY
360
46C
102
}
102
{ACAD_REACTORS
330
45A
102
}
330
45A
100
AcDbMaterial
  1
Global
 72
     0
 43
0.0008202099737533
 43
0.0
 43
0.0
 43
0.0
 43
0.0
 43
0.0008202099737533
 43
0.0
 43
0.0
 43
0.0
 43
0.0
 43
1.0
 43
0.0
 43
0.0
 43
0.0
 43
0.0
 43
1.0
 77
     0
 47
0.0008202099737533
 47
0.0
 47
0.0
 47
0.0
 47
0.0
 47
0.0008202099737533
 47
0.0
 47
0.0
 47
0.0
 47
0.0
 47
1.0
 47
0.0
 47
0.0
 47
0.0
 47
0.0
 47
1.0
171
     0
 49
0.0008202099737533
 49
0.0
 49
0.0
 49
0.0
 49
0.0
 49
0.0008202099737533
 49
0.0
 49
0.0
 49
0.0
 49
0.0
 49
1.0
 49
0.0
 49
0.0
 49
0.0
 49
0.0
 49
1.0
175
     0
142
0.0008202099737533
142
0.0
142
0.0
142
0.0
142
0.0
142
0.0008202099737533
142
0.0
142
0.0
142
0.0
142
0.0
142
1.0
142
0.0
142
0.0
142
0.0
142
0.0
142
1.0
179
     0
144
0.0008202099737533
144
0.0
144
0.0
144
0.0
144
0.0
144
0.0008202099737533
144
0.0
144
0.0
144
0.0
144
0.0
144
1.0
144
0.0
144
0.0
144
0.0
144
0.0
144
1.0
147
0.0008202099737533
147
0.0
147
0.0
147
0.0
147
0.0
147
0.0008202099737533
147
0.0
147
0.0
147
0.0
147
0.0
147
1.0
147
0.0
147
0.0
147
0.0
147
0.0
147
1.0
  0
MLEADERSTYLE
  5
49D
102
{ACAD_REACTORS
330
49C
102
}
330
49C
100
AcDbMLeaderStyle
170
     2
171
     1
172
     0
 90
        2
 40
0.0
 41
0.0
173
     1
 91
-1056964608
340
14
 92
       -2
290
     1
 42
2.0
291
     1
 43
0.36
  3
Standard
 44
4.0
300

342
11
174
     1
178
     6
175
     1
176
     0
 93
-1056964608
 45
4.0
292
     0
297
     0
 46
4.0
 94
-1056964608
 47
1.0
 49
1.0
140
1.0
293
     1
141
0.0
294
     1
177
     0
142
1.0
295
     0
296
     0
143
0.125
1001
ACAD_MLEADERVER
1070
     2
  0
MLINESTYLE
  5
18
102
{ACAD_REACTORS
330
17
102
}
330
17
100
AcDbMlineStyle
  2
STANDARD
 70
     0
  3

 62
   256
 51
90.0
 52
90.0
 71
     2
 49
0.5
 62
   256
  6
BYLAYER
 49
-0.5
 62
   256
  6
BYLAYER
  0
ACDBPLACEHOLDER
  5
F
102
{ACAD_REACTORS
330
E
102
}
330
E
  0
SCALE
  5
48B
102
{ACAD_REACTORS
330
48A
102
}
330
48A
100
AcDbScale
 70
     0
300
1:1
140
1.0
141
1.0
290
     1
  0
SCALE
  5
48C
102
{ACAD_REACTORS
330
48A
102
}
330
48A
100
AcDbScale
 70
     0
300
1:2
140
1.0
141
2.0
290
     0
  0
SCALE
  5
48D
102
{ACAD_REACTORS
330
48A
102
}
330
48A
100
AcDbScale
 70
     0
300
1:4
140
1.0
141
4.0
290
     0
  0
SCALE
  5
48E
102
{ACAD_REACTORS
330
48A
102
}
330
48A
100
AcDbScale
 70
     0
300
1:5
140
1.0
141
5.0
290
     0
  0
SCALE
  5
48F
102
{ACAD_REACTORS
330
48A
102
}
330
48A
100
AcDbScale
 70
     0
300
1:8
140
1.0
141
8.0
290
     0
  0
SCALE
  5
490
102
{ACAD_REACTORS
330
48A
102
}
330
48A
100
AcDbScale
 70
     0
300
1:10
140
1.0
141
10.0
290
     0
  0
SCALE
  5
491
102
{ACAD_REACTORS
330
48A
102
}
330
48A
100
AcDbScale
 70
     0
300
1:16
140
1.0
141
16.0
290
     0
  0
SCALE
  5
492
102
{ACAD_REACTORS
330
48A
102
}
330
48A
100
AcDbScale
 70
     0
300
1:20
140
1.0
141
20.0
290
     0
  0
SCALE
  5
493
102
{ACAD_REACTORS
330
48A
102
}
330
48A
100
AcDbScale
 70
     0
300
1:30
140
1.0
141
30.0
290
     0
  0
SCALE
  5
494
102
{ACAD_REACTORS
330
48A
102
}
330
48A
100
AcDbScale
 70
     0
300
1:40
140
1.0
141
40.0
290
     0
  0
SCALE
  5
495
102
{ACAD_REACTORS
330
48A
102
}
330
48A
100
AcDbScale
 70
     0
300
1:50
140
1.0
141
50.0
290
     0
  0
SCALE
  5
496
102
{ACAD_REACTORS
330
48A
102
}
330
48A
100
AcDbScale
 70
     0
300
1:100
140
1.0
141
100.0
290
     0
  0
SCALE
  5
497
102
{ACAD_REACTORS
330
48A
102
}
330
48A
100
AcDbScale
 70
     0
300
2:1
140
2.0
141
1.0
290
     0
  0
SCALE
  5
498
102
{ACAD_REACTORS
330
48A
102
}
330
48A
100
AcDbScale
 70
     0
300
4:1
140
4.0
141
1.0
290
     0
  0
SCALE
  5
499
102
{ACAD_REACTORS
330
48A
102
}
330
48A
100
AcDbScale
 70
     0
300
8:1
140
8.0
141
1.0
290
     0
  0
SCALE
  5
49A
102
{ACAD_REACTORS
330
48A
102
}
330
48A
100
AcDbScale
 70
     0
300
10:1
140
10.0
141
1.0
290
     0
  0
SCALE
  5
49B
102
{ACAD_REACTORS
330
48A
102
}
330
48A
100
AcDbScale
 70
     0
300
100:1
140
100.0
141
1.0
290
     0
  0
TABLESTYLE
  5
489
102
{ACAD_XDICTIONARY
360
4B2
102
}
102
{ACAD_REACTORS
330
488
102
}
330
488
100
AcDbTableStyle
  3
Standard
 70
     0
 71
     0
 40
1.5
 41
1.5
280
     0
281
     0
  7
Standard
140
4.5
170
     2
 62
     0
 63
     7
283
     0
274
    -2
284
     1
 64
     0
275
    -2
285
     1
 65
     0
276
    -2
286
     1
 66
     0
277
    -2
287
     1
 67
     0
278
    -2
288
     1
 68
     0
279
    -2
289
     1
 69
     0
  7
Standard
140
6.0
170
     5
 62
     0
 63
     7
283
     0
274
    -2
284
     1
 64
     0
275
    -2
285
     1
 65
     0
276
    -2
286
     1
 66
     0
277
    -2
287
     1
 67
     0
278
    -2
288
     1
 68
     0
279
    -2
289
     1
 69
     0
  7
Standard
140
4.5
170
     5
 62
     0
 63
     7
283
     0
274
    -2
284
     1
 64
     0
275
    -2
285
     1
 65
     0
276
    -2
286
     1
 66
     0
277
    -2
287
     1
 67
     0
278
    -2
288
     1
 68
     0
279
    -2
289
     1
 69
     0
  0
VISUALSTYLE
  5
479
102
{ACAD_XDICTIONARY
360
4C9
102
}
102
{ACAD_REACTORS
330
473
102
}
330
473
100
AcDbVisualStyle
  2
2dWireframe
 70
     4
 71
     0
 72
     2
 73
     0
 90
        0
 40
-0.6
 41
-30.0
 62
     5
 63
     7
 74
     1
 91
        4
 64
     7
 65
   257
 75
     1
175
     1
 42
1.0
 92
        0
 66
   257
 43
1.0
 76
     1
 77
     6
 78
     2
 67
     7
 79
     5
170
     0
171
     0
290
     0
174
     0
 93
        1
 44
0.0
173
     0
291
     0
 45
0.0
1001
ACAD
1000
AcDbSavedByObjectVersion
1070
     0
  0
VISUALSTYLE
  5
47B
102
{ACAD_XDICTIONARY
360
4CD
102
}
102
{ACAD_REACTORS
330
473
102
}
330
473
100
AcDbVisualStyle
  2
3D Hidden
 70
     6
 71
     1
 72
     2
 73
     2
 90
        0
 40
-0.6
 41
-30.0
 62
     5
 63
     7
 74
     2
 91
        2
 64
     7
 65
   257
 75
     2
175
     1
 42
179.0
 92
        0
 66
   257
 43
1.0
 76
     1
 77
     6
 78
     2
 67
     7
 79
     3
170
     0
171
     0
290
     0
174
     0
 93
        1
 44
0.0
173
     0
291
     0
 45
0.0
1001
ACAD
1000
AcDbSavedByObjectVersion
1070
     0
  0
VISUALSTYLE
  5
47A
102
{ACAD_XDICTIONARY
360
4CB
102
}
102
{ACAD_REACTORS
330
473
102
}
330
473
100
AcDbVisualStyle
  2
3dWireframe
 70
     5
 71
     0
 72
     2
 73
     0
 90
        0
 40
-0.6
 41
-30.0
 62
     5
 63
     7
 74
     1
 91
        4
 64
     7
 65
   257
 75
     1
175
     1
 42
1.0
 92
        0
 66
   257
 43
1.0
 76
     1
 77
     6
 78
     2
 67
     7
 79
     5
170
     0
171
     0
290
     0
174
     0
 93
        1
 44
0.0
173
     0
291
     0
 45
0.0
1001
ACAD
1000
AcDbSavedByObjectVersion
1070
     0
  0
VISUALSTYLE
  5
478
102
{ACAD_XDICTIONARY
360
4C7
102
}
102
{ACAD_REACTORS
330
473
102
}
330
473
100
AcDbVisualStyle
  2
Basic
 70
     7
 71
     1
 72
     0
 73
     1
 90
        0
 40
-0.6
 41
-30.0
 62
     5
 63
     7
 74
     0
 91
        4
 64
     7
 65
   257
 75
     1
175
     1
 42
1.0
 92
        8
 66
     7
 43
1.0
 76
     1
 77
     6
 78
     2
 67
     7
 79
     5
170
     0
171
     0
290
     0
174
     0
 93
        1
 44
0.0
173
     0
291
     1
 45
0.0
1001
ACAD
1000
AcDbSavedByObjectVersion
1070
     0
  0
VISUALSTYLE
  5
47F
102
{ACAD_XDICTIONARY
360
4D5
102
}
102
{ACAD_REACTORS
330
473
102
}
330
473
100
AcDbVisualStyle
  2
Brighten
 70
    12
 71
     2
 72
     2
 73
     0
 90
        0
 40
-0.6
 41
-30.0
 62
     5
 63
     7
 74
     1
 91
        4
 64
     7
 65
   257
 75
     1
175
     1
 42
1.0
 92
        8
 66
     7
 43
1.0
 76
     1
 77
     6
 78
     2
 67
     7
 79
     5
170
     0
171
     0
290
     0
174
     0
 93
        1
 44
50.0
173
     0
291
     1
 45
0.0
1001
ACAD
1000
AcDbSavedByObjectVersion
1070
     0
  0
VISUALSTYLE
  5
483
102
{ACAD_XDICTIONARY
360
4DD
102
}
102
{ACAD_REACTORS
330
473
102
}
330
473
100
AcDbVisualStyle
  2
ColorChange
 70
    16
 71
     2
 72
     2
 73
     3
 90
        0
 40
-0.6
 41
-30.0
 62
     5
 63
     8
 74
     1
 91
        4
 64
     7
 65
   257
 75
     1
175
     1
 42
1.0
 92
        8
 66
     8
 43
1.0
 76
     1
 77
     6
 78
     2
 67
     7
 79
     5
170
     0
171
     0
290
     0
174
     0
 93
        1
 44
0.0
173
     0
291
     1
 45
0.0
1001
ACAD
1000
AcDbSavedByObjectVersion
1070
     0
  0
VISUALSTYLE
  5
47C
102
{ACAD_XDICTIONARY
360
4CF
102
}
102
{ACAD_REACTORS
330
473
102
}
330
473
100
AcDbVisualStyle
  2
Conceptual
 70
     9
 71
     3
 72
     2
 73
     0
 90
        0
 40
-0.6
 41
-30.0
 62
     5
 63
     7
 74
     2
 91
        2
 64
     7
 65
   257
 75
     1
175
     1
 42
179.0
 92
        8
 66
     7
 43
1.0
 76
     1
 77
     6
 78
     2
 67
     7
 79
     3
170
     0
171
     0
290
     0
174
     0
 93
        1
 44
0.0
173
     0
291
     0
 45
0.0
1001
ACAD
1000
AcDbSavedByObjectVersion
1070
     0
  0
VISUALSTYLE
  5
47E
102
{ACAD_XDICTIONARY
360
4D3
102
}
102
{ACAD_REACTORS
330
473
102
}
330
473
100
AcDbVisualStyle
  2
Dim
 70
    11
 71
     2
 72
     2
 73
     0
 90
        0
 40
-0.6
 41
-30.0
 62
     5
 63
     7
 74
     1
 91
        4
 64
     7
 65
   257
 75
     1
175
     1
 42
1.0
 92
        8
 66
     7
 43
1.0
 76
     1
 77
     6
 78
     2
 67
     7
 79
     5
170
     0
171
     0
290
     0
174
     0
 93
        1
 44
-50.0
173
     0
291
     1
 45
0.0
1001
ACAD
1000
AcDbSavedByObjectVersion
1070
     0
  0
VISUALSTYLE
  5
486
102
{ACAD_XDICTIONARY
360
4E3
102
}
102
{ACAD_REACTORS
330
473
102
}
330
473
100
AcDbVisualStyle
  2
EdgeColorOff
 70
    22
 71
     2
 72
     2
 73
     0
 90
        0
 40
-0.6
 41
-30.0
 62
     5
 63
     7
 74
     1
 91
        4
 64
     7
 65
   257
 75
     1
175
     1
 42
1.0
 92
        8
 66
     7
 43
1.0
 76
     1
 77
     6
 78
     2
 67
     7
 79
     5
170
     0
171
     0
290
     0
174
     0
 93
        1
 44
0.0
173
     0
291
     1
 45
0.0
1001
ACAD
1000
AcDbSavedByObjectVersion
1070
     0
  0
VISUALSTYLE
  5
482
102
{ACAD_XDICTIONARY
360
4DB
102
}
102
{ACAD_REACTORS
330
473
102
}
330
473
100
AcDbVisualStyle
  2
Facepattern
 70
    15
 71
     2
 72
     2
 73
     0
 90
        0
 40
-0.6
 41
-30.0
 62
     5
 63
     7
 74
     1
 91
        4
 64
     7
 65
   257
 75
     1
175
     1
 42
1.0
 92
        8
 66
     7
 43
1.0
 76
     1
 77
     6
 78
     2
 67
     7
 79
     5
170
     0
171
     0
290
     0
174
     0
 93
        1
 44
0.0
173
     0
291
     1
 45
0.0
1001
ACAD
1000
AcDbSavedByObjectVersion
1070
     0
  0
VISUALSTYLE
  5
474
102
{ACAD_XDICTIONARY
360
4BF
102
}
102
{ACAD_REACTORS
330
473
102
}
330
473
100
AcDbVisualStyle
  2
Flat
 70
     0
 71
     2
 72
     1
 73
     1
 90
        2
 40
-0.6
 41
30.0
 62
     5
 63
     7
 74
     0
 91
        4
 64
     7
 65
   257
 75
     1
175
     1
 42
1.0
 92
        8
 66
     7
 43
1.0
 76
     1
 77
     6
 78
     2
 67
     7
 79
     5
170
     0
171
     0
290
     0
174
     0
 93
       13
 44
0.0
173
     0
291
     1
 45
0.0
1001
ACAD
1000
AcDbSavedByObjectVersion
1070
     0
  0
VISUALSTYLE
  5
475
102
{ACAD_XDICTIONARY
360
4C1
102
}
102
{ACAD_REACTORS
330
473
102
}
330
473
100
AcDbVisualStyle
  2
FlatWithEdges
 70
     1
 71
     2
 72
     1
 73
     1
 90
        2
 40
-0.6
 41
30.0
 62
     5
 63
     7
 74
     1
 91
        4
 64
     7
 65
   257
 75
     1
175
     1
 42
1.0
 92
        0
 66
   257
 43
1.0
 76
     1
 77
     6
 78
     2
 67
     7
 79
     5
170
     0
171
     0
290
     0
174
     0
 93
       13
 44
0.0
173
     0
291
     1
 45
0.0
1001
ACAD
1000
AcDbSavedByObjectVersion
1070
     0
  0
VISUALSTYLE
  5
476
102
{ACAD_XDICTIONARY
360
4C3
102
}
102
{ACAD_REACTORS
330
473
102
}
330
473
100
AcDbVisualStyle
  2
Gouraud
 70
     2
 71
     2
 72
     2
 73
     1
 90
        2
 40
-0.6
 41
30.0
 62
     5
 63
     7
 74
     0
 91
        4
 64
     7
 65
   257
 75
     1
175
     1
 42
1.0
 92
        0
 66
     7
 43
1.0
 76
     1
 77
     6
 78
     2
 67
     7
 79
     5
170
     0
171
     0
290
     0
174
     0
 93
       13
 44
0.0
173
     0
291
     1
 45
0.0
1001
ACAD
1000
AcDbSavedByObjectVersion
1070
     0
  0
VISUALSTYLE
  5
477
102
{ACAD_XDICTIONARY
360
4C5
102
}
102
{ACAD_REACTORS
330
473
102
}
330
473
100
AcDbVisualStyle
  2
GouraudWithEdges
 70
     3
 71
     2
 72
     2
 73
     1
 90
        2
 40
-0.6
 41
30.0
 62
     5
 63
     7
 74
     1
 91
        4
 64
     7
 65
   257
 75
     1
175
     1
 42
1.0
 92
        0
 66
   257
 43
1.0
 76
     1
 77
     6
 78
     2
 67
     7
 79
     5
170
     0
171
     0
290
     0
174
     0
 93
       13
 44
0.0
173
     0
291
     1
 45
0.0
1001
ACAD
1000
AcDbSavedByObjectVersion
1070
     0
  0
VISUALSTYLE
  5
484
102
{ACAD_XDICTIONARY
360
4DF
102
}
102
{ACAD_REACTORS
330
473
102
}
330
473
100
AcDbVisualStyle
  2
JitterOff
 70
    20
 71
     2
 72
     2
 73
     0
 90
        0
 40
-0.6
 41
-30.0
 62
     5
 63
     7
 74
     1
 91
        4
 64
     7
 65
   257
 75
     1
175
     1
 42
1.0
 92
       10
 66
     7
 43
1.0
 76
     1
 77
     6
 78
     2
 67
     7
 79
     5
170
     0
171
     0
290
     0
174
     0
 93
        1
 44
0.0
173
     0
291
     1
 45
0.0
1001
ACAD
1000
AcDbSavedByObjectVersion
1070
     0
  0
VISUALSTYLE
  5
481
102
{ACAD_XDICTIONARY
360
4D9
102
}
102
{ACAD_REACTORS
330
473
102
}
330
473
100
AcDbVisualStyle
  2
Linepattern
 70
    14
 71
     2
 72
     2
 73
     0
 90
        0
 40
-0.6
 41
-30.0
 62
     5
 63
     7
 74
     1
 91
        4
 64
     7
 65
   257
 75
     7
175
     7
 42
1.0
 92
        8
 66
     7
 43
1.0
 76
     1
 77
     6
 78
     2
 67
     7
 79
     5
170
     0
171
     0
290
     0
174
     0
 93
        1
 44
0.0
173
     0
291
     1
 45
0.0
1001
ACAD
1000
AcDbSavedByObjectVersion
1070
     0
  0
VISUALSTYLE
  5
485
102
{ACAD_XDICTIONARY
360
4E1
102
}
102
{ACAD_REACTORS
330
473
102
}
330
473
100
AcDbVisualStyle
  2
OverhangOff
 70
    21
 71
     2
 72
     2
 73
     0
 90
        0
 40
-0.6
 41
-30.0
 62
     5
 63
     7
 74
     1
 91
        4
 64
     7
 65
   257
 75
     1
175
     1
 42
1.0
 92
        9
 66
     7
 43
1.0
 76
     1
 77
     6
 78
     2
 67
     7
 79
     5
170
     0
171
     0
290
     0
174
     0
 93
        1
 44
0.0
173
     0
291
     1
 45
0.0
1001
ACAD
1000
AcDbSavedByObjectVersion
1070
     0
  0
VISUALSTYLE
  5
47D
102
{ACAD_XDICTIONARY
360
4D1
102
}
102
{ACAD_REACTORS
330
473
102
}
330
473
100
AcDbVisualStyle
  2
Realistic
 70
     8
 71
     2
 72
     2
 73
     0
 90
        0
 40
-0.6
 41
-30.0
 62
     5
 63
     7
 74
     1
 91
        0
 64
     7
 65
   257
 75
     1
175
     1
 42
1.0
 92
        8
 66
     8
 43
1.0
 76
     1
 77
     6
 78
     2
 67
     7
 79
     5
170
     0
171
     0
290
     0
174
     0
 93
       13
 44
0.0
173
     0
291
     0
 45
0.0
1001
ACAD
1000
AcDbSavedByObjectVersion
1070
     0
  0
VISUALSTYLE
  5
480
102
{ACAD_XDICTIONARY
360
4D7
102
}
102
{ACAD_REACTORS
330
473
102
}
330
473
100
AcDbVisualStyle
  2
Thicken
 70
    13
 71
     2
 72
     2
 73
     0
 90
        0
 40
-0.6
 41
-30.0
 62
     5
 63
     7
 74
     1
 91
        4
 64
     7
 65
   257
 75
     1
175
     1
 42
1.0
 92
       12
 66
     7
 43
1.0
 76
     1
 77
     6
 78
     2
 67
     7
 79
     5
170
     0
171
     0
290
     0
174
     0
 93
        1
 44
0.0
173
     0
291
     1
 45
0.0
1001
ACAD
1000
AcDbSavedByObjectVersion
1070
     0
  0
DICTIONARYVAR
  5
4AE
102
{ACAD_REACTORS
330
44F
102
}
330
44F
100
DictionaryVariables
280
     0
  1
1:1
  0
DICTIONARYVAR
  5
4AD
102
{ACAD_REACTORS
330
44F
102
}
330
44F
100
DictionaryVariables
280
     0
  1
STANDARD
  0
DICTIONARYVAR
  5
4AC
102
{ACAD_REACTORS
330
44F
102
}
330
44F
100
DictionaryVariables
280
     0
  1
STANDARD
  0
DICTIONARYVAR
  5
451
102
{ACAD_REACTORS
330
44F
102
}
330
44F
100
DictionaryVariables
280
     0
  1
2
  0
DICTIONARYVAR
  5
450
102
{ACAD_REACTORS
330
44F
102
}
330
44F
100
DictionaryVariables
280
     0
  1
1
  0
DICTIONARYVAR
  5
4B0
102
{ACAD_REACTORS
330
44F
102
}
330
44F
100
DictionaryVariables
280
     0
  1
0
  0
DICTIONARYVAR
  5
4AF
102
{ACAD_REACTORS
330
44F
102
}
330
44F
100
DictionaryVariables
280
     0
  1
127
  0
DICTIONARYVAR
  5
4B1
102
{ACAD_REACTORS
330
44F
102
}
330
44F
100
DictionaryVariables
280
     0
  1
2
  0
XRECORD
  5
44D
102
{ACAD_REACTORS
330
44B
102
}
330
44B
100
AcDbXrecord
280
     1
  0
DICTIONARY
  5
4B6
330
1E
100
AcDbDictionary
280
     1
281
     1
  3
ACAD_XREC_ROUNDTRIP
360
4B7
  0
DICTIONARY
  5
4BA
330
26
100
AcDbDictionary
280
     1
281
     1
  3
ACAD_XREC_ROUNDTRIP
360
4BB
  0
DICTIONARY
  5
4B8
330
22
100
AcDbDictionary
280
     1
281
     1
  3
ACAD_XREC_ROUNDTRIP
360
4B9
  0
DICTIONARY
  5
464
330
463
100
AcDbDictionary
280
     1
281
     1
  3
ACAD_XREC_ROUNDTRIP
360
4BD
  3
BUMPTILE
360
466
  3
DIFFUSETILE
360
465
  3
OPACITYTILE
360
469
  3
REFLECTIONTILE
360
468
  3
REFRACTIONTILE
360
46A
  3
SPECULARTILE
360
467
  0
DICTIONARY
  5
45C
330
45B
100
AcDbDictionary
280
     1
281
     1
  3
ACAD_XREC_ROUNDTRIP
360
4BC
  3
BUMPTILE
360
45E
  3
DIFFUSETILE
360
45D
  3
OPACITYTILE
360
461
  3
REFLECTIONTILE
360
460
  3
REFRACTIONTILE
360
462
  3
SPECULARTILE
360
45F
  0
DICTIONARY
  5
46C
330
46B
100
AcDbDictionary
280
     1
281
     1
  3
ACAD_XREC_ROUNDTRIP
360
4BE
  3
BUMPTILE
360
46E
  3
DIFFUSETILE
360
46D
  3
OPACITYTILE
360
471
  3
REFLECTIONTILE
360
470
  3
REFRACTIONTILE
360
472
  3
SPECULARTILE
360
46F
  0
DICTIONARY
  5
4B2
330
489
100
AcDbDictionary
280
     1
281
     1
  3
ACAD_ROUNDTRIP_2008_TABLESTYLE_CELLSTYLEMAP
360
4B3
  3
ACAD_XREC_ROUNDTRIP
360
4E5
  0
DICTIONARY
  5
4C9
330
479
100
AcDbDictionary
280
     1
281
     1
  3
ACAD_XREC_ROUNDTRIP
360
4CA
  0
DICTIONARY
  5
4CD
330
47B
100
AcDbDictionary
280
     1
281
     1
  3
ACAD_XREC_ROUNDTRIP
360
4CE
  0
DICTIONARY
  5
4CB
330
47A
100
AcDbDictionary
280
     1
281
     1
  3
ACAD_XREC_ROUNDTRIP
360
4CC
  0
DICTIONARY
  5
4C7
330
478
100
AcDbDictionary
280
     1
281
     1
  3
ACAD_XREC_ROUNDTRIP
360
4C8
  0
DICTIONARY
  5
4D5
330
47F
100
AcDbDictionary
280
     1
281
     1
  3
ACAD_XREC_ROUNDTRIP
360
4D6
  0
DICTIONARY
  5
4DD
330
483
100
AcDbDictionary
280
     1
281
     1
  3
ACAD_XREC_ROUNDTRIP
360
4DE
  0
DICTIONARY
  5
4CF
330
47C
100
AcDbDictionary
280
     1
281
     1
  3
ACAD_XREC_ROUNDTRIP
360
4D0
  0
DICTIONARY
  5
4D3
330
47E
100
AcDbDictionary
280
     1
281
     1
  3
ACAD_XREC_ROUNDTRIP
360
4D4
  0
DICTIONARY
  5
4E3
330
486
100
AcDbDictionary
280
     1
281
     1
  3
ACAD_XREC_ROUNDTRIP
360
4E4
  0
DICTIONARY
  5
4DB
330
482
100
AcDbDictionary
280
     1
281
     1
  3
ACAD_XREC_ROUNDTRIP
360
4DC
  0
DICTIONARY
  5
4BF
330
474
100
AcDbDictionary
280
     1
281
     1
  3
ACAD_XREC_ROUNDTRIP
360
4C0
  0
DICTIONARY
  5
4C1
330
475
100
AcDbDictionary
280
     1
281
     1
  3
ACAD_XREC_ROUNDTRIP
360
4C2
  0
DICTIONARY
  5
4C3
330
476
100
AcDbDictionary
280
     1
281
     1
  3
ACAD_XREC_ROUNDTRIP
360
4C4
  0
DICTIONARY
  5
4C5
330
477
100
AcDbDictionary
280
     1
281
     1
  3
ACAD_XREC_ROUNDTRIP
360
4C6
  0
DICTIONARY
  5
4DF
330
484
100
AcDbDictionary
280
     1
281
     1
  3
ACAD_XREC_ROUNDTRIP
360
4E0
  0
DICTIONARY
  5
4D9
330
481
100
AcDbDictionary
280
     1
281
     1
  3
ACAD_XREC_ROUNDTRIP
360
4DA
  0
DICTIONARY
  5
4E1
330
485
100
AcDbDictionary
280
     1
281
     1
  3
ACAD_XREC_ROUNDTRIP
360
4E2
  0
DICTIONARY
  5
4D1
330
47D
100
AcDbDictionary
280
     1
281
     1
  3
ACAD_XREC_ROUNDTRIP
360
4D2
  0
DICTIONARY
  5
4D7
330
480
100
AcDbDictionary
280
     1
281
     1
  3
ACAD_XREC_ROUNDTRIP
360
4D8
  0
XRECORD
  5
4B7
102
{ACAD_REACTORS
330
4B6
102
}
330
4B6
100
AcDbXrecord
280
     1
102
SHADEPLOT
 70
     0
102
SHADEPLOTRESLEVEL
 70
     2
102
SHADEPLOTCUSTOMDPI
 70
   300
  0
XRECORD
  5
4BB
102
{ACAD_REACTORS
330
4BA
102
}
330
4BA
100
AcDbXrecord
280
     1
102
SHADEPLOT
 70
     0
102
SHADEPLOTRESLEVEL
 70
     2
102
SHADEPLOTCUSTOMDPI
 70
   300
  0
XRECORD
  5
4B9
102
{ACAD_REACTORS
330
4B8
102
}
330
4B8
100
AcDbXrecord
280
     1
102
SHADEPLOT
 70
     0
102
SHADEPLOTRESLEVEL
 70
     2
102
SHADEPLOTCUSTOMDPI
 70
   300
  0
XRECORD
  5
4BD
102
{ACAD_REACTORS
330
464
102
}
330
464
100
AcDbXrecord
280
     1
102
MATERIAL
148
0.0
149
0.0
149
0.0
 93
        0
 94
      127
282
     0
 72
     0
 77
     0
171
     0
175
     0
179
     0
273
     0
  0
XRECORD
  5
466
102
{ACAD_REACTORS
330
464
102
}
330
464
100
AcDbXrecord
280
     1
270
     1
271
     1
  0
XRECORD
  5
465
102
{ACAD_REACTORS
330
464
102
}
330
464
100
AcDbXrecord
280
     1
270
     1
271
     1
  0
XRECORD
  5
469
102
{ACAD_REACTORS
330
464
102
}
330
464
100
AcDbXrecord
280
     1
270
     1
271
     1
  0
XRECORD
  5
468
102
{ACAD_REACTORS
330
464
102
}
330
464
100
AcDbXrecord
280
     1
270
     1
271
     1
  0
XRECORD
  5
46A
102
{ACAD_REACTORS
330
464
102
}
330
464
100
AcDbXrecord
280
     1
270
     1
271
     1
  0
XRECORD
  5
467
102
{ACAD_REACTORS
330
464
102
}
330
464
100
AcDbXrecord
280
     1
270
     1
271
     1
  0
XRECORD
  5
4BC
102
{ACAD_REACTORS
330
45C
102
}
330
45C
100
AcDbXrecord
280
     1
102
MATERIAL
148
0.0
149
0.0
149
0.0
 93
        0
 94
      127
282
     0
 72
     0
 77
     0
171
     0
175
     0
179
     0
273
     0
  0
XRECORD
  5
45E
102
{ACAD_REACTORS
330
45C
102
}
330
45C
100
AcDbXrecord
280
     1
270
     1
271
     1
  0
XRECORD
  5
45D
102
{ACAD_REACTORS
330
45C
102
}
330
45C
100
AcDbXrecord
280
     1
270
     1
271
     1
  0
XRECORD
  5
461
102
{ACAD_REACTORS
330
45C
102
}
330
45C
100
AcDbXrecord
280
     1
270
     1
271
     1
  0
XRECORD
  5
460
102
{ACAD_REACTORS
330
45C
102
}
330
45C
100
AcDbXrecord
280
     1
270
     1
271
     1
  0
XRECORD
  5
462
102
{ACAD_REACTORS
330
45C
102
}
330
45C
100
AcDbXrecord
280
     1
270
     1
271
     1
  0
XRECORD
  5
45F
102
{ACAD_REACTORS
330
45C
102
}
330
45C
100
AcDbXrecord
280
     1
270
     1
271
     1
  0
XRECORD
  5
4BE
102
{ACAD_REACTORS
330
46C
102
}
330
46C
100
AcDbXrecord
280
     1
102
MATERIAL
148
0.0
149
0.0
149
0.0
 93
        0
 94
      127
282
     0
 72
     0
 77
     0
171
     0
175
     0
179
     0
273
     0
  0
XRECORD
  5
46E
102
{ACAD_REACTORS
330
46C
102
}
330
46C
100
AcDbXrecord
280
     1
270
     1
271
     1
  0
XRECORD
  5
46D
102
{ACAD_REACTORS
330
46C
102
}
330
46C
100
AcDbXrecord
280
     1
270
     1
271
     1
  0
XRECORD
  5
471
102
{ACAD_REACTORS
330
46C
102
}
330
46C
100
AcDbXrecord
280
     1
270
     1
271
     1
  0
XRECORD
  5
470
102
{ACAD_REACTORS
330
46C
102
}
330
46C
100
AcDbXrecord
280
     1
270
     1
271
     1
  0
XRECORD
  5
472
102
{ACAD_REACTORS
330
46C
102
}
330
46C
100
AcDbXrecord
280
     1
270
     1
271
     1
  0
XRECORD
  5
46F
102
{ACAD_REACTORS
330
46C
102
}
330
46C
100
AcDbXrecord
280
     1
270
     1
271
     1
  0
CELLSTYLEMAP
  5
4B3
102
{ACAD_REACTORS
330
4B2
102
}
330
4B2
100
AcDbCellStyleMap
 90
        3
300
CELLSTYLE
  1
TABLEFORMAT_BEGIN
 90
        5
170
     1
 91
        0
 92
    32768
 62
   257
 93
        1
300
CONTENTFORMAT
  1
CONTENTFORMAT_BEGIN
 90
        0
 91
        0
 92
      512
 93
        0
300

 40
0.0
140
1.0
 94
        5
 62
     0
340
11
144
6.0
309
CONTENTFORMAT_END
171
     1
301
MARGIN
  1
CELLMARGIN_BEGIN
 40
1.5
 40
1.5
 40
1.5
 40
1.5
 40
4.5
 40
4.5
309
CELLMARGIN_END
 94
        6
 95
        1
302
GRIDFORMAT
  1
GRIDFORMAT_BEGIN
 90
        0
 91
        1
 62
     0
 92
       -2
340
0
 93
        0
 40
1.125
309
GRIDFORMAT_END
 95
        2
302
GRIDFORMAT
  1
GRIDFORMAT_BEGIN
 90
        0
 91
        1
 62
     0
 92
       -2
340
0
 93
        0
 40
1.125
309
GRIDFORMAT_END
 95
        4
302
GRIDFORMAT
  1
GRIDFORMAT_BEGIN
 90
        0
 91
        1
 62
     0
 92
       -2
340
0
 93
        0
 40
1.125
309
GRIDFORMAT_END
 95
        8
302
GRIDFORMAT
  1
GRIDFORMAT_BEGIN
 90
        0
 91
        1
 62
     0
 92
       -2
340
0
 93
        0
 40
1.125
309
GRIDFORMAT_END
 95
       16
302
GRIDFORMAT
  1
GRIDFORMAT_BEGIN
 90
        0
 91
        1
 62
     0
 92
       -2
340
0
 93
        0
 40
1.125
309
GRIDFORMAT_END
 95
       32
302
GRIDFORMAT
  1
GRIDFORMAT_BEGIN
 90
        0
 91
        1
 62
     0
 92
       -2
340
0
 93
        0
 40
1.125
309
GRIDFORMAT_END
309
TABLEFORMAT_END
  1
CELLSTYLE_BEGIN
 90
        1
 91
        1
300
_TITLE
309
CELLSTYLE_END
300
CELLSTYLE
  1
TABLEFORMAT_BEGIN
 90
        5
170
     1
 91
        0
 92
        0
 62
   257
 93
        1
300
CONTENTFORMAT
  1
CONTENTFORMAT_BEGIN
 90
        0
 91
        0
 92
      512
 93
        0
300

 40
0.0
140
1.0
 94
        5
 62
     0
340
11
144
4.5
309
CONTENTFORMAT_END
171
     1
301
MARGIN
  1
CELLMARGIN_BEGIN
 40
1.5
 40
1.5
 40
1.5
 40
1.5
 40
4.5
 40
4.5
309
CELLMARGIN_END
 94
        6
 95
        1
302
GRIDFORMAT
  1
GRIDFORMAT_BEGIN
 90
        0
 91
        1
 62
     0
 92
       -2
340
0
 93
        0
 40
1.125
309
GRIDFORMAT_END
 95
        2
302
GRIDFORMAT
  1
GRIDFORMAT_BEGIN
 90
        0
 91
        1
 62
     0
 92
       -2
340
0
 93
        0
 40
1.125
309
GRIDFORMAT_END
 95
        4
302
GRIDFORMAT
  1
GRIDFORMAT_BEGIN
 90
        0
 91
        1
 62
     0
 92
       -2
340
0
 93
        0
 40
1.125
309
GRIDFORMAT_END
 95
        8
302
GRIDFORMAT
  1
GRIDFORMAT_BEGIN
 90
        0
 91
        1
 62
     0
 92
       -2
340
0
 93
        0
 40
1.125
309
GRIDFORMAT_END
 95
       16
302
GRIDFORMAT
  1
GRIDFORMAT_BEGIN
 90
        0
 91
        1
 62
     0
 92
       -2
340
0
 93
        0
 40
1.125
309
GRIDFORMAT_END
 95
       32
302
GRIDFORMAT
  1
GRIDFORMAT_BEGIN
 90
        0
 91
        1
 62
     0
 92
       -2
340
0
 93
        0
 40
1.125
309
GRIDFORMAT_END
309
TABLEFORMAT_END
  1
CELLSTYLE_BEGIN
 90
        2
 91
        1
300
_HEADER
309
CELLSTYLE_END
300
CELLSTYLE
  1
TABLEFORMAT_BEGIN
 90
        5
170
     1
 91
        0
 92
        0
 62
   257
 93
        1
300
CONTENTFORMAT
  1
CONTENTFORMAT_BEGIN
 90
        0
 91
        0
 92
      512
 93
        0
300

 40
0.0
140
1.0
 94
        2
 62
     0
340
11
144
4.5
309
CONTENTFORMAT_END
171
     1
301
MARGIN
  1
CELLMARGIN_BEGIN
 40
1.5
 40
1.5
 40
1.5
 40
1.5
 40
4.5
 40
4.5
309
CELLMARGIN_END
 94
        6
 95
        1
302
GRIDFORMAT
  1
GRIDFORMAT_BEGIN
 90
        0
 91
        1
 62
     0
 92
       -2
340
0
 93
        0
 40
1.125
309
GRIDFORMAT_END
 95
        2
302
GRIDFORMAT
  1
GRIDFORMAT_BEGIN
 90
        0
 91
        1
 62
     0
 92
       -2
340
0
 93
        0
 40
1.125
309
GRIDFORMAT_END
 95
        4
302
GRIDFORMAT
  1
GRIDFORMAT_BEGIN
 90
        0
 91
        1
 62
     0
 92
       -2
340
0
 93
        0
 40
1.125
309
GRIDFORMAT_END
 95
        8
302
GRIDFORMAT
  1
GRIDFORMAT_BEGIN
 90
        0
 91
        1
 62
     0
 92
       -2
340
0
 93
        0
 40
1.125
309
GRIDFORMAT_END
 95
       16
302
GRIDFORMAT
  1
GRIDFORMAT_BEGIN
 90
        0
 91
        1
 62
     0
 92
       -2
340
0
 93
        0
 40
1.125
309
GRIDFORMAT_END
 95
       32
302
GRIDFORMAT
  1
GRIDFORMAT_BEGIN
 90
        0
 91
        1
 62
     0
 92
       -2
340
0
 93
        0
 40
1.125
309
GRIDFORMAT_END
309
TABLEFORMAT_END
  1
CELLSTYLE_BEGIN
 90
        3
 91
        2
300
_DATA
309
CELLSTYLE_END
  0
XRECORD
  5
4E5
102
{ACAD_REACTORS
330
4B2
102
}
330
4B2
100
AcDbXrecord
280
     1
102
ACAD_ROUNDTRIP_PRE2007_TABLESTYLE
 90
      512
 91
        0
  1

 92
      512
 93
        0
  2

 94
      512
 95
        0
  3

  0
XRECORD
  5
4CA
102
{ACAD_REACTORS
330
4C9
102
}
330
4C9
100
AcDbXrecord
280
     1
102
RTVSPropertyOp0
 70
     1
102
RTVSPropertyOp1
 70
     1
102
RTVSPropertyOp2
 70
     1
102
RTVSPropertyOp3
 70
     1
102
RTVSPropertyOp4
 70
     1
102
RTVSPropertyOp5
 70
     1
102
RTVSPropertyOp6
 70
     1
102
RTVSPropertyOp7
 70
     1
102
RTVSPropertyOp8
 70
     1
102
RTVSPropertyOp9
 70
     1
102
RTVSPropertyOp10
 70
     1
102
RTVSPropertyOp11
 70
     1
102
RTVSPropertyOp12
 70
     1
102
RTVSPropertyOp13
 70
     1
102
RTVSPropertyOp14
 70
     1
102
RTVSPropertyOp15
 70
     1
102
RTVSPropertyOp16
 70
     1
102
RTVSPropertyOp17
 70
     1
102
RTVSPropertyOp18
 70
     1
102
RTVSPropertyOp19
 70
     1
102
RTVSPropertyOp20
 70
     1
102
RTVSPropertyOp21
 70
     1
102
RTVSPropertyOp22
 70
     1
102
RTVSPropertyOp23
 70
     1
102
RTVSPropertyOp24
 70
     1
102
RTVSPropertyOp25
 70
     1
102
RTVSPropertyOp26
 70
     1
102
RTVSPropertyOp27
 70
     1
  0
XRECORD
  5
4CE
102
{ACAD_REACTORS
330
4CD
102
}
330
4CD
100
AcDbXrecord
280
     1
102
RTVSPropertyOp0
 70
     1
102
RTVSPropertyOp1
 70
     1
102
RTVSPropertyOp2
 70
     1
102
RTVSPropertyOp3
 70
     1
102
RTVSPropertyOp4
 70
     1
102
RTVSPropertyOp5
 70
     1
102
RTVSPropertyOp6
 70
     1
102
RTVSPropertyOp7
 70
     1
102
RTVSPropertyOp8
 70
     1
102
RTVSPropertyOp9
 70
     1
102
RTVSPropertyOp10
 70
     1
102
RTVSPropertyOp11
 70
     1
102
RTVSPropertyOp12
 70
     1
102
RTVSPropertyOp13
 70
     1
102
RTVSPropertyOp14
 70
     1
102
RTVSPropertyOp15
 70
     1
102
RTVSPropertyOp16
 70
     1
102
RTVSPropertyOp17
 70
     1
102
RTVSPropertyOp18
 70
     1
102
RTVSPropertyOp19
 70
     1
102
RTVSPropertyOp20
 70
     1
102
RTVSPropertyOp21
 70
     1
102
RTVSPropertyOp22
 70
     1
102
RTVSPropertyOp23
 70
     1
102
RTVSPropertyOp24
 70
     1
102
RTVSPropertyOp25
 70
     1
102
RTVSPropertyOp26
 70
     1
102
RTVSPropertyOp27
 70
     1
  0
XRECORD
  5
4CC
102
{ACAD_REACTORS
330
4CB
102
}
330
4CB
100
AcDbXrecord
280
     1
102
RTVSPropertyOp0
 70
     1
102
RTVSPropertyOp1
 70
     1
102
RTVSPropertyOp2
 70
     1
102
RTVSPropertyOp3
 70
     1
102
RTVSPropertyOp4
 70
     1
102
RTVSPropertyOp5
 70
     1
102
RTVSPropertyOp6
 70
     1
102
RTVSPropertyOp7
 70
     1
102
RTVSPropertyOp8
 70
     1
102
RTVSPropertyOp9
 70
     1
102
RTVSPropertyOp10
 70
     1
102
RTVSPropertyOp11
 70
     1
102
RTVSPropertyOp12
 70
     1
102
RTVSPropertyOp13
 70
     1
102
RTVSPropertyOp14
 70
     1
102
RTVSPropertyOp15
 70
     1
102
RTVSPropertyOp16
 70
     1
102
RTVSPropertyOp17
 70
     1
102
RTVSPropertyOp18
 70
     1
102
RTVSPropertyOp19
 70
     1
102
RTVSPropertyOp20
 70
     1
102
RTVSPropertyOp21
 70
     1
102
RTVSPropertyOp22
 70
     1
102
RTVSPropertyOp23
 70
     1
102
RTVSPropertyOp24
 70
     1
102
RTVSPropertyOp25
 70
     1
102
RTVSPropertyOp26
 70
     1
102
RTVSPropertyOp27
 70
     1
  0
XRECORD
  5
4C8
102
{ACAD_REACTORS
330
4C7
102
}
330
4C7
100
AcDbXrecord
280
     1
102
RTVSPropertyOp0
 70
     1
102
RTVSPropertyOp1
 70
     1
102
RTVSPropertyOp2
 70
     1
102
RTVSPropertyOp3
 70
     1
102
RTVSPropertyOp4
 70
     1
102
RTVSPropertyOp5
 70
     1
102
RTVSPropertyOp6
 70
     1
102
RTVSPropertyOp7
 70
     1
102
RTVSPropertyOp8
 70
     1
102
RTVSPropertyOp9
 70
     1
102
RTVSPropertyOp10
 70
     1
102
RTVSPropertyOp11
 70
     1
102
RTVSPropertyOp12
 70
     1
102
RTVSPropertyOp13
 70
     1
102
RTVSPropertyOp14
 70
     1
102
RTVSPropertyOp15
 70
     1
102
RTVSPropertyOp16
 70
     1
102
RTVSPropertyOp17
 70
     1
102
RTVSPropertyOp18
 70
     1
102
RTVSPropertyOp19
 70
     1
102
RTVSPropertyOp20
 70
     1
102
RTVSPropertyOp21
 70
     1
102
RTVSPropertyOp22
 70
     1
102
RTVSPropertyOp23
 70
     1
102
RTVSPropertyOp24
 70
     1
102
RTVSPropertyOp25
 70
     1
102
RTVSPropertyOp26
 70
     1
102
RTVSPropertyOp27
 70
     1
  0
XRECORD
  5
4D6
102
{ACAD_REACTORS
330
4D5
102
}
330
4D5
100
AcDbXrecord
280
     1
102
RTVSPropertyOp0
 70
     1
102
RTVSPropertyOp1
 70
     1
102
RTVSPropertyOp2
 70
     1
102
RTVSPropertyOp3
 70
     1
102
RTVSPropertyOp4
 70
     1
102
RTVSPropertyOp5
 70
     1
102
RTVSPropertyOp6
 70
     1
102
RTVSPropertyOp7
 70
     1
102
RTVSPropertyOp8
 70
     1
102
RTVSPropertyOp9
 70
     1
102
RTVSPropertyOp10
 70
     1
102
RTVSPropertyOp11
 70
     1
102
RTVSPropertyOp12
 70
     1
102
RTVSPropertyOp13
 70
     1
102
RTVSPropertyOp14
 70
     1
102
RTVSPropertyOp15
 70
     1
102
RTVSPropertyOp16
 70
     1
102
RTVSPropertyOp17
 70
     1
102
RTVSPropertyOp18
 70
     1
102
RTVSPropertyOp19
 70
     1
102
RTVSPropertyOp20
 70
     1
102
RTVSPropertyOp21
 70
     1
102
RTVSPropertyOp22
 70
     1
102
RTVSPropertyOp23
 70
     1
102
RTVSPropertyOp24
 70
     1
102
RTVSPropertyOp25
 70
     1
102
RTVSPropertyOp26
 70
     1
102
RTVSPropertyOp27
 70
     1
  0
XRECORD
  5
4DE
102
{ACAD_REACTORS
330
4DD
102
}
330
4DD
100
AcDbXrecord
280
     1
102
RTVSPropertyOp0
 70
     1
102
RTVSPropertyOp1
 70
     1
102
RTVSPropertyOp2
 70
     1
102
RTVSPropertyOp3
 70
     1
102
RTVSPropertyOp4
 70
     1
102
RTVSPropertyOp5
 70
     1
102
RTVSPropertyOp6
 70
     1
102
RTVSPropertyOp7
 70
     1
102
RTVSPropertyOp8
 70
     1
102
RTVSPropertyOp9
 70
     1
102
RTVSPropertyOp10
 70
     1
102
RTVSPropertyOp11
 70
     1
102
RTVSPropertyOp12
 70
     1
102
RTVSPropertyOp13
 70
     1
102
RTVSPropertyOp14
 70
     1
102
RTVSPropertyOp15
 70
     1
102
RTVSPropertyOp16
 70
     1
102
RTVSPropertyOp17
 70
     1
102
RTVSPropertyOp18
 70
     1
102
RTVSPropertyOp19
 70
     1
102
RTVSPropertyOp20
 70
     1
102
RTVSPropertyOp21
 70
     1
102
RTVSPropertyOp22
 70
     1
102
RTVSPropertyOp23
 70
     1
102
RTVSPropertyOp24
 70
     1
102
RTVSPropertyOp25
 70
     1
102
RTVSPropertyOp26
 70
     1
102
RTVSPropertyOp27
 70
     1
  0
XRECORD
  5
4D0
102
{ACAD_REACTORS
330
4CF
102
}
330
4CF
100
AcDbXrecord
280
     1
102
RTVSPropertyOp0
 70
     1
102
RTVSPropertyOp1
 70
     1
102
RTVSPropertyOp2
 70
     1
102
RTVSPropertyOp3
 70
     1
102
RTVSPropertyOp4
 70
     1
102
RTVSPropertyOp5
 70
     1
102
RTVSPropertyOp6
 70
     1
102
RTVSPropertyOp7
 70
     1
102
RTVSPropertyOp8
 70
     1
102
RTVSPropertyOp9
 70
     1
102
RTVSPropertyOp10
 70
     1
102
RTVSPropertyOp11
 70
     1
102
RTVSPropertyOp12
 70
     1
102
RTVSPropertyOp13
 70
     1
102
RTVSPropertyOp14
 70
     1
102
RTVSPropertyOp15
 70
     1
102
RTVSPropertyOp16
 70
     1
102
RTVSPropertyOp17
 70
     1
102
RTVSPropertyOp18
 70
     1
102
RTVSPropertyOp19
 70
     1
102
RTVSPropertyOp20
 70
     1
102
RTVSPropertyOp21
 70
     1
102
RTVSPropertyOp22
 70
     1
102
RTVSPropertyOp23
 70
     1
102
RTVSPropertyOp24
 70
     1
102
RTVSPropertyOp25
 70
     1
102
RTVSPropertyOp26
 70
     1
102
RTVSPropertyOp27
 70
     1
  0
XRECORD
  5
4D4
102
{ACAD_REACTORS
330
4D3
102
}
330
4D3
100
AcDbXrecord
280
     1
102
RTVSPropertyOp0
 70
     1
102
RTVSPropertyOp1
 70
     1
102
RTVSPropertyOp2
 70
     1
102
RTVSPropertyOp3
 70
     1
102
RTVSPropertyOp4
 70
     1
102
RTVSPropertyOp5
 70
     1
102
RTVSPropertyOp6
 70
     1
102
RTVSPropertyOp7
 70
     1
102
RTVSPropertyOp8
 70
     1
102
RTVSPropertyOp9
 70
     1
102
RTVSPropertyOp10
 70
     1
102
RTVSPropertyOp11
 70
     1
102
RTVSPropertyOp12
 70
     1
102
RTVSPropertyOp13
 70
     1
102
RTVSPropertyOp14
 70
     1
102
RTVSPropertyOp15
 70
     1
102
RTVSPropertyOp16
 70
     1
102
RTVSPropertyOp17
 70
     1
102
RTVSPropertyOp18
 70
     1
102
RTVSPropertyOp19
 70
     1
102
RTVSPropertyOp20
 70
     1
102
RTVSPropertyOp21
 70
     1
102
RTVSPropertyOp22
 70
     1
102
RTVSPropertyOp23
 70
     1
102
RTVSPropertyOp24
 70
     1
102
RTVSPropertyOp25
 70
     1
102
RTVSPropertyOp26
 70
     1
102
RTVSPropertyOp27
 70
     1
  0
XRECORD
  5
4E4
102
{ACAD_REACTORS
330
4E3
102
}
330
4E3
100
AcDbXrecord
280
     1
102
RTVSPropertyOp0
 70
     0
102
RTVSPropertyOp1
 70
     0
102
RTVSPropertyOp2
 70
     0
102
RTVSPropertyOp3
 70
     0
102
RTVSPropertyOp4
 70
     0
102
RTVSPropertyOp5
 70
     0
102
RTVSPropertyOp6
 70
     0
102
RTVSPropertyOp7
 70
     0
102
RTVSPropertyOp8
 70
     0
102
RTVSPropertyOp9
 70
     0
102
RTVSPropertyOp10
 70
     0
102
RTVSPropertyOp11
 70
     0
102
RTVSPropertyOp12
 70
     0
102
RTVSPropertyOp13
 70
     0
102
RTVSPropertyOp14
 70
     2
102
RTVSPropertyOp15
 70
     0
102
RTVSPropertyOp16
 70
     0
102
RTVSPropertyOp17
 70
     0
102
RTVSPropertyOp18
 70
     0
102
RTVSPropertyOp19
 70
     0
102
RTVSPropertyOp20
 70
     0
102
RTVSPropertyOp21
 70
     0
102
RTVSPropertyOp22
 70
     0
102
RTVSPropertyOp23
 70
     0
102
RTVSPropertyOp24
 70
     0
102
RTVSPropertyOp25
 70
     0
102
RTVSPropertyOp26
 70
     0
102
RTVSPropertyOp27
 70
     0
  0
XRECORD
  5
4DC
102
{ACAD_REACTORS
330
4DB
102
}
330
4DB
100
AcDbXrecord
280
     1
102
RTVSPropertyOp0
 70
     1
102
RTVSPropertyOp1
 70
     1
102
RTVSPropertyOp2
 70
     1
102
RTVSPropertyOp3
 70
     1
102
RTVSPropertyOp4
 70
     1
102
RTVSPropertyOp5
 70
     1
102
RTVSPropertyOp6
 70
     1
102
RTVSPropertyOp7
 70
     1
102
RTVSPropertyOp8
 70
     1
102
RTVSPropertyOp9
 70
     1
102
RTVSPropertyOp10
 70
     1
102
RTVSPropertyOp11
 70
     1
102
RTVSPropertyOp12
 70
     1
102
RTVSPropertyOp13
 70
     1
102
RTVSPropertyOp14
 70
     1
102
RTVSPropertyOp15
 70
     1
102
RTVSPropertyOp16
 70
     1
102
RTVSPropertyOp17
 70
     1
102
RTVSPropertyOp18
 70
     1
102
RTVSPropertyOp19
 70
     1
102
RTVSPropertyOp20
 70
     1
102
RTVSPropertyOp21
 70
     1
102
RTVSPropertyOp22
 70
     1
102
RTVSPropertyOp23
 70
     1
102
RTVSPropertyOp24
 70
     1
102
RTVSPropertyOp25
 70
     1
102
RTVSPropertyOp26
 70
     1
102
RTVSPropertyOp27
 70
     1
  0
XRECORD
  5
4C0
102
{ACAD_REACTORS
330
4BF
102
}
330
4BF
100
AcDbXrecord
280
     1
102
RTVSPropertyOp0
 70
     1
102
RTVSPropertyOp1
 70
     1
102
RTVSPropertyOp2
 70
     1
102
RTVSPropertyOp3
 70
     1
102
RTVSPropertyOp4
 70
     1
102
RTVSPropertyOp5
 70
     1
102
RTVSPropertyOp6
 70
     1
102
RTVSPropertyOp7
 70
     1
102
RTVSPropertyOp8
 70
     1
102
RTVSPropertyOp9
 70
     1
102
RTVSPropertyOp10
 70
     1
102
RTVSPropertyOp11
 70
     1
102
RTVSPropertyOp12
 70
     1
102
RTVSPropertyOp13
 70
     1
102
RTVSPropertyOp14
 70
     1
102
RTVSPropertyOp15
 70
     1
102
RTVSPropertyOp16
 70
     1
102
RTVSPropertyOp17
 70
     1
102
RTVSPropertyOp18
 70
     1
102
RTVSPropertyOp19
 70
     1
102
RTVSPropertyOp20
 70
     1
102
RTVSPropertyOp21
 70
     1
102
RTVSPropertyOp22
 70
     1
102
RTVSPropertyOp23
 70
     1
102
RTVSPropertyOp24
 70
     1
102
RTVSPropertyOp25
 70
     1
102
RTVSPropertyOp26
 70
     1
102
RTVSPropertyOp27
 70
     1
  0
XRECORD
  5
4C2
102
{ACAD_REACTORS
330
4C1
102
}
330
4C1
100
AcDbXrecord
280
     1
102
RTVSPropertyOp0
 70
     1
102
RTVSPropertyOp1
 70
     1
102
RTVSPropertyOp2
 70
     1
102
RTVSPropertyOp3
 70
     1
102
RTVSPropertyOp4
 70
     1
102
RTVSPropertyOp5
 70
     1
102
RTVSPropertyOp6
 70
     1
102
RTVSPropertyOp7
 70
     1
102
RTVSPropertyOp8
 70
     1
102
RTVSPropertyOp9
 70
     1
102
RTVSPropertyOp10
 70
     1
102
RTVSPropertyOp11
 70
     1
102
RTVSPropertyOp12
 70
     1
102
RTVSPropertyOp13
 70
     1
102
RTVSPropertyOp14
 70
     1
102
RTVSPropertyOp15
 70
     1
102
RTVSPropertyOp16
 70
     1
102
RTVSPropertyOp17
 70
     1
102
RTVSPropertyOp18
 70
     1
102
RTVSPropertyOp19
 70
     1
102
RTVSPropertyOp20
 70
     1
102
RTVSPropertyOp21
 70
     1
102
RTVSPropertyOp22
 70
     1
102
RTVSPropertyOp23
 70
     1
102
RTVSPropertyOp24
 70
     1
102
RTVSPropertyOp25
 70
     1
102
RTVSPropertyOp26
 70
     1
102
RTVSPropertyOp27
 70
     1
  0
XRECORD
  5
4C4
102
{ACAD_REACTORS
330
4C3
102
}
330
4C3
100
AcDbXrecord
280
     1
102
RTVSPropertyOp0
 70
     1
102
RTVSPropertyOp1
 70
     1
102
RTVSPropertyOp2
 70
     1
102
RTVSPropertyOp3
 70
     1
102
RTVSPropertyOp4
 70
     1
102
RTVSPropertyOp5
 70
     1
102
RTVSPropertyOp6
 70
     1
102
RTVSPropertyOp7
 70
     1
102
RTVSPropertyOp8
 70
     1
102
RTVSPropertyOp9
 70
     1
102
RTVSPropertyOp10
 70
     1
102
RTVSPropertyOp11
 70
     1
102
RTVSPropertyOp12
 70
     1
102
RTVSPropertyOp13
 70
     1
102
RTVSPropertyOp14
 70
     1
102
RTVSPropertyOp15
 70
     1
102
RTVSPropertyOp16
 70
     1
102
RTVSPropertyOp17
 70
     1
102
RTVSPropertyOp18
 70
     1
102
RTVSPropertyOp19
 70
     1
102
RTVSPropertyOp20
 70
     1
102
RTVSPropertyOp21
 70
     1
102
RTVSPropertyOp22
 70
     1
102
RTVSPropertyOp23
 70
     1
102
RTVSPropertyOp24
 70
     1
102
RTVSPropertyOp25
 70
     1
102
RTVSPropertyOp26
 70
     1
102
RTVSPropertyOp27
 70
     1
  0
XRECORD
  5
4C6
102
{ACAD_REACTORS
330
4C5
102
}
330
4C5
100
AcDbXrecord
280
     1
102
RTVSPropertyOp0
 70
     1
102
RTVSPropertyOp1
 70
     1
102
RTVSPropertyOp2
 70
     1
102
RTVSPropertyOp3
 70
     1
102
RTVSPropertyOp4
 70
     1
102
RTVSPropertyOp5
 70
     1
102
RTVSPropertyOp6
 70
     1
102
RTVSPropertyOp7
 70
     1
102
RTVSPropertyOp8
 70
     1
102
RTVSPropertyOp9
 70
     1
102
RTVSPropertyOp10
 70
     1
102
RTVSPropertyOp11
 70
     1
102
RTVSPropertyOp12
 70
     1
102
RTVSPropertyOp13
 70
     1
102
RTVSPropertyOp14
 70
     1
102
RTVSPropertyOp15
 70
     1
102
RTVSPropertyOp16
 70
     1
102
RTVSPropertyOp17
 70
     1
102
RTVSPropertyOp18
 70
     1
102
RTVSPropertyOp19
 70
     1
102
RTVSPropertyOp20
 70
     1
102
RTVSPropertyOp21
 70
     1
102
RTVSPropertyOp22
 70
     1
102
RTVSPropertyOp23
 70
     1
102
RTVSPropertyOp24
 70
     1
102
RTVSPropertyOp25
 70
     1
102
RTVSPropertyOp26
 70
     1
102
RTVSPropertyOp27
 70
     1
  0
XRECORD
  5
4E0
102
{ACAD_REACTORS
330
4DF
102
}
330
4DF
100
AcDbXrecord
280
     1
102
RTVSPropertyOp0
 70
     0
102
RTVSPropertyOp1
 70
     0
102
RTVSPropertyOp2
 70
     0
102
RTVSPropertyOp3
 70
     0
102
RTVSPropertyOp4
 70
     0
102
RTVSPropertyOp5
 70
     0
102
RTVSPropertyOp6
 70
     0
102
RTVSPropertyOp7
 70
     0
102
RTVSPropertyOp8
 70
     0
102
RTVSPropertyOp9
 70
     0
102
RTVSPropertyOp10
 70
     0
102
RTVSPropertyOp11
 70
     0
102
RTVSPropertyOp12
 70
     0
102
RTVSPropertyOp13
 70
     0
102
RTVSPropertyOp14
 70
     2
102
RTVSPropertyOp15
 70
     0
102
RTVSPropertyOp16
 70
     0
102
RTVSPropertyOp17
 70
     0
102
RTVSPropertyOp18
 70
     0
102
RTVSPropertyOp19
 70
     0
102
RTVSPropertyOp20
 70
     0
102
RTVSPropertyOp21
 70
     0
102
RTVSPropertyOp22
 70
     0
102
RTVSPropertyOp23
 70
     0
102
RTVSPropertyOp24
 70
     0
102
RTVSPropertyOp25
 70
     0
102
RTVSPropertyOp26
 70
     0
102
RTVSPropertyOp27
 70
     0
  0
XRECORD
  5
4DA
102
{ACAD_REACTORS
330
4D9
102
}
330
4D9
100
AcDbXrecord
280
     1
102
RTVSPropertyOp0
 70
     1
102
RTVSPropertyOp1
 70
     1
102
RTVSPropertyOp2
 70
     1
102
RTVSPropertyOp3
 70
     1
102
RTVSPropertyOp4
 70
     1
102
RTVSPropertyOp5
 70
     1
102
RTVSPropertyOp6
 70
     1
102
RTVSPropertyOp7
 70
     1
102
RTVSPropertyOp8
 70
     1
102
RTVSPropertyOp9
 70
     1
102
RTVSPropertyOp10
 70
     1
102
RTVSPropertyOp11
 70
     1
102
RTVSPropertyOp12
 70
     1
102
RTVSPropertyOp13
 70
     1
102
RTVSPropertyOp14
 70
     1
102
RTVSPropertyOp15
 70
     1
102
RTVSPropertyOp16
 70
     1
102
RTVSPropertyOp17
 70
     1
102
RTVSPropertyOp18
 70
     1
102
RTVSPropertyOp19
 70
     1
102
RTVSPropertyOp20
 70
     1
102
RTVSPropertyOp21
 70
     1
102
RTVSPropertyOp22
 70
     1
102
RTVSPropertyOp23
 70
     1
102
RTVSPropertyOp24
 70
     1
102
RTVSPropertyOp25
 70
     1
102
RTVSPropertyOp26
 70
     1
102
RTVSPropertyOp27
 70
     1
  0
XRECORD
  5
4E2
102
{ACAD_REACTORS
330
4E1
102
}
330
4E1
100
AcDbXrecord
280
     1
102
RTVSPropertyOp0
 70
     0
102
RTVSPropertyOp1
 70
     0
102
RTVSPropertyOp2
 70
     0
102
RTVSPropertyOp3
 70
     0
102
RTVSPropertyOp4
 70
     0
102
RTVSPropertyOp5
 70
     0
102
RTVSPropertyOp6
 70
     0
102
RTVSPropertyOp7
 70
     0
102
RTVSPropertyOp8
 70
     0
102
RTVSPropertyOp9
 70
     0
102
RTVSPropertyOp10
 70
     0
102
RTVSPropertyOp11
 70
     0
102
RTVSPropertyOp12
 70
     0
102
RTVSPropertyOp13
 70
     0
102
RTVSPropertyOp14
 70
     2
102
RTVSPropertyOp15
 70
     0
102
RTVSPropertyOp16
 70
     0
102
RTVSPropertyOp17
 70
     0
102
RTVSPropertyOp18
 70
     0
102
RTVSPropertyOp19
 70
     0
102
RTVSPropertyOp20
 70
     0
102
RTVSPropertyOp21
 70
     0
102
RTVSPropertyOp22
 70
     0
102
RTVSPropertyOp23
 70
     0
102
RTVSPropertyOp24
 70
     0
102
RTVSPropertyOp25
 70
     0
102
RTVSPropertyOp26
 70
     0
102
RTVSPropertyOp27
 70
     0
  0
XRECORD
  5
4D2
102
{ACAD_REACTORS
330
4D1
102
}
330
4D1
100
AcDbXrecord
280
     1
102
RTVSPropertyOp0
 70
     1
102
RTVSPropertyOp1
 70
     1
102
RTVSPropertyOp2
 70
     1
102
RTVSPropertyOp3
 70
     1
102
RTVSPropertyOp4
 70
     1
102
RTVSPropertyOp5
 70
     1
102
RTVSPropertyOp6
 70
     1
102
RTVSPropertyOp7
 70
     1
102
RTVSPropertyOp8
 70
     1
102
RTVSPropertyOp9
 70
     1
102
RTVSPropertyOp10
 70
     1
102
RTVSPropertyOp11
 70
     1
102
RTVSPropertyOp12
 70
     1
102
RTVSPropertyOp13
 70
     1
102
RTVSPropertyOp14
 70
     1
102
RTVSPropertyOp15
 70
     1
102
RTVSPropertyOp16
 70
     1
102
RTVSPropertyOp17
 70
     1
102
RTVSPropertyOp18
 70
     1
102
RTVSPropertyOp19
 70
     1
102
RTVSPropertyOp20
 70
     1
102
RTVSPropertyOp21
 70
     1
102
RTVSPropertyOp22
 70
     1
102
RTVSPropertyOp23
 70
     1
102
RTVSPropertyOp24
 70
     1
102
RTVSPropertyOp25
 70
     1
102
RTVSPropertyOp26
 70
     1
102
RTVSPropertyOp27
 70
     1
  0
XRECORD
  5
4D8
102
{ACAD_REACTORS
330
4D7
102
}
330
4D7
100
AcDbXrecord
280
     1
102
RTVSPropertyOp0
 70
     1
102
RTVSPropertyOp1
 70
     1
102
RTVSPropertyOp2
 70
     1
102
RTVSPropertyOp3
 70
     1
102
RTVSPropertyOp4
 70
     1
102
RTVSPropertyOp5
 70
     1
102
RTVSPropertyOp6
 70
     1
102
RTVSPropertyOp7
 70
     1
102
RTVSPropertyOp8
 70
     1
102
RTVSPropertyOp9
 70
     1
102
RTVSPropertyOp10
 70
     1
102
RTVSPropertyOp11
 70
     1
102
RTVSPropertyOp12
 70
     1
102
RTVSPropertyOp13
 70
     1
102
RTVSPropertyOp14
 70
     1
102
RTVSPropertyOp15
 70
     1
102
RTVSPropertyOp16
 70
     1
102
RTVSPropertyOp17
 70
     1
102
RTVSPropertyOp18
 70
     1
102
RTVSPropertyOp19
 70
     1
102
RTVSPropertyOp20
 70
     1
102
RTVSPropertyOp21
 70
     1
102
RTVSPropertyOp22
 70
     1
102
RTVSPropertyOp23
 70
     1
102
RTVSPropertyOp24
 70
     1
102
RTVSPropertyOp25
 70
     1
102
RTVSPropertyOp26
 70
     1
102
RTVSPropertyOp27
 70
     1
  0
ENDSEC
  0
EOF
