  0
SECTION
  2
HEADER
  9
$ACADVER
  1
AC1015
  9
$ACADMAINTVER
 70
    20
  9
$DWGCODEPAGE
  3
ANSI_1252
  9
$INSBASE
 10
0.0
 20
0.0
 30
0.0
  9
$EXTMIN
 10
1504.069190491366
 20
1015.936835347584
 30
0.0
  9
$EXTMAX
 10
1506.360156420998
 20
1016.476835347584
 30
0.0
  9
$LIMMIN
 10
0.0
 20
0.0
  9
$LIMMAX
 10
420.0
 20
297.0
  9
$ORTHOMODE
 70
     1
  9
$REGENMODE
 70
     1
  9
$FILLMODE
 70
     1
  9
$QTEXTMODE
 70
     0
  9
$MIRRTEXT
 70
     1
  9
$LTSCALE
 40
1.0
  9
$ATTMODE
 70
     1
  9
$TEXTSIZE
 40
2.5
  9
$TRACEWID
 40
1.0
  9
$TEXTSTYLE
  7
SANINDUSA
  9
$CLAYER
  8
0
  9
$CELTYPE
  6
ByLayer
  9
$CECOLOR
 62
   256
  9
$CELTSCALE
 40
1.0
  9
$DISPSILH
 70
     0
  9
$DIMSCALE
 40
1.0
  9
$DIMASZ
 40
2.0
  9
$DIMEXO
 40
1.0
  9
$DIMDLI
 40
1.0
  9
$DIMRND
 40
0.0
  9
$DIMDLE
 40
0.0
  9
$DIMEXE
 40
1.0
  9
$DIMTP
 40
0.0
  9
$DIMTM
 40
0.0
  9
$DIMTXT
 40
2.0
  9
$DIMCEN
 40
0.0
  9
$DIMTSZ
 40
0.0
  9
$DIMTOL
 70
     0
  9
$DIMLIM
 70
     0
  9
$DIMTIH
 70
     0
  9
$DIMTOH
 70
     0
  9
$DIMSE1
 70
     0
  9
$DIMSE2
 70
     0
  9
$DIMTAD
 70
     1
  9
$DIMZIN
 70
     8
  9
$DIMBLK
  1

  9
$DIMASO
 70
     1
  9
$DIMSHO
 70
     1
  9
$DIMPOST
  1

  9
$DIMAPOST
  1

  9
$DIMALT
 70
     0
  9
$DIMALTD
 70
     3
  9
$DIMALTF
 40
0.03937007874016
  9
$DIMLFAC
 40
1.0
  9
$DIMTOFL
 70
     1
  9
$DIMTVP
 40
0.0
  9
$DIMTIX
 70
     0
  9
$DIMSOXD
 70
     0
  9
$DIMSAH
 70
     0
  9
$DIMBLK1
  1

  9
$DIMBLK2
  1

  9
$DIMSTYLE
  2
SANINDUSA
  9
$DIMCLRD
 70
   256
  9
$DIMCLRE
 70
   256
  9
$DIMCLRT
 70
   256
  9
$DIMTFAC
 40
1.0
  9
$DIMGAP
 40
1.0
  9
$DIMJUST
 70
     0
  9
$DIMSD1
 70
     0
  9
$DIMSD2
 70
     0
  9
$DIMTOLJ
 70
     0
  9
$DIMTZIN
 70
     8
  9
$DIMALTZ
 70
     0
  9
$DIMALTTZ
 70
     0
  9
$DIMUPT
 70
     0
  9
$DIMDEC
 70
     1
  9
$DIMTDEC
 70
     1
  9
$DIMALTU
 70
     2
  9
$DIMALTTD
 70
     3
  9
$DIMTXSTY
  7
SANINDUSA
  9
$DIMAUNIT
 70
     0
  9
$DIMADEC
 70
     1
  9
$DIMALTRND
 40
0.0
  9
$DIMAZIN
 70
     0
  9
$DIMDSEP
 70
    44
  9
$DIMATFIT
 70
     3
  9
$DIMFRAC
 70
     0
  9
$DIMLDRBLK
  1

  9
$DIMLUNIT
 70
     2
  9
$DIMLWD
 70
    -1
  9
$DIMLWE
 70
    -1
  9
$DIMTMOVE
 70
     0
  9
$LUNITS
 70
     2
  9
$LUPREC
 70
     4
  9
$SKETCHINC
 40
1.0
  9
$FILLETRAD
 40
0.0
  9
$AUNITS
 70
     0
  9
$AUPREC
 70
     0
  9
$MENU
  1
.
  9
$ELEVATION
 40
0.0
  9
$PELEVATION
 40
0.0
  9
$THICKNESS
 40
0.0
  9
$LIMCHECK
 70
     0
  9
$CHAMFERA
 40
10.0
  9
$CHAMFERB
 40
10.0
  9
$CHAMFERC
 40
20.0
  9
$CHAMFERD
 40
0.0
  9
$SKPOLY
 70
     0
  9
$TDCREATE
 40
2453482.393429179
  9
$TDUCREATE
 40
2453482.351762512
  9
$TDUPDATE
 40
2456149.700539815
  9
$TDUUPDATE
 40
2456149.658873148
  9
$TDINDWG
 40
0.0044882060
  9
$TDUSRTIMER
 40
0.0044882060
  9
$USRTIMER
 70
     1
  9
$ANGBASE
 50
0.0
  9
$ANGDIR
 70
     0
  9
$PDMODE
 70
     0
  9
$PDSIZE
 40
0.0
  9
$PLINEWID
 40
0.0
  9
$SPLFRAME
 70
     0
  9
$SPLINETYPE
 70
     6
  9
$SPLINESEGS
 70
     8
  9
$HANDSEED
  5
2C15
  9
$SURFTAB1
 70
     6
  9
$SURFTAB2
 70
     6
  9
$SURFTYPE
 70
     6
  9
$SURFU
 70
     6
  9
$SURFV
 70
     6
  9
$UCSBASE
  2

  9
$UCSNAME
  2

  9
$UCSORG
 10
0.0
 20
0.0
 30
0.0
  9
$UCSXDIR
 10
1.0
 20
0.0
 30
0.0
  9
$UCSYDIR
 10
0.0
 20
1.0
 30
0.0
  9
$UCSORTHOREF
  2

  9
$UCSORTHOVIEW
 70
     0
  9
$UCSORGTOP
 10
0.0
 20
0.0
 30
0.0
  9
$UCSORGBOTTOM
 10
0.0
 20
0.0
 30
0.0
  9
$UCSORGLEFT
 10
0.0
 20
0.0
 30
0.0
  9
$UCSORGRIGHT
 10
0.0
 20
0.0
 30
0.0
  9
$UCSORGFRONT
 10
0.0
 20
0.0
 30
0.0
  9
$UCSORGBACK
 10
0.0
 20
0.0
 30
0.0
  9
$PUCSBASE
  2

  9
$PUCSNAME
  2

  9
$PUCSORG
 10
0.0
 20
0.0
 30
0.0
  9
$PUCSXDIR
 10
1.0
 20
0.0
 30
0.0
  9
$PUCSYDIR
 10
0.0
 20
1.0
 30
0.0
  9
$PUCSORTHOREF
  2

  9
$PUCSORTHOVIEW
 70
     0
  9
$PUCSORGTOP
 10
0.0
 20
0.0
 30
0.0
  9
$PUCSORGBOTTOM
 10
0.0
 20
0.0
 30
0.0
  9
$PUCSORGLEFT
 10
0.0
 20
0.0
 30
0.0
  9
$PUCSORGRIGHT
 10
0.0
 20
0.0
 30
0.0
  9
$PUCSORGFRONT
 10
0.0
 20
0.0
 30
0.0
  9
$PUCSORGBACK
 10
0.0
 20
0.0
 30
0.0
  9
$USERI1
 70
     0
  9
$USERI2
 70
     0
  9
$USERI3
 70
     0
  9
$USERI4
 70
     0
  9
$USERI5
 70
     0
  9
$USERR1
 40
0.0
  9
$USERR2
 40
0.0
  9
$USERR3
 40
0.0
  9
$USERR4
 40
0.0
  9
$USERR5
 40
0.0
  9
$WORLDVIEW
 70
     1
  9
$SHADEDGE
 70
     3
  9
$SHADEDIF
 70
    70
  9
$TILEMODE
 70
     1
  9
$MAXACTVP
 70
    64
  9
$PINSBASE
 10
0.0
 20
0.0
 30
0.0
  9
$PLIMCHECK
 70
     0
  9
$PEXTMIN
 10
1.000000000000000E+20
 20
1.000000000000000E+20
 30
1.000000000000000E+20
  9
$PEXTMAX
 10
-1.000000000000000E+20
 20
-1.000000000000000E+20
 30
-1.000000000000000E+20
  9
$PLIMMIN
 10
0.0
 20
0.0
  9
$PLIMMAX
 10
420.0
 20
297.0
  9
$UNITMODE
 70
     0
  9
$VISRETAIN
 70
     1
  9
$PLINEGEN
 70
     0
  9
$PSLTSCALE
 70
     1
  9
$TREEDEPTH
 70
  3020
  9
$CMLSTYLE
  2
Standard
  9
$CMLJUST
 70
     0
  9
$CMLSCALE
 40
20.0
  9
$PROXYGRAPHICS
 70
     1
  9
$MEASUREMENT
 70
     1
  9
$CELWEIGHT
370
    -1
  9
$ENDCAPS
280
     0
  9
$JOINSTYLE
280
     0
  9
$LWDISPLAY
290
     0
  9
$INSUNITS
 70
     4
  9
$HYPERLINKBASE
  1

  9
$STYLESHEET
  1
monochrome.ctb
  9
$XEDIT
290
     1
  9
$CEPSNTYPE
380
     0
  9
$PSTYLEMODE
290
     1
  9
$FINGERPRINTGUID
  2
{B98A73AA-52AA-4C10-B469-C0E7150AC31F}
  9
$VERSIONGUID
  2
{64037B6A-F3C9-429D-9CE5-30ACB1DD1608}
  9
$EXTNAMES
290
     1
  9
$PSVPSCALE
 40
0.0
  9
$OLESTARTUP
290
     0
  0
ENDSEC
  0
SECTION
  2
CLASSES
  0
CLASS
  1
ACDBDICTIONARYWDFLT
  2
AcDbDictionaryWithDefault
  3
ObjectDBX Classes
 90
        0
280
     0
281
     0
  0
CLASS
  1
ACDBPLACEHOLDER
  2
AcDbPlaceHolder
  3
ObjectDBX Classes
 90
        0
280
     0
281
     0
  0
CLASS
  1
LAYOUT
  2
AcDbLayout
  3
ObjectDBX Classes
 90
        0
280
     0
281
     0
  0
CLASS
  1
DICTIONARYVAR
  2
AcDbDictionaryVar
  3
ObjectDBX Classes
 90
        0
280
     0
281
     0
  0
CLASS
  1
DIMASSOC
  2
AcDbDimAssoc
  3
"AcDbDimAssoc|Product Desc:     AcDim ARX App For Dimension|Company:          Autodesk, Inc.|WEB Address:      www.autodesk.com"
 90
    32768
280
     0
281
     0
  0
CLASS
  1
MATERIAL
  2
AcDbMaterial
  3
ObjectDBX Classes
 90
     1153
280
     0
281
     0
  0
CLASS
  1
VISUALSTYLE
  2
AcDbVisualStyle
  3
ObjectDBX Classes
 90
     4095
280
     0
281
     0
  0
CLASS
  1
TABLESTYLE
  2
AcDbTableStyle
  3
ObjectDBX Classes
 90
     4095
280
     0
281
     0
  0
CLASS
  1
SCALE
  2
AcDbScale
  3
ObjectDBX Classes
 90
     1153
280
     0
281
     0
  0
CLASS
  1
MLEADERSTYLE
  2
AcDbMLeaderStyle
  3
ACDB_MLEADERSTYLE_CLASS
 90
     4095
280
     0
281
     0
  0
CLASS
  1
CELLSTYLEMAP
  2
AcDbCellStyleMap
  3
ObjectDBX Classes
 90
     1152
280
     0
281
     0
  0
ENDSEC
  0
SECTION
  2
TABLES
  0
TABLE
  2
VPORT
  5
8
330
0
100
AcDbSymbolTable
 70
     1
  0
VPORT
  5
2B4D
330
8
100
AcDbSymbolTableRecord
100
AcDbViewportTableRecord
  2
*Active
 70
     0
 10
0.0
 20
0.0
 11
1.0
 21
1.0
 12
1505.214673456182
 22
1016.206835347584
 13
0.0
 23
0.0
 14
10.0
 24
10.0
 15
10.0
 25
10.0
 16
0.0
 26
0.0
 36
1.0
 17
0.0
 27
0.0
 37
0.0
 40
1.39758008554199
 41
1.645464025026068
 42
50.0
 43
0.0
 44
0.0
 50
0.0
 51
0.0
 71
     0
 72
   100
 73
     1
 74
     2
 75
     0
 76
     0
 77
     0
 78
     0
281
     0
 65
     1
110
0.0
120
0.0
130
0.0
111
1.0
121
0.0
131
0.0
112
0.0
122
1.0
132
0.0
 79
     0
146
0.0
  0
ENDTAB
  0
TABLE
  2
LTYPE
  5
5
330
0
100
AcDbSymbolTable
 70
     3
  0
LTYPE
  5
14
330
5
100
AcDbSymbolTableRecord
100
AcDbLinetypeTableRecord
  2
ByBlock
 70
     0
  3

 72
    65
 73
     0
 40
0.0
  0
LTYPE
  5
15
330
5
100
AcDbSymbolTableRecord
100
AcDbLinetypeTableRecord
  2
ByLayer
 70
     0
  3

 72
    65
 73
     0
 40
0.0
  0
LTYPE
  5
16
330
5
100
AcDbSymbolTableRecord
100
AcDbLinetypeTableRecord
  2
Continuous
 70
     0
  3
Solid line
 72
    65
 73
     0
 40
0.0
  0
LTYPE
  5
2D
330
5
100
AcDbSymbolTableRecord
100
AcDbLinetypeTableRecord
  2
DASHDOT
 70
     0
  3
Dash dot __ . __ . __ . __ . __ . __ . __ . __
 72
    65
 73
     4
 40
25.4
 49
12.7
 74
     0
 49
-6.349999999999999
 74
     0
 49
0.0
 74
     0
 49
-6.349999999999999
 74
     0
  0
LTYPE
  5
2E
330
5
100
AcDbSymbolTableRecord
100
AcDbLinetypeTableRecord
  2
HIDDEN
 70
     0
  3
Hidden __ __ __ __ __ __ __ __ __ __ __ __ __ _
 72
    65
 73
     2
 40
9.524999999999998
 49
6.349999999999999
 74
     0
 49
-3.174999999999999
 74
     0
  0
ENDTAB
  0
TABLE
  2
LAYER
  5
2
330
0
100
AcDbSymbolTable
 70
    16
  0
LAYER
  5
10
102
{ACAD_XDICTIONARY
360
2B98
102
}
330
2
100
AcDbSymbolTableRecord
100
AcDbLayerTableRecord
  2
0
 70
     0
 62
     7
  6
Continuous
370
    -3
390
F
  0
LAYER
  5
2F
102
{ACAD_XDICTIONARY
360
2B9A
102
}
330
2
100
AcDbSymbolTableRecord
100
AcDbLayerTableRecord
  2
1
 70
     0
 62
     1
  6
Continuous
370
    -3
390
F
  0
LAYER
  5
30
102
{ACAD_XDICTIONARY
360
2B9C
102
}
330
2
100
AcDbSymbolTableRecord
100
AcDbLayerTableRecord
  2
2
 70
     0
 62
     2
  6
Continuous
370
    -3
390
F
  0
LAYER
  5
31
102
{ACAD_XDICTIONARY
360
2B9E
102
}
330
2
100
AcDbSymbolTableRecord
100
AcDbLayerTableRecord
  2
3
 70
     0
 62
     3
  6
Continuous
370
    -3
390
F
  0
LAYER
  5
32
102
{ACAD_XDICTIONARY
360
2BA0
102
}
330
2
100
AcDbSymbolTableRecord
100
AcDbLayerTableRecord
  2
4
 70
     0
 62
     4
  6
Continuous
370
    -3
390
F
  0
LAYER
  5
33
102
{ACAD_XDICTIONARY
360
2BA2
102
}
330
2
100
AcDbSymbolTableRecord
100
AcDbLayerTableRecord
  2
5
 70
     0
 62
     5
  6
Continuous
370
    -3
390
F
  0
LAYER
  5
34
102
{ACAD_XDICTIONARY
360
2BA4
102
}
330
2
100
AcDbSymbolTableRecord
100
AcDbLayerTableRecord
  2
6
 70
     0
 62
     6
  6
Continuous
370
    -3
390
F
  0
LAYER
  5
35
102
{ACAD_XDICTIONARY
360
2BA6
102
}
330
2
100
AcDbSymbolTableRecord
100
AcDbLayerTableRecord
  2
7
 70
     0
 62
     7
  6
Continuous
370
    -3
390
F
  0
LAYER
  5
36
102
{ACAD_XDICTIONARY
360
2BA8
102
}
330
2
100
AcDbSymbolTableRecord
100
AcDbLayerTableRecord
  2
cen
 70
     0
 62
     7
  6
DASHDOT
370
    -3
390
F
  0
LAYER
  5
37
102
{ACAD_XDICTIONARY
360
2BAA
102
}
330
2
100
AcDbSymbolTableRecord
100
AcDbLayerTableRecord
  2
hid
 70
     0
 62
     7
  6
HIDDEN
370
    -3
390
F
  0
LAYER
  5
5D6
102
{ACAD_XDICTIONARY
360
2BAC
102
}
330
2
100
AcDbSymbolTableRecord
100
AcDbLayerTableRecord
  2
hatch
 70
     0
 62
     9
  6
Continuous
370
    -3
390
F
  0
LAYER
  5
8AF
102
{ACAD_XDICTIONARY
360
2BAE
102
}
330
2
100
AcDbSymbolTableRecord
100
AcDbLayerTableRecord
  2
9
 70
     0
 62
     9
  6
Continuous
370
    -3
390
F
  0
LAYER
  5
8F8
102
{ACAD_XDICTIONARY
360
2BB0
102
}
330
2
100
AcDbSymbolTableRecord
100
AcDbLayerTableRecord
  2
leg fin
 70
     0
 62
     9
  6
Continuous
370
    -3
390
F
  0
LAYER
  5
91D
102
{ACAD_XDICTIONARY
360
2BB2
102
}
330
2
100
AcDbSymbolTableRecord
100
AcDbLayerTableRecord
  2
cotas
 70
     0
 62
     1
  6
Continuous
370
    -3
390
F
  0
LAYER
  5
92F
330
2
100
AcDbSymbolTableRecord
100
AcDbLayerTableRecord
  2
Defpoints
 70
     0
 62
     7
  6
Continuous
290
     0
370
    -3
390
F
  0
LAYER
  5
D9F
102
{ACAD_XDICTIONARY
360
2BB4
102
}
330
2
100
AcDbSymbolTableRecord
100
AcDbLayerTableRecord
  2
Sanindusa
 70
     0
 62
     3
  6
Continuous
370
    -3
390
F
  0
ENDTAB
  0
TABLE
  2
STYLE
  5
3
330
0
100
AcDbSymbolTable
 70
     3
  0
STYLE
  5
11
330
3
100
AcDbSymbolTableRecord
100
AcDbTextStyleTableRecord
  2
Standard
 70
     0
 40
0.0
 41
1.0
 50
0.0
 71
     0
 42
2.5
  3
Avgardn.ttf
  4

1001
ACAD
1000
AvantGarde Bk BT
1071
       34
  0
STYLE
  5
2C
330
3
100
AcDbSymbolTableRecord
100
AcDbTextStyleTableRecord
  2

 70
     1
 40
0.0
 41
1.0
 50
0.0
 71
     0
 42
2.5
  3
ltypeshp.shx
  4

  0
STYLE
  5
91F
330
3
100
AcDbSymbolTableRecord
100
AcDbTextStyleTableRecord
  2
SANINDUSA
 70
     0
 40
0.0
 41
1.0
 50
0.0
 71
     0
 42
2.5
  3
verdana.TTF
  4

1001
ACAD
1000
Verdana
1071
       34
  0
ENDTAB
  0
TABLE
  2
VIEW
  5
6
330
0
100
AcDbSymbolTable
 70
     0
  0
ENDTAB
  0
TABLE
  2
UCS
  5
7
330
0
100
AcDbSymbolTable
 70
     0
  0
ENDTAB
  0
TABLE
  2
APPID
  5
9
330
0
100
AcDbSymbolTable
 70
     3
  0
APPID
  5
12
330
9
100
AcDbSymbolTableRecord
100
AcDbRegAppTableRecord
  2
ACAD
 70
     0
  0
APPID
  5
3A
330
9
100
AcDbSymbolTableRecord
100
AcDbRegAppTableRecord
  2
DCO15
 70
     0
  0
APPID
  5
2C14
330
9
100
AcDbSymbolTableRecord
100
AcDbRegAppTableRecord
  2
ACAD_MLEADERVER
 70
     0
  0
ENDTAB
  0
TABLE
  2
DIMSTYLE
  5
A
330
0
100
AcDbSymbolTable
 70
     2
100
AcDbDimStyleTable
 71
     1
340
921
  0
DIMSTYLE
105
45
330
A
100
AcDbSymbolTableRecord
100
AcDbDimStyleTableRecord
  2
STANDARD
 70
     0
289
     0
340
11
  0
DIMSTYLE
105
921
330
A
100
AcDbSymbolTableRecord
100
AcDbDimStyleTableRecord
  2
SANINDUSA
 70
     0
 41
2.0
 42
1.0
 43
1.0
 44
1.0
 73
     0
 74
     0
 77
     1
 78
     8
140
2.0
141
0.0
143
0.03937007874016
147
1.0
171
     3
172
     1
176
   256
177
   256
178
   256
179
     1
271
     1
272
     1
274
     3
278
    44
283
     0
284
     8
340
91F
371
    -1
372
    -1
  0
ENDTAB
  0
TABLE
  2
BLOCK_RECORD
  5
1
330
0
100
AcDbSymbolTable
 70
    92
  0
BLOCK_RECORD
  5
1F
330
1
100
AcDbSymbolTableRecord
100
AcDbBlockTableRecord
  2
*Model_Space
340
22
  0
BLOCK_RECORD
  5
1B
330
1
100
AcDbSymbolTableRecord
100
AcDbBlockTableRecord
  2
*Paper_Space
340
1E
  0
BLOCK_RECORD
  5
23
330
1
100
AcDbSymbolTableRecord
100
AcDbBlockTableRecord
  2
*Paper_Space0
340
26
  0
BLOCK_RECORD
  5
919
330
1
100
AcDbSymbolTableRecord
100
AcDbBlockTableRecord
  2
_DotSmall
340
0
  0
BLOCK_RECORD
  5
922
330
1
100
AcDbSymbolTableRecord
100
AcDbBlockTableRecord
  2
base para cotas
340
0
310
2800000020000000200000000100080000000000000400000000000000000000000000000000000000000000000080000080000000808000800000008000800080800000C0C0C000C0DCC000F0CAA6000020400000206000002080000020A0000020C0000020E00000400000004020000040400000406000004080000040A0
310
000040C0000040E00000600000006020000060400000606000006080000060A0000060C0000060E00000800000008020000080400000806000008080000080A0000080C0000080E00000A0000000A0200000A0400000A0600000A0800000A0A00000A0C00000A0E00000C0000000C0200000C0400000C0600000C0800000C0
310
A00000C0C00000C0E00000E0000000E0200000E0400000E0600000E0800000E0A00000E0C00000E0E00040000000400020004000400040006000400080004000A0004000C0004000E00040200000402020004020400040206000402080004020A0004020C0004020E000404000004040200040404000404060004040800040
310
40A0004040C0004040E00040600000406020004060400040606000406080004060A0004060C0004060E00040800000408020004080400040806000408080004080A0004080C0004080E00040A0000040A0200040A0400040A0600040A0800040A0A00040A0C00040A0E00040C0000040C0200040C0400040C0600040C08000
310
40C0A00040C0C00040C0E00040E0000040E0200040E0400040E0600040E0800040E0A00040E0C00040E0E00080000000800020008000400080006000800080008000A0008000C0008000E00080200000802020008020400080206000802080008020A0008020C0008020E00080400000804020008040400080406000804080
310
008040A0008040C0008040E00080600000806020008060400080606000806080008060A0008060C0008060E00080800000808020008080400080806000808080008080A0008080C0008080E00080A0000080A0200080A0400080A0600080A0800080A0A00080A0C00080A0E00080C0000080C0200080C0400080C0600080C0
310
800080C0A00080C0C00080C0E00080E0000080E0200080E0400080E0600080E0800080E0A00080E0C00080E0E000C0000000C0002000C0004000C0006000C0008000C000A000C000C000C000E000C0200000C0202000C0204000C0206000C0208000C020A000C020C000C020E000C0400000C0402000C0404000C0406000C0
310
408000C040A000C040C000C040E000C0600000C0602000C0604000C0606000C0608000C060A000C060C000C060E000C0800000C0802000C0804000C0806000C0808000C080A000C080C000C080E000C0A00000C0A02000C0A04000C0A06000C0A08000C0A0A000C0A0C000C0A0E000C0C00000C0C02000C0C04000C0C06000
310
C0C08000C0C0A000F0FBFF00A4A0A000808080000000FF0000FF000000FFFF00FF000000FF00FF00FFFF0000FFFFFF00A4A4A4A4A4A4A4A4A4A4A4A4A4A4A4A4A4A4A4A4A4A4A4A4A4A4A4A4A4A4A4A4A4A4A4A4A4A4A4A4A4A4A4A4A4A4A4A4A4A4A4A4A4A4A4A4A4A4A4A4A4A4A4A4A4A4A4A4A4A4A4A4A4A4A4A4A4A4A4
310
A4A4A4A4A4A4A4A4A4A4A4A4A4A4A4A4A4A4A4A4A4A4A4A4A4A4A4A4A4A4A4A4A4A4A4A4A4A4A4A4A4A4A4A4A4A4A4A4A4A4A4A4A4A4A4A4A4A4A4A4A4A4A4A4A4A4A4A4A4A4A4A4A4A4A4A4A4A4A4A4A4A4A4A4A4A4A4A4A4A4A4A4A4A4A4A4A4A4A4A4A4A4A4A4A4A4A4A4A4A4A4A4A4A4A4A4A4A4A4A4A4A4A4A4A4A4A4
310
A4A4A4A4A4A4A4A4A4A4A4A4A4A4A4A4A4A4A4A4A4A4A4A4A4A4A4A4A4A4A4A4A4A4A4A4A4A4A4A4A4A4A4A4A4A4A4A4A4A4A4A4A4A4A4A4A4A4A4A4A4A4A4A4A4A4A4A4A4A4A4A4A4A4A4A4A4A4A4A4A4A4A4A4A4A4A4A4A4A4A4A4A4A4A4A4A4A4A4A4A4A4A4A4A4A4A4A4A4A4A4A4A4A4A4A4A4A4A4A4A4A4A4A4A4A4A4
310
A4A4A4A4A4A4A4A4A4A4A4A4A4A4A4A4A4A4A4A4A4A4A4A4A4A4A4A4A4A4A4A4A4A4A4A4A4A4A4A4A4A4A4A4A4A4A4A4A4A4A4A4A4A4A4A4A4A4A4A4A4A4A4A4A4A4A4A4A4A4A4A4A4A4A4A4A4A4A4A4A4A4A4A4A4A4A4A4A4A4A4A4A4A4A4A4A4A4A4A4A4A4A4A4A4A4A4A4A4A4A4A4A4A4A4A4F9F9F9F9F9F9F9F9F9F9F9
310
F9F9F9F9F9F9F9F9F9F9F9F9F9F9F9F9F9F9F9A4A4F9F9F9F9F9F9F9F9F9F9F9F9F9F9F9F9F9F9F9F9F9F9F9F9F9F9F9F9F9F9A4A4F9F9F9F9F9F9F9F9F9F9F9F9F9F9F9F9F9F9F9F9F9F9F9F9F9F9F9F9F9F9A4A4F9A4A4A4A4A4A4A4A4A4A4A4A4A4A4A4A4A4A4A4A4A4A4A4A4A4A4A4A4F9A4A4A4A4A4A4A4A4A4A4A4A4
310
A4A4A4A4A4A4A4A4A4A4A4A4A4A4A4A4A4A4A4A4A4A4A4A4A4A4A4A4A4A4A4A4A4A4A4A4A4A4A4A4A4A4A4A4A4A4A4A4A4A4A4A4A4A4A4A4A4A4A4A4A4A4A4A4A4A4A4A4A4A4A4A4A4A4A4A4A4A4A4A4A4A4A4A4A4A4A4A4A4A4A4A4A4A4A4A4A4A4A4A4A4A4A4A4A4A4A4A4A4A4A4A4A4A4A4A4A4A4A4A4A4A4A4A4A4A4A4
310
A4A4A4A4A4A4A4A4A4A4A4A4A4A4A4A4A4A4A4A4A4A4A4A4A4A4A4A4A4A4A4A4A4A4A4A4A4A4A4A4A4A4A4A4A4A4A4A4A4A4A4A4A4A4A4A4A4A4A4A4A4A4A4A4A4A4A4A4A4A4A4A4A4A4A4A4A4A4A4A4A4A4A4A4A4A4A4A4A4A4A4A4A4A4A4A4A4A4A4A4A4A4A4A4A4A4A4A4A4A4A4A4A4A4A4A4A4A4A4A4A4A4A4A4A4A4A4
310
A4A4A4A4A4A4A4A4A4A4A4A4A4A4A4A4A4A4A4A4A4A4A4A4A4A4A4A4A4A4A4A4A4A4A4A4A4A4A4A4A4A4A4A4A4A4A4A4A4A4A4A4A4A4A4A4A4A4A4A4A4A4A4A4A4A4A4A4A4A4A4A4A4A4A4A4A4A4A4A4A4A4A4A4A4A4A4A4A4A4A4A4A4A4A4A4A4A4A4A4A4A4A4A4A4A4A4A4A4A4A4A4A4A4A4A4A4A4A4A4A4A4A4A4A4A4A4
310
A4A4A4A4A4A4A4A4A4A4A4A4A4A4A4A4A4A4A4A4A4A4A4A4A4A4A4A4A4A4A4A4A4A4A4A4A4A4A4A4A4A4A4A4A4A4A4A4A4A4A4A4A4A4A4A4
1001
ACAD
1000
DesignCenter Data
1002
{
1070
     1
1070
     4
1002
}
  0
BLOCK_RECORD
  5
AA8
330
1
100
AcDbSymbolTableRecord
100
AcDbBlockTableRecord
  2
_CLOSED
340
0
  0
ENDTAB
  0
ENDSEC
  0
SECTION
  2
BLOCKS
  0
BLOCK
  5
20
330
1F
100
AcDbEntity
  8
0
100
AcDbBlockBegin
  2
*Model_Space
 70
     0
 10
0.0
 20
0.0
 30
0.0
  3
*Model_Space
  1

  0
ENDBLK
  5
21
330
1F
100
AcDbEntity
  8
0
100
AcDbBlockEnd
  0
BLOCK
  5
1C
330
1B
100
AcDbEntity
 67
     1
  8
0
100
AcDbBlockBegin
  2
*Paper_Space
 70
     0
 10
0.0
 20
0.0
 30
0.0
  3
*Paper_Space
  1

  0
ENDBLK
  5
1D
330
1B
100
AcDbEntity
 67
     1
  8
0
100
AcDbBlockEnd
  0
BLOCK
  5
24
330
23
100
AcDbEntity
 67
     1
  8
0
100
AcDbBlockBegin
  2
*Paper_Space0
 70
     0
 10
0.0
 20
0.0
 30
0.0
  3
*Paper_Space0
  1

  0
ENDBLK
  5
25
330
23
100
AcDbEntity
 67
     1
  8
0
100
AcDbBlockEnd
  0
BLOCK
  5
91B
330
919
100
AcDbEntity
  8
0
100
AcDbBlockBegin
  2
_DotSmall
 70
     0
 10
0.0
 20
0.0
 30
0.0
  3
_DotSmall
  1

  0
LWPOLYLINE
  5
91A
330
919
100
AcDbEntity
  8
0
  6
ByBlock
 62
     0
100
AcDbPolyline
 90
        2
 70
     1
 43
0.5
 10
-0.0625
 20
0.0
 42
1.0
 10
0.0625
 20
0.0
 42
1.0
  0
ENDBLK
  5
91C
330
919
100
AcDbEntity
  8
0
100
AcDbBlockEnd
  0
BLOCK
  5
92A
330
922
100
AcDbEntity
  8
0
100
AcDbBlockBegin
  2
base para cotas
 70
     0
 10
0.0
 20
0.0
 30
0.0
  3
base para cotas
  1

  0
LINE
  5
B36
330
922
100
AcDbEntity
  8
cotas
100
AcDbLine
 10
0.0
 20
-30.0
 30
0.0
 11
327.1260136525398
 21
-30.0
 31
0.0
  0
LINE
  5
B37
330
922
100
AcDbEntity
  8
cotas
100
AcDbLine
 10
0.0
 20
-25.0
 30
0.0
 11
327.1260136525398
 21
-25.0
 31
0.0
  0
LINE
  5
B38
330
922
100
AcDbEntity
  8
cotas
100
AcDbLine
 10
0.0
 20
-20.0
 30
0.0
 11
327.1260136525398
 21
-20.0
 31
0.0
  0
LINE
  5
B39
330
922
100
AcDbEntity
  8
cotas
100
AcDbLine
 10
0.0
 20
-15.0
 30
0.0
 11
327.1260136525398
 21
-15.0
 31
0.0
  0
LINE
  5
B3A
330
922
100
AcDbEntity
  8
cotas
100
AcDbLine
 10
0.0
 20
-10.0
 30
0.0
 11
327.1260136525398
 21
-10.0
 31
0.0
  0
LINE
  5
B3B
330
922
100
AcDbEntity
  8
cotas
100
AcDbLine
 10
0.0
 20
0.0
 30
0.0
 11
0.0
 21
-30.0
 31
0.0
  0
LINE
  5
B3C
330
922
100
AcDbEntity
  8
cotas
100
AcDbLine
 10
327.1260136525398
 20
-30.0
 30
0.0
 11
327.1260136525398
 21
0.0
 31
0.0
  0
ENDBLK
  5
92B
330
922
100
AcDbEntity
  8
0
100
AcDbBlockEnd
  0
BLOCK
  5
AAD
330
AA8
100
AcDbEntity
  8
0
100
AcDbBlockBegin
  2
_CLOSED
 70
     0
 10
0.0
 20
0.0
 30
0.0
  3
_CLOSED
  1

  0
LINE
  5
AA9
330
AA8
100
AcDbEntity
  8
0
100
AcDbLine
 10
-1.0
 20
0.166667
 30
0.0
 11
0.0
 21
0.0
 31
0.0
  0
LINE
  5
AAA
330
AA8
100
AcDbEntity
  8
0
100
AcDbLine
 10
0.0
 20
0.0
 30
0.0
 11
-1.0
 21
-0.166667
 31
0.0
  0
LINE
  5
AAB
330
AA8
100
AcDbEntity
  8
0
100
AcDbLine
 10
-1.0
 20
0.166667
 30
0.0
 11
-1.0
 21
-0.166667
 31
0.0
  0
LINE
  5
AAC
330
AA8
100
AcDbEntity
  8
0
100
AcDbLine
 10
0.0
 20
0.0
 30
0.0
 11
-1.0
 21
0.0
 31
0.0
  0
ENDBLK
  5
AAE
330
AA8
100
AcDbEntity
  8
0
100
AcDbBlockEnd
  0
ENDSEC
  0
SECTION
  2
ENTITIES
  0
LWPOLYLINE
  5
1103
330
1F
100
AcDbEntity
  8
Sanindusa
100
AcDbPolyline
 90
       83
 70
   128
 43
0.0
 10
1504.913678964162
 20
1016.108536763292
 10
1504.914040648114
 20
1016.108908591611
 10
1504.914551198856
 20
1016.109435543683
 10
1504.915103200423
 20
1016.110008090693
 10
1504.915696095099
 20
1016.110626678093
 10
1504.916329250646
 20
1016.111291793091
 10
1504.917001959961
 20
1016.112003963754
 10
1504.917671754846
 20
1016.112719047928
 10
1504.918375300138
 20
1016.113476976099
 10
1504.919111818615
 20
1016.114278286207
 10
1504.919880472804
 20
1016.115123545549
 10
1504.920680364721
 20
1016.116013350045
 10
1504.921465767466
 20
1016.116897596918
 10
1504.922277458744
 20
1016.117822901069
 10
1504.923114524609
 20
1016.118789835905
 10
1504.923758398371
 20
1016.11954271379
 10
1504.924415579619
 20
1016.120319600782
 10
1504.925085627777
 20
1016.121120761201
 10
1504.925768086444
 20
1016.12194646547
 10
1504.926462483345
 20
1016.122796989995
 10
1504.927168330279
 20
1016.123672617034
 10
1504.927525390581
 20
1016.124119933774
 10
1504.928704553292
 20
1016.125618338965
 10
1504.930289347672
 20
1016.127682643917
 10
1504.931835149126
 20
1016.129754387998
 10
1504.933627427409
 20
1016.132232859843
 10
1504.936149125325
 20
1016.13586972009
 10
1504.938970786903
 20
1016.140168045686
 10
1504.941961351913
 20
1016.145022545916
 10
1504.944797051289
 20
1016.149953300762
 10
1504.947451891319
 20
1016.154908034859
 10
1504.949929200673
 20
1016.159880696777
 10
1504.953471543002
 20
1016.167717216812
 10
1504.956597065357
 20
1016.175562390291
 10
1504.95926796479
 20
1016.183241063931
 10
1504.961667388016
 20
1016.191274472789
 10
1504.963495888359
 20
1016.19851068377
 10
1504.964860134662
 20
1016.204918537398
 10
1504.965285479641
 20
1016.207177489834
 10
1504.965691486509
 20
1016.209489658736
 10
1504.966077216103
 20
1016.211861751841
 10
1504.966441635444
 20
1016.214301469796
 10
1504.966892554365
 20
1016.217675231435
 10
1504.967300124674
 20
1016.221199726265
 10
1504.967606830458
 20
1016.224289520099
 10
1504.967763423518
 20
1016.226072413705
 10
1504.967869500324
 20
1016.227383504212
 10
1504.967940487918
 20
1016.228316379837
 10
1504.968022262783
 20
1016.229454131649
 10
1504.968130082487
 20
1016.231072715777
 10
1504.968248835169
 20
1016.23303843917
 10
1504.968352889358
 20
1016.23494846264
 10
1504.968441764748
 20
1016.236741696731
 10
1504.968518260006
 20
1016.238419207392
 10
1504.968584328433
 20
1016.239976365744
 10
1504.96864093359
 20
1016.241395902818
 10
1504.968688850703
 20
1016.242662353614
 10
1504.968823901721
 20
1016.246568694009
 10
1504.968952946905
 20
1016.250791396778
 10
1504.969093255204
 20
1016.25595085521
 10
1504.969217165235
 20
1016.261012177816
 10
1504.969325802269
 20
1016.265839719964
 10
1504.969380505231
 20
1016.268406679477
 10
1504.969448555753
 20
1016.271725016403
 10
1504.969529988536
 20
1016.27587447873
 10
1504.969624778719
 20
1016.280943193821
 10
1504.969732899819
 20
1016.287027683765
 10
1504.969854323699
 20
1016.294226300968
 10
1504.969989020547
 20
1016.302627642813
 10
1504.970136958844
 20
1016.31230748185
 10
1504.970264821038
 20
1016.321010841422
 10
1504.970401118672
 20
1016.330590008129
 10
1504.970545833172
 20
1016.341068498127
 10
1504.970698945218
 20
1016.352464611725
 10
1504.970860434729
 20
1016.364787026706
 10
1504.970965610624
 20
1016.372986090401
 10
1504.971074045592
 20
1016.382119028818
 10
1504.971148143523
 20
1016.388794097677
 10
1504.971223685928
 20
1016.395881247946
 10
1504.971300671163
 20
1016.403322389815
 10
1504.971458963424
 20
1016.418866431952
 10
1504.971623006659
 20
1016.434983286837
 10
1504.971742682189
 20
1016.451740250537
  0
LWPOLYLINE
  5
1105
330
1F
100
AcDbEntity
  8
Sanindusa
100
AcDbPolyline
 90
       80
 70
   128
 43
0.0
 10
1504.586847111267
 20
1016.4517411243
 10
1504.586962668228
 20
1016.435231142624
 10
1504.587123147302
 20
1016.419461277122
 10
1504.587276847527
 20
1016.404359468129
 10
1504.587364241863
 20
1016.395895733237
 10
1504.587449275897
 20
1016.387933337574
 10
1504.587531947384
 20
1016.380549327972
 10
1504.587612254127
 20
1016.373804347246
 10
1504.587729420393
 20
1016.364643666305
 10
1504.587841145739
 20
1016.356087094204
 10
1504.587947423116
 20
1016.348080042228
 10
1504.588048245714
 20
1016.340615305389
 10
1504.588143606949
 20
1016.333682881416
 10
1504.588233500473
 20
1016.32727047403
 10
1504.588358075465
 20
1016.318595696089
 10
1504.588470314657
 20
1016.311010145139
 10
1504.588570199447
 20
1016.304464704511
 10
1504.588657712337
 20
1016.298904044688
 10
1504.588732836917
 20
1016.294270104232
 10
1504.588796209698
 20
1016.290467399417
 10
1504.588859241727
 20
1016.286786590957
 10
1504.588926144292
 20
1016.282995101541
 10
1504.58901752418
 20
1016.278014559866
 10
1504.589115492884
 20
1016.272936294653
 10
1504.589220223809
 20
1016.267815341246
 10
1504.589331915331
 20
1016.262713876691
 10
1504.589444826221
 20
1016.257943404856
 10
1504.589547157744
 20
1016.253961314402
 10
1504.589638606533
 20
1016.250675220238
 10
1504.58968953424
 20
1016.248954889769
 10
1504.589736349364
 20
1016.247441475347
 10
1504.589787065348
 20
1016.24587427474
 10
1504.589854129063
 20
1016.243914661371
 10
1504.589938861103
 20
1016.241615107068
 10
1504.590037625586
 20
1016.239168515395
 10
1504.5901384155
 20
1016.236911798907
 10
1504.590240511508
 20
1016.23484801968
 10
1504.590354927813
 20
1016.232767790044
 10
1504.590479335097
 20
1016.230742116775
 10
1504.590629221537
 20
1016.228567702936
 10
1504.590794995146
 20
1016.22643103495
 10
1504.591136527835
 20
1016.222666865734
 10
1504.59167198612
 20
1016.21786559788
 10
1504.592030635763
 20
1016.21512674892
 10
1504.592456301983
 20
1016.212212515139
 10
1504.59295886506
 20
1016.209119300177
 10
1504.593548914086
 20
1016.205844410009
 10
1504.594491328156
 20
1016.201192384403
 10
1504.595637986155
 20
1016.19621293656
 10
1504.596984449236
 20
1016.191036385777
 10
1504.599594148019
 20
1016.182396547692
 10
1504.60255250582
 20
1016.174075218813
 10
1504.605830274189
 20
1016.166061534968
 10
1504.609382758153
 20
1016.158390375424
 10
1504.612879467
 20
1016.151615511011
 10
1504.616110806802
 20
1016.145895232062
 10
1504.618974145912
 20
1016.141185635506
 10
1504.620440164212
 20
1016.138888810019
 10
1504.621737877612
 20
1016.136914779008
 10
1504.622940512916
 20
1016.135133403626
 10
1504.623839746426
 20
1016.13383100835
 10
1504.624735896782
 20
1016.132557020358
 10
1504.625628276933
 20
1016.131311126863
 10
1504.626516215452
 20
1016.130093016648
 10
1504.627692092899
 20
1016.128511553437
 10
1504.628857398053
 20
1016.126978204225
 10
1504.630010667738
 20
1016.125492247003
 10
1504.63115048718
 20
1016.124052966885
 10
1504.632275489714
 20
1016.122659656773
 10
1504.633384356509
 20
1016.12131161806
 10
1504.634605563088
 20
1016.119854710074
 10
1504.635803219866
 20
1016.118452772314
 10
1504.636975685029
 20
1016.117104868027
 10
1504.638121390149
 20
1016.115810078734
 10
1504.639238839688
 20
1016.114567505565
 10
1504.640326610509
 20
1016.113376270605
 10
1504.641568690933
 20
1016.112037060761
 10
1504.642765588282
 20
1016.110766615518
 10
1504.643915354527
 20
1016.109563625178
 10
1504.644786300711
 20
1016.108664219749
  0
ARC
  5
1109
330
1F
100
AcDbEntity
  8
Sanindusa
100
AcDbCircle
 10
1504.780088549189
 20
1015.68854500299
 30
0.0
 40
0.3989045879188473
100
AcDbArc
 50
80.64072462185505
 51
90.11410838187043
  0
LWPOLYLINE
  5
110A
330
1F
100
AcDbEntity
  8
Sanindusa
100
AcDbPolyline
 90
        3
 70
   128
 43
0.0
 10
1504.779294104513
 20
1016.089863670668
 10
1504.799436824369
 20
1016.089471614211
 10
1504.819584264507
 20
1016.088104753301
  0
LWPOLYLINE
  5
110B
330
1F
100
AcDbEntity
  8
Sanindusa
100
AcDbPolyline
 90
       25
 70
   128
 43
0.0
 10
1504.779294104513
 20
1016.095906933657
 10
1504.787879257552
 20
1016.095889494226
 10
1504.796379372852
 20
1016.095838483801
 10
1504.804638630016
 20
1016.095755864179
 10
1504.81366463444
 20
1016.095625426231
 10
1504.822244831484
 20
1016.095460378913
 10
1504.830276675828
 20
1016.095265904534
 10
1504.838010119978
 20
1016.095036799631
 10
1504.845163196381
 20
1016.094783120865
 10
1504.851727029109
 20
1016.094508992832
 10
1504.857692742233
 20
1016.09421854013
 10
1504.864315186309
 20
1016.093838619338
 10
1504.870144429494
 20
1016.093439140517
 10
1504.875210601601
 20
1016.093023834152
 10
1504.87954383244
 20
1016.092596430726
 10
1504.88396775811
 20
1016.092044665978
 10
1504.887322900857
 20
1016.091474651653
 10
1504.889665271701
 20
1016.09089157512
 10
1504.891050881663
 20
1016.090300623746
 10
1504.891535741762
 20
1016.089706984899
 10
1504.89117586302
 20
1016.089115845946
 10
1504.890933239407
 20
1016.08892923247
 10
1504.889955546585
 20
1016.088182754161
 10
1504.885921827853
 20
1016.085196476983
 10
1504.881640797436
 20
1016.082191652514
  0
LINE
  5
1113
330
1F
100
AcDbEntity
  8
Sanindusa
100
AcDbLine
 10
1504.70150846274
 20
1016.082055695783
 30
0.0
 11
1504.712729845801
 21
1016.082055695783
 31
0.0
  0
LWPOLYLINE
  5
1115
330
1F
100
AcDbEntity
  8
Sanindusa
100
AcDbPolyline
 90
        5
 70
   128
 43
0.0
 10
1504.70922889878
 20
1016.086087049936
 10
1504.704932272839
 20
1016.089214741453
 10
1504.704106015049
 20
1016.089748225582
 10
1504.703238623822
 20
1016.090283366329
 10
1504.70297805408
 20
1016.090505941641
  0
LWPOLYLINE
  5
1116
330
1F
100
AcDbEntity
  8
Sanindusa
100
AcDbPolyline
 90
       25
 70
   128
 43
0.0
 10
1504.779294104513
 20
1016.095906933657
 10
1504.770708951474
 20
1016.095889494226
 10
1504.762208836175
 20
1016.095838483801
 10
1504.75394957901
 20
1016.095755864179
 10
1504.744923574586
 20
1016.095625426231
 10
1504.736343377542
 20
1016.095460378913
 10
1504.728311533199
 20
1016.095265904534
 10
1504.720578089049
 20
1016.095036799631
 10
1504.713425012646
 20
1016.094783120865
 10
1504.706861179918
 20
1016.094508992832
 10
1504.700895466793
 20
1016.09421854013
 10
1504.694273022718
 20
1016.093838619338
 10
1504.688443779532
 20
1016.093439140517
 10
1504.683377607426
 20
1016.093023834152
 10
1504.679044376586
 20
1016.092596430726
 10
1504.674620450917
 20
1016.092044665978
 10
1504.67126530817
 20
1016.091474651653
 10
1504.668922937326
 20
1016.09089157512
 10
1504.667537327364
 20
1016.090300623746
 10
1504.667052467264
 20
1016.089706984899
 10
1504.667412346007
 20
1016.089115845946
 10
1504.66765496962
 20
1016.08892923247
 10
1504.668632662441
 20
1016.088182754161
 10
1504.672666381174
 20
1016.085196476983
 10
1504.67694741159
 20
1016.082191652514
  0
LWPOLYLINE
  5
1118
330
1F
100
AcDbEntity
  8
Sanindusa
100
AcDbPolyline
 90
        5
 70
   128
 43
0.0
 10
1504.67694741159
 20
1016.082191652514
 10
1504.666612995113
 20
1016.089435710382
 10
1504.656766906479
 20
1016.097376566694
 10
1504.647473800972
 20
1016.105958041895
 10
1504.644852827091
 20
1016.108727186465
  0
LWPOLYLINE
  5
111A
330
1F
100
AcDbEntity
  8
Sanindusa
100
AcDbPolyline
 90
        5
 70
   128
 43
0.0
 10
1504.701508462741
 20
1016.082057066116
 10
1504.699743897001
 20
1016.08205403359
 10
1504.697935070438
 20
1016.082043736986
 10
1504.696151514622
 20
1016.082023629997
 10
1504.694752662235
 20
1016.081995403883
  0
LWPOLYLINE
  5
111B
330
1F
100
AcDbEntity
  8
Sanindusa
100
AcDbPolyline
 90
        4
 70
   128
 43
0.0
 10
1504.694752662235
 20
1016.081995403883
 10
1504.693772663059
 20
1016.081956508765
 10
1504.693548652367
 20
1016.081936084137
 10
1504.693493197914
 20
1016.081913862063
  0
LINE
  5
111C
330
1F
100
AcDbEntity
  8
Sanindusa
100
AcDbLine
 10
1504.693493197914
 20
1016.081913862063
 30
0.0
 11
1504.693571131537
 21
1016.081868829439
 31
0.0
  0
ARC
  5
111F
330
1F
100
AcDbEntity
  8
Sanindusa
100
AcDbCircle
 10
1504.678039045354
 20
1016.083867459107
 30
0.0
 40
0.002
100
AcDbArc
 50
236.9194585401229
 51
270.0
  0
LINE
  5
1120
330
1F
100
AcDbEntity
  8
Sanindusa
100
AcDbLine
 10
1504.678039045354
 20
1016.081867459107
 30
0.0
 11
1504.693571131537
 21
1016.081867459107
 31
0.0
  0
ARC
  5
1122
330
1F
100
AcDbEntity
  8
Sanindusa
100
AcDbCircle
 10
1504.778499659838
 20
1015.68854500299
 30
0.0
 40
0.3989045879188256
100
AcDbArc
 50
89.88589161812958
 51
99.35927537814494
  0
LWPOLYLINE
  5
1124
330
1F
100
AcDbEntity
  8
Sanindusa
100
AcDbPolyline
 90
        3
 70
   128
 43
0.0
 10
1504.779294104513
 20
1016.089863670668
 10
1504.759151384657
 20
1016.089471614211
 10
1504.739003944519
 20
1016.088104753301
  0
LWPOLYLINE
  5
1128
330
1F
100
AcDbEntity
  8
Sanindusa
100
AcDbPolyline
 90
        3
 70
   128
 43
0.0
 10
1504.712729845801
 20
1016.082055695783
 10
1504.7127736027
 20
1016.082055887164
 10
1504.712904841791
 20
1016.08205875784
  0
LWPOLYLINE
  5
1133
330
1F
100
AcDbEntity
  8
Sanindusa
100
AcDbPolyline
 90
        4
 70
   128
 43
0.0
 10
1504.71203230256
 20
1016.085485277636
 10
1504.710605894884
 20
1016.08567927761
 10
1504.709680667144
 20
1016.085878558988
 10
1504.70922889878
 20
1016.086087049936
  0
LWPOLYLINE
  5
1134
330
1F
100
AcDbEntity
  8
Sanindusa
100
AcDbPolyline
 90
        8
 70
   128
 43
0.0
 10
1504.739003944519
 20
1016.088104753301
 10
1504.735755845359
 20
1016.087771458879
 10
1504.730974152312
 20
1016.087267974099
 10
1504.726393084625
 20
1016.086777579151
 10
1504.722143499934
 20
1016.086325296089
 10
1504.718344699791
 20
1016.085938791055
 10
1504.715112122077
 20
1016.085646286353
 10
1504.712525692096
 20
1016.085469357334
  0
LINE
  5
1135
330
1F
100
AcDbEntity
  8
Sanindusa
100
AcDbLine
 10
1504.712525692096
 20
1016.085469357334
 30
0.0
 11
1504.71203230256
 21
1016.085485277636
 31
0.0
  0
LINE
  5
1138
330
1F
100
AcDbEntity
  8
Sanindusa
100
AcDbLine
 10
1504.713627926273
 20
1016.082139373436
 30
0.0
 11
1504.713507863624
 21
1016.082119643537
 31
0.0
  0
LINE
  5
1139
330
1F
100
AcDbEntity
  8
Sanindusa
100
AcDbLine
 10
1504.713507863624
 20
1016.082119643537
 30
0.0
 11
1504.712904841791
 21
1016.08205875784
 31
0.0
  0
LWPOLYLINE
  5
113F
330
1F
100
AcDbEntity
  8
Sanindusa
100
AcDbPolyline
 90
        5
 70
   128
 43
0.0
 10
1504.857079746286
 20
1016.082057066116
 10
1504.858844312026
 20
1016.08205403359
 10
1504.860653138589
 20
1016.082043736986
 10
1504.862436694405
 20
1016.082023629997
 10
1504.863835546791
 20
1016.081995403883
  0
LWPOLYLINE
  5
1141
330
1F
100
AcDbEntity
  8
Sanindusa
100
AcDbPolyline
 90
        8
 70
   128
 43
0.0
 10
1504.819584264507
 20
1016.088104753301
 10
1504.822832363667
 20
1016.087771458879
 10
1504.827614056714
 20
1016.087267974099
 10
1504.832195124402
 20
1016.086777579151
 10
1504.836444709092
 20
1016.086325296089
 10
1504.840243509236
 20
1016.085938791055
 10
1504.843476086949
 20
1016.085646286353
 10
1504.846062516931
 20
1016.085469357334
  0
LWPOLYLINE
  5
114F
330
1F
100
AcDbEntity
  8
Sanindusa
100
AcDbPolyline
 90
        5
 70
   128
 43
0.0
 10
1504.849359310246
 20
1016.086087049936
 10
1504.853655936187
 20
1016.089214741453
 10
1504.854482193977
 20
1016.089748225582
 10
1504.855349585205
 20
1016.090283366329
 10
1504.855606218253
 20
1016.090502578968
  0
LWPOLYLINE
  5
1152
330
1F
100
AcDbEntity
  8
Sanindusa
100
AcDbPolyline
 90
        4
 70
   128
 43
0.0
 10
1504.846555906466
 20
1016.085485277636
 10
1504.847982314143
 20
1016.08567927761
 10
1504.848907541883
 20
1016.085878558988
 10
1504.849359310246
 20
1016.086087049936
  0
LINE
  5
1153
330
1F
100
AcDbEntity
  8
Sanindusa
100
AcDbLine
 10
1504.846062516931
 20
1016.085469357334
 30
0.0
 11
1504.846555906466
 21
1016.085485277636
 31
0.0
  0
LINE
  5
1155
330
1F
100
AcDbEntity
  8
Sanindusa
100
AcDbLine
 10
1504.844960282754
 20
1016.082139373436
 30
0.0
 11
1504.845080345402
 21
1016.082119643537
 31
0.0
  0
LWPOLYLINE
  5
1156
330
1F
100
AcDbEntity
  8
Sanindusa
100
AcDbPolyline
 90
        3
 70
   128
 43
0.0
 10
1504.84568352596
 20
1016.082060265747
 10
1504.845770929337
 20
1016.082057901184
 10
1504.845858363226
 20
1016.082057066116
  0
LINE
  5
1157
330
1F
100
AcDbEntity
  8
Sanindusa
100
AcDbLine
 10
1504.845080345402
 20
1016.082119643537
 30
0.0
 11
1504.84568352596
 21
1016.082060265747
 31
0.0
  0
LINE
  5
1159
330
1F
100
AcDbEntity
  8
Sanindusa
100
AcDbLine
 10
1504.845858363226
 20
1016.082057066116
 30
0.0
 11
1504.857079746286
 21
1016.082057066116
 31
0.0
  0
LWPOLYLINE
  5
115A
330
1F
100
AcDbEntity
  8
Sanindusa
100
AcDbPolyline
 90
        5
 70
   128
 43
0.0
 10
1504.881640797436
 20
1016.082191652514
 10
1504.891975213913
 20
1016.089435710382
 10
1504.901821302548
 20
1016.097376566694
 10
1504.911114408054
 20
1016.105958041895
 10
1504.913613654968
 20
1016.108598577945
  0
LINE
  5
115C
330
1F
100
AcDbEntity
  8
Sanindusa
100
AcDbLine
 10
1504.865017077489
 20
1016.081867459107
 30
0.0
 11
1504.880549163672
 21
1016.081867459107
 31
0.0
  0
ARC
  5
115D
330
1F
100
AcDbEntity
  8
Sanindusa
100
AcDbCircle
 10
1504.880549163672
 20
1016.083867459107
 30
0.0
 40
0.002
100
AcDbArc
 50
270.0
 51
303.0805414598772
  0
LINE
  5
115E
330
1F
100
AcDbEntity
  8
Sanindusa
100
AcDbLine
 10
1504.865095011113
 20
1016.081913862063
 30
0.0
 11
1504.865017077489
 21
1016.081868829439
 31
0.0
  0
LWPOLYLINE
  5
115F
330
1F
100
AcDbEntity
  8
Sanindusa
100
AcDbPolyline
 90
        4
 70
   128
 43
0.0
 10
1504.863835546791
 20
1016.081995403883
 10
1504.864815545967
 20
1016.081956508765
 10
1504.86503955666
 20
1016.081936084137
 10
1504.865095011113
 20
1016.081913862063
  0
LINE
  5
1165
330
1F
100
AcDbEntity
  8
Sanindusa
100
AcDbLine
 10
1504.779294104513
 20
1016.456792013761
 30
0.0
 11
1504.966742949837
 21
1016.456792013761
 31
0.0
  0
LINE
  5
1168
330
1F
100
AcDbEntity
  8
Sanindusa
100
AcDbLine
 10
1504.779294104513
 20
1016.456792013761
 30
0.0
 11
1504.59184525919
 21
1016.456792013761
 31
0.0
  0
ARC
  5
1169
330
1F
100
AcDbEntity
  8
Sanindusa
100
AcDbCircle
 10
1504.591845258887
 20
1016.451792013761
 30
0.0
 40
0.005
100
AcDbArc
 50
89.99999653232622
 51
180.5640390087581
  0
ARC
  5
116F
330
1F
100
AcDbEntity
  8
Sanindusa
100
AcDbCircle
 10
1504.966742950139
 20
1016.451792013761
 30
0.0
 40
0.005
100
AcDbArc
 50
359.4068265552788
 51
90.00000346767377
  0
LWPOLYLINE
  5
1176
330
1F
100
AcDbEntity
  8
Sanindusa
100
AcDbPolyline
 90
       44
 70
   128
 43
0.0
 10
1504.261639075291
 20
1016.321835347584
 10
1504.253355764153
 20
1016.321656048905
 10
1504.240402527303
 20
1016.320645276672
 10
1504.227503798285
 20
1016.318748504023
 10
1504.21474653066
 20
1016.315986054695
 10
1504.202217677991
 20
1016.312378252425
 10
1504.19000419384
 20
1016.307945420952
 10
1504.175238784063
 20
1016.301259644669
 10
1504.161036190681
 20
1016.293330178632
 10
1504.147542348922
 20
1016.284246835026
 10
1504.134903194014
 20
1016.274099426039
 10
1504.12318497163
 20
1016.262921681462
 10
1504.112407921473
 20
1016.250756711556
 10
1504.102681369219
 20
1016.237736766635
 10
1504.094114640543
 20
1016.223994097014
 10
1504.086755026992
 20
1016.209573953378
 10
1504.080611419644
 20
1016.194532826018
 10
1504.075742514548
 20
1016.179032152749
 10
1504.072207007754
 20
1016.163233371381
 10
1504.070535771174
 20
1016.152003475191
 10
1504.069528615428
 20
1016.140684685289
 10
1504.069190491366
 20
1016.129336127568
 10
1504.069733620015
 20
1016.115018753418
 10
1504.071353045988
 20
1016.10072251344
 10
1504.074026430509
 20
1016.086564554383
 10
1504.0777314348
 20
1016.072662022998
 10
1504.082445720084
 20
1016.059132066033
 10
1504.087583771451
 20
1016.047232641403
 10
1504.093534175339
 20
1016.03566805352
 10
1504.100251584256
 20
1016.02451394966
 10
1504.107690650711
 20
1016.013845977099
 10
1504.115806027214
 20
1016.003739783113
 10
1504.126891519863
 20
1015.991926092836
 10
1504.138973582524
 20
1015.981047104369
 10
1504.151920007858
 20
1015.971212613938
 10
1504.165598588527
 20
1015.962532417767
 10
1504.1770393819
 20
1015.956452841455
 10
1504.188904951375
 20
1015.951141464553
 10
1504.201112760012
 20
1015.946629105628
 10
1504.213580270868
 20
1015.942946583249
 10
1504.226224947005
 20
1015.940124715982
 10
1504.237950777585
 20
1015.938301295919
 10
1504.249777989183
 20
1015.937202836374
 10
1504.261639075291
 20
1015.936835347584
  0
LWPOLYLINE
  5
1179
330
1F
100
AcDbEntity
  8
Sanindusa
100
AcDbPolyline
 90
       44
 70
   128
 43
0.0
 10
1504.261639075291
 20
1016.321835347584
 10
1504.269922386429
 20
1016.321656048905
 10
1504.282875623278
 20
1016.320645276672
 10
1504.295774352296
 20
1016.318748504023
 10
1504.308531619921
 20
1016.315986054695
 10
1504.32106047259
 20
1016.312378252425
 10
1504.333273956741
 20
1016.307945420952
 10
1504.348039366518
 20
1016.301259644669
 10
1504.3622419599
 20
1016.293330178632
 10
1504.375735801659
 20
1016.284246835026
 10
1504.388374956567
 20
1016.274099426039
 10
1504.400093178951
 20
1016.262921681462
 10
1504.410870229108
 20
1016.250756711556
 10
1504.420596781363
 20
1016.237736766635
 10
1504.429163510038
 20
1016.223994097014
 10
1504.436523123589
 20
1016.209573953378
 10
1504.442666730937
 20
1016.194532826018
 10
1504.447535636033
 20
1016.179032152749
 10
1504.451071142827
 20
1016.163233371381
 10
1504.452742379407
 20
1016.152003475191
 10
1504.453749535153
 20
1016.140684685289
 10
1504.454087659215
 20
1016.129336127568
 10
1504.453544530567
 20
1016.115018753418
 10
1504.451925104593
 20
1016.10072251344
 10
1504.449251720072
 20
1016.086564554383
 10
1504.445546715781
 20
1016.072662022998
 10
1504.440832430498
 20
1016.059132066033
 10
1504.43569437913
 20
1016.047232641403
 10
1504.429743975242
 20
1016.03566805352
 10
1504.423026566326
 20
1016.02451394966
 10
1504.41558749987
 20
1016.013845977099
 10
1504.407472123368
 20
1016.003739783113
 10
1504.396386630719
 20
1015.991926092836
 10
1504.384304568058
 20
1015.981047104369
 10
1504.371358142724
 20
1015.971212613938
 10
1504.357679562055
 20
1015.962532417767
 10
1504.346238768681
 20
1015.956452841455
 10
1504.334373199206
 20
1015.951141464553
 10
1504.32216539057
 20
1015.946629105628
 10
1504.309697879713
 20
1015.942946583249
 10
1504.297053203577
 20
1015.940124715982
 10
1504.285327372996
 20
1015.938301295919
 10
1504.273500161399
 20
1015.937202836374
 10
1504.261639075291
 20
1015.936835347584
  0
CIRCLE
  5
117B
330
1F
100
AcDbEntity
  8
Sanindusa
100
AcDbCircle
 10
1504.261639075291
 20
1016.129335347584
 30
0.0
 40
0.1425
  0
LWPOLYLINE
  5
1180
330
1F
100
AcDbEntity
  8
Sanindusa
100
AcDbPolyline
 90
        9
 70
   128
 43
0.0
 10
1504.074118838783
 20
1016.47482766289
 10
1504.074155997943
 20
1016.475219162382
 10
1504.074269046167
 20
1016.475595822378
 10
1504.074453612653
 20
1016.475943080013
 10
1504.074702561477
 20
1016.476247509209
 10
1504.075006267489
 20
1016.476497339768
 10
1504.075352988455
 20
1016.476682912451
 10
1504.075729319044
 20
1016.476797052431
 10
1504.076118833212
 20
1016.476835347584
  0
LWPOLYLINE
  5
1185
330
1F
100
AcDbEntity
  8
Sanindusa
100
AcDbPolyline
 90
       37
 70
   128
 43
0.0
 10
1504.453030699067
 20
1016.148763231892
 10
1504.453007345934
 20
1016.149706671358
 10
1504.452953769323
 20
1016.151991274242
 10
1504.452909066305
 20
1016.153981585483
 10
1504.452871149703
 20
1016.155728879708
 10
1504.452832418075
 20
1016.157569192169
 10
1504.452791548257
 20
1016.159571311454
 10
1504.452711767304
 20
1016.16365567709
 10
1504.452624934486
 20
1016.168362098652
 10
1504.452531060333
 20
1016.173751217936
 10
1504.452430550377
 20
1016.179857730829
 10
1504.452330520029
 20
1016.186266992168
 10
1504.452170778299
 20
1016.197154528264
 10
1504.452019854953
 20
1016.208134529717
 10
1504.451877856119
 20
1016.219031007896
 10
1504.451744483187
 20
1016.229712365217
 10
1504.451616521456
 20
1016.240323735228
 10
1504.451493348262
 20
1016.250837372076
 10
1504.451413318666
 20
1016.257811094792
 10
1504.45133552287
 20
1016.264691540444
 10
1504.451259979655
 20
1016.27146361909
 10
1504.451186699273
 20
1016.278113704828
 10
1504.451108769422
 20
1016.2852661042
 10
1504.451021509242
 20
1016.293365469319
 10
1504.45092361935
 20
1016.30255718842
 10
1504.450815094125
 20
1016.312864970021
 10
1504.450695926696
 20
1016.324306406319
 10
1504.450586463245
 20
1016.334910796711
 10
1504.450469326696
 20
1016.346338518708
 10
1504.450344510743
 20
1016.35856632402
 10
1504.450212008447
 20
1016.371552160221
 10
1504.450071812237
 20
1016.385295858416
 10
1504.449923913916
 20
1016.39979890169
 10
1504.449739705171
 20
1016.417868776009
 10
1504.449544770153
 20
1016.436998358509
 10
1504.449339092158
 20
1016.457190591473
 10
1504.449159218307
 20
1016.474857293644
  0
LWPOLYLINE
  5
1189
330
1F
100
AcDbEntity
  8
Sanindusa
100
AcDbPolyline
 90
       11
 70
   128
 43
0.0
 10
1504.311307656388
 20
1016.208155332928
 10
1504.310481772483
 20
1016.210511637967
 10
1504.309360166576
 20
1016.212589620963
 10
1504.307873630317
 20
1016.214508469397
 10
1504.306503433935
 20
1016.215795153778
 10
1504.304944331596
 20
1016.216891205069
 10
1504.304127784511
 20
1016.217340839586
 10
1504.302332280994
 20
1016.218082432631
 10
1504.300462302023
 20
1016.218550014919
 10
1504.299375538348
 20
1016.218692362341
 10
1504.297652572432
 20
1016.218738466558
  0
LWPOLYLINE
  5
118B
330
1F
100
AcDbEntity
  8
Sanindusa
100
AcDbPolyline
 90
        8
 70
   128
 43
0.0
 10
1504.292547244672
 20
1016.091801790009
 10
1504.296251206301
 20
1016.09443178552
 10
1504.300968798129
 20
1016.098952822773
 10
1504.304869680488
 20
1016.104187624698
 10
1504.307967296087
 20
1016.110212749337
 10
1504.310062888225
 20
1016.11664637243
 10
1504.311010545735
 20
1016.122053243246
 10
1504.311292060507
 20
1016.127530437816
  0
ARC
  5
118E
330
1F
100
AcDbEntity
  8
Sanindusa
100
AcDbCircle
 10
1509.393776153905
 20
1016.126642007865
 30
0.0
 40
5.082484171047852
100
AcDbArc
 50
179.141234745754
 51
179.9899845655665
  0
LWPOLYLINE
  5
1195
330
1F
100
AcDbEntity
  8
Sanindusa
100
AcDbPolyline
 90
        3
 70
   128
 43
0.0
 10
1504.311862858578
 20
1016.202816857587
 10
1504.311763759951
 20
1016.20574448004
 10
1504.311307656388
 20
1016.208155332928
  0
ARC
  5
1197
330
1F
100
AcDbEntity
  8
Sanindusa
100
AcDbCircle
 10
1499.129501996682
 20
1016.126642007865
 30
0.0
 40
5.082484171042795
100
AcDbArc
 50
0.0100154344334769
 51
0.8587652542459967
  0
LWPOLYLINE
  5
119B
330
1F
100
AcDbEntity
  8
Sanindusa
100
AcDbPolyline
 90
        8
 70
   128
 43
0.0
 10
1504.23073090591
 20
1016.091801790009
 10
1504.22702694428
 20
1016.09443178552
 10
1504.222309352452
 20
1016.098952822773
 10
1504.218408470094
 20
1016.104187624698
 10
1504.215310854494
 20
1016.110212749337
 10
1504.213215262357
 20
1016.11664637243
 10
1504.212267604846
 20
1016.122053243246
 10
1504.211986090075
 20
1016.127530437816
  0
LWPOLYLINE
  5
119D
330
1F
100
AcDbEntity
  8
Sanindusa
100
AcDbPolyline
 90
        3
 70
   128
 43
0.0
 10
1504.251104729205
 20
1016.086226600097
 10
1504.247922468237
 20
1016.086294544923
 10
1504.244731660103
 20
1016.086636443504
  0
LINE
  5
11A2
330
1F
100
AcDbEntity
  8
Sanindusa
100
AcDbLine
 10
1504.272173421377
 20
1016.086226600097
 30
0.0
 11
1504.278546481466
 21
1016.086636442073
 31
0.0
  0
LWPOLYLINE
  5
11A3
330
1F
100
AcDbEntity
  8
Sanindusa
100
AcDbPolyline
 90
        9
 70
   128
 43
0.0
 10
1504.251104729205
 20
1016.086226600097
 10
1504.253737828451
 20
1016.086244108994
 10
1504.256371345355
 20
1016.08625661601
 10
1504.259005140708
 20
1016.086264120485
 10
1504.261639075291
 20
1016.08626662202
 10
1504.264273009873
 20
1016.086264120485
 10
1504.266906805227
 20
1016.08625661601
 10
1504.26954032213
 20
1016.086244108994
 10
1504.272173421377
 20
1016.086226600097
  0
LWPOLYLINE
  5
11A4
330
1F
100
AcDbEntity
  8
Sanindusa
100
AcDbPolyline
 90
        5
 70
   128
 43
0.0
 10
1504.292547250896
 20
1016.091801793819
 10
1504.292137756239
 20
1016.091554579597
 10
1504.286321776365
 20
1016.088727017746
 10
1504.279922333165
 20
1016.086880660287
 10
1504.278546490478
 20
1016.086636443504
  0
LWPOLYLINE
  5
11A7
330
1F
100
AcDbEntity
  8
Sanindusa
100
AcDbPolyline
 90
        5
 70
   128
 43
0.0
 10
1504.230730899686
 20
1016.091801793819
 10
1504.231140394343
 20
1016.091554579597
 10
1504.236956374217
 20
1016.088727017746
 10
1504.243355817416
 20
1016.086880660287
 10
1504.244731660103
 20
1016.086636443504
  0
LINE
  5
11B0
330
1F
100
AcDbEntity
  8
Sanindusa
100
AcDbLine
 10
1504.297652572432
 20
1016.218738466558
 30
0.0
 11
1504.225625578149
 21
1016.218738466558
 31
0.0
  0
LWPOLYLINE
  5
11B8
330
1F
100
AcDbEntity
  8
Sanindusa
100
AcDbPolyline
 90
       11
 70
   128
 43
0.0
 10
1504.211970494194
 20
1016.208155332928
 10
1504.212796378098
 20
1016.210511637967
 10
1504.213917984006
 20
1016.212589620963
 10
1504.215404520264
 20
1016.214508469397
 10
1504.216774716647
 20
1016.215795153778
 10
1504.218333818985
 20
1016.216891205069
 10
1504.219150366071
 20
1016.217340839586
 10
1504.220945869587
 20
1016.218082432631
 10
1504.222815848559
 20
1016.218550014919
 10
1504.223902612234
 20
1016.218692362341
 10
1504.225625578149
 20
1016.218738466558
  0
LWPOLYLINE
  5
11BB
330
1F
100
AcDbEntity
  8
Sanindusa
100
AcDbPolyline
 90
        3
 70
   128
 43
0.0
 10
1504.211415292004
 20
1016.202816857587
 10
1504.21151439063
 20
1016.20574448004
 10
1504.211970494194
 20
1016.208155332928
  0
LINE
  5
11C7
330
1F
100
AcDbEntity
  8
Sanindusa
100
AcDbLine
 10
1504.261639075291
 20
1016.476835347584
 30
0.0
 11
1504.44715931737
 21
1016.476835347584
 31
0.0
  0
LWPOLYLINE
  5
11CA
330
1F
100
AcDbEntity
  8
Sanindusa
100
AcDbPolyline
 90
        8
 70
   128
 43
0.0
 10
1504.384592136373
 20
1016.392186199567
 10
1504.396335903898
 20
1016.392090339588
 10
1504.407105494859
 20
1016.392041256169
 10
1504.413892574986
 20
1016.39203475053
 10
1504.420169393044
 20
1016.392050443589
 10
1504.425890046862
 20
1016.392088866507
 10
1504.429830644111
 20
1016.392133448979
 10
1504.433429997979
 20
1016.392191558535
  0
LWPOLYLINE
  5
11CB
330
1F
100
AcDbEntity
  8
Sanindusa
100
AcDbPolyline
 90
        7
 70
   128
 43
0.0
 10
1504.433152181377
 20
1016.421471337682
 10
1504.42894681634
 20
1016.421538424979
 10
1504.424257638586
 20
1016.421587516792
 10
1504.415975251678
 20
1016.421627494173
 10
1504.406623510434
 20
1016.421622093892
 10
1504.395945251034
 20
1016.421569034968
 10
1504.38429548996
 20
1016.421468963087
  0
LINE
  5
11D1
330
1F
100
AcDbEntity
  8
Sanindusa
100
AcDbLine
 10
1504.434554702341
 20
1016.394160342299
 30
0.0
 11
1504.434554702341
 21
1016.419297957742
 31
0.0
  0
LWPOLYLINE
  5
11D4
330
1F
100
AcDbEntity
  8
Sanindusa
100
AcDbPolyline
 90
        7
 70
   128
 43
0.0
 10
1504.433429997979
 20
1016.392191558535
 10
1504.43388562901
 20
1016.392320520597
 10
1504.434275895087
 20
1016.392701591846
 10
1504.434532648887
 20
1016.393262733056
 10
1504.434627225925
 20
1016.393748938277
 10
1504.434638895197
 20
1016.393893952001
 10
1504.434643645433
 20
1016.394034076122
  0
LWPOLYLINE
  5
11D6
330
1F
100
AcDbEntity
  8
Sanindusa
100
AcDbPolyline
 90
        6
 70
   128
 43
0.0
 10
1504.434643645433
 20
1016.394034076122
 10
1504.434622300609
 20
1016.394037920185
 10
1504.434603294094
 20
1016.3940481634
 10
1504.434580814369
 20
1016.394071515311
 10
1504.434561560243
 20
1016.394112238062
 10
1504.434554702341
 20
1016.394160342299
  0
LWPOLYLINE
  5
11DA
330
1F
100
AcDbEntity
  8
Sanindusa
100
AcDbPolyline
 90
        3
 70
   128
 43
0.0
 10
1504.434554702341
 20
1016.419297957742
 10
1504.434417129995
 20
1016.419499081913
 10
1504.434411904851
 20
1016.419506344215
  0
LWPOLYLINE
  5
11DB
330
1F
100
AcDbEntity
  8
Sanindusa
100
AcDbPolyline
 90
        6
 70
   128
 43
0.0
 10
1504.434411904851
 20
1016.419506344215
 10
1504.434402044994
 20
1016.419757291025
 10
1504.434280219971
 20
1016.420394159275
 10
1504.434009090985
 20
1016.420959149868
 10
1504.433610399587
 20
1016.421341503684
 10
1504.433152181377
 20
1016.421471337682
  0
LWPOLYLINE
  5
11DC
330
1F
100
AcDbEntity
  8
Sanindusa
100
AcDbPolyline
 90
        9
 70
   128
 43
0.0
 10
1504.44715931737
 20
1016.476835347584
 10
1504.447542017683
 20
1016.476798393059
 10
1504.447912313367
 20
1016.476688186195
 10
1504.448254510512
 20
1016.476508838596
 10
1504.448555839651
 20
1016.476267042816
 10
1504.448805056351
 20
1016.475971821734
 10
1504.448992860813
 20
1016.475634191854
 10
1504.449112244905
 20
1016.475266752211
 10
1504.449158753677
 20
1016.474883214223
  0
LWPOLYLINE
  5
11DD
330
1F
100
AcDbEntity
  8
Sanindusa
100
AcDbPolyline
 90
        4
 70
   128
 43
0.0
 10
1504.383244054554
 20
1016.394224791985
 10
1504.383108715208
 20
1016.398952453372
 10
1504.382997780919
 20
1016.408754104147
 10
1504.382991870591
 20
1016.419464336562
  0
LWPOLYLINE
  5
11DF
330
1F
100
AcDbEntity
  8
Sanindusa
100
AcDbPolyline
 90
        6
 70
   128
 43
0.0
 10
1504.384524454301
 20
1016.392216305434
 10
1504.384337460346
 20
1016.392228528689
 10
1504.383947626577
 20
1016.392463515535
 10
1504.383598233616
 20
1016.392887658848
 10
1504.383325479288
 20
1016.39351976622
 10
1504.383219680078
 20
1016.394225122472
  0
LWPOLYLINE
  5
11E6
330
1F
100
AcDbEntity
  8
Sanindusa
100
AcDbPolyline
 90
       22
 70
   128
 43
0.0
 10
1504.342325767819
 20
1016.338363131028
 10
1504.34537204611
 20
1016.339198926376
 10
1504.345376693169
 20
1016.339201199787
 10
1504.347785045741
 20
1016.340963631717
 10
1504.349325692133
 20
1016.343206860085
 10
1504.350051877329
 20
1016.345620949848
 10
1504.350045307274
 20
1016.3480944202
 10
1504.349259269365
 20
1016.350601332484
 10
1504.347540598118
 20
1016.352952702267
 10
1504.344992398772
 20
1016.354645931534
 10
1504.342107288937
 20
1016.355322442257
 10
1504.340007087327
 20
1016.355177206807
 10
1504.337273608324
 20
1016.35412868003
 10
1504.33513030182
 20
1016.352302144444
 10
1504.333728038649
 20
1016.349944286188
 10
1504.333151616374
 20
1016.347296911374
 10
1504.33343779644
 20
1016.34460173499
 10
1504.334579460141
 20
1016.342101233735
 10
1504.33653179129
 20
1016.340040816685
 10
1504.339199062528
 20
1016.33869309128
 10
1504.342325767819
 20
1016.338363131028
 10
1504.342325767819
 20
1016.338363131028
  0
LWPOLYLINE
  5
11EC
330
1F
100
AcDbEntity
  8
Sanindusa
100
AcDbPolyline
 90
        7
 70
   128
 43
0.0
 10
1504.382992124294
 20
1016.419464350832
 10
1504.383011647731
 20
1016.419793304894
 10
1504.383180893025
 20
1016.420474626298
 10
1504.383484725607
 20
1016.421008327641
 10
1504.383847794192
 20
1016.421336556426
 10
1504.38421421911
 20
1016.421464853343
 10
1504.384282599535
 20
1016.421459832913
  0
LWPOLYLINE
  5
11F0
330
1F
100
AcDbEntity
  8
Sanindusa
100
AcDbPolyline
 90
       10
 70
   128
 43
0.0
 10
1504.385019584413
 20
1016.420869784422
 10
1504.386193197428
 20
1016.420863354726
 10
1504.387038770686
 20
1016.420844241023
 10
1504.387533239153
 20
1016.420812964686
 10
1504.387663115019
 20
1016.420770378851
 10
1504.387424855608
 20
1016.420717645148
 10
1504.386824960016
 20
1016.420656202017
 10
1504.385879791832
 20
1016.420587725464
 10
1504.384615132778
 20
1016.420514083352
 10
1504.383172761685
 20
1016.420441892414
  0
LWPOLYLINE
  5
11F1
330
1F
100
AcDbEntity
  8
Sanindusa
100
AcDbPolyline
 90
        3
 70
   128
 43
0.0
 10
1504.383401496138
 20
1016.420862129761
 10
1504.383549944746
 20
1016.420863354726
 10
1504.385019584413
 20
1016.420869784422
  0
LWPOLYLINE
  5
11F4
330
1F
100
AcDbEntity
  8
Sanindusa
100
AcDbPolyline
 90
       22
 70
   128
 43
0.0
 10
1504.181920031797
 20
1016.33833999218
 10
1504.180952382763
 20
1016.338363131028
 10
1504.177906104472
 20
1016.339198926376
 10
1504.177901457412
 20
1016.339201199787
 10
1504.17549310484
 20
1016.340963631717
 10
1504.173952458449
 20
1016.343206860085
 10
1504.173226273252
 20
1016.345620949848
 10
1504.173232843308
 20
1016.3480944202
 10
1504.174018881216
 20
1016.350601332484
 10
1504.175737552464
 20
1016.352952702267
 10
1504.17828575181
 20
1016.354645931534
 10
1504.181170861644
 20
1016.355322442257
 10
1504.183271063254
 20
1016.355177206807
 10
1504.186004542257
 20
1016.35412868003
 10
1504.188147848761
 20
1016.352302144444
 10
1504.189550111933
 20
1016.349944286188
 10
1504.190126534208
 20
1016.347296911374
 10
1504.189840354141
 20
1016.34460173499
 10
1504.18869869044
 20
1016.342101233735
 10
1504.186746359291
 20
1016.340040816685
 10
1504.184079088053
 20
1016.33869309128
 10
1504.181920031797
 20
1016.33833999218
  0
LINE
  5
11F5
330
1F
100
AcDbEntity
  8
Sanindusa
100
AcDbLine
 10
1504.261639075291
 20
1016.476835347584
 30
0.0
 11
1504.076241261753
 21
1016.476835347584
 31
0.0
  0
LINE
  5
11F7
330
1F
100
AcDbEntity
  8
Sanindusa
100
AcDbLine
 10
1504.088723448241
 20
1016.394160342299
 30
0.0
 11
1504.088723448241
 21
1016.419297957742
 31
0.0
  0
LWPOLYLINE
  5
11F8
330
1F
100
AcDbEntity
  8
Sanindusa
100
AcDbPolyline
 90
        4
 70
   128
 43
0.0
 10
1504.140280456222
 20
1016.419464298978
 10
1504.140288199259
 20
1016.410781566161
 10
1504.140199564651
 20
1016.400675600831
 10
1504.140037401311
 20
1016.394224456063
  0
LWPOLYLINE
  5
11FB
330
1F
100
AcDbEntity
  8
Sanindusa
100
AcDbPolyline
 90
        8
 70
   128
 43
0.0
 10
1504.138686014209
 20
1016.392186199567
 10
1504.126942246683
 20
1016.392090339588
 10
1504.116172655722
 20
1016.392041256169
 10
1504.109385575595
 20
1016.39203475053
 10
1504.103108757537
 20
1016.392050443589
 10
1504.09738810372
 20
1016.392088866507
 10
1504.09344750647
 20
1016.392133448979
 10
1504.089848152603
 20
1016.392191558535
  0
LWPOLYLINE
  5
1204
330
1F
100
AcDbEntity
  8
Sanindusa
100
AcDbPolyline
 90
        6
 70
   128
 43
0.0
 10
1504.140055366507
 20
1016.394225329024
 10
1504.139960519028
 20
1016.39354812056
 10
1504.13969763726
 20
1016.392917164359
 10
1504.13933627269
 20
1016.392468628664
 10
1504.138962190902
 20
1016.392236160458
 10
1504.138708660003
 20
1016.392205352285
  0
LWPOLYLINE
  5
120A
330
1F
100
AcDbEntity
  8
Sanindusa
100
AcDbPolyline
 90
        7
 70
   128
 43
0.0
 10
1504.089848152603
 20
1016.392191558535
 10
1504.089392521571
 20
1016.392320520597
 10
1504.089002255494
 20
1016.392701591846
 10
1504.088745501694
 20
1016.393262733056
 10
1504.088650924657
 20
1016.393748938277
 10
1504.088639255385
 20
1016.393893952001
 10
1504.088634505148
 20
1016.394034076122
  0
LWPOLYLINE
  5
120C
330
1F
100
AcDbEntity
  8
Sanindusa
100
AcDbPolyline
 90
        6
 70
   128
 43
0.0
 10
1504.088634505148
 20
1016.394034076122
 10
1504.088655849972
 20
1016.394037920185
 10
1504.088674856487
 20
1016.3940481634
 10
1504.088697336212
 20
1016.394071515311
 10
1504.088716590338
 20
1016.394112238062
 10
1504.088723448241
 20
1016.394160342299
  0
LWPOLYLINE
  5
120E
330
1F
100
AcDbEntity
  8
Sanindusa
100
AcDbPolyline
 90
        7
 70
   128
 43
0.0
 10
1504.090125969204
 20
1016.421471337682
 10
1504.094331334241
 20
1016.421538424979
 10
1504.099020511996
 20
1016.421587516792
 10
1504.107302898904
 20
1016.421627494173
 10
1504.116654640147
 20
1016.421622093892
 10
1504.127332899547
 20
1016.421569034968
 10
1504.138982660622
 20
1016.421468963087
  0
LWPOLYLINE
  5
1211
330
1F
100
AcDbEntity
  8
Sanindusa
100
AcDbPolyline
 90
        6
 70
   128
 43
0.0
 10
1504.138982660622
 20
1016.421468963087
 10
1504.139373405646
 20
1016.421368887146
 10
1504.1397476642
 20
1016.421063476069
 10
1504.140052971558
 20
1016.420579085208
 10
1504.140250974693
 20
1016.419907214338
 10
1504.140263819034
 20
1016.419463145553
  0
LWPOLYLINE
  5
1215
330
1F
100
AcDbEntity
  8
Sanindusa
100
AcDbPolyline
 90
        3
 70
   128
 43
0.0
 10
1504.139874559798
 20
1016.420862147583
 10
1504.139728205836
 20
1016.420863354726
 10
1504.138258566168
 20
1016.420869784422
  0
LWPOLYLINE
  5
1216
330
1F
100
AcDbEntity
  8
Sanindusa
100
AcDbPolyline
 90
       10
 70
   128
 43
0.0
 10
1504.138258566168
 20
1016.420869784422
 10
1504.137084953154
 20
1016.420863354726
 10
1504.136239379896
 20
1016.420844241023
 10
1504.135744911429
 20
1016.420812964686
 10
1504.135615035562
 20
1016.420770378851
 10
1504.135853294973
 20
1016.420717645148
 10
1504.136453190565
 20
1016.420656202017
 10
1504.13739835875
 20
1016.420587725464
 10
1504.138663017803
 20
1016.420514083352
 10
1504.140093235374
 20
1016.420442460679
  0
LWPOLYLINE
  5
1219
330
1F
100
AcDbEntity
  8
Sanindusa
100
AcDbPolyline
 90
        3
 70
   128
 43
0.0
 10
1504.088723448241
 20
1016.419297957742
 10
1504.088861020586
 20
1016.419499081913
 10
1504.088866245731
 20
1016.419506344215
  0
LWPOLYLINE
  5
121B
330
1F
100
AcDbEntity
  8
Sanindusa
100
AcDbPolyline
 90
        6
 70
   128
 43
0.0
 10
1504.088866245731
 20
1016.419506344215
 10
1504.088876105587
 20
1016.419757291025
 10
1504.08899793061
 20
1016.420394159275
 10
1504.089269059597
 20
1016.420959149868
 10
1504.089667750995
 20
1016.421341503684
 10
1504.090125969204
 20
1016.421471337682
  0
LWPOLYLINE
  5
121C
330
1F
100
AcDbEntity
  8
Sanindusa
100
AcDbPolyline
 90
       35
 70
   128
 43
0.0
 10
1504.074118930914
 20
1016.474857293577
 10
1504.073903159043
 20
1016.45366557696
 10
1504.073663492478
 20
1016.430139111399
 10
1504.073436481767
 20
1016.407865753689
 10
1504.073222111667
 20
1016.386842211442
 10
1504.073062536217
 20
1016.371198451684
 10
1504.072910748475
 20
1016.356322874638
 10
1504.072766741801
 20
1016.342224557046
 10
1504.072630509783
 20
1016.328974338792
 10
1504.072499505381
 20
1016.31635310912
 10
1504.072376514389
 20
1016.304638810072
 10
1504.072260613079
 20
1016.293742320082
 10
1504.072151509736
 20
1016.283629355029
 10
1504.072049199161
 20
1016.274286471982
 10
1504.071953676392
 20
1016.265696835093
 10
1504.071864936704
 20
1016.257841208211
 10
1504.071791587542
 20
1016.251443876296
 10
1504.071723615661
 20
1016.245597118375
 10
1504.071657348719
 20
1016.239977160878
 10
1504.071581694478
 20
1016.233665072893
 10
1504.071495924053
 20
1016.226653514858
 10
1504.071401875981
 20
1016.219156218663
 10
1504.071298152162
 20
1016.21113873788
 10
1504.071184805563
 20
1016.202704637223
 10
1504.071062424513
 20
1016.194010745481
 10
1504.070927351482
 20
1016.184940945398
 10
1504.070802544619
 20
1016.177078155672
 10
1504.070688014619
 20
1016.170323804826
 10
1504.070583772224
 20
1016.164576768482
 10
1504.07051999796
 20
1016.161253040345
 10
1504.070459414596
 20
1016.158232743697
 10
1504.07039844989
 20
1016.155330156695
 10
1504.070337014217
 20
1016.152546054336
 10
1504.070275075864
 20
1016.149884870091
 10
1504.070247317399
 20
1016.148761724654
  0
LINE
  5
1231
330
1F
100
AcDbEntity
  8
Sanindusa
100
AcDbLine
 10
1506.078253302024
 20
1016.280334260274
 30
0.0
 11
1506.096961611289
 21
1016.166792013761
 31
0.0
  0
LINE
  5
1232
330
1F
100
AcDbEntity
  8
Sanindusa
100
AcDbLine
 10
1506.08682677524
 20
1016.166792013761
 30
0.0
 11
1506.068745817298
 21
1016.276526814206
 31
0.0
  0
LWPOLYLINE
  5
1235
330
1F
100
AcDbEntity
  8
Sanindusa
100
AcDbPolyline
 90
       15
 70
   128
 43
0.0
 10
1506.33997897594
 20
1016.308772498671
 10
1506.332064414425
 20
1016.281892504175
 10
1506.324843693043
 20
1016.262246787617
 10
1506.317773306404
 20
1016.246122193049
 10
1506.309812081709
 20
1016.230402968617
 10
1506.300998254327
 20
1016.215161153041
 10
1506.291062117092
 20
1016.200011870072
 10
1506.280276939244
 20
1016.185436729358
 10
1506.26869384641
 20
1016.171506277912
 10
1506.256912260443
 20
1016.158849700051
 10
1506.244447175426
 20
1016.146846876536
 10
1506.231356643213
 20
1016.135549086569
 10
1506.217281629226
 20
1016.124694218661
 10
1506.202615238928
 20
1016.114628553821
 10
1506.187423608172
 20
1016.105401358535
  0
LINE
  5
1236
330
1F
100
AcDbEntity
  8
Sanindusa
100
AcDbLine
 10
1506.176961611289
 20
1016.142095376677
 30
0.0
 11
1506.210725146563
 21
1016.271946072207
 31
0.0
  0
LINE
  5
1237
330
1F
100
AcDbEntity
  8
Sanindusa
100
AcDbLine
 10
1506.186614306004
 20
1016.139586616991
 30
0.0
 11
1506.219805360179
 21
1016.267218350562
 31
0.0
  0
LWPOLYLINE
  5
1238
330
1F
100
AcDbEntity
  8
Sanindusa
100
AcDbPolyline
 90
       22
 70
   128
 43
0.0
 10
1506.360156420998
 20
1016.451792013761
 10
1506.360156420998
 20
1016.428198740426
 10
1506.360156420998
 20
1016.409605467092
 10
1506.360156420998
 20
1016.391012193758
 10
1506.360023502179
 20
1016.372433108527
 10
1506.358979979964
 20
1016.353967504591
 10
1506.356914667134
 20
1016.335668659925
 10
1506.353845738656
 20
1016.317577813705
 10
1506.349334160818
 20
1016.297969067767
 10
1506.343653151548
 20
1016.278715549613
 10
1506.336817600359
 20
1016.259862847219
 10
1506.32884235216
 20
1016.24145650396
 10
1506.319742251862
 20
1016.223542063213
 10
1506.309533546603
 20
1016.206166470579
 10
1506.298251351362
 20
1016.189395539504
 10
1506.28594429523
 20
1016.173308597541
 10
1506.272661301257
 20
1016.157985266207
 10
1506.258451509277
 20
1016.143504951725
 10
1506.24365212743
 20
1016.130169455758
 10
1506.228091613179
 20
1016.117760321533
 10
1506.211845498458
 20
1016.106323997887
 10
1506.1949893152
 20
1016.095906933657
  0
ARC
  5
1239
330
1F
100
AcDbEntity
  8
Sanindusa
100
AcDbCircle
 10
1505.96439391899
 20
1016.188973824181
 30
0.0
 40
0.0049999999999999
100
AcDbArc
 50
25.32504646675105
 51
88.50000000001029
  0
LWPOLYLINE
  5
123C
330
1F
100
AcDbEntity
  8
Sanindusa
100
AcDbPolyline
 90
        3
 70
   128
 43
0.0
 10
1505.957470873765
 20
1016.194156824463
 10
1505.957217708102
 20
1016.192371642502
 10
1505.952916005911
 20
1016.157365068401
  0
LINE
  5
123D
330
1F
100
AcDbEntity
  8
Sanindusa
100
AcDbLine
 10
1505.947142581519
 20
1016.194427280314
 30
0.0
 11
1505.942315670193
 21
1016.154751412256
 31
0.0
  0
LINE
  5
1241
330
1F
100
AcDbEntity
  8
Sanindusa
100
AcDbLine
 10
1505.827047132056
 20
1016.135567632474
 30
0.0
 11
1505.832855526504
 21
1016.284840787218
 31
0.0
  0
LINE
  5
1244
330
1F
100
AcDbEntity
  8
Sanindusa
100
AcDbLine
 10
1505.820156420998
 20
1016.083867459107
 30
0.0
 11
1505.820156420998
 21
1016.421792013761
 31
0.0
  0
LINE
  5
1245
330
1F
100
AcDbEntity
  8
Sanindusa
100
AcDbLine
 10
1505.977952353689
 20
1016.195390119724
 30
0.0
 11
1506.006054920787
 21
1016.131005881833
 31
0.0
  0
LINE
  5
1247
330
1F
100
AcDbEntity
  8
Sanindusa
100
AcDbLine
 10
1506.176264013569
 20
1016.094981183856
 30
0.0
 11
1505.885441897345
 21
1016.084209994366
 31
0.0
  0
LINE
  5
1248
330
1F
100
AcDbEntity
  8
Sanindusa
100
AcDbLine
 10
1506.130918837341
 20
1016.095303104157
 30
0.0
 11
1506.05347040275
 21
1016.092434643616
 31
0.0
  0
LINE
  5
1249
330
1F
100
AcDbEntity
  8
Sanindusa
100
AcDbLine
 10
1506.130548720736
 20
1016.105296252494
 30
0.0
 11
1506.053100286145
 21
1016.102427791954
 31
0.0
  0
LWPOLYLINE
  5
124E
330
1F
100
AcDbEntity
  8
Sanindusa
100
AcDbPolyline
 90
        4
 70
   128
 43
0.0
 10
1505.938616759937
 20
1016.150604138511
 10
1505.928900271875
 20
1016.148388697303
 10
1505.890033508368
 20
1016.139530356531
 10
1505.828312209975
 20
1016.125474264956
  0
LINE
  5
1253
330
1F
100
AcDbEntity
  8
Sanindusa
100
AcDbLine
 10
1505.862823511947
 20
1016.127185475989
 30
0.0
 11
1505.833490104356
 21
1016.120212593667
 31
0.0
  0
LINE
  5
1258
330
1F
100
AcDbEntity
  8
Sanindusa
100
AcDbLine
 10
1505.852761455219
 20
1016.114514960466
 30
0.0
 11
1505.841710486073
 21
1016.111888020273
 31
0.0
  0
LINE
  5
1259
330
1F
100
AcDbEntity
  8
Sanindusa
100
AcDbLine
 10
1505.832905086478
 20
1016.087448799814
 30
0.0
 11
1505.855744041183
 21
1016.088290802272
 31
0.0
  0
LINE
  5
125A
330
1F
100
AcDbEntity
  8
Sanindusa
100
AcDbLine
 10
1505.849168217451
 20
1016.098058566286
 30
0.0
 11
1505.841160825822
 21
1016.097761996225
 31
0.0
  0
LINE
  5
125B
330
1F
100
AcDbEntity
  8
Sanindusa
100
AcDbLine
 10
1505.873206131957
 20
1016.08375681787
 30
0.0
 11
1505.827312834589
 21
1016.082057066116
 31
0.0
  0
ARC
  5
125C
330
1F
100
AcDbEntity
  8
Sanindusa
100
AcDbCircle
 10
1505.833952638391
 20
1016.118266813036
 30
0.0
 40
0.0019999999999999
100
AcDbArc
 50
103.3716778315253
 51
177.7716778315087
  0
LWPOLYLINE
  5
125D
330
1F
100
AcDbEntity
  8
Sanindusa
100
AcDbPolyline
 90
        5
 70
   128
 43
0.0
 10
1505.831954150754
 20
1016.118344576546
 10
1505.831631209323
 20
1016.118533777511
 10
1505.830660763701
 20
1016.119101257617
 10
1505.829033825584
 20
1016.120049007732
 10
1505.82675433597
 20
1016.121369222283
  0
LINE
  5
1262
330
1F
100
AcDbEntity
  8
Sanindusa
100
AcDbLine
 10
1505.82669135298
 20
1016.121424268396
 30
0.0
 11
1505.826777228833
 21
1016.123631239631
 31
0.0
  0
LWPOLYLINE
  5
1263
330
1F
100
AcDbEntity
  8
Sanindusa
100
AcDbPolyline
 90
        9
 70
   128
 43
0.0
 10
1505.828312209975
 20
1016.125474264956
 10
1505.828003900728
 20
1016.125375397941
 10
1505.827715881413
 20
1016.125228635211
 10
1505.827455723641
 20
1016.125037834949
 10
1505.82723026659
 20
1016.124808013019
 10
1505.827045437202
 20
1016.124545211113
 10
1505.826906094377
 20
1016.124256337914
 10
1505.826815901238
 20
1016.123948987486
 10
1505.826777228833
 20
1016.123631239631
  0
LINE
  5
1266
330
1F
100
AcDbEntity
  8
Sanindusa
100
AcDbLine
 10
1505.826777228833
 20
1016.123631239631
 30
0.0
 11
1505.827047132056
 21
1016.135567632474
 31
0.0
  0
ARC
  5
1269
330
1F
100
AcDbEntity
  8
Sanindusa
100
AcDbCircle
 10
1505.832831243901
 20
1016.089447437556
 30
0.0
 40
0.0020000013877835
100
AcDbArc
 50
177.7716429276026
 51
272.1159134455509
  0
LWPOLYLINE
  5
126A
330
1F
100
AcDbEntity
  8
Sanindusa
100
AcDbPolyline
 90
        5
 70
   128
 43
0.0
 10
1505.825307641066
 20
1016.084189806488
 10
1505.827692386361
 20
1016.086518029159
 10
1505.829421479098
 20
1016.088193970189
 10
1505.830478473286
 20
1016.089204979905
 10
1505.830832754925
 20
1016.089525202338
  0
ARC
  5
1271
330
1F
100
AcDbEntity
  8
Sanindusa
100
AcDbCircle
 10
1505.827238811268
 20
1016.084055695783
 30
0.0
 40
0.002
100
AcDbArc
 50
177.771677831437
 51
272.1210963966661
  0
LINE
  5
1275
330
1F
100
AcDbEntity
  8
Sanindusa
100
AcDbLine
 10
1505.827312834589
 20
1016.082057066116
 30
0.0
 11
1505.825647954304
 21
1016.081995403883
 31
0.0
  0
LINE
  5
1278
330
1F
100
AcDbEntity
  8
Sanindusa
100
AcDbLine
 10
1505.823446325156
 20
1016.081913862063
 30
0.0
 11
1505.82223044432
 21
1016.081868829439
 31
0.0
  0
LINE
  5
1279
330
1F
100
AcDbEntity
  8
Sanindusa
100
AcDbLine
 10
1505.825647954304
 20
1016.081995403883
 30
0.0
 11
1505.823446325156
 21
1016.081913862063
 31
0.0
  0
ARC
  5
127A
330
1F
100
AcDbEntity
  8
Sanindusa
100
AcDbCircle
 10
1505.822156420999
 20
1016.083867459107
 30
0.0
 40
0.0020000000000003
100
AcDbArc
 50
180.0
 51
272.1210963966661
  0
LINE
  5
127B
330
1F
100
AcDbEntity
  8
Sanindusa
100
AcDbLine
 10
1505.841710486073
 20
1016.111888020273
 30
0.0
 11
1505.841160764635
 21
1016.097760423752
 31
0.0
  0
LINE
  5
127C
330
1F
100
AcDbEntity
  8
Sanindusa
100
AcDbLine
 10
1505.831954150754
 20
1016.118344576546
 30
0.0
 11
1505.830832754925
 21
1016.089525202338
 31
0.0
  0
LINE
  5
127D
330
1F
100
AcDbEntity
  8
Sanindusa
100
AcDbLine
 10
1505.825240395135
 20
1016.084135296918
 30
0.0
 11
1505.82669135298
 21
1016.121424268396
 31
0.0
  0
LWPOLYLINE
  5
127E
330
1F
100
AcDbEntity
  8
Sanindusa
100
AcDbPolyline
 90
       10
 70
   128
 43
0.0
 10
1505.863161240357
 20
1016.12873070482
 10
1505.863293894676
 20
1016.128944091146
 10
1505.864165765991
 20
1016.129561457025
 10
1505.865788402689
 20
1016.130380554075
 10
1505.868894539088
 20
1016.131685904553
 10
1505.87294146033
 20
1016.133187549505
 10
1505.878020814622
 20
1016.134895935022
 10
1505.883720626525
 20
1016.136652206644
 10
1505.889846041021
 20
1016.138382187564
 10
1505.896222697374
 20
1016.140028959374
  0
LINE
  5
1280
330
1F
100
AcDbEntity
  8
Sanindusa
100
AcDbLine
 10
1505.865240193706
 20
1016.124813894147
 30
0.0
 11
1505.85762467557
 21
1016.089863670668
 31
0.0
  0
LINE
  5
1284
330
1F
100
AcDbEntity
  8
Sanindusa
100
AcDbLine
 10
1505.885441897345
 20
1016.084209994366
 30
0.0
 11
1505.873206131957
 21
1016.08375681787
 31
0.0
  0
LINE
  5
1285
330
1F
100
AcDbEntity
  8
Sanindusa
100
AcDbLine
 10
1505.852761455219
 20
1016.114514960466
 30
0.0
 11
1505.849175079318
 21
1016.098055851975
 31
0.0
  0
ARC
  5
1287
330
1F
100
AcDbEntity
  8
Sanindusa
100
AcDbCircle
 10
1505.863286045982
 20
1016.125239695357
 30
0.0
 40
0.002
100
AcDbArc
 50
347.7076105140357
 51
103.3716778315253
  0
LINE
  5
1288
330
1F
100
AcDbEntity
  8
Sanindusa
100
AcDbLine
 10
1505.862823511947
 20
1016.127185475989
 30
0.0
 11
1505.863161240357
 21
1016.12873070482
 31
0.0
  0
ARC
  5
128B
330
1F
100
AcDbEntity
  8
Sanindusa
100
AcDbCircle
 10
1505.855670507964
 20
1016.090289468819
 30
0.0
 40
0.0020000187742995
100
AcDbArc
 50
272.1070266737172
 51
347.7078174010931
  0
LWPOLYLINE
  5
128C
330
1F
100
AcDbEntity
  8
Sanindusa
100
AcDbPolyline
 90
        4
 70
   128
 43
0.0
 10
1505.855370850413
 20
1016.086540587133
 10
1505.855446062752
 20
1016.086888527951
 10
1505.855662825815
 20
1016.087896547236
 10
1505.855744041183
 20
1016.088290802272
  0
LWPOLYLINE
  5
128D
330
1F
100
AcDbEntity
  8
Sanindusa
100
AcDbPolyline
 90
        8
 70
   128
 43
0.0
 10
1505.872139448691
 20
1016.083778430631
 10
1505.867735136186
 20
1016.084003186144
 10
1505.863849965299
 20
1016.084334719794
 10
1505.860610557974
 20
1016.084749886079
 10
1505.858093377002
 20
1016.085220396286
 10
1505.856379561783
 20
1016.085717292935
 10
1505.855491075446
 20
1016.086216496918
 10
1505.855370850413
 20
1016.086540587133
  0
LINE
  5
1292
330
1F
100
AcDbEntity
  8
Sanindusa
100
AcDbLine
 10
1505.873206131957
 20
1016.08375681787
 30
0.0
 11
1505.872139448691
 21
1016.083778430631
 31
0.0
  0
ARC
  5
1293
330
1F
100
AcDbEntity
  8
Sanindusa
100
AcDbCircle
 10
1506.051249703119
 20
1016.152393533642
 30
0.0
 40
0.0600000000000003
100
AcDbArc
 50
205.3250464667394
 51
272.1210963966661
  0
LINE
  5
1294
330
1F
100
AcDbEntity
  8
Sanindusa
100
AcDbLine
 10
1505.968913397223
 20
1016.191112589362
 30
0.0
 11
1505.99701596432
 21
1016.126728351471
 31
0.0
  0
LWPOLYLINE
  5
129B
330
1F
100
AcDbEntity
  8
Sanindusa
100
AcDbPolyline
 90
        4
 70
   128
 43
0.0
 10
1505.952700767566
 20
1016.152540359349
 10
1505.953112792115
 20
1016.149064921496
 10
1505.953401091939
 20
1016.147109439833
 10
1505.953404379754
 20
1016.147087688307
  0
LWPOLYLINE
  5
129C
330
1F
100
AcDbEntity
  8
Sanindusa
100
AcDbPolyline
 90
        3
 70
   128
 43
0.0
 10
1505.952916005911
 20
1016.157365068401
 10
1505.95265295459
 20
1016.153552892067
 10
1505.952700767566
 20
1016.152540359349
  0
LWPOLYLINE
  5
12A5
330
1F
100
AcDbEntity
  8
Sanindusa
100
AcDbPolyline
 90
        9
 70
   128
 43
0.0
 10
1505.942315670193
 20
1016.154751412256
 10
1505.942215799266
 20
1016.154013195808
 10
1505.941989677606
 20
1016.153320106174
 10
1505.941622725996
 20
1016.15267408858
 10
1505.941162122061
 20
1016.152089670993
 10
1505.940618224092
 20
1016.15157999609
 10
1505.940003263541
 20
1016.151156525695
 10
1505.939331069947
 20
1016.150828783021
 10
1505.938616759937
 20
1016.150604138511
  0
ARC
  5
12AD
330
1F
100
AcDbEntity
  8
Sanindusa
100
AcDbCircle
 10
1506.051249703119
 20
1016.152393533642
 30
0.0
 40
0.0500000000000001
100
AcDbArc
 50
205.3250464667394
 51
272.1210963966661
  0
ARC
  5
12B4
330
1F
100
AcDbEntity
  8
Sanindusa
100
AcDbCircle
 10
1506.12869813771
 20
1016.155261994183
 30
0.0
 40
0.05
100
AcDbArc
 50
272.1210963966661
 51
344.8553811998335
  0
ARC
  5
12B5
330
1F
100
AcDbEntity
  8
Sanindusa
100
AcDbCircle
 10
1506.12869813771
 20
1016.155261994183
 30
0.0
 40
0.0600000000000002
100
AcDbArc
 50
272.1210963966661
 51
311.3688500662946
  0
LINE
  5
12BC
330
1F
100
AcDbEntity
  8
Sanindusa
100
AcDbLine
 10
1506.096961611289
 20
1016.166792013761
 30
0.0
 11
1506.08682677524
 21
1016.166792013761
 31
0.0
  0
ARC
  5
12BE
330
1F
100
AcDbEntity
  8
Sanindusa
100
AcDbCircle
 10
1506.12869813771
 20
1016.155261994183
 30
0.0
 40
0.0599999999999999
100
AcDbArc
 50
327.2048684447046
 51
344.8553811998335
  0
LINE
  5
12BF
330
1F
100
AcDbEntity
  8
Sanindusa
100
AcDbLine
 10
1506.176264013569
 20
1016.094981183856
 30
0.0
 11
1506.194063455715
 21
1016.095640422454
 31
0.0
  0
LWPOLYLINE
  5
12C1
330
1F
100
AcDbEntity
  8
Sanindusa
100
AcDbPolyline
 90
        8
 70
   128
 43
0.0
 10
1506.168352375043
 20
1016.110233764575
 10
1506.168931874763
 20
1016.110591961757
 10
1506.169597423169
 20
1016.11073790397
 10
1506.170270892587
 20
1016.110654249502
 10
1506.170873146512
 20
1016.110353132596
 10
1506.171337547737
 20
1016.109872152836
 10
1506.171615401866
 20
1016.109266482873
 10
1506.171642438459
 20
1016.109152264665
  0
LWPOLYLINE
  5
12C2
330
1F
100
AcDbEntity
  8
Sanindusa
100
AcDbPolyline
 90
        5
 70
   128
 43
0.0
 10
1506.18266822146
 20
1016.105225233101
 10
1506.181930009256
 20
1016.108932808752
 10
1506.180972527997
 20
1016.113850515734
 10
1506.179992019866
 20
1016.118763698693
 10
1506.179134895487
 20
1016.122763787079
  0
LINE
  5
12C3
330
1F
100
AcDbEntity
  8
Sanindusa
100
AcDbLine
 10
1506.18266822146
 20
1016.105225233101
 30
0.0
 11
1506.187423608172
 21
1016.105401358535
 31
0.0
  0
LWPOLYLINE
  5
12C5
330
1F
100
AcDbEntity
  8
Sanindusa
100
AcDbPolyline
 90
        6
 70
   128
 43
0.0
 10
1506.174231057388
 20
1016.096576581704
 10
1506.1744749566
 20
1016.095950896389
 10
1506.174912212178
 20
1016.095441213683
 10
1506.175493527441
 20
1016.095104995772
 10
1506.176153364354
 20
1016.094980148905
 10
1506.176264013569
 20
1016.094981183856
  0
LINE
  5
12C9
330
1F
100
AcDbEntity
  8
Sanindusa
100
AcDbLine
 10
1506.174231057387
 20
1016.096576581704
 30
0.0
 11
1506.171642438459
 21
1016.109152264665
 31
0.0
  0
ARC
  5
12CA
330
1F
100
AcDbEntity
  8
Sanindusa
100
AcDbCircle
 10
1506.193989432394
 20
1016.097639052121
 30
0.0
 40
0.0019999999999999
100
AcDbArc
 50
272.1210963966661
 51
299.9961233278888
  0
LINE
  5
12D6
330
1F
100
AcDbEntity
  8
Sanindusa
100
AcDbLine
 10
1506.020156420999
 20
1016.456792013761
 30
0.0
 11
1506.315156420998
 21
1016.456792013761
 31
0.0
  0
LINE
  5
12D7
330
1F
100
AcDbEntity
  8
Sanindusa
100
AcDbLine
 10
1506.31128786795
 20
1016.395260079423
 30
0.0
 11
1506.024399110335
 21
1016.383339493927
 31
0.0
  0
ARC
  5
12D8
330
1F
100
AcDbEntity
  8
Sanindusa
100
AcDbCircle
 10
1506.058519386346
 20
1016.277082711104
 30
0.0
 40
0.0200000000000001
100
AcDbArc
 50
9.356532916718689
 51
74.04892388034531
  0
LWPOLYLINE
  5
12D9
330
1F
100
AcDbEntity
  8
Sanindusa
100
AcDbPolyline
 90
        9
 70
   128
 43
0.0
 10
1506.064015715359
 20
1016.297957000385
 10
1506.064236325701
 20
1016.298273074636
 10
1506.065349217306
 20
1016.298565183203
 10
1506.067368814749
 20
1016.298650730014
 10
1506.07008355669
 20
1016.298533523602
 10
1506.073480100916
 20
1016.29823180235
 10
1506.077465242972
 20
1016.297755564642
 10
1506.081909958701
 20
1016.297126547017
 10
1506.086829209715
 20
1016.296343694382
  0
LINE
  5
12DE
330
1F
100
AcDbEntity
  8
Sanindusa
100
AcDbLine
 10
1506.015156420998
 20
1016.444792013761
 30
0.0
 11
1506.016060425335
 21
1016.393001639978
 31
0.0
  0
LINE
  5
12DF
330
1F
100
AcDbEntity
  8
Sanindusa
100
AcDbLine
 10
1506.025156420998
 20
1016.451792013761
 30
0.0
 11
1506.026315774878
 21
1016.385372674466
 31
0.0
  0
LINE
  5
12EA
330
1F
100
AcDbEntity
  8
Sanindusa
100
AcDbLine
 10
1505.820156420998
 20
1016.421792013761
 30
0.0
 11
1505.820156420998
 21
1016.429792013761
 31
0.0
  0
LWPOLYLINE
  5
12EB
330
1F
100
AcDbEntity
  8
Sanindusa
100
AcDbPolyline
 90
       16
 70
   128
 43
0.0
 10
1505.880156420998
 20
1016.419792013761
 10
1505.908779401117
 20
1016.419792013761
 10
1505.940689818264
 20
1016.419792013761
 10
1505.956645026837
 20
1016.419792013761
 10
1505.961475673151
 20
1016.419683027444
 10
1505.96630517155
 20
1016.419659847286
 10
1505.971073883459
 20
1016.420178141475
 10
1505.974310655664
 20
1016.421116139105
 10
1505.977345205265
 20
1016.422581871133
 10
1505.980087757201
 20
1016.424539198887
 10
1505.982466524078
 20
1016.426925509079
 10
1505.984412655769
 20
1016.429685404354
 10
1505.985870242074
 20
1016.432731590982
 10
1505.986787584662
 20
1016.435973827158
 10
1505.987150979265
 20
1016.439323818077
 10
1505.987156420999
 20
1016.444792013761
  0
LINE
  5
12F3
330
1F
100
AcDbEntity
  8
Sanindusa
100
AcDbLine
 10
1505.980385835291
 20
1016.350619977316
 30
0.0
 11
1505.88113024405
 21
1016.353219076444
 31
0.0
  0
LINE
  5
12F4
330
1F
100
AcDbEntity
  8
Sanindusa
100
AcDbLine
 10
1505.89589430884
 20
1016.195769263563
 30
0.0
 11
1505.964524803731
 21
1016.193972110806
 31
0.0
  0
LINE
  5
12F5
330
1F
100
AcDbEntity
  8
Sanindusa
100
AcDbLine
 10
1505.896156078323
 20
1016.205765836812
 30
0.0
 11
1505.964786573214
 21
1016.203968684056
 31
0.0
  0
LINE
  5
12F6
330
1F
100
AcDbEntity
  8
Sanindusa
100
AcDbLine
 10
1505.981533407764
 20
1016.340589927074
 30
0.0
 11
1505.84113024405
 21
1016.344266513307
 31
0.0
  0
LINE
  5
12F8
330
1F
100
AcDbEntity
  8
Sanindusa
100
AcDbLine
 10
1506.03931226271
 20
1016.291566867326
 30
0.0
 11
1505.896156078323
 21
1016.287818190709
 31
0.0
  0
LINE
  5
12F9
330
1F
100
AcDbEntity
  8
Sanindusa
100
AcDbLine
 10
1505.993270978181
 20
1016.300364661785
 30
0.0
 11
1505.89589430884
 21
1016.297814763959
 31
0.0
  0
LINE
  5
12FB
330
1F
100
AcDbEntity
  8
Sanindusa
100
AcDbLine
 10
1505.862967940148
 20
1016.287146320965
 30
0.0
 11
1505.86514467167
 21
1016.343087353244
 31
0.0
  0
LINE
  5
12FE
330
1F
100
AcDbEntity
  8
Sanindusa
100
AcDbLine
 10
1505.833366469565
 20
1016.297971796699
 30
0.0
 11
1505.83435616218
 21
1016.323406456859
 31
0.0
  0
LINE
  5
1303
330
1F
100
AcDbEntity
  8
Sanindusa
100
AcDbLine
 10
1505.834929464725
 20
1016.286702070154
 30
0.0
 11
1505.860887692877
 21
1016.28512289823
 31
0.0
  0
LINE
  5
1304
330
1F
100
AcDbEntity
  8
Sanindusa
100
AcDbLine
 10
1505.861271077165
 20
1016.294975703972
 30
0.0
 11
1505.83529073788
 21
1016.295986629605
 31
0.0
  0
LWPOLYLINE
  5
1309
330
1F
100
AcDbEntity
  8
Sanindusa
100
AcDbPolyline
 90
        9
 70
   128
 43
0.0
 10
1505.832855526504
 20
1016.284840787218
 10
1505.832908646562
 20
1016.285217582209
 10
1505.833036526006
 20
1016.285576908773
 10
1505.833234250499
 20
1016.285904958189
 10
1505.8334942216
 20
1016.286189123704
 10
1505.833806448767
 20
1016.286418484996
 10
1505.834158933283
 20
1016.286584227839
 10
1505.834538129367
 20
1016.286679982828
 10
1505.834929464725
 20
1016.286702070154
  0
LWPOLYLINE
  5
130A
330
1F
100
AcDbEntity
  8
Sanindusa
100
AcDbPolyline
 90
        9
 70
   128
 43
0.0
 10
1505.833216799659
 20
1016.294125346669
 10
1505.833269919717
 20
1016.29450214166
 10
1505.833397799161
 20
1016.294861468224
 10
1505.833595523654
 20
1016.29518951764
 10
1505.833855494755
 20
1016.295473683155
 10
1505.834167721921
 20
1016.295703044447
 10
1505.834520206438
 20
1016.29586878729
 10
1505.834899402521
 20
1016.295964542279
 10
1505.83529073788
 20
1016.295986629605
  0
LINE
  5
130B
330
1F
100
AcDbEntity
  8
Sanindusa
100
AcDbLine
 10
1505.832855526504
 20
1016.284840787218
 30
0.0
 11
1505.833216799659
 21
1016.294125346669
 31
0.0
  0
LINE
  5
130E
330
1F
100
AcDbEntity
  8
Sanindusa
100
AcDbLine
 10
1505.833216799659
 20
1016.294125346669
 30
0.0
 11
1505.833366469565
 21
1016.297971796699
 31
0.0
  0
LINE
  5
130F
330
1F
100
AcDbEntity
  8
Sanindusa
100
AcDbLine
 10
1505.894920485789
 20
1016.196768920888
 30
0.0
 11
1505.894920485789
 21
1016.296815106634
 31
0.0
  0
ARC
  5
1310
330
1F
100
AcDbEntity
  8
Sanindusa
100
AcDbCircle
 10
1505.895920485789
 20
1016.196768920888
 30
0.0
 40
0.001
100
AcDbArc
 50
178.5000000000103
 51
268.4999999999973
  0
ARC
  5
1311
330
1F
100
AcDbEntity
  8
Sanindusa
100
AcDbCircle
 10
1505.896129901375
 20
1016.204766179487
 30
0.0
 40
0.001
100
AcDbArc
 50
88.49999999999729
 51
178.5000000000103
  0
LINE
  5
1312
330
1F
100
AcDbEntity
  8
Sanindusa
100
AcDbLine
 10
1505.89513024405
 20
1016.204792356436
 30
0.0
 11
1505.894920828464
 21
1016.196795097836
 31
0.0
  0
LWPOLYLINE
  5
1315
330
1F
100
AcDbEntity
  8
Sanindusa
100
AcDbPolyline
 90
        9
 70
   128
 43
0.0
 10
1505.860887692877
 20
1016.28512289823
 10
1505.861278551184
 20
1016.285132725541
 10
1505.861657661728
 20
1016.2852262822
 10
1505.862010455504
 20
1016.285399972878
 10
1505.862323374844
 20
1016.28564712274
 10
1505.862584394435
 20
1016.285958233954
 10
1505.862783483439
 20
1016.286321350692
 10
1505.862912990977
 20
1016.286722518581
 10
1505.862967940148
 20
1016.287146320965
  0
LWPOLYLINE
  5
1317
330
1F
100
AcDbEntity
  8
Sanindusa
100
AcDbPolyline
 90
        9
 70
   128
 43
0.0
 10
1505.863345015386
 20
1016.296836986908
 10
1505.863291895328
 20
1016.296460191916
 10
1505.863164015884
 20
1016.296100865353
 10
1505.862966291391
 20
1016.295772815936
 10
1505.86270632029
 20
1016.295488650421
 10
1505.862394093123
 20
1016.29525928913
 10
1505.862041608607
 20
1016.295093546287
 10
1505.861662412523
 20
1016.294997791297
 10
1505.861271077165
 20
1016.294975703972
  0
ARC
  5
131B
330
1F
100
AcDbEntity
  8
Sanindusa
100
AcDbCircle
 10
1505.896129901375
 20
1016.288817848034
 30
0.0
 40
0.001
100
AcDbArc
 50
181.4999999999897
 51
271.5000000000027
  0
ARC
  5
131C
330
1F
100
AcDbEntity
  8
Sanindusa
100
AcDbCircle
 10
1505.895920485789
 20
1016.296815106634
 30
0.0
 40
0.001
100
AcDbArc
 50
91.50000000000272
 51
181.4999999999897
  0
LINE
  5
131D
330
1F
100
AcDbEntity
  8
Sanindusa
100
AcDbLine
 10
1505.894920828464
 20
1016.296788929685
 30
0.0
 11
1505.89513024405
 21
1016.288791671086
 31
0.0
  0
LINE
  5
1322
330
1F
100
AcDbEntity
  8
Sanindusa
100
AcDbLine
 10
1505.841182597947
 20
1016.40931888515
 30
0.0
 11
1505.86913024405
 21
1016.410050720019
 31
0.0
  0
LINE
  5
1324
330
1F
100
AcDbEntity
  8
Sanindusa
100
AcDbLine
 10
1505.86913024405
 20
1016.353533307503
 30
0.0
 11
1505.841182597947
 21
1016.354265142372
 31
0.0
  0
LINE
  5
1325
330
1F
100
AcDbEntity
  8
Sanindusa
100
AcDbLine
 10
1505.840156420999
 20
1016.353265485047
 30
0.0
 11
1505.840156420999
 21
1016.410318542475
 31
0.0
  0
LINE
  5
1327
330
1F
100
AcDbEntity
  8
Sanindusa
100
AcDbLine
 10
1505.834393646113
 20
1016.324369777271
 30
0.0
 11
1505.836144649169
 21
1016.369369777271
 31
0.0
  0
ARC
  5
1329
330
1F
100
AcDbEntity
  8
Sanindusa
100
AcDbCircle
 10
1505.841156420999
 20
1016.345266170632
 30
0.0
 40
0.0010000000000002
100
AcDbArc
 50
180.0
 51
268.5000000000103
  0
LINE
  5
132A
330
1F
100
AcDbEntity
  8
Sanindusa
100
AcDbLine
 10
1505.840156420999
 20
1016.345266170632
 30
0.0
 11
1505.840156420999
 21
1016.353265485047
 31
0.0
  0
ARC
  5
132B
330
1F
100
AcDbEntity
  8
Sanindusa
100
AcDbCircle
 10
1505.841156420999
 20
1016.353265485047
 30
0.0
 40
0.0010000000000002
100
AcDbArc
 50
88.50000000001029
 51
180.0
  0
ARC
  5
132E
330
1F
100
AcDbEntity
  8
Sanindusa
100
AcDbCircle
 10
1505.838143136806
 20
1016.369292013761
 30
0.0
 40
0.0019999999999999
100
AcDbArc
 50
90.76937511689418
 51
177.7716778315152
  0
LINE
  5
132F
330
1F
100
AcDbEntity
  8
Sanindusa
100
AcDbLine
 10
1505.840156420999
 20
1016.371292013761
 30
0.0
 11
1505.838143136806
 21
1016.371292013761
 31
0.0
  0
LINE
  5
1330
330
1F
100
AcDbEntity
  8
Sanindusa
100
AcDbLine
 10
1505.822156420999
 20
1016.419792013761
 30
0.0
 11
1505.838156420999
 21
1016.419792013761
 31
0.0
  0
ARC
  5
1333
330
1F
100
AcDbEntity
  8
Sanindusa
100
AcDbCircle
 10
1505.822156420999
 20
1016.421792013761
 30
0.0
 40
0.0019999999999999
100
AcDbArc
 50
180.0
 51
270.0
  0
ARC
  5
1334
330
1F
100
AcDbEntity
  8
Sanindusa
100
AcDbCircle
 10
1505.841156420999
 20
1016.410318542475
 30
0.0
 40
0.0010000000000002
100
AcDbArc
 50
180.0
 51
271.4999999999896
  0
LINE
  5
1335
330
1F
100
AcDbEntity
  8
Sanindusa
100
AcDbLine
 10
1505.840156420999
 20
1016.410318542475
 30
0.0
 11
1505.840156420999
 21
1016.417792013761
 31
0.0
  0
ARC
  5
1336
330
1F
100
AcDbEntity
  8
Sanindusa
100
AcDbCircle
 10
1505.838156420999
 20
1016.417792013761
 30
0.0
 40
0.0020000000000005
100
AcDbArc
 50
0.0
 51
90.0
  0
LINE
  5
133A
330
1F
100
AcDbEntity
  8
Sanindusa
100
AcDbLine
 10
1505.870156420998
 20
1016.360792013761
 30
0.0
 11
1505.870156420998
 21
1016.402792013761
 31
0.0
  0
ARC
  5
133B
330
1F
100
AcDbEntity
  8
Sanindusa
100
AcDbCircle
 10
1505.879156420999
 20
1016.360792013761
 30
0.0
 40
0.0009999999999999
100
AcDbArc
 50
0.0
 51
90.0
  0
ARC
  5
133C
330
1F
100
AcDbEntity
  8
Sanindusa
100
AcDbCircle
 10
1505.871156420998
 20
1016.360792013761
 30
0.0
 40
0.0010000000000002
100
AcDbArc
 50
90.0
 51
180.0
  0
LINE
  5
133D
330
1F
100
AcDbEntity
  8
Sanindusa
100
AcDbLine
 10
1505.871156420998
 20
1016.361792013761
 30
0.0
 11
1505.879156420999
 21
1016.361792013761
 31
0.0
  0
ARC
  5
133E
330
1F
100
AcDbEntity
  8
Sanindusa
100
AcDbCircle
 10
1505.881156420999
 20
1016.354218733769
 30
0.0
 40
0.0010000000000002
100
AcDbArc
 50
180.0
 51
268.5000000000103
  0
ARC
  5
1340
330
1F
100
AcDbEntity
  8
Sanindusa
100
AcDbCircle
 10
1505.869156420998
 20
1016.354532964828
 30
0.0
 40
0.0010000000000004
100
AcDbArc
 50
268.5000000000103
 51
0.0
  0
LINE
  5
1343
330
1F
100
AcDbEntity
  8
Sanindusa
100
AcDbLine
 10
1505.86514467167
 20
1016.343087353244
 30
0.0
 11
1505.865165361597
 21
1016.343637131604
 31
0.0
  0
LINE
  5
1345
330
1F
100
AcDbEntity
  8
Sanindusa
100
AcDbLine
 10
1505.870156420998
 20
1016.354532964828
 30
0.0
 11
1505.870156420998
 21
1016.360792013761
 31
0.0
  0
LINE
  5
1346
330
1F
100
AcDbEntity
  8
Sanindusa
100
AcDbLine
 10
1505.880156420998
 20
1016.354218733769
 30
0.0
 11
1505.880156420998
 21
1016.360792013761
 31
0.0
  0
LINE
  5
1347
330
1F
100
AcDbEntity
  8
Sanindusa
100
AcDbLine
 10
1505.880156420998
 20
1016.402792013761
 30
0.0
 11
1505.880156420998
 21
1016.419792013761
 31
0.0
  0
ARC
  5
1348
330
1F
100
AcDbEntity
  8
Sanindusa
100
AcDbCircle
 10
1505.879156420999
 20
1016.402792013761
 30
0.0
 40
0.0009999999999999
100
AcDbArc
 50
270.0
 51
0.0
  0
ARC
  5
134A
330
1F
100
AcDbEntity
  8
Sanindusa
100
AcDbCircle
 10
1505.871156420998
 20
1016.402792013761
 30
0.0
 40
0.0010000000000002
100
AcDbArc
 50
180.0
 51
270.0
  0
LINE
  5
134B
330
1F
100
AcDbEntity
  8
Sanindusa
100
AcDbLine
 10
1505.870156420998
 20
1016.402792013761
 30
0.0
 11
1505.870156420998
 21
1016.409051062694
 31
0.0
  0
ARC
  5
134C
330
1F
100
AcDbEntity
  8
Sanindusa
100
AcDbCircle
 10
1505.869156420998
 20
1016.409051062694
 30
0.0
 40
0.0010000000000004
100
AcDbArc
 50
0.0
 51
91.49999999998968
  0
LINE
  5
134D
330
1F
100
AcDbEntity
  8
Sanindusa
100
AcDbLine
 10
1505.879156420999
 20
1016.401792013761
 30
0.0
 11
1505.871156420998
 21
1016.401792013761
 31
0.0
  0
ARC
  5
134E
330
1F
100
AcDbEntity
  8
Sanindusa
100
AcDbCircle
 10
1505.993009208698
 20
1016.310361235035
 30
0.0
 40
0.0100000000000002
100
AcDbArc
 50
271.4999999999896
 51
42.60430407448377
  0
ARC
  5
134F
330
1F
100
AcDbEntity
  8
Sanindusa
100
AcDbCircle
 10
1506.070677886129
 20
1016.381792013761
 30
0.0
 40
0.0835214651304983
100
AcDbArc
 50
181.3479326701368
 51
250.7128856689807
  0
ARC
  5
1357
330
1F
100
AcDbEntity
  8
Sanindusa
100
AcDbCircle
 10
1505.96439391899
 20
1016.188973824181
 30
0.0
 40
0.0150000000000001
100
AcDbArc
 50
25.32504646674525
 51
88.50000000001029
  0
ARC
  5
1360
330
1F
100
AcDbEntity
  8
Sanindusa
100
AcDbCircle
 10
1506.167656420998
 20
1016.658919021299
 30
0.0
 40
0.3771270075379574
100
AcDbArc
 50
250.7128856689807
 51
254.0489238803453
  0
ARC
  5
1361
330
1F
100
AcDbEntity
  8
Sanindusa
100
AcDbCircle
 10
1506.05887885946
 20
1016.274901039621
 30
0.0
 40
0.0100000000000001
100
AcDbArc
 50
9.356532916720297
 51
74.18460883587164
  0
ARC
  5
1362
330
1F
100
AcDbEntity
  8
Sanindusa
100
AcDbCircle
 10
1506.167656420998
 20
1016.658919021299
 30
0.0
 40
0.3891270075379575
100
AcDbArc
 50
250.7417924464391
 51
254.1846088358716
  0
LINE
  5
1363
330
1F
100
AcDbEntity
  8
Sanindusa
100
AcDbLine
 10
1506.064015715359
 20
1016.296312645253
 30
0.0
 11
1506.064015715359
 21
1016.297957000385
 31
0.0
  0
LINE
  5
136B
330
1F
100
AcDbEntity
  8
Sanindusa
100
AcDbLine
 10
1505.9890959488
 20
1016.381872603559
 30
0.0
 11
1506.024399110335
 21
1016.383339493927
 31
0.0
  0
LINE
  5
136C
330
1F
100
AcDbEntity
  8
Sanindusa
100
AcDbLine
 10
1505.984741307136
 20
1016.391700291577
 30
0.0
 11
1506.016060425335
 21
1016.393001639978
 31
0.0
  0
ARC
  5
136D
330
1F
100
AcDbEntity
  8
Sanindusa
100
AcDbCircle
 10
1506.070677886129
 20
1016.381792013761
 30
0.0
 40
0.0955214651304983
100
AcDbArc
 50
180.0556740549568
 51
199.0465000137562
  0
ARC
  5
136F
330
1F
100
AcDbEntity
  8
Sanindusa
100
AcDbCircle
 10
1506.070677886129
 20
1016.381792013761
 30
0.0
 40
0.0955214651304983
100
AcDbArc
 50
207.3617535910794
 51
222.6043040744654
  0
ARC
  5
1370
330
1F
100
AcDbEntity
  8
Sanindusa
100
AcDbCircle
 10
1505.981402523022
 20
1016.335591640449
 30
0.0
 40
0.0050000000000001
100
AcDbArc
 50
27.36175359107947
 51
88.50000000001029
  0
ARC
  5
1371
330
1F
100
AcDbEntity
  8
Sanindusa
100
AcDbCircle
 10
1505.985156461373
 20
1016.381708912945
 30
0.0
 40
0.01
100
AcDbArc
 50
92.37934237359608
 51
180.0556740549568
  0
ARC
  5
1372
330
1F
100
AcDbEntity
  8
Sanindusa
100
AcDbCircle
 10
1505.989178979647
 20
1016.379874327832
 30
0.0
 40
0.002
100
AcDbArc
 50
92.37934237360908
 51
181.3479326701368
  0
ARC
  5
1377
330
1F
100
AcDbEntity
  8
Sanindusa
100
AcDbCircle
 10
1506.024316079488
 20
1016.385337769653
 30
0.0
 40
0.002
100
AcDbArc
 50
272.3793423736091
 51
1.000000000001761
  0
LWPOLYLINE
  5
1378
330
1F
100
AcDbEntity
  8
Sanindusa
100
AcDbPolyline
 90
       12
 70
   128
 43
0.0
 10
1505.822156420999
 20
1016.431792013761
 10
1505.908779401117
 20
1016.431792013761
 10
1505.946001052768
 20
1016.431792013761
 10
1505.962378579494
 20
1016.431792013761
 10
1505.965595593672
 20
1016.431792013761
 10
1505.96876826752
 20
1016.431954752029
 10
1505.971555198284
 20
1016.433110445184
 10
1505.973689574499
 20
1016.435176200626
 10
1505.974931390628
 20
1016.437901696782
 10
1505.975156420999
 20
1016.441041080209
 10
1505.975156420999
 20
1016.444243485948
 10
1505.975156420999
 20
1016.451792013761
  0
ARC
  5
1379
330
1F
100
AcDbEntity
  8
Sanindusa
100
AcDbCircle
 10
1505.822156420999
 20
1016.429792013761
 30
0.0
 40
0.0020000000000005
100
AcDbArc
 50
90.0
 51
180.0
  0
LINE
  5
137A
330
1F
100
AcDbEntity
  8
Sanindusa
100
AcDbLine
 10
1506.015156420998
 20
1016.444792013761
 30
0.0
 11
1505.987156420999
 21
1016.444792013761
 31
0.0
  0
LINE
  5
137B
330
1F
100
AcDbEntity
  8
Sanindusa
100
AcDbLine
 10
1506.020156420999
 20
1016.456792013761
 30
0.0
 11
1505.980156420998
 21
1016.456792013761
 31
0.0
  0
ARC
  5
137F
330
1F
100
AcDbEntity
  8
Sanindusa
100
AcDbCircle
 10
1505.980156420998
 20
1016.451792013761
 30
0.0
 40
0.005
100
AcDbArc
 50
90.0
 51
180.0
  0
ARC
  5
1380
330
1F
100
AcDbEntity
  8
Sanindusa
100
AcDbCircle
 10
1506.020156420999
 20
1016.451792013761
 30
0.0
 40
0.005
100
AcDbArc
 50
0.0
 51
90.0
  0
LINE
  5
1384
330
1F
100
AcDbEntity
  8
Sanindusa
100
AcDbLine
 10
1506.320156420999
 20
1016.444792013761
 30
0.0
 11
1506.319472475264
 21
1016.405608788867
 31
0.0
  0
LINE
  5
1385
330
1F
100
AcDbEntity
  8
Sanindusa
100
AcDbLine
 10
1506.310156420999
 20
1016.451792013761
 30
0.0
 11
1506.309205141713
 21
1016.397293259963
 31
0.0
  0
LINE
  5
1386
330
1F
100
AcDbEntity
  8
Sanindusa
100
AcDbLine
 10
1506.348156420999
 20
1016.444792013761
 30
0.0
 11
1506.348156420999
 21
1016.40880236833
 31
0.0
  0
ARC
  5
138A
330
1F
100
AcDbEntity
  8
Sanindusa
100
AcDbCircle
 10
1506.167656420998
 20
1016.658919021299
 30
0.0
 40
0.3771270075379576
100
AcDbArc
 50
279.036485901864
 51
289.2871143310193
  0
ARC
  5
138B
330
1F
100
AcDbEntity
  8
Sanindusa
100
AcDbCircle
 10
1506.167656420998
 20
1016.658919021299
 30
0.0
 40
0.3891270075379577
100
AcDbArc
 50
278.9076343125089
 51
289.2871143310193
  0
ARC
  5
138C
330
1F
100
AcDbEntity
  8
Sanindusa
100
AcDbCircle
 10
1506.16769415055
 20
1016.653943816523
 30
0.0
 40
0.3663155337461021
100
AcDbArc
 50
259.0136771939472
 51
270.2638022119524
  0
LWPOLYLINE
  5
1391
330
1F
100
AcDbEntity
  8
Sanindusa
100
AcDbPolyline
 90
        3
 70
   128
 43
0.0
 10
1506.086829209715
 20
1016.296343694382
 10
1506.091835374679
 20
1016.295474337032
 10
1506.097883690902
 20
1016.294341856034
  0
LWPOLYLINE
  5
1393
330
1F
100
AcDbEntity
  8
Sanindusa
100
AcDbPolyline
 90
       10
 70
   128
 43
0.0
 10
1506.169380740862
 20
1016.287632165498
 10
1506.176943909157
 20
1016.287660340438
 10
1506.184388141918
 20
1016.287673408266
 10
1506.190388369429
 20
1016.287670872337
 10
1506.196169735274
 20
1016.287654641486
 10
1506.201628314133
 20
1016.287623352901
 10
1506.206590215282
 20
1016.287576709965
 10
1506.211145105076
 20
1016.287513288588
 10
1506.215206389949
 20
1016.287432855595
 10
1506.218891242715
 20
1016.28732937921
  0
ARC
  5
1396
330
1F
100
AcDbEntity
  8
Sanindusa
100
AcDbCircle
 10
1506.230030535994
 20
1016.266720946476
 30
0.0
 40
0.0200000000000002
100
AcDbArc
 50
99.03648590186399
 51
164.8553811998276
  0
LINE
  5
1397
330
1F
100
AcDbEntity
  8
Sanindusa
100
AcDbLine
 10
1506.226927274497
 20
1016.286613139852
 30
0.0
 11
1506.226889268147
 21
1016.286472716936
 31
0.0
  0
LWPOLYLINE
  5
1398
330
1F
100
AcDbEntity
  8
Sanindusa
100
AcDbPolyline
 90
        3
 70
   128
 43
0.0
 10
1506.226249058854
 20
1016.286859113236
 10
1506.226773927425
 20
1016.286739044459
 10
1506.226927274497
 20
1016.286613139852
  0
LWPOLYLINE
  5
1399
330
1F
100
AcDbEntity
  8
Sanindusa
100
AcDbPolyline
 90
        6
 70
   128
 43
0.0
 10
1506.2188912292
 20
1016.287329379664
 10
1506.220355294654
 20
1016.287276050094
 10
1506.222343747924
 20
1016.287186183907
 10
1506.223997465341
 20
1016.287086975078
 10
1506.225313836125
 20
1016.28697725609
 10
1506.22624905996
 20
1016.286859112883
  0
ARC
  5
139E
330
1F
100
AcDbEntity
  8
Sanindusa
100
AcDbCircle
 10
1506.229458054894
 20
1016.264605787696
 30
0.0
 40
0.01
100
AcDbArc
 50
98.90763431250896
 51
164.8553811998403
  0
ARC
  5
13A0
330
1F
100
AcDbEntity
  8
Sanindusa
100
AcDbCircle
 10
1506.264634955868
 20
1016.381792013761
 30
0.0
 40
0.0955214651304986
100
AcDbArc
 50
289.2871143310193
 51
314.5729157411742
  0
ARC
  5
13A1
330
1F
100
AcDbEntity
  8
Sanindusa
100
AcDbCircle
 10
1506.264634955868
 20
1016.381792013761
 30
0.0
 40
0.0835214651304989
100
AcDbArc
 50
289.2871143310193
 51
0.0
  0
ARC
  5
13A5
330
1F
100
AcDbEntity
  8
Sanindusa
100
AcDbCircle
 10
1506.335182567954
 20
1016.310184755881
 30
0.0
 40
0.005
100
AcDbArc
 50
343.5934309270931
 51
134.5729157411742
  0
LINE
  5
13A6
330
1F
100
AcDbEntity
  8
Sanindusa
100
AcDbLine
 10
1506.31128786795
 20
1016.395260079423
 30
0.0
 11
1506.346073390151
 21
1016.396705461232
 31
0.0
  0
LINE
  5
13A7
330
1F
100
AcDbEntity
  8
Sanindusa
100
AcDbLine
 10
1506.319472475264
 20
1016.405608788867
 30
0.0
 11
1506.348239451846
 21
1016.406804092603
 31
0.0
  0
ARC
  5
13A9
330
1F
100
AcDbEntity
  8
Sanindusa
100
AcDbCircle
 10
1506.311204837103
 20
1016.39725835515
 30
0.0
 40
0.002
100
AcDbArc
 50
178.9999999999982
 51
272.3793423735961
  0
ARC
  5
13AA
330
1F
100
AcDbEntity
  8
Sanindusa
100
AcDbCircle
 10
1506.346156420998
 20
1016.394707185506
 30
0.0
 40
0.002
100
AcDbArc
 50
0.0
 51
92.37934237359608
  0
LINE
  5
13AB
330
1F
100
AcDbEntity
  8
Sanindusa
100
AcDbLine
 10
1506.348156420999
 20
1016.381792013761
 30
0.0
 11
1506.348156420999
 21
1016.394707185506
 31
0.0
  0
LINE
  5
13AC
330
1F
100
AcDbEntity
  8
Sanindusa
100
AcDbLine
 10
1506.348156420999
 20
1016.40880236833
 30
0.0
 11
1506.348239451846
 21
1016.406804092603
 31
0.0
  0
LINE
  5
13AE
330
1F
100
AcDbEntity
  8
Sanindusa
100
AcDbLine
 10
1506.348156420999
 20
1016.444792013761
 30
0.0
 11
1506.320156420999
 21
1016.444792013761
 31
0.0
  0
LINE
  5
13AF
330
1F
100
AcDbEntity
  8
Sanindusa
100
AcDbLine
 10
1506.355156420998
 20
1016.456792013761
 30
0.0
 11
1506.315156420998
 21
1016.456792013761
 31
0.0
  0
ARC
  5
13B0
330
1F
100
AcDbEntity
  8
Sanindusa
100
AcDbCircle
 10
1506.315156420998
 20
1016.451792013761
 30
0.0
 40
0.005
100
AcDbArc
 50
90.0
 51
180.0
  0
ARC
  5
13B1
330
1F
100
AcDbEntity
  8
Sanindusa
100
AcDbCircle
 10
1506.355156420998
 20
1016.451792013761
 30
0.0
 40
0.005
100
AcDbArc
 50
0.0
 51
90.0
  0
LINE
  5
2B0E
330
1F
100
AcDbEntity
  8
Sanindusa
100
AcDbLine
 10
1505.100167550016
 20
1016.081868829439
 30
0.0
 11
1505.472000561411
 21
1016.095640422454
 31
0.0
  0
LINE
  5
2B11
330
1F
100
AcDbEntity
  8
Sanindusa
100
AcDbLine
 10
1505.633093526695
 20
1016.456792013761
 30
0.0
 11
1505.258093526695
 21
1016.456792013761
 31
0.0
  0
LWPOLYLINE
  5
2B12
330
1F
100
AcDbEntity
  8
Sanindusa
100
AcDbPolyline
 90
       22
 70
   128
 43
0.0
 10
1505.638093526695
 20
1016.451792013761
 10
1505.638093526695
 20
1016.428198740426
 10
1505.638093526695
 20
1016.409605467092
 10
1505.638093526695
 20
1016.391012193758
 10
1505.637960607876
 20
1016.372433108527
 10
1505.636917085661
 20
1016.353967504591
 10
1505.634851772831
 20
1016.335668659925
 10
1505.631782844352
 20
1016.317577813705
 10
1505.627271266514
 20
1016.297969067767
 10
1505.621590257244
 20
1016.278715549613
 10
1505.614754706055
 20
1016.259862847219
 10
1505.606779457856
 20
1016.24145650396
 10
1505.597679357558
 20
1016.223542063213
 10
1505.5874706523
 20
1016.206166470579
 10
1505.576188457059
 20
1016.189395539504
 10
1505.563881400926
 20
1016.173308597541
 10
1505.550598406954
 20
1016.157985266207
 10
1505.536388614974
 20
1016.143504951725
 10
1505.521589233127
 20
1016.130169455758
 10
1505.506028718875
 20
1016.117760321533
 10
1505.489782604154
 20
1016.106323997887
 10
1505.472926420897
 20
1016.095906933657
  0
ARC
  5
2B13
330
1F
100
AcDbEntity
  8
Sanindusa
100
AcDbCircle
 10
1505.47192653809
 20
1016.097639052121
 30
0.0
 40
0.002
100
AcDbArc
 50
272.1210963966661
 51
299.9961233278888
  0
ARC
  5
2B14
330
1F
100
AcDbEntity
  8
Sanindusa
100
AcDbCircle
 10
1505.633093526695
 20
1016.451792013761
 30
0.0
 40
0.005
100
AcDbArc
 50
0.000000000000007
 51
90.0
  0
LWPOLYLINE
  5
2B17
330
1F
100
AcDbEntity
  8
Sanindusa
100
AcDbPolyline
 90
        7
 70
   128
 43
0.0
 10
1505.150057536597
 20
1016.318750498428
 10
1505.1499904493
 20
1016.327664254828
 10
1505.149941357487
 20
1016.33636550854
 10
1505.149901380106
 20
1016.349484374315
 10
1505.149906780388
 20
1016.361863798985
 10
1505.149959839311
 20
1016.37374153528
 10
1505.150059911192
 20
1016.384668844628
  0
LWPOLYLINE
  5
2B1B
330
1F
100
AcDbEntity
  8
Sanindusa
100
AcDbPolyline
 90
        8
 70
   128
 43
0.0
 10
1505.179342674713
 20
1016.385015732304
 10
1505.179438534691
 20
1016.373758583067
 10
1505.179487618111
 20
1016.361566003681
 10
1505.17949412375
 20
1016.352706086472
 10
1505.17947843069
 20
1016.343467048023
 10
1505.179440007773
 20
1016.333885354789
 10
1505.1793954253
 20
1016.326412956383
 10
1505.179337315744
 20
1016.318750498428
  0
LINE
  5
2B1E
330
1F
100
AcDbEntity
  8
Sanindusa
100
AcDbLine
 10
1505.098093526695
 20
1016.429792013761
 30
0.0
 11
1505.098093526695
 21
1016.083867459107
 31
0.0
  0
ARC
  5
2B1F
330
1F
100
AcDbEntity
  8
Sanindusa
100
AcDbCircle
 10
1505.100093526695
 20
1016.083867459107
 30
0.0
 40
0.002
100
AcDbArc
 50
180.0
 51
272.1210963966661
  0
LINE
  5
2B22
330
1F
100
AcDbEntity
  8
Sanindusa
100
AcDbLine
 10
1505.17736853198
 20
1016.316792013761
 30
0.0
 11
1505.152230916537
 21
1016.316792013761
 31
0.0
  0
LWPOLYLINE
  5
2B28
330
1F
100
AcDbEntity
  8
Sanindusa
100
AcDbPolyline
 90
        7
 70
   128
 43
0.0
 10
1505.179337315744
 20
1016.318750498428
 10
1505.179208353682
 20
1016.318051533639
 10
1505.178827282433
 20
1016.317431556144
 10
1505.178266141223
 20
1016.317004887248
 10
1505.177779936002
 20
1016.316834323871
 10
1505.177634922278
 20
1016.316809504054
 10
1505.177494798157
 20
1016.316795844125
  0
LWPOLYLINE
  5
2B2C
330
1F
100
AcDbEntity
  8
Sanindusa
100
AcDbPolyline
 90
        6
 70
   128
 43
0.0
 10
1505.152022530064
 20
1016.316792013761
 10
1505.151771583255
 20
1016.316807842296
 10
1505.151134715004
 20
1016.317001529851
 10
1505.150569724411
 20
1016.317428907222
 10
1505.150187370595
 20
1016.318049169029
 10
1505.150057536597
 20
1016.318750498428
  0
LINE
  5
2B2F
330
1F
100
AcDbEntity
  8
Sanindusa
100
AcDbLine
 10
1505.152230916537
 20
1016.316792013761
 30
0.0
 11
1505.152022530064
 21
1016.316792013761
 31
0.0
  0
ARC
  5
2B32
330
1F
100
AcDbEntity
  8
Sanindusa
100
AcDbCircle
 10
1505.258093526695
 20
1016.451792013761
 30
0.0
 40
0.005
100
AcDbArc
 50
90.0
 51
180.0
  0
LWPOLYLINE
  5
2B33
330
1F
100
AcDbEntity
  8
Sanindusa
100
AcDbPolyline
 90
       12
 70
   128
 43
0.0
 10
1505.100093526695
 20
1016.431792013761
 10
1505.186716506814
 20
1016.431792013761
 10
1505.223938158464
 20
1016.431792013761
 10
1505.24031568519
 20
1016.431792013761
 10
1505.243532699368
 20
1016.431792013761
 10
1505.246705373216
 20
1016.431954752029
 10
1505.24949230398
 20
1016.433110445184
 10
1505.251626680196
 20
1016.435176200626
 10
1505.252868496325
 20
1016.437901696782
 10
1505.253093526695
 20
1016.441041080209
 10
1505.253093526695
 20
1016.444243485948
 10
1505.253093526695
 20
1016.451792013761
  0
LWPOLYLINE
  5
2B35
330
1F
100
AcDbEntity
  8
Sanindusa
100
AcDbPolyline
 90
        3
 70
   128
 43
0.0
 10
1505.152062842258
 20
1016.385917540507
 10
1505.16469895768
 20
1016.38591151638
 10
1505.177336037569
 20
1016.386181660352
  0
LWPOLYLINE
  5
2B3A
330
1F
100
AcDbEntity
  8
Sanindusa
100
AcDbPolyline
 90
       11
 70
   128
 43
0.0
 10
1505.219637141005
 20
1016.417133198237
 10
1505.219751667473
 20
1016.417910693473
 10
1505.220800194249
 20
1016.419250081967
 10
1505.222626729836
 20
1016.420381893311
 10
1505.224984588091
 20
1016.421255658511
 10
1505.227631962905
 20
1016.42185300294
 10
1505.230327139289
 20
1016.42216382878
 10
1505.232827640545
 20
1016.42217238441
 10
1505.234888057594
 20
1016.421845018845
 10
1505.236235782999
 20
1016.421123625949
 10
1505.236588882099
 20
1016.420361522755
  0
LWPOLYLINE
  5
2B3C
330
1F
100
AcDbEntity
  8
Sanindusa
100
AcDbPolyline
 90
       11
 70
   128
 43
0.0
 10
1505.226667009338
 20
1016.415281567149
 10
1505.2281675349
 20
1016.41552764203
 10
1505.229682799508
 20
1016.415904244868
 10
1505.231168291618
 20
1016.416400015389
 10
1505.232572098348
 20
1016.416994248381
 10
1505.23384466895
 20
1016.417660646509
 10
1505.234932534947
 20
1016.418364852631
 10
1505.235772945056
 20
1016.419053597514
 10
1505.23631014068
 20
1016.419649306323
 10
1505.23655538105
 20
1016.42007942763
 10
1505.236584562811
 20
1016.420177200561
  0
LINE
  5
2B3D
330
1F
100
AcDbEntity
  8
Sanindusa
100
AcDbLine
 10
1505.236588882099
 20
1016.420361522755
 30
0.0
 11
1505.236584562811
 21
1016.420177200561
 31
0.0
  0
LWPOLYLINE
  5
2B3E
330
1F
100
AcDbEntity
  8
Sanindusa
100
AcDbPolyline
 90
       11
 70
   128
 43
0.0
 10
1505.219637141005
 20
1016.417133198237
 10
1505.219637141005
 20
1016.417133198237
 10
1505.219698561197
 20
1016.416778478888
 10
1505.219995209409
 20
1016.416417668397
 10
1505.22053052051
 20
1016.416035630663
 10
1505.221375372135
 20
1016.41565637226
 10
1505.222470673265
 20
1016.415364837682
 10
1505.223744473166
 20
1016.41519601446
 10
1505.225161249159
 20
1016.415166464809
 10
1505.226638819775
 20
1016.415276944273
 10
1505.226667009338
 20
1016.415281567149
  0
LWPOLYLINE
  5
2B3F
330
1F
100
AcDbEntity
  8
Sanindusa
100
AcDbPolyline
 90
        6
 70
   128
 43
0.0
 10
1505.177336037569
 20
1016.386181660352
 10
1505.178002206051
 20
1016.386152895093
 10
1505.178593247171
 20
1016.385980932595
 10
1505.179041413835
 20
1016.385682561799
 10
1505.179295431601
 20
1016.385290069019
 10
1505.179342674713
 20
1016.385015732304
  0
LWPOLYLINE
  5
2B45
330
1F
100
AcDbEntity
  8
Sanindusa
100
AcDbPolyline
 90
       39
 70
   128
 43
0.0
 10
1505.150659089857
 20
1016.35484235696
 10
1505.150665519553
 20
1016.352946588672
 10
1505.150684633256
 20
1016.350883505839
 10
1505.150715909593
 20
1016.348709383983
 10
1505.150758495429
 20
1016.346483527481
 10
1505.150811229131
 20
1016.344266651895
 10
1505.150872672263
 20
1016.342119227813
 10
1505.150941148815
 20
1016.340099831365
 10
1505.151014790927
 20
1016.338263546423
 10
1505.151091589833
 20
1016.336660462053
 10
1505.151169450658
 20
1016.335334306218
 10
1505.151246249564
 20
1016.334321252991
 10
1505.151319891675
 20
1016.333648935824
 10
1505.151388368228
 20
1016.333335693777
 10
1505.15144981136
 20
1016.333390071276
 10
1505.151502545062
 20
1016.333810585045
 10
1505.151545130897
 20
1016.334585764564
 10
1505.151576407235
 20
1016.335694464957
 10
1505.151595520938
 20
1016.337106443768
 10
1505.151601950634
 20
1016.338783185894
 10
1505.151595520938
 20
1016.340678954182
 10
1505.151576407235
 20
1016.342742037015
 10
1505.151545130897
 20
1016.344916158871
 10
1505.151502545062
 20
1016.347142015373
 10
1505.15144981136
 20
1016.349358890959
 10
1505.151388368228
 20
1016.351506315041
 10
1505.151319891675
 20
1016.353525711489
 10
1505.151246249564
 20
1016.35536199643
 10
1505.151169450658
 20
1016.356965080801
 10
1505.151091589833
 20
1016.358291236636
 10
1505.151014790927
 20
1016.359304289863
 10
1505.150941148815
 20
1016.359976607029
 10
1505.150872672263
 20
1016.360289849076
 10
1505.150811229131
 20
1016.360235471577
 10
1505.150758495429
 20
1016.359814957809
 10
1505.150715909593
 20
1016.359039778289
 10
1505.150684633256
 20
1016.357931077896
 10
1505.150665519553
 20
1016.356519099086
 10
1505.150659089857
 20
1016.35484235696
  0
LWPOLYLINE
  5
2B47
330
1F
100
AcDbEntity
  8
Sanindusa
100
AcDbPolyline
 90
        6
 70
   128
 43
0.0
 10
1505.150059911192
 20
1016.384668844628
 10
1505.150177700366
 20
1016.385097125197
 10
1505.150507574539
 20
1016.385469156666
 10
1505.151012546004
 20
1016.385744875679
 10
1505.151636289601
 20
1016.385895133246
 10
1505.152062842258
 20
1016.385917540507
  0
ARC
  5
2B4B
330
1F
100
AcDbEntity
  8
Sanindusa
100
AcDbCircle
 10
1505.100093526695
 20
1016.429792013761
 30
0.0
 40
0.0020000000000005
100
AcDbArc
 50
90.0
 51
180.0
  0
ENDSEC
  0
SECTION
  2
OBJECTS
  0
DICTIONARY
  5
C
330
0
100
AcDbDictionary
281
     1
  3
ACAD_COLOR
350
2B7C
  3
ACAD_GROUP
350
D
  3
ACAD_LAYOUT
350
1A
  3
ACAD_MATERIAL
350
2B4F
  3
ACAD_MLEADERSTYLE
350
2B91
  3
ACAD_MLINESTYLE
350
17
  3
ACAD_PLOTSETTINGS
350
19
  3
ACAD_PLOTSTYLENAME
350
E
  3
ACAD_SCALELIST
350
2B7F
  3
ACAD_TABLESTYLE
350
2B7D
  3
ACAD_VISUALSTYLE
350
2B68
  3
ACDB_RECOMPOSE_DATA
350
2BBE
  3
AcDbVariableDictionary
350
3D
  3
ASE_INDEX_DICTIONARY
350
B91
  3
DWGPROPS
350
2BBF
  0
DICTIONARY
  5
2B98
330
10
100
AcDbDictionary
280
     1
281
     1
  3
ADSK_XREC_LAYER_RECONCILED
360
2B99
  0
DICTIONARY
  5
2B9A
330
2F
100
AcDbDictionary
280
     1
281
     1
  3
ADSK_XREC_LAYER_RECONCILED
360
2B9B
  0
DICTIONARY
  5
2B9C
330
30
100
AcDbDictionary
280
     1
281
     1
  3
ADSK_XREC_LAYER_RECONCILED
360
2B9D
  0
DICTIONARY
  5
2B9E
330
31
100
AcDbDictionary
280
     1
281
     1
  3
ADSK_XREC_LAYER_RECONCILED
360
2B9F
  0
DICTIONARY
  5
2BA0
330
32
100
AcDbDictionary
280
     1
281
     1
  3
ADSK_XREC_LAYER_RECONCILED
360
2BA1
  0
DICTIONARY
  5
2BA2
330
33
100
AcDbDictionary
280
     1
281
     1
  3
ADSK_XREC_LAYER_RECONCILED
360
2BA3
  0
DICTIONARY
  5
2BA4
330
34
100
AcDbDictionary
280
     1
281
     1
  3
ADSK_XREC_LAYER_RECONCILED
360
2BA5
  0
DICTIONARY
  5
2BA6
330
35
100
AcDbDictionary
280
     1
281
     1
  3
ADSK_XREC_LAYER_RECONCILED
360
2BA7
  0
DICTIONARY
  5
2BA8
330
36
100
AcDbDictionary
280
     1
281
     1
  3
ADSK_XREC_LAYER_RECONCILED
360
2BA9
  0
DICTIONARY
  5
2BAA
330
37
100
AcDbDictionary
280
     1
281
     1
  3
ADSK_XREC_LAYER_RECONCILED
360
2BAB
  0
DICTIONARY
  5
2BAC
330
5D6
100
AcDbDictionary
280
     1
281
     1
  3
ADSK_XREC_LAYER_RECONCILED
360
2BAD
  0
DICTIONARY
  5
2BAE
330
8AF
100
AcDbDictionary
280
     1
281
     1
  3
ADSK_XREC_LAYER_RECONCILED
360
2BAF
  0
DICTIONARY
  5
2BB0
330
8F8
100
AcDbDictionary
280
     1
281
     1
  3
ADSK_XREC_LAYER_RECONCILED
360
2BB1
  0
DICTIONARY
  5
2BB2
330
91D
100
AcDbDictionary
280
     1
281
     1
  3
ADSK_XREC_LAYER_RECONCILED
360
2BB3
  0
DICTIONARY
  5
2BB4
330
D9F
100
AcDbDictionary
280
     1
281
     1
  3
ADSK_XREC_LAYER_RECONCILED
360
2BB5
  0
DICTIONARY
  5
2B7C
102
{ACAD_REACTORS
330
C
102
}
330
C
100
AcDbDictionary
281
     1
  0
DICTIONARY
  5
D
102
{ACAD_REACTORS
330
C
102
}
330
C
100
AcDbDictionary
281
     1
  0
DICTIONARY
  5
1A
102
{ACAD_REACTORS
330
C
102
}
330
C
100
AcDbDictionary
281
     1
  3
Layout1
350
1E
  3
Layout2
350
26
  3
Model
350
22
  0
DICTIONARY
  5
2B4F
102
{ACAD_REACTORS
330
C
102
}
330
C
100
AcDbDictionary
281
     1
  3
ByBlock
350
2B58
  3
ByLayer
350
2B50
  3
Global
350
2B60
  0
DICTIONARY
  5
2B91
102
{ACAD_REACTORS
330
C
102
}
330
C
100
AcDbDictionary
281
     1
  3
Standard
350
2B92
  0
DICTIONARY
  5
17
102
{ACAD_REACTORS
330
C
102
}
330
C
100
AcDbDictionary
281
     1
  3
Standard
350
18
  0
DICTIONARY
  5
19
102
{ACAD_REACTORS
330
C
102
}
330
C
100
AcDbDictionary
281
     1
  0
ACDBDICTIONARYWDFLT
  5
E
102
{ACAD_REACTORS
330
C
102
}
330
C
100
AcDbDictionary
281
     1
  3
Normal
350
F
100
AcDbDictionaryWithDefault
340
F
  0
DICTIONARY
  5
2B7F
102
{ACAD_REACTORS
330
C
102
}
330
C
100
AcDbDictionary
281
     1
  3
A0
350
2B80
  3
A1
350
2B81
  3
A2
350
2B82
  3
A3
350
2B83
  3
A4
350
2B84
  3
A5
350
2B85
  3
A6
350
2B86
  3
A7
350
2B87
  3
A8
350
2B88
  3
A9
350
2B89
  3
B0
350
2B8A
  3
B1
350
2B8B
  3
B2
350
2B8C
  3
B3
350
2B8D
  3
B4
350
2B8E
  3
B5
350
2B8F
  3
B6
350
2B90
  0
DICTIONARY
  5
2B7D
102
{ACAD_REACTORS
330
C
102
}
330
C
100
AcDbDictionary
281
     1
  3
Standard
350
2B7E
  0
DICTIONARY
  5
2B68
102
{ACAD_REACTORS
330
C
102
}
330
C
100
AcDbDictionary
281
     1
  3
2dWireframe
350
2B6E
  3
3D Hidden
350
2B70
  3
3dWireframe
350
2B6F
  3
Basic
350
2B6D
  3
Brighten
350
2B74
  3
ColorChange
350
2B78
  3
Conceptual
350
2B71
  3
Dim
350
2B73
  3
EdgeColorOff
350
2B7B
  3
Facepattern
350
2B77
  3
Flat
350
2B69
  3
FlatWithEdges
350
2B6A
  3
Gouraud
350
2B6B
  3
GouraudWithEdges
350
2B6C
  3
JitterOff
350
2B79
  3
Linepattern
350
2B76
  3
OverhangOff
350
2B7A
  3
Realistic
350
2B72
  3
Thicken
350
2B75
  0
XRECORD
  5
2BBE
102
{ACAD_REACTORS
330
C
102
}
330
C
100
AcDbXrecord
280
     1
 90
        1
330
2B7E
  0
DICTIONARY
  5
3D
102
{ACAD_REACTORS
330
C
102
}
330
C
100
AcDbDictionary
281
     1
  3
CANNOSCALE
350
2BB8
  3
CMLEADERSTYLE
350
2BB7
  3
CTABLESTYLE
350
2BB6
  3
DIMASSOC
350
3F
  3
HIDETEXT
350
3E
  3
INDEXCTL
350
2BBA
  3
SORTENTS
350
2BB9
  3
XCLIPFRAME
350
2BBB
  0
DICTIONARY
  5
B91
102
{ACAD_REACTORS
330
C
102
}
330
C
100
AcDbDictionary
281
     1
  3
ASEBlockHierarchyIndexRecord
350
B92
1001
DCO15
1040
1485069952.593
  0
XRECORD
  5
2BBF
102
{ACAD_REACTORS
330
C
102
}
330
C
100
AcDbXrecord
280
     1
  1
DWGPROPS COOKIE
  2

  3

  4

  6

  7

  8
Julio
  9

300
=
301
=
302
=
303
=
304
=
305
=
306
=
307
=
308
=
309
=
 40
0.004487662037037
 41
2453482.393429179
 42
2456149.700539815
  1

 90
        0
  0
XRECORD
  5
2B99
102
{ACAD_REACTORS
330
2B98
102
}
330
2B98
100
AcDbXrecord
280
     1
290
     1
  0
XRECORD
  5
2B9B
102
{ACAD_REACTORS
330
2B9A
102
}
330
2B9A
100
AcDbXrecord
280
     1
290
     1
  0
XRECORD
  5
2B9D
102
{ACAD_REACTORS
330
2B9C
102
}
330
2B9C
100
AcDbXrecord
280
     1
290
     1
  0
XRECORD
  5
2B9F
102
{ACAD_REACTORS
330
2B9E
102
}
330
2B9E
100
AcDbXrecord
280
     1
290
     1
  0
XRECORD
  5
2BA1
102
{ACAD_REACTORS
330
2BA0
102
}
330
2BA0
100
AcDbXrecord
280
     1
290
     1
  0
XRECORD
  5
2BA3
102
{ACAD_REACTORS
330
2BA2
102
}
330
2BA2
100
AcDbXrecord
280
     1
290
     1
  0
XRECORD
  5
2BA5
102
{ACAD_REACTORS
330
2BA4
102
}
330
2BA4
100
AcDbXrecord
280
     1
290
     1
  0
XRECORD
  5
2BA7
102
{ACAD_REACTORS
330
2BA6
102
}
330
2BA6
100
AcDbXrecord
280
     1
290
     1
  0
XRECORD
  5
2BA9
102
{ACAD_REACTORS
330
2BA8
102
}
330
2BA8
100
AcDbXrecord
280
     1
290
     1
  0
XRECORD
  5
2BAB
102
{ACAD_REACTORS
330
2BAA
102
}
330
2BAA
100
AcDbXrecord
280
     1
290
     1
  0
XRECORD
  5
2BAD
102
{ACAD_REACTORS
330
2BAC
102
}
330
2BAC
100
AcDbXrecord
280
     1
290
     1
  0
XRECORD
  5
2BAF
102
{ACAD_REACTORS
330
2BAE
102
}
330
2BAE
100
AcDbXrecord
280
     1
290
     1
  0
XRECORD
  5
2BB1
102
{ACAD_REACTORS
330
2BB0
102
}
330
2BB0
100
AcDbXrecord
280
     1
290
     1
  0
XRECORD
  5
2BB3
102
{ACAD_REACTORS
330
2BB2
102
}
330
2BB2
100
AcDbXrecord
280
     1
290
     1
  0
XRECORD
  5
2BB5
102
{ACAD_REACTORS
330
2BB4
102
}
330
2BB4
100
AcDbXrecord
280
     1
290
     1
  0
LAYOUT
  5
1E
102
{ACAD_XDICTIONARY
360
2BC0
102
}
102
{ACAD_REACTORS
330
1A
102
}
330
1A
100
AcDbPlotSettings
  1

  2
Ploter HP500
  4

  6

 40
0.0
 41
0.0
 42
0.0
 43
0.0
 44
0.0
 45
0.0
 46
0.0
 47
0.0
 48
0.0
 49
0.0
140
0.0
141
0.0
142
1.0
143
1.0
 70
   688
 72
     0
 73
     0
 74
     5
  7
monochrome.ctb
 75
    16
147
1.0
148
0.0
149
0.0
100
AcDbLayout
  1
Layout1
 70
     1
 71
     1
 10
0.0
 20
0.0
 11
420.0
 21
297.0
 12
0.0
 22
0.0
 32
0.0
 14
1.000000000000000E+20
 24
1.000000000000000E+20
 34
1.000000000000000E+20
 15
-1.000000000000000E+20
 25
-1.000000000000000E+20
 35
-1.000000000000000E+20
146
0.0
 13
0.0
 23
0.0
 33
0.0
 16
1.0
 26
0.0
 36
0.0
 17
0.0
 27
1.0
 37
0.0
 76
     0
330
1B
  0
LAYOUT
  5
26
102
{ACAD_XDICTIONARY
360
2BC4
102
}
102
{ACAD_REACTORS
330
1A
102
}
330
1A
100
AcDbPlotSettings
  1

  2
Ploter HP500
  4

  6

 40
0.0
 41
0.0
 42
0.0
 43
0.0
 44
0.0
 45
0.0
 46
0.0
 47
0.0
 48
0.0
 49
0.0
140
0.0
141
0.0
142
1.0
143
1.0
 70
   688
 72
     0
 73
     0
 74
     5
  7
monochrome.ctb
 75
    16
147
1.0
148
0.0
149
0.0
100
AcDbLayout
  1
Layout2
 70
     1
 71
     2
 10
0.0
 20
0.0
 11
12.0
 21
9.0
 12
0.0
 22
0.0
 32
0.0
 14
0.0
 24
0.0
 34
0.0
 15
0.0
 25
0.0
 35
0.0
146
0.0
 13
0.0
 23
0.0
 33
0.0
 16
1.0
 26
0.0
 36
0.0
 17
0.0
 27
1.0
 37
0.0
 76
     0
330
23
  0
LAYOUT
  5
22
102
{ACAD_XDICTIONARY
360
2BC2
102
}
102
{ACAD_REACTORS
330
1A
102
}
330
1A
100
AcDbPlotSettings
  1

  2
Ploter HP500
  4
User268
  6

 40
4.995333194732666
 41
16.97565841674804
 42
4.995330810546875
 43
16.97567749023437
 44
209.9733276367187
 45
296.9259948730469
 46
0.0
 47
0.0
 48
0.0
 49
0.0
140
0.0
141
0.0
142
1.0
143
1.0
 70
 11952
 72
     1
 73
     1
 74
     0
  7

 75
     0
147
1.0
148
-427.5957866592534
149
7.362384574453926
100
AcDbLayout
  1
Model
 70
     1
 71
     0
 10
0.0
 20
0.0
 11
12.0
 21
9.0
 12
0.0
 22
0.0
 32
0.0
 14
0.0
 24
0.0
 34
0.0
 15
0.0
 25
0.0
 35
0.0
146
0.0
 13
0.0
 23
0.0
 33
0.0
 16
1.0
 26
0.0
 36
0.0
 17
0.0
 27
1.0
 37
0.0
 76
     0
330
1F
331
2B4D
  0
MATERIAL
  5
2B58
102
{ACAD_XDICTIONARY
360
2B59
102
}
102
{ACAD_REACTORS
330
2B4F
102
}
330
2B4F
100
AcDbMaterial
  1
ByBlock
 72
     0
 43
0.0008202099737533
 43
0.0
 43
0.0
 43
0.0
 43
0.0
 43
0.0008202099737533
 43
0.0
 43
0.0
 43
0.0
 43
0.0
 43
1.0
 43
0.0
 43
0.0
 43
0.0
 43
0.0
 43
1.0
 77
     0
 47
0.0008202099737533
 47
0.0
 47
0.0
 47
0.0
 47
0.0
 47
0.0008202099737533
 47
0.0
 47
0.0
 47
0.0
 47
0.0
 47
1.0
 47
0.0
 47
0.0
 47
0.0
 47
0.0
 47
1.0
171
     0
 49
0.0008202099737533
 49
0.0
 49
0.0
 49
0.0
 49
0.0
 49
0.0008202099737533
 49
0.0
 49
0.0
 49
0.0
 49
0.0
 49
1.0
 49
0.0
 49
0.0
 49
0.0
 49
0.0
 49
1.0
175
     0
142
0.0008202099737533
142
0.0
142
0.0
142
0.0
142
0.0
142
0.0008202099737533
142
0.0
142
0.0
142
0.0
142
0.0
142
1.0
142
0.0
142
0.0
142
0.0
142
0.0
142
1.0
179
     0
144
0.0008202099737533
144
0.0
144
0.0
144
0.0
144
0.0
144
0.0008202099737533
144
0.0
144
0.0
144
0.0
144
0.0
144
1.0
144
0.0
144
0.0
144
0.0
144
0.0
144
1.0
147
0.0008202099737533
147
0.0
147
0.0
147
0.0
147
0.0
147
0.0008202099737533
147
0.0
147
0.0
147
0.0
147
0.0
147
1.0
147
0.0
147
0.0
147
0.0
147
0.0
147
1.0
  0
MATERIAL
  5
2B50
102
{ACAD_XDICTIONARY
360
2B51
102
}
102
{ACAD_REACTORS
330
2B4F
102
}
330
2B4F
100
AcDbMaterial
  1
ByLayer
 72
     0
 43
0.0008202099737533
 43
0.0
 43
0.0
 43
0.0
 43
0.0
 43
0.0008202099737533
 43
0.0
 43
0.0
 43
0.0
 43
0.0
 43
1.0
 43
0.0
 43
0.0
 43
0.0
 43
0.0
 43
1.0
 77
     0
 47
0.0008202099737533
 47
0.0
 47
0.0
 47
0.0
 47
0.0
 47
0.0008202099737533
 47
0.0
 47
0.0
 47
0.0
 47
0.0
 47
1.0
 47
0.0
 47
0.0
 47
0.0
 47
0.0
 47
1.0
171
     0
 49
0.0008202099737533
 49
0.0
 49
0.0
 49
0.0
 49
0.0
 49
0.0008202099737533
 49
0.0
 49
0.0
 49
0.0
 49
0.0
 49
1.0
 49
0.0
 49
0.0
 49
0.0
 49
0.0
 49
1.0
175
     0
142
0.0008202099737533
142
0.0
142
0.0
142
0.0
142
0.0
142
0.0008202099737533
142
0.0
142
0.0
142
0.0
142
0.0
142
1.0
142
0.0
142
0.0
142
0.0
142
0.0
142
1.0
179
     0
144
0.0008202099737533
144
0.0
144
0.0
144
0.0
144
0.0
144
0.0008202099737533
144
0.0
144
0.0
144
0.0
144
0.0
144
1.0
144
0.0
144
0.0
144
0.0
144
0.0
144
1.0
147
0.0008202099737533
147
0.0
147
0.0
147
0.0
147
0.0
147
0.0008202099737533
147
0.0
147
0.0
147
0.0
147
0.0
147
1.0
147
0.0
147
0.0
147
0.0
147
0.0
147
1.0
  0
MATERIAL
  5
2B60
102
{ACAD_XDICTIONARY
360
2B61
102
}
102
{ACAD_REACTORS
330
2B4F
102
}
330
2B4F
100
AcDbMaterial
  1
Global
 72
     0
 43
0.0008202099737533
 43
0.0
 43
0.0
 43
0.0
 43
0.0
 43
0.0008202099737533
 43
0.0
 43
0.0
 43
0.0
 43
0.0
 43
1.0
 43
0.0
 43
0.0
 43
0.0
 43
0.0
 43
1.0
 77
     0
 47
0.0008202099737533
 47
0.0
 47
0.0
 47
0.0
 47
0.0
 47
0.0008202099737533
 47
0.0
 47
0.0
 47
0.0
 47
0.0
 47
1.0
 47
0.0
 47
0.0
 47
0.0
 47
0.0
 47
1.0
171
     0
 49
0.0008202099737533
 49
0.0
 49
0.0
 49
0.0
 49
0.0
 49
0.0008202099737533
 49
0.0
 49
0.0
 49
0.0
 49
0.0
 49
1.0
 49
0.0
 49
0.0
 49
0.0
 49
0.0
 49
1.0
175
     0
142
0.0008202099737533
142
0.0
142
0.0
142
0.0
142
0.0
142
0.0008202099737533
142
0.0
142
0.0
142
0.0
142
0.0
142
1.0
142
0.0
142
0.0
142
0.0
142
0.0
142
1.0
179
     0
144
0.0008202099737533
144
0.0
144
0.0
144
0.0
144
0.0
144
0.0008202099737533
144
0.0
144
0.0
144
0.0
144
0.0
144
1.0
144
0.0
144
0.0
144
0.0
144
0.0
144
1.0
147
0.0008202099737533
147
0.0
147
0.0
147
0.0
147
0.0
147
0.0008202099737533
147
0.0
147
0.0
147
0.0
147
0.0
147
1.0
147
0.0
147
0.0
147
0.0
147
0.0
147
1.0
  0
MLEADERSTYLE
  5
2B92
102
{ACAD_REACTORS
330
2B91
102
}
330
2B91
100
AcDbMLeaderStyle
170
     2
171
     1
172
     0
 90
        2
 40
0.0
 41
0.0
173
     1
 91
-1056964608
340
14
 92
       -2
290
     1
 42
2.0
291
     1
 43
0.36
  3
Standard
 44
4.0
300

342
11
174
     1
178
     6
175
     1
176
     0
 93
-1056964608
 45
4.0
292
     0
297
     0
 46
4.0
 94
-1056964608
 47
1.0
 49
1.0
140
1.0
293
     1
141
0.0
294
     1
177
     0
142
1.0
295
     0
296
     0
143
0.125
1001
ACAD_MLEADERVER
1070
     2
  0
MLINESTYLE
  5
18
102
{ACAD_REACTORS
330
17
102
}
330
17
100
AcDbMlineStyle
  2
STANDARD
 70
     0
  3

 62
   256
 51
90.0
 52
90.0
 71
     2
 49
0.5
 62
   256
  6
BYLAYER
 49
-0.5
 62
   256
  6
BYLAYER
  0
ACDBPLACEHOLDER
  5
F
102
{ACAD_REACTORS
330
E
102
}
330
E
  0
SCALE
  5
2B80
102
{ACAD_REACTORS
330
2B7F
102
}
330
2B7F
100
AcDbScale
 70
     0
300
1:1
140
1.0
141
1.0
290
     1
  0
SCALE
  5
2B81
102
{ACAD_REACTORS
330
2B7F
102
}
330
2B7F
100
AcDbScale
 70
     0
300
1:2
140
1.0
141
2.0
290
     0
  0
SCALE
  5
2B82
102
{ACAD_REACTORS
330
2B7F
102
}
330
2B7F
100
AcDbScale
 70
     0
300
1:4
140
1.0
141
4.0
290
     0
  0
SCALE
  5
2B83
102
{ACAD_REACTORS
330
2B7F
102
}
330
2B7F
100
AcDbScale
 70
     0
300
1:5
140
1.0
141
5.0
290
     0
  0
SCALE
  5
2B84
102
{ACAD_REACTORS
330
2B7F
102
}
330
2B7F
100
AcDbScale
 70
     0
300
1:8
140
1.0
141
8.0
290
     0
  0
SCALE
  5
2B85
102
{ACAD_REACTORS
330
2B7F
102
}
330
2B7F
100
AcDbScale
 70
     0
300
1:10
140
1.0
141
10.0
290
     0
  0
SCALE
  5
2B86
102
{ACAD_REACTORS
330
2B7F
102
}
330
2B7F
100
AcDbScale
 70
     0
300
1:16
140
1.0
141
16.0
290
     0
  0
SCALE
  5
2B87
102
{ACAD_REACTORS
330
2B7F
102
}
330
2B7F
100
AcDbScale
 70
     0
300
1:20
140
1.0
141
20.0
290
     0
  0
SCALE
  5
2B88
102
{ACAD_REACTORS
330
2B7F
102
}
330
2B7F
100
AcDbScale
 70
     0
300
1:30
140
1.0
141
30.0
290
     0
  0
SCALE
  5
2B89
102
{ACAD_REACTORS
330
2B7F
102
}
330
2B7F
100
AcDbScale
 70
     0
300
1:40
140
1.0
141
40.0
290
     0
  0
SCALE
  5
2B8A
102
{ACAD_REACTORS
330
2B7F
102
}
330
2B7F
100
AcDbScale
 70
     0
300
1:50
140
1.0
141
50.0
290
     0
  0
SCALE
  5
2B8B
102
{ACAD_REACTORS
330
2B7F
102
}
330
2B7F
100
AcDbScale
 70
     0
300
1:100
140
1.0
141
100.0
290
     0
  0
SCALE
  5
2B8C
102
{ACAD_REACTORS
330
2B7F
102
}
330
2B7F
100
AcDbScale
 70
     0
300
2:1
140
2.0
141
1.0
290
     0
  0
SCALE
  5
2B8D
102
{ACAD_REACTORS
330
2B7F
102
}
330
2B7F
100
AcDbScale
 70
     0
300
4:1
140
4.0
141
1.0
290
     0
  0
SCALE
  5
2B8E
102
{ACAD_REACTORS
330
2B7F
102
}
330
2B7F
100
AcDbScale
 70
     0
300
8:1
140
8.0
141
1.0
290
     0
  0
SCALE
  5
2B8F
102
{ACAD_REACTORS
330
2B7F
102
}
330
2B7F
100
AcDbScale
 70
     0
300
10:1
140
10.0
141
1.0
290
     0
  0
SCALE
  5
2B90
102
{ACAD_REACTORS
330
2B7F
102
}
330
2B7F
100
AcDbScale
 70
     0
300
100:1
140
100.0
141
1.0
290
     0
  0
TABLESTYLE
  5
2B7E
102
{ACAD_XDICTIONARY
360
2BBC
102
}
102
{ACAD_REACTORS
330
2B7D
102
}
330
2B7D
100
AcDbTableStyle
  3
Standard
 70
     0
 71
     0
 40
1.5
 41
1.5
280
     0
281
     0
  7
Standard
140
4.5
170
     2
 62
     0
 63
     7
283
     0
274
    -2
284
     1
 64
     0
275
    -2
285
     1
 65
     0
276
    -2
286
     1
 66
     0
277
    -2
287
     1
 67
     0
278
    -2
288
     1
 68
     0
279
    -2
289
     1
 69
     0
  7
Standard
140
6.0
170
     5
 62
     0
 63
     7
283
     0
274
    -2
284
     1
 64
     0
275
    -2
285
     1
 65
     0
276
    -2
286
     1
 66
     0
277
    -2
287
     1
 67
     0
278
    -2
288
     1
 68
     0
279
    -2
289
     1
 69
     0
  7
Standard
140
4.5
170
     5
 62
     0
 63
     7
283
     0
274
    -2
284
     1
 64
     0
275
    -2
285
     1
 65
     0
276
    -2
286
     1
 66
     0
277
    -2
287
     1
 67
     0
278
    -2
288
     1
 68
     0
279
    -2
289
     1
 69
     0
  0
VISUALSTYLE
  5
2B6E
102
{ACAD_XDICTIONARY
360
2BF7
102
}
102
{ACAD_REACTORS
330
2B68
102
}
330
2B68
100
AcDbVisualStyle
  2
2dWireframe
 70
     4
 71
     0
 72
     2
 73
     0
 90
        0
 40
-0.6
 41
-30.0
 62
     5
 63
     7
 74
     1
 91
        4
 64
     7
 65
   257
 75
     1
175
     1
 42
1.0
 92
        0
 66
   257
 43
1.0
 76
     1
 77
     6
 78
     2
 67
     7
 79
     5
170
     0
171
     0
290
     0
174
     0
 93
        1
 44
0.0
173
     0
291
     0
 45
0.0
1001
ACAD
1000
AcDbSavedByObjectVersion
1070
     0
  0
VISUALSTYLE
  5
2B70
102
{ACAD_XDICTIONARY
360
2BFB
102
}
102
{ACAD_REACTORS
330
2B68
102
}
330
2B68
100
AcDbVisualStyle
  2
3D Hidden
 70
     6
 71
     1
 72
     2
 73
     2
 90
        0
 40
-0.6
 41
-30.0
 62
     5
 63
     7
 74
     2
 91
        2
 64
     7
 65
   257
 75
     2
175
     1
 42
179.0
 92
        0
 66
   257
 43
1.0
 76
     1
 77
     6
 78
     2
 67
     7
 79
     3
170
     0
171
     0
290
     0
174
     0
 93
        1
 44
0.0
173
     0
291
     0
 45
0.0
1001
ACAD
1000
AcDbSavedByObjectVersion
1070
     0
  0
VISUALSTYLE
  5
2B6F
102
{ACAD_XDICTIONARY
360
2BF9
102
}
102
{ACAD_REACTORS
330
2B68
102
}
330
2B68
100
AcDbVisualStyle
  2
3dWireframe
 70
     5
 71
     0
 72
     2
 73
     0
 90
        0
 40
-0.6
 41
-30.0
 62
     5
 63
     7
 74
     1
 91
        4
 64
     7
 65
   257
 75
     1
175
     1
 42
1.0
 92
        0
 66
   257
 43
1.0
 76
     1
 77
     6
 78
     2
 67
     7
 79
     5
170
     0
171
     0
290
     0
174
     0
 93
        1
 44
0.0
173
     0
291
     0
 45
0.0
1001
ACAD
1000
AcDbSavedByObjectVersion
1070
     0
  0
VISUALSTYLE
  5
2B6D
102
{ACAD_XDICTIONARY
360
2BF5
102
}
102
{ACAD_REACTORS
330
2B68
102
}
330
2B68
100
AcDbVisualStyle
  2
Basic
 70
     7
 71
     1
 72
     0
 73
     1
 90
        0
 40
-0.6
 41
-30.0
 62
     5
 63
     7
 74
     0
 91
        4
 64
     7
 65
   257
 75
     1
175
     1
 42
1.0
 92
        8
 66
     7
 43
1.0
 76
     1
 77
     6
 78
     2
 67
     7
 79
     5
170
     0
171
     0
290
     0
174
     0
 93
        1
 44
0.0
173
     0
291
     1
 45
0.0
1001
ACAD
1000
AcDbSavedByObjectVersion
1070
     0
  0
VISUALSTYLE
  5
2B74
102
{ACAD_XDICTIONARY
360
2C03
102
}
102
{ACAD_REACTORS
330
2B68
102
}
330
2B68
100
AcDbVisualStyle
  2
Brighten
 70
    12
 71
     2
 72
     2
 73
     0
 90
        0
 40
-0.6
 41
-30.0
 62
     5
 63
     7
 74
     1
 91
        4
 64
     7
 65
   257
 75
     1
175
     1
 42
1.0
 92
        8
 66
     7
 43
1.0
 76
     1
 77
     6
 78
     2
 67
     7
 79
     5
170
     0
171
     0
290
     0
174
     0
 93
        1
 44
50.0
173
     0
291
     1
 45
0.0
1001
ACAD
1000
AcDbSavedByObjectVersion
1070
     0
  0
VISUALSTYLE
  5
2B78
102
{ACAD_XDICTIONARY
360
2C0B
102
}
102
{ACAD_REACTORS
330
2B68
102
}
330
2B68
100
AcDbVisualStyle
  2
ColorChange
 70
    16
 71
     2
 72
     2
 73
     3
 90
        0
 40
-0.6
 41
-30.0
 62
     5
 63
     8
 74
     1
 91
        4
 64
     7
 65
   257
 75
     1
175
     1
 42
1.0
 92
        8
 66
     8
 43
1.0
 76
     1
 77
     6
 78
     2
 67
     7
 79
     5
170
     0
171
     0
290
     0
174
     0
 93
        1
 44
0.0
173
     0
291
     1
 45
0.0
1001
ACAD
1000
AcDbSavedByObjectVersion
1070
     0
  0
VISUALSTYLE
  5
2B71
102
{ACAD_XDICTIONARY
360
2BFD
102
}
102
{ACAD_REACTORS
330
2B68
102
}
330
2B68
100
AcDbVisualStyle
  2
Conceptual
 70
     9
 71
     3
 72
     2
 73
     0
 90
        0
 40
-0.6
 41
-30.0
 62
     5
 63
     7
 74
     2
 91
        2
 64
     7
 65
   257
 75
     1
175
     1
 42
179.0
 92
        8
 66
     7
 43
1.0
 76
     1
 77
     6
 78
     2
 67
     7
 79
     3
170
     0
171
     0
290
     0
174
     0
 93
        1
 44
0.0
173
     0
291
     0
 45
0.0
1001
ACAD
1000
AcDbSavedByObjectVersion
1070
     0
  0
VISUALSTYLE
  5
2B73
102
{ACAD_XDICTIONARY
360
2C01
102
}
102
{ACAD_REACTORS
330
2B68
102
}
330
2B68
100
AcDbVisualStyle
  2
Dim
 70
    11
 71
     2
 72
     2
 73
     0
 90
        0
 40
-0.6
 41
-30.0
 62
     5
 63
     7
 74
     1
 91
        4
 64
     7
 65
   257
 75
     1
175
     1
 42
1.0
 92
        8
 66
     7
 43
1.0
 76
     1
 77
     6
 78
     2
 67
     7
 79
     5
170
     0
171
     0
290
     0
174
     0
 93
        1
 44
-50.0
173
     0
291
     1
 45
0.0
1001
ACAD
1000
AcDbSavedByObjectVersion
1070
     0
  0
VISUALSTYLE
  5
2B7B
102
{ACAD_XDICTIONARY
360
2C11
102
}
102
{ACAD_REACTORS
330
2B68
102
}
330
2B68
100
AcDbVisualStyle
  2
EdgeColorOff
 70
    22
 71
     2
 72
     2
 73
     0
 90
        0
 40
-0.6
 41
-30.0
 62
     5
 63
     7
 74
     1
 91
        4
 64
     7
 65
   257
 75
     1
175
     1
 42
1.0
 92
        8
 66
     7
 43
1.0
 76
     1
 77
     6
 78
     2
 67
     7
 79
     5
170
     0
171
     0
290
     0
174
     0
 93
        1
 44
0.0
173
     0
291
     1
 45
0.0
1001
ACAD
1000
AcDbSavedByObjectVersion
1070
     0
  0
VISUALSTYLE
  5
2B77
102
{ACAD_XDICTIONARY
360
2C09
102
}
102
{ACAD_REACTORS
330
2B68
102
}
330
2B68
100
AcDbVisualStyle
  2
Facepattern
 70
    15
 71
     2
 72
     2
 73
     0
 90
        0
 40
-0.6
 41
-30.0
 62
     5
 63
     7
 74
     1
 91
        4
 64
     7
 65
   257
 75
     1
175
     1
 42
1.0
 92
        8
 66
     7
 43
1.0
 76
     1
 77
     6
 78
     2
 67
     7
 79
     5
170
     0
171
     0
290
     0
174
     0
 93
        1
 44
0.0
173
     0
291
     1
 45
0.0
1001
ACAD
1000
AcDbSavedByObjectVersion
1070
     0
  0
VISUALSTYLE
  5
2B69
102
{ACAD_XDICTIONARY
360
2BED
102
}
102
{ACAD_REACTORS
330
2B68
102
}
330
2B68
100
AcDbVisualStyle
  2
Flat
 70
     0
 71
     2
 72
     1
 73
     1
 90
        2
 40
-0.6
 41
30.0
 62
     5
 63
     7
 74
     0
 91
        4
 64
     7
 65
   257
 75
     1
175
     1
 42
1.0
 92
        8
 66
     7
 43
1.0
 76
     1
 77
     6
 78
     2
 67
     7
 79
     5
170
     0
171
     0
290
     0
174
     0
 93
       13
 44
0.0
173
     0
291
     1
 45
0.0
1001
ACAD
1000
AcDbSavedByObjectVersion
1070
     0
  0
VISUALSTYLE
  5
2B6A
102
{ACAD_XDICTIONARY
360
2BEF
102
}
102
{ACAD_REACTORS
330
2B68
102
}
330
2B68
100
AcDbVisualStyle
  2
FlatWithEdges
 70
     1
 71
     2
 72
     1
 73
     1
 90
        2
 40
-0.6
 41
30.0
 62
     5
 63
     7
 74
     1
 91
        4
 64
     7
 65
   257
 75
     1
175
     1
 42
1.0
 92
        0
 66
   257
 43
1.0
 76
     1
 77
     6
 78
     2
 67
     7
 79
     5
170
     0
171
     0
290
     0
174
     0
 93
       13
 44
0.0
173
     0
291
     1
 45
0.0
1001
ACAD
1000
AcDbSavedByObjectVersion
1070
     0
  0
VISUALSTYLE
  5
2B6B
102
{ACAD_XDICTIONARY
360
2BF1
102
}
102
{ACAD_REACTORS
330
2B68
102
}
330
2B68
100
AcDbVisualStyle
  2
Gouraud
 70
     2
 71
     2
 72
     2
 73
     1
 90
        2
 40
-0.6
 41
30.0
 62
     5
 63
     7
 74
     0
 91
        4
 64
     7
 65
   257
 75
     1
175
     1
 42
1.0
 92
        0
 66
     7
 43
1.0
 76
     1
 77
     6
 78
     2
 67
     7
 79
     5
170
     0
171
     0
290
     0
174
     0
 93
       13
 44
0.0
173
     0
291
     1
 45
0.0
1001
ACAD
1000
AcDbSavedByObjectVersion
1070
     0
  0
VISUALSTYLE
  5
2B6C
102
{ACAD_XDICTIONARY
360
2BF3
102
}
102
{ACAD_REACTORS
330
2B68
102
}
330
2B68
100
AcDbVisualStyle
  2
GouraudWithEdges
 70
     3
 71
     2
 72
     2
 73
     1
 90
        2
 40
-0.6
 41
30.0
 62
     5
 63
     7
 74
     1
 91
        4
 64
     7
 65
   257
 75
     1
175
     1
 42
1.0
 92
        0
 66
   257
 43
1.0
 76
     1
 77
     6
 78
     2
 67
     7
 79
     5
170
     0
171
     0
290
     0
174
     0
 93
       13
 44
0.0
173
     0
291
     1
 45
0.0
1001
ACAD
1000
AcDbSavedByObjectVersion
1070
     0
  0
VISUALSTYLE
  5
2B79
102
{ACAD_XDICTIONARY
360
2C0D
102
}
102
{ACAD_REACTORS
330
2B68
102
}
330
2B68
100
AcDbVisualStyle
  2
JitterOff
 70
    20
 71
     2
 72
     2
 73
     0
 90
        0
 40
-0.6
 41
-30.0
 62
     5
 63
     7
 74
     1
 91
        4
 64
     7
 65
   257
 75
     1
175
     1
 42
1.0
 92
       10
 66
     7
 43
1.0
 76
     1
 77
     6
 78
     2
 67
     7
 79
     5
170
     0
171
     0
290
     0
174
     0
 93
        1
 44
0.0
173
     0
291
     1
 45
0.0
1001
ACAD
1000
AcDbSavedByObjectVersion
1070
     0
  0
VISUALSTYLE
  5
2B76
102
{ACAD_XDICTIONARY
360
2C07
102
}
102
{ACAD_REACTORS
330
2B68
102
}
330
2B68
100
AcDbVisualStyle
  2
Linepattern
 70
    14
 71
     2
 72
     2
 73
     0
 90
        0
 40
-0.6
 41
-30.0
 62
     5
 63
     7
 74
     1
 91
        4
 64
     7
 65
   257
 75
     7
175
     7
 42
1.0
 92
        8
 66
     7
 43
1.0
 76
     1
 77
     6
 78
     2
 67
     7
 79
     5
170
     0
171
     0
290
     0
174
     0
 93
        1
 44
0.0
173
     0
291
     1
 45
0.0
1001
ACAD
1000
AcDbSavedByObjectVersion
1070
     0
  0
VISUALSTYLE
  5
2B7A
102
{ACAD_XDICTIONARY
360
2C0F
102
}
102
{ACAD_REACTORS
330
2B68
102
}
330
2B68
100
AcDbVisualStyle
  2
OverhangOff
 70
    21
 71
     2
 72
     2
 73
     0
 90
        0
 40
-0.6
 41
-30.0
 62
     5
 63
     7
 74
     1
 91
        4
 64
     7
 65
   257
 75
     1
175
     1
 42
1.0
 92
        9
 66
     7
 43
1.0
 76
     1
 77
     6
 78
     2
 67
     7
 79
     5
170
     0
171
     0
290
     0
174
     0
 93
        1
 44
0.0
173
     0
291
     1
 45
0.0
1001
ACAD
1000
AcDbSavedByObjectVersion
1070
     0
  0
VISUALSTYLE
  5
2B72
102
{ACAD_XDICTIONARY
360
2BFF
102
}
102
{ACAD_REACTORS
330
2B68
102
}
330
2B68
100
AcDbVisualStyle
  2
Realistic
 70
     8
 71
     2
 72
     2
 73
     0
 90
        0
 40
-0.6
 41
-30.0
 62
     5
 63
     7
 74
     1
 91
        0
 64
     7
 65
   257
 75
     1
175
     1
 42
1.0
 92
        8
 66
     8
 43
1.0
 76
     1
 77
     6
 78
     2
 67
     7
 79
     5
170
     0
171
     0
290
     0
174
     0
 93
       13
 44
0.0
173
     0
291
     0
 45
0.0
1001
ACAD
1000
AcDbSavedByObjectVersion
1070
     0
  0
VISUALSTYLE
  5
2B75
102
{ACAD_XDICTIONARY
360
2C05
102
}
102
{ACAD_REACTORS
330
2B68
102
}
330
2B68
100
AcDbVisualStyle
  2
Thicken
 70
    13
 71
     2
 72
     2
 73
     0
 90
        0
 40
-0.6
 41
-30.0
 62
     5
 63
     7
 74
     1
 91
        4
 64
     7
 65
   257
 75
     1
175
     1
 42
1.0
 92
       12
 66
     7
 43
1.0
 76
     1
 77
     6
 78
     2
 67
     7
 79
     5
170
     0
171
     0
290
     0
174
     0
 93
        1
 44
0.0
173
     0
291
     1
 45
0.0
1001
ACAD
1000
AcDbSavedByObjectVersion
1070
     0
  0
DICTIONARYVAR
  5
2BB8
102
{ACAD_REACTORS
330
3D
102
}
330
3D
100
DictionaryVariables
280
     0
  1
1:1
  0
DICTIONARYVAR
  5
2BB7
102
{ACAD_REACTORS
330
3D
102
}
330
3D
100
DictionaryVariables
280
     0
  1
STANDARD
  0
DICTIONARYVAR
  5
2BB6
102
{ACAD_REACTORS
330
3D
102
}
330
3D
100
DictionaryVariables
280
     0
  1
STANDARD
  0
DICTIONARYVAR
  5
3F
102
{ACAD_REACTORS
330
3D
102
}
330
3D
100
DictionaryVariables
280
     0
  1
2
  0
DICTIONARYVAR
  5
3E
102
{ACAD_REACTORS
330
3D
102
}
330
3D
100
DictionaryVariables
280
     0
  1
1
  0
DICTIONARYVAR
  5
2BBA
102
{ACAD_REACTORS
330
3D
102
}
330
3D
100
DictionaryVariables
280
     0
  1
0
  0
DICTIONARYVAR
  5
2BB9
102
{ACAD_REACTORS
330
3D
102
}
330
3D
100
DictionaryVariables
280
     0
  1
127
  0
DICTIONARYVAR
  5
2BBB
102
{ACAD_REACTORS
330
3D
102
}
330
3D
100
DictionaryVariables
280
     0
  1
2
  0
XRECORD
  5
B92
102
{ACAD_REACTORS
330
B91
102
}
330
B91
100
AcDbXrecord
280
     1
  0
DICTIONARY
  5
2BC0
330
1E
100
AcDbDictionary
280
     1
281
     1
  3
ACAD_XREC_ROUNDTRIP
360
2BC1
  0
DICTIONARY
  5
2BC4
330
26
100
AcDbDictionary
280
     1
281
     1
  3
ACAD_XREC_ROUNDTRIP
360
2BC5
  0
DICTIONARY
  5
2BC2
330
22
100
AcDbDictionary
280
     1
281
     1
  3
ACAD_XREC_ROUNDTRIP
360
2BC3
  0
DICTIONARY
  5
2B59
330
2B58
100
AcDbDictionary
280
     1
281
     1
  3
ACAD_XREC_ROUNDTRIP
360
2BEB
  3
BUMPTILE
360
2B5B
  3
DIFFUSETILE
360
2B5A
  3
OPACITYTILE
360
2B5E
  3
REFLECTIONTILE
360
2B5D
  3
REFRACTIONTILE
360
2B5F
  3
SPECULARTILE
360
2B5C
  0
DICTIONARY
  5
2B51
330
2B50
100
AcDbDictionary
280
     1
281
     1
  3
ACAD_XREC_ROUNDTRIP
360
2BEA
  3
BUMPTILE
360
2B53
  3
DIFFUSETILE
360
2B52
  3
OPACITYTILE
360
2B56
  3
REFLECTIONTILE
360
2B55
  3
REFRACTIONTILE
360
2B57
  3
SPECULARTILE
360
2B54
  0
DICTIONARY
  5
2B61
330
2B60
100
AcDbDictionary
280
     1
281
     1
  3
ACAD_XREC_ROUNDTRIP
360
2BEC
  3
BUMPTILE
360
2B63
  3
DIFFUSETILE
360
2B62
  3
OPACITYTILE
360
2B66
  3
REFLECTIONTILE
360
2B65
  3
REFRACTIONTILE
360
2B67
  3
SPECULARTILE
360
2B64
  0
DICTIONARY
  5
2BBC
330
2B7E
100
AcDbDictionary
280
     1
281
     1
  3
ACAD_ROUNDTRIP_2008_TABLESTYLE_CELLSTYLEMAP
360
2BBD
  3
ACAD_XREC_ROUNDTRIP
360
2C13
  0
DICTIONARY
  5
2BF7
330
2B6E
100
AcDbDictionary
280
     1
281
     1
  3
ACAD_XREC_ROUNDTRIP
360
2BF8
  0
DICTIONARY
  5
2BFB
330
2B70
100
AcDbDictionary
280
     1
281
     1
  3
ACAD_XREC_ROUNDTRIP
360
2BFC
  0
DICTIONARY
  5
2BF9
330
2B6F
100
AcDbDictionary
280
     1
281
     1
  3
ACAD_XREC_ROUNDTRIP
360
2BFA
  0
DICTIONARY
  5
2BF5
330
2B6D
100
AcDbDictionary
280
     1
281
     1
  3
ACAD_XREC_ROUNDTRIP
360
2BF6
  0
DICTIONARY
  5
2C03
330
2B74
100
AcDbDictionary
280
     1
281
     1
  3
ACAD_XREC_ROUNDTRIP
360
2C04
  0
DICTIONARY
  5
2C0B
330
2B78
100
AcDbDictionary
280
     1
281
     1
  3
ACAD_XREC_ROUNDTRIP
360
2C0C
  0
DICTIONARY
  5
2BFD
330
2B71
100
AcDbDictionary
280
     1
281
     1
  3
ACAD_XREC_ROUNDTRIP
360
2BFE
  0
DICTIONARY
  5
2C01
330
2B73
100
AcDbDictionary
280
     1
281
     1
  3
ACAD_XREC_ROUNDTRIP
360
2C02
  0
DICTIONARY
  5
2C11
330
2B7B
100
AcDbDictionary
280
     1
281
     1
  3
ACAD_XREC_ROUNDTRIP
360
2C12
  0
DICTIONARY
  5
2C09
330
2B77
100
AcDbDictionary
280
     1
281
     1
  3
ACAD_XREC_ROUNDTRIP
360
2C0A
  0
DICTIONARY
  5
2BED
330
2B69
100
AcDbDictionary
280
     1
281
     1
  3
ACAD_XREC_ROUNDTRIP
360
2BEE
  0
DICTIONARY
  5
2BEF
330
2B6A
100
AcDbDictionary
280
     1
281
     1
  3
ACAD_XREC_ROUNDTRIP
360
2BF0
  0
DICTIONARY
  5
2BF1
330
2B6B
100
AcDbDictionary
280
     1
281
     1
  3
ACAD_XREC_ROUNDTRIP
360
2BF2
  0
DICTIONARY
  5
2BF3
330
2B6C
100
AcDbDictionary
280
     1
281
     1
  3
ACAD_XREC_ROUNDTRIP
360
2BF4
  0
DICTIONARY
  5
2C0D
330
2B79
100
AcDbDictionary
280
     1
281
     1
  3
ACAD_XREC_ROUNDTRIP
360
2C0E
  0
DICTIONARY
  5
2C07
330
2B76
100
AcDbDictionary
280
     1
281
     1
  3
ACAD_XREC_ROUNDTRIP
360
2C08
  0
DICTIONARY
  5
2C0F
330
2B7A
100
AcDbDictionary
280
     1
281
     1
  3
ACAD_XREC_ROUNDTRIP
360
2C10
  0
DICTIONARY
  5
2BFF
330
2B72
100
AcDbDictionary
280
     1
281
     1
  3
ACAD_XREC_ROUNDTRIP
360
2C00
  0
DICTIONARY
  5
2C05
330
2B75
100
AcDbDictionary
280
     1
281
     1
  3
ACAD_XREC_ROUNDTRIP
360
2C06
  0
XRECORD
  5
2BC1
102
{ACAD_REACTORS
330
2BC0
102
}
330
2BC0
100
AcDbXrecord
280
     1
102
SHADEPLOT
 70
     0
102
SHADEPLOTRESLEVEL
 70
     2
102
SHADEPLOTCUSTOMDPI
 70
   300
  0
XRECORD
  5
2BC5
102
{ACAD_REACTORS
330
2BC4
102
}
330
2BC4
100
AcDbXrecord
280
     1
102
SHADEPLOT
 70
     0
102
SHADEPLOTRESLEVEL
 70
     2
102
SHADEPLOTCUSTOMDPI
 70
   300
  0
XRECORD
  5
2BC3
102
{ACAD_REACTORS
330
2BC2
102
}
330
2BC2
100
AcDbXrecord
280
     1
102
SHADEPLOT
 70
     0
102
SHADEPLOTRESLEVEL
 70
     2
102
SHADEPLOTCUSTOMDPI
 70
   300
  0
XRECORD
  5
2BEB
102
{ACAD_REACTORS
330
2B59
102
}
330
2B59
100
AcDbXrecord
280
     1
102
MATERIAL
148
0.0
149
0.0
149
0.0
 93
        0
 94
      127
282
     0
 72
     0
 77
     0
171
     0
175
     0
179
     0
273
     0
  0
XRECORD
  5
2B5B
102
{ACAD_REACTORS
330
2B59
102
}
330
2B59
100
AcDbXrecord
280
     1
270
     1
271
     1
  0
XRECORD
  5
2B5A
102
{ACAD_REACTORS
330
2B59
102
}
330
2B59
100
AcDbXrecord
280
     1
270
     1
271
     1
  0
XRECORD
  5
2B5E
102
{ACAD_REACTORS
330
2B59
102
}
330
2B59
100
AcDbXrecord
280
     1
270
     1
271
     1
  0
XRECORD
  5
2B5D
102
{ACAD_REACTORS
330
2B59
102
}
330
2B59
100
AcDbXrecord
280
     1
270
     1
271
     1
  0
XRECORD
  5
2B5F
102
{ACAD_REACTORS
330
2B59
102
}
330
2B59
100
AcDbXrecord
280
     1
270
     1
271
     1
  0
XRECORD
  5
2B5C
102
{ACAD_REACTORS
330
2B59
102
}
330
2B59
100
AcDbXrecord
280
     1
270
     1
271
     1
  0
XRECORD
  5
2BEA
102
{ACAD_REACTORS
330
2B51
102
}
330
2B51
100
AcDbXrecord
280
     1
102
MATERIAL
148
0.0
149
0.0
149
0.0
 93
        0
 94
      127
282
     0
 72
     0
 77
     0
171
     0
175
     0
179
     0
273
     0
  0
XRECORD
  5
2B53
102
{ACAD_REACTORS
330
2B51
102
}
330
2B51
100
AcDbXrecord
280
     1
270
     1
271
     1
  0
XRECORD
  5
2B52
102
{ACAD_REACTORS
330
2B51
102
}
330
2B51
100
AcDbXrecord
280
     1
270
     1
271
     1
  0
XRECORD
  5
2B56
102
{ACAD_REACTORS
330
2B51
102
}
330
2B51
100
AcDbXrecord
280
     1
270
     1
271
     1
  0
XRECORD
  5
2B55
102
{ACAD_REACTORS
330
2B51
102
}
330
2B51
100
AcDbXrecord
280
     1
270
     1
271
     1
  0
XRECORD
  5
2B57
102
{ACAD_REACTORS
330
2B51
102
}
330
2B51
100
AcDbXrecord
280
     1
270
     1
271
     1
  0
XRECORD
  5
2B54
102
{ACAD_REACTORS
330
2B51
102
}
330
2B51
100
AcDbXrecord
280
     1
270
     1
271
     1
  0
XRECORD
  5
2BEC
102
{ACAD_REACTORS
330
2B61
102
}
330
2B61
100
AcDbXrecord
280
     1
102
MATERIAL
148
0.0
149
0.0
149
0.0
 93
        0
 94
      127
282
     0
 72
     0
 77
     0
171
     0
175
     0
179
     0
273
     0
  0
XRECORD
  5
2B63
102
{ACAD_REACTORS
330
2B61
102
}
330
2B61
100
AcDbXrecord
280
     1
270
     1
271
     1
  0
XRECORD
  5
2B62
102
{ACAD_REACTORS
330
2B61
102
}
330
2B61
100
AcDbXrecord
280
     1
270
     1
271
     1
  0
XRECORD
  5
2B66
102
{ACAD_REACTORS
330
2B61
102
}
330
2B61
100
AcDbXrecord
280
     1
270
     1
271
     1
  0
XRECORD
  5
2B65
102
{ACAD_REACTORS
330
2B61
102
}
330
2B61
100
AcDbXrecord
280
     1
270
     1
271
     1
  0
XRECORD
  5
2B67
102
{ACAD_REACTORS
330
2B61
102
}
330
2B61
100
AcDbXrecord
280
     1
270
     1
271
     1
  0
XRECORD
  5
2B64
102
{ACAD_REACTORS
330
2B61
102
}
330
2B61
100
AcDbXrecord
280
     1
270
     1
271
     1
  0
CELLSTYLEMAP
  5
2BBD
102
{ACAD_REACTORS
330
2BBC
102
}
330
2BBC
100
AcDbCellStyleMap
 90
        3
300
CELLSTYLE
  1
TABLEFORMAT_BEGIN
 90
        5
170
     1
 91
        0
 92
    32768
 62
   257
 93
        1
300
CONTENTFORMAT
  1
CONTENTFORMAT_BEGIN
 90
        0
 91
        0
 92
      512
 93
        0
300

 40
0.0
140
1.0
 94
        5
 62
     0
340
11
144
6.0
309
CONTENTFORMAT_END
171
     1
301
MARGIN
  1
CELLMARGIN_BEGIN
 40
1.5
 40
1.5
 40
1.5
 40
1.5
 40
4.5
 40
4.5
309
CELLMARGIN_END
 94
        6
 95
        1
302
GRIDFORMAT
  1
GRIDFORMAT_BEGIN
 90
        0
 91
        1
 62
     0
 92
       -2
340
0
 93
        0
 40
1.125
309
GRIDFORMAT_END
 95
        2
302
GRIDFORMAT
  1
GRIDFORMAT_BEGIN
 90
        0
 91
        1
 62
     0
 92
       -2
340
0
 93
        0
 40
1.125
309
GRIDFORMAT_END
 95
        4
302
GRIDFORMAT
  1
GRIDFORMAT_BEGIN
 90
        0
 91
        1
 62
     0
 92
       -2
340
0
 93
        0
 40
1.125
309
GRIDFORMAT_END
 95
        8
302
GRIDFORMAT
  1
GRIDFORMAT_BEGIN
 90
        0
 91
        1
 62
     0
 92
       -2
340
0
 93
        0
 40
1.125
309
GRIDFORMAT_END
 95
       16
302
GRIDFORMAT
  1
GRIDFORMAT_BEGIN
 90
        0
 91
        1
 62
     0
 92
       -2
340
0
 93
        0
 40
1.125
309
GRIDFORMAT_END
 95
       32
302
GRIDFORMAT
  1
GRIDFORMAT_BEGIN
 90
        0
 91
        1
 62
     0
 92
       -2
340
0
 93
        0
 40
1.125
309
GRIDFORMAT_END
309
TABLEFORMAT_END
  1
CELLSTYLE_BEGIN
 90
        1
 91
        1
300
_TITLE
309
CELLSTYLE_END
300
CELLSTYLE
  1
TABLEFORMAT_BEGIN
 90
        5
170
     1
 91
        0
 92
        0
 62
   257
 93
        1
300
CONTENTFORMAT
  1
CONTENTFORMAT_BEGIN
 90
        0
 91
        0
 92
      512
 93
        0
300

 40
0.0
140
1.0
 94
        5
 62
     0
340
11
144
4.5
309
CONTENTFORMAT_END
171
     1
301
MARGIN
  1
CELLMARGIN_BEGIN
 40
1.5
 40
1.5
 40
1.5
 40
1.5
 40
4.5
 40
4.5
309
CELLMARGIN_END
 94
        6
 95
        1
302
GRIDFORMAT
  1
GRIDFORMAT_BEGIN
 90
        0
 91
        1
 62
     0
 92
       -2
340
0
 93
        0
 40
1.125
309
GRIDFORMAT_END
 95
        2
302
GRIDFORMAT
  1
GRIDFORMAT_BEGIN
 90
        0
 91
        1
 62
     0
 92
       -2
340
0
 93
        0
 40
1.125
309
GRIDFORMAT_END
 95
        4
302
GRIDFORMAT
  1
GRIDFORMAT_BEGIN
 90
        0
 91
        1
 62
     0
 92
       -2
340
0
 93
        0
 40
1.125
309
GRIDFORMAT_END
 95
        8
302
GRIDFORMAT
  1
GRIDFORMAT_BEGIN
 90
        0
 91
        1
 62
     0
 92
       -2
340
0
 93
        0
 40
1.125
309
GRIDFORMAT_END
 95
       16
302
GRIDFORMAT
  1
GRIDFORMAT_BEGIN
 90
        0
 91
        1
 62
     0
 92
       -2
340
0
 93
        0
 40
1.125
309
GRIDFORMAT_END
 95
       32
302
GRIDFORMAT
  1
GRIDFORMAT_BEGIN
 90
        0
 91
        1
 62
     0
 92
       -2
340
0
 93
        0
 40
1.125
309
GRIDFORMAT_END
309
TABLEFORMAT_END
  1
CELLSTYLE_BEGIN
 90
        2
 91
        1
300
_HEADER
309
CELLSTYLE_END
300
CELLSTYLE
  1
TABLEFORMAT_BEGIN
 90
        5
170
     1
 91
        0
 92
        0
 62
   257
 93
        1
300
CONTENTFORMAT
  1
CONTENTFORMAT_BEGIN
 90
        0
 91
        0
 92
      512
 93
        0
300

 40
0.0
140
1.0
 94
        2
 62
     0
340
11
144
4.5
309
CONTENTFORMAT_END
171
     1
301
MARGIN
  1
CELLMARGIN_BEGIN
 40
1.5
 40
1.5
 40
1.5
 40
1.5
 40
4.5
 40
4.5
309
CELLMARGIN_END
 94
        6
 95
        1
302
GRIDFORMAT
  1
GRIDFORMAT_BEGIN
 90
        0
 91
        1
 62
     0
 92
       -2
340
0
 93
        0
 40
1.125
309
GRIDFORMAT_END
 95
        2
302
GRIDFORMAT
  1
GRIDFORMAT_BEGIN
 90
        0
 91
        1
 62
     0
 92
       -2
340
0
 93
        0
 40
1.125
309
GRIDFORMAT_END
 95
        4
302
GRIDFORMAT
  1
GRIDFORMAT_BEGIN
 90
        0
 91
        1
 62
     0
 92
       -2
340
0
 93
        0
 40
1.125
309
GRIDFORMAT_END
 95
        8
302
GRIDFORMAT
  1
GRIDFORMAT_BEGIN
 90
        0
 91
        1
 62
     0
 92
       -2
340
0
 93
        0
 40
1.125
309
GRIDFORMAT_END
 95
       16
302
GRIDFORMAT
  1
GRIDFORMAT_BEGIN
 90
        0
 91
        1
 62
     0
 92
       -2
340
0
 93
        0
 40
1.125
309
GRIDFORMAT_END
 95
       32
302
GRIDFORMAT
  1
GRIDFORMAT_BEGIN
 90
        0
 91
        1
 62
     0
 92
       -2
340
0
 93
        0
 40
1.125
309
GRIDFORMAT_END
309
TABLEFORMAT_END
  1
CELLSTYLE_BEGIN
 90
        3
 91
        2
300
_DATA
309
CELLSTYLE_END
  0
XRECORD
  5
2C13
102
{ACAD_REACTORS
330
2BBC
102
}
330
2BBC
100
AcDbXrecord
280
     1
102
ACAD_ROUNDTRIP_PRE2007_TABLESTYLE
 90
      512
 91
        0
  1

 92
      512
 93
        0
  2

 94
      512
 95
        0
  3

  0
XRECORD
  5
2BF8
102
{ACAD_REACTORS
330
2BF7
102
}
330
2BF7
100
AcDbXrecord
280
     1
102
RTVSPropertyOp0
 70
     1
102
RTVSPropertyOp1
 70
     1
102
RTVSPropertyOp2
 70
     1
102
RTVSPropertyOp3
 70
     1
102
RTVSPropertyOp4
 70
     1
102
RTVSPropertyOp5
 70
     1
102
RTVSPropertyOp6
 70
     1
102
RTVSPropertyOp7
 70
     1
102
RTVSPropertyOp8
 70
     1
102
RTVSPropertyOp9
 70
     1
102
RTVSPropertyOp10
 70
     1
102
RTVSPropertyOp11
 70
     1
102
RTVSPropertyOp12
 70
     1
102
RTVSPropertyOp13
 70
     1
102
RTVSPropertyOp14
 70
     1
102
RTVSPropertyOp15
 70
     1
102
RTVSPropertyOp16
 70
     1
102
RTVSPropertyOp17
 70
     1
102
RTVSPropertyOp18
 70
     1
102
RTVSPropertyOp19
 70
     1
102
RTVSPropertyOp20
 70
     1
102
RTVSPropertyOp21
 70
     1
102
RTVSPropertyOp22
 70
     1
102
RTVSPropertyOp23
 70
     1
102
RTVSPropertyOp24
 70
     1
102
RTVSPropertyOp25
 70
     1
102
RTVSPropertyOp26
 70
     1
102
RTVSPropertyOp27
 70
     1
  0
XRECORD
  5
2BFC
102
{ACAD_REACTORS
330
2BFB
102
}
330
2BFB
100
AcDbXrecord
280
     1
102
RTVSPropertyOp0
 70
     1
102
RTVSPropertyOp1
 70
     1
102
RTVSPropertyOp2
 70
     1
102
RTVSPropertyOp3
 70
     1
102
RTVSPropertyOp4
 70
     1
102
RTVSPropertyOp5
 70
     1
102
RTVSPropertyOp6
 70
     1
102
RTVSPropertyOp7
 70
     1
102
RTVSPropertyOp8
 70
     1
102
RTVSPropertyOp9
 70
     1
102
RTVSPropertyOp10
 70
     1
102
RTVSPropertyOp11
 70
     1
102
RTVSPropertyOp12
 70
     1
102
RTVSPropertyOp13
 70
     1
102
RTVSPropertyOp14
 70
     1
102
RTVSPropertyOp15
 70
     1
102
RTVSPropertyOp16
 70
     1
102
RTVSPropertyOp17
 70
     1
102
RTVSPropertyOp18
 70
     1
102
RTVSPropertyOp19
 70
     1
102
RTVSPropertyOp20
 70
     1
102
RTVSPropertyOp21
 70
     1
102
RTVSPropertyOp22
 70
     1
102
RTVSPropertyOp23
 70
     1
102
RTVSPropertyOp24
 70
     1
102
RTVSPropertyOp25
 70
     1
102
RTVSPropertyOp26
 70
     1
102
RTVSPropertyOp27
 70
     1
  0
XRECORD
  5
2BFA
102
{ACAD_REACTORS
330
2BF9
102
}
330
2BF9
100
AcDbXrecord
280
     1
102
RTVSPropertyOp0
 70
     1
102
RTVSPropertyOp1
 70
     1
102
RTVSPropertyOp2
 70
     1
102
RTVSPropertyOp3
 70
     1
102
RTVSPropertyOp4
 70
     1
102
RTVSPropertyOp5
 70
     1
102
RTVSPropertyOp6
 70
     1
102
RTVSPropertyOp7
 70
     1
102
RTVSPropertyOp8
 70
     1
102
RTVSPropertyOp9
 70
     1
102
RTVSPropertyOp10
 70
     1
102
RTVSPropertyOp11
 70
     1
102
RTVSPropertyOp12
 70
     1
102
RTVSPropertyOp13
 70
     1
102
RTVSPropertyOp14
 70
     1
102
RTVSPropertyOp15
 70
     1
102
RTVSPropertyOp16
 70
     1
102
RTVSPropertyOp17
 70
     1
102
RTVSPropertyOp18
 70
     1
102
RTVSPropertyOp19
 70
     1
102
RTVSPropertyOp20
 70
     1
102
RTVSPropertyOp21
 70
     1
102
RTVSPropertyOp22
 70
     1
102
RTVSPropertyOp23
 70
     1
102
RTVSPropertyOp24
 70
     1
102
RTVSPropertyOp25
 70
     1
102
RTVSPropertyOp26
 70
     1
102
RTVSPropertyOp27
 70
     1
  0
XRECORD
  5
2BF6
102
{ACAD_REACTORS
330
2BF5
102
}
330
2BF5
100
AcDbXrecord
280
     1
102
RTVSPropertyOp0
 70
     1
102
RTVSPropertyOp1
 70
     1
102
RTVSPropertyOp2
 70
     1
102
RTVSPropertyOp3
 70
     1
102
RTVSPropertyOp4
 70
     1
102
RTVSPropertyOp5
 70
     1
102
RTVSPropertyOp6
 70
     1
102
RTVSPropertyOp7
 70
     1
102
RTVSPropertyOp8
 70
     1
102
RTVSPropertyOp9
 70
     1
102
RTVSPropertyOp10
 70
     1
102
RTVSPropertyOp11
 70
     1
102
RTVSPropertyOp12
 70
     1
102
RTVSPropertyOp13
 70
     1
102
RTVSPropertyOp14
 70
     1
102
RTVSPropertyOp15
 70
     1
102
RTVSPropertyOp16
 70
     1
102
RTVSPropertyOp17
 70
     1
102
RTVSPropertyOp18
 70
     1
102
RTVSPropertyOp19
 70
     1
102
RTVSPropertyOp20
 70
     1
102
RTVSPropertyOp21
 70
     1
102
RTVSPropertyOp22
 70
     1
102
RTVSPropertyOp23
 70
     1
102
RTVSPropertyOp24
 70
     1
102
RTVSPropertyOp25
 70
     1
102
RTVSPropertyOp26
 70
     1
102
RTVSPropertyOp27
 70
     1
  0
XRECORD
  5
2C04
102
{ACAD_REACTORS
330
2C03
102
}
330
2C03
100
AcDbXrecord
280
     1
102
RTVSPropertyOp0
 70
     1
102
RTVSPropertyOp1
 70
     1
102
RTVSPropertyOp2
 70
     1
102
RTVSPropertyOp3
 70
     1
102
RTVSPropertyOp4
 70
     1
102
RTVSPropertyOp5
 70
     1
102
RTVSPropertyOp6
 70
     1
102
RTVSPropertyOp7
 70
     1
102
RTVSPropertyOp8
 70
     1
102
RTVSPropertyOp9
 70
     1
102
RTVSPropertyOp10
 70
     1
102
RTVSPropertyOp11
 70
     1
102
RTVSPropertyOp12
 70
     1
102
RTVSPropertyOp13
 70
     1
102
RTVSPropertyOp14
 70
     1
102
RTVSPropertyOp15
 70
     1
102
RTVSPropertyOp16
 70
     1
102
RTVSPropertyOp17
 70
     1
102
RTVSPropertyOp18
 70
     1
102
RTVSPropertyOp19
 70
     1
102
RTVSPropertyOp20
 70
     1
102
RTVSPropertyOp21
 70
     1
102
RTVSPropertyOp22
 70
     1
102
RTVSPropertyOp23
 70
     1
102
RTVSPropertyOp24
 70
     1
102
RTVSPropertyOp25
 70
     1
102
RTVSPropertyOp26
 70
     1
102
RTVSPropertyOp27
 70
     1
  0
XRECORD
  5
2C0C
102
{ACAD_REACTORS
330
2C0B
102
}
330
2C0B
100
AcDbXrecord
280
     1
102
RTVSPropertyOp0
 70
     1
102
RTVSPropertyOp1
 70
     1
102
RTVSPropertyOp2
 70
     1
102
RTVSPropertyOp3
 70
     1
102
RTVSPropertyOp4
 70
     1
102
RTVSPropertyOp5
 70
     1
102
RTVSPropertyOp6
 70
     1
102
RTVSPropertyOp7
 70
     1
102
RTVSPropertyOp8
 70
     1
102
RTVSPropertyOp9
 70
     1
102
RTVSPropertyOp10
 70
     1
102
RTVSPropertyOp11
 70
     1
102
RTVSPropertyOp12
 70
     1
102
RTVSPropertyOp13
 70
     1
102
RTVSPropertyOp14
 70
     1
102
RTVSPropertyOp15
 70
     1
102
RTVSPropertyOp16
 70
     1
102
RTVSPropertyOp17
 70
     1
102
RTVSPropertyOp18
 70
     1
102
RTVSPropertyOp19
 70
     1
102
RTVSPropertyOp20
 70
     1
102
RTVSPropertyOp21
 70
     1
102
RTVSPropertyOp22
 70
     1
102
RTVSPropertyOp23
 70
     1
102
RTVSPropertyOp24
 70
     1
102
RTVSPropertyOp25
 70
     1
102
RTVSPropertyOp26
 70
     1
102
RTVSPropertyOp27
 70
     1
  0
XRECORD
  5
2BFE
102
{ACAD_REACTORS
330
2BFD
102
}
330
2BFD
100
AcDbXrecord
280
     1
102
RTVSPropertyOp0
 70
     1
102
RTVSPropertyOp1
 70
     1
102
RTVSPropertyOp2
 70
     1
102
RTVSPropertyOp3
 70
     1
102
RTVSPropertyOp4
 70
     1
102
RTVSPropertyOp5
 70
     1
102
RTVSPropertyOp6
 70
     1
102
RTVSPropertyOp7
 70
     1
102
RTVSPropertyOp8
 70
     1
102
RTVSPropertyOp9
 70
     1
102
RTVSPropertyOp10
 70
     1
102
RTVSPropertyOp11
 70
     1
102
RTVSPropertyOp12
 70
     1
102
RTVSPropertyOp13
 70
     1
102
RTVSPropertyOp14
 70
     1
102
RTVSPropertyOp15
 70
     1
102
RTVSPropertyOp16
 70
     1
102
RTVSPropertyOp17
 70
     1
102
RTVSPropertyOp18
 70
     1
102
RTVSPropertyOp19
 70
     1
102
RTVSPropertyOp20
 70
     1
102
RTVSPropertyOp21
 70
     1
102
RTVSPropertyOp22
 70
     1
102
RTVSPropertyOp23
 70
     1
102
RTVSPropertyOp24
 70
     1
102
RTVSPropertyOp25
 70
     1
102
RTVSPropertyOp26
 70
     1
102
RTVSPropertyOp27
 70
     1
  0
XRECORD
  5
2C02
102
{ACAD_REACTORS
330
2C01
102
}
330
2C01
100
AcDbXrecord
280
     1
102
RTVSPropertyOp0
 70
     1
102
RTVSPropertyOp1
 70
     1
102
RTVSPropertyOp2
 70
     1
102
RTVSPropertyOp3
 70
     1
102
RTVSPropertyOp4
 70
     1
102
RTVSPropertyOp5
 70
     1
102
RTVSPropertyOp6
 70
     1
102
RTVSPropertyOp7
 70
     1
102
RTVSPropertyOp8
 70
     1
102
RTVSPropertyOp9
 70
     1
102
RTVSPropertyOp10
 70
     1
102
RTVSPropertyOp11
 70
     1
102
RTVSPropertyOp12
 70
     1
102
RTVSPropertyOp13
 70
     1
102
RTVSPropertyOp14
 70
     1
102
RTVSPropertyOp15
 70
     1
102
RTVSPropertyOp16
 70
     1
102
RTVSPropertyOp17
 70
     1
102
RTVSPropertyOp18
 70
     1
102
RTVSPropertyOp19
 70
     1
102
RTVSPropertyOp20
 70
     1
102
RTVSPropertyOp21
 70
     1
102
RTVSPropertyOp22
 70
     1
102
RTVSPropertyOp23
 70
     1
102
RTVSPropertyOp24
 70
     1
102
RTVSPropertyOp25
 70
     1
102
RTVSPropertyOp26
 70
     1
102
RTVSPropertyOp27
 70
     1
  0
XRECORD
  5
2C12
102
{ACAD_REACTORS
330
2C11
102
}
330
2C11
100
AcDbXrecord
280
     1
102
RTVSPropertyOp0
 70
     0
102
RTVSPropertyOp1
 70
     0
102
RTVSPropertyOp2
 70
     0
102
RTVSPropertyOp3
 70
     0
102
RTVSPropertyOp4
 70
     0
102
RTVSPropertyOp5
 70
     0
102
RTVSPropertyOp6
 70
     0
102
RTVSPropertyOp7
 70
     0
102
RTVSPropertyOp8
 70
     0
102
RTVSPropertyOp9
 70
     0
102
RTVSPropertyOp10
 70
     0
102
RTVSPropertyOp11
 70
     0
102
RTVSPropertyOp12
 70
     0
102
RTVSPropertyOp13
 70
     0
102
RTVSPropertyOp14
 70
     2
102
RTVSPropertyOp15
 70
     0
102
RTVSPropertyOp16
 70
     0
102
RTVSPropertyOp17
 70
     0
102
RTVSPropertyOp18
 70
     0
102
RTVSPropertyOp19
 70
     0
102
RTVSPropertyOp20
 70
     0
102
RTVSPropertyOp21
 70
     0
102
RTVSPropertyOp22
 70
     0
102
RTVSPropertyOp23
 70
     0
102
RTVSPropertyOp24
 70
     0
102
RTVSPropertyOp25
 70
     0
102
RTVSPropertyOp26
 70
     0
102
RTVSPropertyOp27
 70
     0
  0
XRECORD
  5
2C0A
102
{ACAD_REACTORS
330
2C09
102
}
330
2C09
100
AcDbXrecord
280
     1
102
RTVSPropertyOp0
 70
     1
102
RTVSPropertyOp1
 70
     1
102
RTVSPropertyOp2
 70
     1
102
RTVSPropertyOp3
 70
     1
102
RTVSPropertyOp4
 70
     1
102
RTVSPropertyOp5
 70
     1
102
RTVSPropertyOp6
 70
     1
102
RTVSPropertyOp7
 70
     1
102
RTVSPropertyOp8
 70
     1
102
RTVSPropertyOp9
 70
     1
102
RTVSPropertyOp10
 70
     1
102
RTVSPropertyOp11
 70
     1
102
RTVSPropertyOp12
 70
     1
102
RTVSPropertyOp13
 70
     1
102
RTVSPropertyOp14
 70
     1
102
RTVSPropertyOp15
 70
     1
102
RTVSPropertyOp16
 70
     1
102
RTVSPropertyOp17
 70
     1
102
RTVSPropertyOp18
 70
     1
102
RTVSPropertyOp19
 70
     1
102
RTVSPropertyOp20
 70
     1
102
RTVSPropertyOp21
 70
     1
102
RTVSPropertyOp22
 70
     1
102
RTVSPropertyOp23
 70
     1
102
RTVSPropertyOp24
 70
     1
102
RTVSPropertyOp25
 70
     1
102
RTVSPropertyOp26
 70
     1
102
RTVSPropertyOp27
 70
     1
  0
XRECORD
  5
2BEE
102
{ACAD_REACTORS
330
2BED
102
}
330
2BED
100
AcDbXrecord
280
     1
102
RTVSPropertyOp0
 70
     1
102
RTVSPropertyOp1
 70
     1
102
RTVSPropertyOp2
 70
     1
102
RTVSPropertyOp3
 70
     1
102
RTVSPropertyOp4
 70
     1
102
RTVSPropertyOp5
 70
     1
102
RTVSPropertyOp6
 70
     1
102
RTVSPropertyOp7
 70
     1
102
RTVSPropertyOp8
 70
     1
102
RTVSPropertyOp9
 70
     1
102
RTVSPropertyOp10
 70
     1
102
RTVSPropertyOp11
 70
     1
102
RTVSPropertyOp12
 70
     1
102
RTVSPropertyOp13
 70
     1
102
RTVSPropertyOp14
 70
     1
102
RTVSPropertyOp15
 70
     1
102
RTVSPropertyOp16
 70
     1
102
RTVSPropertyOp17
 70
     1
102
RTVSPropertyOp18
 70
     1
102
RTVSPropertyOp19
 70
     1
102
RTVSPropertyOp20
 70
     1
102
RTVSPropertyOp21
 70
     1
102
RTVSPropertyOp22
 70
     1
102
RTVSPropertyOp23
 70
     1
102
RTVSPropertyOp24
 70
     1
102
RTVSPropertyOp25
 70
     1
102
RTVSPropertyOp26
 70
     1
102
RTVSPropertyOp27
 70
     1
  0
XRECORD
  5
2BF0
102
{ACAD_REACTORS
330
2BEF
102
}
330
2BEF
100
AcDbXrecord
280
     1
102
RTVSPropertyOp0
 70
     1
102
RTVSPropertyOp1
 70
     1
102
RTVSPropertyOp2
 70
     1
102
RTVSPropertyOp3
 70
     1
102
RTVSPropertyOp4
 70
     1
102
RTVSPropertyOp5
 70
     1
102
RTVSPropertyOp6
 70
     1
102
RTVSPropertyOp7
 70
     1
102
RTVSPropertyOp8
 70
     1
102
RTVSPropertyOp9
 70
     1
102
RTVSPropertyOp10
 70
     1
102
RTVSPropertyOp11
 70
     1
102
RTVSPropertyOp12
 70
     1
102
RTVSPropertyOp13
 70
     1
102
RTVSPropertyOp14
 70
     1
102
RTVSPropertyOp15
 70
     1
102
RTVSPropertyOp16
 70
     1
102
RTVSPropertyOp17
 70
     1
102
RTVSPropertyOp18
 70
     1
102
RTVSPropertyOp19
 70
     1
102
RTVSPropertyOp20
 70
     1
102
RTVSPropertyOp21
 70
     1
102
RTVSPropertyOp22
 70
     1
102
RTVSPropertyOp23
 70
     1
102
RTVSPropertyOp24
 70
     1
102
RTVSPropertyOp25
 70
     1
102
RTVSPropertyOp26
 70
     1
102
RTVSPropertyOp27
 70
     1
  0
XRECORD
  5
2BF2
102
{ACAD_REACTORS
330
2BF1
102
}
330
2BF1
100
AcDbXrecord
280
     1
102
RTVSPropertyOp0
 70
     1
102
RTVSPropertyOp1
 70
     1
102
RTVSPropertyOp2
 70
     1
102
RTVSPropertyOp3
 70
     1
102
RTVSPropertyOp4
 70
     1
102
RTVSPropertyOp5
 70
     1
102
RTVSPropertyOp6
 70
     1
102
RTVSPropertyOp7
 70
     1
102
RTVSPropertyOp8
 70
     1
102
RTVSPropertyOp9
 70
     1
102
RTVSPropertyOp10
 70
     1
102
RTVSPropertyOp11
 70
     1
102
RTVSPropertyOp12
 70
     1
102
RTVSPropertyOp13
 70
     1
102
RTVSPropertyOp14
 70
     1
102
RTVSPropertyOp15
 70
     1
102
RTVSPropertyOp16
 70
     1
102
RTVSPropertyOp17
 70
     1
102
RTVSPropertyOp18
 70
     1
102
RTVSPropertyOp19
 70
     1
102
RTVSPropertyOp20
 70
     1
102
RTVSPropertyOp21
 70
     1
102
RTVSPropertyOp22
 70
     1
102
RTVSPropertyOp23
 70
     1
102
RTVSPropertyOp24
 70
     1
102
RTVSPropertyOp25
 70
     1
102
RTVSPropertyOp26
 70
     1
102
RTVSPropertyOp27
 70
     1
  0
XRECORD
  5
2BF4
102
{ACAD_REACTORS
330
2BF3
102
}
330
2BF3
100
AcDbXrecord
280
     1
102
RTVSPropertyOp0
 70
     1
102
RTVSPropertyOp1
 70
     1
102
RTVSPropertyOp2
 70
     1
102
RTVSPropertyOp3
 70
     1
102
RTVSPropertyOp4
 70
     1
102
RTVSPropertyOp5
 70
     1
102
RTVSPropertyOp6
 70
     1
102
RTVSPropertyOp7
 70
     1
102
RTVSPropertyOp8
 70
     1
102
RTVSPropertyOp9
 70
     1
102
RTVSPropertyOp10
 70
     1
102
RTVSPropertyOp11
 70
     1
102
RTVSPropertyOp12
 70
     1
102
RTVSPropertyOp13
 70
     1
102
RTVSPropertyOp14
 70
     1
102
RTVSPropertyOp15
 70
     1
102
RTVSPropertyOp16
 70
     1
102
RTVSPropertyOp17
 70
     1
102
RTVSPropertyOp18
 70
     1
102
RTVSPropertyOp19
 70
     1
102
RTVSPropertyOp20
 70
     1
102
RTVSPropertyOp21
 70
     1
102
RTVSPropertyOp22
 70
     1
102
RTVSPropertyOp23
 70
     1
102
RTVSPropertyOp24
 70
     1
102
RTVSPropertyOp25
 70
     1
102
RTVSPropertyOp26
 70
     1
102
RTVSPropertyOp27
 70
     1
  0
XRECORD
  5
2C0E
102
{ACAD_REACTORS
330
2C0D
102
}
330
2C0D
100
AcDbXrecord
280
     1
102
RTVSPropertyOp0
 70
     0
102
RTVSPropertyOp1
 70
     0
102
RTVSPropertyOp2
 70
     0
102
RTVSPropertyOp3
 70
     0
102
RTVSPropertyOp4
 70
     0
102
RTVSPropertyOp5
 70
     0
102
RTVSPropertyOp6
 70
     0
102
RTVSPropertyOp7
 70
     0
102
RTVSPropertyOp8
 70
     0
102
RTVSPropertyOp9
 70
     0
102
RTVSPropertyOp10
 70
     0
102
RTVSPropertyOp11
 70
     0
102
RTVSPropertyOp12
 70
     0
102
RTVSPropertyOp13
 70
     0
102
RTVSPropertyOp14
 70
     2
102
RTVSPropertyOp15
 70
     0
102
RTVSPropertyOp16
 70
     0
102
RTVSPropertyOp17
 70
     0
102
RTVSPropertyOp18
 70
     0
102
RTVSPropertyOp19
 70
     0
102
RTVSPropertyOp20
 70
     0
102
RTVSPropertyOp21
 70
     0
102
RTVSPropertyOp22
 70
     0
102
RTVSPropertyOp23
 70
     0
102
RTVSPropertyOp24
 70
     0
102
RTVSPropertyOp25
 70
     0
102
RTVSPropertyOp26
 70
     0
102
RTVSPropertyOp27
 70
     0
  0
XRECORD
  5
2C08
102
{ACAD_REACTORS
330
2C07
102
}
330
2C07
100
AcDbXrecord
280
     1
102
RTVSPropertyOp0
 70
     1
102
RTVSPropertyOp1
 70
     1
102
RTVSPropertyOp2
 70
     1
102
RTVSPropertyOp3
 70
     1
102
RTVSPropertyOp4
 70
     1
102
RTVSPropertyOp5
 70
     1
102
RTVSPropertyOp6
 70
     1
102
RTVSPropertyOp7
 70
     1
102
RTVSPropertyOp8
 70
     1
102
RTVSPropertyOp9
 70
     1
102
RTVSPropertyOp10
 70
     1
102
RTVSPropertyOp11
 70
     1
102
RTVSPropertyOp12
 70
     1
102
RTVSPropertyOp13
 70
     1
102
RTVSPropertyOp14
 70
     1
102
RTVSPropertyOp15
 70
     1
102
RTVSPropertyOp16
 70
     1
102
RTVSPropertyOp17
 70
     1
102
RTVSPropertyOp18
 70
     1
102
RTVSPropertyOp19
 70
     1
102
RTVSPropertyOp20
 70
     1
102
RTVSPropertyOp21
 70
     1
102
RTVSPropertyOp22
 70
     1
102
RTVSPropertyOp23
 70
     1
102
RTVSPropertyOp24
 70
     1
102
RTVSPropertyOp25
 70
     1
102
RTVSPropertyOp26
 70
     1
102
RTVSPropertyOp27
 70
     1
  0
XRECORD
  5
2C10
102
{ACAD_REACTORS
330
2C0F
102
}
330
2C0F
100
AcDbXrecord
280
     1
102
RTVSPropertyOp0
 70
     0
102
RTVSPropertyOp1
 70
     0
102
RTVSPropertyOp2
 70
     0
102
RTVSPropertyOp3
 70
     0
102
RTVSPropertyOp4
 70
     0
102
RTVSPropertyOp5
 70
     0
102
RTVSPropertyOp6
 70
     0
102
RTVSPropertyOp7
 70
     0
102
RTVSPropertyOp8
 70
     0
102
RTVSPropertyOp9
 70
     0
102
RTVSPropertyOp10
 70
     0
102
RTVSPropertyOp11
 70
     0
102
RTVSPropertyOp12
 70
     0
102
RTVSPropertyOp13
 70
     0
102
RTVSPropertyOp14
 70
     2
102
RTVSPropertyOp15
 70
     0
102
RTVSPropertyOp16
 70
     0
102
RTVSPropertyOp17
 70
     0
102
RTVSPropertyOp18
 70
     0
102
RTVSPropertyOp19
 70
     0
102
RTVSPropertyOp20
 70
     0
102
RTVSPropertyOp21
 70
     0
102
RTVSPropertyOp22
 70
     0
102
RTVSPropertyOp23
 70
     0
102
RTVSPropertyOp24
 70
     0
102
RTVSPropertyOp25
 70
     0
102
RTVSPropertyOp26
 70
     0
102
RTVSPropertyOp27
 70
     0
  0
XRECORD
  5
2C00
102
{ACAD_REACTORS
330
2BFF
102
}
330
2BFF
100
AcDbXrecord
280
     1
102
RTVSPropertyOp0
 70
     1
102
RTVSPropertyOp1
 70
     1
102
RTVSPropertyOp2
 70
     1
102
RTVSPropertyOp3
 70
     1
102
RTVSPropertyOp4
 70
     1
102
RTVSPropertyOp5
 70
     1
102
RTVSPropertyOp6
 70
     1
102
RTVSPropertyOp7
 70
     1
102
RTVSPropertyOp8
 70
     1
102
RTVSPropertyOp9
 70
     1
102
RTVSPropertyOp10
 70
     1
102
RTVSPropertyOp11
 70
     1
102
RTVSPropertyOp12
 70
     1
102
RTVSPropertyOp13
 70
     1
102
RTVSPropertyOp14
 70
     1
102
RTVSPropertyOp15
 70
     1
102
RTVSPropertyOp16
 70
     1
102
RTVSPropertyOp17
 70
     1
102
RTVSPropertyOp18
 70
     1
102
RTVSPropertyOp19
 70
     1
102
RTVSPropertyOp20
 70
     1
102
RTVSPropertyOp21
 70
     1
102
RTVSPropertyOp22
 70
     1
102
RTVSPropertyOp23
 70
     1
102
RTVSPropertyOp24
 70
     1
102
RTVSPropertyOp25
 70
     1
102
RTVSPropertyOp26
 70
     1
102
RTVSPropertyOp27
 70
     1
  0
XRECORD
  5
2C06
102
{ACAD_REACTORS
330
2C05
102
}
330
2C05
100
AcDbXrecord
280
     1
102
RTVSPropertyOp0
 70
     1
102
RTVSPropertyOp1
 70
     1
102
RTVSPropertyOp2
 70
     1
102
RTVSPropertyOp3
 70
     1
102
RTVSPropertyOp4
 70
     1
102
RTVSPropertyOp5
 70
     1
102
RTVSPropertyOp6
 70
     1
102
RTVSPropertyOp7
 70
     1
102
RTVSPropertyOp8
 70
     1
102
RTVSPropertyOp9
 70
     1
102
RTVSPropertyOp10
 70
     1
102
RTVSPropertyOp11
 70
     1
102
RTVSPropertyOp12
 70
     1
102
RTVSPropertyOp13
 70
     1
102
RTVSPropertyOp14
 70
     1
102
RTVSPropertyOp15
 70
     1
102
RTVSPropertyOp16
 70
     1
102
RTVSPropertyOp17
 70
     1
102
RTVSPropertyOp18
 70
     1
102
RTVSPropertyOp19
 70
     1
102
RTVSPropertyOp20
 70
     1
102
RTVSPropertyOp21
 70
     1
102
RTVSPropertyOp22
 70
     1
102
RTVSPropertyOp23
 70
     1
102
RTVSPropertyOp24
 70
     1
102
RTVSPropertyOp25
 70
     1
102
RTVSPropertyOp26
 70
     1
102
RTVSPropertyOp27
 70
     1
  0
ENDSEC
  0
EOF
