  0
SECTION
  2
HEADER
  9
$ACADVER
  1
AC1015
  9
$ACADMAINTVER
 70
    20
  9
$DWGCODEPAGE
  3
ANSI_1252
  9
$INSBASE
 10
0.0
 20
0.0
 30
0.0
  9
$EXTMIN
 10
4991.486651333865
 20
2648.784310703869
 30
0.0
  9
$EXTMAX
 10
4994.011227494564
 20
2649.267737990017
 30
0.0
  9
$LIMMIN
 10
0.0
 20
0.0
  9
$LIMMAX
 10
420.0
 20
297.0
  9
$ORTHOMODE
 70
     1
  9
$REGENMODE
 70
     1
  9
$FILLMODE
 70
     1
  9
$QTEXTMODE
 70
     0
  9
$MIRRTEXT
 70
     1
  9
$LTSCALE
 40
1.0
  9
$ATTMODE
 70
     1
  9
$TEXTSIZE
 40
2.5
  9
$TRACEWID
 40
1.0
  9
$TEXTSTYLE
  7
SANINDUSA
  9
$CLAYER
  8
0
  9
$CELTYPE
  6
ByLayer
  9
$CECOLOR
 62
   256
  9
$CELTSCALE
 40
1.0
  9
$DISPSILH
 70
     0
  9
$DIMSCALE
 40
1.0
  9
$DIMASZ
 40
2.0
  9
$DIMEXO
 40
1.0
  9
$DIMDLI
 40
1.0
  9
$DIMRND
 40
0.0
  9
$DIMDLE
 40
0.0
  9
$DIMEXE
 40
1.0
  9
$DIMTP
 40
0.0
  9
$DIMTM
 40
0.0
  9
$DIMTXT
 40
2.0
  9
$DIMCEN
 40
0.0
  9
$DIMTSZ
 40
0.0
  9
$DIMTOL
 70
     0
  9
$DIMLIM
 70
     0
  9
$DIMTIH
 70
     0
  9
$DIMTOH
 70
     0
  9
$DIMSE1
 70
     0
  9
$DIMSE2
 70
     0
  9
$DIMTAD
 70
     1
  9
$DIMZIN
 70
     8
  9
$DIMBLK
  1

  9
$DIMASO
 70
     1
  9
$DIMSHO
 70
     1
  9
$DIMPOST
  1

  9
$DIMAPOST
  1

  9
$DIMALT
 70
     0
  9
$DIMALTD
 70
     3
  9
$DIMALTF
 40
0.03937007874016
  9
$DIMLFAC
 40
1.0
  9
$DIMTOFL
 70
     1
  9
$DIMTVP
 40
0.0
  9
$DIMTIX
 70
     0
  9
$DIMSOXD
 70
     0
  9
$DIMSAH
 70
     0
  9
$DIMBLK1
  1

  9
$DIMBLK2
  1

  9
$DIMSTYLE
  2
SANINDUSA
  9
$DIMCLRD
 70
   256
  9
$DIMCLRE
 70
   256
  9
$DIMCLRT
 70
   256
  9
$DIMTFAC
 40
1.0
  9
$DIMGAP
 40
1.0
  9
$DIMJUST
 70
     0
  9
$DIMSD1
 70
     0
  9
$DIMSD2
 70
     0
  9
$DIMTOLJ
 70
     0
  9
$DIMTZIN
 70
     8
  9
$DIMALTZ
 70
     0
  9
$DIMALTTZ
 70
     0
  9
$DIMUPT
 70
     0
  9
$DIMDEC
 70
     1
  9
$DIMTDEC
 70
     1
  9
$DIMALTU
 70
     2
  9
$DIMALTTD
 70
     3
  9
$DIMTXSTY
  7
SANINDUSA
  9
$DIMAUNIT
 70
     0
  9
$DIMADEC
 70
     1
  9
$DIMALTRND
 40
0.0
  9
$DIMAZIN
 70
     0
  9
$DIMDSEP
 70
    44
  9
$DIMATFIT
 70
     3
  9
$DIMFRAC
 70
     0
  9
$DIMLDRBLK
  1

  9
$DIMLUNIT
 70
     2
  9
$DIMLWD
 70
    -1
  9
$DIMLWE
 70
    -1
  9
$DIMTMOVE
 70
     0
  9
$LUNITS
 70
     2
  9
$LUPREC
 70
     4
  9
$SKETCHINC
 40
1.0
  9
$FILLETRAD
 40
0.0
  9
$AUNITS
 70
     0
  9
$AUPREC
 70
     0
  9
$MENU
  1
.
  9
$ELEVATION
 40
0.0
  9
$PELEVATION
 40
0.0
  9
$THICKNESS
 40
0.0
  9
$LIMCHECK
 70
     0
  9
$CHAMFERA
 40
10.0
  9
$CHAMFERB
 40
10.0
  9
$CHAMFERC
 40
20.0
  9
$CHAMFERD
 40
0.0
  9
$SKPOLY
 70
     0
  9
$TDCREATE
 40
2456023.459103912
  9
$TDUCREATE
 40
2456023.417437245
  9
$TDUPDATE
 40
2456115.596537176
  9
$TDUUPDATE
 40
2456115.554870509
  9
$TDINDWG
 40
0.0036131019
  9
$TDUSRTIMER
 40
0.0036127315
  9
$USRTIMER
 70
     1
  9
$ANGBASE
 50
0.0
  9
$ANGDIR
 70
     0
  9
$PDMODE
 70
     0
  9
$PDSIZE
 40
0.0
  9
$PLINEWID
 40
0.0
  9
$SPLFRAME
 70
     0
  9
$SPLINETYPE
 70
     6
  9
$SPLINESEGS
 70
     8
  9
$HANDSEED
  5
3E6F
  9
$SURFTAB1
 70
     6
  9
$SURFTAB2
 70
     6
  9
$SURFTYPE
 70
     6
  9
$SURFU
 70
     6
  9
$SURFV
 70
     6
  9
$UCSBASE
  2

  9
$UCSNAME
  2

  9
$UCSORG
 10
0.0
 20
0.0
 30
0.0
  9
$UCSXDIR
 10
1.0
 20
0.0
 30
0.0
  9
$UCSYDIR
 10
0.0
 20
1.0
 30
0.0
  9
$UCSORTHOREF
  2

  9
$UCSORTHOVIEW
 70
     0
  9
$UCSORGTOP
 10
0.0
 20
0.0
 30
0.0
  9
$UCSORGBOTTOM
 10
0.0
 20
0.0
 30
0.0
  9
$UCSORGLEFT
 10
0.0
 20
0.0
 30
0.0
  9
$UCSORGRIGHT
 10
0.0
 20
0.0
 30
0.0
  9
$UCSORGFRONT
 10
0.0
 20
0.0
 30
0.0
  9
$UCSORGBACK
 10
0.0
 20
0.0
 30
0.0
  9
$PUCSBASE
  2

  9
$PUCSNAME
  2

  9
$PUCSORG
 10
0.0
 20
0.0
 30
0.0
  9
$PUCSXDIR
 10
1.0
 20
0.0
 30
0.0
  9
$PUCSYDIR
 10
0.0
 20
1.0
 30
0.0
  9
$PUCSORTHOREF
  2

  9
$PUCSORTHOVIEW
 70
     0
  9
$PUCSORGTOP
 10
0.0
 20
0.0
 30
0.0
  9
$PUCSORGBOTTOM
 10
0.0
 20
0.0
 30
0.0
  9
$PUCSORGLEFT
 10
0.0
 20
0.0
 30
0.0
  9
$PUCSORGRIGHT
 10
0.0
 20
0.0
 30
0.0
  9
$PUCSORGFRONT
 10
0.0
 20
0.0
 30
0.0
  9
$PUCSORGBACK
 10
0.0
 20
0.0
 30
0.0
  9
$USERI1
 70
     0
  9
$USERI2
 70
     0
  9
$USERI3
 70
     0
  9
$USERI4
 70
     0
  9
$USERI5
 70
     0
  9
$USERR1
 40
0.0
  9
$USERR2
 40
0.0
  9
$USERR3
 40
0.0
  9
$USERR4
 40
0.0
  9
$USERR5
 40
0.0
  9
$WORLDVIEW
 70
     1
  9
$SHADEDGE
 70
     3
  9
$SHADEDIF
 70
    70
  9
$TILEMODE
 70
     1
  9
$MAXACTVP
 70
    64
  9
$PINSBASE
 10
0.0
 20
0.0
 30
0.0
  9
$PLIMCHECK
 70
     0
  9
$PEXTMIN
 10
1.000000000000000E+20
 20
1.000000000000000E+20
 30
1.000000000000000E+20
  9
$PEXTMAX
 10
-1.000000000000000E+20
 20
-1.000000000000000E+20
 30
-1.000000000000000E+20
  9
$PLIMMIN
 10
0.0
 20
0.0
  9
$PLIMMAX
 10
420.0
 20
297.0
  9
$UNITMODE
 70
     0
  9
$VISRETAIN
 70
     1
  9
$PLINEGEN
 70
     0
  9
$PSLTSCALE
 70
     1
  9
$TREEDEPTH
 70
  3020
  9
$CMLSTYLE
  2
Standard
  9
$CMLJUST
 70
     0
  9
$CMLSCALE
 40
20.0
  9
$PROXYGRAPHICS
 70
     1
  9
$MEASUREMENT
 70
     1
  9
$CELWEIGHT
370
    -1
  9
$ENDCAPS
280
     0
  9
$JOINSTYLE
280
     0
  9
$LWDISPLAY
290
     0
  9
$INSUNITS
 70
     4
  9
$HYPERLINKBASE
  1

  9
$STYLESHEET
  1
sanindusa.ctb
  9
$XEDIT
290
     1
  9
$CEPSNTYPE
380
     0
  9
$PSTYLEMODE
290
     1
  9
$FINGERPRINTGUID
  2
{EEF303D1-2313-450E-8C05-0BE69EB5E77E}
  9
$VERSIONGUID
  2
{5514138E-701F-4855-AAEE-2DE856A60B23}
  9
$EXTNAMES
290
     1
  9
$PSVPSCALE
 40
0.0
  9
$OLESTARTUP
290
     0
  0
ENDSEC
  0
SECTION
  2
CLASSES
  0
CLASS
  1
ACDBDICTIONARYWDFLT
  2
AcDbDictionaryWithDefault
  3
ObjectDBX Classes
 90
        0
280
     0
281
     0
  0
CLASS
  1
ACDBPLACEHOLDER
  2
AcDbPlaceHolder
  3
ObjectDBX Classes
 90
        0
280
     0
281
     0
  0
CLASS
  1
LAYOUT
  2
AcDbLayout
  3
ObjectDBX Classes
 90
        0
280
     0
281
     0
  0
CLASS
  1
DICTIONARYVAR
  2
AcDbDictionaryVar
  3
ObjectDBX Classes
 90
        0
280
     0
281
     0
  0
CLASS
  1
DIMASSOC
  2
AcDbDimAssoc
  3
"AcDbDimAssoc|Product Desc:     AcDim ARX App For Dimension|Company:          Autodesk, Inc.|WEB Address:      www.autodesk.com"
 90
    32768
280
     0
281
     0
  0
CLASS
  1
TABLESTYLE
  2
AcDbTableStyle
  3
ObjectDBX Classes
 90
     4095
280
     0
281
     0
  0
CLASS
  1
MATERIAL
  2
AcDbMaterial
  3
ObjectDBX Classes
 90
     1153
280
     0
281
     0
  0
CLASS
  1
VISUALSTYLE
  2
AcDbVisualStyle
  3
ObjectDBX Classes
 90
     4095
280
     0
281
     0
  0
CLASS
  1
SCALE
  2
AcDbScale
  3
ObjectDBX Classes
 90
     1153
280
     0
281
     0
  0
CLASS
  1
MLEADERSTYLE
  2
AcDbMLeaderStyle
  3
ACDB_MLEADERSTYLE_CLASS
 90
     4095
280
     0
281
     0
  0
CLASS
  1
MULTILEADER
  2
AcDbMLeader
  3
ACDB_MLEADER_CLASS
 90
    33793
280
     0
281
     1
  0
CLASS
  1
SORTENTSTABLE
  2
AcDbSortentsTable
  3
ObjectDBX Classes
 90
    32768
280
     0
281
     0
  0
CLASS
  1
AEC_REFEDIT_STATUS_TRACKER
  2
AecDbRefEditStatusTracker
  3
AecArchBase60|Product Desc: Autodesk Architectural Desktop 2007 |Company: Autodesk,Inc. |WEB Address: www.autodesk.com
 90
    32897
280
     0
281
     0
  0
CLASS
  1
NPOCOLLECTION
  2
AcDbImpNonPersistentObjectsCollection
  3
ObjectDBX Classes
 90
     1153
280
     0
281
     0
  0
CLASS
  1
CELLSTYLEMAP
  2
AcDbCellStyleMap
  3
ObjectDBX Classes
 90
     1152
280
     0
281
     0
  0
CLASS
  1
SOLID_BACKGROUND
  2
AcDbSolidBackground
  3
SCENEOE
 90
    36863
280
     0
281
     0
  0
CLASS
  1
EXACXREFPANELOBJECT
  2
ExAcXREFPanelObject
  3
EXAC_ESW
 90
     1025
280
     0
281
     0
  0
ENDSEC
  0
SECTION
  2
TABLES
  0
TABLE
  2
VPORT
  5
8
102
{ACAD_XDICTIONARY
360
3DC7
102
}
330
0
100
AcDbSymbolTable
 70
     1
  0
VPORT
  5
1068
330
8
100
AcDbSymbolTableRecord
100
AcDbViewportTableRecord
  2
*Active
 70
     0
 10
0.0
 20
0.0
 11
1.0
 21
1.0
 12
4992.748939414214
 22
2649.026024346943
 13
0.0
 23
0.0
 14
10.0
 24
10.0
 15
10.0
 25
10.0
 16
0.0
 26
0.0
 36
1.0
 17
0.0
 27
0.0
 37
0.0
 40
1.540091592366531
 41
1.645464025026068
 42
50.0
 43
0.0
 44
0.0
 50
0.0
 51
0.0
 71
     0
 72
   100
 73
     1
 74
     2
 75
     0
 76
     0
 77
     0
 78
     0
281
     0
 65
     1
110
0.0
120
0.0
130
0.0
111
1.0
121
0.0
131
0.0
112
0.0
122
1.0
132
0.0
 79
     0
146
0.0
  0
ENDTAB
  0
TABLE
  2
LTYPE
  5
5
330
0
100
AcDbSymbolTable
 70
     5
  0
LTYPE
  5
14
330
5
100
AcDbSymbolTableRecord
100
AcDbLinetypeTableRecord
  2
ByBlock
 70
     0
  3

 72
    65
 73
     0
 40
0.0
  0
LTYPE
  5
15
330
5
100
AcDbSymbolTableRecord
100
AcDbLinetypeTableRecord
  2
ByLayer
 70
     0
  3

 72
    65
 73
     0
 40
0.0
  0
LTYPE
  5
16
330
5
100
AcDbSymbolTableRecord
100
AcDbLinetypeTableRecord
  2
Continuous
 70
     0
  3
Solid line
 72
    65
 73
     0
 40
0.0
  0
LTYPE
  5
2D
330
5
100
AcDbSymbolTableRecord
100
AcDbLinetypeTableRecord
  2
DASHDOT
 70
     0
  3
Dash dot __ . __ . __ . __ . __ . __ . __ . __
 72
    65
 73
     4
 40
25.4
 49
12.7
 74
     0
 49
-6.349999999999999
 74
     0
 49
0.0
 74
     0
 49
-6.349999999999999
 74
     0
  0
LTYPE
  5
2E
330
5
100
AcDbSymbolTableRecord
100
AcDbLinetypeTableRecord
  2
HIDDEN
 70
     0
  3
Hidden __ __ __ __ __ __ __ __ __ __ __ __ __ _
 72
    65
 73
     2
 40
9.524999999999998
 49
6.349999999999999
 74
     0
 49
-3.174999999999999
 74
     0
  0
LTYPE
  5
C75
330
5
100
AcDbSymbolTableRecord
100
AcDbLinetypeTableRecord
  2
AM_ISO02W050
 70
     0
  3
__ __ __ __ __ __ __ __ __ __ __ __ __ __ __
 72
    65
 73
     2
 40
7.5
 49
6.0
 74
     0
 49
-1.5
 74
     0
  0
LTYPE
  5
C76
330
5
100
AcDbSymbolTableRecord
100
AcDbLinetypeTableRecord
  2
AM_ISO08W050
 70
     0
  3
____ . ____ . ____ . ____ . ____ . ____ . ____
 72
    65
 73
     4
 40
18.0
 49
12.0
 74
     0
 49
-1.5
 74
     0
 49
3.0
 74
     0
 49
-1.5
 74
     0
  0
ENDTAB
  0
TABLE
  2
LAYER
  5
2
102
{ACAD_XDICTIONARY
360
1051
102
}
330
0
100
AcDbSymbolTable
 70
    17
  0
LAYER
  5
10
102
{ACAD_XDICTIONARY
360
3D4D
102
}
330
2
100
AcDbSymbolTableRecord
100
AcDbLayerTableRecord
  2
0
 70
     0
 62
     7
  6
Continuous
370
    -3
390
F
  0
LAYER
  5
2F
102
{ACAD_XDICTIONARY
360
3D4F
102
}
330
2
100
AcDbSymbolTableRecord
100
AcDbLayerTableRecord
  2
1
 70
     0
 62
     1
  6
Continuous
370
    -3
390
F
  0
LAYER
  5
30
102
{ACAD_XDICTIONARY
360
3D51
102
}
330
2
100
AcDbSymbolTableRecord
100
AcDbLayerTableRecord
  2
2
 70
     0
 62
     2
  6
Continuous
370
    -3
390
F
  0
LAYER
  5
31
102
{ACAD_XDICTIONARY
360
3D53
102
}
330
2
100
AcDbSymbolTableRecord
100
AcDbLayerTableRecord
  2
3
 70
     0
 62
     3
  6
Continuous
370
    -3
390
F
  0
LAYER
  5
32
102
{ACAD_XDICTIONARY
360
3D55
102
}
330
2
100
AcDbSymbolTableRecord
100
AcDbLayerTableRecord
  2
4
 70
     0
 62
     4
  6
Continuous
370
    -3
390
F
  0
LAYER
  5
33
102
{ACAD_XDICTIONARY
360
3D57
102
}
330
2
100
AcDbSymbolTableRecord
100
AcDbLayerTableRecord
  2
5
 70
     0
 62
     5
  6
Continuous
370
    -3
390
F
  0
LAYER
  5
34
102
{ACAD_XDICTIONARY
360
3D59
102
}
330
2
100
AcDbSymbolTableRecord
100
AcDbLayerTableRecord
  2
6
 70
     0
 62
     6
  6
Continuous
370
    -3
390
F
  0
LAYER
  5
35
102
{ACAD_XDICTIONARY
360
3D5B
102
}
330
2
100
AcDbSymbolTableRecord
100
AcDbLayerTableRecord
  2
7
 70
     0
 62
     7
  6
Continuous
370
    -3
390
F
  0
LAYER
  5
36
102
{ACAD_XDICTIONARY
360
3D5D
102
}
330
2
100
AcDbSymbolTableRecord
100
AcDbLayerTableRecord
  2
cen
 70
     0
 62
     7
  6
DASHDOT
370
    -3
390
F
  0
LAYER
  5
37
102
{ACAD_XDICTIONARY
360
3D5F
102
}
330
2
100
AcDbSymbolTableRecord
100
AcDbLayerTableRecord
  2
hid
 70
     0
 62
     7
  6
HIDDEN
370
    -3
390
F
  0
LAYER
  5
5D6
102
{ACAD_XDICTIONARY
360
3D61
102
}
330
2
100
AcDbSymbolTableRecord
100
AcDbLayerTableRecord
  2
hatch
 70
     0
 62
     9
  6
Continuous
370
    -3
390
F
  0
LAYER
  5
8AF
102
{ACAD_XDICTIONARY
360
3D63
102
}
330
2
100
AcDbSymbolTableRecord
100
AcDbLayerTableRecord
  2
9
 70
     0
 62
     9
  6
Continuous
370
    -3
390
F
  0
LAYER
  5
8F8
102
{ACAD_XDICTIONARY
360
3D65
102
}
330
2
100
AcDbSymbolTableRecord
100
AcDbLayerTableRecord
  2
leg fin
 70
     0
 62
     9
  6
Continuous
370
    -3
390
F
  0
LAYER
  5
91D
102
{ACAD_XDICTIONARY
360
3D67
102
}
330
2
100
AcDbSymbolTableRecord
100
AcDbLayerTableRecord
  2
cotas
 70
     0
 62
     1
  6
Continuous
370
    -3
390
F
  0
LAYER
  5
92F
330
2
100
AcDbSymbolTableRecord
100
AcDbLayerTableRecord
  2
Defpoints
 70
     0
 62
     7
  6
Continuous
290
     0
370
    -3
390
F
  0
LAYER
  5
C7B
102
{ACAD_XDICTIONARY
360
3D69
102
}
330
2
100
AcDbSymbolTableRecord
100
AcDbLayerTableRecord
  2
SANINDUSA
 70
     0
 62
     3
  6
Continuous
370
    -3
390
F
  0
LAYER
  5
1060
102
{ACAD_XDICTIONARY
360
3D6B
102
}
330
2
100
AcDbSymbolTableRecord
100
AcDbLayerTableRecord
  2
hid1
 70
     0
 62
     9
  6
HIDDEN
370
    -3
390
F
1001
AcAecLayerStandard
1000

1000

  0
ENDTAB
  0
TABLE
  2
STYLE
  5
3
330
0
100
AcDbSymbolTable
 70
     4
  0
STYLE
  5
11
330
3
100
AcDbSymbolTableRecord
100
AcDbTextStyleTableRecord
  2
Standard
 70
     0
 40
0.0
 41
1.0
 50
0.0
 71
     0
 42
2.5
  3
Avgardn.ttf
  4

1001
ACAD
1000
AvantGarde Bk BT
1071
       34
  0
STYLE
  5
2C
330
3
100
AcDbSymbolTableRecord
100
AcDbTextStyleTableRecord
  2

 70
     1
 40
0.0
 41
1.0
 50
0.0
 71
     0
 42
2.5
  3
ltypeshp.shx
  4

  0
STYLE
  5
91F
330
3
100
AcDbSymbolTableRecord
100
AcDbTextStyleTableRecord
  2
SANINDUSA
 70
     0
 40
0.0
 41
1.0
 50
0.0
 71
     0
 42
2.5
  3
verdana.TTF
  4

1001
ACAD
1000
Verdana
1071
       34
  0
STYLE
  5
C7C
330
3
100
AcDbSymbolTableRecord
100
AcDbTextStyleTableRecord
  2
futura
 70
     0
 40
0.0
 41
1.0
 50
0.0
 71
     0
 42
2.5
  3
zuricrm_.ttf
  4

1001
ACAD
1000
Zurich BT
1071
       34
  0
ENDTAB
  0
TABLE
  2
VIEW
  5
6
330
0
100
AcDbSymbolTable
 70
     0
  0
ENDTAB
  0
TABLE
  2
UCS
  5
7
330
0
100
AcDbSymbolTable
 70
     0
  0
ENDTAB
  0
TABLE
  2
APPID
  5
9
330
0
100
AcDbSymbolTable
 70
    16
  0
APPID
  5
12
330
9
100
AcDbSymbolTableRecord
100
AcDbRegAppTableRecord
  2
ACAD
 70
     0
  0
APPID
  5
3A
330
9
100
AcDbSymbolTableRecord
100
AcDbRegAppTableRecord
  2
DCO15
 70
     0
  0
APPID
  5
EEE
330
9
100
AcDbSymbolTableRecord
100
AcDbRegAppTableRecord
  2
ACAD_DSTYLE_DIMTEXT_FILL
 70
     0
  0
APPID
  5
EEF
330
9
100
AcDbSymbolTableRecord
100
AcDbRegAppTableRecord
  2
ACAD_DSTYLE_DIMEXT_LENGTH
 70
     0
  0
APPID
  5
EF0
330
9
100
AcDbSymbolTableRecord
100
AcDbRegAppTableRecord
  2
ACAD_DSTYLE_DIMEXT_ENABLED
 70
     0
  0
APPID
  5
EF1
330
9
100
AcDbSymbolTableRecord
100
AcDbRegAppTableRecord
  2
ACAD_DSTYLE_DIM_LINETYPE
 70
     0
  0
APPID
  5
EF2
330
9
100
AcDbSymbolTableRecord
100
AcDbRegAppTableRecord
  2
ACAD_DSTYLE_DIM_EXT1_LINETYPE
 70
     0
  0
APPID
  5
EF3
330
9
100
AcDbSymbolTableRecord
100
AcDbRegAppTableRecord
  2
ACAD_DSTYLE_DIM_EXT2_LINETYPE
 70
     0
  0
APPID
  5
FAF
330
9
100
AcDbSymbolTableRecord
100
AcDbRegAppTableRecord
  2
ACAD_DSTYLE_DIMJOGGED_JOGANGLE_SYMBOL
 70
     0
  0
APPID
  5
1013
330
9
100
AcDbSymbolTableRecord
100
AcDbRegAppTableRecord
  2
ACAD_DSTYLE_DIMARC_LENGTH_SYMBOL
 70
     0
  0
APPID
  5
1061
330
9
100
AcDbSymbolTableRecord
100
AcDbRegAppTableRecord
  2
AcAecLayerStandard
 70
     0
  0
APPID
  5
12B3
330
9
100
AcDbSymbolTableRecord
100
AcDbRegAppTableRecord
  2
ACAD_DSTYLE_DIMJAG
 70
     0
  0
APPID
  5
12B4
330
9
100
AcDbSymbolTableRecord
100
AcDbRegAppTableRecord
  2
ACAD_DSTYLE_DIMTALN
 70
     0
  0
APPID
  5
12B5
330
9
100
AcDbSymbolTableRecord
100
AcDbRegAppTableRecord
  2
ACAD_DSTYLE_DIMRADIAL_EXTENSION
 70
     0
  0
APPID
  5
2983
330
9
100
AcDbSymbolTableRecord
100
AcDbRegAppTableRecord
  2
ACAD_EXEMPT_FROM_CAD_STANDARDS
 70
     0
  0
APPID
  5
3DF9
330
9
100
AcDbSymbolTableRecord
100
AcDbRegAppTableRecord
  2
ACAD_MLEADERVER
 70
     0
  0
ENDTAB
  0
TABLE
  2
DIMSTYLE
  5
A
330
0
100
AcDbSymbolTable
 70
     3
100
AcDbDimStyleTable
 71
     1
340
921
  0
DIMSTYLE
105
45
330
A
100
AcDbSymbolTableRecord
100
AcDbDimStyleTableRecord
  2
STANDARD
 70
     0
289
     0
340
11
  0
DIMSTYLE
105
921
330
A
100
AcDbSymbolTableRecord
100
AcDbDimStyleTableRecord
  2
SANINDUSA
 70
     0
 41
2.0
 42
1.0
 43
1.0
 44
1.0
 73
     0
 74
     0
 77
     1
 78
     8
140
2.0
141
0.0
143
0.03937007874016
147
1.0
171
     3
172
     1
176
   256
177
   256
178
   256
179
     1
271
     1
272
     1
274
     3
278
    44
283
     0
284
     8
340
91F
371
    -1
372
    -1
1001
ACAD_DSTYLE_DIMJOGGED_JOGANGLE_SYMBOL
1070
   384
1040
1.570796326794896
  0
DIMSTYLE
105
C7D
330
A
100
AcDbSymbolTableRecord
100
AcDbDimStyleTableRecord
  2
AM_ISO
 70
     0
  4
"
 41
2.5
 42
1.0
 43
10.0
 44
1.0
 47
0.1
 48
0.1
 73
     0
 74
     0
 77
     1
 78
     8
 79
     2
140
3.5
141
0.0
143
0.0393701
146
0.71
147
1.5
172
     1
176
   256
177
   256
178
     2
271
     2
272
     3
274
     4
283
     0
284
     8
340
11
371
    -1
372
    -1
  0
ENDTAB
  0
TABLE
  2
BLOCK_RECORD
  5
1
330
0
100
AcDbSymbolTable
 70
    91
  0
BLOCK_RECORD
  5
1F
330
1
100
AcDbSymbolTableRecord
100
AcDbBlockTableRecord
  2
*Model_Space
340
22
  0
BLOCK_RECORD
  5
1B
330
1
100
AcDbSymbolTableRecord
100
AcDbBlockTableRecord
  2
*Paper_Space
340
1E
  0
BLOCK_RECORD
  5
23
330
1
100
AcDbSymbolTableRecord
100
AcDbBlockTableRecord
  2
*Paper_Space0
340
26
  0
BLOCK_RECORD
  5
919
330
1
100
AcDbSymbolTableRecord
100
AcDbBlockTableRecord
  2
_DotSmall
340
0
  0
BLOCK_RECORD
  5
922
330
1
100
AcDbSymbolTableRecord
100
AcDbBlockTableRecord
  2
base para cotas
340
0
310
2800000020000000200000000100080000000000000400000000000000000000000000000000000000000000000080000080000000808000800000008000800080800000C0C0C000C0DCC000F0CAA6000020400000206000002080000020A0000020C0000020E00000400000004020000040400000406000004080000040A0
310
000040C0000040E00000600000006020000060400000606000006080000060A0000060C0000060E00000800000008020000080400000806000008080000080A0000080C0000080E00000A0000000A0200000A0400000A0600000A0800000A0A00000A0C00000A0E00000C0000000C0200000C0400000C0600000C0800000C0
310
A00000C0C00000C0E00000E0000000E0200000E0400000E0600000E0800000E0A00000E0C00000E0E00040000000400020004000400040006000400080004000A0004000C0004000E00040200000402020004020400040206000402080004020A0004020C0004020E000404000004040200040404000404060004040800040
310
40A0004040C0004040E00040600000406020004060400040606000406080004060A0004060C0004060E00040800000408020004080400040806000408080004080A0004080C0004080E00040A0000040A0200040A0400040A0600040A0800040A0A00040A0C00040A0E00040C0000040C0200040C0400040C0600040C08000
310
40C0A00040C0C00040C0E00040E0000040E0200040E0400040E0600040E0800040E0A00040E0C00040E0E00080000000800020008000400080006000800080008000A0008000C0008000E00080200000802020008020400080206000802080008020A0008020C0008020E00080400000804020008040400080406000804080
310
008040A0008040C0008040E00080600000806020008060400080606000806080008060A0008060C0008060E00080800000808020008080400080806000808080008080A0008080C0008080E00080A0000080A0200080A0400080A0600080A0800080A0A00080A0C00080A0E00080C0000080C0200080C0400080C0600080C0
310
800080C0A00080C0C00080C0E00080E0000080E0200080E0400080E0600080E0800080E0A00080E0C00080E0E000C0000000C0002000C0004000C0006000C0008000C000A000C000C000C000E000C0200000C0202000C0204000C0206000C0208000C020A000C020C000C020E000C0400000C0402000C0404000C0406000C0
310
408000C040A000C040C000C040E000C0600000C0602000C0604000C0606000C0608000C060A000C060C000C060E000C0800000C0802000C0804000C0806000C0808000C080A000C080C000C080E000C0A00000C0A02000C0A04000C0A06000C0A08000C0A0A000C0A0C000C0A0E000C0C00000C0C02000C0C04000C0C06000
310
C0C08000C0C0A000F0FBFF00A4A0A000808080000000FF0000FF000000FFFF00FF000000FF00FF00FFFF0000FFFFFF00A4A4A4A4A4A4A4A4A4A4A4A4A4A4A4A4A4A4A4A4A4A4A4A4A4A4A4A4A4A4A4A4A4A4A4A4A4A4A4A4A4A4A4A4A4A4A4A4A4A4A4A4A4A4A4A4A4A4A4A4A4A4A4A4A4A4A4A4A4A4A4A4A4A4A4A4A4A4A4
310
A4A4A4A4A4A4A4A4A4A4A4A4A4A4A4A4A4A4A4A4A4A4A4A4A4A4A4A4A4A4A4A4A4A4A4A4A4A4A4A4A4A4A4A4A4A4A4A4A4A4A4A4A4A4A4A4A4A4A4A4A4A4A4A4A4A4A4A4A4A4A4A4A4A4A4A4A4A4A4A4A4A4A4A4A4A4A4A4A4A4A4A4A4A4A4A4A4A4A4A4A4A4A4A4A4A4A4A4A4A4A4A4A4A4A4A4A4A4A4A4A4A4A4A4A4A4A4
310
A4A4A4A4A4A4A4A4A4A4A4A4A4A4A4A4A4A4A4A4A4A4A4A4A4A4A4A4A4A4A4A4A4A4A4A4A4A4A4A4A4A4A4A4A4A4A4A4A4A4A4A4A4A4A4A4A4A4A4A4A4A4A4A4A4A4A4A4A4A4A4A4A4A4A4A4A4A4A4A4A4A4A4A4A4A4A4A4A4A4A4A4A4A4A4A4A4A4A4A4A4A4A4A4A4A4A4A4A4A4A4A4A4A4A4A4A4A4A4A4A4A4A4A4A4A4A4
310
A4A4A4A4A4A4A4A4A4A4A4A4A4A4A4A4A4A4A4A4A4A4A4A4A4A4A4A4A4A4A4A4A4A4A4A4A4A4A4A4A4A4A4A4A4A4A4A4A4A4A4A4A4A4A4A4A4A4A4A4A4A4A4A4A4A4A4A4A4A4A4A4A4A4A4A4A4A4A4A4A4A4A4A4A4A4A4A4A4A4A4A4A4A4A4A4A4A4A4A4A4A4A4A4A4A4A4A4A4A4A4A4A4A4A4A4F9F9F9F9F9F9F9F9F9F9F9
310
F9F9F9F9F9F9F9F9F9F9F9F9F9F9F9F9F9F9F9A4A4F9F9F9F9F9F9F9F9F9F9F9F9F9F9F9F9F9F9F9F9F9F9F9F9F9F9F9F9F9F9A4A4F9F9F9F9F9F9F9F9F9F9F9F9F9F9F9F9F9F9F9F9F9F9F9F9F9F9F9F9F9F9A4A4F9A4A4A4A4A4A4A4A4A4A4A4A4A4A4A4A4A4A4A4A4A4A4A4A4A4A4A4A4F9A4A4A4A4A4A4A4A4A4A4A4A4
310
A4A4A4A4A4A4A4A4A4A4A4A4A4A4A4A4A4A4A4A4A4A4A4A4A4A4A4A4A4A4A4A4A4A4A4A4A4A4A4A4A4A4A4A4A4A4A4A4A4A4A4A4A4A4A4A4A4A4A4A4A4A4A4A4A4A4A4A4A4A4A4A4A4A4A4A4A4A4A4A4A4A4A4A4A4A4A4A4A4A4A4A4A4A4A4A4A4A4A4A4A4A4A4A4A4A4A4A4A4A4A4A4A4A4A4A4A4A4A4A4A4A4A4A4A4A4A4
310
A4A4A4A4A4A4A4A4A4A4A4A4A4A4A4A4A4A4A4A4A4A4A4A4A4A4A4A4A4A4A4A4A4A4A4A4A4A4A4A4A4A4A4A4A4A4A4A4A4A4A4A4A4A4A4A4A4A4A4A4A4A4A4A4A4A4A4A4A4A4A4A4A4A4A4A4A4A4A4A4A4A4A4A4A4A4A4A4A4A4A4A4A4A4A4A4A4A4A4A4A4A4A4A4A4A4A4A4A4A4A4A4A4A4A4A4A4A4A4A4A4A4A4A4A4A4A4
310
A4A4A4A4A4A4A4A4A4A4A4A4A4A4A4A4A4A4A4A4A4A4A4A4A4A4A4A4A4A4A4A4A4A4A4A4A4A4A4A4A4A4A4A4A4A4A4A4A4A4A4A4A4A4A4A4A4A4A4A4A4A4A4A4A4A4A4A4A4A4A4A4A4A4A4A4A4A4A4A4A4A4A4A4A4A4A4A4A4A4A4A4A4A4A4A4A4A4A4A4A4A4A4A4A4A4A4A4A4A4A4A4A4A4A4A4A4A4A4A4A4A4A4A4A4A4A4
310
A4A4A4A4A4A4A4A4A4A4A4A4A4A4A4A4A4A4A4A4A4A4A4A4A4A4A4A4A4A4A4A4A4A4A4A4A4A4A4A4A4A4A4A4A4A4A4A4A4A4A4A4A4A4A4A4
1001
ACAD
1000
DesignCenter Data
1002
{
1070
     1
1070
     4
1002
}
  0
BLOCK_RECORD
  5
AA8
330
1
100
AcDbSymbolTableRecord
100
AcDbBlockTableRecord
  2
_CLOSED
340
0
  0
BLOCK_RECORD
  5
B79
330
1
100
AcDbSymbolTableRecord
100
AcDbBlockTableRecord
  2
nota revisoes
340
0
1001
ACAD
1000
DesignCenter Data
1002
{
1070
     1
1070
     4
1002
}
  0
BLOCK_RECORD
  5
B8E
330
1
100
AcDbSymbolTableRecord
100
AcDbBlockTableRecord
  2
a3l
340
0
1001
ACAD
1000
DesignCenter Data
1002
{
1070
     1
1070
     4
1002
}
  0
BLOCK_RECORD
  5
B9E
330
1
100
AcDbSymbolTableRecord
100
AcDbBlockTableRecord
  2
legenda desenvolvimento
340
0
1001
ACAD
1000
DesignCenter Data
1002
{
1070
     1
1070
     4
1002
}
  0
ENDTAB
  0
ENDSEC
  0
SECTION
  2
BLOCKS
  0
BLOCK
  5
20
330
1F
100
AcDbEntity
  8
0
100
AcDbBlockBegin
  2
*Model_Space
 70
     0
 10
0.0
 20
0.0
 30
0.0
  3
*Model_Space
  1

  0
ENDBLK
  5
21
330
1F
100
AcDbEntity
  8
0
100
AcDbBlockEnd
  0
BLOCK
  5
1C
330
1B
100
AcDbEntity
 67
     1
  8
0
100
AcDbBlockBegin
  2
*Paper_Space
 70
     0
 10
0.0
 20
0.0
 30
0.0
  3
*Paper_Space
  1

  0
ENDBLK
  5
1D
330
1B
100
AcDbEntity
 67
     1
  8
0
100
AcDbBlockEnd
  0
BLOCK
  5
24
330
23
100
AcDbEntity
 67
     1
  8
0
100
AcDbBlockBegin
  2
*Paper_Space0
 70
     0
 10
0.0
 20
0.0
 30
0.0
  3
*Paper_Space0
  1

  0
ENDBLK
  5
25
330
23
100
AcDbEntity
 67
     1
  8
0
100
AcDbBlockEnd
  0
BLOCK
  5
91B
330
919
100
AcDbEntity
  8
0
100
AcDbBlockBegin
  2
_DotSmall
 70
     0
 10
0.0
 20
0.0
 30
0.0
  3
_DotSmall
  1

  0
LWPOLYLINE
  5
91A
330
919
100
AcDbEntity
  8
0
  6
ByBlock
 62
     0
100
AcDbPolyline
 90
        2
 70
     1
 43
0.5
 10
-0.0625
 20
0.0
 42
1.0
 10
0.0625
 20
0.0
 42
1.0
  0
ENDBLK
  5
91C
330
919
100
AcDbEntity
  8
0
100
AcDbBlockEnd
  0
BLOCK
  5
92A
330
922
100
AcDbEntity
  8
0
100
AcDbBlockBegin
  2
base para cotas
 70
     0
 10
0.0
 20
0.0
 30
0.0
  3
base para cotas
  1

  0
LINE
  5
B36
330
922
100
AcDbEntity
  8
cotas
100
AcDbLine
 10
0.0
 20
-30.0
 30
0.0
 11
327.1260136525398
 21
-30.0
 31
0.0
  0
LINE
  5
B37
330
922
100
AcDbEntity
  8
cotas
100
AcDbLine
 10
0.0
 20
-25.0
 30
0.0
 11
327.1260136525398
 21
-25.0
 31
0.0
  0
LINE
  5
B38
330
922
100
AcDbEntity
  8
cotas
100
AcDbLine
 10
0.0
 20
-20.0
 30
0.0
 11
327.1260136525398
 21
-20.0
 31
0.0
  0
LINE
  5
B39
330
922
100
AcDbEntity
  8
cotas
100
AcDbLine
 10
0.0
 20
-15.0
 30
0.0
 11
327.1260136525398
 21
-15.0
 31
0.0
  0
LINE
  5
B3A
330
922
100
AcDbEntity
  8
cotas
100
AcDbLine
 10
0.0
 20
-10.0
 30
0.0
 11
327.1260136525398
 21
-10.0
 31
0.0
  0
LINE
  5
B3B
330
922
100
AcDbEntity
  8
cotas
100
AcDbLine
 10
0.0
 20
0.0
 30
0.0
 11
0.0
 21
-30.0
 31
0.0
  0
LINE
  5
B3C
330
922
100
AcDbEntity
  8
cotas
100
AcDbLine
 10
327.1260136525398
 20
-30.0
 30
0.0
 11
327.1260136525398
 21
0.0
 31
0.0
  0
ENDBLK
  5
92B
330
922
100
AcDbEntity
  8
0
100
AcDbBlockEnd
  0
BLOCK
  5
AAD
330
AA8
100
AcDbEntity
  8
0
100
AcDbBlockBegin
  2
_CLOSED
 70
     0
 10
0.0
 20
0.0
 30
0.0
  3
_CLOSED
  1

  0
LINE
  5
AA9
330
AA8
100
AcDbEntity
  8
0
100
AcDbLine
 10
-1.0
 20
0.166667
 30
0.0
 11
0.0
 21
0.0
 31
0.0
  0
LINE
  5
AAA
330
AA8
100
AcDbEntity
  8
0
100
AcDbLine
 10
0.0
 20
0.0
 30
0.0
 11
-1.0
 21
-0.166667
 31
0.0
  0
LINE
  5
AAB
330
AA8
100
AcDbEntity
  8
0
100
AcDbLine
 10
-1.0
 20
0.166667
 30
0.0
 11
-1.0
 21
-0.166667
 31
0.0
  0
LINE
  5
AAC
330
AA8
100
AcDbEntity
  8
0
100
AcDbLine
 10
0.0
 20
0.0
 30
0.0
 11
-1.0
 21
0.0
 31
0.0
  0
ENDBLK
  5
AAE
330
AA8
100
AcDbEntity
  8
0
100
AcDbBlockEnd
  0
BLOCK
  5
B7C
330
B79
100
AcDbEntity
  8
0
100
AcDbBlockBegin
  2
nota revisoes
 70
     0
 10
0.0
 20
0.0
 30
0.0
  3
nota revisoes
  1

  0
CIRCLE
  5
B7A
330
B79
100
AcDbEntity
  8
4
100
AcDbCircle
 10
0.0
 20
0.0
 30
0.0
 40
13.69426055101189
  0
TEXT
  5
B7B
330
B79
100
AcDbEntity
  8
4
100
AcDbText
 10
-5.496248358154345
 20
-5.354545554066362
 30
0.0
 40
12.0
  1
1
  7
SANINDUSA
 72
     1
 11
-0.249774214433728
 21
-5.354545554066362
 31
0.0
100
AcDbText
  0
ENDBLK
  5
B7D
330
B79
100
AcDbEntity
  8
0
100
AcDbBlockEnd
  0
BLOCK
  5
B9C
330
B8E
100
AcDbEntity
  8
0
100
AcDbBlockBegin
  2
a3l
 70
     0
 10
0.0
 20
0.0
 30
0.0
  3
a3l
  1

  0
LINE
  5
B8F
330
B8E
100
AcDbEntity
  8
1
100
AcDbLine
 10
-364.2925296599447
 20
-362.1188951399395
 30
0.0
 11
-364.2925296599447
 21
-65.11889513993946
 31
0.0
  0
LINE
  5
B90
330
B8E
100
AcDbEntity
  8
4
100
AcDbLine
 10
-369.2925296599447
 20
-357.1188951399395
 30
0.0
 11
-369.2925296599447
 21
-70.11889513993946
 31
0.0
  0
LINE
  5
B91
330
B8E
100
AcDbEntity
  8
1
100
AcDbLine
 10
-784.2925296599446
 20
-65.11889513993946
 30
0.0
 11
-784.2925296599446
 21
-362.1188951399395
 31
0.0
  0
LINE
  5
B92
330
B8E
100
AcDbEntity
  8
4
100
AcDbLine
 10
-759.2925296599446
 20
-357.1188951399395
 30
0.0
 11
-759.2925296599446
 21
-70.11889513993946
 31
0.0
  0
LINE
  5
B93
330
B8E
100
AcDbEntity
  8
1
100
AcDbLine
 10
-784.2925296599446
 20
-362.1188951399395
 30
0.0
 11
-364.2925296599447
 21
-362.1188951399395
 31
0.0
  0
LINE
  5
B94
330
B8E
100
AcDbEntity
  8
4
100
AcDbLine
 10
-759.2925296599446
 20
-357.1188951399395
 30
0.0
 11
-369.2925296599447
 21
-357.1188951399395
 31
0.0
  0
LINE
  5
B95
330
B8E
100
AcDbEntity
  8
1
100
AcDbLine
 10
-654.2925296599446
 20
-357.1188951399395
 30
0.0
 11
-654.2925296599446
 21
-362.1188951399395
 31
0.0
  0
LINE
  5
B96
330
B8E
100
AcDbEntity
  8
1
100
AcDbLine
 10
-364.2925296599447
 20
-65.11889513993946
 30
0.0
 11
-784.2925296599446
 21
-65.11889513993946
 31
0.0
  0
LINE
  5
B97
330
B8E
100
AcDbEntity
  8
4
100
AcDbLine
 10
-369.2925296599447
 20
-70.11889513993946
 30
0.0
 11
-759.2925296599446
 21
-70.11889513993946
 31
0.0
  0
LINE
  5
B98
330
B8E
100
AcDbEntity
  8
1
100
AcDbLine
 10
-654.2925296599446
 20
-65.11889513993946
 30
0.0
 11
-654.2925296599446
 21
-70.11889513993946
 31
0.0
  0
LINE
  5
B99
330
B8E
100
AcDbEntity
  8
1
100
AcDbLine
 10
-549.2925296599446
 20
-70.11889513993946
 30
0.0
 11
-549.2925296599446
 21
-65.11889513993946
 31
0.0
  0
LINE
  5
B9A
330
B8E
100
AcDbEntity
  8
1
100
AcDbLine
 10
-369.2925296599447
 20
-65.11889513993946
 30
0.0
 11
-364.2925296599447
 21
-65.11889513993946
 31
0.0
  0
LINE
  5
B9B
330
B8E
100
AcDbEntity
  8
1
100
AcDbLine
 10
-549.2925296599446
 20
-357.1188951399395
 30
0.0
 11
-549.2925296599446
 21
-362.1188951399395
 31
0.0
  0
ENDBLK
  5
B9D
330
B8E
100
AcDbEntity
  8
0
100
AcDbBlockEnd
  0
BLOCK
  5
C13
330
B9E
100
AcDbEntity
  8
0
100
AcDbBlockBegin
  2
legenda desenvolvimento
 70
     2
 10
0.0
 20
0.0
 30
0.0
  3
legenda desenvolvimento
  1

  0
ATTDEF
  5
B9F
330
B9E
100
AcDbEntity
  8
1
100
AcDbText
 10
-108.606245802552
 20
55.5
 30
0.0
 40
4.0
  1
XXXXXXXXXXXXXX
 41
0.8
  7
SANINDUSA
 72
     4
 11
-87.5
 21
57.5
 31
0.0
100
AcDbAttributeDefinition
  3
Nome do Produto:
  2
PRODUTO
 70
     0
  0
ATTDEF
  5
BA0
330
B9E
100
AcDbEntity
  8
1
100
AcDbText
 10
-97.9997966101695
 20
41.25
 30
0.0
 40
3.0
  1
XXXXXXXXX
 41
0.8
  7
futura
 72
     4
 11
-87.5
 21
42.75
 31
0.0
100
AcDbAttributeDefinition
  3
Nome da Peça:
  2
PECA
 70
     0
  0
ATTDEF
  5
BA1
330
B9E
100
AcDbEntity
  8
1
100
AcDbText
 10
-133.4422431161853
 20
21.11745296763252
 30
0.0
 40
2.5
  1
X
 41
0.8
  7
SANINDUSA
 72
     4
 11
-132.5
 21
22.36745296763252
 31
0.0
100
AcDbAttributeDefinition
  3
Cod. TESTE:
  2
TESTE
 70
     0
  0
ATTDEF
  5
BA2
330
B9E
100
AcDbEntity
  8
1
100
AcDbText
 10
-124.3844862323707
 20
21.11745296763252
 30
0.0
 40
2.5
  1
XX
 41
0.8
  7
SANINDUSA
 72
     4
 11
-122.5
 21
22.36745296763252
 31
0.0
100
AcDbAttributeDefinition
  3
Cod. Ano:
  2
ANO
 70
     0
  0
ATTDEF
  5
BA3
330
B9E
100
AcDbEntity
  8
1
100
AcDbText
 10
-112.526889953052
 20
21.11745296763252
 30
0.0
 40
2.5
  1
XXX
 41
0.8
  7
SANINDUSA
 72
     4
 11
-109.700160604496
 21
22.36745296763252
 31
0.0
100
AcDbAttributeDefinition
  3
Cod. Sequência:
  2
SEQUENCIA
 70
     0
  0
ATTDEF
  5
BA4
330
B9E
100
AcDbEntity
  8
1
100
AcDbText
 10
-99.35382430979316
 20
21.11745296763252
 30
0.0
 40
2.5
  1
XX
 41
0.8
  7
SANINDUSA
 72
     4
 11
-97.46933807742244
 21
22.36745296763252
 31
0.0
100
AcDbAttributeDefinition
  3
Cod. Tipo:
  2
TIPO
 70
     0
  0
ATTDEF
  5
BA5
330
B9E
100
AcDbEntity
  8
1
100
AcDbText
 10
-87.42035911468438
 20
21.11745296763252
 30
0.0
 40
2.5
  1
XXX
 41
0.8
  7
SANINDUSA
 72
     4
 11
-84.59362976612828
 21
22.36745296763252
 31
0.0
100
AcDbAttributeDefinition
  3
Cod. Produto:
  2
PRODUTO
 70
     0
  0
ATTDEF
  5
BA6
330
B9E
100
AcDbEntity
  8
1
100
AcDbText
 10
-74.62051971917853
 20
21.11745296763252
 30
0.0
 40
2.5
  1
XXX
 41
0.8
  7
SANINDUSA
 72
     4
 11
-71.79379037062244
 21
22.36745296763252
 31
0.0
100
AcDbAttributeDefinition
  3
Cod. Peça:
  2
PECA
 70
     0
  0
ATTDEF
  5
BA7
330
B9E
100
AcDbEntity
  8
1
100
AcDbText
 10
-61.10603446650329
 20
21.11745296763252
 30
0.0
 40
2.5
  1
XX
 41
0.8
  7
SANINDUSA
 72
     4
 11
-59.22154823413257
 21
22.36745296763252
 31
0.0
100
AcDbAttributeDefinition
  3
Cod. Revisão:
  2
REV
 70
     0
  0
ATTDEF
  5
BA8
330
B9E
100
AcDbEntity
  8
1
100
AcDbText
 10
-48.43615325006194
 20
21.11745296763252
 30
0.0
 40
2.5
  1
XX
 41
0.8
  7
SANINDUSA
 72
     4
 11
-46.55166701769121
 21
22.36745296763252
 31
0.0
100
AcDbAttributeDefinition
  3
Cod. Alteração:
  2
ALT
 70
     0
  0
ATTDEF
  5
BA9
330
B9E
100
AcDbEntity
  8
1
100
AcDbText
 10
-35.19086635325722
 20
23.98875083948959
 30
0.0
 40
3.0
  1
1/XXX
 41
0.8
  7
SANINDUSA
 72
     4
 11
-30.0
 21
25.25
 31
0.0
100
AcDbAttributeDefinition
  3
Escala geral:
  2
ESCALA
 70
     0
  0
ATTDEF
  5
BAA
330
B9E
100
AcDbEntity
  8
1
100
AcDbText
 10
-15.65345869711215
 20
23.75
 30
0.0
 40
3.0
  1
XXXXX
 41
0.8
  7
SANINDUSA
 72
     4
 11
-10.0
 21
25.25
 31
0.0
100
AcDbAttributeDefinition
  3
Folha:
  2
FOLHA
 70
     0
  0
ATTDEF
  5
BAB
330
B9E
100
AcDbEntity
  8
1
100
AcDbText
 10
-178.5146998822042
 20
56.9531347542807
 30
0.0
 40
2.0
  1
xx
 41
0.8
  7
SANINDUSA
 72
     4
 11
-177.2123493113513
 21
57.70330265219877
 31
0.0
100
AcDbAttributeDefinition
  3
revisão
  2
REV.
 70
     0
  0
ATTDEF
  5
BAC
330
B9E
100
AcDbEntity
  8
1
100
AcDbText
 10
-172.7849640077129
 20
56.9531347542807
 30
0.0
 40
2.0
  1
xx
 41
0.8
  7
SANINDUSA
 72
     4
 11
-171.48261343686
 21
57.70330265219877
 31
0.0
100
AcDbAttributeDefinition
  3
alteração
  2
ALT.
 70
     0
  0
ATTDEF
  5
BAD
330
B9E
100
AcDbEntity
  8
1
100
AcDbText
 10
-168.007199951307
 20
56.70330265219877
 30
0.0
 40
2.0
  1
xx/xx/xxxx
 41
0.8
  7
SANINDUSA
 11
-168.007199951307
 21
57.70330265219877
 31
0.0
100
AcDbAttributeDefinition
  3
data
  2
DATA
 70
     0
 74
     2
  0
ATTDEF
  5
BAE
330
B9E
100
AcDbEntity
  8
1
100
AcDbText
 10
-168.5396372253371
 20
13.15916722632639
 30
0.0
 40
2.0
  1
XX/XX/XXXX
 41
0.8
  7
SANINDUSA
 72
     4
 11
-161.5099528734231
 21
14.0
 31
0.0
100
AcDbAttributeDefinition
  3
Data projecto
  2
DATA_PROJ
 70
     0
  0
ATTDEF
  5
BAF
330
B9E
100
AcDbEntity
  8
1
100
AcDbText
 10
-150.8658110728766
 20
13.24983210208193
 30
0.0
 40
2.0
  1
xxxxxxxx
 41
0.8
  7
SANINDUSA
 72
     4
 11
-145.6564087894649
 21
14.0
 31
0.0
100
AcDbAttributeDefinition
  3
nome de quem projectou
  2
NOME
 70
     0
  0
ATTDEF
  5
BB0
330
B9E
100
AcDbEntity
  8
1
100
AcDbText
 10
-168.5396372253371
 20
9.159167226326394
 30
0.0
 40
2.0
  1
XX/XX/XXXX
 41
0.8
  7
SANINDUSA
 72
     4
 11
-161.5099528734231
 21
10.0
 31
0.0
100
AcDbAttributeDefinition
  3
Data desenhou
  2
DATA_DES
 70
     0
  0
ATTDEF
  5
BB1
330
B9E
100
AcDbEntity
  8
1
100
AcDbText
 10
-151.516986358303
 20
9.249832102081933
 30
0.0
 40
2.0
  1
xxxxxxxxx
 41
0.8
  7
SANINDUSA
 72
     4
 11
-145.6564087894649
 21
10.0
 31
0.0
100
AcDbAttributeDefinition
  3
nome
  2
NOME
 70
     0
  0
ATTDEF
  5
BB2
330
B9E
100
AcDbEntity
  8
1
100
AcDbText
 10
-127.2924214135946
 20
14.1979876583216
 30
0.0
 40
2.0
  1
Vitreous China
 41
0.8
  7
SANINDUSA
 72
     4
 11
-119.231709526422
 21
15.22216495852308
 31
0.0
100
AcDbAttributeDefinition
  3
Nome do Material:
  2
MATERIAL
 70
     0
  0
ATTDEF
  5
BB3
330
B9E
100
AcDbEntity
  8
1
100
AcDbText
 10
-103.1563452122093
 20
14.38019043949261
 30
0.0
 40
2.0
  1
Branco
 41
0.8
  7
SANINDUSA
 72
     4
 11
-99.33418268702462
 21
15.35937109765245
 31
0.0
100
AcDbAttributeDefinition
  3
cor da peça
  2
COR
 70
     0
  0
ATTDEF
  5
BB4
330
B9E
100
AcDbEntity
  8
1
100
AcDbText
 10
-116.7235057085292
 20
5.975822699798522
 30
0.0
 40
2.0
  1
Vidrado
 41
0.8
  7
SANINDUSA
 72
     4
 11
-112.5
 21
7.0
 31
0.0
100
AcDbAttributeDefinition
  3
Tipo de acabamento:
  2
ACABAMENTO
 70
     0
  0
ATTDEF
  5
BB5
330
B9E
100
AcDbEntity
  8
1
100
AcDbText
 10
-79.18527869967246
 20
16.65066409850533
 30
0.0
 40
2.0
  1
XXXXXXX
 41
0.8
  7
SANINDUSA
 72
     4
 11
-73.90871724903445
 21
17.65066409850533
 31
0.0
100
AcDbAttributeDefinition
  3
Normas
  2
NORMAS
 70
     0
  0
ATTDEF
  5
BB6
330
B9E
100
AcDbEntity
  8
1
100
AcDbText
 10
-30.55312290127603
 20
14.0
 30
0.0
 40
2.0
  1
XXXXXXXXXXXXXX
 41
0.8
  7
SANINDUSA
 72
     4
 11
-20.0
 21
15.0
 31
0.0
100
AcDbAttributeDefinition
  3
Substitui o desenho:
  2
SUBSTITUI
 70
     0
  0
ATTDEF
  5
BB7
330
B9E
100
AcDbEntity
  8
1
100
AcDbText
 10
-31.30691739422431
 20
6.0
 30
0.0
 40
2.0
  1
XXXXXXXXXXXXXXX
 41
0.8
  7
SANINDUSA
 72
     4
 11
-20.0
 21
7.0
 31
0.0
100
AcDbAttributeDefinition
  3
Substituido por:
  2
SUBSTITUIDO
 70
     0
  0
ATTDEF
  5
BB8
330
B9E
100
AcDbEntity
  8
1
100
AcDbText
 10
-110.0220608548302
 20
1.478208457928303
 30
0.0
 40
2.0
  1
XXXXXXXXXXXXXXXXXXXXXXXXXXXXXXXXXX
 41
0.8
  7
SANINDUSA
 11
-110.0220608548302
 21
2.478208457928303
 31
0.0
100
AcDbAttributeDefinition
  3
Localização do desenho:
  2
LOC-DWG
 70
     0
 74
     2
  0
LINE
  5
BB9
330
B9E
100
AcDbEntity
  8
3
100
AcDbLine
 10
-135.0
 20
4.0
 30
0.0
 11
0.0000000000004547
 21
4.0
 31
0.0
  0
LINE
  5
BBA
330
B9E
100
AcDbEntity
  8
3
100
AcDbLine
 10
-90.00000000000046
 20
12.0
 30
0.0
 11
-135.0
 21
12.0
 31
0.0
  0
LINE
  5
BBB
330
B9E
100
AcDbEntity
  8
3
100
AcDbLine
 10
-135.0
 20
32.5
 30
0.0
 11
-40.0
 21
32.5
 31
0.0
  0
TEXT
  5
BBC
330
B9E
100
AcDbEntity
  8
1
100
AcDbText
 10
-134.0
 20
1.25
 30
0.0
 40
2.0
  1
Localização do des.:
 41
0.8
  7
SANINDUSA
 11
-134.0
 21
2.25
 31
0.0
100
AcDbText
 73
     2
  0
LINE
  5
BBD
330
B9E
100
AcDbEntity
  8
3
100
AcDbLine
 10
-180.0
 20
65.0
 30
0.0
 11
0.0
 21
65.0
 31
0.0
  0
LINE
  5
BBE
330
B9E
100
AcDbEntity
  8
leg fin
100
AcDbLine
 10
-40.0
 20
25.05956924886846
 30
0.0
 11
-135.0
 21
25.05956924886846
 31
0.0
  0
LINE
  5
BBF
330
B9E
100
AcDbEntity
  8
leg fin
100
AcDbLine
 10
-40.0
 20
28.5
 30
0.0
 11
-135.0
 21
28.5
 31
0.0
  0
LINE
  5
BC0
330
B9E
100
AcDbEntity
  8
3
100
AcDbLine
 10
-135.0
 20
50.0
 30
0.0
 11
-40.0
 21
50.0
 31
0.0
  0
TEXT
  5
BC1
330
B9E
100
AcDbEntity
  8
1
100
AcDbText
 10
-134.0
 20
29.75
 30
0.0
 40
2.0
  1
Desenho nº:
 41
0.8
  7
SANINDUSA
 11
-134.0
 21
30.75
 31
0.0
100
AcDbText
 73
     2
  0
TEXT
  5
BC2
330
B9E
100
AcDbEntity
  8
1
100
AcDbText
 10
-134.0
 20
9.25
 30
0.0
 40
2.0
  1
Acabamento:
 41
0.8
  7
SANINDUSA
 11
-134.0
 21
10.25
 31
0.0
100
AcDbText
 73
     2
  0
LINE
  5
BC3
330
B9E
100
AcDbEntity
  8
3
100
AcDbLine
 10
-180.0
 20
20.0
 30
0.0
 11
0.0
 21
20.0
 31
0.0
  0
LINE
  5
BC4
330
B9E
100
AcDbEntity
  8
1
100
AcDbLine
 10
-174.5810776056337
 20
55.5
 30
0.0
 11
-174.5810776056337
 21
65.0
 31
0.0
  0
LINE
  5
BC5
330
B9E
100
AcDbEntity
  8
1
100
AcDbLine
 10
-168.9210461879161
 20
55.5
 30
0.0
 11
-168.9210461879161
 21
65.0
 31
0.0
  0
LINE
  5
BC6
330
B9E
100
AcDbEntity
  8
1
100
AcDbLine
 10
-154.0988595589306
 20
55.5
 30
0.0
 11
-154.0988595589306
 21
65.0
 31
0.0
  0
LINE
  5
BC7
330
B9E
100
AcDbEntity
  8
3
100
AcDbLine
 10
-180.0
 20
65.0
 30
0.0
 11
-180.0
 21
0.0
 31
0.0
  0
LINE
  5
BC8
330
B9E
100
AcDbEntity
  8
3
100
AcDbLine
 10
-135.0
 20
0.0
 30
0.0
 11
-135.0
 21
65.0
 31
0.0
  0
TEXT
  5
BC9
330
B9E
100
AcDbEntity
  8
1
100
AcDbText
 10
-179.0
 20
9.75
 30
0.0
 40
1.5
  1
Des.
 41
0.8
  7
SANINDUSA
 11
-179.0
 21
10.5
 31
0.0
100
AcDbText
 73
     2
  0
LINE
  5
BCA
330
B9E
100
AcDbEntity
  8
1
100
AcDbLine
 10
-168.9210461879161
 20
20.0
 30
0.0
 11
-168.9210461879161
 21
0.0
 31
0.0
  0
LINE
  5
BCB
330
B9E
100
AcDbEntity
  8
1
100
AcDbLine
 10
-154.0988595589306
 20
20.0
 30
0.0
 11
-154.0988595589306
 21
0.0
 31
0.0
  0
LINE
  5
BCC
330
B9E
100
AcDbEntity
  8
1
100
AcDbLine
 10
-180.0
 20
4.0
 30
0.0
 11
-135.0
 21
4.0
 31
0.0
  0
LINE
  5
BCD
330
B9E
100
AcDbEntity
  8
1
100
AcDbLine
 10
-180.0
 20
8.0
 30
0.0
 11
-135.0
 21
8.0
 31
0.0
  0
TEXT
  5
BCE
330
B9E
100
AcDbEntity
  8
1
100
AcDbText
 10
-179.0
 20
1.73257823687436
 30
0.0
 40
1.5
  1
Aprov.
 41
0.8
  7
SANINDUSA
 11
-179.0
 21
2.48257823687436
 31
0.0
100
AcDbText
 73
     2
  0
TEXT
  5
BCF
330
B9E
100
AcDbEntity
  8
1
100
AcDbText
 10
-179.0
 20
5.75
 30
0.0
 40
1.5
  1
Ver.
 41
0.8
  7
SANINDUSA
 11
-179.0
 21
6.5
 31
0.0
100
AcDbText
 73
     2
  0
LINE
  5
BD0
330
B9E
100
AcDbEntity
  8
1
100
AcDbLine
 10
-180.0
 20
16.0
 30
0.0
 11
-135.0
 21
16.0
 31
0.0
  0
LINE
  5
BD1
330
B9E
100
AcDbEntity
  8
1
100
AcDbLine
 10
-180.0
 20
12.0
 30
0.0
 11
-135.0
 21
12.0
 31
0.0
  0
TEXT
  5
BD2
330
B9E
100
AcDbEntity
  8
1
100
AcDbText
 10
-179.0
 20
13.75
 30
0.0
 40
1.5
  1
Proj.
 41
0.8
  7
SANINDUSA
 11
-179.0
 21
14.5
 31
0.0
100
AcDbText
 73
     2
  0
TEXT
  5
BD3
330
B9E
100
AcDbEntity
  8
1
100
AcDbText
 10
-167.9210461879161
 20
17.75
 30
0.0
 40
1.5
  1
Data
 41
0.8
  7
SANINDUSA
 11
-167.9210461879161
 21
18.5
 31
0.0
100
AcDbText
 73
     2
  0
TEXT
  5
BD4
330
B9E
100
AcDbEntity
  8
1
100
AcDbText
 10
-153.0988595589306
 20
17.75
 30
0.0
 40
1.5
  1
Nome
 41
0.8
  7
SANINDUSA
 11
-153.0988595589306
 21
18.5
 31
0.0
100
AcDbText
 73
     2
  0
LINE
  5
BD5
330
B9E
100
AcDbEntity
  8
leg fin
100
AcDbLine
 10
-130.0
 20
20.0
 30
0.0
 11
-130.0
 21
28.5
 31
0.0
  0
TEXT
  5
BD6
330
B9E
100
AcDbEntity
  8
1
100
AcDbText
 10
-134.0
 20
17.25
 30
0.0
 40
2.0
  1
Material:
 41
0.8
  7
SANINDUSA
 11
-134.0
 21
18.25
 31
0.0
100
AcDbText
 73
     2
  0
TEXT
  5
BD7
330
B9E
100
AcDbEntity
  8
1
100
AcDbText
 10
-129.0
 20
26.43288406845113
 30
0.0
 40
1.5
  1
Ano:
 41
0.8
  7
SANINDUSA
 11
-129.0
 21
27.18288406845113
 31
0.0
100
AcDbText
 73
     2
  0
LINE
  5
BD8
330
B9E
100
AcDbEntity
  8
1
100
AcDbLine
 10
-180.0
 20
55.5
 30
0.0
 11
-135.0
 21
55.5
 31
0.0
  0
TEXT
  5
BD9
330
B9E
100
AcDbEntity
  8
1
100
AcDbText
 10
-179.0
 20
52.67772246885193
 30
0.0
 40
1.5
  1
descrição
 41
0.8
  7
SANINDUSA
 11
-179.0
 21
53.42772246885193
 31
0.0
100
AcDbText
 73
     2
  0
TEXT
  5
BDA
330
B9E
100
AcDbEntity
  8
1
100
AcDbText
 10
-134.0
 20
47.25
 30
0.0
 40
2.0
  1
Peça:
 41
0.8
  7
SANINDUSA
 11
-134.0
 21
48.25
 31
0.0
100
AcDbText
 73
     2
  0
LINE
  5
BDB
330
B9E
100
AcDbEntity
  8
1
100
AcDbLine
 10
-180.0
 20
59.5
 30
0.0
 11
-135.0
 21
59.5
 31
0.0
  0
TEXT
  5
BDC
330
B9E
100
AcDbEntity
  8
1
100
AcDbText
 10
-173.5810776056337
 20
62.75
 30
0.0
 40
1.5
  1
Alt.
 41
0.8
  7
SANINDUSA
 11
-173.5810776056337
 21
63.5
 31
0.0
100
AcDbText
 73
     2
  0
TEXT
  5
BDD
330
B9E
100
AcDbEntity
  8
1
100
AcDbText
 10
-179.0
 20
62.75
 30
0.0
 40
1.5
  1
Rev.
 41
0.8
  7
SANINDUSA
 11
-179.0
 21
63.5
 31
0.0
100
AcDbText
 73
     2
  0
TEXT
  5
BDE
330
B9E
100
AcDbEntity
  8
1
100
AcDbText
 10
-167.9210461879161
 20
62.75
 30
0.0
 40
1.5
  1
Data
 41
0.8
  7
SANINDUSA
 11
-167.9210461879161
 21
63.5
 31
0.0
100
AcDbText
 73
     2
  0
TEXT
  5
BDF
330
B9E
100
AcDbEntity
  8
1
100
AcDbText
 10
-153.0988595589306
 20
62.75
 30
0.0
 40
1.5
  1
Nome
 41
0.8
  7
SANINDUSA
 11
-153.0988595589306
 21
63.5
 31
0.0
100
AcDbText
 73
     2
  0
TEXT
  5
BE0
330
B9E
100
AcDbEntity
  8
1
100
AcDbText
 10
-134.0
 20
62.25
 30
0.0
 40
2.0
  1
Produto:
 41
0.8
  7
SANINDUSA
 11
-134.0
 21
63.25
 31
0.0
100
AcDbText
 73
     2
  0
LINE
  5
BE1
330
B9E
100
AcDbEntity
  8
3
100
AcDbLine
 10
-40.0
 20
4.0
 30
0.0
 11
-40.0
 21
65.0
 31
0.0
  0
LWPOLYLINE
  5
BE2
102
{ACAD_REACTORS
330
BEC
102
}
330
B9E
100
AcDbEntity
  8
9
100
AcDbPolyline
 90
       12
 70
     1
 43
0.0
 10
-3.038714600644652
 20
58.90010174665076
 10
-5.726962862472191
 20
58.90010174665076
 10
-5.726962862472191
 20
58.5001017466509
 10
-3.038748516195028
 20
58.5001017466509
 42
-0.4142135623731731
 10
-2.638748516194482
 20
58.1001017466508
 10
-2.638748516194482
 20
57.42799728675596
 10
-5.21497371544865
 20
57.42799728675596
 42
0.4142135623731289
 10
-6.014973715448377
 20
56.627997286756
 10
-6.014973715448377
 20
55.92380871629643
 42
0.4142135623731132
 10
-5.21497371544865
 20
55.12380871629648
 10
-2.23871460064447
 20
55.12380871629648
 10
-2.23871460064447
 20
58.10010174665103
 42
0.4142135623730717
  0
LWPOLYLINE
  5
BE3
102
{ACAD_REACTORS
330
BEC
102
}
330
B9E
100
AcDbEntity
  8
9
100
AcDbPolyline
 90
       20
 70
     1
 43
0.0
 10
-10.01531287095122
 20
57.82799728675581
 10
-10.01531287095122
 20
58.10010174665103
 42
-0.4142135623730744
 10
-9.615312870951584
 20
58.5001017466509
 10
-6.92703069357276
 20
58.5001017466509
 10
-6.92703069357276
 20
58.90010174665076
 10
-9.615346786501959
 20
58.90010174665076
 42
0.4142135623730883
 10
-10.41534678650168
 20
58.1001017466508
 10
-10.41534678650168
 20
57.82796337120567
 42
0.4142135623730717
 10
-9.615346786501959
 20
57.02796337120571
 10
-7.423079531965413
 20
57.02796337120571
 42
-0.4142135623730847
 10
-7.023079531965322
 20
56.62796337120562
 10
-7.023079531965322
 20
55.90786840766487
 42
-0.4142135623730744
 10
-7.423079531965413
 20
55.507868407665
 10
-10.41534678650168
 20
55.507868407665
 10
-10.41534678650168
 20
55.12380871629648
 10
-7.445787917283723
 20
55.12380871629648
 42
0.4114777732064574
 10
-6.645822882998345
 20
55.9163291493976
 10
-6.639238813324936
 20
56.62051771985716
 42
0.4169546541682913
 10
-7.439203847610315
 20
57.42799728675596
 10
-9.615312870951584
 20
57.42799728675596
 42
-0.4142135623731576
  0
LWPOLYLINE
  5
BE4
102
{ACAD_REACTORS
330
BEC
102
}
330
B9E
100
AcDbEntity
  8
9
100
AcDbPolyline
 90
       12
 70
     1
 43
0.0
 10
-14.41561811090378
 20
58.90010174665076
 10
-14.79964388672215
 20
58.90010174665076
 10
-14.79964388672215
 20
55.92380871629643
 42
0.4142135623731133
 10
-13.99964388672242
 20
55.12380871629648
 10
-11.8233508563676
 20
55.12380871629648
 42
0.4142135623730872
 10
-11.02335085636741
 20
55.92380871629643
 10
-11.02335085636741
 20
58.90010174665076
 10
-11.42338477191788
 20
58.90010174665076
 10
-11.42338477191788
 20
55.91567577726095
 42
-0.4131711701795318
 10
-11.82196067063523
 20
55.51567831234956
 10
-14.0141940096214
 20
55.50787335710947
 42
-0.4152567234624407
 10
-14.41561811090378
 20
55.90787082202087
  0
LWPOLYLINE
  5
BE5
102
{ACAD_REACTORS
330
BEC
102
}
330
B9E
100
AcDbEntity
  8
9
100
AcDbPolyline
 90
        6
 70
     1
 43
0.0
 10
-15.80771578768872
 20
55.507868407665
 10
-18.39994912667453
 20
55.507868407665
 42
-0.4142135623731731
 10
-18.79994912667462
 20
55.90786840766487
 10
-18.79994912667462
 20
58.10010174665103
 42
-0.4142135623730744
 10
-18.39994912667453
 20
58.5001017466509
 10
-15.80771578768872
 20
58.5001017466509
  0
LWPOLYLINE
  5
BE6
102
{ACAD_REACTORS
330
BEC
102
}
330
B9E
100
AcDbEntity
  8
9
100
AcDbPolyline
 90
        8
 70
     1
 43
0.0
 10
-15.4236900118708
 20
59.87619128370352
 10
-15.80771578768872
 20
59.87619128370352
 10
-15.80771578768872
 20
58.90010174665076
 10
-18.39176256411201
 20
58.90010174665076
 42
0.4131164467977967
 10
-19.19175694739761
 20
58.1030995310698
 10
-19.1999120763262
 20
55.92680650071542
 42
0.4153115297271718
 10
-18.39991769304061
 20
55.12380871629648
 10
-15.4236900118708
 20
55.12380871629648
  0
LWPOLYLINE
  5
BE7
102
{ACAD_REACTORS
330
BEC
102
}
330
B9E
100
AcDbEntity
  8
9
100
AcDbPolyline
 90
       10
 70
     1
 43
0.0
 10
-20.59201288790928
 20
58.90010174665076
 10
-23.56830591826338
 20
58.90010174665076
 10
-23.56830591826338
 20
55.12380871629648
 10
-23.18424622689509
 20
55.12380871629648
 10
-23.18424622689509
 20
58.5001017466509
 10
-20.59204680345965
 20
58.5001017466509
 42
-0.4142135623730898
 10
-20.19204680345956
 20
58.1001017466508
 10
-20.19204680345956
 20
55.12380871629648
 10
-19.79201288790909
 20
55.12380871629648
 10
-19.79201288790909
 20
58.10010174665103
 42
0.4142135623731132
  0
LWPOLYLINE
  5
BE8
102
{ACAD_REACTORS
330
BEC
102
}
330
B9E
100
AcDbEntity
  8
9
100
AcDbPolyline
 90
        4
 70
     1
 43
0.0
 10
-24.19231812786165
 20
58.90010174665076
 10
-24.57637781922995
 20
58.90010174665076
 10
-24.57637781922995
 20
55.12380871629648
 10
-24.19231812786165
 20
55.12380871629648
  0
LWPOLYLINE
  5
BE9
102
{ACAD_REACTORS
330
BEC
102
}
330
B9E
100
AcDbEntity
  8
9
100
AcDbPolyline
 90
       10
 70
     1
 43
0.0
 10
-28.57661522808212
 20
58.5001017466509
 10
-25.98444972019706
 20
58.5001017466509
 42
-0.4142135623731731
 10
-25.58444972019652
 20
58.1001017466508
 10
-25.58444972019652
 20
55.12380871629648
 10
-25.2004239443786
 20
55.12380871629648
 10
-25.2004239443786
 20
58.10010174665103
 42
0.4142135623730717
 10
-26.00042394437833
 20
58.90010174665076
 10
-28.97664914363259
 20
58.90010174665076
 10
-28.97664914363259
 20
55.12380871629648
 10
-28.57661522808212
 20
55.12380871629648
  0
LWPOLYLINE
  5
BEA
102
{ACAD_REACTORS
330
BEC
102
}
330
B9E
100
AcDbEntity
  8
9
100
AcDbPolyline
 90
       12
 70
     1
 43
0.0
 10
-29.58465321349832
 20
58.10010174665103
 42
0.4142135623730716
 10
-30.3846532134985
 20
58.90010174665076
 10
-33.07296930642724
 20
58.90010174665076
 10
-33.07296930642724
 20
58.5001017466509
 10
-30.38468712904842
 20
58.5001017466509
 42
-0.4142135623730067
 10
-29.98468712904878
 20
58.1001017466508
 10
-29.98468712904878
 20
57.42799728675618
 10
-32.56098015940324
 20
57.42799728675596
 42
0.4142135623731289
 10
-33.36098015940343
 20
56.627997286756
 10
-33.36098015940343
 20
55.92380871629643
 42
0.4142135623731132
 10
-32.56098015940324
 20
55.12380871629648
 10
-29.58465321349832
 20
55.12380871629648
  0
LWPOLYLINE
  5
BEB
102
{ACAD_REACTORS
330
BEC
102
}
330
B9E
100
AcDbEntity
  8
9
100
AcDbPolyline
 90
       20
 70
     1
 43
0.0
 10
-34.7850262845518
 20
57.42799728675596
 10
-36.96125148380543
 20
57.42799728675596
 42
-0.4142135623730898
 10
-37.36125148380552
 20
57.82799728675604
 10
-37.36125148380552
 20
58.10010174665103
 42
-0.4142135623730744
 10
-36.96125148380543
 20
58.5001017466509
 10
-34.27303713752781
 20
58.50010174665067
 10
-34.27303713752781
 20
58.90010174665076
 10
-36.96128539935535
 20
58.90010174665076
 42
0.4142135623731289
 10
-37.76128539935553
 20
58.1001017466508
 10
-37.76128539935553
 20
57.82796337120567
 42
0.4142135623730716
 10
-36.9612853993558
 20
57.02796337120571
 10
-34.76901814481926
 20
57.02796337120571
 42
-0.414213562373168
 10
-34.36901814481962
 20
56.62796337120562
 10
-34.36901814481962
 20
55.90786840766487
 42
-0.4142135623730744
 10
-34.76901814481926
 20
55.507868407665
 10
-37.76128539935553
 20
55.507868407665
 10
-37.76128539935553
 20
55.12380871629648
 10
-34.7850262845518
 20
55.12380871629648
 42
0.4142135623731289
 10
-33.98502628455162
 20
55.92380871629643
 10
-33.98502628455162
 20
56.627997286756
 42
0.4142135623731132
  0
HATCH
  5
BEC
330
B9E
100
AcDbEntity
  8
9
100
AcDbHatch
 10
0.0
 20
0.0
 30
0.0
210
0.0
220
0.0
230
1.0
  2
SOLID
 70
     1
 71
     1
 91
       13
 92
        7
 72
     1
 73
     1
 93
       20
 10
-34.36901814481962
 20
55.90786840766487
 42
-0.414213562372991
 10
-34.76901814481926
 20
55.507868407665
 42
0.0
 10
-37.76128539935553
 20
55.507868407665
 42
0.0
 10
-37.76128539935553
 20
55.12380871629648
 42
0.0
 10
-34.7850262845518
 20
55.12380871629648
 42
0.4142135623731705
 10
-33.98502628455162
 20
55.92380871629666
 42
0.0
 10
-33.98502628455162
 20
56.627997286756
 42
0.4142135623731547
 10
-34.7850262845518
 20
57.42799728675596
 42
0.0
 10
-36.96125148380543
 20
57.42799728675596
 42
-0.4142135623730898
 10
-37.36125148380552
 20
57.82799728675604
 42
0.0
 10
-37.36125148380552
 20
58.1001017466508
 42
-0.4142135623731575
 10
-36.96125148380543
 20
58.5001017466509
 42
0.0
 10
-34.27303713752781
 20
58.50010174665067
 42
0.0
 10
-34.27303713752781
 20
58.90010174665076
 42
0.0
 10
-36.96128539935535
 20
58.90010174665076
 42
0.4142135623731705
 10
-37.76128539935553
 20
58.10010174665058
 42
0.0
 10
-37.76128539935553
 20
57.82796337120544
 42
0.4142135623730299
 10
-36.9612853993558
 20
57.02796337120571
 42
0.0
 10
-34.76901814481926
 20
57.02796337120571
 42
-0.4142135623730015
 10
-34.36901814481962
 20
56.62796337120608
 42
0.0
 97
        1
330
BEB
 92
        7
 72
     1
 73
     1
 93
       12
 10
-33.36098015940343
 20
55.92380871629666
 42
0.4142135623731547
 10
-32.56098015940324
 20
55.12380871629648
 42
0.0
 10
-29.58465321349877
 20
55.12380871629648
 42
0.0
 10
-29.58465321349832
 20
58.10010174665058
 42
0.4142135623731964
 10
-30.3846532134985
 20
58.90010174665076
 42
0.0
 10
-33.07296930642724
 20
58.90010174665076
 42
0.0
 10
-33.07296930642724
 20
58.50010174665067
 42
0.0
 10
-30.38468712904887
 20
58.5001017466509
 42
-0.4142135623732564
 10
-29.98468712904878
 20
58.10010174665103
 42
0.0
 10
-29.98468712904923
 20
57.42799728675596
 42
0.0
 10
-32.56098015940324
 20
57.42799728675596
 42
0.4142135623731705
 10
-33.36098015940343
 20
56.627997286756
 42
0.0
 97
        1
330
BEA
 92
       22
 72
     1
 73
     1
 93
        6
 10
-32.97692046803468
 20
56.62796337120562
 42
-0.4142135623731576
 10
-32.57692046803459
 20
57.02796337120571
 42
0.0
 10
-29.98468712904878
 20
57.02796337120571
 42
0.0
 10
-29.98468712904878
 20
55.507868407665
 42
0.0
 10
-32.57692046803459
 20
55.507868407665
 42
-0.4142135623731731
 10
-32.97692046803468
 20
55.90786840766487
 42
0.0
 97
        1
330
C11
 92
        7
 72
     1
 73
     1
 93
       10
 10
-28.57661522808212
 20
58.5001017466509
 42
0.0
 10
-25.98444972019661
 20
58.5001017466509
 42
-0.4142135623730067
 10
-25.58444972019652
 20
58.10010174665058
 42
0.0
 10
-25.58444972019606
 20
55.12380871629648
 42
0.0
 10
-25.20042394437906
 20
55.12380871629648
 42
0.0
 10
-25.2004239443786
 20
58.1001017466508
 42
0.4142135623731134
 10
-26.00042394437833
 20
58.90010174665076
 42
0.0
 10
-28.97664914363259
 20
58.90010174665076
 42
0.0
 10
-28.97664914363259
 20
55.12380871629648
 42
0.0
 10
-28.57661522808212
 20
55.12380871629648
 42
0.0
 97
        1
330
BE9
 92
        7
 72
     0
 73
     1
 93
        4
 10
-24.57637781922995
 20
55.12380871629648
 10
-24.19231812786165
 20
55.12380871629648
 10
-24.19231812786165
 20
58.90010174665076
 10
-24.57637781922995
 20
58.90010174665076
 97
        1
330
BE8
 92
        7
 72
     0
 73
     1
 93
        4
 10
-24.19231812786165
 20
59.87619128370352
 10
-24.5763778192304
 20
59.87619128370352
 10
-24.5763778192304
 20
59.28412752246913
 10
-24.1923181278612
 20
59.28412752246913
 97
        1
330
C12
 92
        7
 72
     1
 73
     1
 93
       10
 10
-23.18424622689509
 20
58.5001017466509
 42
0.0
 10
-20.59204680345965
 20
58.5001017466509
 42
-0.4142135623730898
 10
-20.19204680345956
 20
58.1001017466508
 42
0.0
 10
-20.19204680345956
 20
55.12380871629648
 42
0.0
 10
-19.79201288790909
 20
55.12380871629648
 42
0.0
 10
-19.79201288790909
 20
58.1001017466508
 42
0.4142135623731547
 10
-20.59201288790928
 20
58.90010174665076
 42
0.0
 10
-23.56830591826338
 20
58.90010174665076
 42
0.0
 10
-23.56830591826338
 20
55.12380871629648
 42
0.0
 10
-23.18424622689463
 20
55.12380871629648
 42
0.0
 97
        1
330
BE7
 92
        7
 72
     1
 73
     1
 93
        8
 10
-19.1999120763262
 20
55.92680650071542
 42
0.4153115297271299
 10
-18.39991769304061
 20
55.12380871629648
 42
0.0
 10
-15.4236900118708
 20
55.12380871629648
 42
0.0
 10
-15.4236900118708
 20
59.87619128370352
 42
0.0
 10
-15.80771578768872
 20
59.87619128370352
 42
0.0
 10
-15.80771578768872
 20
58.90010174665076
 42
0.0
 10
-18.39176256411201
 20
58.90010174665076
 42
0.4131164467977965
 10
-19.19175694739761
 20
58.1030995310698
 42
0.0
 97
        1
330
BE6
 92
       22
 72
     1
 73
     1
 93
        6
 10
-18.79994912667462
 20
58.1001017466508
 42
-0.4142135623731575
 10
-18.39994912667453
 20
58.5001017466509
 42
0.0
 10
-15.80771578768872
 20
58.50010174665067
 42
0.0
 10
-15.80771578768827
 20
55.507868407665
 42
0.0
 10
-18.39994912667453
 20
55.507868407665
 42
-0.4142135623731731
 10
-18.79994912667462
 20
55.90786840766487
 42
0.0
 97
        1
330
BE5
 92
        7
 72
     1
 73
     1
 93
       12
 10
-14.79964388672215
 20
55.92380871629621
 42
0.4142135623729885
 10
-13.99964388672242
 20
55.12380871629648
 42
0.0
 10
-11.8233508563676
 20
55.12380871629648
 42
0.4142135623731289
 10
-11.02335085636741
 20
55.92380871629666
 42
0.0
 10
-11.02335085636741
 20
58.90010174665076
 42
0.0
 10
-11.42338477191788
 20
58.90010174665076
 42
0.0
 10
-11.42338477191788
 20
55.91567577726095
 42
-0.4131711701795319
 10
-11.82196067063523
 20
55.51567831234956
 42
0.0
 10
-14.01419400962095
 20
55.50787335710947
 42
-0.4152567234626918
 10
-14.41561811090378
 20
55.90787082202087
 42
0.0
 10
-14.41561811090378
 20
58.90010174665076
 42
0.0
 10
-14.7996438867226
 20
58.90010174665076
 42
0.0
 97
        1
330
BE4
 92
        7
 72
     1
 73
     1
 93
       20
 10
-7.423079531965413
 20
57.02796337120571
 42
-0.414213562373168
 10
-7.023079531965322
 20
56.62796337120562
 42
0.0
 10
-7.023079531965322
 20
55.90786840766487
 42
-0.4142135623731575
 10
-7.423079531965413
 20
55.507868407665
 42
0.0
 10
-10.41534678650168
 20
55.507868407665
 42
0.0
 10
-10.41534678650168
 20
55.12380871629648
 42
0.0
 10
-7.445787917283723
 20
55.12380871629648
 42
0.4114777732065809
 10
-6.645822882998345
 20
55.91632914939783
 42
0.0
 10
-6.639238813324936
 20
56.62051771985716
 42
0.4169546541682913
 10
-7.439203847610315
 20
57.42799728675596
 42
0.0
 10
-9.615312870951584
 20
57.42799728675596
 42
-0.4142135623729911
 10
-10.01531287095122
 20
57.82799728675581
 42
0.0
 10
-10.01531287095122
 20
58.10010174665103
 42
-0.414213562372991
 10
-9.615312870951584
 20
58.5001017466509
 42
0.0
 10
-6.92703069357276
 20
58.50010174665067
 42
0.0
 10
-6.927030693572305
 20
58.90010174665076
 42
0.0
 10
-9.615346786501959
 20
58.90010174665076
 42
0.4142135623730467
 10
-10.41534678650168
 20
58.10010174665103
 42
0.0
 10
-10.41534678650168
 20
57.82796337120544
 42
0.4142135623730301
 10
-9.615346786501959
 20
57.02796337120571
 42
0.0
 97
        1
330
BE3
 92
        7
 72
     1
 73
     1
 93
       12
 10
-5.21497371544865
 20
57.42799728675596
 42
0.4142135623730871
 10
-6.014973715448377
 20
56.627997286756
 42
0.0
 10
-6.014973715448377
 20
55.92380871629621
 42
0.4142135623730715
 10
-5.21497371544865
 20
55.12380871629648
 42
0.0
 10
-2.23871460064447
 20
55.12380871629648
 42
0.0
 10
-2.23871460064447
 20
58.10010174665058
 42
0.414213562373155
 10
-3.038714600644652
 20
58.90010174665076
 42
0.0
 10
-5.726962862471737
 20
58.90010174665076
 42
0.0
 10
-5.726962862472191
 20
58.5001017466509
 42
0.0
 10
-3.038748516194573
 20
58.5001017466509
 42
-0.4142135623730067
 10
-2.638748516194482
 20
58.10010174665058
 42
0.0
 10
-2.638748516194482
 20
57.42799728675596
 42
0.0
 97
        1
330
BE2
 92
       22
 72
     1
 73
     1
 93
        6
 10
-2.638748516194937
 20
57.02796337120571
 42
0.0
 10
-2.638748516194482
 20
55.50786840766477
 42
0.0
 10
-5.21497371544865
 20
55.507868407665
 42
-0.4142135623731731
 10
-5.614973715448741
 20
55.90786840766509
 42
0.0
 10
-5.614973715448741
 20
56.62796337120562
 42
-0.4142135623731576
 10
-5.21497371544865
 20
57.02796337120571
 42
0.0
 97
        1
330
C0D
 75
     0
 76
     1
 47
0.0407044778999864
 98
       13
 10
-34.18710075113677
 20
56.16907953933765
 10
-33.12851374392494
 20
56.49471602641233
 10
-33.12851374392494
 20
56.49471602641233
 10
-28.77202873835904
 20
57.51232930166111
 10
-24.41554807250941
 20
57.91937341678636
 10
-24.41554807250941
 20
59.384734621186
 10
-23.31624584658039
 20
58.3264175319116
 10
-19.04119127844888
 20
57.75655517324913
 10
-19.04119127844888
 20
57.75655517324913
 10
-14.64399105416578
 20
57.43091868617466
 10
-8.048195057457178
 20
57.22739662861204
 10
-4.017427461911665
 20
57.18669281458665
 10
-4.017427461911665
 20
57.18669281458665
  0
TEXT
  5
BED
330
B9E
100
AcDbEntity
  8
leg fin
100
AcDbText
 10
3.391127401597259
 20
2.107634911895729
 30
0.0
 40
1.5
  1
Este desenho é propriedade da Sanindusa, S.A., e não pode ser copiado nem divulgado sem nossa autorização.
 50
90.0
 41
0.8
  7
SANINDUSA
100
AcDbText
  0
LINE
  5
BEE
330
B9E
100
AcDbEntity
  8
3
100
AcDbLine
 10
-90.0
 20
4.0
 30
0.0
 11
-90.0
 21
12.0
 31
0.0
  0
TEXT
  5
BEF
330
B9E
100
AcDbEntity
  8
1
100
AcDbText
 10
-39.0
 20
9.25
 30
0.0
 40
2.0
  1
Substituido por:
 41
0.8
  7
SANINDUSA
 11
-39.0
 21
10.25
 31
0.0
100
AcDbText
 73
     2
  0
POINT
  5
BF0
330
B9E
100
AcDbEntity
  8
SANINDUSA
100
AcDbPoint
 10
0.0
 20
0.0
 30
0.0
  0
TEXT
  5
BF1
330
B9E
100
AcDbEntity
  8
1
100
AcDbText
 10
-89.0
 20
16.74927010445663
 30
0.0
 40
2.0
  1
Normas:
 41
0.8
  7
SANINDUSA
 11
-89.0
 21
17.74927010445663
 31
0.0
100
AcDbText
 73
     2
  0
LINE
  5
BF2
330
B9E
100
AcDbEntity
  8
3
100
AcDbLine
 10
-90.0
 20
12.0
 30
0.0
 11
-90.0
 21
20.0
 31
0.0
  0
LINE
  5
BF3
330
B9E
100
AcDbEntity
  8
3
100
AcDbLine
 10
-110.546019464768
 20
12.0
 30
0.0
 11
-110.546019464768
 21
20.0
 31
0.0
  0
TEXT
  5
BF4
330
B9E
100
AcDbEntity
  8
1
100
AcDbText
 10
-109.6177520618648
 20
17.25
 30
0.0
 40
2.0
  1
Cor:
 41
0.8
  7
SANINDUSA
 11
-109.6177520618648
 21
18.25
 31
0.0
100
AcDbText
 73
     2
  0
LINE
  5
BF5
330
B9E
100
AcDbEntity
  8
leg fin
100
AcDbLine
 10
-91.42857142857156
 20
20.0
 30
0.0
 11
-91.42857142857156
 21
28.5
 31
0.0
  0
LINE
  5
BF6
330
B9E
100
AcDbEntity
  8
leg fin
100
AcDbLine
 10
-104.2857142857142
 20
20.0
 30
0.0
 11
-104.2857142857142
 21
28.5
 31
0.0
  0
LINE
  5
BF7
330
B9E
100
AcDbEntity
  8
leg fin
100
AcDbLine
 10
-117.1428571428573
 20
20.0
 30
0.0
 11
-117.1428571428573
 21
28.5
 31
0.0
  0
POINT
  5
BF8
330
B9E
100
AcDbEntity
  8
SANINDUSA
100
AcDbPoint
 10
-117.1428571428573
 20
28.5
 30
0.0
  0
POINT
  5
BF9
330
B9E
100
AcDbEntity
  8
SANINDUSA
100
AcDbPoint
 10
-104.2857142857142
 20
28.5
 30
0.0
  0
POINT
  5
BFA
330
B9E
100
AcDbEntity
  8
SANINDUSA
100
AcDbPoint
 10
-91.42857142857156
 20
28.5
 30
0.0
  0
TEXT
  5
BFB
330
B9E
100
AcDbEntity
  8
1
100
AcDbText
 10
-116.200160604496
 20
26.43288406845113
 30
0.0
 40
1.5
  1
Nº Seq.:
 41
0.8
  7
SANINDUSA
 11
-116.200160604496
 21
27.18288406845113
 31
0.0
100
AcDbText
 73
     2
  0
TEXT
  5
BFC
330
B9E
100
AcDbEntity
  8
1
100
AcDbText
 10
-103.2106584078738
 20
26.43288406845113
 30
0.0
 40
1.5
  1
Tipo:
 41
0.8
  7
SANINDUSA
 11
-103.2106584078738
 21
27.18288406845113
 31
0.0
100
AcDbText
 73
     2
  0
TEXT
  5
BFD
330
B9E
100
AcDbEntity
  8
1
100
AcDbText
 10
-90.22114672289353
 20
26.43288406845113
 30
0.0
 40
1.5
  1
Prod.:
 41
0.8
  7
SANINDUSA
 11
-90.22114672289353
 21
27.18288406845113
 31
0.0
100
AcDbText
 73
     2
  0
TEXT
  5
BFE
330
B9E
100
AcDbEntity
  8
1
100
AcDbText
 10
-64.77320576346574
 20
26.43288406845113
 30
0.0
 40
1.5
  1
Rev.:
 41
0.8
  7
SANINDUSA
 11
-64.77320576346574
 21
27.18288406845113
 31
0.0
100
AcDbText
 73
     2
  0
LINE
  5
BFF
330
B9E
100
AcDbEntity
  8
leg fin
100
AcDbLine
 10
-52.85714285714266
 20
20.0
 30
0.0
 11
-52.85714285714266
 21
28.5
 31
0.0
  0
LINE
  5
C00
330
B9E
100
AcDbEntity
  8
leg fin
100
AcDbLine
 10
-65.71428571428578
 20
20.0
 30
0.0
 11
-65.71428571428578
 21
28.5
 31
0.0
  0
LINE
  5
C01
330
B9E
100
AcDbEntity
  8
leg fin
100
AcDbLine
 10
-78.57142857142844
 20
20.0
 30
0.0
 11
-78.57142857142844
 21
28.5
 31
0.0
  0
POINT
  5
C02
330
B9E
100
AcDbEntity
  8
SANINDUSA
100
AcDbPoint
 10
-78.57142857142844
 20
28.5
 30
0.0
  0
POINT
  5
C03
330
B9E
100
AcDbEntity
  8
SANINDUSA
100
AcDbPoint
 10
-65.71428571428578
 20
28.5
 30
0.0
  0
POINT
  5
C04
330
B9E
100
AcDbEntity
  8
SANINDUSA
100
AcDbPoint
 10
-52.85714285714266
 20
28.5
 30
0.0
  0
TEXT
  5
C05
330
B9E
100
AcDbEntity
  8
1
100
AcDbText
 10
-77.61097961686573
 20
26.43288406845113
 30
0.0
 40
1.5
  1
Peça:
 41
0.8
  7
SANINDUSA
 11
-77.61097961686573
 21
27.18288406845113
 31
0.0
100
AcDbText
 73
     2
  0
TEXT
  5
C06
330
B9E
100
AcDbEntity
  8
1
100
AcDbText
 10
-52.06538060077036
 20
26.43288406845113
 30
0.0
 40
1.5
  1
Alt.:
 41
0.8
  7
SANINDUSA
 11
-52.06538060077036
 21
27.18288406845113
 31
0.0
100
AcDbText
 73
     2
  0
LINE
  5
C07
330
B9E
100
AcDbEntity
  8
3
100
AcDbLine
 10
0.0
 20
12.0
 30
0.0
 11
-40.0
 21
12.0
 31
0.0
  0
LINE
  5
C08
330
B9E
100
AcDbEntity
  8
3
100
AcDbLine
 10
-40.0
 20
32.5
 30
0.0
 11
0.0
 21
32.5
 31
0.0
  0
TEXT
  5
C09
330
B9E
100
AcDbEntity
  8
1
100
AcDbText
 10
-19.0
 20
29.75
 30
0.0
 40
2.0
  1
Folha:
 41
0.8
  7
SANINDUSA
 11
-19.0
 21
30.75
 31
0.0
100
AcDbText
 73
     2
  0
LINE
  5
C0A
330
B9E
100
AcDbEntity
  8
3
100
AcDbLine
 10
-20.0
 20
32.5
 30
0.0
 11
-20.0
 21
20.0
 31
0.0
  0
TEXT
  5
C0B
330
B9E
100
AcDbEntity
  8
1
100
AcDbText
 10
-39.0
 20
29.75
 30
0.0
 40
2.0
  1
Escala:
 41
0.8
  7
SANINDUSA
 11
-39.0
 21
30.75
 31
0.0
100
AcDbText
 73
     2
  0
TEXT
  5
C0C
330
B9E
100
AcDbEntity
  8
1
100
AcDbText
 10
-39.0
 20
17.25
 30
0.0
 40
2.0
  1
Substitui:
 41
0.8
  7
SANINDUSA
 11
-39.0
 21
18.25
 31
0.0
100
AcDbText
 73
     2
  0
LWPOLYLINE
  5
C0D
102
{ACAD_REACTORS
330
BEC
102
}
330
B9E
100
AcDbEntity
  8
9
100
AcDbPolyline
 90
        6
 70
     1
 43
0.0
 10
-2.638748516194482
 20
57.02796337120571
 10
-2.638748516194482
 20
55.50786840766477
 10
-5.21497371544865
 20
55.507868407665
 42
-0.4142135623730898
 10
-5.614973715448741
 20
55.90786840766487
 10
-5.614973715448741
 20
56.62796337120562
 42
-0.4142135623731576
 10
-5.21497371544865
 20
57.02796337120571
  0
LINE
  5
C0E
330
B9E
100
AcDbEntity
  8
3
100
AcDbLine
 10
-40.0
 20
50.0
 30
0.0
 11
0.0
 21
50.0
 31
0.0
  0
ATTDEF
  5
C0F
330
B9E
100
AcDbEntity
  8
1
100
AcDbText
 10
-31.30691739422431
 20
40.25
 30
0.0
 40
2.0
  1
XXXXXXXXXXXXXXX
 41
0.8
  7
SANINDUSA
 72
     4
 11
-20.0
 21
41.25
 31
0.0
100
AcDbAttributeDefinition
  3
Observações:
  2
OBS
 70
     0
  0
TEXT
  5
C10
330
B9E
100
AcDbEntity
  8
1
100
AcDbText
 10
-39.0
 20
47.25
 30
0.0
 40
2.0
  1
Observações:
 41
0.8
  7
SANINDUSA
 11
-39.0
 21
48.25
 31
0.0
100
AcDbText
 73
     2
  0
LWPOLYLINE
  5
C11
102
{ACAD_REACTORS
330
BEC
102
}
330
B9E
100
AcDbEntity
  8
9
100
AcDbPolyline
 90
        6
 70
     1
 43
0.0
 10
-29.98468712904878
 20
57.02796337120571
 10
-29.98468712904878
 20
55.507868407665
 10
-32.57692046803459
 20
55.507868407665
 42
-0.4142135623731731
 10
-32.97692046803468
 20
55.90786840766487
 10
-32.97692046803468
 20
56.62796337120562
 42
-0.4142135623731576
 10
-32.57692046803459
 20
57.02796337120571
  0
LWPOLYLINE
  5
C12
102
{ACAD_REACTORS
330
BEC
102
}
330
B9E
100
AcDbEntity
  8
9
100
AcDbPolyline
 90
        4
 70
     1
 43
0.0
 10
-24.19231812786165
 20
59.87619128370352
 10
-24.57637781922995
 20
59.87619128370352
 10
-24.57637781922995
 20
59.28412752246913
 10
-24.19231812786165
 20
59.28412752246913
  0
ENDBLK
  5
C14
330
B9E
100
AcDbEntity
  8
0
100
AcDbBlockEnd
  0
ENDSEC
  0
SECTION
  2
ENTITIES
  0
SPLINE
  5
14E2
330
1F
100
AcDbEntity
  8
SANINDUSA
100
AcDbSpline
210
0.0
220
0.0
230
1.0
 70
     8
 71
     3
 72
    31
 73
    27
 74
     0
 42
0.0000000001
 43
0.0000000001
 40
0.0
 40
0.0
 40
0.0
 40
0.0
 40
0.0033780137023674
 40
0.0424742788411405
 40
0.0816169621783458
 40
0.1210721409001887
 40
0.1608371050933864
 40
0.2009022368712437
 40
0.2412498318560283
 40
0.281854419031983
 40
0.3226832132518993
 40
0.3636440706943496
 40
0.4052350369380481
 40
0.4476674960469166
 40
0.4908756470638643
 40
0.5348752648096604
 40
0.5796649011844789
 40
0.6252248199448864
 40
0.6715045963525385
 40
0.7185117949477808
 40
0.7668341010039055
 40
0.8157498151080353
 40
0.8653752435819436
 40
0.9158203872388606
 40
0.9671959784972036
 40
1.0
 40
1.0
 40
1.0
 40
1.0
 10
4991.664411893375
 20
2648.784310703869
 30
0.0
 10
4991.66459657177
 20
2648.784306631625
 30
0.0
 10
4991.666918670595
 20
2648.784255428279
 30
0.0
 10
4991.671382469645
 20
2648.784455140242
 30
0.0
 10
4991.677800993041
 20
2648.784928114868
 30
0.0
 10
4991.684224809735
 20
2648.785747461368
 30
0.0
 10
4991.690652128996
 20
2648.786871763789
 30
0.0
 10
4991.697066487332
 20
2648.788312593512
 30
0.0
 10
4991.703450078301
 20
2648.790065662071
 30
0.0
 10
4991.70978412248
 20
2648.792129306768
 30
0.0
 10
4991.716046030607
 20
2648.794498936219
 30
0.0
 10
4991.722240813857
 20
2648.797177482153
 30
0.0
 10
4991.728389222495
 20
2648.800166953521
 30
0.0
 10
4991.734508798211
 20
2648.803481462045
 30
0.0
 10
4991.740593112431
 20
2648.807123741574
 30
0.0
 10
4991.746625844701
 20
2648.811090534675
 30
0.0
 10
4991.752593123629
 20
2648.815379326542
 30
0.0
 10
4991.758478806059
 20
2648.819984645023
 30
0.0
 10
4991.764266008337
 20
2648.824902414177
 30
0.0
 10
4991.769969714262
 20
2648.830142594134
 30
0.0
 10
4991.775569516663
 20
2648.835700433839
 30
0.0
 10
4991.781048639086
 20
2648.841574410693
 30
0.0
 10
4991.786380412535
 20
2648.847737238697
 30
0.0
 10
4991.791554014945
 20
2648.854205286794
 30
0.0
 10
4991.795974180257
 20
2648.860095764464
 30
0.0
 10
4991.798566467279
 20
2648.863900016028
 30
0.0
 10
4991.799576657708
 20
2648.865382497902
 30
0.0
  0
SPLINE
  5
14E3
330
1F
100
AcDbEntity
  8
SANINDUSA
100
AcDbSpline
210
0.0
220
0.0
230
1.0
 70
     8
 71
     3
 72
    30
 73
    26
 74
     0
 42
0.0000000001
 43
0.0000000001
 40
0.0
 40
0.0
 40
0.0
 40
0.0
 40
0.0298674440131149
 40
0.0830086000429797
 40
0.1350760910741394
 40
0.186153770372095
 40
0.2363671067004077
 40
0.2858397269540971
 40
0.3346937575165168
 40
0.3830715635037868
 40
0.4300840553224884
 40
0.4762839859216223
 40
0.5216609684086324
 40
0.5661972524174729
 40
0.6098958998945787
 40
0.6527788625595558
 40
0.6948909035019967
 40
0.7359923287883432
 40
0.7767749037726114
 40
0.8173614114631812
 40
0.8577191855403325
 40
0.8978227744739859
 40
0.9376549476709442
 40
0.9772071860365171
 40
1.0
 40
1.0
 40
1.0
 40
1.0
 10
4991.528928371963
 20
2648.865859871502
 30
0.0
 10
4991.529845307276
 20
2648.864501296423
 30
0.0
 10
4991.532393684593
 20
2648.860725499091
 30
0.0
 10
4991.536826267449
 20
2648.854780840457
 30
0.0
 10
4991.542165512627
 20
2648.848068111251
 30
0.0
 10
4991.547664805928
 20
2648.841695009752
 30
0.0
 10
4991.553308004598
 20
2648.835642819958
 30
0.0
 10
4991.55910021558
 20
2648.82990492672
 30
0.0
 10
4991.565042434594
 20
2648.824470761712
 30
0.0
 10
4991.571097726319
 20
2648.819369746606
 30
0.0
 10
4991.577248000493
 20
2648.814618305376
 30
0.0
 10
4991.583459929439
 20
2648.810227214548
 30
0.0
 10
4991.589741889928
 20
2648.806182625217
 30
0.0
 10
4991.596077511843
 20
2648.802488018102
 30
0.0
 10
4991.602451666615
 20
2648.799145498575
 30
0.0
 10
4991.608851749736
 20
2648.796154775414
 30
0.0
 10
4991.615252745781
 20
2648.793520213696
 30
0.0
 10
4991.621663971677
 20
2648.791233955253
 30
0.0
 10
4991.628096001413
 20
2648.78927790861
 30
0.0
 10
4991.634574232138
 20
2648.78763959605
 30
0.0
 10
4991.641086950412
 20
2648.786321741774
 30
0.0
 10
4991.647614798957
 20
2648.785321785691
 30
0.0
 10
4991.654139479594
 20
2648.784659927102
 30
0.0
 10
4991.659740371932
 20
2648.784320673336
 30
0.0
 10
4991.663161933466
 20
2648.784332752348
 30
0.0
 10
4991.664412826883
 20
2648.784337168331
 30
0.0
  0
SPLINE
  5
14E5
330
1F
100
AcDbEntity
  8
SANINDUSA
100
AcDbSpline
210
0.0
220
0.0
230
1.0
 70
     8
 71
     3
 72
   100
 73
    96
 74
     0
 42
0.0000000001
 43
0.0000000001
 40
0.0
 40
0.0
 40
0.0
 40
0.0
 40
0.0312500000000002
 40
0.0312500000000002
 40
0.0625000000000004
 40
0.0625000000000004
 40
0.0781250000000004
 40
0.0781250000000004
 40
0.0937500000000005
 40
0.0937500000000005
 40
0.1250000000000006
 40
0.1250000000000006
 40
0.1562500000000008
 40
0.1562500000000008
 40
0.1718750000000008
 40
0.1718750000000008
 40
0.1796875000000008
 40
0.1796875000000008
 40
0.1875000000000008
 40
0.1875000000000008
 40
0.2187500000000009
 40
0.2187500000000009
 40
0.2500000000000009
 40
0.2500000000000009
 40
0.257812500000001
 40
0.257812500000001
 40
0.2656250000000011
 40
0.2656250000000011
 40
0.2812500000000013
 40
0.2812500000000013
 40
0.3125000000000017
 40
0.3125000000000017
 40
0.343750000000002
 40
0.343750000000002
 40
0.351562500000002
 40
0.351562500000002
 40
0.359375000000002
 40
0.359375000000002
 40
0.3750000000000021
 40
0.3750000000000021
 40
0.406250000000002
 40
0.406250000000002
 40
0.4375000000000018
 40
0.4375000000000018
 40
0.4531250000000016
 40
0.4531250000000016
 40
0.4687500000000014
 40
0.4687500000000014
 40
0.484375000000001
 40
0.484375000000001
 40
0.5000000000000007
 40
0.5000000000000007
 40
0.5312500000000005
 40
0.5312500000000005
 40
0.5625000000000001
 40
0.5625000000000001
 40
0.625
 40
0.625
 40
0.6328125000000001
 40
0.6328125000000001
 40
0.6406250000000002
 40
0.6406250000000002
 40
0.6562500000000006
 40
0.6562500000000006
 40
0.6875000000000008
 40
0.6875000000000008
 40
0.7187500000000011
 40
0.7187500000000011
 40
0.7500000000000014
 40
0.7500000000000014
 40
0.7656250000000015
 40
0.7656250000000015
 40
0.7812500000000016
 40
0.7812500000000016
 40
0.8125000000000015
 40
0.8125000000000015
 40
0.8437500000000014
 40
0.8437500000000014
 40
0.8750000000000014
 40
0.8750000000000014
 40
0.8828125000000014
 40
0.8828125000000014
 40
0.8906250000000014
 40
0.8906250000000014
 40
0.906250000000001
 40
0.906250000000001
 40
0.9375000000000007
 40
0.9375000000000007
 40
0.9453125000000005
 40
0.9453125000000005
 40
0.9531250000000005
 40
0.9531250000000005
 40
0.9687500000000003
 40
0.9687500000000003
 40
1.0
 40
1.0
 40
1.0
 40
1.0
 10
4991.664412933286
 20
2649.157652237857
 30
0.0
 10
4991.669525708445
 20
2649.157652251195
 30
0.0
 10
4991.674614277734
 20
2649.157452497057
 30
0.0
 10
4991.68473807419
 20
2649.156612764166
 30
0.0
 10
4991.689773343273
 20
2649.155973131336
 30
0.0
 10
4991.697281526732
 20
2649.15464461318
 30
0.0
 10
4991.699776785448
 20
2649.154140132387
 30
0.0
 10
4991.704751440909
 20
2649.153000264316
 30
0.0
 10
4991.707236541017
 20
2649.152363029572
 30
0.0
 10
4991.714596683729
 20
2649.150262127669
 30
0.0
 10
4991.719391841453
 20
2649.148607878601
 30
0.0
 10
4991.728747318103
 20
2649.144765651386
 30
0.0
 10
4991.733307720902
 20
2649.14257786385
 30
0.0
 10
4991.73996069701
 20
2649.138869751419
 30
0.0
 10
4991.742146950382
 20
2649.137562337576
 30
0.0
 10
4991.745377648231
 20
2649.135490574473
 30
0.0
 10
4991.746447492715
 20
2649.134780713743
 30
0.0
 10
4991.748555705602
 20
2649.133333758465
 30
0.0
 10
4991.749595831437
 20
2649.132595588859
 30
0.0
 10
4991.754727002854
 20
2649.128831748937
 30
0.0
 10
4991.758610622566
 20
2649.125588098543
 30
0.0
 10
4991.765949017882
 20
2649.118650133253
 30
0.0
 10
4991.76940353251
 20
2649.1149555441
 30
0.0
 10
4991.773456499749
 20
2649.110058638941
 30
0.0
 10
4991.774253766762
 20
2649.1090652534
 30
0.0
 10
4991.775821702866
 20
2649.107050531041
 30
0.0
 10
4991.776593353499
 20
2649.106027843083
 30
0.0
 10
4991.778861352985
 20
2649.102927479745
 30
0.0
 10
4991.780305663418
 20
2649.100824976275
 30
0.0
 10
4991.784444716047
 20
2649.094415514192
 30
0.0
 10
4991.786946260918
 20
2649.090006962192
 30
0.0
 10
4991.791471841656
 20
2649.080938758656
 30
0.0
 10
4991.79349557589
 20
2649.076278948504
 30
0.0
 10
4991.795740738453
 20
2649.070304577882
 30
0.0
 10
4991.796175946021
 20
2649.069100908242
 30
0.0
 10
4991.797015804441
 20
2649.066685169406
 30
0.0
 10
4991.797420122072
 20
2649.065474183368
 30
0.0
 10
4991.798587482502
 20
2649.061832123399
 30
0.0
 10
4991.79930497317
 20
2649.059391955664
 30
0.0
 10
4991.80128358483
 20
2649.052036743829
 30
0.0
 10
4991.802371252987
 20
2649.047087072452
 30
0.0
 10
4991.804115143318
 20
2649.037101597926
 30
0.0
 10
4991.804771194228
 20
2649.032065760585
 30
0.0
 10
4991.805444983363
 20
2649.02445006034
 30
0.0
 10
4991.805617852833
 20
2649.021898186639
 30
0.0
 10
4991.80586027477
 20
2649.016793892718
 30
0.0
 10
4991.805930051011
 20
2649.014240600666
 30
0.0
 10
4991.805969308749
 20
2649.009131783698
 30
0.0
 10
4991.805938599001
 20
2649.006572766774
 30
0.0
 10
4991.805779166887
 20
2649.001474063887
 30
0.0
 10
4991.805650609478
 20
2648.998934057333
 30
0.0
 10
4991.805123457598
 20
2648.991341107185
 30
0.0
 10
4991.804583965508
 20
2648.986315121744
 30
0.0
 10
4991.803156426502
 20
2648.976329840381
 30
0.0
 10
4991.802268214946
 20
2648.971370575959
 30
0.0
 10
4991.799108075543
 20
2648.95658758836
 30
0.0
 10
4991.796342916422
 20
2648.946858235863
 30
0.0
 10
4991.792488715692
 20
2648.936054949521
 30
0.0
 10
4991.792049830515
 20
2648.934855952882
 30
0.0
 10
4991.79115426172
 20
2648.932470328342
 30
0.0
 10
4991.790697249627
 20
2648.931282745531
 30
0.0
 10
4991.789298649094
 20
2648.927735618131
 30
0.0
 10
4991.788329506174
 20
2648.925391689036
 30
0.0
 10
4991.785312441527
 20
2648.918422033878
 30
0.0
 10
4991.783155037849
 20
2648.913858352706
 30
0.0
 10
4991.778544279854
 20
2648.904898709559
 30
0.0
 10
4991.776090991912
 20
2648.900502709967
 30
0.0
 10
4991.770874084562
 20
2648.891886579783
 30
0.0
 10
4991.768110623581
 20
2648.887666359407
 30
0.0
 10
4991.763713132733
 20
2648.881479010278
 30
0.0
 10
4991.762205221684
 20
2648.879440408302
 30
0.0
 10
4991.759100256094
 20
2648.875413723158
 30
0.0
 10
4991.757501840287
 20
2648.873424017594
 30
0.0
 10
4991.752572747704
 20
2648.867545924935
 30
0.0
 10
4991.749142173094
 20
2648.863787837268
 30
0.0
 10
4991.741968681534
 20
2648.856618862216
 30
0.0
 10
4991.738226069156
 20
2648.85320763627
 30
0.0
 10
4991.730390940356
 20
2648.846774138325
 30
0.0
 10
4991.726298922943
 20
2648.843751311627
 30
0.0
 10
4991.720928757351
 20
2648.840256396575
 30
0.0
 10
4991.719843715489
 20
2648.839572912428
 30
0.0
 10
4991.717660574244
 20
2648.838243592127
 30
0.0
 10
4991.716561112308
 20
2648.837596861518
 30
0.0
 10
4991.71323858061
 20
2648.835711530623
 30
0.0
 10
4991.710991392111
 20
2648.834527729563
 30
0.0
 10
4991.704148607478
 20
2648.831206302376
 30
0.0
 10
4991.699452508309
 20
2648.829297025199
 30
0.0
 10
4991.693394053859
 20
2648.827338326877
 30
0.0
 10
4991.692172879129
 20
2648.826968135065
 30
0.0
 10
4991.689710959104
 20
2648.826272216928
 30
0.0
 10
4991.688468450256
 20
2648.82594606762
 30
0.0
 10
4991.684722802435
 20
2648.825039771665
 30
0.0
 10
4991.682213527889
 20
2648.824534285989
 30
0.0
 10
4991.674648790517
 20
2648.823317090991
 30
0.0
 10
4991.669556415049
 20
2648.822904634787
 30
0.0
 10
4991.664412933286
 20
2648.822906500278
 30
0.0
  0
SPLINE
  5
14E9
330
1F
100
AcDbEntity
  8
SANINDUSA
100
AcDbSpline
210
0.0
220
0.0
230
1.0
 70
     8
 71
     3
 72
   100
 73
    96
 74
     0
 42
0.0000000001
 43
0.0000000001
 40
0.0
 40
0.0
 40
0.0
 40
0.0
 40
0.0312499999999994
 40
0.0312499999999994
 40
0.0624999999999987
 40
0.0624999999999987
 40
0.0781249999999984
 40
0.0781249999999984
 40
0.093749999999998
 40
0.093749999999998
 40
0.1249999999999973
 40
0.1249999999999973
 40
0.1562499999999966
 40
0.1562499999999966
 40
0.1718749999999962
 40
0.1718749999999962
 40
0.179687499999996
 40
0.179687499999996
 40
0.1874999999999958
 40
0.1874999999999958
 40
0.2187499999999951
 40
0.2187499999999951
 40
0.2499999999999943
 40
0.2499999999999943
 40
0.2578124999999941
 40
0.2578124999999941
 40
0.265624999999994
 40
0.265624999999994
 40
0.2812499999999937
 40
0.2812499999999937
 40
0.3124999999999933
 40
0.3124999999999933
 40
0.3437499999999929
 40
0.3437499999999929
 40
0.3515624999999928
 40
0.3515624999999928
 40
0.3593749999999928
 40
0.3593749999999928
 40
0.3749999999999927
 40
0.3749999999999927
 40
0.4062499999999928
 40
0.4062499999999928
 40
0.4374999999999928
 40
0.4374999999999928
 40
0.4531249999999928
 40
0.4531249999999928
 40
0.4687499999999927
 40
0.4687499999999927
 40
0.4843749999999926
 40
0.4843749999999926
 40
0.4999999999999925
 40
0.4999999999999925
 40
0.5312499999999922
 40
0.5312499999999922
 40
0.562499999999992
 40
0.562499999999992
 40
0.6249999999999913
 40
0.6249999999999913
 40
0.6328124999999913
 40
0.6328124999999913
 40
0.6406249999999915
 40
0.6406249999999915
 40
0.6562499999999916
 40
0.6562499999999916
 40
0.687499999999992
 40
0.687499999999992
 40
0.7187499999999925
 40
0.7187499999999925
 40
0.7499999999999929
 40
0.7499999999999929
 40
0.7656249999999934
 40
0.7656249999999934
 40
0.7812499999999937
 40
0.7812499999999937
 40
0.8124999999999944
 40
0.8124999999999944
 40
0.8437499999999952
 40
0.8437499999999952
 40
0.874999999999996
 40
0.874999999999996
 40
0.8828124999999962
 40
0.8828124999999962
 40
0.8906249999999966
 40
0.8906249999999966
 40
0.9062499999999971
 40
0.9062499999999971
 40
0.9374999999999984
 40
0.9374999999999984
 40
0.9453124999999984
 40
0.9453124999999984
 40
0.9531249999999985
 40
0.9531249999999985
 40
0.9687499999999991
 40
0.9687499999999991
 40
1.0
 40
1.0
 40
1.0
 40
1.0
 10
4991.664412933286
 20
2649.157652237857
 30
0.0
 10
4991.659300158126
 20
2649.157652251195
 30
0.0
 10
4991.654211588837
 20
2649.157452497057
 30
0.0
 10
4991.644087792382
 20
2649.156612764166
 30
0.0
 10
4991.639052523298
 20
2649.155973131336
 30
0.0
 10
4991.631544339839
 20
2649.15464461318
 30
0.0
 10
4991.629049081124
 20
2649.154140132387
 30
0.0
 10
4991.624074425663
 20
2649.153000264316
 30
0.0
 10
4991.621589325554
 20
2649.152363029572
 30
0.0
 10
4991.614229182843
 20
2649.150262127669
 30
0.0
 10
4991.609434025119
 20
2649.148607878601
 30
0.0
 10
4991.600078548469
 20
2649.144765651386
 30
0.0
 10
4991.595518145671
 20
2649.14257786385
 30
0.0
 10
4991.588865169561
 20
2649.138869751419
 30
0.0
 10
4991.586678916189
 20
2649.137562337576
 30
0.0
 10
4991.583448218341
 20
2649.135490574473
 30
0.0
 10
4991.582378373855
 20
2649.134780713743
 30
0.0
 10
4991.580270160969
 20
2649.133333758465
 30
0.0
 10
4991.579230035135
 20
2649.132595588859
 30
0.0
 10
4991.574098863718
 20
2649.128831748937
 30
0.0
 10
4991.570215244006
 20
2649.125588098543
 30
0.0
 10
4991.56287684869
 20
2649.118650133253
 30
0.0
 10
4991.559422334063
 20
2649.1149555441
 30
0.0
 10
4991.555369366824
 20
2649.110058638941
 30
0.0
 10
4991.55457209981
 20
2649.1090652534
 30
0.0
 10
4991.553004163705
 20
2649.107050531041
 30
0.0
 10
4991.552232513073
 20
2649.106027843083
 30
0.0
 10
4991.549964513587
 20
2649.102927479745
 30
0.0
 10
4991.548520203153
 20
2649.100824976275
 30
0.0
 10
4991.544381150524
 20
2649.094415514192
 30
0.0
 10
4991.541879605654
 20
2649.090006962192
 30
0.0
 10
4991.537354024916
 20
2649.080938758656
 30
0.0
 10
4991.535330290681
 20
2649.076278948504
 30
0.0
 10
4991.533085128119
 20
2649.070304577882
 30
0.0
 10
4991.53264992055
 20
2649.069100908242
 30
0.0
 10
4991.531810062131
 20
2649.066685169406
 30
0.0
 10
4991.5314057445
 20
2649.065474183368
 30
0.0
 10
4991.530238384069
 20
2649.061832123399
 30
0.0
 10
4991.529520893402
 20
2649.059391955664
 30
0.0
 10
4991.527542281741
 20
2649.052036743829
 30
0.0
 10
4991.526454613585
 20
2649.047087072452
 30
0.0
 10
4991.524710723254
 20
2649.037101597926
 30
0.0
 10
4991.524054672344
 20
2649.032065760585
 30
0.0
 10
4991.523380883208
 20
2649.02445006034
 30
0.0
 10
4991.52320801374
 20
2649.021898186639
 30
0.0
 10
4991.522965591801
 20
2649.016793892718
 30
0.0
 10
4991.52289581556
 20
2649.014240600666
 30
0.0
 10
4991.522856557821
 20
2649.009131783698
 30
0.0
 10
4991.522887267571
 20
2649.006572766774
 30
0.0
 10
4991.523046699684
 20
2649.001474063887
 30
0.0
 10
4991.523175257094
 20
2648.998934057333
 30
0.0
 10
4991.523702408974
 20
2648.991341107185
 30
0.0
 10
4991.524241901063
 20
2648.986315121744
 30
0.0
 10
4991.525669440068
 20
2648.976329840381
 30
0.0
 10
4991.526557651624
 20
2648.971370575959
 30
0.0
 10
4991.529717791029
 20
2648.95658758836
 30
0.0
 10
4991.532482950151
 20
2648.946858235863
 30
0.0
 10
4991.536337150879
 20
2648.936054949521
 30
0.0
 10
4991.536776036056
 20
2648.934855952882
 30
0.0
 10
4991.537671604851
 20
2648.932470328342
 30
0.0
 10
4991.538128616944
 20
2648.931282745531
 30
0.0
 10
4991.539527217478
 20
2648.927735618131
 30
0.0
 10
4991.540496360397
 20
2648.925391689036
 30
0.0
 10
4991.543513425045
 20
2648.918422033878
 30
0.0
 10
4991.545670828724
 20
2648.913858352706
 30
0.0
 10
4991.550281586718
 20
2648.904898709559
 30
0.0
 10
4991.55273487466
 20
2648.900502709967
 30
0.0
 10
4991.557951782009
 20
2648.891886579783
 30
0.0
 10
4991.56071524299
 20
2648.887666359407
 30
0.0
 10
4991.565112733838
 20
2648.881479010278
 30
0.0
 10
4991.566620644888
 20
2648.879440408302
 30
0.0
 10
4991.569725610478
 20
2648.875413723158
 30
0.0
 10
4991.571324026285
 20
2648.873424017594
 30
0.0
 10
4991.576253118868
 20
2648.867545924935
 30
0.0
 10
4991.579683693478
 20
2648.863787837268
 30
0.0
 10
4991.586857185039
 20
2648.856618862216
 30
0.0
 10
4991.590599797416
 20
2648.85320763627
 30
0.0
 10
4991.598434926215
 20
2648.846774138325
 30
0.0
 10
4991.602526943629
 20
2648.843751311627
 30
0.0
 10
4991.60789710922
 20
2648.840256396575
 30
0.0
 10
4991.608982151085
 20
2648.839572912428
 30
0.0
 10
4991.611165292328
 20
2648.838243592127
 30
0.0
 10
4991.612264754263
 20
2648.837596861518
 30
0.0
 10
4991.615587285963
 20
2648.835711530623
 30
0.0
 10
4991.61783447446
 20
2648.834527729563
 30
0.0
 10
4991.624677259093
 20
2648.831206302376
 30
0.0
 10
4991.629373358263
 20
2648.829297025199
 30
0.0
 10
4991.635431812713
 20
2648.827338326877
 30
0.0
 10
4991.636652987443
 20
2648.826968135065
 30
0.0
 10
4991.639114907468
 20
2648.826272216928
 30
0.0
 10
4991.640357416316
 20
2648.82594606762
 30
0.0
 10
4991.644103064138
 20
2648.825039771665
 30
0.0
 10
4991.646612338683
 20
2648.824534285989
 30
0.0
 10
4991.654177076054
 20
2648.823317090991
 30
0.0
 10
4991.659269451522
 20
2648.822904634787
 30
0.0
 10
4991.664412933286
 20
2648.822906500278
 30
0.0
  0
SPLINE
  5
14EC
330
1F
100
AcDbEntity
  8
SANINDUSA
100
AcDbSpline
210
0.0
220
0.0
230
1.0
 70
     8
 71
     3
 72
    18
 73
    14
 74
     0
 42
0.0000000001
 43
0.0000000001
 40
0.0
 40
0.0
 40
0.0
 40
0.0
 40
0.0590401735878487
 40
0.1461365162705079
 40
0.2331806557891713
 40
0.3222307744312771
 40
0.41133644038764
 40
0.5003861385152663
 40
0.5942052731519158
 40
0.6948124549605669
 40
0.7954144835563312
 40
0.8977130132210579
 40
1.0
 40
1.0
 40
1.0
 40
1.0
 10
4991.799539911445
 20
2648.865410422678
 30
0.0
 10
4991.801109933014
 20
2648.867707232828
 30
0.0
 10
4991.80499605781
 20
2648.87339230815
 30
0.0
 10
4991.810591325676
 20
2648.882856792409
 30
0.0
 10
4991.816447365817
 20
2648.893790502572
 30
0.0
 10
4991.821775568804
 20
2648.905099162988
 30
0.0
 10
4991.826574444246
 20
2648.916743516892
 30
0.0
 10
4991.830859859646
 20
2648.928825826982
 30
0.0
 10
4991.834666547999
 20
2648.941634486669
 30
0.0
 10
4991.83786855128
 20
2648.955170884849
 30
0.0
 10
4991.840286985794
 20
2648.969271598736
 30
0.0
 10
4991.841874500054
 20
2648.983580533281
 30
0.0
 10
4991.842074525585
 20
2648.993221886286
 30
0.0
 10
4991.842174532708
 20
2648.998042290802
 30
0.0
  0
SPLINE
  5
14F0
330
1F
100
AcDbEntity
  8
SANINDUSA
100
AcDbSpline
210
0.0
220
0.0
230
1.0
 70
     8
 71
     3
 72
    17
 73
    13
 74
     0
 42
0.0000000001
 43
0.0000000001
 40
0.0
 40
0.0
 40
0.0
 40
0.0
 40
0.0737081191212447
 40
0.1798986211759465
 40
0.2861980524912138
 40
0.3924110651558711
 40
0.4983343753668715
 40
0.5925384542108072
 40
0.6943246519356095
 40
0.7963230420594219
 40
0.8982760168765727
 40
1.0
 40
1.0
 40
1.0
 40
1.0
 10
4991.528985890444
 20
2648.865901177521
 30
0.0
 10
4991.527043297821
 20
2648.868763688013
 30
0.0
 10
4991.5223020327
 20
2648.875750186879
 30
0.0
 10
4991.515655741516
 20
2648.887436337634
 30
0.0
 10
4991.508938156513
 20
2648.900803078438
 30
0.0
 10
4991.503059169025
 20
2648.914550723833
 30
0.0
 10
4991.498186402136
 20
2648.928082874717
 30
0.0
 10
4991.494149398818
 20
2648.941669043971
 30
0.0
 10
4991.490930143811
 20
2648.955285889614
 30
0.0
 10
4991.488513527798
 20
2648.969434098475
 30
0.0
 10
4991.486945190436
 20
2648.983708747878
 30
0.0
 10
4991.48674921261
 20
2648.993268025624
 30
0.0
 10
4991.486651333865
 20
2648.998042290802
 30
0.0
  0
SPLINE
  5
14F3
330
1F
100
AcDbEntity
  8
SANINDUSA
100
AcDbSpline
210
0.0
220
0.0
230
1.0
 70
     8
 71
     3
 72
    20
 73
    16
 74
     0
 42
0.0000000001
 43
0.0000000001
 40
0.0
 40
0.0
 40
0.0
 40
0.0
 40
0.2499999999999996
 40
0.2499999999999996
 40
0.3749999999999996
 40
0.3749999999999996
 40
0.4374999999999997
 40
0.4374999999999997
 40
0.4999999999999999
 40
0.4999999999999999
 40
0.6249999999999999
 40
0.6249999999999999
 40
0.75
 40
0.75
 40
1.0
 40
1.0
 40
1.0
 40
1.0
 10
4991.842174531616
 20
2648.99804229114
 30
0.0
 10
4991.842154030543
 20
2649.020697379222
 30
0.0
 10
4991.840828842364
 20
2649.043229603144
 30
0.0
 10
4991.837393820286
 20
2649.076891650949
 30
0.0
 10
4991.836007351082
 20
2649.088089594828
 30
0.0
 10
4991.833627196813
 20
2649.104858216929
 30
0.0
 10
4991.832783724914
 20
2649.110443040873
 30
0.0
 10
4991.831006764826
 20
2649.12160421184
 30
0.0
 10
4991.830073081108
 20
2649.127181651767
 30
0.0
 10
4991.827153763259
 20
2649.143893460754
 30
0.0
 10
4991.825050011756
 20
2649.155007211904
 30
0.0
 10
4991.820610249049
 20
2649.17718102589
 30
0.0
 10
4991.818273939816
 20
2649.18824276721
 30
0.0
 10
4991.811031883625
 20
2649.221377600891
 30
0.0
 10
4991.805893343384
 20
2649.243400518034
 30
0.0
 10
4991.80074494264
 20
2649.265420954433
 30
0.0
  0
SPLINE
  5
14F6
330
1F
100
AcDbEntity
  8
SANINDUSA
100
AcDbSpline
210
0.0
220
0.0
230
1.0
 70
    24
 71
     3
 72
    20
 73
    16
 74
     0
 42
0.0000000001
 43
0.0000000001
 40
0.0
 40
0.0
 40
0.0
 40
0.0
 40
0.2500000000000083
 40
0.2500000000000083
 40
0.3750000000000069
 40
0.3750000000000069
 40
0.5000000000000055
 40
0.5000000000000055
 40
0.6250000000000041
 40
0.6250000000000041
 40
0.7500000000000028
 40
0.7500000000000028
 40
0.8750000000000014
 40
0.8750000000000014
 40
1.0
 40
1.0
 40
1.0
 40
1.0
 10
4991.797823758641
 20
2649.267737990017
 30
0.0
 10
4991.797825194602
 20
2649.267737990017
 30
0.0
 10
4991.797770147591
 20
2649.267737990017
 30
0.0
 10
4991.797613992116
 20
2649.267737990017
 30
0.0
 10
4991.797548675475
 20
2649.267737990017
 30
0.0
 10
4991.797397043893
 20
2649.267737990017
 30
0.0
 10
4991.797311246691
 20
2649.267737990017
 30
0.0
 10
4991.797120175659
 20
2649.267737990017
 30
0.0
 10
4991.797013963671
 20
2649.267737990017
 30
0.0
 10
4991.796790942832
 20
2649.267737990017
 30
0.0
 10
4991.79667326356
 20
2649.267737990017
 30
0.0
 10
4991.796425504064
 20
2649.267737990017
 30
0.0
 10
4991.796296308408
 20
2649.267737990017
 30
0.0
 10
4991.796036224972
 20
2649.267737990017
 30
0.0
 10
4991.795904113804
 20
2649.267737990017
 30
0.0
 10
4991.795769851116
 20
2649.267737990017
 30
0.0
  0
ARC
  5
14F7
330
1F
100
AcDbEntity
  8
SANINDUSA
100
AcDbCircle
 10
4991.797823750192
 20
2649.264738037097
 30
0.0
 40
0.0029999529195152
100
AcDbArc
 50
13.15832661050609
 51
89.99982011556236
  0
SPLINE
  5
14F8
330
1F
100
AcDbEntity
  8
SANINDUSA
100
AcDbSpline
210
0.0
220
0.0
230
1.0
 70
     8
 71
     3
 72
    20
 73
    16
 74
     0
 42
0.0000000001
 43
0.0000000001
 40
0.0
 40
0.0
 40
0.0
 40
0.0
 40
0.2499999999999996
 40
0.2499999999999996
 40
0.3749999999999996
 40
0.3749999999999996
 40
0.4374999999999997
 40
0.4374999999999997
 40
0.4999999999999999
 40
0.4999999999999999
 40
0.6249999999999999
 40
0.6249999999999999
 40
0.75
 40
0.75
 40
1.0
 40
1.0
 40
1.0
 40
1.0
 10
4991.486651334956
 20
2648.99804229114
 30
0.0
 10
4991.486671836028
 20
2649.020697379222
 30
0.0
 10
4991.487997024208
 20
2649.043229603144
 30
0.0
 10
4991.491432046285
 20
2649.076891650949
 30
0.0
 10
4991.49281851549
 20
2649.088089594828
 30
0.0
 10
4991.495198669759
 20
2649.104858216929
 30
0.0
 10
4991.496042141657
 20
2649.110443040873
 30
0.0
 10
4991.497819101745
 20
2649.12160421184
 30
0.0
 10
4991.498752785465
 20
2649.127181651767
 30
0.0
 10
4991.501672103312
 20
2649.143893460754
 30
0.0
 10
4991.503775854815
 20
2649.155007211904
 30
0.0
 10
4991.508215617523
 20
2649.17718102589
 30
0.0
 10
4991.510551926754
 20
2649.18824276721
 30
0.0
 10
4991.517793982946
 20
2649.221377600891
 30
0.0
 10
4991.522932523188
 20
2649.243400518034
 30
0.0
 10
4991.528080923931
 20
2649.265420954433
 30
0.0
  0
SPLINE
  5
14FB
330
1F
100
AcDbEntity
  8
SANINDUSA
100
AcDbSpline
210
0.0
220
0.0
230
1.0
 70
    24
 71
     3
 72
    20
 73
    16
 74
     0
 42
0.0000000001
 43
0.0000000001
 40
0.0
 40
0.0
 40
0.0
 40
0.0
 40
0.2500000000000083
 40
0.2500000000000083
 40
0.3750000000000069
 40
0.3750000000000069
 40
0.5000000000000055
 40
0.5000000000000055
 40
0.6250000000000041
 40
0.6250000000000041
 40
0.7500000000000028
 40
0.7500000000000028
 40
0.8750000000000014
 40
0.8750000000000014
 40
1.0
 40
1.0
 40
1.0
 40
1.0
 10
4991.53100210793
 20
2649.267737990017
 30
0.0
 10
4991.53100067197
 20
2649.267737990017
 30
0.0
 10
4991.531055718979
 20
2649.267737990017
 30
0.0
 10
4991.531211874455
 20
2649.267737990017
 30
0.0
 10
4991.531277191096
 20
2649.267737990017
 30
0.0
 10
4991.531428822678
 20
2649.267737990017
 30
0.0
 10
4991.531514619881
 20
2649.267737990017
 30
0.0
 10
4991.531705690912
 20
2649.267737990017
 30
0.0
 10
4991.531811902902
 20
2649.267737990017
 30
0.0
 10
4991.532034923739
 20
2649.267737990017
 30
0.0
 10
4991.532152603012
 20
2649.267737990017
 30
0.0
 10
4991.532400362507
 20
2649.267737990017
 30
0.0
 10
4991.532529558163
 20
2649.267737990017
 30
0.0
 10
4991.532789641599
 20
2649.267737990017
 30
0.0
 10
4991.532921752769
 20
2649.267737990017
 30
0.0
 10
4991.533056015456
 20
2649.267737990017
 30
0.0
  0
ARC
  5
14FD
330
1F
100
AcDbEntity
  8
SANINDUSA
100
AcDbCircle
 10
4991.53100211638
 20
2649.264738037097
 30
0.0
 40
0.0029999529195155
100
AcDbArc
 50
90.00017988443763
 51
166.8416733894939
  0
CIRCLE
  5
14FE
330
1F
100
AcDbEntity
  8
SANINDUSA
100
AcDbCircle
 10
4991.741912933285
 20
2649.207737990017
 30
0.0
 40
0.0075
  0
CIRCLE
  5
1500
330
1F
100
AcDbEntity
  8
SANINDUSA
100
AcDbCircle
 10
4991.586912933286
 20
2649.207737990017
 30
0.0
 40
0.0075
  0
LINE
  5
1501
330
1F
100
AcDbEntity
  8
SANINDUSA
100
AcDbLine
 10
4991.533056008513
 20
2649.267737990017
 30
0.0
 11
4991.795769858058
 21
2649.267737990017
 31
0.0
  0
SPLINE
  5
1510
330
1F
100
AcDbEntity
  8
SANINDUSA
100
AcDbSpline
210
0.0
220
0.0
230
1.0
 70
     8
 71
     3
 72
    16
 73
    12
 74
     0
 42
0.0000000001
 43
0.0000000001
 40
0.0
 40
0.0
 40
0.0
 40
0.0
 40
0.2499999999999996
 40
0.2499999999999996
 40
0.3749999999999995
 40
0.3749999999999995
 40
0.4374999999999995
 40
0.4374999999999995
 40
0.4999999999999993
 40
0.4999999999999993
 40
1.0
 40
1.0
 40
1.0
 40
1.0
 10
4991.706643275084
 20
2649.034689292032
 30
0.0
 10
4991.706623185327
 20
2649.025424205508
 30
0.0
 10
4991.706643102149
 20
2649.016110207009
 30
0.0
 10
4991.706728794889
 20
2649.002070966878
 30
0.0
 10
4991.706766649631
 20
2648.997379861622
 30
0.0
 10
4991.706837020375
 20
2648.990326590305
 30
0.0
 10
4991.706862779228
 20
2648.98797268552
 30
0.0
 10
4991.706919098137
 20
2648.983259006007
 30
0.0
 10
4991.706949705645
 20
2648.980896513022
 30
0.0
 10
4991.707245453016
 20
2648.95976157541
 30
0.0
 10
4991.707654505063
 20
2648.941636122649
 30
0.0
 10
4991.708214599461
 20
2648.924193888067
 30
0.0
  0
SPLINE
  5
1513
330
1F
100
AcDbEntity
  8
SANINDUSA
100
AcDbSpline
210
0.0
220
0.0
230
1.0
 70
     8
 71
     3
 72
    16
 73
    12
 74
     0
 42
0.0000000001
 43
0.0000000001
 40
0.0
 40
0.0
 40
0.0
 40
0.0
 40
0.2499999999999996
 40
0.2499999999999996
 40
0.3749999999999995
 40
0.3749999999999995
 40
0.4374999999999995
 40
0.4374999999999995
 40
0.4999999999999993
 40
0.4999999999999993
 40
1.0
 40
1.0
 40
1.0
 40
1.0
 10
4991.622182591488
 20
2649.034689292032
 30
0.0
 10
4991.622202681245
 20
2649.025424205508
 30
0.0
 10
4991.622182764422
 20
2649.016110207009
 30
0.0
 10
4991.622097071684
 20
2649.002070966878
 30
0.0
 10
4991.62205921694
 20
2648.997379861622
 30
0.0
 10
4991.621988846197
 20
2648.990326590305
 30
0.0
 10
4991.621963087344
 20
2648.98797268552
 30
0.0
 10
4991.621906768434
 20
2648.983259006007
 30
0.0
 10
4991.621876160927
 20
2648.980896513022
 30
0.0
 10
4991.621580413556
 20
2648.95976157541
 30
0.0
 10
4991.621171361508
 20
2648.941636122649
 30
0.0
 10
4991.62061126711
 20
2648.924193888067
 30
0.0
  0
ARC
  5
1530
330
1F
100
AcDbEntity
  8
SANINDUSA
100
AcDbCircle
 10
4991.691593206373
 20
2649.034416298341
 30
0.0
 40
0.0150525443160319
100
AcDbArc
 50
1.039197548473277
 51
89.01103833447622
  0
ARC
  5
1531
330
1F
100
AcDbEntity
  8
SANINDUSA
100
AcDbCircle
 10
4991.637232660199
 20
2649.034416298341
 30
0.0
 40
0.0150525443160318
100
AcDbArc
 50
90.98896166552377
 51
178.9608024515267
  0
SPLINE
  5
153A
330
1F
100
AcDbEntity
  8
SANINDUSA
100
AcDbSpline
210
0.0
220
0.0
230
1.0
 70
     8
 71
     3
 72
    16
 73
    12
 74
     0
 42
0.0000000001
 43
0.0000000001
 40
0.0
 40
0.0
 40
0.0
 40
0.0
 40
0.0325758793358652
 40
0.1852293875348368
 40
0.3383555716084637
 40
0.4474837121591612
 40
0.556673372356558
 40
0.6658023658617431
 40
0.777192747429596
 40
0.8886427162013966
 40
1.0
 40
1.0
 40
1.0
 40
1.0
 10
4991.733023564216
 20
2648.851611291761
 30
0.0
 10
4991.732683717664
 20
2648.852172161233
 30
0.0
 10
4991.730751319527
 20
2648.855361315629
 30
0.0
 10
4991.726933790034
 20
2648.861605853922
 30
0.0
 10
4991.722479378785
 20
2648.870209775747
 30
0.0
 10
4991.718809158129
 20
2648.878699454859
 30
0.0
 10
4991.715862691098
 20
2648.886732266296
 30
0.0
 10
4991.713232685845
 20
2648.895339086651
 30
0.0
 10
4991.710978756231
 20
2648.904496875158
 30
0.0
 10
4991.709159044631
 20
2648.91412065184
 30
0.0
 10
4991.70852932662
 20
2648.920837078104
 30
0.0
 10
4991.708214598592
 20
2648.924193894262
 30
0.0
  0
SPLINE
  5
153B
330
1F
100
AcDbEntity
  8
SANINDUSA
100
AcDbSpline
210
0.0
220
0.0
230
1.0
 70
     8
 71
     3
 72
    16
 73
    12
 74
     0
 42
0.0000000001
 43
0.0000000001
 40
0.0
 40
0.0
 40
0.0
 40
0.0
 40
0.0325758793358652
 40
0.1852293875348368
 40
0.3383555716084637
 40
0.4474837121591612
 40
0.556673372356558
 40
0.6658023658617431
 40
0.777192747429596
 40
0.8886427162013966
 40
1.0
 40
1.0
 40
1.0
 40
1.0
 10
4991.595802302357
 20
2648.851611291761
 30
0.0
 10
4991.596142148907
 20
2648.852172161233
 30
0.0
 10
4991.598074547044
 20
2648.855361315629
 30
0.0
 10
4991.601892076538
 20
2648.861605853922
 30
0.0
 10
4991.606346487786
 20
2648.870209775747
 30
0.0
 10
4991.610016708442
 20
2648.878699454859
 30
0.0
 10
4991.612963175474
 20
2648.886732266296
 30
0.0
 10
4991.615593180728
 20
2648.895339086651
 30
0.0
 10
4991.617847110341
 20
2648.904496875158
 30
0.0
 10
4991.619666821942
 20
2648.91412065184
 30
0.0
 10
4991.620296539952
 20
2648.920837078104
 30
0.0
 10
4991.62061126798
 20
2648.924193894262
 30
0.0
  0
SPLINE
  5
15AA
330
1F
100
AcDbEntity
  8
SANINDUSA
100
AcDbSpline
210
0.0
220
0.0
230
1.0
 70
     8
 71
     3
 72
    27
 73
    23
 74
     0
 42
0.0000000001
 43
0.0000000001
 40
0.0
 40
0.0
 40
0.0
 40
0.0
 40
0.0551999376347869
 40
0.1154302281419831
 40
0.1734324678270869
 40
0.2425576077451963
 40
0.3064411255472653
 40
0.3643356979671712
 40
0.4156597703641103
 40
0.4510924390467559
 40
0.4820478262505425
 40
0.5099188646270633
 40
0.541266031579813
 40
0.5850073667036639
 40
0.6350865390930244
 40
0.691510908278307
 40
0.7542371450914104
 40
0.8231518178177058
 40
0.8760626426281385
 40
0.9319307503458791
 40
0.9906303029595166
 40
0.9999999999999998
 40
0.9999999999999998
 40
0.9999999999999998
 40
0.9999999999999998
 10
4992.303924484057
 20
2649.022298732323
 30
0.0
 10
4992.306876791634
 20
2649.023795426431
 30
0.0
 10
4992.313050449641
 20
2649.02692520791
 30
0.0
 10
4992.321725219849
 20
2649.032686251106
 30
0.0
 10
4992.330656609507
 20
2649.039496716931
 30
0.0
 10
4992.339232892856
 20
2649.047096395873
 30
0.0
 10
4992.34728433596
 20
2649.055233070258
 30
0.0
 10
4992.354161279901
 20
2649.063006626657
 30
0.0
 10
4992.359595858154
 20
2649.069764659303
 30
0.0
 10
4992.363817456127
 20
2649.075418376158
 30
0.0
 10
4992.367074973504
 20
2649.080034820912
 30
0.0
 10
4992.370086668188
 20
2649.08452296072
 30
0.0
 10
4992.373404431829
 20
2649.089726495728
 30
0.0
 10
4992.377250507406
 20
2649.096168457131
 30
0.0
 10
4992.381584284931
 20
2649.104062849427
 30
0.0
 10
4992.3860993384
 20
2649.113146037249
 30
0.0
 10
4992.390656464973
 20
2649.123456224684
 30
0.0
 10
4992.394611743884
 20
2649.133786219906
 30
0.0
 10
4992.397958972534
 20
2649.143895481259
 30
0.0
 10
4992.400652417595
 20
2649.153559103593
 30
0.0
 10
4992.402446229679
 20
2649.160771626581
 30
0.0
 10
4992.403152341521
 20
2649.164786999464
 30
0.0
 10
4992.403249537451
 20
2649.165339713467
 30
0.0
  0
SPLINE
  5
15AB
330
1F
100
AcDbEntity
  8
SANINDUSA
100
AcDbSpline
210
0.0
220
0.0
230
1.0
 70
     8
 71
     3
 72
    28
 73
    24
 74
     0
 42
0.0000000001
 43
0.0000000001
 40
0.0
 40
0.0
 40
0.0
 40
0.0
 40
0.0050890886707476
 40
0.0601091692027724
 40
0.1112128979363008
 40
0.1582838725357692
 40
0.2012357607074882
 40
0.2400093938549394
 40
0.2745688215773937
 40
0.3048969192640678
 40
0.3343448434677498
 40
0.3758984358389987
 40
0.4242437322280131
 40
0.4792021035630043
 40
0.5404979005058286
 40
0.6077190033799582
 40
0.6678574430829633
 40
0.731289073235789
 40
0.7974986257716975
 40
0.8486311310296418
 40
0.9007273906715493
 40
0.9535156927893096
 40
1.0
 40
1.0
 40
1.0
 40
1.0
 10
4992.055043002469
 20
2649.16530055694
 30
0.0
 10
4992.055095444058
 20
2649.165000373015
 30
0.0
 10
4992.05571485168
 20
2649.161454786069
 30
0.0
 10
4992.057299776782
 20
2649.154978486457
 30
0.0
 10
4992.059687536603
 20
2649.146121116177
 30
0.0
 10
4992.062248028457
 20
2649.138063037217
 30
0.0
 10
4992.064831503646
 20
2649.130793279787
 30
0.0
 10
4992.067371530353
 20
2649.124306587379
 30
0.0
 10
4992.069796153821
 20
2649.118589347625
 30
0.0
 10
4992.072130415843
 20
2649.11344231245
 30
0.0
 10
4992.074762809433
 20
2649.107971481353
 30
0.0
 10
4992.078036981843
 20
2649.101612700278
 30
0.0
 10
4992.0822747913
 20
2649.094035387123
 30
0.0
 10
4992.087430542941
 20
2649.085623619595
 30
0.0
 10
4992.093600938808
 20
2649.07651914398
 30
0.0
 10
4992.100421972241
 20
2649.06749705195
 30
0.0
 10
4992.107798013693
 20
2649.058756155443
 30
0.0
 10
4992.1156015521
 20
2649.050475993524
 30
0.0
 10
4992.123513055642
 20
2649.043066239663
 30
0.0
 10
4992.131342270515
 20
2649.036593464706
 30
0.0
 10
4992.138908011273
 20
2649.03109731195
 30
0.0
 10
4992.146564429852
 20
2649.026209395406
 30
0.0
 10
4992.151883317848
 20
2649.023540843567
 30
0.0
 10
4992.154373882217
 20
2649.022291296644
 30
0.0
  0
SPLINE
  5
15AC
330
1F
100
AcDbEntity
  8
SANINDUSA
100
AcDbSpline
210
0.0
220
0.0
230
1.0
 70
     8
 71
     3
 72
    21
 73
    17
 74
     0
 42
0.0000000001
 43
0.0000000001
 40
0.0
 40
0.0
 40
0.0
 40
0.0
 40
0.1231357138696467
 40
0.2339678824557055
 40
0.3310025467767478
 40
0.413242247841387
 40
0.4800935806475822
 40
0.5355149030132971
 40
0.6266601021542029
 40
0.6924644852684287
 40
0.7469418872718521
 40
0.8192750599888142
 40
0.881111782512754
 40
0.9336813654338433
 40
0.9788070444678156
 40
0.9999999999999998
 40
0.9999999999999998
 40
0.9999999999999998
 40
0.9999999999999998
 10
4992.154356626673
 20
2649.022249394578
 30
0.0
 10
4992.155780843703
 20
2649.021503734682
 30
0.0
 10
4992.158486972027
 20
2649.020086920166
 30
0.0
 10
4992.1619863846
 20
2649.01754099568
 30
0.0
 10
4992.164823736513
 20
2649.015039411786
 30
0.0
 10
4992.167029268528
 20
2649.012712422284
 30
0.0
 10
4992.168714391258
 20
2649.010654785396
 30
0.0
 10
4992.170335238594
 20
2649.008415714467
 30
0.0
 10
4992.171780212992
 20
2649.006083792492
 30
0.0
 10
4992.172996902269
 20
2649.003743689685
 30
0.0
 10
4992.173948508245
 20
2649.001637646217
 30
0.0
 10
4992.174737412941
 20
2648.999585923926
 30
0.0
 10
4992.175354848647
 20
2648.997648561035
 30
0.0
 10
4992.175749669574
 20
2648.996182453422
 30
0.0
 10
4992.175959832719
 20
2648.99527891828
 30
0.0
 10
4992.176018707677
 20
2648.995004126869
 30
0.0
 10
4992.176037521912
 20
2648.99491631381
 30
0.0
  0
SPLINE
  5
15AD
330
1F
100
AcDbEntity
  8
SANINDUSA
100
AcDbSpline
210
0.0
220
0.0
230
1.0
 70
     8
 71
     3
 72
    21
 73
    17
 74
     0
 42
0.0000000001
 43
0.0000000001
 40
0.0
 40
0.0
 40
0.0
 40
0.0
 40
0.0445130438543854
 40
0.157486083383123
 40
0.249694581583505
 40
0.3226342308894663
 40
0.3785837885151426
 40
0.4287319653796305
 40
0.4901518670291624
 40
0.5664870137133569
 40
0.601658965385307
 40
0.652267544213574
 40
0.71816666907883
 40
0.7988594179136431
 40
0.893351894045837
 40
1.0
 40
1.0
 40
1.0
 40
1.0
 10
4992.282214881732
 20
2648.994953372997
 30
0.0
 10
4992.282216886708
 20
2648.994932762673
 30
0.0
 10
4992.28222398027
 20
2648.994859843841
 30
0.0
 10
4992.282314584985
 20
2648.995222547999
 30
0.0
 10
4992.282507740484
 20
2648.996006032489
 30
0.0
 10
4992.282809439114
 20
2648.997146230624
 30
0.0
 10
4992.283238131461
 20
2648.998594464907
 30
0.0
 10
4992.284007368634
 20
2649.000802685733
 30
0.0
 10
4992.28523479681
 20
2649.003678813472
 30
0.0
 10
4992.286665395474
 20
2649.006338176377
 30
0.0
 10
4992.28820666195
 20
2649.008752408402
 30
0.0
 10
4992.289781854348
 20
2649.010933894822
 30
0.0
 10
4992.292047018064
 20
2649.013609312265
 30
0.0
 10
4992.29513136408
 20
2649.016589572079
 30
0.0
 10
4992.299103722428
 20
2649.019676904564
 30
0.0
 10
4992.302267597503
 20
2649.021358032425
 30
0.0
 10
4992.303945137066
 20
2649.022249394578
 30
0.0
  0
SPLINE
  5
15B0
330
1F
100
AcDbEntity
  8
SANINDUSA
100
AcDbSpline
210
0.0
220
0.0
230
1.0
 70
     8
 71
     3
 72
    27
 73
    23
 74
     0
 42
0.0000000001
 43
0.0000000001
 40
0.0
 40
0.0
 40
0.0
 40
0.0
 40
0.0086990594782713
 40
0.0821309868978707
 40
0.1559408116198039
 40
0.2300466616489239
 40
0.3043920294300171
 40
0.3789869112163541
 40
0.4538741022941511
 40
0.5294995984878045
 40
0.6080072255828794
 40
0.6926155602589035
 40
0.7478028588190715
 40
0.7866051900745569
 40
0.8101551355396129
 40
0.8320141361661287
 40
0.8534556112640903
 40
0.8763953598304933
 40
0.9038757717017844
 40
0.9378336812686505
 40
0.9769043015977093
 40
1.0
 40
1.0
 40
1.0
 40
1.0
 10
4992.181111520036
 20
2648.917018243594
 30
0.0
 10
4992.181120286512
 20
2648.916883423432
 30
0.0
 10
4992.181203054006
 20
2648.915610537214
 30
0.0
 10
4992.181351565966
 20
2648.913377539594
 30
0.0
 10
4992.181555293515
 20
2648.910350103354
 30
0.0
 10
4992.181747443504
 20
2648.907560482928
 30
0.0
 10
4992.181928012363
 20
2648.905002137737
 30
0.0
 10
4992.182095838885
 20
2648.902696110156
 30
0.0
 10
4992.182250652411
 20
2648.90064849065
 30
0.0
 10
4992.182394298721
 20
2648.898839213447
 30
0.0
 10
4992.182531410216
 20
2648.897225813773
 30
0.0
 10
4992.182649846025
 20
2648.895965819912
 30
0.0
 10
4992.182760656661
 20
2648.894943626351
 30
0.0
 10
4992.182863951679
 20
2648.894125489827
 30
0.0
 10
4992.18298016907
 20
2648.893343278917
 30
0.0
 10
4992.183117223319
 20
2648.892545178623
 30
0.0
 10
4992.183314306629
 20
2648.891570287152
 30
0.0
 10
4992.183604445951
 20
2648.890369970472
 30
0.0
 10
4992.184039612228
 20
2648.888878377753
 30
0.0
 10
4992.184691752622
 20
2648.887086043375
 30
0.0
 10
4992.185425782878
 20
2648.885389810534
 30
0.0
 10
4992.186018823979
 20
2648.884347057784
 30
0.0
 10
4992.186239147438
 20
2648.883959659857
 30
0.0
  0
SPLINE
  5
15B2
330
1F
100
AcDbEntity
  8
SANINDUSA
100
AcDbSpline
210
0.0
220
0.0
230
1.0
 70
     8
 71
     3
 72
    28
 73
    24
 74
     0
 42
0.0000000001
 43
0.0000000001
 40
0.0
 40
0.0
 40
0.0
 40
0.0
 40
0.0002221921769312
 40
0.037494331995355
 40
0.071857734505318
 40
0.1021107515087543
 40
0.1275717320958063
 40
0.1492696941550866
 40
0.1692487273881777
 40
0.1897299781196279
 40
0.2123719128011201
 40
0.2398505657498702
 40
0.2762668702146707
 40
0.3303409881622267
 40
0.4217652661403094
 40
0.5005577700568528
 40
0.575897084755975
 40
0.6556603489111782
 40
0.7329278752804886
 40
0.8096089842564392
 40
0.8860691995051269
 40
0.9623799253661392
 40
1.0
 40
1.0
 40
1.0
 40
1.0
 10
4992.27215871389
 20
2648.884081551356
 30
0.0
 10
4992.272160867881
 20
2648.884085127225
 30
0.0
 10
4992.272524348066
 20
2648.884688545583
 30
0.0
 10
4992.273094367282
 20
2648.885911984875
 30
0.0
 10
4992.273834998331
 20
2648.887659110385
 30
0.0
 10
4992.274367671321
 20
2648.889226186176
 30
0.0
 10
4992.274742775727
 20
2648.890548677258
 30
0.0
 10
4992.274999167583
 20
2648.891629153509
 30
0.0
 10
4992.275178294639
 20
2648.89251556274
 30
0.0
 10
4992.275308172725
 20
2648.893261763277
 30
0.0
 10
4992.275408694377
 20
2648.893924155529
 30
0.0
 10
4992.275494384781
 20
2648.894566275541
 30
0.0
 10
4992.275579306554
 20
2648.89528672747
 30
0.0
 10
4992.275683384306
 20
2648.896287143328
 30
0.0
 10
4992.275802088336
 20
2648.897585943806
 30
0.0
 10
4992.275942414941
 20
2648.89927038746
 30
0.0
 10
4992.276088446186
 20
2648.901133977935
 30
0.0
 10
4992.276247480529
 20
2648.903258913159
 30
0.0
 10
4992.276421821323
 20
2648.905676289285
 30
0.0
 10
4992.276606809462
 20
2648.908315413233
 30
0.0
 10
4992.276803870909
 20
2648.911198547935
 30
0.0
 10
4992.276975201177
 20
2648.913747232315
 30
0.0
 10
4992.277084234971
 20
2648.915407685997
 30
0.0
 10
4992.277120238049
 20
2648.915955969614
 30
0.0
  0
SPLINE
  5
15B5
330
1F
100
AcDbEntity
  8
SANINDUSA
100
AcDbSpline
210
0.0
220
0.0
230
1.0
 70
    24
 71
     3
 72
    52
 73
    48
 74
     0
 42
0.0000000001
 43
0.0000000001
 40
0.0
 40
0.0
 40
0.0
 40
0.0
 40
0.062499999999999
 40
0.062499999999999
 40
0.124999999999998
 40
0.124999999999998
 40
0.187499999999997
 40
0.187499999999997
 40
0.2187499999999968
 40
0.2187499999999968
 40
0.2499999999999965
 40
0.2499999999999965
 40
0.3124999999999961
 40
0.3124999999999961
 40
0.3749999999999956
 40
0.3749999999999956
 40
0.4374999999999952
 40
0.4374999999999952
 40
0.4687499999999951
 40
0.4687499999999951
 40
0.4843749999999952
 40
0.4843749999999952
 40
0.4999999999999952
 40
0.4999999999999952
 40
0.562499999999996
 40
0.562499999999996
 40
0.6249999999999967
 40
0.6249999999999967
 40
0.6874999999999975
 40
0.6874999999999975
 40
0.7031249999999975
 40
0.7031249999999975
 40
0.7187499999999974
 40
0.7187499999999974
 40
0.7499999999999975
 40
0.7499999999999975
 40
0.8124999999999978
 40
0.8124999999999978
 40
0.8437499999999982
 40
0.8437499999999982
 40
0.8593749999999984
 40
0.8593749999999984
 40
0.8749999999999985
 40
0.8749999999999985
 40
0.9374999999999992
 40
0.9374999999999992
 40
1.0
 40
1.0
 40
1.0
 40
1.0
 10
4992.056385392191
 20
2649.213557609839
 30
0.0
 10
4992.056379656455
 20
2649.213557609839
 30
0.0
 10
4992.056684371672
 20
2649.213557609839
 30
0.0
 10
4992.057840031113
 20
2649.213557609839
 30
0.0
 10
4992.058691370406
 20
2649.213557609839
 30
0.0
 10
4992.060893458864
 20
2649.213557609839
 30
0.0
 10
4992.062244472043
 20
2649.213557609839
 30
0.0
 10
4992.064633023296
 20
2649.213557609839
 30
0.0
 10
4992.065489634335
 20
2649.213557609839
 30
0.0
 10
4992.067322605918
 20
2649.213557609839
 30
0.0
 10
4992.06830018117
 20
2649.213557609839
 30
0.0
 10
4992.071387384044
 20
2649.213557609839
 30
0.0
 10
4992.073657211237
 20
2649.213557609839
 30
0.0
 10
4992.078610346147
 20
2649.213557609839
 30
0.0
 10
4992.081293675431
 20
2649.213557609839
 30
0.0
 10
4992.087073439366
 20
2649.213557609839
 30
0.0
 10
4992.090169669092
 20
2649.213557609839
 30
0.0
 10
4992.095139932248
 20
2649.213557609839
 30
0.0
 10
4992.096851094895
 20
2649.213557609839
 30
0.0
 10
4992.099502365383
 20
2649.213557609839
 30
0.0
 10
4992.100401161106
 20
2649.213557609839
 30
0.0
 10
4992.102221358838
 20
2649.213557609839
 30
0.0
 10
4992.103142931597
 20
2649.213557609839
 30
0.0
 10
4992.107808314157
 20
2649.213557609839
 30
0.0
 10
4992.111724106769
 20
2649.213557609839
 30
0.0
 10
4992.11994359467
 20
2649.213557609839
 30
0.0
 10
4992.124247236716
 20
2649.213557609839
 30
0.0
 10
4992.133274472918
 20
2649.213557609839
 30
0.0
 10
4992.13799739229
 20
2649.213557609839
 30
0.0
 10
4992.144198027094
 20
2649.213557609839
 30
0.0
 10
4992.145454916846
 20
2649.213557609839
 30
0.0
 10
4992.147989546222
 20
2649.213557609839
 30
0.0
 10
4992.149266663488
 20
2649.213557609839
 30
0.0
 10
4992.15312784453
 20
2649.213557609839
 30
0.0
 10
4992.155741715665
 20
2649.213557609839
 30
0.0
 10
4992.16370672345
 20
2649.213557609839
 30
0.0
 10
4992.169180504268
 20
2649.213557609839
 30
0.0
 10
4992.177660730502
 20
2649.213557609839
 30
0.0
 10
4992.180532616972
 20
2649.213557609839
 30
0.0
 10
4992.184911967312
 20
2649.213557609839
 30
0.0
 10
4992.186383684321
 20
2649.213557609839
 30
0.0
 10
4992.189351807791
 20
2649.213557609839
 30
0.0
 10
4992.190849402724
 20
2649.213557609839
 30
0.0
 10
4992.198345582377
 20
2649.213557609839
 30
0.0
 10
4992.204409798553
 20
2649.213557609839
 30
0.0
 10
4992.216675751954
 20
2649.213557609839
 30
0.0
 10
4992.222877529401
 20
2649.213557609839
 30
0.0
 10
4992.22915088187
 20
2649.213557609839
 30
0.0
  0
ARC
  5
15B7
330
1F
100
AcDbEntity
  8
SANINDUSA
100
AcDbCircle
 10
4992.056385397428
 20
2649.208557605448
 30
0.0
 40
0.0050000043898874
100
AcDbArc
 50
90.00010255288911
 51
177.7399270825409
  0
SPLINE
  5
15B9
330
1F
100
AcDbEntity
  8
SANINDUSA
100
AcDbSpline
210
0.0
220
0.0
230
1.0
 70
    24
 71
     3
 72
    52
 73
    48
 74
     0
 42
0.0000000001
 43
0.0000000001
 40
0.0
 40
0.0
 40
0.0
 40
0.0
 40
0.062499999999999
 40
0.062499999999999
 40
0.124999999999998
 40
0.124999999999998
 40
0.187499999999997
 40
0.187499999999997
 40
0.2187499999999968
 40
0.2187499999999968
 40
0.2499999999999965
 40
0.2499999999999965
 40
0.3124999999999961
 40
0.3124999999999961
 40
0.3749999999999956
 40
0.3749999999999956
 40
0.4374999999999952
 40
0.4374999999999952
 40
0.4687499999999951
 40
0.4687499999999951
 40
0.4843749999999952
 40
0.4843749999999952
 40
0.4999999999999952
 40
0.4999999999999952
 40
0.562499999999996
 40
0.562499999999996
 40
0.6249999999999967
 40
0.6249999999999967
 40
0.6874999999999975
 40
0.6874999999999975
 40
0.7031249999999975
 40
0.7031249999999975
 40
0.7187499999999974
 40
0.7187499999999974
 40
0.7499999999999975
 40
0.7499999999999975
 40
0.8124999999999978
 40
0.8124999999999978
 40
0.8437499999999982
 40
0.8437499999999982
 40
0.8593749999999984
 40
0.8593749999999984
 40
0.8749999999999985
 40
0.8749999999999985
 40
0.9374999999999992
 40
0.9374999999999992
 40
1.0
 40
1.0
 40
1.0
 40
1.0
 10
4992.401916371548
 20
2649.213557609839
 30
0.0
 10
4992.401922107283
 20
2649.213557609839
 30
0.0
 10
4992.401617392066
 20
2649.213557609839
 30
0.0
 10
4992.400461732625
 20
2649.213557609839
 30
0.0
 10
4992.399610393333
 20
2649.213557609839
 30
0.0
 10
4992.397408304875
 20
2649.213557609839
 30
0.0
 10
4992.396057291696
 20
2649.213557609839
 30
0.0
 10
4992.393668740444
 20
2649.213557609839
 30
0.0
 10
4992.392812129404
 20
2649.213557609839
 30
0.0
 10
4992.390979157821
 20
2649.213557609839
 30
0.0
 10
4992.390001582569
 20
2649.213557609839
 30
0.0
 10
4992.386914379695
 20
2649.213557609839
 30
0.0
 10
4992.384644552501
 20
2649.213557609839
 30
0.0
 10
4992.379691417592
 20
2649.213557609839
 30
0.0
 10
4992.377008088308
 20
2649.213557609839
 30
0.0
 10
4992.371228324373
 20
2649.213557609839
 30
0.0
 10
4992.368132094648
 20
2649.213557609839
 30
0.0
 10
4992.363161831491
 20
2649.213557609839
 30
0.0
 10
4992.361450668844
 20
2649.213557609839
 30
0.0
 10
4992.358799398356
 20
2649.213557609839
 30
0.0
 10
4992.357900602634
 20
2649.213557609839
 30
0.0
 10
4992.3560804049
 20
2649.213557609839
 30
0.0
 10
4992.355158832142
 20
2649.213557609839
 30
0.0
 10
4992.350493449581
 20
2649.213557609839
 30
0.0
 10
4992.34657765697
 20
2649.213557609839
 30
0.0
 10
4992.33835816907
 20
2649.213557609839
 30
0.0
 10
4992.334054527024
 20
2649.213557609839
 30
0.0
 10
4992.325027290822
 20
2649.213557609839
 30
0.0
 10
4992.32030437145
 20
2649.213557609839
 30
0.0
 10
4992.314103736645
 20
2649.213557609839
 30
0.0
 10
4992.312846846894
 20
2649.213557609839
 30
0.0
 10
4992.310312217516
 20
2649.213557609839
 30
0.0
 10
4992.309035100252
 20
2649.213557609839
 30
0.0
 10
4992.305173919209
 20
2649.213557609839
 30
0.0
 10
4992.302560048074
 20
2649.213557609839
 30
0.0
 10
4992.29459504029
 20
2649.213557609839
 30
0.0
 10
4992.289121259471
 20
2649.213557609839
 30
0.0
 10
4992.280641033238
 20
2649.213557609839
 30
0.0
 10
4992.277769146768
 20
2649.213557609839
 30
0.0
 10
4992.273389796428
 20
2649.213557609839
 30
0.0
 10
4992.271918079417
 20
2649.213557609839
 30
0.0
 10
4992.268949955949
 20
2649.213557609839
 30
0.0
 10
4992.267452361015
 20
2649.213557609839
 30
0.0
 10
4992.259956181364
 20
2649.213557609839
 30
0.0
 10
4992.253891965187
 20
2649.213557609839
 30
0.0
 10
4992.241626011786
 20
2649.213557609839
 30
0.0
 10
4992.235424234338
 20
2649.213557609839
 30
0.0
 10
4992.22915088187
 20
2649.213557609839
 30
0.0
  0
ARC
  5
15BA
330
1F
100
AcDbEntity
  8
SANINDUSA
100
AcDbCircle
 10
4992.40191636631
 20
2649.208557605448
 30
0.0
 40
0.0050000043898872
100
AcDbArc
 50
2.260072917459026
 51
89.99989744711088
  0
SPLINE
  5
15BB
330
1F
100
AcDbEntity
  8
SANINDUSA
100
AcDbSpline
210
0.0
220
0.0
230
1.0
 70
     8
 71
     3
 72
    12
 73
     8
 74
     0
 42
0.0000000001
 43
0.0000000001
 40
0.0
 40
0.0
 40
0.0
 40
0.0
 40
0.2170211386568534
 40
0.4098627540426777
 40
0.4755152946950217
 40
0.7377712889568884
 40
1.0
 40
1.0
 40
1.0
 40
1.0
 10
4992.403243442876
 20
2649.165340804977
 30
0.0
 10
4992.403854415973
 20
2649.168442076896
 30
0.0
 10
4992.40500829028
 20
2649.174299090909
 30
0.0
 10
4992.405688495534
 20
2649.181192565507
 30
0.0
 10
4992.406661922548
 20
2649.18870966385
 30
0.0
 10
4992.407098508667
 20
2649.197305609432
 30
0.0
 10
4992.406974488266
 20
2649.204938524194
 30
0.0
 10
4992.406912481292
 20
2649.208754783046
 30
0.0
  0
SPLINE
  5
15BD
330
1F
100
AcDbEntity
  8
SANINDUSA
100
AcDbSpline
210
0.0
220
0.0
230
1.0
 70
     8
 71
     3
 72
    12
 73
     8
 74
     0
 42
0.0000000001
 43
0.0000000001
 40
0.0
 40
0.0
 40
0.0
 40
0.0
 40
0.2176823733139681
 40
0.4078683159755081
 40
0.4759582280633044
 40
0.7379927441205336
 40
1.0
 40
1.0
 40
1.0
 40
1.0
 10
4992.055064832671
 20
2649.165304475946
 30
0.0
 10
4992.054451136906
 20
2649.168417776257
 30
0.0
 10
4992.053301264025
 20
2649.174251122043
 30
0.0
 10
4992.052618141396
 20
2649.181156583797
 30
0.0
 10
4992.051642705867
 20
2649.18867343482
 30
0.0
 10
4992.051202886796
 20
2649.197305568936
 30
0.0
 10
4992.051327152719
 20
2649.204938510696
 30
0.0
 10
4992.051389282448
 20
2649.208754783046
 30
0.0
  0
SPLINE
  5
15CD
330
1F
100
AcDbEntity
  8
SANINDUSA
100
AcDbSpline
210
0.0
220
0.0
230
1.0
 70
    24
 71
     3
 72
    11
 73
     7
 74
     0
 42
0.0000000001
 43
0.0000000001
 40
0.0
 40
0.0
 40
0.0
 40
0.0
 40
0.0699092376564625
 40
0.5348415189848391
 40
0.7674224647884067
 40
1.0
 40
1.0
 40
1.0
 40
1.0
 10
4992.181092848881
 20
2648.917325445932
 30
0.0
 10
4992.180967357839
 20
2648.919244010226
 30
0.0
 10
4992.180007287021
 20
2648.933922010956
 30
0.0
 10
4992.178623067079
 20
2648.955123028456
 30
0.0
 10
4992.176930655461
 20
2648.981132329784
 30
0.0
 10
4992.17607569003
 20
2648.994323550492
 30
0.0
 10
4992.175648210449
 20
2649.000919112486
 30
0.0
  0
SPLINE
  5
15CE
330
1F
100
AcDbEntity
  8
SANINDUSA
100
AcDbSpline
210
0.0
220
0.0
230
1.0
 70
    24
 71
     3
 72
    11
 73
     7
 74
     0
 42
0.0000000001
 43
0.0000000001
 40
0.0
 40
0.0
 40
0.0
 40
0.0
 40
0.0699092376564625
 40
0.5348415189848391
 40
0.7674224647884067
 40
1.0
 40
1.0
 40
1.0
 40
1.0
 10
4992.27720891486
 20
2648.917325445932
 30
0.0
 10
4992.277334405899
 20
2648.919244010226
 30
0.0
 10
4992.278294476718
 20
2648.933922010956
 30
0.0
 10
4992.279678696661
 20
2648.955123028456
 30
0.0
 10
4992.281371108277
 20
2648.981132329784
 30
0.0
 10
4992.282226073708
 20
2648.994323550492
 30
0.0
 10
4992.28265355329
 20
2649.000919112486
 30
0.0
  0
LINE
  5
15DA
330
1F
100
AcDbEntity
  8
SANINDUSA
100
AcDbLine
 10
4992.210783379031
 20
2648.865557888073
 30
0.0
 11
4992.247518384708
 21
2648.865557888073
 31
0.0
  0
SPLINE
  5
15DF
330
1F
100
AcDbEntity
  8
SANINDUSA
100
AcDbSpline
210
0.0
220
0.0
230
1.0
 70
     8
 71
     3
 72
    13
 73
     9
 74
     0
 42
0.0000000001
 43
0.0000000001
 40
0.0
 40
0.0
 40
0.0
 40
0.0
 40
0.1681449348663747
 40
0.3363276911464088
 40
0.504477556963546
 40
0.6738836325028978
 40
0.8433225282111475
 40
1.0
 40
1.0
 40
1.0
 40
1.0
 10
4992.174059880777
 20
2648.889662691874
 30
0.0
 10
4992.170101926167
 20
2648.898408094308
 30
0.0
 10
4992.162185126673
 20
2648.915900866309
 30
0.0
 10
4992.151301663472
 20
2648.942569781181
 30
0.0
 10
4992.141095296346
 20
2648.969578732084
 30
0.0
 10
4992.13165051828
 20
2648.99693883343
 30
0.0
 10
4992.123107595369
 20
2649.023910844629
 30
0.0
 10
4992.11815902246
 20
2649.041858326231
 30
0.0
 10
4992.115781558556
 20
2649.050480911059
 30
0.0
  0
SPLINE
  5
15E1
330
1F
100
AcDbEntity
  8
SANINDUSA
100
AcDbSpline
210
0.0
220
0.0
230
1.0
 70
     8
 71
     3
 72
    13
 73
     9
 74
     0
 42
0.0000000001
 43
0.0000000001
 40
0.0
 40
0.0
 40
0.0
 40
0.0
 40
0.167996158345004
 40
0.336030104638857
 40
0.5040311895716629
 40
0.6732873727182535
 40
0.8425763469940891
 40
1.0
 40
1.0
 40
1.0
 40
1.0
 10
4992.284241882963
 20
2648.889662691874
 30
0.0
 10
4992.288199836736
 20
2648.898408094551
 30
0.0
 10
4992.29611663456
 20
2648.91590086704
 30
0.0
 10
4992.307000110288
 20
2648.942569778259
 30
0.0
 10
4992.317206429709
 20
2648.969578743075
 30
0.0
 10
4992.326651387333
 20
2648.99693879205
 30
0.0
 10
4992.335208922437
 20
2649.023959198701
 30
0.0
 10
4992.340170639163
 20
2649.041955503941
 30
0.0
 10
4992.342561399443
 20
2649.050626867933
 30
0.0
  0
SPLINE
  5
15F0
330
1F
100
AcDbEntity
  8
SANINDUSA
100
AcDbSpline
210
0.0
220
0.0
230
1.0
 70
     8
 71
     3
 72
    30
 73
    26
 74
     0
 42
0.0000000001
 43
0.0000000001
 40
0.0
 40
0.0
 40
0.0
 40
0.0
 40
0.1249999999999985
 40
0.1249999999999985
 40
0.249999999999997
 40
0.249999999999997
 40
0.2812499999999973
 40
0.2812499999999973
 40
0.3124999999999976
 40
0.3124999999999976
 40
0.3749999999999979
 40
0.3749999999999979
 40
0.4999999999999961
 40
0.4999999999999961
 40
0.5624999999999964
 40
0.5624999999999964
 40
0.6249999999999967
 40
0.6249999999999967
 40
0.7499999999999978
 40
0.7499999999999978
 40
0.8749999999999987
 40
0.8749999999999987
 40
0.9374999999999994
 40
0.9374999999999994
 40
1.0
 40
1.0
 40
1.0
 40
1.0
 10
4992.283800855929
 20
2648.888711880343
 30
0.0
 10
4992.282996211001
 20
2648.886979639776
 30
0.0
 10
4992.282077947053
 20
2648.885325721741
 30
0.0
 10
4992.280023486069
 20
2648.882168116425
 30
0.0
 10
4992.278887263445
 20
2648.880664446785
 30
0.0
 10
4992.277328167699
 20
2648.878880552651
 30
0.0
 10
4992.277009374912
 20
2648.878528581056
 30
0.0
 10
4992.276357641872
 20
2648.877834390329
 30
0.0
 10
4992.276024139921
 20
2648.87749164873
 30
0.0
 10
4992.275009796848
 20
2648.876485822083
 30
0.0
 10
4992.274313335965
 20
2648.87584302724
 30
0.0
 10
4992.272164742729
 20
2648.87399587297
 30
0.0
 10
4992.270653687413
 20
2648.872872349211
 30
0.0
 10
4992.268269586702
 20
2648.871348284669
 30
0.0
 10
4992.267455227939
 20
2648.870867232438
 30
0.0
 10
4992.265786372847
 20
2648.869960192199
 30
0.0
 10
4992.264928994716
 20
2648.869533106847
 30
0.0
 10
4992.262334337681
 20
2648.868354324847
 30
0.0
 10
4992.2605653928
 20
2648.867698574905
 30
0.0
 10
4992.256951231797
 20
2648.866640390235
 30
0.0
 10
4992.255106018281
 20
2648.866237946846
 30
0.0
 10
4992.252279044772
 20
2648.865830743938
 30
0.0
 10
4992.251327850206
 20
2648.865728254357
 30
0.0
 10
4992.249426279583
 20
2648.865592018496
 30
0.0
 10
4992.248473390144
 20
2648.865557868639
 30
0.0
 10
4992.24751838469
 20
2648.865557878773
 30
0.0
  0
SPLINE
  5
15F1
330
1F
100
AcDbEntity
  8
SANINDUSA
100
AcDbSpline
210
0.0
220
0.0
230
1.0
 70
    24
 71
     1
 72
     4
 73
     2
 74
     0
 42
0.0000000001
 43
0.0000000001
 40
0.0
 40
0.0
 40
1.0
 40
1.0
 10
4992.283800857021
 20
2648.88871187858
 30
0.0
 10
4992.284155117227
 20
2648.88947541408
 30
0.0
  0
SPLINE
  5
15F2
330
1F
100
AcDbEntity
  8
SANINDUSA
100
AcDbSpline
210
0.0
220
0.0
230
1.0
 70
     8
 71
     3
 72
    30
 73
    26
 74
     0
 42
0.0000000001
 43
0.0000000001
 40
0.0
 40
0.0
 40
0.0
 40
0.0
 40
0.1249999999999985
 40
0.1249999999999985
 40
0.249999999999997
 40
0.249999999999997
 40
0.2812499999999973
 40
0.2812499999999973
 40
0.3124999999999976
 40
0.3124999999999976
 40
0.3749999999999979
 40
0.3749999999999979
 40
0.4999999999999961
 40
0.4999999999999961
 40
0.5624999999999964
 40
0.5624999999999964
 40
0.6249999999999967
 40
0.6249999999999967
 40
0.7499999999999978
 40
0.7499999999999978
 40
0.8749999999999987
 40
0.8749999999999987
 40
0.9374999999999994
 40
0.9374999999999994
 40
1.0
 40
1.0
 40
1.0
 40
1.0
 10
4992.174500907809
 20
2648.888711880343
 30
0.0
 10
4992.175305552738
 20
2648.886979639776
 30
0.0
 10
4992.176223816687
 20
2648.885325721741
 30
0.0
 10
4992.17827827767
 20
2648.882168116425
 30
0.0
 10
4992.179414500294
 20
2648.880664446785
 30
0.0
 10
4992.180973596041
 20
2648.878880552651
 30
0.0
 10
4992.181292388828
 20
2648.878528581056
 30
0.0
 10
4992.181944121867
 20
2648.877834390329
 30
0.0
 10
4992.182277623818
 20
2648.87749164873
 30
0.0
 10
4992.183291966891
 20
2648.876485822083
 30
0.0
 10
4992.183988427774
 20
2648.87584302724
 30
0.0
 10
4992.186137021011
 20
2648.87399587297
 30
0.0
 10
4992.187648076328
 20
2648.872872349211
 30
0.0
 10
4992.190032177038
 20
2648.871348284669
 30
0.0
 10
4992.1908465358
 20
2648.870867232438
 30
0.0
 10
4992.192515390892
 20
2648.869960192199
 30
0.0
 10
4992.193372769023
 20
2648.869533106847
 30
0.0
 10
4992.195967426059
 20
2648.868354324847
 30
0.0
 10
4992.197736370939
 20
2648.867698574905
 30
0.0
 10
4992.201350531942
 20
2648.866640390235
 30
0.0
 10
4992.203195745458
 20
2648.866237946846
 30
0.0
 10
4992.206022718967
 20
2648.865830743938
 30
0.0
 10
4992.206973913532
 20
2648.865728254357
 30
0.0
 10
4992.208875484157
 20
2648.865592018496
 30
0.0
 10
4992.209828373596
 20
2648.865557868639
 30
0.0
 10
4992.21078337905
 20
2648.865557878773
 30
0.0
  0
SPLINE
  5
15F3
330
1F
100
AcDbEntity
  8
SANINDUSA
100
AcDbSpline
210
0.0
220
0.0
230
1.0
 70
    24
 71
     1
 72
     4
 73
     2
 74
     0
 42
0.0000000001
 43
0.0000000001
 40
0.0
 40
0.0
 40
1.0
 40
1.0
 10
4992.174500906719
 20
2648.88871187858
 30
0.0
 10
4992.174146646513
 20
2648.88947541408
 30
0.0
  0
SPLINE
  5
15F4
330
1F
100
AcDbEntity
  8
SANINDUSA
100
AcDbSpline
210
0.0
220
0.0
230
1.0
 70
    24
 71
     3
 72
     8
 73
     4
 74
     0
 42
0.0000000001
 43
0.0000000001
 40
0.0
 40
0.0
 40
0.0
 40
0.0
 40
0.0002064432011313
 40
0.0002064432011313
 40
0.0002064432011313
 40
0.0002064432011313
 10
4992.284155115726
 20
2648.889475425572
 30
0.0
 10
4992.284184043316
 20
2648.889537847079
 30
0.0
 10
4992.284212963416
 20
2648.889600270368
 30
0.0
 10
4992.284241875894
 20
2648.889662695141
 30
0.0
  0
SPLINE
  5
15F5
330
1F
100
AcDbEntity
  8
SANINDUSA
100
AcDbSpline
210
0.0
220
0.0
230
1.0
 70
    24
 71
     3
 72
     8
 73
     4
 74
     0
 42
0.0000000001
 43
0.0000000001
 40
0.0
 40
0.0
 40
0.0
 40
0.0
 40
0.0002064432011313
 40
0.0002064432011313
 40
0.0002064432011313
 40
0.0002064432011313
 10
4992.174146648013
 20
2648.889475425572
 30
0.0
 10
4992.174117720423
 20
2648.889537847079
 30
0.0
 10
4992.174088800323
 20
2648.889600270368
 30
0.0
 10
4992.174059887845
 20
2648.889662695141
 30
0.0
  0
ARC
  5
15FA
330
1F
100
AcDbEntity
  8
SANINDUSA
100
AcDbCircle
 10
4992.210668988859
 20
2648.897572759404
 30
0.0
 40
0.027993376451592
100
AcDbArc
 50
209.132613679773
 51
270.0128277615479
  0
ARC
  5
15FB
330
1F
100
AcDbEntity
  8
SANINDUSA
100
AcDbCircle
 10
4992.247632786908
 20
2648.897572732148
 30
0.0
 40
0.0279933491979349
100
AcDbArc
 50
269.9871475903243
 51
330.7816290178355
  0
LINE
  5
1603
330
1F
100
AcDbEntity
  8
SANINDUSA
100
AcDbLine
 10
4993.971223457242
 20
2649.163466156098
 30
0.0
 11
4993.97280417909
 21
2649.20873210731
 31
0.0
  0
LINE
  5
1604
330
1F
100
AcDbEntity
  8
SANINDUSA
100
AcDbLine
 10
4993.638141160063
 20
2649.208732107322
 30
0.0
 11
4993.640842212097
 21
2649.13138409716
 31
0.0
  0
SPLINE
  5
1605
330
1F
100
AcDbEntity
  8
SANINDUSA
100
AcDbSpline
210
0.0
220
0.0
230
1.0
 70
     8
 71
     3
 72
    22
 73
    18
 74
     0
 42
0.0000000001
 43
0.0000000001
 40
0.0
 40
0.0
 40
0.0
 40
0.0
 40
0.125
 40
0.125
 40
0.25
 40
0.25
 40
0.375
 40
0.375
 40
0.5
 40
0.5
 40
0.625
 40
0.625
 40
0.75
 40
0.75
 40
0.875
 40
0.875
 40
1.0
 40
1.0
 40
1.0
 40
1.0
 10
4993.977801133562
 20
2649.213557609839
 30
0.0
 10
4993.977478346391
 20
2649.213557609839
 30
0.0
 10
4993.977160832403
 20
2649.213526646273
 30
0.0
 10
4993.976535916064
 20
2649.213405344722
 30
0.0
 10
4993.97622550323
 20
2649.213313676411
 30
0.0
 10
4993.975630998118
 20
2649.213073503176
 30
0.0
 10
4993.975348666015
 20
2649.212926493512
 30
0.0
 10
4993.974813391346
 20
2649.212579442562
 30
0.0
 10
4993.974558657857
 20
2649.21237705897
 30
0.0
 10
4993.974099397088
 20
2649.211933848556
 30
0.0
 10
4993.973892443153
 20
2649.211692056796
 30
0.0
 10
4993.973524408509
 20
2649.211167636979
 30
0.0
 10
4993.97336472523
 20
2649.210885619234
 30
0.0
 10
4993.973105300384
 20
2649.210304177253
 30
0.0
 10
4993.97300345728
 20
2649.210002000292
 30
0.0
 10
4993.97285768065
 20
2649.209373842036
 30
0.0
 10
4993.9728154442
 20
2649.209054697849
 30
0.0
 10
4993.97280417909
 20
2649.20873210731
 30
0.0
  0
SPLINE
  5
1606
330
1F
100
AcDbEntity
  8
SANINDUSA
100
AcDbSpline
210
0.0
220
0.0
230
1.0
 70
    24
 71
     3
 72
    14
 73
    10
 74
     0
 42
0.0000000001
 43
0.0000000001
 40
0.0006107730785379
 40
0.0006107730785379
 40
0.0006107730785379
 40
0.0006107730785379
 40
0.0291713357107249
 40
0.0291713357107249
 40
0.0291713357107249
 40
0.0583426714214499
 40
0.0583426714214499
 40
0.0583426714214499
 40
0.0737979519610111
 40
0.0737979519610111
 40
0.0737979519610111
 40
0.0737979519610111
 10
4993.62814571672
 20
2649.203557609839
 30
0.0
 10
4993.628477966474
 20
2649.194043221735
 30
0.0
 10
4993.628810216227
 20
2649.184528833632
 30
0.0
 10
4993.629142465979
 20
2649.175014445529
 30
0.0
 10
4993.629481820957
 20
2649.165296590422
 30
0.0
 10
4993.629821175932
 20
2649.155578735315
 30
0.0
 10
4993.630160530909
 20
2649.145860880208
 30
0.0
 10
4993.630340324746
 20
2649.140712258341
 30
0.0
 10
4993.630520118582
 20
2649.135563636475
 30
0.0
 10
4993.630699912419
 20
2649.130415014607
 30
0.0
  0
SPLINE
  5
1607
330
1F
100
AcDbEntity
  8
SANINDUSA
100
AcDbSpline
210
0.0
220
0.0
230
1.0
 70
    24
 71
     3
 72
     8
 73
     4
 74
     0
 42
0.0000000001
 43
0.0000000001
 40
0.0453086454494212
 40
0.0453086454494212
 40
0.0453086454494212
 40
0.0453086454494212
 40
0.084452110610907
 40
0.084452110610907
 40
0.084452110610907
 40
0.084452110610907
 10
4993.981263556181
 20
2649.164437987592
 30
0.0
 10
4993.981718882842
 20
2649.177477862181
 30
0.0
 10
4993.982174224191
 20
2649.190517736256
 30
0.0
 10
4993.982629579665
 20
2649.203557609839
 30
0.0
  0
SPLINE
  5
1608
330
1F
100
AcDbEntity
  8
SANINDUSA
100
AcDbSpline
210
0.0
220
0.0
230
1.0
 70
     8
 71
     3
 72
    34
 73
    30
 74
     0
 42
0.0000000001
 43
0.0000000001
 40
0.0
 40
0.0
 40
0.0
 40
0.0
 40
0.0312500000000001
 40
0.0312500000000001
 40
0.0625000000000001
 40
0.0625000000000001
 40
0.1250000000000002
 40
0.1250000000000002
 40
0.2500000000000002
 40
0.2500000000000002
 40
0.3750000000000002
 40
0.3750000000000002
 40
0.4062500000000003
 40
0.4062500000000003
 40
0.4375000000000004
 40
0.4375000000000004
 40
0.5000000000000001
 40
0.5000000000000001
 40
0.6250000000000002
 40
0.6250000000000002
 40
0.7500000000000002
 40
0.7500000000000002
 40
0.78125
 40
0.78125
 40
0.8124999999999998
 40
0.8124999999999998
 40
0.8749999999999998
 40
0.8749999999999998
 40
1.0
 40
1.0
 40
1.0
 40
1.0
 10
4993.620967467681
 20
2649.145557609839
 30
0.0
 10
4993.621582601431
 20
2649.143907227353
 30
0.0
 10
4993.622218114558
 20
2649.142261256645
 30
0.0
 10
4993.623523528416
 20
2649.138993231859
 30
0.0
 10
4993.62419412488
 20
2649.137369251412
 30
0.0
 10
4993.626258720502
 20
2649.132526922316
 30
0.0
 10
4993.62770545575
 20
2649.129338146578
 30
0.0
 10
4993.632252449557
 20
2649.119887780274
 30
0.0
 10
4993.635558454837
 20
2649.113741566664
 30
0.0
 10
4993.642723316536
 20
2649.101759162765
 30
0.0
 10
4993.646582038076
 20
2649.095922896839
 30
0.0
 10
4993.651775244601
 20
2649.088834940417
 30
0.0
 10
4993.652832469134
 20
2649.087427770082
 30
0.0
 10
4993.65498510778
 20
2649.084634845053
 30
0.0
 10
4993.656078687388
 20
2649.083251540033
 30
0.0
 10
4993.659402608675
 20
2649.07915331121
 30
0.0
 10
4993.661679725976
 20
2649.076485230102
 30
0.0
 10
4993.668700367008
 20
2649.068679255078
 30
0.0
 10
4993.67363181075
 20
2649.063738195394
 30
0.0
 10
4993.684056452561
 20
2649.05444447788
 30
0.0
 10
4993.689548772235
 20
2649.050090899983
 30
0.0
 10
4993.696833919466
 20
2649.045088586511
 30
0.0
 10
4993.698308636028
 20
2649.044112795525
 30
0.0
 10
4993.701281124688
 20
2649.042220878949
 30
0.0
 10
4993.702780851846
 20
2649.041303399716
 30
0.0
 10
4993.707321628432
 20
2649.038638821145
 30
0.0
 10
4993.710404196431
 20
2649.036979419264
 30
0.0
 10
4993.719829703699
 20
2649.032376777937
 30
0.0
 10
4993.726348687704
 20
2649.029805388363
 30
0.0
 10
4993.733151390421
 20
2649.027833282628
 30
0.0
  0
SPLINE
  5
1609
330
1F
100
AcDbEntity
  8
SANINDUSA
100
AcDbSpline
210
0.0
220
0.0
230
1.0
 70
    24
 71
     3
 72
     8
 73
     4
 74
     0
 42
0.0000000001
 43
0.0000000001
 40
0.0
 40
0.0
 40
0.0
 40
0.0
 40
1.0
 40
1.0
 40
1.0
 40
1.0
 10
4993.612503280854
 20
2649.203557609839
 30
0.0
 10
4993.61256371254
 20
2649.202555728636
 30
0.0
 10
4993.612632833727
 20
2649.201555745777
 30
0.0
 10
4993.612710409031
 20
2649.200557609839
 30
0.0
  0
SPLINE
  5
160C
330
1F
100
AcDbEntity
  8
SANINDUSA
100
AcDbSpline
210
0.0
220
0.0
230
1.0
 70
     8
 71
     3
 72
    24
 73
    20
 74
     0
 42
0.0000000001
 43
0.0000000001
 40
0.0
 40
0.0
 40
0.0
 40
0.0
 40
0.1249999999999999
 40
0.1249999999999999
 40
0.2499999999999998
 40
0.2499999999999998
 40
0.3749999999999998
 40
0.3749999999999998
 40
0.4999999999999997
 40
0.4999999999999997
 40
0.6249999999999997
 40
0.6249999999999997
 40
0.6874999999999999
 40
0.6874999999999999
 40
0.7499999999999999
 40
0.7499999999999999
 40
0.875
 40
0.875
 40
1.0
 40
1.0
 40
1.0
 40
1.0
 10
4994.006412653366
 20
2649.213557609839
 30
0.0
 10
4994.00680021503
 20
2649.213557609839
 30
0.0
 10
4994.007180205191
 20
2649.213513150793
 30
0.0
 10
4994.007925595958
 20
2649.213338564417
 30
0.0
 10
4994.008293668148
 20
2649.213206056084
 30
0.0
 10
4994.008978770947
 20
2649.212865893684
 30
0.0
 10
4994.009301799352
 20
2649.212656664023
 30
0.0
 10
4994.00989747796
 20
2649.212163910896
 30
0.0
 10
4994.010161894587
 20
2649.211887781498
 30
0.0
 10
4994.010625591045
 20
2649.211277537992
 30
0.0
 10
4994.010824566387
 20
2649.210941119254
 30
0.0
 10
4994.011057838847
 20
2649.210417388162
 30
0.0
 10
4994.011125491304
 20
2649.210238657355
 30
0.0
 10
4994.011240387781
 20
2649.209872806638
 30
0.0
 10
4994.011287835622
 20
2649.20968445228
 30
0.0
 10
4994.011396285652
 20
2649.209116279903
 30
0.0
 10
4994.01142421389
 20
2649.208735160622
 30
0.0
 10
4994.011392612609
 20
2649.20796831441
 30
0.0
 10
4994.011331986953
 20
2649.207582745061
 30
0.0
 10
4994.011227494564
 20
2649.207209535488
 30
0.0
  0
SPLINE
  5
160E
330
1F
100
AcDbEntity
  8
SANINDUSA
100
AcDbSpline
210
0.0
220
0.0
230
1.0
 70
     8
 71
     3
 72
    22
 73
    18
 74
     0
 42
0.0000000001
 43
0.0000000001
 40
0.0
 40
0.0
 40
0.0
 40
0.0
 40
0.1249999999999996
 40
0.1249999999999996
 40
0.1874999999999994
 40
0.1874999999999994
 40
0.2499999999999992
 40
0.2499999999999992
 40
0.312499999999999
 40
0.312499999999999
 40
0.3749999999999988
 40
0.3749999999999988
 40
0.4999999999999992
 40
0.4999999999999992
 40
0.7499999999999996
 40
0.7499999999999996
 40
1.0
 40
1.0
 40
1.0
 40
1.0
 10
4993.972081836261
 20
2649.128131022655
 30
0.0
 10
4993.973615756548
 20
2649.131113698573
 30
0.0
 10
4993.975074737406
 20
2649.134128026279
 30
0.0
 10
4993.977148565733
 20
2649.13869793901
 30
0.0
 10
4993.977820631329
 20
2649.140229357103
 30
0.0
 10
4993.979124166856
 20
2649.143309339473
 30
0.0
 10
4993.979753893587
 20
2649.144858640017
 30
0.0
 10
4993.980979620561
 20
2649.147971485996
 30
0.0
 10
4993.981580535705
 20
2649.149532955547
 30
0.0
 10
4993.98277520132
 20
2649.152658920753
 30
0.0
 10
4993.983366840701
 20
2649.154224308063
 30
0.0
 10
4993.98512456297
 20
2649.158927732921
 30
0.0
 10
4993.986273444495
 20
2649.162073035724
 30
0.0
 10
4993.989650554649
 20
2649.171538313039
 30
0.0
 10
4993.991809151011
 20
2649.177887697782
 30
0.0
 10
4993.995939021708
 20
2649.190665585529
 30
0.0
 10
4993.997911316762
 20
2649.197097788098
 30
0.0
 10
4993.999787414821
 20
2649.203557609839
 30
0.0
  0
LINE
  5
1610
330
1F
100
AcDbEntity
  8
SANINDUSA
100
AcDbLine
 10
4993.542972689351
 20
2649.135557609838
 30
0.0
 11
4993.615174412894
 21
2649.133036270094
 31
0.0
  0
SPLINE
  5
1611
330
1F
100
AcDbEntity
  8
SANINDUSA
100
AcDbSpline
210
0.0
220
0.0
230
1.0
 70
    24
 71
     3
 72
     8
 73
     4
 74
     0
 42
0.0000000001
 43
0.0000000001
 40
0.0
 40
0.0
 40
0.0
 40
0.0
 40
0.001807380466053
 40
0.001807380466053
 40
0.001807380466053
 40
0.001807380466053
 10
4993.972081838984
 20
2649.128131027833
 30
0.0
 10
4993.971806308597
 20
2649.127595265529
 30
0.0
 10
4993.971530119967
 20
2649.127059841242
 30
0.0
 10
4993.971253277978
 20
2649.126524755499
 30
0.0
  0
LINE
  5
1612
330
1F
100
AcDbEntity
  8
SANINDUSA
100
AcDbLine
 10
4993.582972689352
 20
2649.200557609839
 30
0.0
 11
4993.612710409031
 21
2649.200557609839
 31
0.0
  0
LINE
  5
1613
330
1F
100
AcDbEntity
  8
SANINDUSA
100
AcDbLine
 10
4993.620967467681
 20
2649.145557609839
 30
0.0
 11
4993.582972689352
 21
2649.145557609839
 31
0.0
  0
LINE
  5
1614
330
1F
100
AcDbEntity
  8
SANINDUSA
100
AcDbLine
 10
4993.673364257182
 20
2648.899580049733
 30
0.0
 11
4993.656570150491
 21
2648.969427048563
 31
0.0
  0
SPLINE
  5
1615
330
1F
100
AcDbEntity
  8
SANINDUSA
100
AcDbSpline
210
0.0
220
0.0
230
1.0
 70
     8
 71
     3
 72
    16
 73
    12
 74
     0
 42
0.0000000001
 43
0.0000000001
 40
0.0
 40
0.0
 40
0.0
 40
0.0
 40
0.2499999999999985
 40
0.2499999999999985
 40
0.499999999999997
 40
0.499999999999997
 40
0.6249999999999993
 40
0.6249999999999993
 40
0.7500000000000017
 40
0.7500000000000017
 40
1.0
 40
1.0
 40
1.0
 40
1.0
 10
4993.683957527769
 20
2648.878228848442
 30
0.0
 10
4993.682684879871
 20
2648.879786135225
 30
0.0
 10
4993.681509328689
 20
2648.88140320935
 30
0.0
 10
4993.679347428188
 20
2648.884753858723
 30
0.0
 10
4993.67836108744
 20
2648.886487439249
 30
0.0
 10
4993.677025162995
 20
2648.889176223589
 30
0.0
 10
4993.676603474085
 20
2648.890088117191
 30
0.0
 10
4993.675810616451
 20
2648.891938358166
 30
0.0
 10
4993.675441212046
 20
2648.892872450907
 30
0.0
 10
4993.674413305793
 20
2648.895701391487
 30
0.0
 10
4993.673834856788
 20
2648.897622817312
 30
0.0
 10
4993.673364257182
 20
2648.899580049733
 30
0.0
  0
SPLINE
  5
1616
330
1F
100
AcDbEntity
  8
SANINDUSA
100
AcDbSpline
210
0.0
220
0.0
230
1.0
 70
     8
 71
     3
 72
    11
 73
     7
 74
     0
 42
0.0000000001
 43
0.0000000001
 40
0.0230248228510722
 40
0.0230248228510722
 40
0.0230248228510722
 40
0.0230248228510722
 40
0.25
 40
0.265625
 40
0.296875
 40
0.3299927338636901
 40
0.3299927338636901
 40
0.3299927338636901
 40
0.3299927338636901
 10
4994.011227494564
 20
2649.207209535488
 30
0.0
 10
4994.005395408112
 20
2649.186379401118
 30
0.0
 10
4993.998126793205
 20
2649.16440952934
 30
0.0
 10
4993.988383867935
 20
2649.13944180921
 30
0.0
 10
4993.985266197197
 20
2649.132219430351
 30
0.0
 10
4993.982480420992
 20
2649.126485345391
 30
0.0
 10
4993.980974755537
 20
2649.123557609865
 30
0.0
  0
SPLINE
  5
1617
330
1F
100
AcDbEntity
  8
SANINDUSA
100
AcDbSpline
210
0.0
220
0.0
230
1.0
 70
     8
 71
     3
 72
    14
 73
    10
 74
     0
 42
0.0000000001
 43
0.0000000001
 40
0.0
 40
0.0
 40
0.0
 40
0.0
 40
0.25
 40
0.25
 40
0.5
 40
0.5
 40
0.75
 40
0.75
 40
1.0
 40
1.0
 40
1.0
 40
1.0
 10
4993.980974755617
 20
2649.123557609839
 30
0.0
 10
4993.970627560569
 20
2649.103437737715
 30
0.0
 10
4993.959402039699
 20
2649.083859955166
 30
0.0
 10
4993.935581401325
 20
2649.045549684645
 30
0.0
 10
4993.92298617978
 20
2649.026817238731
 30
0.0
 10
4993.896803526741
 20
2648.989964812689
 30
0.0
 10
4993.883251570082
 20
2648.971893515793
 30
0.0
 10
4993.855577551964
 20
2648.936190188497
 30
0.0
 10
4993.841455174254
 20
2648.918558401768
 30
0.0
 10
4993.827215408621
 20
2648.901017062586
 30
0.0
  0
SPLINE
  5
1618
330
1F
100
AcDbEntity
  8
SANINDUSA
100
AcDbSpline
210
0.0
220
0.0
230
1.0
 70
     8
 71
     3
 72
    28
 73
    24
 74
     0
 42
0.0000000001
 43
0.0000000001
 40
0.0
 40
0.0
 40
0.0
 40
0.0
 40
0.124999999999998
 40
0.124999999999998
 40
0.2499999999999961
 40
0.2499999999999961
 40
0.3749999999999942
 40
0.3749999999999942
 40
0.4062499999999937
 40
0.4062499999999937
 40
0.4374999999999933
 40
0.4374999999999933
 40
0.4999999999999944
 40
0.4999999999999944
 40
0.6249999999999965
 40
0.6249999999999965
 40
0.7499999999999987
 40
0.7499999999999987
 40
0.8124999999999998
 40
0.8124999999999998
 40
0.8750000000000008
 40
0.8750000000000008
 40
1.0
 40
1.0
 40
1.0
 40
1.0
 10
4993.762706028903
 20
2648.869601885362
 30
0.0
 10
4993.765817152493
 20
2648.869656190226
 30
0.0
 10
4993.768896302161
 20
2648.86988028218
 30
0.0
 10
4993.774993010225
 20
2648.870655526455
 30
0.0
 10
4993.778010561355
 20
2648.871206717352
 30
0.0
 10
4993.783984167933
 20
2648.872635651915
 30
0.0
 10
4993.786940229266
 20
2648.873513364333
 30
0.0
 10
4993.790595555879
 20
2648.874821584546
 30
0.0
 10
4993.79132505415
 20
2648.875094017015
 30
0.0
 10
4993.792771120797
 20
2648.87565674574
 30
0.0
 10
4993.793488782539
 20
2648.875947415932
 30
0.0
 10
4993.795625836449
 20
2648.87684702621
 30
0.0
 10
4993.797029309419
 20
2648.877483545013
 30
0.0
 10
4993.801177052
 20
2648.87950168306
 30
0.0
 10
4993.80385882589
 20
2648.880991571048
 30
0.0
 10
4993.809056490958
 20
2648.884258725312
 30
0.0
 10
4993.811572394374
 20
2648.886035970388
 30
0.0
 10
4993.815218047435
 20
2648.888923937636
 30
0.0
 10
4993.81641283806
 20
2648.889924865317
 30
0.0
 10
4993.818736106143
 20
2648.89198221967
 30
0.0
 10
4993.819867500588
 20
2648.893040826369
 30
0.0
 10
4993.823171535853
 20
2648.896305870158
 30
0.0
 10
4993.825254301331
 20
2648.898601261017
 30
0.0
 10
4993.827215408621
 20
2648.901017062586
 30
0.0
  0
LINE
  5
1619
330
1F
100
AcDbEntity
  8
SANINDUSA
100
AcDbLine
 10
4993.762706028903
 20
2648.869601885362
 30
0.0
 11
4993.531025046571
 21
2648.865557878773
 31
0.0
  0
ARC
  5
161A
330
1F
100
AcDbEntity
  8
SANINDUSA
100
AcDbCircle
 10
4993.530972689351
 20
2648.868557421858
 30
0.0
 40
0.0030000000000001
100
AcDbArc
 50
180.0
 51
271.00000000972
  0
LINE
  5
161B
330
1F
100
AcDbEntity
  8
SANINDUSA
100
AcDbLine
 10
4993.527972689351
 20
2648.868557421858
 30
0.0
 11
4993.527972689351
 21
2648.87550612296
 31
0.0
  0
LINE
  5
161C
330
1F
100
AcDbEntity
  8
SANINDUSA
100
AcDbLine
 10
4993.683957527769
 20
2648.878228848442
 30
0.0
 11
4993.527972689351
 21
2648.87550612296
 31
0.0
  0
ARC
  5
161D
330
1F
100
AcDbEntity
  8
SANINDUSA
100
AcDbCircle
 10
4993.637124353741
 20
2648.96475147494
 30
0.0
 40
0.0200000000000001
100
AcDbArc
 50
13.51964113392121
 51
88.00000002228562
  0
LINE
  5
161E
330
1F
100
AcDbEntity
  8
SANINDUSA
100
AcDbLine
 10
4993.637822343674
 20
2648.98473929148
 30
0.0
 11
4993.542623694384
 21
2648.988063701568
 31
0.0
  0
LINE
  5
161F
330
1F
100
AcDbEntity
  8
SANINDUSA
100
AcDbLine
 10
4993.542972689351
 20
2648.998057609838
 30
0.0
 11
4993.542623694384
 21
2648.988063701568
 31
0.0
  0
LINE
  5
1620
330
1F
100
AcDbEntity
  8
SANINDUSA
100
AcDbLine
 10
4993.638171338641
 20
2648.994733199751
 30
0.0
 11
4993.542972689351
 21
2648.998057609838
 31
0.0
  0
ARC
  5
1621
330
1F
100
AcDbEntity
  8
SANINDUSA
100
AcDbCircle
 10
4993.637124353741
 20
2648.96475147494
 30
0.0
 40
0.0300000000000001
100
AcDbArc
 50
13.51964113392121
 51
88.00000002228562
  0
LINE
  5
1622
330
1F
100
AcDbEntity
  8
SANINDUSA
100
AcDbLine
 10
4993.683087155559
 20
2648.901917836544
 30
0.0
 11
4993.666293048867
 21
2648.971764835374
 31
0.0
  0
ARC
  5
1623
330
1F
100
AcDbEntity
  8
SANINDUSA
100
AcDbCircle
 10
4993.725391461773
 20
2648.91208954104
 30
0.0
 40
0.0435099746807111
100
AcDbArc
 50
193.5196411339212
 51
230.5957357206197
  0
LINE
  5
1624
330
1F
100
AcDbEntity
  8
SANINDUSA
100
AcDbLine
 10
4993.762531504839
 20
2648.879600362314
 30
0.0
 11
4993.697771850964
 21
2648.87846997835
 31
0.0
  0
SPLINE
  5
1625
330
1F
100
AcDbEntity
  8
SANINDUSA
100
AcDbSpline
210
0.0
220
0.0
230
1.0
 70
     8
 71
     3
 72
    28
 73
    24
 74
     0
 42
0.0000000001
 43
0.0000000001
 40
0.0
 40
0.0
 40
0.0
 40
0.0
 40
0.1250000000000024
 40
0.1250000000000024
 40
0.2500000000000048
 40
0.2500000000000048
 40
0.3750000000000071
 40
0.3750000000000071
 40
0.4062500000000066
 40
0.4062500000000066
 40
0.4375000000000059
 40
0.4375000000000059
 40
0.5000000000000037
 40
0.5000000000000037
 40
0.6250000000000028
 40
0.6250000000000028
 40
0.7500000000000019
 40
0.7500000000000019
 40
0.8125000000000014
 40
0.8125000000000014
 40
0.8750000000000008
 40
0.8750000000000008
 40
1.0
 40
1.0
 40
1.0
 40
1.0
 10
4993.762531504839
 20
2648.879600362314
 30
0.0
 10
4993.765276613903
 20
2648.87964827837
 30
0.0
 10
4993.767993510681
 20
2648.879846006567
 30
0.0
 10
4993.773372958997
 20
2648.880530045639
 30
0.0
 10
4993.776035504126
 20
2648.881016390552
 30
0.0
 10
4993.781306333485
 20
2648.882277215177
 30
0.0
 10
4993.783914622907
 20
2648.883051667316
 30
0.0
 10
4993.78713991111
 20
2648.884205979279
 30
0.0
 10
4993.787783586057
 20
2648.884446360871
 30
0.0
 10
4993.789059527222
 20
2648.884942886221
 30
0.0
 10
4993.789692758173
 20
2648.885199359922
 30
0.0
 10
4993.791578393985
 20
2648.885993133703
 30
0.0
 10
4993.792816752492
 20
2648.886554767944
 30
0.0
 10
4993.796476525371
 20
2648.888335477999
 30
0.0
 10
4993.798842796461
 20
2648.889650085058
 30
0.0
 10
4993.803428971538
 20
2648.892532868254
 30
0.0
 10
4993.805648886326
 20
2648.894101025688
 30
0.0
 10
4993.808865639038
 20
2648.896649232103
 30
0.0
 10
4993.809919866061
 20
2648.897532403593
 30
0.0
 10
4993.811969808493
 20
2648.899347716271
 30
0.0
 10
4993.812968097712
 20
2648.900281781012
 30
0.0
 10
4993.815883422952
 20
2648.903162702024
 30
0.0
 10
4993.817721157199
 20
2648.905188046914
 30
0.0
 10
4993.819451545986
 20
2648.90731963655
 30
0.0
  0
SPLINE
  5
1626
330
1F
100
AcDbEntity
  8
SANINDUSA
100
AcDbSpline
210
0.0
220
0.0
230
1.0
 70
     8
 71
     3
 72
    14
 73
    10
 74
     0
 42
0.0000000001
 43
0.0000000001
 40
0.0
 40
0.0
 40
0.0
 40
0.0
 40
0.25
 40
0.25
 40
0.5
 40
0.5
 40
0.7499999999999999
 40
0.7499999999999999
 40
1.0
 40
1.0
 40
1.0
 40
1.0
 10
4993.964382993094
 20
2649.113557609839
 30
0.0
 10
4993.954342152211
 20
2649.095038861696
 30
0.0
 10
4993.943575343327
 20
2649.076980427367
 30
0.0
 10
4993.920913174252
 20
2649.041579138122
 30
0.0
 10
4993.909017090321
 20
2649.024235460947
 30
0.0
 10
4993.88441016674
 20
2648.990069890221
 30
0.0
 10
4993.871724883534
 20
2648.973282645485
 30
0.0
 10
4993.845877683575
 20
2648.940077083927
 30
0.0
 10
4993.832715528459
 20
2648.923658951604
 30
0.0
 10
4993.819451545986
 20
2648.90731963655
 30
0.0
  0
LINE
  5
1627
330
1F
100
AcDbEntity
  8
SANINDUSA
100
AcDbLine
 10
4993.982629579665
 20
2649.203557609839
 30
0.0
 11
4993.999787414821
 21
2649.203557609839
 31
0.0
  0
LINE
  5
1628
330
1F
100
AcDbEntity
  8
SANINDUSA
100
AcDbLine
 10
4993.977801133562
 20
2649.213557609839
 30
0.0
 11
4994.006412653366
 21
2649.213557609839
 31
0.0
  0
LINE
  5
1629
330
1F
100
AcDbEntity
  8
SANINDUSA
100
AcDbLine
 10
4993.971223457242
 20
2649.163466156098
 30
0.0
 11
4993.981263556181
 21
2649.164437987592
 31
0.0
  0
SPLINE
  5
162B
330
1F
100
AcDbEntity
  8
SANINDUSA
100
AcDbSpline
210
0.0
220
0.0
230
1.0
 70
     8
 71
     3
 72
    24
 73
    20
 74
     0
 42
0.0000000001
 43
0.0000000001
 40
0.0
 40
0.0
 40
0.0
 40
0.0
 40
0.2499999999999954
 40
0.2499999999999954
 40
0.3124999999999956
 40
0.3124999999999956
 40
0.3749999999999957
 40
0.3749999999999957
 40
0.4999999999999957
 40
0.4999999999999957
 40
0.5624999999999957
 40
0.5624999999999957
 40
0.6249999999999956
 40
0.6249999999999956
 40
0.749999999999997
 40
0.749999999999997
 40
0.8749999999999985
 40
0.8749999999999985
 40
1.0
 40
1.0
 40
1.0
 40
1.0
 10
4993.733151390421
 20
2649.027833282628
 30
0.0
 10
4993.734571449611
 20
2649.027421607006
 30
0.0
 10
4993.735896943514
 20
2649.026814590473
 30
0.0
 10
4993.737437920069
 20
2649.025816427317
 30
0.0
 10
4993.737741371581
 20
2649.025603631617
 30
0.0
 10
4993.738327914673
 20
2649.025159131788
 30
0.0
 10
4993.738611504006
 20
2649.024927254131
 30
0.0
 10
4993.739433878843
 20
2649.024203387738
 30
0.0
 10
4993.739944418977
 20
2649.023683312534
 30
0.0
 10
4993.740653503103
 20
2649.02284679279
 30
0.0
 10
4993.740880373307
 20
2649.022558515101
 30
0.0
 10
4993.741314637249
 20
2649.021962592828
 30
0.0
 10
4993.741521174277
 20
2649.021655928675
 30
0.0
 10
4993.742101786452
 20
2649.02072174698
 30
0.0
 10
4993.74244029514
 20
2649.020075785443
 30
0.0
 10
4993.743021782507
 20
2649.018738279384
 30
0.0
 10
4993.743265313309
 20
2649.018044693752
 30
0.0
 10
4993.743649864975
 20
2649.016618537303
 30
0.0
 10
4993.74378881244
 20
2649.015894860002
 30
0.0
 10
4993.743874275907
 20
2649.015160552693
 30
0.0
  0
LINE
  5
162C
330
1F
100
AcDbEntity
  8
SANINDUSA
100
AcDbLine
 10
4993.752668462992
 20
2648.939600362314
 30
0.0
 11
4993.743874275907
 21
2649.015160552693
 31
0.0
  0
LINE
  5
162D
330
1F
100
AcDbEntity
  8
SANINDUSA
100
AcDbLine
 10
4993.74260096171
 20
2648.939600362314
 30
0.0
 11
4993.752668462992
 21
2648.939600362314
 31
0.0
  0
LINE
  5
162E
330
1F
100
AcDbEntity
  8
SANINDUSA
100
AcDbLine
 10
4993.733551771457
 20
2649.017351555426
 30
0.0
 11
4993.74260096171
 21
2648.939600362314
 31
0.0
  0
SPLINE
  5
162F
330
1F
100
AcDbEntity
  8
SANINDUSA
100
AcDbSpline
210
0.0
220
0.0
230
1.0
 70
     8
 71
     3
 72
    10
 73
     6
 74
     0
 42
0.0000000001
 43
0.0000000001
 40
0.4910180492511664
 40
0.4910180492511664
 40
0.4910180492511664
 40
0.4910180492511664
 40
0.625
 40
0.75
 40
0.8900454893403534
 40
0.8900454893403534
 40
0.8900454893403534
 40
0.8900454893403534
 10
4993.644703368201
 20
2649.081610123424
 30
0.0
 10
4993.652608115993
 20
2649.071152880549
 30
0.0
 10
4993.669497414197
 20
2649.052454997373
 30
0.0
 10
4993.699449666842
 20
2649.029994145909
 30
0.0
 10
4993.721485804014
 20
2649.020500639014
 30
0.0
 10
4993.733551771457
 20
2649.017351555426
 30
0.0
  0
LINE
  5
1630
330
1F
100
AcDbEntity
  8
SANINDUSA
100
AcDbLine
 10
4993.542972689351
 20
2649.078057609838
 30
0.0
 11
4993.644703368201
 21
2649.081610123424
 31
0.0
  0
LINE
  5
1631
330
1F
100
AcDbEntity
  8
SANINDUSA
100
AcDbLine
 10
4993.542623694384
 20
2649.088051518109
 30
0.0
 11
4993.542972689351
 21
2649.078057609838
 31
0.0
  0
LINE
  5
1632
330
1F
100
AcDbEntity
  8
SANINDUSA
100
AcDbLine
 10
4993.542623694384
 20
2649.088051518109
 30
0.0
 11
4993.637718004616
 21
2649.091372284596
 31
0.0
  0
SPLINE
  5
1633
330
1F
100
AcDbEntity
  8
SANINDUSA
100
AcDbSpline
210
0.0
220
0.0
230
1.0
 70
     8
 71
     3
 72
    11
 73
     7
 74
     0
 42
0.0000000001
 43
0.0000000001
 40
0.2896835370100273
 40
0.2896835370100273
 40
0.2896835370100273
 40
0.2896835370100273
 40
0.296875
 40
0.40625
 40
0.4413106133958353
 40
0.4502192862833234
 40
0.4502192862833234
 40
0.4502192862833234
 40
0.4502192862833234
 10
4993.615174412894
 20
2649.133036270094
 30
0.0
 10
4993.615447896838
 20
2649.132385030662
 30
0.0
 10
4993.619929150261
 20
2649.121844634985
 30
0.0
 10
4993.626770610522
 20
2649.108477566433
 30
0.0
 10
4993.634822898251
 20
2649.09569142817
 30
0.0
 10
4993.637227028802
 20
2649.092097419305
 30
0.0
 10
4993.637718004616
 20
2649.091372284596
 30
0.0
  0
LINE
  5
1634
330
1F
100
AcDbEntity
  8
SANINDUSA
100
AcDbLine
 10
4993.542972689351
 20
2649.145557609839
 30
0.0
 11
4993.542972689351
 21
2649.135557609838
 31
0.0
  0
LINE
  5
1635
330
1F
100
AcDbEntity
  8
SANINDUSA
100
AcDbLine
 10
4993.572972689351
 20
2649.145557609839
 30
0.0
 11
4993.542972689351
 21
2649.145557609839
 31
0.0
  0
LINE
  5
1636
330
1F
100
AcDbEntity
  8
SANINDUSA
100
AcDbLine
 10
4993.572972689351
 20
2649.155557609839
 30
0.0
 11
4993.572972689351
 21
2649.145557609839
 31
0.0
  0
LINE
  5
1637
330
1F
100
AcDbEntity
  8
SANINDUSA
100
AcDbLine
 10
4993.582972689352
 20
2649.155557609839
 30
0.0
 11
4993.572972689351
 21
2649.155557609839
 31
0.0
  0
LINE
  5
1638
330
1F
100
AcDbEntity
  8
SANINDUSA
100
AcDbLine
 10
4993.582972689352
 20
2649.155557609839
 30
0.0
 11
4993.582972689352
 21
2649.145557609839
 31
0.0
  0
LINE
  5
1639
330
1F
100
AcDbEntity
  8
SANINDUSA
100
AcDbLine
 10
4993.572972689351
 20
2649.190557609839
 30
0.0
 11
4993.582972689352
 21
2649.190557609839
 31
0.0
  0
LINE
  5
163A
330
1F
100
AcDbEntity
  8
SANINDUSA
100
AcDbLine
 10
4993.572972689351
 20
2649.200557609839
 30
0.0
 11
4993.572972689351
 21
2649.190557609839
 31
0.0
  0
LINE
  5
163B
330
1F
100
AcDbEntity
  8
SANINDUSA
100
AcDbLine
 10
4993.542972689351
 20
2649.200557609839
 30
0.0
 11
4993.572972689351
 21
2649.200557609839
 31
0.0
  0
LINE
  5
163C
330
1F
100
AcDbEntity
  8
SANINDUSA
100
AcDbLine
 10
4993.542972689351
 20
2649.203557609839
 30
0.0
 11
4993.542972689351
 21
2649.200557609839
 31
0.0
  0
LINE
  5
163D
330
1F
100
AcDbEntity
  8
SANINDUSA
100
AcDbLine
 10
4993.527972689351
 20
2649.203557609839
 30
0.0
 11
4993.542972689351
 21
2649.203557609839
 31
0.0
  0
LINE
  5
163E
330
1F
100
AcDbEntity
  8
SANINDUSA
100
AcDbLine
 10
4993.527972689351
 20
2649.203557609839
 30
0.0
 11
4993.527972689351
 21
2649.210557609839
 31
0.0
  0
ARC
  5
163F
330
1F
100
AcDbEntity
  8
SANINDUSA
100
AcDbCircle
 10
4993.530972689351
 20
2649.210557609839
 30
0.0
 40
0.0030000000000001
100
AcDbArc
 50
90.0
 51
180.0
  0
LINE
  5
1640
330
1F
100
AcDbEntity
  8
SANINDUSA
100
AcDbLine
 10
4993.582972689352
 20
2649.200557609839
 30
0.0
 11
4993.582972689352
 21
2649.190557609839
 31
0.0
  0
LINE
  5
1641
330
1F
100
AcDbEntity
  8
SANINDUSA
100
AcDbLine
 10
4993.612503280854
 20
2649.203557609839
 30
0.0
 11
4993.62814571672
 21
2649.203557609839
 31
0.0
  0
LINE
  5
1642
330
1F
100
AcDbEntity
  8
SANINDUSA
100
AcDbLine
 10
4993.530972689351
 20
2649.213557609839
 30
0.0
 11
4993.633144205928
 21
2649.213557609839
 31
0.0
  0
ARC
  5
1643
330
1F
100
AcDbEntity
  8
SANINDUSA
100
AcDbCircle
 10
4993.633144205928
 20
2649.208557609839
 30
0.0
 40
0.005
100
AcDbArc
 50
2.000000003753602
 51
90.0
  0
LINE
  5
1644
330
1F
100
AcDbEntity
  8
SANINDUSA
100
AcDbLine
 10
4993.630699912419
 20
2649.130415014607
 30
0.0
 11
4993.640842212097
 21
2649.13138409716
 31
0.0
  0
LINE
  5
164E
330
1F
100
AcDbEntity
  8
SANINDUSA
100
AcDbLine
 10
4993.542972689351
 20
2649.078057609838
 30
0.0
 11
4993.542972689351
 21
2648.998057609838
 31
0.0
  0
LINE
  5
1651
330
1F
100
AcDbEntity
  8
SANINDUSA
100
AcDbLine
 10
4993.542972689351
 20
2649.145557609839
 30
0.0
 11
4993.542972689351
 21
2649.200557609839
 31
0.0
  0
LINE
  5
1652
330
1F
100
AcDbEntity
  8
SANINDUSA
100
AcDbLine
 10
4993.582972689352
 20
2649.155557609839
 30
0.0
 11
4993.582972689352
 21
2649.190557609839
 31
0.0
  0
LINE
  5
1653
330
1F
100
AcDbEntity
  8
SANINDUSA
100
AcDbLine
 10
4993.572972689351
 20
2649.155557609839
 30
0.0
 11
4993.572972689351
 21
2649.190557609839
 31
0.0
  0
SPLINE
  5
166D
330
1F
100
AcDbEntity
  8
SANINDUSA
100
AcDbSpline
210
0.0
220
0.0
230
1.0
 70
    24
 71
     3
 72
    28
 73
    24
 74
     0
 42
0.0000000001
 43
0.0000000001
 40
0.0
 40
0.0
 40
0.0
 40
0.0
 40
0.1250000000000002
 40
0.1250000000000002
 40
0.2500000000000004
 40
0.2500000000000004
 40
0.3750000000000007
 40
0.3750000000000007
 40
0.5000000000000009
 40
0.5000000000000009
 40
0.5625000000000009
 40
0.5625000000000009
 40
0.6250000000000009
 40
0.6250000000000009
 40
0.7500000000000006
 40
0.7500000000000006
 40
0.8125000000000003
 40
0.8125000000000003
 40
0.8750000000000001
 40
0.8750000000000001
 40
0.9375000000000001
 40
0.9375000000000001
 40
1.0
 40
1.0
 40
1.0
 40
1.0
 10
4993.527972689351
 20
2648.892870563602
 30
0.0
 10
4993.527972689351
 20
2648.903213367865
 30
0.0
 10
4993.527972689351
 20
2648.913630386352
 30
0.0
 10
4993.527972689351
 20
2648.934604514356
 30
0.0
 10
4993.527972689351
 20
2648.945161622768
 30
0.0
 10
4993.527972689351
 20
2648.966411092298
 30
0.0
 10
4993.527972689351
 20
2648.977103432534
 30
0.0
 10
4993.527972689351
 20
2648.998622302272
 30
0.0
 10
4993.527972689351
 20
2649.009448775196
 30
0.0
 10
4993.527972689351
 20
2649.025791971087
 30
0.0
 10
4993.527972689351
 20
2649.031256993326
 30
0.0
 10
4993.527972689351
 20
2649.042222765416
 30
0.0
 10
4993.527972689351
 20
2649.047720640979
 30
0.0
 10
4993.527972689351
 20
2649.064242930287
 30
0.0
 10
4993.527972689351
 20
2649.075302672637
 30
0.0
 10
4993.527972689351
 20
2649.091970255248
 30
0.0
 10
4993.527972689351
 20
2649.097539187331
 30
0.0
 10
4993.527972689351
 20
2649.108706580739
 30
0.0
 10
4993.527972689351
 20
2649.114304996907
 30
0.0
 10
4993.527972689351
 20
2649.125536820731
 30
0.0
 10
4993.527972689351
 20
2649.131170113032
 30
0.0
 10
4993.527972689351
 20
2649.142481430944
 30
0.0
 10
4993.527972689351
 20
2649.148147662547
 30
0.0
 10
4993.527972689351
 20
2649.15382529114
 30
0.0
  0
SPLINE
  5
166F
330
1F
100
AcDbEntity
  8
SANINDUSA
100
AcDbSpline
210
0.0
220
0.0
230
1.0
 70
    24
 71
     3
 72
    14
 73
    10
 74
     0
 42
0.0000000001
 43
0.0000000001
 40
0.0
 40
0.0
 40
0.0
 40
0.0
 40
0.4999999999999996
 40
0.4999999999999996
 40
0.7499999999999996
 40
0.7499999999999996
 40
0.8749999999999998
 40
0.8749999999999998
 40
1.0
 40
1.0
 40
1.0
 40
1.0
 10
4993.527972689351
 20
2649.203557609839
 30
0.0
 10
4993.527972689351
 20
2649.195262059872
 30
0.0
 10
4993.527972689351
 20
2649.186968141391
 30
0.0
 10
4993.527972689351
 20
2649.174534170803
 30
0.0
 10
4993.527972689351
 20
2649.170390649401
 30
0.0
 10
4993.527972689351
 20
2649.164178053311
 30
0.0
 10
4993.527972689351
 20
2649.162107604827
 30
0.0
 10
4993.527972689351
 20
2649.157966443349
 30
0.0
 10
4993.527972689351
 20
2649.155895865697
 30
0.0
 10
4993.527972689351
 20
2649.15382529114
 30
0.0
  0
LINE
  5
1675
330
1F
100
AcDbEntity
  8
SANINDUSA
100
AcDbLine
 10
4993.964382993094
 20
2649.113557609839
 30
0.0
 11
4993.971253277978
 21
2649.126524755499
 31
0.0
  0
LINE
  5
1678
330
1F
100
AcDbEntity
  8
SANINDUSA
100
AcDbLine
 10
4993.527972689351
 20
2648.87550612296
 30
0.0
 11
4993.527972689351
 21
2648.892870563602
 31
0.0
  0
LINE
  5
167D
330
1F
100
AcDbEntity
  8
SANINDUSA
100
AcDbLine
 10
4993.977801133562
 20
2649.213557609839
 30
0.0
 11
4993.633059203037
 21
2649.213557609839
 31
0.0
  0
LINE
  5
167E
330
1F
100
AcDbEntity
  8
SANINDUSA
100
AcDbLine
 10
4993.640842212097
 20
2649.13138409716
 30
0.0
 11
4993.971223457242
 21
2649.163466156098
 31
0.0
  0
ARC
  5
167F
330
1F
100
AcDbEntity
  8
SANINDUSA
100
AcDbCircle
 10
4992.949478991077
 20
2648.954588870946
 30
0.0
 40
0.0849999284381556
100
AcDbArc
 50
270.9998454275469
 51
320.9285141594079
  0
SPLINE
  5
1680
330
1F
100
AcDbEntity
  8
SANINDUSA
100
AcDbSpline
210
0.0
220
0.0
230
1.0
 70
    24
 71
     3
 72
    30
 73
    26
 74
     0
 42
0.0000000001
 43
0.0000000001
 40
0.0
 40
0.0
 40
0.0
 40
0.0
 40
0.0381842639218131
 40
0.0764019945042047
 40
0.1145937779081358
 40
0.1733836228497918
 40
0.2321784805602514
 40
0.2930122405495425
 40
0.3538465438303768
 40
0.3953181051067451
 40
0.4368155825365953
 40
0.4782841601595732
 40
0.5325276590846429
 40
0.5867648442319459
 40
0.623839083585846
 40
0.6609409089552138
 40
0.698007177641037
 40
0.7392908176131713
 40
0.7805695085459677
 40
0.8229291114061055
 40
0.8652826643890662
 40
0.8985659110847258
 40
0.9318475599606909
 40
0.9659238555917644
 40
1.0
 40
1.0
 40
1.0
 40
1.0
 10
4992.985929220377
 20
2649.213557609839
 30
0.0
 10
4992.989716751148
 20
2649.213557609839
 30
0.0
 10
4992.997295132277
 20
2649.213557609839
 30
0.0
 10
4993.008623792054
 20
2649.213557609839
 30
0.0
 10
4993.021906553572
 20
2649.213557609839
 30
0.0
 10
4993.037048005299
 20
2649.213557609839
 30
0.0
 10
4993.054069439745
 20
2649.213557609839
 30
0.0
 10
4993.070880265168
 20
2649.213557609839
 30
0.0
 10
4993.085629577194
 20
2649.213557609839
 30
0.0
 10
4993.098236528556
 20
2649.213557609839
 30
0.0
 10
4993.108840750078
 20
2649.213557609839
 30
0.0
 10
4993.12015584624
 20
2649.213557609839
 30
0.0
 10
4993.131995526773
 20
2649.213557609839
 30
0.0
 10
4993.14281609969
 20
2649.213557609839
 30
0.0
 10
4993.151776105342
 20
2649.213557609839
 30
0.0
 10
4993.15908349927
 20
2649.213557609839
 30
0.0
 10
4993.166142975113
 20
2649.213557609839
 30
0.0
 10
4993.172816553204
 20
2649.213557609839
 30
0.0
 10
4993.178998277403
 20
2649.213557609839
 30
0.0
 10
4993.184328770538
 20
2649.213557609839
 30
0.0
 10
4993.188381337924
 20
2649.213557609839
 30
0.0
 10
4993.19127167159
 20
2649.213557609839
 30
0.0
 10
4993.193205994085
 20
2649.213557609839
 30
0.0
 10
4993.194438086023
 20
2649.213557609839
 30
0.0
 10
4993.19459207367
 20
2649.213557609839
 30
0.0
 10
4993.194669067322
 20
2649.213557609839
 30
0.0
  0
SPLINE
  5
1681
330
1F
100
AcDbEntity
  8
SANINDUSA
100
AcDbSpline
210
0.0
220
0.0
230
1.0
 70
     8
 71
     3
 72
    13
 73
     9
 74
     0
 42
0.0000000001
 43
0.0000000001
 40
0.0
 40
0.0
 40
0.0
 40
0.0
 40
0.1829194615248255
 40
0.3658358619834702
 40
0.5487549837800744
 40
0.7316723833499745
 40
0.9145903830892422
 40
1.0
 40
1.0
 40
1.0
 40
1.0
 10
4993.194669067322
 20
2649.213557609839
 30
0.0
 10
4993.195231337991
 20
2649.213502319178
 30
0.0
 10
4993.196355869919
 20
2649.213391738782
 30
0.0
 10
4993.197852055239
 20
2649.212529973578
 30
0.0
 10
4993.198991120081
 20
2649.211260115777
 30
0.0
 10
4993.199636461863
 20
2649.209677500585
 30
0.0
 10
4993.199726291067
 20
2649.208266061079
 30
0.0
 10
4993.199542448317
 20
2649.207464638131
 30
0.0
 10
4993.199483930528
 20
2649.20720954241
 30
0.0
  0
SPLINE
  5
1686
330
1F
100
AcDbEntity
  8
SANINDUSA
100
AcDbSpline
210
0.0
220
0.0
230
1.0
 70
    24
 71
     3
 72
    18
 73
    14
 74
     0
 42
0.0000000001
 43
0.0000000001
 40
0.0
 40
0.0
 40
0.0
 40
0.0
 40
0.2499999999999995
 40
0.2499999999999995
 40
0.499999999999999
 40
0.499999999999999
 40
0.562499999999999
 40
0.562499999999999
 40
0.6249999999999988
 40
0.6249999999999988
 40
0.7499999999999992
 40
0.7499999999999992
 40
1.0
 40
1.0
 40
1.0
 40
1.0
 10
4992.719229110418
 20
2649.213557609839
 30
0.0
 10
4992.74119275552
 20
2649.213557609839
 30
0.0
 10
4992.763158449696
 20
2649.213557609839
 30
0.0
 10
4992.807218739611
 20
2649.213557609839
 30
0.0
 10
4992.82931331059
 20
2649.213557609839
 30
0.0
 10
4992.857094976717
 20
2649.213557609839
 30
0.0
 10
4992.862659541302
 20
2649.213557609839
 30
0.0
 10
4992.873794116747
 20
2649.213557609839
 30
0.0
 10
4992.879365632584
 20
2649.213557609839
 30
0.0
 10
4992.896094312094
 20
2649.213557609839
 30
0.0
 10
4992.907265602362
 20
2649.213557609839
 30
0.0
 10
4992.940847746192
 20
2649.213557609839
 30
0.0
 10
4992.963326763456
 20
2649.213557609839
 30
0.0
 10
4992.985929222919
 20
2649.213557609839
 30
0.0
  0
SPLINE
  5
1687
330
1F
100
AcDbEntity
  8
SANINDUSA
100
AcDbSpline
210
0.0
220
0.0
230
1.0
 70
     8
 71
     3
 72
    11
 73
     7
 74
     0
 42
0.0000000001
 43
0.0000000001
 40
0.0230234721479646
 40
0.0230234721479646
 40
0.0230234721479646
 40
0.0230234721479646
 40
0.0561258900776601
 40
0.0873758900776601
 40
0.1030008900776601
 40
0.3299774179296955
 40
0.3299774179296955
 40
0.3299774179296955
 40
0.3299774179296955
 10
4993.169231181103
 20
2649.12355760984
 30
0.0
 10
4993.170736186781
 20
2649.126484060214
 30
0.0
 10
4993.173521441145
 20
2649.132216917408
 30
0.0
 10
4993.176638773529
 20
2649.139438114016
 30
0.0
 10
4993.186382528284
 20
2649.164406804841
 30
0.0
 10
4993.19365149701
 20
2649.186378080256
 30
0.0
 10
4993.199483922721
 20
2649.207209542463
 30
0.0
  0
SPLINE
  5
1688
330
1F
100
AcDbEntity
  8
SANINDUSA
100
AcDbSpline
210
0.0
220
0.0
230
1.0
 70
     8
 71
     3
 72
    67
 73
    63
 74
     0
 42
0.0000000001
 43
0.0000000001
 40
0.0
 40
0.0
 40
0.0
 40
0.0
 40
0.005997636032947
 40
0.0119877145742588
 40
0.0179722426763505
 40
0.0239532775327705
 40
0.0299329273346008
 40
0.0359133081896186
 40
0.0418964391087502
 40
0.047884342131065
 40
0.0538790693927881
 40
0.0598827035992237
 40
0.0658973587480522
 40
0.0719251827246005
 40
0.0822665509197088
 40
0.0925311504534787
 40
0.1027422518667721
 40
0.1129232295835796
 40
0.123097687960874
 40
0.1332895295388623
 40
0.1435230272254945
 40
0.1538226685929394
 40
0.1882751588605757
 40
0.2225270079547843
 40
0.2574026185784621
 40
0.2910074516829194
 40
0.3255260500146395
 40
0.3614276786770791
 40
0.4113896953169251
 40
0.4653634632102582
 40
0.4910002345574257
 40
0.517598519283146
 40
0.5308226016257356
 40
0.5480820864448324
 40
0.5695046440134832
 40
0.5882113326248621
 40
0.6064776749885476
 40
0.6242761117035557
 40
0.6415811246295561
 40
0.6583690966832835
 40
0.6746183117545096
 40
0.7119528686004387
 40
0.7479385030495113
 40
0.7824517512640172
 40
0.8108326776674481
 40
0.8384397169745831
 40
0.8652358899201912
 40
0.8911930205795963
 40
0.8992352060223211
 40
0.9072313161922927
 40
0.9151818493390006
 40
0.9230877977994826
 40
0.9309502776533083
 40
0.9387705232696603
 40
0.9465498886180062
 40
0.9542898483236371
 40
0.9619919984460548
 40
0.9696580569572962
 40
0.9772898638965788
 40
0.9848893811772065
 40
0.9924586920215316
 40
1.0
 40
1.0
 40
1.0
 40
1.0
 10
4992.948998139303
 20
2649.023386110031
 30
0.0
 10
4992.949472222953
 20
2649.023313129287
 30
0.0
 10
4992.950419792869
 20
2649.02316725976
 30
0.0
 10
4992.951843005854
 20
2649.022960742921
 30
0.0
 10
4992.95326671751
 20
2649.022763154203
 30
0.0
 10
4992.954691540552
 20
2649.022575159046
 30
0.0
 10
4992.956117858252
 20
2649.022396312812
 30
0.0
 10
4992.957546118208
 20
2649.022226478549
 30
0.0
 10
4992.958976737483
 20
2649.02206544388
 30
0.0
 10
4992.960410136382
 20
2649.021913023283
 30
0.0
 10
4992.961846739529
 20
2649.021769049201
 30
0.0
 10
4992.963286986199
 20
2649.021633304461
 30
0.0
 10
4992.964731303406
 20
2649.021505800367
 30
0.0
 10
4992.966524544872
 20
2649.021357193529
 30
0.0
 10
4992.968660494493
 20
2649.021200364868
 30
0.0
 10
4992.971134279108
 20
2649.021052361275
 30
0.0
 10
4992.973597189801
 20
2649.02093718205
 30
0.0
 10
4992.976054350453
 20
2649.020854440517
 30
0.0
 10
4992.978511020668
 20
2649.020803554682
 30
0.0
 10
4992.980972558065
 20
2649.0207842663
 30
0.0
 10
4992.983444440291
 20
2649.020796352619
 30
0.0
 10
4992.987867876337
 20
2649.020874441254
 30
0.0
 10
4992.994222197609
 20
2649.021152445636
 30
0.0
 10
4993.002531248482
 20
2649.021878314727
 30
0.0
 10
4993.010732719525
 20
2649.022977400697
 30
0.0
 10
4993.018896959474
 20
2649.024462610725
 30
0.0
 10
4993.027059628435
 20
2649.026367588336
 30
0.0
 10
4993.036379965716
 20
2649.029057109486
 30
0.0
 10
4993.046993037907
 20
2649.032861546613
 30
0.0
 10
4993.056538370019
 20
2649.037114212664
 30
0.0
 10
4993.064153584469
 20
2649.041021116973
 30
0.0
 10
4993.068761433124
 20
2649.043591485527
 30
0.0
 10
4993.072718125532
 20
2649.04593818131
 30
0.0
 10
4993.076289196999
 20
2649.048120829278
 30
0.0
 10
4993.080206359448
 20
2649.050587521556
 30
0.0
 10
4993.084156895172
 20
2649.053149749218
 30
0.0
 10
4993.087826090191
 20
2649.055602552865
 30
0.0
 10
4993.091364717351
 20
2649.058039357778
 30
0.0
 10
4993.094767785867
 20
2649.060454299477
 30
0.0
 10
4993.098031542089
 20
2649.06284141033
 30
0.0
 10
4993.102539047615
 20
2649.066241346953
 30
0.0
 10
4993.108158851266
 20
2649.070701762713
 30
0.0
 10
4993.114711658999
 20
2649.076299999513
 30
0.0
 10
4993.120514043324
 20
2649.081651678141
 30
0.0
 10
4993.125637594431
 20
2649.086744872266
 30
0.0
 10
4993.130158193071
 20
2649.091572738457
 30
0.0
 10
4993.134375553061
 20
2649.096426236609
 30
0.0
 10
4993.137428517209
 20
2649.100226574639
 30
0.0
 10
4993.139469067287
 20
2649.102910425983
 30
0.0
 10
4993.140615884753
 20
2649.104459315007
 30
0.0
 10
4993.141736979119
 20
2649.106015048513
 30
0.0
 10
4993.142832201063
 20
2649.107577510739
 30
0.0
 10
4993.143901400508
 20
2649.109146614592
 30
0.0
 10
4993.144944425079
 20
2649.110722275006
 30
0.0
 10
4993.145961115863
 20
2649.112304408224
 30
0.0
 10
4993.14695130268
 20
2649.113892933872
 30
0.0
 10
4993.147914822914
 20
2649.115487765879
 30
0.0
 10
4993.148851447791
 20
2649.11708884545
 30
0.0
 10
4993.149761153205
 20
2649.118696017986
 30
0.0
 10
4993.150643112992
 20
2649.120309488615
 30
0.0
 10
4993.151499430303
 20
2649.121928131969
 30
0.0
 10
4993.152048298359
 20
2649.123015122038
 30
0.0
 10
4993.152322223808
 20
2649.123557609872
 30
0.0
  0
SPLINE
  5
168F
330
1F
100
AcDbEntity
  8
SANINDUSA
100
AcDbSpline
210
0.0
220
0.0
230
1.0
 70
     8
 71
     3
 72
    12
 73
     8
 74
     0
 42
0.0000000001
 43
0.0000000001
 40
0.0
 40
0.0
 40
0.0
 40
0.0
 40
0.5000000000000023
 40
0.5000000000000023
 40
0.7500000000000011
 40
0.7500000000000011
 40
1.0
 40
1.0
 40
1.0
 40
1.0
 10
4992.948578610395
 20
2649.164481358511
 30
0.0
 10
4992.954775468956
 20
2649.164479319397
 30
0.0
 10
4992.960995310173
 20
2649.164367886688
 30
0.0
 10
4992.97033451937
 20
2649.164116029338
 30
0.0
 10
4992.973449695179
 20
2649.164017390766
 30
0.0
 10
4992.979684575598
 20
2649.163800213193
 30
0.0
 10
4992.982805393794
 20
2649.163681415962
 30
0.0
 10
4992.985924807832
 20
2649.163557609839
 30
0.0
  0
SPLINE
  5
1690
330
1F
100
AcDbEntity
  8
SANINDUSA
100
AcDbSpline
210
0.0
220
0.0
230
1.0
 70
     8
 71
     3
 72
    10
 73
     6
 74
     0
 42
0.0000000001
 43
0.0000000001
 40
0.0
 40
0.0
 40
0.0
 40
0.0
 40
0.5
 40
0.5
 40
1.0
 40
1.0
 40
1.0
 40
1.0
 10
4992.931576319191
 20
2649.164131826391
 30
0.0
 10
4992.93439491305
 20
2649.164264319908
 30
0.0
 10
4992.937221605973
 20
2649.164350686216
 30
0.0
 10
4992.94288997439
 20
2649.164459822821
 30
0.0
 10
4992.945731840881
 20
2649.164482295257
 30
0.0
 10
4992.948578610395
 20
2649.164481358511
 30
0.0
  0
SPLINE
  5
1692
330
1F
100
AcDbEntity
  8
SANINDUSA
100
AcDbSpline
210
0.0
220
0.0
230
1.0
 70
     8
 71
     3
 72
    22
 73
    18
 74
     0
 42
0.0000000001
 43
0.0000000001
 40
0.0
 40
0.0
 40
0.0
 40
0.0
 40
0.0312500000000001
 40
0.0312500000000001
 40
0.0625000000000003
 40
0.0625000000000003
 40
0.1250000000000003
 40
0.1250000000000003
 40
0.2500000000000003
 40
0.2500000000000003
 40
0.3750000000000003
 40
0.3750000000000003
 40
0.5000000000000002
 40
0.5000000000000002
 40
0.7500000000000001
 40
0.7500000000000001
 40
1.0
 40
1.0
 40
1.0
 40
1.0
 10
4992.718616881526
 20
2649.167638859408
 30
0.0
 10
4992.719057905708
 20
2649.167448633486
 30
0.0
 10
4992.719514415937
 20
2649.167287947411
 30
0.0
 10
4992.720433504683
 20
2649.16699795978
 30
0.0
 10
4992.720897672935
 20
2649.166868993154
 30
0.0
 10
4992.722298668144
 20
2649.166511520377
 30
0.0
 10
4992.723239148072
 20
2649.166313057187
 30
0.0
 10
4992.726064969309
 20
2649.165779502406
 30
0.0
 10
4992.727958169839
 20
2649.165504102153
 30
0.0
 10
4992.731753380645
 20
2649.165029495267
 30
0.0
 10
4992.733655714538
 20
2649.164833080924
 30
0.0
 10
4992.737466522617
 20
2649.164493478145
 30
0.0
 10
4992.739375056846
 20
2649.164350803308
 30
0.0
 10
4992.745107714926
 20
2649.163983925664
 30
0.0
 10
4992.748936061492
 20
2649.163820135608
 30
0.0
 10
4992.756592380932
 20
2649.163606534507
 30
0.0
 10
4992.760421280907
 20
2649.163557609839
 30
0.0
 10
4992.764250874981
 20
2649.163557609839
 30
0.0
  0
SPLINE
  5
1694
330
1F
100
AcDbEntity
  8
SANINDUSA
100
AcDbSpline
210
0.0
220
0.0
230
1.0
 70
     8
 71
     3
 72
    10
 73
     6
 74
     0
 42
0.0000000001
 43
0.0000000001
 40
0.0
 40
0.0
 40
0.0
 40
0.0
 40
0.5
 40
0.5
 40
1.0
 40
1.0
 40
1.0
 40
1.0
 10
4992.909775555353
 20
2649.163557609839
 30
0.0
 10
4992.913389573794
 20
2649.163557609839
 30
0.0
 10
4992.91701309942
 20
2649.163613986335
 30
0.0
 10
4992.924281322935
 20
2649.163812809558
 30
0.0
 10
4992.927924366529
 20
2649.163955385113
 30
0.0
 10
4992.931576319191
 20
2649.164131826391
 30
0.0
  0
SPLINE
  5
1695
330
1F
100
AcDbEntity
  8
SANINDUSA
100
AcDbSpline
210
0.0
220
0.0
230
1.0
 70
    24
 71
     3
 72
    12
 73
     8
 74
     0
 42
0.0000000001
 43
0.0000000001
 40
0.0
 40
0.0
 40
0.0
 40
0.0
 40
0.25
 40
0.25
 40
0.5
 40
0.5
 40
1.0
 40
1.0
 40
1.0
 40
1.0
 10
4992.909775555353
 20
2649.163557609839
 30
0.0
 10
4992.897539967676
 20
2649.163557609839
 30
0.0
 10
4992.885336568099
 20
2649.163557609839
 30
0.0
 10
4992.860981453451
 20
2649.163557609839
 30
0.0
 10
4992.848826375062
 20
2649.163557609839
 30
0.0
 10
4992.812457211221
 20
2649.163557609839
 30
0.0
 10
4992.788330769802
 20
2649.163557609839
 30
0.0
 10
4992.764250874981
 20
2649.163557609839
 30
0.0
  0
SPLINE
  5
1699
330
1F
100
AcDbEntity
  8
SANINDUSA
100
AcDbSpline
210
0.0
220
0.0
230
1.0
 70
     8
 71
     3
 72
    17
 73
    13
 74
     0
 42
0.0000000001
 43
0.0000000001
 40
0.0
 40
0.0
 40
0.0
 40
0.0
 40
0.1008565607331466
 40
0.2014624081429496
 40
0.301839639618579
 40
0.4020106612294835
 40
0.5019978941200712
 40
0.6018242662315458
 40
0.701513277248973
 40
0.8010890119945857
 40
0.9005761540938603
 40
0.9999999999999998
 40
0.9999999999999998
 40
0.9999999999999998
 40
0.9999999999999998
 10
4992.935519206848
 20
2649.02596250218
 30
0.0
 10
4992.935968662475
 20
2649.025860867832
 30
0.0
 10
4992.936866456455
 20
2649.025657851785
 30
0.0
 10
4992.93821479629
 20
2649.025366234234
 30
0.0
 10
4992.939562338746
 20
2649.025084300537
 30
0.0
 10
4992.940909538238
 20
2649.024812733622
 30
0.0
 10
4992.942256552918
 20
2649.024551065899
 30
0.0
 10
4992.943603635698
 20
2649.02429916115
 30
0.0
 10
4992.944951014148
 20
2649.024056733636
 30
0.0
 10
4992.946298993384
 20
2649.023823792621
 30
0.0
 10
4992.947647667993
 20
2649.023599345961
 30
0.0
 10
4992.948548077833
 20
2649.023457173574
 30
0.0
 10
4992.948998139493
 20
2649.023386110002
 30
0.0
  0
SPLINE
  5
169A
330
1F
100
AcDbEntity
  8
SANINDUSA
100
AcDbSpline
210
0.0
220
0.0
230
1.0
 70
     8
 71
     3
 72
    18
 73
    14
 74
     0
 42
0.0000000001
 43
0.0000000001
 40
0.0
 40
0.0
 40
0.0
 40
0.0
 40
0.1249999999999978
 40
0.1249999999999978
 40
0.2499999999999956
 40
0.2499999999999956
 40
0.4999999999999958
 40
0.4999999999999958
 40
0.749999999999996
 40
0.749999999999996
 40
0.874999999999998
 40
0.874999999999998
 40
1.0
 40
1.0
 40
1.0
 40
1.0
 10
4992.920221373728
 20
2649.030182755097
 30
0.0
 10
4992.920850380233
 20
2649.029969108428
 30
0.0
 10
4992.92148068909
 20
2649.029758993426
 30
0.0
 10
4992.922743664323
 20
2649.029349607357
 30
0.0
 10
4992.923376195165
 20
2649.029149760217
 30
0.0
 10
4992.925276894218
 20
2649.028564708794
 30
0.0
 10
4992.926548168189
 20
2649.028193993968
 30
0.0
 10
4992.929098891032
 20
2649.027490953262
 30
0.0
 10
4992.930378664638
 20
2649.027158549764
 30
0.0
 10
4992.932303013057
 20
2649.026688899418
 30
0.0
 10
4992.932945293855
 20
2649.026536921697
 30
0.0
 10
4992.934230739839
 20
2649.026245798861
 30
0.0
 10
4992.934874417219
 20
2649.026103339273
 30
0.0
 10
4992.93551904238
 20
2649.02596397771
 30
0.0
  0
SPLINE
  5
169B
330
1F
100
AcDbEntity
  8
SANINDUSA
100
AcDbSpline
210
0.0
220
0.0
230
1.0
 70
     8
 71
     3
 72
    20
 73
    16
 74
     0
 42
0.0000000001
 43
0.0000000001
 40
0.0
 40
0.0
 40
0.0
 40
0.0
 40
0.0782189551688296
 40
0.1562033171938297
 40
0.2339578994315567
 40
0.3114876434952887
 40
0.3887975726953301
 40
0.4658927989336803
 40
0.5427785328634009
 40
0.6194600940881948
 40
0.6959429197957966
 40
0.772232563137929
 40
0.8483347112191255
 40
0.9242552027175118
 40
1.0
 40
1.0
 40
1.0
 40
1.0
 10
4992.905464092021
 20
2649.035798915446
 30
0.0
 10
4992.905841933858
 20
2649.035633946817
 30
0.0
 10
4992.906596484314
 20
2649.035304504332
 30
0.0
 10
4992.907731276567
 20
2649.034822729758
 30
0.0
 10
4992.908866005216
 20
2649.034350809689
 30
0.0
 10
4992.91000097542
 20
2649.03388943605
 30
0.0
 10
4992.911136068491
 20
2649.033438239753
 30
0.0
 10
4992.912271284756
 20
2649.03299713485
 30
0.0
 10
4992.913406599259
 20
2649.032565961613
 30
0.0
 10
4992.914541998468
 20
2649.03214457602
 30
0.0
 10
4992.915677477546
 20
2649.031732847587
 30
0.0
 10
4992.916813015228
 20
2649.031330579698
 30
0.0
 10
4992.917948678236
 20
2649.030937829647
 30
0.0
 10
4992.919084229869
 20
2649.030553712504
 30
0.0
 10
4992.91984265869
 20
2649.03030485679
 30
0.0
 10
4992.920221433804
 20
2649.030180573075
 30
0.0
  0
SPLINE
  5
169C
330
1F
100
AcDbEntity
  8
SANINDUSA
100
AcDbSpline
210
0.0
220
0.0
230
1.0
 70
     8
 71
     3
 72
    14
 73
    10
 74
     0
 42
0.0000000001
 43
0.0000000001
 40
-0.0027789222495438
 40
-0.0027789222495438
 40
-0.0027789222495438
 40
-0.0027789222495438
 40
0.0
 40
0.0
 40
0.0
 40
0.0060002112403332
 40
0.0060002112403332
 40
0.0060002112403332
 40
0.0132427049307516
 40
0.0132427049307516
 40
0.0132427049307516
 40
0.0132427049307516
 10
4992.905464138983
 20
2649.035799586896
 30
0.0
 10
4992.904625782569
 20
2649.036167486143
 30
0.0
 10
4992.903790144213
 20
2649.036538472217
 30
0.0
 10
4992.90295795063
 20
2649.036920278662
 30
0.0
 10
4992.901161090141
 20
2649.037744669681
 30
0.0
 10
4992.899378930648
 20
2649.038607730307
 30
0.0
 10
4992.897614145841
 20
2649.039508729143
 30
0.0
 10
4992.895487467574
 20
2649.040594490215
 30
0.0
 10
4992.893387987222
 20
2649.041750582423
 30
0.0
 10
4992.891310398428
 20
2649.042932263853
 30
0.0
  0
SPLINE
  5
169D
330
1F
100
AcDbEntity
  8
SANINDUSA
100
AcDbSpline
210
0.0
220
0.0
230
1.0
 70
     8
 71
     3
 72
     8
 73
     4
 74
     0
 42
0.0000000001
 43
0.0000000001
 40
0.013242703723704
 40
0.013242703723704
 40
0.013242703723704
 40
0.013242703723704
 40
0.0226401296527728
 40
0.0226401296527728
 40
0.0226401296527728
 40
0.0226401296527728
 10
4992.891310399532
 20
2649.042932263483
 30
0.0
 10
4992.888616515684
 20
2649.044452811592
 30
0.0
 10
4992.885965531851
 20
2649.046073279222
 30
0.0
 10
4992.883376506465
 20
2649.04779782535
 30
0.0
  0
ARC
  5
169F
330
1F
100
AcDbEntity
  8
SANINDUSA
100
AcDbCircle
 10
4992.81215879264
 20
2649.157975997061
 30
0.0
 40
0.005584095065149
100
AcDbArc
 50
13.37861066644923
 51
88.29128938099927
  0
SPLINE
  5
16AE
330
1F
100
AcDbEntity
  8
SANINDUSA
100
AcDbSpline
210
0.0
220
0.0
230
1.0
 70
     8
 71
     3
 72
    28
 73
    24
 74
     0
 42
0.0000000001
 43
0.0000000001
 40
0.0
 40
0.0
 40
0.0
 40
0.0
 40
0.0625
 40
0.0625
 40
0.125
 40
0.125
 40
0.1875
 40
0.1875
 40
0.25
 40
0.25
 40
0.3125
 40
0.3125
 40
0.375
 40
0.375
 40
0.5
 40
0.5
 40
0.625
 40
0.625
 40
0.75
 40
0.75
 40
0.875
 40
0.875
 40
1.0
 40
1.0
 40
1.0
 40
1.0
 10
4992.786145746094
 20
2649.158482376458
 30
0.0
 10
4992.786191650129
 20
2649.158776648701
 30
0.0
 10
4992.786256574023
 20
2649.159051197708
 30
0.0
 10
4992.786415412691
 20
2649.159570979105
 30
0.0
 10
4992.786509075656
 20
2649.159813975763
 30
0.0
 10
4992.786711785605
 20
2649.160260617027
 30
0.0
 10
4992.786819592519
 20
2649.160462476959
 30
0.0
 10
4992.787044430269
 20
2649.16083640573
 30
0.0
 10
4992.787161510808
 20
2649.161008292363
 30
0.0
 10
4992.787403043378
 20
2649.161328809797
 30
0.0
 10
4992.787527101191
 20
2649.161476732759
 30
0.0
 10
4992.787777406534
 20
2649.161749640814
 30
0.0
 10
4992.787904168313
 20
2649.161875262672
 30
0.0
 10
4992.788288540311
 20
2649.162225598258
 30
0.0
 10
4992.788550194902
 20
2649.162424105429
 30
0.0
 10
4992.789082216113
 20
2649.162768105575
 30
0.0
 10
4992.789350618153
 20
2649.162912041021
 30
0.0
 10
4992.789888997344
 20
2649.163153372608
 30
0.0
 10
4992.790159459708
 20
2649.163250953656
 30
0.0
 10
4992.790702935312
 20
2649.163405674998
 30
0.0
 10
4992.790975948591
 20
2649.163462767592
 30
0.0
 10
4992.791524664769
 20
2649.16353882146
 30
0.0
 10
4992.791800106029
 20
2649.163557609839
 30
0.0
 10
4992.792074051644
 20
2649.163557609839
 30
0.0
  0
ARC
  5
16AF
330
1F
100
AcDbEntity
  8
SANINDUSA
100
AcDbCircle
 10
4992.719229110418
 20
2649.210557609839
 30
0.0
 40
0.0030000000000001
100
AcDbArc
 50
90.0
 51
180.0
  0
SPLINE
  5
16B1
330
1F
100
AcDbEntity
  8
SANINDUSA
100
AcDbSpline
210
0.0
220
0.0
230
1.0
 70
    24
 71
     3
 72
    20
 73
    16
 74
     0
 42
0.0000000001
 43
0.0000000001
 40
0.0
 40
0.0
 40
0.0
 40
0.0
 40
0.2500000000000081
 40
0.2500000000000081
 40
0.375000000000007
 40
0.375000000000007
 40
0.5000000000000055
 40
0.5000000000000055
 40
0.6250000000000041
 40
0.6250000000000041
 40
0.7500000000000028
 40
0.7500000000000028
 40
0.8750000000000014
 40
0.8750000000000014
 40
1.0
 40
1.0
 40
1.0
 40
1.0
 10
4992.716229110419
 20
2649.208547219612
 30
0.0
 10
4992.716229110419
 20
2649.208815950516
 30
0.0
 10
4992.716229110419
 20
2649.209082756999
 30
0.0
 10
4992.716229110419
 20
2649.209448015555
 30
0.0
 10
4992.716229110419
 20
2649.209566195556
 30
0.0
 10
4992.716229110419
 20
2649.209785183415
 30
0.0
 10
4992.716229110419
 20
2649.209885923714
 30
0.0
 10
4992.716229110419
 20
2649.210070323388
 30
0.0
 10
4992.716229110419
 20
2649.210154282967
 30
0.0
 10
4992.716229110419
 20
2649.210297829519
 30
0.0
 10
4992.716229110419
 20
2649.210358486366
 30
0.0
 10
4992.716229110419
 20
2649.210457453208
 30
0.0
 10
4992.716229110419
 20
2649.210495099436
 30
0.0
 10
4992.716229110419
 20
2649.210544914055
 30
0.0
 10
4992.716229110419
 20
2649.210557609839
 30
0.0
 10
4992.716229110419
 20
2649.210557609839
 30
0.0
  0
SPLINE
  5
16B3
330
1F
100
AcDbEntity
  8
SANINDUSA
100
AcDbSpline
210
0.0
220
0.0
230
1.0
 70
    24
 71
     3
 72
     8
 73
     4
 74
     0
 42
0.0000000001
 43
0.0000000001
 40
0.0
 40
0.0
 40
0.0
 40
0.0
 40
1.0
 40
1.0
 40
1.0
 40
1.0
 10
4992.716229110419
 20
2649.169399000104
 30
0.0
 10
4992.716229110419
 20
2649.182436591439
 30
0.0
 10
4992.716229110419
 20
2649.195490692765
 30
0.0
 10
4992.716229110419
 20
2649.208547219612
 30
0.0
  0
LWPOLYLINE
  5
16B4
330
1F
100
AcDbEntity
  8
SANINDUSA
100
AcDbPolyline
 90
        9
 70
   128
 43
0.0
 10
4992.716229110419
 20
2649.168598236066
 10
4992.716272691506
 20
2649.168431797547
 10
4992.716402168561
 20
2649.168270198179
 10
4992.716613779733
 20
2649.168118128104
 10
4992.716901376888
 20
2649.16798000924
 10
4992.717256604156
 20
2649.167859850002
 10
4992.717669140708
 20
2649.16776114471
 10
4992.718127000772
 20
2649.167686761839
 10
4992.718616881568
 20
2649.16763885833
  0
SPLINE
  5
16B5
330
1F
100
AcDbEntity
  8
SANINDUSA
100
AcDbSpline
210
0.0
220
0.0
230
1.0
 70
    24
 71
     3
 72
     8
 73
     4
 74
     0
 42
0.0000000001
 43
0.0000000001
 40
0.0
 40
0.0
 40
0.0
 40
0.0
 40
1.0
 40
1.0
 40
1.0
 40
1.0
 10
4992.716229110419
 20
2649.168598234623
 30
0.0
 10
4992.716229110419
 20
2649.168857826408
 30
0.0
 10
4992.716229110419
 20
2649.169124730175
 30
0.0
 10
4992.716229110419
 20
2649.169399000104
 30
0.0
  0
SPLINE
  5
16B6
330
1F
100
AcDbEntity
  8
SANINDUSA
100
AcDbSpline
210
0.0
220
0.0
230
1.0
 70
    24
 71
     3
 72
     8
 73
     4
 74
     0
 42
0.0000000001
 43
0.0000000001
 40
0.0
 40
0.0
 40
0.0
 40
0.0
 40
1.0
 40
1.0
 40
1.0
 40
1.0
 10
4992.716229110419
 20
2649.165471877968
 30
0.0
 10
4992.716229110419
 20
2649.166545299023
 30
0.0
 10
4992.716229110419
 20
2649.167584055217
 30
0.0
 10
4992.716229110419
 20
2649.168598234623
 30
0.0
  0
SPLINE
  5
16B7
330
1F
100
AcDbEntity
  8
SANINDUSA
100
AcDbSpline
210
0.0
220
0.0
230
1.0
 70
    24
 71
     3
 72
     8
 73
     4
 74
     0
 42
0.0000000001
 43
0.0000000001
 40
0.0
 40
0.0
 40
0.0
 40
0.0
 40
1.0
 40
1.0
 40
1.0
 40
1.0
 10
4992.786145746094
 20
2649.158482376458
 30
0.0
 10
4992.786106020447
 20
2649.158227711367
 30
0.0
 10
4992.786082841053
 20
2649.157971808147
 30
0.0
 10
4992.786076107694
 20
2649.157714671528
 30
0.0
  0
SPLINE
  5
16C9
330
1F
100
AcDbEntity
  8
SANINDUSA
100
AcDbSpline
210
0.0
220
0.0
230
1.0
 70
     8
 71
     3
 72
    15
 73
    11
 74
     0
 42
0.0000000001
 43
0.0000000001
 40
0.0
 40
0.0
 40
0.0
 40
0.0
 40
0.1180585696964303
 40
0.2361237395449529
 40
0.3547801459069781
 40
0.4734419552760459
 40
0.5614602686527288
 40
0.6494797306318445
 40
0.8256656137593253
 40
1.0
 40
1.0
 40
1.0
 40
1.0
 10
4993.169231175839
 20
2649.123557606262
 30
0.0
 10
4993.164236026622
 20
2649.114134211989
 30
0.0
 10
4993.154245448931
 20
2649.09528689662
 30
0.0
 10
4993.137830306223
 20
2649.06774997327
 30
0.0
 10
4993.120535501527
 20
2649.040701880778
 30
0.0
 10
4993.103948355855
 20
2649.016438206768
 30
0.0
 10
4993.088447337532
 20
2648.994796026247
 30
0.0
 10
4993.069494774275
 20
2648.969240025696
 30
0.0
 10
4993.045255059218
 20
2648.937903935304
 30
0.0
 10
4993.025364561832
 20
2648.91326932307
 30
0.0
 10
4993.015471845328
 20
2648.90101707868
 30
0.0
  0
SPLINE
  5
16CF
330
1F
100
AcDbEntity
  8
SANINDUSA
100
AcDbSpline
210
0.0
220
0.0
230
1.0
 70
    24
 71
     3
 72
     8
 73
     4
 74
     0
 42
0.0000000001
 43
0.0000000001
 40
0.0
 40
0.0
 40
0.0
 40
0.0
 40
0.0002420623161573
 40
0.0002420623161573
 40
0.0002420623161573
 40
0.0002420623161573
 10
4992.779125700989
 20
2648.892289347994
 30
0.0
 10
4992.779123651767
 20
2648.892211091332
 30
0.0
 10
4992.779121657672
 20
2648.892132867302
 30
0.0
 10
4992.779119715208
 20
2648.892054677145
 30
0.0
  0
SPLINE
  5
16D2
330
1F
100
AcDbEntity
  8
SANINDUSA
100
AcDbSpline
210
0.0
220
0.0
230
1.0
 70
    24
 71
     3
 72
    10
 73
     6
 74
     0
 42
0.0000000001
 43
0.0000000001
 40
0.0
 40
0.0
 40
0.0
 40
0.0
 40
0.0538288018111604
 40
0.5478722847180237
 40
1.0
 40
1.0
 40
1.0
 40
1.0
 10
4992.781819082259
 20
2648.866649487537
 30
0.0
 10
4992.780696973909
 20
2648.866629897302
 30
0.0
 10
4992.769276098014
 20
2648.866430506885
 30
0.0
 10
4992.74843022484
 20
2648.866066670704
 30
0.0
 10
4992.728706463091
 20
2648.865722398484
 30
0.0
 10
4992.719281467537
 20
2648.865557888073
 30
0.0
  0
SPLINE
  5
16D4
330
1F
100
AcDbEntity
  8
SANINDUSA
100
AcDbSpline
210
0.0
220
0.0
230
1.0
 70
     8
 71
     3
 72
    15
 73
    11
 74
     0
 42
0.0000000001
 43
0.0000000001
 40
0.0
 40
0.0
 40
0.0
 40
0.0
 40
0.1208996931603322
 40
0.2418009914232595
 40
0.3731987210934522
 40
0.5045946568560208
 40
0.6452990349602907
 40
0.7859918979409591
 40
0.8930658011339641
 40
1.0
 40
1.0
 40
1.0
 40
1.0
 10
4992.779119714557
 20
2648.892054685874
 30
0.0
 10
4992.77909270848
 20
2648.890415364178
 30
0.0
 10
4992.779038695966
 20
2648.887136699025
 30
0.0
 10
4992.779139465756
 20
2648.882434325793
 30
0.0
 10
4992.779383078893
 20
2648.878043968992
 30
0.0
 10
4992.779796064822
 20
2648.874043537644
 30
0.0
 10
4992.780352178472
 20
2648.870740107562
 30
0.0
 10
4992.781050917939
 20
2648.868493041108
 30
0.0
 10
4992.781664672033
 20
2648.867163992215
 30
0.0
 10
4992.782285204936
 20
2648.866880074992
 30
0.0
 10
4992.782595268844
 20
2648.866738209051
 30
0.0
  0
ARC
  5
16D6
330
1F
100
AcDbEntity
  8
SANINDUSA
100
AcDbCircle
 10
4992.719229110418
 20
2648.868557421858
 30
0.0
 40
0.0029999999999998
100
AcDbArc
 50
180.0
 51
271.00000000972
  0
SPLINE
  5
16D7
330
1F
100
AcDbEntity
  8
SANINDUSA
100
AcDbSpline
210
0.0
220
0.0
230
1.0
 70
    24
 71
     3
 72
    14
 73
    10
 74
     0
 42
0.0000000001
 43
0.0000000001
 40
0.0
 40
0.0
 40
0.0
 40
0.0
 40
0.1089726023927467
 40
0.2574692281106084
 40
0.405965816207103
 40
0.554474706438615
 40
0.7029834978186029
 40
0.8514918324512416
 40
1.0
 40
1.0
 40
1.0
 40
1.0
 10
4992.716229110419
 20
2648.868557432217
 30
0.0
 10
4992.716229110419
 20
2648.868612826902
 30
0.0
 10
4992.716229110419
 20
2648.868743707753
 30
0.0
 10
4992.716229110419
 20
2648.869977523972
 30
0.0
 10
4992.716229110419
 20
2648.872260038235
 30
0.0
 10
4992.716229110419
 20
2648.87552194319
 30
0.0
 10
4992.716229110419
 20
2648.879623601001
 30
0.0
 10
4992.716229110419
 20
2648.884445663987
 30
0.0
 10
4992.716229110419
 20
2648.888132359131
 30
0.0
 10
4992.716229110419
 20
2648.889975705666
 30
0.0
  0
LINE
  5
16DC
330
1F
100
AcDbEntity
  8
SANINDUSA
100
AcDbLine
 10
4992.950617724473
 20
2648.869595877982
 30
0.0
 11
4992.783238484918
 21
2648.866674253267
 31
0.0
  0
SPLINE
  5
16DD
330
1F
100
AcDbEntity
  8
SANINDUSA
100
AcDbSpline
210
0.0
220
0.0
230
1.0
 70
    24
 71
     3
 72
     9
 73
     5
 74
     0
 42
0.0000000001
 43
0.0000000001
 40
0.0
 40
0.0
 40
0.0
 40
0.0
 40
0.4883073669811106
 40
1.0
 40
1.0
 40
1.0
 40
1.0
 10
4992.950949280917
 20
2648.869601645989
 30
0.0
 10
4992.950895196269
 20
2648.86960070976
 30
0.0
 10
4992.950784436834
 20
2648.869598792466
 30
0.0
 10
4992.950075033806
 20
2648.869586406775
 30
0.0
 10
4992.949712037503
 20
2648.869580069107
 30
0.0
  0
SPLINE
  5
16DE
330
1F
100
AcDbEntity
  8
SANINDUSA
100
AcDbSpline
210
0.0
220
0.0
230
1.0
 70
    24
 71
     3
 72
     9
 73
     5
 74
     0
 42
0.0000000001
 43
0.0000000001
 40
0.0
 40
0.0
 40
0.0
 40
0.0
 40
0.0120042149759156
 40
1.0
 40
1.0
 40
1.0
 40
1.0
 10
4992.783238484918
 20
2648.866674253267
 30
0.0
 10
4992.783232777606
 20
2648.866674153925
 30
0.0
 10
4992.782757335267
 20
2648.866665878286
 30
0.0
 10
4992.782285376012
 20
2648.866657633425
 30
0.0
 10
4992.781819082259
 20
2648.866649487537
 30
0.0
  0
ARC
  5
16E0
330
1F
100
AcDbEntity
  8
SANINDUSA
100
AcDbCircle
 10
4993.033405422472
 20
2649.211540852723
 30
0.0
 40
0.2220544038167108
100
AcDbArc
 50
193.6155144286425
 51
227.4999584215489
  0
LINE
  5
16FE
330
1F
100
AcDbEntity
  8
SANINDUSA
100
AcDbLine
 10
4992.786076105594
 20
2649.157714670074
 30
0.0
 11
4992.779119715208
 21
2648.892054677145
 31
0.0
  0
LINE
  5
16FF
330
1F
100
AcDbEntity
  8
SANINDUSA
100
AcDbLine
 10
4992.716229110419
 20
2648.889975705666
 30
0.0
 11
4992.716229110419
 21
2649.165471877968
 31
0.0
  0
LINE
  5
298A
330
1F
100
AcDbEntity
  8
SANINDUSA
100
AcDbLine
 10
4991.636972856593
 20
2649.049466600413
 30
0.0
 11
4991.69185300998
 21
2649.049466600413
 31
0.0
  0
ENDSEC
  0
SECTION
  2
OBJECTS
  0
DICTIONARY
  5
C
330
0
100
AcDbDictionary
281
     1
  3
ACAD_2007HEADERVARS_RT
350
3E21
  3
ACAD_BACKGROUND
350
3DBF
  3
ACAD_COLOR
350
EE6
  3
ACAD_GROUP
350
D
  3
ACAD_LAYOUT
350
1A
  3
ACAD_MATERIAL
350
EE5
  3
ACAD_MLEADERSTYLE
350
10A8
  3
ACAD_MLINESTYLE
350
17
  3
ACAD_PLOTSETTINGS
350
19
  3
ACAD_PLOTSTYLENAME
350
E
  3
ACAD_SCALELIST
350
1096
  3
ACAD_TABLESTYLE
350
EE7
  3
ACAD_VISUALSTYLE
350
1082
  3
ACDB_RECOMPOSE_DATA
350
3E1F
  3
AcDbVariableDictionary
350
3D
  3
AEC_PROPERTY_SET_DEFS
350
14DE
  3
ASE_INDEX_DICTIONARY
350
1066
  3
Autodesk_PNP
350
10B2
  3
DWGPROPS
350
3E20
  0
DICTIONARY
  5
3DC7
330
8
100
AcDbDictionary
280
     1
281
     1
  0
DICTIONARY
  5
1051
330
2
100
AcDbDictionary
280
     1
281
     1
  3
ACAD_LAYERFILTERS
360
1065
  3
ACAD_LAYERSTATES
360
12B6
  3
ACLYDICTIONARY
360
1064
  0
DICTIONARY
  5
3D4D
330
10
100
AcDbDictionary
280
     1
281
     1
  3
ADSK_XREC_LAYER_RECONCILED
360
3D4E
  0
DICTIONARY
  5
3D4F
330
2F
100
AcDbDictionary
280
     1
281
     1
  3
ADSK_XREC_LAYER_RECONCILED
360
3D50
  0
DICTIONARY
  5
3D51
330
30
100
AcDbDictionary
280
     1
281
     1
  3
ADSK_XREC_LAYER_RECONCILED
360
3D52
  0
DICTIONARY
  5
3D53
330
31
100
AcDbDictionary
280
     1
281
     1
  3
ADSK_XREC_LAYER_RECONCILED
360
3D54
  0
DICTIONARY
  5
3D55
330
32
100
AcDbDictionary
280
     1
281
     1
  3
ADSK_XREC_LAYER_RECONCILED
360
3D56
  0
DICTIONARY
  5
3D57
330
33
100
AcDbDictionary
280
     1
281
     1
  3
ADSK_XREC_LAYER_RECONCILED
360
3D58
  0
DICTIONARY
  5
3D59
330
34
100
AcDbDictionary
280
     1
281
     1
  3
ADSK_XREC_LAYER_RECONCILED
360
3D5A
  0
DICTIONARY
  5
3D5B
330
35
100
AcDbDictionary
280
     1
281
     1
  3
ADSK_XREC_LAYER_RECONCILED
360
3D5C
  0
DICTIONARY
  5
3D5D
330
36
100
AcDbDictionary
280
     1
281
     1
  3
ADSK_XREC_LAYER_RECONCILED
360
3D5E
  0
DICTIONARY
  5
3D5F
330
37
100
AcDbDictionary
280
     1
281
     1
  3
ADSK_XREC_LAYER_RECONCILED
360
3D60
  0
DICTIONARY
  5
3D61
330
5D6
100
AcDbDictionary
280
     1
281
     1
  3
ADSK_XREC_LAYER_RECONCILED
360
3D62
  0
DICTIONARY
  5
3D63
330
8AF
100
AcDbDictionary
280
     1
281
     1
  3
ADSK_XREC_LAYER_RECONCILED
360
3D64
  0
DICTIONARY
  5
3D65
330
8F8
100
AcDbDictionary
280
     1
281
     1
  3
ADSK_XREC_LAYER_RECONCILED
360
3D66
  0
DICTIONARY
  5
3D67
330
91D
100
AcDbDictionary
280
     1
281
     1
  3
ADSK_XREC_LAYER_RECONCILED
360
3D68
  0
DICTIONARY
  5
3D69
330
C7B
100
AcDbDictionary
280
     1
281
     1
  3
ADSK_XREC_LAYER_RECONCILED
360
3D6A
  0
DICTIONARY
  5
3D6B
330
1060
100
AcDbDictionary
280
     1
281
     1
  3
ADSK_XREC_LAYER_RECONCILED
360
3D6C
  0
DICTIONARY
  5
3E21
102
{ACAD_REACTORS
330
C
102
}
330
C
100
AcDbDictionary
281
     1
  3
DIMJOGANG
350
3E22
  0
DICTIONARY
  5
3DBF
102
{ACAD_REACTORS
330
C
102
}
330
C
100
AcDbDictionary
281
     1
  0
DICTIONARY
  5
EE6
102
{ACAD_REACTORS
330
C
102
}
330
C
100
AcDbDictionary
281
     1
  0
DICTIONARY
  5
D
102
{ACAD_REACTORS
330
C
102
}
330
C
100
AcDbDictionary
281
     1
  0
DICTIONARY
  5
1A
102
{ACAD_REACTORS
330
C
102
}
330
C
100
AcDbDictionary
281
     1
  3
Layout1
350
1E
  3
Layout2
350
26
  3
Model
350
22
  0
DICTIONARY
  5
EE5
102
{ACAD_REACTORS
330
C
102
}
330
C
100
AcDbDictionary
281
     1
  3
ByBlock
350
1072
  3
ByLayer
350
106A
  3
Global
350
107A
  0
DICTIONARY
  5
10A8
102
{ACAD_REACTORS
330
C
102
}
330
C
100
AcDbDictionary
281
     1
  3
Standard
350
10A9
  0
DICTIONARY
  5
17
102
{ACAD_REACTORS
330
C
102
}
330
C
100
AcDbDictionary
281
     1
  3
Standard
350
18
  0
DICTIONARY
  5
19
102
{ACAD_REACTORS
330
C
102
}
330
C
100
AcDbDictionary
281
     1
  0
ACDBDICTIONARYWDFLT
  5
E
102
{ACAD_REACTORS
330
C
102
}
330
C
100
AcDbDictionary
281
     1
  3
Normal
350
F
100
AcDbDictionaryWithDefault
340
F
  0
DICTIONARY
  5
1096
102
{ACAD_REACTORS
330
C
102
}
330
C
100
AcDbDictionary
281
     1
  3
A0
350
1097
  3
A1
350
1098
  3
A2
350
1099
  3
A3
350
109A
  3
A4
350
109B
  3
A5
350
109C
  3
A6
350
109D
  3
A7
350
109E
  3
A8
350
109F
  3
A9
350
10A0
  3
B0
350
10A1
  3
B1
350
10A2
  3
B2
350
10A3
  3
B3
350
10A4
  3
B4
350
10A5
  3
B5
350
10A6
  3
B6
350
10A7
  0
DICTIONARY
  5
EE7
102
{ACAD_REACTORS
330
C
102
}
330
C
100
AcDbDictionary
281
     1
  3
Standard
350
EE8
  0
DICTIONARY
  5
1082
102
{ACAD_REACTORS
330
C
102
}
330
C
100
AcDbDictionary
281
     1
  3
2dWireframe
350
1088
  3
3D Hidden
350
108A
  3
3dWireframe
350
1089
  3
Basic
350
1087
  3
Brighten
350
108E
  3
ColorChange
350
1092
  3
Conceptual
350
108B
  3
Dim
350
108D
  3
EdgeColorOff
350
1095
  3
Facepattern
350
1091
  3
Flat
350
1083
  3
FlatWithEdges
350
1084
  3
Gouraud
350
1085
  3
GouraudWithEdges
350
1086
  3
JitterOff
350
1093
  3
Linepattern
350
1090
  3
OverhangOff
350
1094
  3
Realistic
350
108C
  3
Thicken
350
108F
  0
XRECORD
  5
3E1F
102
{ACAD_REACTORS
330
C
102
}
330
C
100
AcDbXrecord
280
     1
 90
        1
330
EE8
  0
DICTIONARY
  5
3D
102
{ACAD_REACTORS
330
C
102
}
330
C
100
AcDbDictionary
281
     1
  3
CANNOSCALE
350
3E0F
  3
CMLEADERSTYLE
350
3E0E
  3
CTABLESTYLE
350
1049
  3
DIMASSOC
350
3F
  3
HIDETEXT
350
3E
  3
INDEXCTL
350
3E11
  3
SORTENTS
350
3E10
  3
XCLIPFRAME
350
3E1D
  0
DICTIONARY
  5
14DE
102
{ACAD_REACTORS
330
C
102
}
330
C
100
AcDbDictionary
281
     1
  0
DICTIONARY
  5
1066
102
{ACAD_REACTORS
330
C
102
}
330
C
100
AcDbDictionary
281
     1
  3
ASEBlockHierarchyIndexRecord
350
1067
1001
DCO15
1040
1602247867.484
  0
DICTIONARY
  5
10B2
102
{ACAD_REACTORS
330
C
102
}
330
C
100
AcDbDictionary
281
     1
  0
XRECORD
  5
3E20
102
{ACAD_REACTORS
330
C
102
}
330
C
100
AcDbXrecord
280
     1
  1
DWGPROPS COOKIE
  2

  3

  4

  6

  7

  8
Julio
  9

300
=
301
=
302
=
303
=
304
=
305
=
306
=
307
=
308
=
309
=
 40
0.0036125578703704
 41
2456023.459103912
 42
2456115.596537176
  1

 90
        0
  0
DICTIONARY
  5
1065
102
{ACAD_REACTORS
330
1051
102
}
330
1051
100
AcDbDictionary
281
     1
  0
DICTIONARY
  5
12B6
102
{ACAD_REACTORS
330
1051
102
}
330
1051
100
AcDbDictionary
281
     1
  0
DICTIONARY
  5
1064
102
{ACAD_REACTORS
330
1051
102
}
330
1051
100
AcDbDictionary
281
     1
1001
ACAD
1000
<All
  0
XRECORD
  5
3D4E
102
{ACAD_REACTORS
330
3D4D
102
}
330
3D4D
100
AcDbXrecord
280
     1
290
     1
  0
XRECORD
  5
3D50
102
{ACAD_REACTORS
330
3D4F
102
}
330
3D4F
100
AcDbXrecord
280
     1
290
     1
  0
XRECORD
  5
3D52
102
{ACAD_REACTORS
330
3D51
102
}
330
3D51
100
AcDbXrecord
280
     1
290
     1
  0
XRECORD
  5
3D54
102
{ACAD_REACTORS
330
3D53
102
}
330
3D53
100
AcDbXrecord
280
     1
290
     1
  0
XRECORD
  5
3D56
102
{ACAD_REACTORS
330
3D55
102
}
330
3D55
100
AcDbXrecord
280
     1
290
     1
  0
XRECORD
  5
3D58
102
{ACAD_REACTORS
330
3D57
102
}
330
3D57
100
AcDbXrecord
280
     1
290
     1
  0
XRECORD
  5
3D5A
102
{ACAD_REACTORS
330
3D59
102
}
330
3D59
100
AcDbXrecord
280
     1
290
     1
  0
XRECORD
  5
3D5C
102
{ACAD_REACTORS
330
3D5B
102
}
330
3D5B
100
AcDbXrecord
280
     1
290
     1
  0
XRECORD
  5
3D5E
102
{ACAD_REACTORS
330
3D5D
102
}
330
3D5D
100
AcDbXrecord
280
     1
290
     1
  0
XRECORD
  5
3D60
102
{ACAD_REACTORS
330
3D5F
102
}
330
3D5F
100
AcDbXrecord
280
     1
290
     1
  0
XRECORD
  5
3D62
102
{ACAD_REACTORS
330
3D61
102
}
330
3D61
100
AcDbXrecord
280
     1
290
     1
  0
XRECORD
  5
3D64
102
{ACAD_REACTORS
330
3D63
102
}
330
3D63
100
AcDbXrecord
280
     1
290
     1
  0
XRECORD
  5
3D66
102
{ACAD_REACTORS
330
3D65
102
}
330
3D65
100
AcDbXrecord
280
     1
290
     1
  0
XRECORD
  5
3D68
102
{ACAD_REACTORS
330
3D67
102
}
330
3D67
100
AcDbXrecord
280
     1
290
     1
  0
XRECORD
  5
3D6A
102
{ACAD_REACTORS
330
3D69
102
}
330
3D69
100
AcDbXrecord
280
     1
290
     1
  0
XRECORD
  5
3D6C
102
{ACAD_REACTORS
330
3D6B
102
}
330
3D6B
100
AcDbXrecord
280
     1
290
     1
  0
XRECORD
  5
3E22
102
{ACAD_REACTORS
330
3E21
102
}
330
3E21
100
AcDbXrecord
280
     1
 40
1.570796326794896
  0
LAYOUT
  5
1E
102
{ACAD_XDICTIONARY
360
3E23
102
}
102
{ACAD_REACTORS
330
1A
102
}
330
1A
100
AcDbPlotSettings
  1

  2
Ploter HP500
  4

  6

 40
0.0
 41
0.0
 42
0.0
 43
0.0
 44
0.0
 45
0.0
 46
0.0
 47
0.0
 48
0.0
 49
0.0
140
0.0
141
0.0
142
1.0
143
1.0
 70
   688
 72
     0
 73
     0
 74
     5
  7
sanindusa.ctb
 75
    16
147
1.0
148
0.0
149
0.0
100
AcDbLayout
  1
Layout1
 70
     1
 71
     1
 10
0.0
 20
0.0
 11
420.0
 21
297.0
 12
0.0
 22
0.0
 32
0.0
 14
1.000000000000000E+20
 24
1.000000000000000E+20
 34
1.000000000000000E+20
 15
-1.000000000000000E+20
 25
-1.000000000000000E+20
 35
-1.000000000000000E+20
146
0.0
 13
0.0
 23
0.0
 33
0.0
 16
1.0
 26
0.0
 36
0.0
 17
0.0
 27
1.0
 37
0.0
 76
     0
330
1B
  0
LAYOUT
  5
26
102
{ACAD_XDICTIONARY
360
3E27
102
}
102
{ACAD_REACTORS
330
1A
102
}
330
1A
100
AcDbPlotSettings
  1

  2
Ploter HP500
  4

  6

 40
0.0
 41
0.0
 42
0.0
 43
0.0
 44
0.0
 45
0.0
 46
0.0
 47
0.0
 48
0.0
 49
0.0
140
0.0
141
0.0
142
1.0
143
1.0
 70
   688
 72
     0
 73
     0
 74
     5
  7
sanindusa.ctb
 75
    16
147
1.0
148
0.0
149
0.0
100
AcDbLayout
  1
Layout2
 70
     1
 71
     2
 10
0.0
 20
0.0
 11
12.0
 21
9.0
 12
0.0
 22
0.0
 32
0.0
 14
0.0
 24
0.0
 34
0.0
 15
0.0
 25
0.0
 35
0.0
146
0.0
 13
0.0
 23
0.0
 33
0.0
 16
1.0
 26
0.0
 36
0.0
 17
0.0
 27
1.0
 37
0.0
 76
     0
330
23
  0
LAYOUT
  5
22
102
{ACAD_XDICTIONARY
360
3E25
102
}
102
{ACAD_REACTORS
330
1A
102
}
330
1A
100
AcDbPlotSettings
  1

  2
Ploter HP500
  4
User268
  6

 40
4.995333194732666
 41
16.97565841674804
 42
4.995330810546875
 43
16.97567749023437
 44
209.9733276367187
 45
296.9259948730469
 46
0.0
 47
0.0
 48
0.0
 49
0.0
140
0.0
141
0.0
142
1.0
143
1.0
 70
 11952
 72
     1
 73
     1
 74
     0
  7
sanindusa.ctb
 75
     0
147
1.0
148
-427.5957866592534
149
7.362384574453926
100
AcDbLayout
  1
Model
 70
     1
 71
     0
 10
0.0
 20
0.0
 11
12.0
 21
9.0
 12
0.0
 22
0.0
 32
0.0
 14
0.0
 24
0.0
 34
0.0
 15
0.0
 25
0.0
 35
0.0
146
0.0
 13
0.0
 23
0.0
 33
0.0
 16
1.0
 26
0.0
 36
0.0
 17
0.0
 27
1.0
 37
0.0
 76
     0
330
1F
331
1068
  0
MATERIAL
  5
1072
102
{ACAD_XDICTIONARY
360
1073
102
}
102
{ACAD_REACTORS
330
EE5
102
}
330
EE5
100
AcDbMaterial
  1
ByBlock
 72
     0
 43
0.0008202099737533
 43
0.0
 43
0.0
 43
0.0
 43
0.0
 43
0.0008202099737533
 43
0.0
 43
0.0
 43
0.0
 43
0.0
 43
1.0
 43
0.0
 43
0.0
 43
0.0
 43
0.0
 43
1.0
 77
     0
 47
0.0008202099737533
 47
0.0
 47
0.0
 47
0.0
 47
0.0
 47
0.0008202099737533
 47
0.0
 47
0.0
 47
0.0
 47
0.0
 47
1.0
 47
0.0
 47
0.0
 47
0.0
 47
0.0
 47
1.0
171
     0
 49
0.0008202099737533
 49
0.0
 49
0.0
 49
0.0
 49
0.0
 49
0.0008202099737533
 49
0.0
 49
0.0
 49
0.0
 49
0.0
 49
1.0
 49
0.0
 49
0.0
 49
0.0
 49
0.0
 49
1.0
175
     0
142
0.0008202099737533
142
0.0
142
0.0
142
0.0
142
0.0
142
0.0008202099737533
142
0.0
142
0.0
142
0.0
142
0.0
142
1.0
142
0.0
142
0.0
142
0.0
142
0.0
142
1.0
179
     0
144
0.0008202099737533
144
0.0
144
0.0
144
0.0
144
0.0
144
0.0008202099737533
144
0.0
144
0.0
144
0.0
144
0.0
144
1.0
144
0.0
144
0.0
144
0.0
144
0.0
144
1.0
147
0.0008202099737533
147
0.0
147
0.0
147
0.0
147
0.0
147
0.0008202099737533
147
0.0
147
0.0
147
0.0
147
0.0
147
1.0
147
0.0
147
0.0
147
0.0
147
0.0
147
1.0
  0
MATERIAL
  5
106A
102
{ACAD_XDICTIONARY
360
106B
102
}
102
{ACAD_REACTORS
330
EE5
102
}
330
EE5
100
AcDbMaterial
  1
ByLayer
 72
     0
 43
0.0008202099737533
 43
0.0
 43
0.0
 43
0.0
 43
0.0
 43
0.0008202099737533
 43
0.0
 43
0.0
 43
0.0
 43
0.0
 43
1.0
 43
0.0
 43
0.0
 43
0.0
 43
0.0
 43
1.0
 77
     0
 47
0.0008202099737533
 47
0.0
 47
0.0
 47
0.0
 47
0.0
 47
0.0008202099737533
 47
0.0
 47
0.0
 47
0.0
 47
0.0
 47
1.0
 47
0.0
 47
0.0
 47
0.0
 47
0.0
 47
1.0
171
     0
 49
0.0008202099737533
 49
0.0
 49
0.0
 49
0.0
 49
0.0
 49
0.0008202099737533
 49
0.0
 49
0.0
 49
0.0
 49
0.0
 49
1.0
 49
0.0
 49
0.0
 49
0.0
 49
0.0
 49
1.0
175
     0
142
0.0008202099737533
142
0.0
142
0.0
142
0.0
142
0.0
142
0.0008202099737533
142
0.0
142
0.0
142
0.0
142
0.0
142
1.0
142
0.0
142
0.0
142
0.0
142
0.0
142
1.0
179
     0
144
0.0008202099737533
144
0.0
144
0.0
144
0.0
144
0.0
144
0.0008202099737533
144
0.0
144
0.0
144
0.0
144
0.0
144
1.0
144
0.0
144
0.0
144
0.0
144
0.0
144
1.0
147
0.0008202099737533
147
0.0
147
0.0
147
0.0
147
0.0
147
0.0008202099737533
147
0.0
147
0.0
147
0.0
147
0.0
147
1.0
147
0.0
147
0.0
147
0.0
147
0.0
147
1.0
  0
MATERIAL
  5
107A
102
{ACAD_XDICTIONARY
360
107B
102
}
102
{ACAD_REACTORS
330
EE5
102
}
330
EE5
100
AcDbMaterial
  1
Global
 72
     0
 43
0.0008202099737533
 43
0.0
 43
0.0
 43
0.0
 43
0.0
 43
0.0008202099737533
 43
0.0
 43
0.0
 43
0.0
 43
0.0
 43
1.0
 43
0.0
 43
0.0
 43
0.0
 43
0.0
 43
1.0
 77
     0
 47
0.0008202099737533
 47
0.0
 47
0.0
 47
0.0
 47
0.0
 47
0.0008202099737533
 47
0.0
 47
0.0
 47
0.0
 47
0.0
 47
1.0
 47
0.0
 47
0.0
 47
0.0
 47
0.0
 47
1.0
171
     0
 49
0.0008202099737533
 49
0.0
 49
0.0
 49
0.0
 49
0.0
 49
0.0008202099737533
 49
0.0
 49
0.0
 49
0.0
 49
0.0
 49
1.0
 49
0.0
 49
0.0
 49
0.0
 49
0.0
 49
1.0
175
     0
142
0.0008202099737533
142
0.0
142
0.0
142
0.0
142
0.0
142
0.0008202099737533
142
0.0
142
0.0
142
0.0
142
0.0
142
1.0
142
0.0
142
0.0
142
0.0
142
0.0
142
1.0
179
     0
144
0.0008202099737533
144
0.0
144
0.0
144
0.0
144
0.0
144
0.0008202099737533
144
0.0
144
0.0
144
0.0
144
0.0
144
1.0
144
0.0
144
0.0
144
0.0
144
0.0
144
1.0
147
0.0008202099737533
147
0.0
147
0.0
147
0.0
147
0.0
147
0.0008202099737533
147
0.0
147
0.0
147
0.0
147
0.0
147
1.0
147
0.0
147
0.0
147
0.0
147
0.0
147
1.0
  0
MLEADERSTYLE
  5
10A9
102
{ACAD_REACTORS
330
10A8
102
}
330
10A8
100
AcDbMLeaderStyle
170
     2
171
     1
172
     0
 90
        2
 40
0.0
 41
0.0
173
     1
 91
-1056964608
340
14
 92
       -2
290
     1
 42
2.0
291
     1
 43
0.36
  3
Standard
 44
4.0
300

342
11
174
     1
178
     6
175
     1
176
     0
 93
-1056964608
 45
4.0
292
     0
297
     0
 46
4.0
 94
-1056964608
 47
1.0
 49
1.0
140
1.0
293
     1
141
0.0
294
     1
177
     0
142
1.0
295
     0
296
     0
143
0.125
1001
ACAD_MLEADERVER
1070
     2
  0
MLINESTYLE
  5
18
102
{ACAD_REACTORS
330
17
102
}
330
17
100
AcDbMlineStyle
  2
STANDARD
 70
     0
  3

 62
   256
 51
90.0
 52
90.0
 71
     2
 49
0.5
 62
   256
  6
BYLAYER
 49
-0.5
 62
   256
  6
BYLAYER
  0
ACDBPLACEHOLDER
  5
F
102
{ACAD_REACTORS
330
E
102
}
330
E
  0
SCALE
  5
1097
102
{ACAD_REACTORS
330
1096
102
}
330
1096
100
AcDbScale
 70
     0
300
1:1
140
1.0
141
1.0
290
     1
  0
SCALE
  5
1098
102
{ACAD_REACTORS
330
1096
102
}
330
1096
100
AcDbScale
 70
     0
300
1:2
140
1.0
141
2.0
290
     0
  0
SCALE
  5
1099
102
{ACAD_REACTORS
330
1096
102
}
330
1096
100
AcDbScale
 70
     0
300
1:4
140
1.0
141
4.0
290
     0
  0
SCALE
  5
109A
102
{ACAD_REACTORS
330
1096
102
}
330
1096
100
AcDbScale
 70
     0
300
1:5
140
1.0
141
5.0
290
     0
  0
SCALE
  5
109B
102
{ACAD_REACTORS
330
1096
102
}
330
1096
100
AcDbScale
 70
     0
300
1:8
140
1.0
141
8.0
290
     0
  0
SCALE
  5
109C
102
{ACAD_REACTORS
330
1096
102
}
330
1096
100
AcDbScale
 70
     0
300
1:10
140
1.0
141
10.0
290
     0
  0
SCALE
  5
109D
102
{ACAD_REACTORS
330
1096
102
}
330
1096
100
AcDbScale
 70
     0
300
1:16
140
1.0
141
16.0
290
     0
  0
SCALE
  5
109E
102
{ACAD_REACTORS
330
1096
102
}
330
1096
100
AcDbScale
 70
     0
300
1:20
140
1.0
141
20.0
290
     0
  0
SCALE
  5
109F
102
{ACAD_REACTORS
330
1096
102
}
330
1096
100
AcDbScale
 70
     0
300
1:30
140
1.0
141
30.0
290
     0
  0
SCALE
  5
10A0
102
{ACAD_REACTORS
330
1096
102
}
330
1096
100
AcDbScale
 70
     0
300
1:40
140
1.0
141
40.0
290
     0
  0
SCALE
  5
10A1
102
{ACAD_REACTORS
330
1096
102
}
330
1096
100
AcDbScale
 70
     0
300
1:50
140
1.0
141
50.0
290
     0
  0
SCALE
  5
10A2
102
{ACAD_REACTORS
330
1096
102
}
330
1096
100
AcDbScale
 70
     0
300
1:100
140
1.0
141
100.0
290
     0
  0
SCALE
  5
10A3
102
{ACAD_REACTORS
330
1096
102
}
330
1096
100
AcDbScale
 70
     0
300
2:1
140
2.0
141
1.0
290
     0
  0
SCALE
  5
10A4
102
{ACAD_REACTORS
330
1096
102
}
330
1096
100
AcDbScale
 70
     0
300
4:1
140
4.0
141
1.0
290
     0
  0
SCALE
  5
10A5
102
{ACAD_REACTORS
330
1096
102
}
330
1096
100
AcDbScale
 70
     0
300
8:1
140
8.0
141
1.0
290
     0
  0
SCALE
  5
10A6
102
{ACAD_REACTORS
330
1096
102
}
330
1096
100
AcDbScale
 70
     0
300
10:1
140
10.0
141
1.0
290
     0
  0
SCALE
  5
10A7
102
{ACAD_REACTORS
330
1096
102
}
330
1096
100
AcDbScale
 70
     0
300
100:1
140
100.0
141
1.0
290
     0
  0
TABLESTYLE
  5
EE8
102
{ACAD_XDICTIONARY
360
3DC1
102
}
102
{ACAD_REACTORS
330
EE7
102
}
330
EE7
100
AcDbTableStyle
  3
Standard
 70
     0
 71
     0
 40
1.5
 41
1.5
280
     0
281
     0
  7
Standard
140
4.5
170
     2
 62
     0
 63
     7
283
     0
274
    -2
284
     1
 64
     0
275
    -2
285
     1
 65
     0
276
    -2
286
     1
 66
     0
277
    -2
287
     1
 67
     0
278
    -2
288
     1
 68
     0
279
    -2
289
     1
 69
     0
  7
Standard
140
6.0
170
     5
 62
     0
 63
     7
283
     0
274
    -2
284
     1
 64
     0
275
    -2
285
     1
 65
     0
276
    -2
286
     1
 66
     0
277
    -2
287
     1
 67
     0
278
    -2
288
     1
 68
     0
279
    -2
289
     1
 69
     0
  7
Standard
140
4.5
170
     5
 62
     0
 63
     7
283
     0
274
    -2
284
     1
 64
     0
275
    -2
285
     1
 65
     0
276
    -2
286
     1
 66
     0
277
    -2
287
     1
 67
     0
278
    -2
288
     1
 68
     0
279
    -2
289
     1
 69
     0
  0
VISUALSTYLE
  5
1088
102
{ACAD_XDICTIONARY
360
3E37
102
}
102
{ACAD_REACTORS
330
1082
102
}
330
1082
100
AcDbVisualStyle
  2
2dWireframe
 70
     4
 71
     0
 72
     2
 73
     0
 90
        0
 40
-0.6
 41
-30.0
 62
     5
 63
     7
 74
     1
 91
        4
 64
     7
 65
   257
 75
     1
175
     1
 42
1.0
 92
        0
 66
   257
 43
1.0
 76
     1
 77
     6
 78
     2
 67
     7
 79
     5
170
     0
171
     0
290
     0
174
     0
 93
        1
 44
0.0
173
     0
291
     0
 45
0.0
1001
ACAD
1000
AcDbSavedByObjectVersion
1070
     0
  0
VISUALSTYLE
  5
108A
102
{ACAD_XDICTIONARY
360
3E3B
102
}
102
{ACAD_REACTORS
330
1082
102
}
330
1082
100
AcDbVisualStyle
  2
3D Hidden
 70
     6
 71
     1
 72
     2
 73
     2
 90
        0
 40
-0.6
 41
-30.0
 62
     5
 63
     7
 74
     2
 91
        2
 64
     7
 65
   257
 75
     2
175
     1
 42
179.0
 92
        0
 66
   257
 43
1.0
 76
     1
 77
     6
 78
     2
 67
     7
 79
     3
170
     0
171
     0
290
     0
174
     0
 93
        1
 44
0.0
173
     0
291
     0
 45
0.0
1001
ACAD
1000
AcDbSavedByObjectVersion
1070
     0
  0
VISUALSTYLE
  5
1089
102
{ACAD_XDICTIONARY
360
3E39
102
}
102
{ACAD_REACTORS
330
1082
102
}
330
1082
100
AcDbVisualStyle
  2
3dWireframe
 70
     5
 71
     0
 72
     2
 73
     0
 90
        0
 40
-0.6
 41
-30.0
 62
     5
 63
     7
 74
     1
 91
        4
 64
     7
 65
   257
 75
     1
175
     1
 42
1.0
 92
        0
 66
   257
 43
1.0
 76
     1
 77
     6
 78
     2
 67
     7
 79
     5
170
     0
171
     0
290
     0
174
     0
 93
        1
 44
0.0
173
     0
291
     0
 45
0.0
1001
ACAD
1000
AcDbSavedByObjectVersion
1070
     0
  0
VISUALSTYLE
  5
1087
102
{ACAD_XDICTIONARY
360
3E35
102
}
102
{ACAD_REACTORS
330
1082
102
}
330
1082
100
AcDbVisualStyle
  2
Basic
 70
     7
 71
     1
 72
     0
 73
     1
 90
        0
 40
-0.6
 41
-30.0
 62
     5
 63
     7
 74
     0
 91
        4
 64
     7
 65
   257
 75
     1
175
     1
 42
1.0
 92
        8
 66
     7
 43
1.0
 76
     1
 77
     6
 78
     2
 67
     7
 79
     5
170
     0
171
     0
290
     0
174
     0
 93
        1
 44
0.0
173
     0
291
     1
 45
0.0
1001
ACAD
1000
AcDbSavedByObjectVersion
1070
     0
  0
VISUALSTYLE
  5
108E
102
{ACAD_XDICTIONARY
360
3E43
102
}
102
{ACAD_REACTORS
330
1082
102
}
330
1082
100
AcDbVisualStyle
  2
Brighten
 70
    12
 71
     2
 72
     2
 73
     0
 90
        0
 40
-0.6
 41
-30.0
 62
     5
 63
     7
 74
     1
 91
        4
 64
     7
 65
   257
 75
     1
175
     1
 42
1.0
 92
        8
 66
     7
 43
1.0
 76
     1
 77
     6
 78
     2
 67
     7
 79
     5
170
     0
171
     0
290
     0
174
     0
 93
        1
 44
50.0
173
     0
291
     1
 45
0.0
1001
ACAD
1000
AcDbSavedByObjectVersion
1070
     0
  0
VISUALSTYLE
  5
1092
102
{ACAD_XDICTIONARY
360
3E4B
102
}
102
{ACAD_REACTORS
330
1082
102
}
330
1082
100
AcDbVisualStyle
  2
ColorChange
 70
    16
 71
     2
 72
     2
 73
     3
 90
        0
 40
-0.6
 41
-30.0
 62
     5
 63
     8
 74
     1
 91
        4
 64
     7
 65
   257
 75
     1
175
     1
 42
1.0
 92
        8
 66
     8
 43
1.0
 76
     1
 77
     6
 78
     2
 67
     7
 79
     5
170
     0
171
     0
290
     0
174
     0
 93
        1
 44
0.0
173
     0
291
     1
 45
0.0
1001
ACAD
1000
AcDbSavedByObjectVersion
1070
     0
  0
VISUALSTYLE
  5
108B
102
{ACAD_XDICTIONARY
360
3E3D
102
}
102
{ACAD_REACTORS
330
1082
102
}
330
1082
100
AcDbVisualStyle
  2
Conceptual
 70
     9
 71
     3
 72
     2
 73
     0
 90
        0
 40
-0.6
 41
-30.0
 62
     5
 63
     7
 74
     2
 91
        2
 64
     7
 65
   257
 75
     1
175
     1
 42
179.0
 92
        8
 66
     7
 43
1.0
 76
     1
 77
     6
 78
     2
 67
     7
 79
     3
170
     0
171
     0
290
     0
174
     0
 93
        1
 44
0.0
173
     0
291
     0
 45
0.0
1001
ACAD
1000
AcDbSavedByObjectVersion
1070
     0
  0
VISUALSTYLE
  5
108D
102
{ACAD_XDICTIONARY
360
3E41
102
}
102
{ACAD_REACTORS
330
1082
102
}
330
1082
100
AcDbVisualStyle
  2
Dim
 70
    11
 71
     2
 72
     2
 73
     0
 90
        0
 40
-0.6
 41
-30.0
 62
     5
 63
     7
 74
     1
 91
        4
 64
     7
 65
   257
 75
     1
175
     1
 42
1.0
 92
        8
 66
     7
 43
1.0
 76
     1
 77
     6
 78
     2
 67
     7
 79
     5
170
     0
171
     0
290
     0
174
     0
 93
        1
 44
-50.0
173
     0
291
     1
 45
0.0
1001
ACAD
1000
AcDbSavedByObjectVersion
1070
     0
  0
VISUALSTYLE
  5
1095
102
{ACAD_XDICTIONARY
360
3E51
102
}
102
{ACAD_REACTORS
330
1082
102
}
330
1082
100
AcDbVisualStyle
  2
EdgeColorOff
 70
    22
 71
     2
 72
     2
 73
     0
 90
        0
 40
-0.6
 41
-30.0
 62
     5
 63
     7
 74
     1
 91
        4
 64
     7
 65
   257
 75
     1
175
     1
 42
1.0
 92
        8
 66
     7
 43
1.0
 76
     1
 77
     6
 78
     2
 67
     7
 79
     5
170
     0
171
     0
290
     0
174
     0
 93
        1
 44
0.0
173
     0
291
     1
 45
0.0
1001
ACAD
1000
AcDbSavedByObjectVersion
1070
     0
  0
VISUALSTYLE
  5
1091
102
{ACAD_XDICTIONARY
360
3E49
102
}
102
{ACAD_REACTORS
330
1082
102
}
330
1082
100
AcDbVisualStyle
  2
Facepattern
 70
    15
 71
     2
 72
     2
 73
     0
 90
        0
 40
-0.6
 41
-30.0
 62
     5
 63
     7
 74
     1
 91
        4
 64
     7
 65
   257
 75
     1
175
     1
 42
1.0
 92
        8
 66
     7
 43
1.0
 76
     1
 77
     6
 78
     2
 67
     7
 79
     5
170
     0
171
     0
290
     0
174
     0
 93
        1
 44
0.0
173
     0
291
     1
 45
0.0
1001
ACAD
1000
AcDbSavedByObjectVersion
1070
     0
  0
VISUALSTYLE
  5
1083
102
{ACAD_XDICTIONARY
360
3E2D
102
}
102
{ACAD_REACTORS
330
1082
102
}
330
1082
100
AcDbVisualStyle
  2
Flat
 70
     0
 71
     2
 72
     1
 73
     1
 90
        2
 40
-0.6
 41
30.0
 62
     5
 63
     7
 74
     0
 91
        4
 64
     7
 65
   257
 75
     1
175
     1
 42
1.0
 92
        8
 66
     7
 43
1.0
 76
     1
 77
     6
 78
     2
 67
     7
 79
     5
170
     0
171
     0
290
     0
174
     0
 93
       13
 44
0.0
173
     0
291
     1
 45
0.0
1001
ACAD
1000
AcDbSavedByObjectVersion
1070
     0
  0
VISUALSTYLE
  5
1084
102
{ACAD_XDICTIONARY
360
3E2F
102
}
102
{ACAD_REACTORS
330
1082
102
}
330
1082
100
AcDbVisualStyle
  2
FlatWithEdges
 70
     1
 71
     2
 72
     1
 73
     1
 90
        2
 40
-0.6
 41
30.0
 62
     5
 63
     7
 74
     1
 91
        4
 64
     7
 65
   257
 75
     1
175
     1
 42
1.0
 92
        0
 66
   257
 43
1.0
 76
     1
 77
     6
 78
     2
 67
     7
 79
     5
170
     0
171
     0
290
     0
174
     0
 93
       13
 44
0.0
173
     0
291
     1
 45
0.0
1001
ACAD
1000
AcDbSavedByObjectVersion
1070
     0
  0
VISUALSTYLE
  5
1085
102
{ACAD_XDICTIONARY
360
3E31
102
}
102
{ACAD_REACTORS
330
1082
102
}
330
1082
100
AcDbVisualStyle
  2
Gouraud
 70
     2
 71
     2
 72
     2
 73
     1
 90
        2
 40
-0.6
 41
30.0
 62
     5
 63
     7
 74
     0
 91
        4
 64
     7
 65
   257
 75
     1
175
     1
 42
1.0
 92
        0
 66
     7
 43
1.0
 76
     1
 77
     6
 78
     2
 67
     7
 79
     5
170
     0
171
     0
290
     0
174
     0
 93
       13
 44
0.0
173
     0
291
     1
 45
0.0
1001
ACAD
1000
AcDbSavedByObjectVersion
1070
     0
  0
VISUALSTYLE
  5
1086
102
{ACAD_XDICTIONARY
360
3E33
102
}
102
{ACAD_REACTORS
330
1082
102
}
330
1082
100
AcDbVisualStyle
  2
GouraudWithEdges
 70
     3
 71
     2
 72
     2
 73
     1
 90
        2
 40
-0.6
 41
30.0
 62
     5
 63
     7
 74
     1
 91
        4
 64
     7
 65
   257
 75
     1
175
     1
 42
1.0
 92
        0
 66
   257
 43
1.0
 76
     1
 77
     6
 78
     2
 67
     7
 79
     5
170
     0
171
     0
290
     0
174
     0
 93
       13
 44
0.0
173
     0
291
     1
 45
0.0
1001
ACAD
1000
AcDbSavedByObjectVersion
1070
     0
  0
VISUALSTYLE
  5
1093
102
{ACAD_XDICTIONARY
360
3E4D
102
}
102
{ACAD_REACTORS
330
1082
102
}
330
1082
100
AcDbVisualStyle
  2
JitterOff
 70
    20
 71
     2
 72
     2
 73
     0
 90
        0
 40
-0.6
 41
-30.0
 62
     5
 63
     7
 74
     1
 91
        4
 64
     7
 65
   257
 75
     1
175
     1
 42
1.0
 92
       10
 66
     7
 43
1.0
 76
     1
 77
     6
 78
     2
 67
     7
 79
     5
170
     0
171
     0
290
     0
174
     0
 93
        1
 44
0.0
173
     0
291
     1
 45
0.0
1001
ACAD
1000
AcDbSavedByObjectVersion
1070
     0
  0
VISUALSTYLE
  5
1090
102
{ACAD_XDICTIONARY
360
3E47
102
}
102
{ACAD_REACTORS
330
1082
102
}
330
1082
100
AcDbVisualStyle
  2
Linepattern
 70
    14
 71
     2
 72
     2
 73
     0
 90
        0
 40
-0.6
 41
-30.0
 62
     5
 63
     7
 74
     1
 91
        4
 64
     7
 65
   257
 75
     7
175
     7
 42
1.0
 92
        8
 66
     7
 43
1.0
 76
     1
 77
     6
 78
     2
 67
     7
 79
     5
170
     0
171
     0
290
     0
174
     0
 93
        1
 44
0.0
173
     0
291
     1
 45
0.0
1001
ACAD
1000
AcDbSavedByObjectVersion
1070
     0
  0
VISUALSTYLE
  5
1094
102
{ACAD_XDICTIONARY
360
3E4F
102
}
102
{ACAD_REACTORS
330
1082
102
}
330
1082
100
AcDbVisualStyle
  2
OverhangOff
 70
    21
 71
     2
 72
     2
 73
     0
 90
        0
 40
-0.6
 41
-30.0
 62
     5
 63
     7
 74
     1
 91
        4
 64
     7
 65
   257
 75
     1
175
     1
 42
1.0
 92
        9
 66
     7
 43
1.0
 76
     1
 77
     6
 78
     2
 67
     7
 79
     5
170
     0
171
     0
290
     0
174
     0
 93
        1
 44
0.0
173
     0
291
     1
 45
0.0
1001
ACAD
1000
AcDbSavedByObjectVersion
1070
     0
  0
VISUALSTYLE
  5
108C
102
{ACAD_XDICTIONARY
360
3E3F
102
}
102
{ACAD_REACTORS
330
1082
102
}
330
1082
100
AcDbVisualStyle
  2
Realistic
 70
     8
 71
     2
 72
     2
 73
     0
 90
        0
 40
-0.6
 41
-30.0
 62
     5
 63
     7
 74
     1
 91
        0
 64
     7
 65
   257
 75
     1
175
     1
 42
1.0
 92
        8
 66
     8
 43
1.0
 76
     1
 77
     6
 78
     2
 67
     7
 79
     5
170
     0
171
     0
290
     0
174
     0
 93
       13
 44
0.0
173
     0
291
     0
 45
0.0
1001
ACAD
1000
AcDbSavedByObjectVersion
1070
     0
  0
VISUALSTYLE
  5
108F
102
{ACAD_XDICTIONARY
360
3E45
102
}
102
{ACAD_REACTORS
330
1082
102
}
330
1082
100
AcDbVisualStyle
  2
Thicken
 70
    13
 71
     2
 72
     2
 73
     0
 90
        0
 40
-0.6
 41
-30.0
 62
     5
 63
     7
 74
     1
 91
        4
 64
     7
 65
   257
 75
     1
175
     1
 42
1.0
 92
       12
 66
     7
 43
1.0
 76
     1
 77
     6
 78
     2
 67
     7
 79
     5
170
     0
171
     0
290
     0
174
     0
 93
        1
 44
0.0
173
     0
291
     1
 45
0.0
1001
ACAD
1000
AcDbSavedByObjectVersion
1070
     0
  0
DICTIONARYVAR
  5
3E0F
102
{ACAD_REACTORS
330
3D
102
}
330
3D
100
DictionaryVariables
280
     0
  1
1:1
  0
DICTIONARYVAR
  5
3E0E
102
{ACAD_REACTORS
330
3D
102
}
330
3D
100
DictionaryVariables
280
     0
  1
STANDARD
  0
DICTIONARYVAR
  5
1049
102
{ACAD_REACTORS
330
3D
102
}
330
3D
100
DictionaryVariables
280
     0
  1
STANDARD
  0
DICTIONARYVAR
  5
3F
102
{ACAD_REACTORS
330
3D
102
}
330
3D
100
DictionaryVariables
280
     0
  1
2
  0
DICTIONARYVAR
  5
3E
102
{ACAD_REACTORS
330
3D
102
}
330
3D
100
DictionaryVariables
280
     0
  1
1
  0
DICTIONARYVAR
  5
3E11
102
{ACAD_REACTORS
330
3D
102
}
330
3D
100
DictionaryVariables
280
     0
  1
0
  0
DICTIONARYVAR
  5
3E10
102
{ACAD_REACTORS
330
3D
102
}
330
3D
100
DictionaryVariables
280
     0
  1
127
  0
DICTIONARYVAR
  5
3E1D
102
{ACAD_REACTORS
330
3D
102
}
330
3D
100
DictionaryVariables
280
     0
  1
2
  0
XRECORD
  5
1067
102
{ACAD_REACTORS
330
1066
102
}
330
1066
100
AcDbXrecord
280
     1
  0
DICTIONARY
  5
3E23
330
1E
100
AcDbDictionary
280
     1
281
     1
  3
ACAD_XREC_ROUNDTRIP
360
3E24
  0
DICTIONARY
  5
3E27
330
26
100
AcDbDictionary
280
     1
281
     1
  3
ACAD_XREC_ROUNDTRIP
360
3E28
  0
DICTIONARY
  5
3E25
330
22
100
AcDbDictionary
280
     1
281
     1
  3
ACAD_XREC_ROUNDTRIP
360
3E26
  0
DICTIONARY
  5
1073
330
1072
100
AcDbDictionary
280
     1
281
     1
  3
ACAD_XREC_ROUNDTRIP
360
3E2B
  3
BUMPTILE
360
1075
  3
DIFFUSETILE
360
1074
  3
OPACITYTILE
360
1078
  3
REFLECTIONTILE
360
1077
  3
REFRACTIONTILE
360
1079
  3
SPECULARTILE
360
1076
  0
DICTIONARY
  5
106B
330
106A
100
AcDbDictionary
280
     1
281
     1
  3
ACAD_XREC_ROUNDTRIP
360
3E2A
  3
BUMPTILE
360
106D
  3
DIFFUSETILE
360
106C
  3
OPACITYTILE
360
1070
  3
REFLECTIONTILE
360
106F
  3
REFRACTIONTILE
360
1071
  3
SPECULARTILE
360
106E
  0
DICTIONARY
  5
107B
330
107A
100
AcDbDictionary
280
     1
281
     1
  3
ACAD_XREC_ROUNDTRIP
360
3E2C
  3
BUMPTILE
360
107D
  3
DIFFUSETILE
360
107C
  3
OPACITYTILE
360
1080
  3
REFLECTIONTILE
360
107F
  3
REFRACTIONTILE
360
1081
  3
SPECULARTILE
360
107E
  0
DICTIONARY
  5
3DC1
330
EE8
100
AcDbDictionary
280
     1
281
     1
  3
ACAD_ROUNDTRIP_2008_TABLESTYLE_CELLSTYLEMAP
360
3E1E
  3
ACAD_XREC_ROUNDTRIP
360
3E29
  0
DICTIONARY
  5
3E37
330
1088
100
AcDbDictionary
280
     1
281
     1
  3
ACAD_XREC_ROUNDTRIP
360
3E38
  0
DICTIONARY
  5
3E3B
330
108A
100
AcDbDictionary
280
     1
281
     1
  3
ACAD_XREC_ROUNDTRIP
360
3E3C
  0
DICTIONARY
  5
3E39
330
1089
100
AcDbDictionary
280
     1
281
     1
  3
ACAD_XREC_ROUNDTRIP
360
3E3A
  0
DICTIONARY
  5
3E35
330
1087
100
AcDbDictionary
280
     1
281
     1
  3
ACAD_XREC_ROUNDTRIP
360
3E36
  0
DICTIONARY
  5
3E43
330
108E
100
AcDbDictionary
280
     1
281
     1
  3
ACAD_XREC_ROUNDTRIP
360
3E44
  0
DICTIONARY
  5
3E4B
330
1092
100
AcDbDictionary
280
     1
281
     1
  3
ACAD_XREC_ROUNDTRIP
360
3E4C
  0
DICTIONARY
  5
3E3D
330
108B
100
AcDbDictionary
280
     1
281
     1
  3
ACAD_XREC_ROUNDTRIP
360
3E3E
  0
DICTIONARY
  5
3E41
330
108D
100
AcDbDictionary
280
     1
281
     1
  3
ACAD_XREC_ROUNDTRIP
360
3E42
  0
DICTIONARY
  5
3E51
330
1095
100
AcDbDictionary
280
     1
281
     1
  3
ACAD_XREC_ROUNDTRIP
360
3E52
  0
DICTIONARY
  5
3E49
330
1091
100
AcDbDictionary
280
     1
281
     1
  3
ACAD_XREC_ROUNDTRIP
360
3E4A
  0
DICTIONARY
  5
3E2D
330
1083
100
AcDbDictionary
280
     1
281
     1
  3
ACAD_XREC_ROUNDTRIP
360
3E2E
  0
DICTIONARY
  5
3E2F
330
1084
100
AcDbDictionary
280
     1
281
     1
  3
ACAD_XREC_ROUNDTRIP
360
3E30
  0
DICTIONARY
  5
3E31
330
1085
100
AcDbDictionary
280
     1
281
     1
  3
ACAD_XREC_ROUNDTRIP
360
3E32
  0
DICTIONARY
  5
3E33
330
1086
100
AcDbDictionary
280
     1
281
     1
  3
ACAD_XREC_ROUNDTRIP
360
3E34
  0
DICTIONARY
  5
3E4D
330
1093
100
AcDbDictionary
280
     1
281
     1
  3
ACAD_XREC_ROUNDTRIP
360
3E4E
  0
DICTIONARY
  5
3E47
330
1090
100
AcDbDictionary
280
     1
281
     1
  3
ACAD_XREC_ROUNDTRIP
360
3E48
  0
DICTIONARY
  5
3E4F
330
1094
100
AcDbDictionary
280
     1
281
     1
  3
ACAD_XREC_ROUNDTRIP
360
3E50
  0
DICTIONARY
  5
3E3F
330
108C
100
AcDbDictionary
280
     1
281
     1
  3
ACAD_XREC_ROUNDTRIP
360
3E40
  0
DICTIONARY
  5
3E45
330
108F
100
AcDbDictionary
280
     1
281
     1
  3
ACAD_XREC_ROUNDTRIP
360
3E46
  0
XRECORD
  5
3E24
102
{ACAD_REACTORS
330
3E23
102
}
330
3E23
100
AcDbXrecord
280
     1
102
SHADEPLOT
 70
     0
102
SHADEPLOTRESLEVEL
 70
     2
102
SHADEPLOTCUSTOMDPI
 70
   300
  0
XRECORD
  5
3E28
102
{ACAD_REACTORS
330
3E27
102
}
330
3E27
100
AcDbXrecord
280
     1
102
SHADEPLOT
 70
     0
102
SHADEPLOTRESLEVEL
 70
     2
102
SHADEPLOTCUSTOMDPI
 70
   300
  0
XRECORD
  5
3E26
102
{ACAD_REACTORS
330
3E25
102
}
330
3E25
100
AcDbXrecord
280
     1
102
SHADEPLOT
 70
     0
102
SHADEPLOTRESLEVEL
 70
     2
102
SHADEPLOTCUSTOMDPI
 70
   300
  0
XRECORD
  5
3E2B
102
{ACAD_REACTORS
330
1073
102
}
330
1073
100
AcDbXrecord
280
     1
102
MATERIAL
148
0.0
149
0.0
149
0.0
 93
        0
 94
      127
282
     0
 72
     0
 77
     0
171
     0
175
     0
179
     0
273
     0
  0
XRECORD
  5
1075
102
{ACAD_REACTORS
330
1073
102
}
330
1073
100
AcDbXrecord
280
     1
270
     1
271
     1
  0
XRECORD
  5
1074
102
{ACAD_REACTORS
330
1073
102
}
330
1073
100
AcDbXrecord
280
     1
270
     1
271
     1
  0
XRECORD
  5
1078
102
{ACAD_REACTORS
330
1073
102
}
330
1073
100
AcDbXrecord
280
     1
270
     1
271
     1
  0
XRECORD
  5
1077
102
{ACAD_REACTORS
330
1073
102
}
330
1073
100
AcDbXrecord
280
     1
270
     1
271
     1
  0
XRECORD
  5
1079
102
{ACAD_REACTORS
330
1073
102
}
330
1073
100
AcDbXrecord
280
     1
270
     1
271
     1
  0
XRECORD
  5
1076
102
{ACAD_REACTORS
330
1073
102
}
330
1073
100
AcDbXrecord
280
     1
270
     1
271
     1
  0
XRECORD
  5
3E2A
102
{ACAD_REACTORS
330
106B
102
}
330
106B
100
AcDbXrecord
280
     1
102
MATERIAL
148
0.0
149
0.0
149
0.0
 93
        0
 94
      127
282
     0
 72
     0
 77
     0
171
     0
175
     0
179
     0
273
     0
  0
XRECORD
  5
106D
102
{ACAD_REACTORS
330
106B
102
}
330
106B
100
AcDbXrecord
280
     1
270
     1
271
     1
  0
XRECORD
  5
106C
102
{ACAD_REACTORS
330
106B
102
}
330
106B
100
AcDbXrecord
280
     1
270
     1
271
     1
  0
XRECORD
  5
1070
102
{ACAD_REACTORS
330
106B
102
}
330
106B
100
AcDbXrecord
280
     1
270
     1
271
     1
  0
XRECORD
  5
106F
102
{ACAD_REACTORS
330
106B
102
}
330
106B
100
AcDbXrecord
280
     1
270
     1
271
     1
  0
XRECORD
  5
1071
102
{ACAD_REACTORS
330
106B
102
}
330
106B
100
AcDbXrecord
280
     1
270
     1
271
     1
  0
XRECORD
  5
106E
102
{ACAD_REACTORS
330
106B
102
}
330
106B
100
AcDbXrecord
280
     1
270
     1
271
     1
  0
XRECORD
  5
3E2C
102
{ACAD_REACTORS
330
107B
102
}
330
107B
100
AcDbXrecord
280
     1
102
MATERIAL
148
0.0
149
0.0
149
0.0
 93
        0
 94
      127
282
     0
 72
     0
 77
     0
171
     0
175
     0
179
     0
273
     0
  0
XRECORD
  5
107D
102
{ACAD_REACTORS
330
107B
102
}
330
107B
100
AcDbXrecord
280
     1
270
     1
271
     1
  0
XRECORD
  5
107C
102
{ACAD_REACTORS
330
107B
102
}
330
107B
100
AcDbXrecord
280
     1
270
     1
271
     1
  0
XRECORD
  5
1080
102
{ACAD_REACTORS
330
107B
102
}
330
107B
100
AcDbXrecord
280
     1
270
     1
271
     1
  0
XRECORD
  5
107F
102
{ACAD_REACTORS
330
107B
102
}
330
107B
100
AcDbXrecord
280
     1
270
     1
271
     1
  0
XRECORD
  5
1081
102
{ACAD_REACTORS
330
107B
102
}
330
107B
100
AcDbXrecord
280
     1
270
     1
271
     1
  0
XRECORD
  5
107E
102
{ACAD_REACTORS
330
107B
102
}
330
107B
100
AcDbXrecord
280
     1
270
     1
271
     1
  0
CELLSTYLEMAP
  5
3E1E
102
{ACAD_REACTORS
330
3DC1
102
}
330
3DC1
100
AcDbCellStyleMap
 90
        3
300
CELLSTYLE
  1
TABLEFORMAT_BEGIN
 90
        5
170
     1
 91
        0
 92
    32768
 62
   257
 93
        1
300
CONTENTFORMAT
  1
CONTENTFORMAT_BEGIN
 90
        0
 91
        0
 92
        4
 93
        0
300

 40
0.0
140
1.0
 94
        5
 62
     0
340
11
144
6.0
309
CONTENTFORMAT_END
171
     1
301
MARGIN
  1
CELLMARGIN_BEGIN
 40
1.5
 40
1.5
 40
1.5
 40
1.5
 40
0.18
 40
0.18
309
CELLMARGIN_END
 94
        6
 95
        1
302
GRIDFORMAT
  1
GRIDFORMAT_BEGIN
 90
        0
 91
        1
 62
     0
 92
       -2
340
0
 93
        0
 40
0.045
309
GRIDFORMAT_END
 95
        2
302
GRIDFORMAT
  1
GRIDFORMAT_BEGIN
 90
        0
 91
        1
 62
     0
 92
       -2
340
0
 93
        0
 40
0.045
309
GRIDFORMAT_END
 95
        4
302
GRIDFORMAT
  1
GRIDFORMAT_BEGIN
 90
        0
 91
        1
 62
     0
 92
       -2
340
0
 93
        0
 40
0.045
309
GRIDFORMAT_END
 95
        8
302
GRIDFORMAT
  1
GRIDFORMAT_BEGIN
 90
        0
 91
        1
 62
     0
 92
       -2
340
0
 93
        0
 40
0.045
309
GRIDFORMAT_END
 95
       16
302
GRIDFORMAT
  1
GRIDFORMAT_BEGIN
 90
        0
 91
        1
 62
     0
 92
       -2
340
0
 93
        0
 40
0.045
309
GRIDFORMAT_END
 95
       32
302
GRIDFORMAT
  1
GRIDFORMAT_BEGIN
 90
        0
 91
        1
 62
     0
 92
       -2
340
0
 93
        0
 40
0.045
309
GRIDFORMAT_END
309
TABLEFORMAT_END
  1
CELLSTYLE_BEGIN
 90
        1
 91
        1
300
_TITLE
309
CELLSTYLE_END
300
CELLSTYLE
  1
TABLEFORMAT_BEGIN
 90
        5
170
     1
 91
        0
 92
        0
 62
   257
 93
        1
300
CONTENTFORMAT
  1
CONTENTFORMAT_BEGIN
 90
        0
 91
        0
 92
        4
 93
        0
300

 40
0.0
140
1.0
 94
        5
 62
     0
340
11
144
4.5
309
CONTENTFORMAT_END
171
     1
301
MARGIN
  1
CELLMARGIN_BEGIN
 40
1.5
 40
1.5
 40
1.5
 40
1.5
 40
0.18
 40
0.18
309
CELLMARGIN_END
 94
        6
 95
        1
302
GRIDFORMAT
  1
GRIDFORMAT_BEGIN
 90
        0
 91
        1
 62
     0
 92
       -2
340
0
 93
        0
 40
0.045
309
GRIDFORMAT_END
 95
        2
302
GRIDFORMAT
  1
GRIDFORMAT_BEGIN
 90
        0
 91
        1
 62
     0
 92
       -2
340
0
 93
        0
 40
0.045
309
GRIDFORMAT_END
 95
        4
302
GRIDFORMAT
  1
GRIDFORMAT_BEGIN
 90
        0
 91
        1
 62
     0
 92
       -2
340
0
 93
        0
 40
0.045
309
GRIDFORMAT_END
 95
        8
302
GRIDFORMAT
  1
GRIDFORMAT_BEGIN
 90
        0
 91
        1
 62
     0
 92
       -2
340
0
 93
        0
 40
0.045
309
GRIDFORMAT_END
 95
       16
302
GRIDFORMAT
  1
GRIDFORMAT_BEGIN
 90
        0
 91
        1
 62
     0
 92
       -2
340
0
 93
        0
 40
0.045
309
GRIDFORMAT_END
 95
       32
302
GRIDFORMAT
  1
GRIDFORMAT_BEGIN
 90
        0
 91
        1
 62
     0
 92
       -2
340
0
 93
        0
 40
0.045
309
GRIDFORMAT_END
309
TABLEFORMAT_END
  1
CELLSTYLE_BEGIN
 90
        2
 91
        1
300
_HEADER
309
CELLSTYLE_END
300
CELLSTYLE
  1
TABLEFORMAT_BEGIN
 90
        5
170
     1
 91
        0
 92
        0
 62
   257
 93
        1
300
CONTENTFORMAT
  1
CONTENTFORMAT_BEGIN
 90
        0
 91
        0
 92
        4
 93
        0
300

 40
0.0
140
1.0
 94
        2
 62
     0
340
11
144
4.5
309
CONTENTFORMAT_END
171
     1
301
MARGIN
  1
CELLMARGIN_BEGIN
 40
1.5
 40
1.5
 40
1.5
 40
1.5
 40
0.18
 40
0.18
309
CELLMARGIN_END
 94
        6
 95
        1
302
GRIDFORMAT
  1
GRIDFORMAT_BEGIN
 90
        0
 91
        1
 62
     0
 92
       -2
340
0
 93
        0
 40
0.045
309
GRIDFORMAT_END
 95
        2
302
GRIDFORMAT
  1
GRIDFORMAT_BEGIN
 90
        0
 91
        1
 62
     0
 92
       -2
340
0
 93
        0
 40
0.045
309
GRIDFORMAT_END
 95
        4
302
GRIDFORMAT
  1
GRIDFORMAT_BEGIN
 90
        0
 91
        1
 62
     0
 92
       -2
340
0
 93
        0
 40
0.045
309
GRIDFORMAT_END
 95
        8
302
GRIDFORMAT
  1
GRIDFORMAT_BEGIN
 90
        0
 91
        1
 62
     0
 92
       -2
340
0
 93
        0
 40
0.045
309
GRIDFORMAT_END
 95
       16
302
GRIDFORMAT
  1
GRIDFORMAT_BEGIN
 90
        0
 91
        1
 62
     0
 92
       -2
340
0
 93
        0
 40
0.045
309
GRIDFORMAT_END
 95
       32
302
GRIDFORMAT
  1
GRIDFORMAT_BEGIN
 90
        0
 91
        1
 62
     0
 92
       -2
340
0
 93
        0
 40
0.045
309
GRIDFORMAT_END
309
TABLEFORMAT_END
  1
CELLSTYLE_BEGIN
 90
        3
 91
        2
300
_DATA
309
CELLSTYLE_END
  0
XRECORD
  5
3E29
102
{ACAD_REACTORS
330
3DC1
102
}
330
3DC1
100
AcDbXrecord
280
     1
102
ACAD_ROUNDTRIP_PRE2007_TABLESTYLE
 90
        4
 91
        0
  1

 92
        4
 93
        0
  2

 94
        4
 95
        0
  3

  0
XRECORD
  5
3E38
102
{ACAD_REACTORS
330
3E37
102
}
330
3E37
100
AcDbXrecord
280
     1
102
RTVSPropertyOp0
 70
     1
102
RTVSPropertyOp1
 70
     1
102
RTVSPropertyOp2
 70
     1
102
RTVSPropertyOp3
 70
     1
102
RTVSPropertyOp4
 70
     1
102
RTVSPropertyOp5
 70
     1
102
RTVSPropertyOp6
 70
     1
102
RTVSPropertyOp7
 70
     1
102
RTVSPropertyOp8
 70
     1
102
RTVSPropertyOp9
 70
     1
102
RTVSPropertyOp10
 70
     1
102
RTVSPropertyOp11
 70
     1
102
RTVSPropertyOp12
 70
     1
102
RTVSPropertyOp13
 70
     1
102
RTVSPropertyOp14
 70
     1
102
RTVSPropertyOp15
 70
     1
102
RTVSPropertyOp16
 70
     1
102
RTVSPropertyOp17
 70
     1
102
RTVSPropertyOp18
 70
     1
102
RTVSPropertyOp19
 70
     1
102
RTVSPropertyOp20
 70
     1
102
RTVSPropertyOp21
 70
     1
102
RTVSPropertyOp22
 70
     1
102
RTVSPropertyOp23
 70
     1
102
RTVSPropertyOp24
 70
     1
102
RTVSPropertyOp25
 70
     1
102
RTVSPropertyOp26
 70
     1
102
RTVSPropertyOp27
 70
     1
  0
XRECORD
  5
3E3C
102
{ACAD_REACTORS
330
3E3B
102
}
330
3E3B
100
AcDbXrecord
280
     1
102
RTVSPropertyOp0
 70
     1
102
RTVSPropertyOp1
 70
     1
102
RTVSPropertyOp2
 70
     1
102
RTVSPropertyOp3
 70
     1
102
RTVSPropertyOp4
 70
     1
102
RTVSPropertyOp5
 70
     1
102
RTVSPropertyOp6
 70
     1
102
RTVSPropertyOp7
 70
     1
102
RTVSPropertyOp8
 70
     1
102
RTVSPropertyOp9
 70
     1
102
RTVSPropertyOp10
 70
     1
102
RTVSPropertyOp11
 70
     1
102
RTVSPropertyOp12
 70
     1
102
RTVSPropertyOp13
 70
     1
102
RTVSPropertyOp14
 70
     1
102
RTVSPropertyOp15
 70
     1
102
RTVSPropertyOp16
 70
     1
102
RTVSPropertyOp17
 70
     1
102
RTVSPropertyOp18
 70
     1
102
RTVSPropertyOp19
 70
     1
102
RTVSPropertyOp20
 70
     1
102
RTVSPropertyOp21
 70
     1
102
RTVSPropertyOp22
 70
     1
102
RTVSPropertyOp23
 70
     1
102
RTVSPropertyOp24
 70
     1
102
RTVSPropertyOp25
 70
     1
102
RTVSPropertyOp26
 70
     1
102
RTVSPropertyOp27
 70
     1
  0
XRECORD
  5
3E3A
102
{ACAD_REACTORS
330
3E39
102
}
330
3E39
100
AcDbXrecord
280
     1
102
RTVSPropertyOp0
 70
     1
102
RTVSPropertyOp1
 70
     1
102
RTVSPropertyOp2
 70
     1
102
RTVSPropertyOp3
 70
     1
102
RTVSPropertyOp4
 70
     1
102
RTVSPropertyOp5
 70
     1
102
RTVSPropertyOp6
 70
     1
102
RTVSPropertyOp7
 70
     1
102
RTVSPropertyOp8
 70
     1
102
RTVSPropertyOp9
 70
     1
102
RTVSPropertyOp10
 70
     1
102
RTVSPropertyOp11
 70
     1
102
RTVSPropertyOp12
 70
     1
102
RTVSPropertyOp13
 70
     1
102
RTVSPropertyOp14
 70
     1
102
RTVSPropertyOp15
 70
     1
102
RTVSPropertyOp16
 70
     1
102
RTVSPropertyOp17
 70
     1
102
RTVSPropertyOp18
 70
     1
102
RTVSPropertyOp19
 70
     1
102
RTVSPropertyOp20
 70
     1
102
RTVSPropertyOp21
 70
     1
102
RTVSPropertyOp22
 70
     1
102
RTVSPropertyOp23
 70
     1
102
RTVSPropertyOp24
 70
     1
102
RTVSPropertyOp25
 70
     1
102
RTVSPropertyOp26
 70
     1
102
RTVSPropertyOp27
 70
     1
  0
XRECORD
  5
3E36
102
{ACAD_REACTORS
330
3E35
102
}
330
3E35
100
AcDbXrecord
280
     1
102
RTVSPropertyOp0
 70
     1
102
RTVSPropertyOp1
 70
     1
102
RTVSPropertyOp2
 70
     1
102
RTVSPropertyOp3
 70
     1
102
RTVSPropertyOp4
 70
     1
102
RTVSPropertyOp5
 70
     1
102
RTVSPropertyOp6
 70
     1
102
RTVSPropertyOp7
 70
     1
102
RTVSPropertyOp8
 70
     1
102
RTVSPropertyOp9
 70
     1
102
RTVSPropertyOp10
 70
     1
102
RTVSPropertyOp11
 70
     1
102
RTVSPropertyOp12
 70
     1
102
RTVSPropertyOp13
 70
     1
102
RTVSPropertyOp14
 70
     1
102
RTVSPropertyOp15
 70
     1
102
RTVSPropertyOp16
 70
     1
102
RTVSPropertyOp17
 70
     1
102
RTVSPropertyOp18
 70
     1
102
RTVSPropertyOp19
 70
     1
102
RTVSPropertyOp20
 70
     1
102
RTVSPropertyOp21
 70
     1
102
RTVSPropertyOp22
 70
     1
102
RTVSPropertyOp23
 70
     1
102
RTVSPropertyOp24
 70
     1
102
RTVSPropertyOp25
 70
     1
102
RTVSPropertyOp26
 70
     1
102
RTVSPropertyOp27
 70
     1
  0
XRECORD
  5
3E44
102
{ACAD_REACTORS
330
3E43
102
}
330
3E43
100
AcDbXrecord
280
     1
102
RTVSPropertyOp0
 70
     1
102
RTVSPropertyOp1
 70
     1
102
RTVSPropertyOp2
 70
     1
102
RTVSPropertyOp3
 70
     1
102
RTVSPropertyOp4
 70
     1
102
RTVSPropertyOp5
 70
     1
102
RTVSPropertyOp6
 70
     1
102
RTVSPropertyOp7
 70
     1
102
RTVSPropertyOp8
 70
     1
102
RTVSPropertyOp9
 70
     1
102
RTVSPropertyOp10
 70
     1
102
RTVSPropertyOp11
 70
     1
102
RTVSPropertyOp12
 70
     1
102
RTVSPropertyOp13
 70
     1
102
RTVSPropertyOp14
 70
     1
102
RTVSPropertyOp15
 70
     1
102
RTVSPropertyOp16
 70
     1
102
RTVSPropertyOp17
 70
     1
102
RTVSPropertyOp18
 70
     1
102
RTVSPropertyOp19
 70
     1
102
RTVSPropertyOp20
 70
     1
102
RTVSPropertyOp21
 70
     1
102
RTVSPropertyOp22
 70
     1
102
RTVSPropertyOp23
 70
     1
102
RTVSPropertyOp24
 70
     1
102
RTVSPropertyOp25
 70
     1
102
RTVSPropertyOp26
 70
     1
102
RTVSPropertyOp27
 70
     1
  0
XRECORD
  5
3E4C
102
{ACAD_REACTORS
330
3E4B
102
}
330
3E4B
100
AcDbXrecord
280
     1
102
RTVSPropertyOp0
 70
     1
102
RTVSPropertyOp1
 70
     1
102
RTVSPropertyOp2
 70
     1
102
RTVSPropertyOp3
 70
     1
102
RTVSPropertyOp4
 70
     1
102
RTVSPropertyOp5
 70
     1
102
RTVSPropertyOp6
 70
     1
102
RTVSPropertyOp7
 70
     1
102
RTVSPropertyOp8
 70
     1
102
RTVSPropertyOp9
 70
     1
102
RTVSPropertyOp10
 70
     1
102
RTVSPropertyOp11
 70
     1
102
RTVSPropertyOp12
 70
     1
102
RTVSPropertyOp13
 70
     1
102
RTVSPropertyOp14
 70
     1
102
RTVSPropertyOp15
 70
     1
102
RTVSPropertyOp16
 70
     1
102
RTVSPropertyOp17
 70
     1
102
RTVSPropertyOp18
 70
     1
102
RTVSPropertyOp19
 70
     1
102
RTVSPropertyOp20
 70
     1
102
RTVSPropertyOp21
 70
     1
102
RTVSPropertyOp22
 70
     1
102
RTVSPropertyOp23
 70
     1
102
RTVSPropertyOp24
 70
     1
102
RTVSPropertyOp25
 70
     1
102
RTVSPropertyOp26
 70
     1
102
RTVSPropertyOp27
 70
     1
  0
XRECORD
  5
3E3E
102
{ACAD_REACTORS
330
3E3D
102
}
330
3E3D
100
AcDbXrecord
280
     1
102
RTVSPropertyOp0
 70
     1
102
RTVSPropertyOp1
 70
     1
102
RTVSPropertyOp2
 70
     1
102
RTVSPropertyOp3
 70
     1
102
RTVSPropertyOp4
 70
     1
102
RTVSPropertyOp5
 70
     1
102
RTVSPropertyOp6
 70
     1
102
RTVSPropertyOp7
 70
     1
102
RTVSPropertyOp8
 70
     1
102
RTVSPropertyOp9
 70
     1
102
RTVSPropertyOp10
 70
     1
102
RTVSPropertyOp11
 70
     1
102
RTVSPropertyOp12
 70
     1
102
RTVSPropertyOp13
 70
     1
102
RTVSPropertyOp14
 70
     1
102
RTVSPropertyOp15
 70
     1
102
RTVSPropertyOp16
 70
     1
102
RTVSPropertyOp17
 70
     1
102
RTVSPropertyOp18
 70
     1
102
RTVSPropertyOp19
 70
     1
102
RTVSPropertyOp20
 70
     1
102
RTVSPropertyOp21
 70
     1
102
RTVSPropertyOp22
 70
     1
102
RTVSPropertyOp23
 70
     1
102
RTVSPropertyOp24
 70
     1
102
RTVSPropertyOp25
 70
     1
102
RTVSPropertyOp26
 70
     1
102
RTVSPropertyOp27
 70
     1
  0
XRECORD
  5
3E42
102
{ACAD_REACTORS
330
3E41
102
}
330
3E41
100
AcDbXrecord
280
     1
102
RTVSPropertyOp0
 70
     1
102
RTVSPropertyOp1
 70
     1
102
RTVSPropertyOp2
 70
     1
102
RTVSPropertyOp3
 70
     1
102
RTVSPropertyOp4
 70
     1
102
RTVSPropertyOp5
 70
     1
102
RTVSPropertyOp6
 70
     1
102
RTVSPropertyOp7
 70
     1
102
RTVSPropertyOp8
 70
     1
102
RTVSPropertyOp9
 70
     1
102
RTVSPropertyOp10
 70
     1
102
RTVSPropertyOp11
 70
     1
102
RTVSPropertyOp12
 70
     1
102
RTVSPropertyOp13
 70
     1
102
RTVSPropertyOp14
 70
     1
102
RTVSPropertyOp15
 70
     1
102
RTVSPropertyOp16
 70
     1
102
RTVSPropertyOp17
 70
     1
102
RTVSPropertyOp18
 70
     1
102
RTVSPropertyOp19
 70
     1
102
RTVSPropertyOp20
 70
     1
102
RTVSPropertyOp21
 70
     1
102
RTVSPropertyOp22
 70
     1
102
RTVSPropertyOp23
 70
     1
102
RTVSPropertyOp24
 70
     1
102
RTVSPropertyOp25
 70
     1
102
RTVSPropertyOp26
 70
     1
102
RTVSPropertyOp27
 70
     1
  0
XRECORD
  5
3E52
102
{ACAD_REACTORS
330
3E51
102
}
330
3E51
100
AcDbXrecord
280
     1
102
RTVSPropertyOp0
 70
     0
102
RTVSPropertyOp1
 70
     0
102
RTVSPropertyOp2
 70
     0
102
RTVSPropertyOp3
 70
     0
102
RTVSPropertyOp4
 70
     0
102
RTVSPropertyOp5
 70
     0
102
RTVSPropertyOp6
 70
     0
102
RTVSPropertyOp7
 70
     0
102
RTVSPropertyOp8
 70
     0
102
RTVSPropertyOp9
 70
     0
102
RTVSPropertyOp10
 70
     0
102
RTVSPropertyOp11
 70
     0
102
RTVSPropertyOp12
 70
     0
102
RTVSPropertyOp13
 70
     0
102
RTVSPropertyOp14
 70
     2
102
RTVSPropertyOp15
 70
     0
102
RTVSPropertyOp16
 70
     0
102
RTVSPropertyOp17
 70
     0
102
RTVSPropertyOp18
 70
     0
102
RTVSPropertyOp19
 70
     0
102
RTVSPropertyOp20
 70
     0
102
RTVSPropertyOp21
 70
     0
102
RTVSPropertyOp22
 70
     0
102
RTVSPropertyOp23
 70
     0
102
RTVSPropertyOp24
 70
     0
102
RTVSPropertyOp25
 70
     0
102
RTVSPropertyOp26
 70
     0
102
RTVSPropertyOp27
 70
     0
  0
XRECORD
  5
3E4A
102
{ACAD_REACTORS
330
3E49
102
}
330
3E49
100
AcDbXrecord
280
     1
102
RTVSPropertyOp0
 70
     1
102
RTVSPropertyOp1
 70
     1
102
RTVSPropertyOp2
 70
     1
102
RTVSPropertyOp3
 70
     1
102
RTVSPropertyOp4
 70
     1
102
RTVSPropertyOp5
 70
     1
102
RTVSPropertyOp6
 70
     1
102
RTVSPropertyOp7
 70
     1
102
RTVSPropertyOp8
 70
     1
102
RTVSPropertyOp9
 70
     1
102
RTVSPropertyOp10
 70
     1
102
RTVSPropertyOp11
 70
     1
102
RTVSPropertyOp12
 70
     1
102
RTVSPropertyOp13
 70
     1
102
RTVSPropertyOp14
 70
     1
102
RTVSPropertyOp15
 70
     1
102
RTVSPropertyOp16
 70
     1
102
RTVSPropertyOp17
 70
     1
102
RTVSPropertyOp18
 70
     1
102
RTVSPropertyOp19
 70
     1
102
RTVSPropertyOp20
 70
     1
102
RTVSPropertyOp21
 70
     1
102
RTVSPropertyOp22
 70
     1
102
RTVSPropertyOp23
 70
     1
102
RTVSPropertyOp24
 70
     1
102
RTVSPropertyOp25
 70
     1
102
RTVSPropertyOp26
 70
     1
102
RTVSPropertyOp27
 70
     1
  0
XRECORD
  5
3E2E
102
{ACAD_REACTORS
330
3E2D
102
}
330
3E2D
100
AcDbXrecord
280
     1
102
RTVSPropertyOp0
 70
     1
102
RTVSPropertyOp1
 70
     1
102
RTVSPropertyOp2
 70
     1
102
RTVSPropertyOp3
 70
     1
102
RTVSPropertyOp4
 70
     1
102
RTVSPropertyOp5
 70
     1
102
RTVSPropertyOp6
 70
     1
102
RTVSPropertyOp7
 70
     1
102
RTVSPropertyOp8
 70
     1
102
RTVSPropertyOp9
 70
     1
102
RTVSPropertyOp10
 70
     1
102
RTVSPropertyOp11
 70
     1
102
RTVSPropertyOp12
 70
     1
102
RTVSPropertyOp13
 70
     1
102
RTVSPropertyOp14
 70
     1
102
RTVSPropertyOp15
 70
     1
102
RTVSPropertyOp16
 70
     1
102
RTVSPropertyOp17
 70
     1
102
RTVSPropertyOp18
 70
     1
102
RTVSPropertyOp19
 70
     1
102
RTVSPropertyOp20
 70
     1
102
RTVSPropertyOp21
 70
     1
102
RTVSPropertyOp22
 70
     1
102
RTVSPropertyOp23
 70
     1
102
RTVSPropertyOp24
 70
     1
102
RTVSPropertyOp25
 70
     1
102
RTVSPropertyOp26
 70
     1
102
RTVSPropertyOp27
 70
     1
  0
XRECORD
  5
3E30
102
{ACAD_REACTORS
330
3E2F
102
}
330
3E2F
100
AcDbXrecord
280
     1
102
RTVSPropertyOp0
 70
     1
102
RTVSPropertyOp1
 70
     1
102
RTVSPropertyOp2
 70
     1
102
RTVSPropertyOp3
 70
     1
102
RTVSPropertyOp4
 70
     1
102
RTVSPropertyOp5
 70
     1
102
RTVSPropertyOp6
 70
     1
102
RTVSPropertyOp7
 70
     1
102
RTVSPropertyOp8
 70
     1
102
RTVSPropertyOp9
 70
     1
102
RTVSPropertyOp10
 70
     1
102
RTVSPropertyOp11
 70
     1
102
RTVSPropertyOp12
 70
     1
102
RTVSPropertyOp13
 70
     1
102
RTVSPropertyOp14
 70
     1
102
RTVSPropertyOp15
 70
     1
102
RTVSPropertyOp16
 70
     1
102
RTVSPropertyOp17
 70
     1
102
RTVSPropertyOp18
 70
     1
102
RTVSPropertyOp19
 70
     1
102
RTVSPropertyOp20
 70
     1
102
RTVSPropertyOp21
 70
     1
102
RTVSPropertyOp22
 70
     1
102
RTVSPropertyOp23
 70
     1
102
RTVSPropertyOp24
 70
     1
102
RTVSPropertyOp25
 70
     1
102
RTVSPropertyOp26
 70
     1
102
RTVSPropertyOp27
 70
     1
  0
XRECORD
  5
3E32
102
{ACAD_REACTORS
330
3E31
102
}
330
3E31
100
AcDbXrecord
280
     1
102
RTVSPropertyOp0
 70
     1
102
RTVSPropertyOp1
 70
     1
102
RTVSPropertyOp2
 70
     1
102
RTVSPropertyOp3
 70
     1
102
RTVSPropertyOp4
 70
     1
102
RTVSPropertyOp5
 70
     1
102
RTVSPropertyOp6
 70
     1
102
RTVSPropertyOp7
 70
     1
102
RTVSPropertyOp8
 70
     1
102
RTVSPropertyOp9
 70
     1
102
RTVSPropertyOp10
 70
     1
102
RTVSPropertyOp11
 70
     1
102
RTVSPropertyOp12
 70
     1
102
RTVSPropertyOp13
 70
     1
102
RTVSPropertyOp14
 70
     1
102
RTVSPropertyOp15
 70
     1
102
RTVSPropertyOp16
 70
     1
102
RTVSPropertyOp17
 70
     1
102
RTVSPropertyOp18
 70
     1
102
RTVSPropertyOp19
 70
     1
102
RTVSPropertyOp20
 70
     1
102
RTVSPropertyOp21
 70
     1
102
RTVSPropertyOp22
 70
     1
102
RTVSPropertyOp23
 70
     1
102
RTVSPropertyOp24
 70
     1
102
RTVSPropertyOp25
 70
     1
102
RTVSPropertyOp26
 70
     1
102
RTVSPropertyOp27
 70
     1
  0
XRECORD
  5
3E34
102
{ACAD_REACTORS
330
3E33
102
}
330
3E33
100
AcDbXrecord
280
     1
102
RTVSPropertyOp0
 70
     1
102
RTVSPropertyOp1
 70
     1
102
RTVSPropertyOp2
 70
     1
102
RTVSPropertyOp3
 70
     1
102
RTVSPropertyOp4
 70
     1
102
RTVSPropertyOp5
 70
     1
102
RTVSPropertyOp6
 70
     1
102
RTVSPropertyOp7
 70
     1
102
RTVSPropertyOp8
 70
     1
102
RTVSPropertyOp9
 70
     1
102
RTVSPropertyOp10
 70
     1
102
RTVSPropertyOp11
 70
     1
102
RTVSPropertyOp12
 70
     1
102
RTVSPropertyOp13
 70
     1
102
RTVSPropertyOp14
 70
     1
102
RTVSPropertyOp15
 70
     1
102
RTVSPropertyOp16
 70
     1
102
RTVSPropertyOp17
 70
     1
102
RTVSPropertyOp18
 70
     1
102
RTVSPropertyOp19
 70
     1
102
RTVSPropertyOp20
 70
     1
102
RTVSPropertyOp21
 70
     1
102
RTVSPropertyOp22
 70
     1
102
RTVSPropertyOp23
 70
     1
102
RTVSPropertyOp24
 70
     1
102
RTVSPropertyOp25
 70
     1
102
RTVSPropertyOp26
 70
     1
102
RTVSPropertyOp27
 70
     1
  0
XRECORD
  5
3E4E
102
{ACAD_REACTORS
330
3E4D
102
}
330
3E4D
100
AcDbXrecord
280
     1
102
RTVSPropertyOp0
 70
     0
102
RTVSPropertyOp1
 70
     0
102
RTVSPropertyOp2
 70
     0
102
RTVSPropertyOp3
 70
     0
102
RTVSPropertyOp4
 70
     0
102
RTVSPropertyOp5
 70
     0
102
RTVSPropertyOp6
 70
     0
102
RTVSPropertyOp7
 70
     0
102
RTVSPropertyOp8
 70
     0
102
RTVSPropertyOp9
 70
     0
102
RTVSPropertyOp10
 70
     0
102
RTVSPropertyOp11
 70
     0
102
RTVSPropertyOp12
 70
     0
102
RTVSPropertyOp13
 70
     0
102
RTVSPropertyOp14
 70
     2
102
RTVSPropertyOp15
 70
     0
102
RTVSPropertyOp16
 70
     0
102
RTVSPropertyOp17
 70
     0
102
RTVSPropertyOp18
 70
     0
102
RTVSPropertyOp19
 70
     0
102
RTVSPropertyOp20
 70
     0
102
RTVSPropertyOp21
 70
     0
102
RTVSPropertyOp22
 70
     0
102
RTVSPropertyOp23
 70
     0
102
RTVSPropertyOp24
 70
     0
102
RTVSPropertyOp25
 70
     0
102
RTVSPropertyOp26
 70
     0
102
RTVSPropertyOp27
 70
     0
  0
XRECORD
  5
3E48
102
{ACAD_REACTORS
330
3E47
102
}
330
3E47
100
AcDbXrecord
280
     1
102
RTVSPropertyOp0
 70
     1
102
RTVSPropertyOp1
 70
     1
102
RTVSPropertyOp2
 70
     1
102
RTVSPropertyOp3
 70
     1
102
RTVSPropertyOp4
 70
     1
102
RTVSPropertyOp5
 70
     1
102
RTVSPropertyOp6
 70
     1
102
RTVSPropertyOp7
 70
     1
102
RTVSPropertyOp8
 70
     1
102
RTVSPropertyOp9
 70
     1
102
RTVSPropertyOp10
 70
     1
102
RTVSPropertyOp11
 70
     1
102
RTVSPropertyOp12
 70
     1
102
RTVSPropertyOp13
 70
     1
102
RTVSPropertyOp14
 70
     1
102
RTVSPropertyOp15
 70
     1
102
RTVSPropertyOp16
 70
     1
102
RTVSPropertyOp17
 70
     1
102
RTVSPropertyOp18
 70
     1
102
RTVSPropertyOp19
 70
     1
102
RTVSPropertyOp20
 70
     1
102
RTVSPropertyOp21
 70
     1
102
RTVSPropertyOp22
 70
     1
102
RTVSPropertyOp23
 70
     1
102
RTVSPropertyOp24
 70
     1
102
RTVSPropertyOp25
 70
     1
102
RTVSPropertyOp26
 70
     1
102
RTVSPropertyOp27
 70
     1
  0
XRECORD
  5
3E50
102
{ACAD_REACTORS
330
3E4F
102
}
330
3E4F
100
AcDbXrecord
280
     1
102
RTVSPropertyOp0
 70
     0
102
RTVSPropertyOp1
 70
     0
102
RTVSPropertyOp2
 70
     0
102
RTVSPropertyOp3
 70
     0
102
RTVSPropertyOp4
 70
     0
102
RTVSPropertyOp5
 70
     0
102
RTVSPropertyOp6
 70
     0
102
RTVSPropertyOp7
 70
     0
102
RTVSPropertyOp8
 70
     0
102
RTVSPropertyOp9
 70
     0
102
RTVSPropertyOp10
 70
     0
102
RTVSPropertyOp11
 70
     0
102
RTVSPropertyOp12
 70
     0
102
RTVSPropertyOp13
 70
     0
102
RTVSPropertyOp14
 70
     2
102
RTVSPropertyOp15
 70
     0
102
RTVSPropertyOp16
 70
     0
102
RTVSPropertyOp17
 70
     0
102
RTVSPropertyOp18
 70
     0
102
RTVSPropertyOp19
 70
     0
102
RTVSPropertyOp20
 70
     0
102
RTVSPropertyOp21
 70
     0
102
RTVSPropertyOp22
 70
     0
102
RTVSPropertyOp23
 70
     0
102
RTVSPropertyOp24
 70
     0
102
RTVSPropertyOp25
 70
     0
102
RTVSPropertyOp26
 70
     0
102
RTVSPropertyOp27
 70
     0
  0
XRECORD
  5
3E40
102
{ACAD_REACTORS
330
3E3F
102
}
330
3E3F
100
AcDbXrecord
280
     1
102
RTVSPropertyOp0
 70
     1
102
RTVSPropertyOp1
 70
     1
102
RTVSPropertyOp2
 70
     1
102
RTVSPropertyOp3
 70
     1
102
RTVSPropertyOp4
 70
     1
102
RTVSPropertyOp5
 70
     1
102
RTVSPropertyOp6
 70
     1
102
RTVSPropertyOp7
 70
     1
102
RTVSPropertyOp8
 70
     1
102
RTVSPropertyOp9
 70
     1
102
RTVSPropertyOp10
 70
     1
102
RTVSPropertyOp11
 70
     1
102
RTVSPropertyOp12
 70
     1
102
RTVSPropertyOp13
 70
     1
102
RTVSPropertyOp14
 70
     1
102
RTVSPropertyOp15
 70
     1
102
RTVSPropertyOp16
 70
     1
102
RTVSPropertyOp17
 70
     1
102
RTVSPropertyOp18
 70
     1
102
RTVSPropertyOp19
 70
     1
102
RTVSPropertyOp20
 70
     1
102
RTVSPropertyOp21
 70
     1
102
RTVSPropertyOp22
 70
     1
102
RTVSPropertyOp23
 70
     1
102
RTVSPropertyOp24
 70
     1
102
RTVSPropertyOp25
 70
     1
102
RTVSPropertyOp26
 70
     1
102
RTVSPropertyOp27
 70
     1
  0
XRECORD
  5
3E46
102
{ACAD_REACTORS
330
3E45
102
}
330
3E45
100
AcDbXrecord
280
     1
102
RTVSPropertyOp0
 70
     1
102
RTVSPropertyOp1
 70
     1
102
RTVSPropertyOp2
 70
     1
102
RTVSPropertyOp3
 70
     1
102
RTVSPropertyOp4
 70
     1
102
RTVSPropertyOp5
 70
     1
102
RTVSPropertyOp6
 70
     1
102
RTVSPropertyOp7
 70
     1
102
RTVSPropertyOp8
 70
     1
102
RTVSPropertyOp9
 70
     1
102
RTVSPropertyOp10
 70
     1
102
RTVSPropertyOp11
 70
     1
102
RTVSPropertyOp12
 70
     1
102
RTVSPropertyOp13
 70
     1
102
RTVSPropertyOp14
 70
     1
102
RTVSPropertyOp15
 70
     1
102
RTVSPropertyOp16
 70
     1
102
RTVSPropertyOp17
 70
     1
102
RTVSPropertyOp18
 70
     1
102
RTVSPropertyOp19
 70
     1
102
RTVSPropertyOp20
 70
     1
102
RTVSPropertyOp21
 70
     1
102
RTVSPropertyOp22
 70
     1
102
RTVSPropertyOp23
 70
     1
102
RTVSPropertyOp24
 70
     1
102
RTVSPropertyOp25
 70
     1
102
RTVSPropertyOp26
 70
     1
102
RTVSPropertyOp27
 70
     1
  0
ENDSEC
  0
EOF
