  0
SECTION
  2
HEADER
  9
$ACADVER
  1
AC1015
  9
$ACADMAINTVER
 70
    20
  9
$DWGCODEPAGE
  3
ANSI_1252
  9
$INSBASE
 10
0.0
 20
0.0
 30
0.0
  9
$EXTMIN
 10
1066.202204236212
 20
1065.275059998903
 30
0.0
  9
$EXTMAX
 10
1068.903737295282
 20
1065.625059998903
 30
0.0
  9
$LIMMIN
 10
0.0
 20
0.0
  9
$LIMMAX
 10
420.0
 20
297.0
  9
$ORTHOMODE
 70
     1
  9
$REGENMODE
 70
     1
  9
$FILLMODE
 70
     1
  9
$QTEXTMODE
 70
     0
  9
$MIRRTEXT
 70
     0
  9
$LTSCALE
 40
1.0
  9
$ATTMODE
 70
     1
  9
$TEXTSIZE
 40
2.5
  9
$TRACEWID
 40
1.0
  9
$TEXTSTYLE
  7
Standard
  9
$CLAYER
  8
0
  9
$CELTYPE
  6
ByLayer
  9
$CECOLOR
 62
   256
  9
$CELTSCALE
 40
1.0
  9
$DISPSILH
 70
     0
  9
$DIMSCALE
 40
1.0
  9
$DIMASZ
 40
2.5
  9
$DIMEXO
 40
0.625
  9
$DIMDLI
 40
3.75
  9
$DIMRND
 40
0.0
  9
$DIMDLE
 40
0.0
  9
$DIMEXE
 40
1.25
  9
$DIMTP
 40
0.0
  9
$DIMTM
 40
0.0
  9
$DIMTXT
 40
2.5
  9
$DIMCEN
 40
2.5
  9
$DIMTSZ
 40
0.0
  9
$DIMTOL
 70
     0
  9
$DIMLIM
 70
     0
  9
$DIMTIH
 70
     0
  9
$DIMTOH
 70
     0
  9
$DIMSE1
 70
     0
  9
$DIMSE2
 70
     0
  9
$DIMTAD
 70
     1
  9
$DIMZIN
 70
     8
  9
$DIMBLK
  1

  9
$DIMASO
 70
     1
  9
$DIMSHO
 70
     1
  9
$DIMPOST
  1

  9
$DIMAPOST
  1

  9
$DIMALT
 70
     0
  9
$DIMALTD
 70
     3
  9
$DIMALTF
 40
0.03937007874016
  9
$DIMLFAC
 40
1.0
  9
$DIMTOFL
 70
     1
  9
$DIMTVP
 40
0.0
  9
$DIMTIX
 70
     0
  9
$DIMSOXD
 70
     0
  9
$DIMSAH
 70
     0
  9
$DIMBLK1
  1

  9
$DIMBLK2
  1

  9
$DIMSTYLE
  2
ISO-25
  9
$DIMCLRD
 70
     0
  9
$DIMCLRE
 70
     0
  9
$DIMCLRT
 70
     0
  9
$DIMTFAC
 40
1.0
  9
$DIMGAP
 40
0.625
  9
$DIMJUST
 70
     0
  9
$DIMSD1
 70
     0
  9
$DIMSD2
 70
     0
  9
$DIMTOLJ
 70
     0
  9
$DIMTZIN
 70
     8
  9
$DIMALTZ
 70
     0
  9
$DIMALTTZ
 70
     0
  9
$DIMUPT
 70
     0
  9
$DIMDEC
 70
     2
  9
$DIMTDEC
 70
     2
  9
$DIMALTU
 70
     2
  9
$DIMALTTD
 70
     3
  9
$DIMTXSTY
  7
Standard
  9
$DIMAUNIT
 70
     0
  9
$DIMADEC
 70
     0
  9
$DIMALTRND
 40
0.0
  9
$DIMAZIN
 70
     0
  9
$DIMDSEP
 70
    44
  9
$DIMATFIT
 70
     3
  9
$DIMFRAC
 70
     0
  9
$DIMLDRBLK
  1

  9
$DIMLUNIT
 70
     2
  9
$DIMLWD
 70
    -2
  9
$DIMLWE
 70
    -2
  9
$DIMTMOVE
 70
     0
  9
$LUNITS
 70
     2
  9
$LUPREC
 70
     4
  9
$SKETCHINC
 40
1.0
  9
$FILLETRAD
 40
20.0
  9
$AUNITS
 70
     0
  9
$AUPREC
 70
     0
  9
$MENU
  1
.
  9
$ELEVATION
 40
0.0
  9
$PELEVATION
 40
0.0
  9
$THICKNESS
 40
0.0
  9
$LIMCHECK
 70
     0
  9
$CHAMFERA
 40
0.0
  9
$CHAMFERB
 40
0.0
  9
$CHAMFERC
 40
0.0
  9
$CHAMFERD
 40
0.0
  9
$SKPOLY
 70
     0
  9
$TDCREATE
 40
2454925.720081921
  9
$TDUCREATE
 40
2454925.678415255
  9
$TDUPDATE
 40
2454925.725383206
  9
$TDUUPDATE
 40
2454925.683716539
  9
$TDINDWG
 40
0.0053018287
  9
$TDUSRTIMER
 40
0.0053018287
  9
$USRTIMER
 70
     1
  9
$ANGBASE
 50
0.0
  9
$ANGDIR
 70
     0
  9
$PDMODE
 70
     0
  9
$PDSIZE
 40
0.0
  9
$PLINEWID
 40
0.0
  9
$SPLFRAME
 70
     0
  9
$SPLINETYPE
 70
     6
  9
$SPLINESEGS
 70
     8
  9
$HANDSEED
  5
17CE
  9
$SURFTAB1
 70
     6
  9
$SURFTAB2
 70
     6
  9
$SURFTYPE
 70
     6
  9
$SURFU
 70
     6
  9
$SURFV
 70
     6
  9
$UCSBASE
  2

  9
$UCSNAME
  2

  9
$UCSORG
 10
0.0
 20
0.0
 30
0.0
  9
$UCSXDIR
 10
1.0
 20
0.0
 30
0.0
  9
$UCSYDIR
 10
0.0
 20
1.0
 30
0.0
  9
$UCSORTHOREF
  2

  9
$UCSORTHOVIEW
 70
     0
  9
$UCSORGTOP
 10
0.0
 20
0.0
 30
0.0
  9
$UCSORGBOTTOM
 10
0.0
 20
0.0
 30
0.0
  9
$UCSORGLEFT
 10
0.0
 20
0.0
 30
0.0
  9
$UCSORGRIGHT
 10
0.0
 20
0.0
 30
0.0
  9
$UCSORGFRONT
 10
0.0
 20
0.0
 30
0.0
  9
$UCSORGBACK
 10
0.0
 20
0.0
 30
0.0
  9
$PUCSBASE
  2

  9
$PUCSNAME
  2

  9
$PUCSORG
 10
0.0
 20
0.0
 30
0.0
  9
$PUCSXDIR
 10
1.0
 20
0.0
 30
0.0
  9
$PUCSYDIR
 10
0.0
 20
1.0
 30
0.0
  9
$PUCSORTHOREF
  2

  9
$PUCSORTHOVIEW
 70
     0
  9
$PUCSORGTOP
 10
0.0
 20
0.0
 30
0.0
  9
$PUCSORGBOTTOM
 10
0.0
 20
0.0
 30
0.0
  9
$PUCSORGLEFT
 10
0.0
 20
0.0
 30
0.0
  9
$PUCSORGRIGHT
 10
0.0
 20
0.0
 30
0.0
  9
$PUCSORGFRONT
 10
0.0
 20
0.0
 30
0.0
  9
$PUCSORGBACK
 10
0.0
 20
0.0
 30
0.0
  9
$USERI1
 70
     0
  9
$USERI2
 70
     0
  9
$USERI3
 70
     0
  9
$USERI4
 70
     0
  9
$USERI5
 70
     0
  9
$USERR1
 40
0.0
  9
$USERR2
 40
0.0
  9
$USERR3
 40
0.0
  9
$USERR4
 40
0.0
  9
$USERR5
 40
0.0
  9
$WORLDVIEW
 70
     1
  9
$SHADEDGE
 70
     3
  9
$SHADEDIF
 70
    70
  9
$TILEMODE
 70
     1
  9
$MAXACTVP
 70
    64
  9
$PINSBASE
 10
0.0
 20
0.0
 30
0.0
  9
$PLIMCHECK
 70
     0
  9
$PEXTMIN
 10
1.000000000000000E+20
 20
1.000000000000000E+20
 30
1.000000000000000E+20
  9
$PEXTMAX
 10
-1.000000000000000E+20
 20
-1.000000000000000E+20
 30
-1.000000000000000E+20
  9
$PLIMMIN
 10
0.0
 20
0.0
  9
$PLIMMAX
 10
420.0
 20
297.0
  9
$UNITMODE
 70
     0
  9
$VISRETAIN
 70
     1
  9
$PLINEGEN
 70
     0
  9
$PSLTSCALE
 70
     1
  9
$TREEDEPTH
 70
  3020
  9
$CMLSTYLE
  2
Standard
  9
$CMLJUST
 70
     0
  9
$CMLSCALE
 40
20.0
  9
$PROXYGRAPHICS
 70
     1
  9
$MEASUREMENT
 70
     1
  9
$CELWEIGHT
370
    -1
  9
$ENDCAPS
280
     0
  9
$JOINSTYLE
280
     0
  9
$LWDISPLAY
290
     0
  9
$INSUNITS
 70
     4
  9
$HYPERLINKBASE
  1

  9
$STYLESHEET
  1

  9
$XEDIT
290
     1
  9
$CEPSNTYPE
380
     0
  9
$PSTYLEMODE
290
     1
  9
$FINGERPRINTGUID
  2
{A41F992D-75E5-4A4D-A5A1-CCBA203F92DF}
  9
$VERSIONGUID
  2
{50483334-BD8D-414D-B801-D569642F6886}
  9
$EXTNAMES
290
     1
  9
$PSVPSCALE
 40
0.0
  9
$OLESTARTUP
290
     0
  0
ENDSEC
  0
SECTION
  2
CLASSES
  0
CLASS
  1
ACDBDICTIONARYWDFLT
  2
AcDbDictionaryWithDefault
  3
ObjectDBX Classes
 90
        0
280
     0
281
     0
  0
CLASS
  1
TABLESTYLE
  2
AcDbTableStyle
  3
ObjectDBX Classes
 90
     2047
280
     0
281
     0
  0
CLASS
  1
DIMASSOC
  2
AcDbDimAssoc
  3
"AcDbDimAssoc|Product Desc:     AcDim ARX App For Dimension|Company:          Autodesk, Inc.|WEB Address:      www.autodesk.com"
 90
        0
280
     0
281
     0
  0
CLASS
  1
SORTENTSTABLE
  2
AcDbSortentsTable
  3
ObjectDBX Classes
 90
        0
280
     0
281
     0
  0
CLASS
  1
DICTIONARYVAR
  2
AcDbDictionaryVar
  3
ObjectDBX Classes
 90
        0
280
     0
281
     0
  0
CLASS
  1
ACDBPLACEHOLDER
  2
AcDbPlaceHolder
  3
ObjectDBX Classes
 90
        0
280
     0
281
     0
  0
CLASS
  1
LAYOUT
  2
AcDbLayout
  3
ObjectDBX Classes
 90
        0
280
     0
281
     0
  0
ENDSEC
  0
SECTION
  2
TABLES
  0
TABLE
  2
VPORT
  5
8
330
0
100
AcDbSymbolTable
 70
    10
  0
VPORT
  5
17C6
330
8
100
AcDbSymbolTableRecord
100
AcDbViewportTableRecord
  2
*Active
 70
     0
 10
0.0
 20
0.0
 11
1.0
 21
1.0
 12
1067.552970765747
 22
1065.450059998903
 13
0.0
 23
0.0
 14
10.0
 24
10.0
 15
10.0
 25
10.0
 16
0.0
 26
0.0
 36
1.0
 17
0.0
 27
0.0
 37
0.0
 40
1.692723517489598
 41
1.602030456852791
 42
50.0
 43
0.0
 44
0.0
 50
0.0
 51
0.0
 71
     0
 72
  1000
 73
     1
 74
     3
 75
     0
 76
     0
 77
     0
 78
     0
281
     0
 65
     1
110
0.0
120
0.0
130
0.0
111
1.0
121
0.0
131
0.0
112
0.0
122
1.0
132
0.0
 79
     0
146
0.0
  0
ENDTAB
  0
TABLE
  2
LTYPE
  5
5
330
0
100
AcDbSymbolTable
 70
     4
  0
LTYPE
  5
14
330
5
100
AcDbSymbolTableRecord
100
AcDbLinetypeTableRecord
  2
ByBlock
 70
     0
  3

 72
    65
 73
     0
 40
0.0
  0
LTYPE
  5
15
330
5
100
AcDbSymbolTableRecord
100
AcDbLinetypeTableRecord
  2
ByLayer
 70
     0
  3

 72
    65
 73
     0
 40
0.0
  0
LTYPE
  5
16
330
5
100
AcDbSymbolTableRecord
100
AcDbLinetypeTableRecord
  2
Continuous
 70
     0
  3
Solid line
 72
    65
 73
     0
 40
0.0
  0
LTYPE
  5
26F
330
5
100
AcDbSymbolTableRecord
100
AcDbLinetypeTableRecord
  2
DASHDOT
 70
     0
  3
Dash dot __ . __ . __ . __ . __ . __ . __ . __
 72
    65
 73
     4
 40
25.4
 49
12.7
 74
     0
 49
-6.349999999999999
 74
     0
 49
0.0
 74
     0
 49
-6.349999999999999
 74
     0
  0
LTYPE
  5
270
330
5
100
AcDbSymbolTableRecord
100
AcDbLinetypeTableRecord
  2
HIDDEN
 70
     0
  3
Hidden __ __ __ __ __ __ __ __ __ __ __ __ __ _
 72
    65
 73
     2
 40
9.524999999999998
 49
6.349999999999999
 74
     0
 49
-3.174999999999999
 74
     0
  0
ENDTAB
  0
TABLE
  2
LAYER
  5
2
330
0
100
AcDbSymbolTable
 70
    10
  0
LAYER
  5
10
330
2
100
AcDbSymbolTableRecord
100
AcDbLayerTableRecord
  2
0
 70
     0
 62
     7
  6
Continuous
370
    -3
390
F
  0
LAYER
  5
271
330
2
100
AcDbSymbolTableRecord
100
AcDbLayerTableRecord
  2
2
 70
     0
 62
     2
  6
Continuous
370
    -3
390
F
  0
LAYER
  5
272
330
2
100
AcDbSymbolTableRecord
100
AcDbLayerTableRecord
  2
4
 70
     0
 62
     4
  6
Continuous
370
    -3
390
F
  0
LAYER
  5
273
330
2
100
AcDbSymbolTableRecord
100
AcDbLayerTableRecord
  2
cen
 70
     0
 62
     7
  6
DASHDOT
370
    -3
390
F
  0
LAYER
  5
274
330
2
100
AcDbSymbolTableRecord
100
AcDbLayerTableRecord
  2
hid
 70
     0
 62
     7
  6
HIDDEN
370
    -3
390
F
  0
LAYER
  5
275
330
2
100
AcDbSymbolTableRecord
100
AcDbLayerTableRecord
  2
hatch
 70
     0
 62
     9
  6
Continuous
370
    -3
390
F
  0
LAYER
  5
276
330
2
100
AcDbSymbolTableRecord
100
AcDbLayerTableRecord
  2
9
 70
     0
 62
     9
  6
Continuous
370
    -3
390
F
  0
LAYER
  5
277
330
2
100
AcDbSymbolTableRecord
100
AcDbLayerTableRecord
  2
cotas
 70
     0
 62
     1
  6
Continuous
370
    -3
390
F
  0
LAYER
  5
278
330
2
100
AcDbSymbolTableRecord
100
AcDbLayerTableRecord
  2
Defpoints
 70
     0
 62
     7
  6
Continuous
290
     0
370
    -3
390
F
  0
LAYER
  5
279
330
2
100
AcDbSymbolTableRecord
100
AcDbLayerTableRecord
  2
SANINDUSA
 70
     0
 62
     3
  6
Continuous
370
    -3
390
F
  0
ENDTAB
  0
TABLE
  2
STYLE
  5
3
330
0
100
AcDbSymbolTable
 70
     2
  0
STYLE
  5
11
330
3
100
AcDbSymbolTableRecord
100
AcDbTextStyleTableRecord
  2
Standard
 70
     0
 40
0.0
 41
1.0
 50
0.0
 71
     0
 42
2.5
  3
txt
  4

  0
STYLE
  5
27A
330
3
100
AcDbSymbolTableRecord
100
AcDbTextStyleTableRecord
  2
SANINDUSA
 70
     0
 40
0.0
 41
1.0
 50
0.0
 71
     0
 42
2.5
  3
verdana.TTF
  4

1001
ACAD
1000
Verdana
1071
       34
  0
ENDTAB
  0
TABLE
  2
VIEW
  5
6
330
0
100
AcDbSymbolTable
 70
     0
  0
ENDTAB
  0
TABLE
  2
UCS
  5
7
330
0
100
AcDbSymbolTable
 70
     0
  0
ENDTAB
  0
TABLE
  2
APPID
  5
9
330
0
100
AcDbSymbolTable
 70
     5
  0
APPID
  5
12
330
9
100
AcDbSymbolTableRecord
100
AcDbRegAppTableRecord
  2
ACAD
 70
     0
  0
APPID
  5
27C
330
9
100
AcDbSymbolTableRecord
100
AcDbRegAppTableRecord
  2
ACAD_DSTYLE_DIMEXT_LENGTH
 70
     0
  0
APPID
  5
27D
330
9
100
AcDbSymbolTableRecord
100
AcDbRegAppTableRecord
  2
ACAD_DSTYLE_DIMEXT_ENABLED
 70
     0
  0
APPID
  5
27E
330
9
100
AcDbSymbolTableRecord
100
AcDbRegAppTableRecord
  2
ACAD_DSTYLE_DIMJOGGED_JOGANGLE_SYMBOL
 70
     0
  0
APPID
  5
27F
330
9
100
AcDbSymbolTableRecord
100
AcDbRegAppTableRecord
  2
ACAD_DSTYLE_DIMARC_LENGTH_SYMBOL
 70
     0
  0
ENDTAB
  0
TABLE
  2
DIMSTYLE
  5
A
330
0
100
AcDbSymbolTable
 70
     3
100
AcDbDimStyleTable
 71
     1
340
2B
  0
DIMSTYLE
105
2B
330
A
100
AcDbSymbolTableRecord
100
AcDbDimStyleTableRecord
  2
ISO-25
 70
     0
 41
2.5
 42
0.625
 43
3.75
 44
1.25
 73
     0
 74
     0
 77
     1
 78
     8
140
2.5
141
2.5
143
0.03937007874016
147
0.625
171
     3
172
     1
271
     2
272
     2
274
     3
278
    44
283
     0
284
     8
340
11
  0
DIMSTYLE
105
27B
102
{ACAD_REACTORS
330
49E
330
4A1
330
4A2
330
4A3
330
4A6
330
4A9
330
4AC
330
4AF
330
4B2
330
4B5
330
4B8
330
4BB
330
4BE
330
4C1
330
4C4
330
4C7
330
4CA
330
4CD
330
4D0
330
4D3
330
4D6
330
4D9
330
4E2
330
4E3
330
4E6
330
4EA
330
4F4
330
4F7
330
4FA
330
4FB
330
50E
330
511
330
514
330
517
330
51A
330
51D
330
520
330
521
330
522
330
5A5
330
5A9
330
5AC
330
5AF
330
5B2
330
5B5
330
5B8
330
5BB
330
5BE
102
}
330
A
100
AcDbSymbolTableRecord
100
AcDbDimStyleTableRecord
  2
SANINDUSA
 70
     0
 40
5.0
 41
2.0
 42
1.0
 43
1.0
 44
1.0
 73
     0
 74
     0
 77
     1
 78
     8
140
2.0
141
0.0
143
0.03937007874016
147
1.0
171
     3
172
     1
176
   256
177
   256
178
   256
179
     1
271
     0
272
     0
274
     3
278
    44
283
     0
284
     8
340
27A
371
    -1
372
    -1
1001
ACAD_DSTYLE_DIMEXT_LENGTH
1070
   378
1040
1.0
1001
ACAD_DSTYLE_DIMEXT_ENABLED
1070
   383
1070
     0
1001
ACAD_DSTYLE_DIMARC_LENGTH_SYMBOL
1070
   379
1070
     0
1001
ACAD_DSTYLE_DIMJOGGED_JOGANGLE_SYMBOL
1070
   384
1040
1.570796326794896
  0
ENDTAB
  0
TABLE
  2
BLOCK_RECORD
  5
1
330
0
100
AcDbSymbolTable
 70
   100
  0
BLOCK_RECORD
  5
23
102
{ACAD_XDICTIONARY
360
17A2
102
}
330
1
100
AcDbSymbolTableRecord
100
AcDbBlockTableRecord
  2
*Model_Space
340
26
  0
BLOCK_RECORD
  5
1F
330
1
100
AcDbSymbolTableRecord
100
AcDbBlockTableRecord
  2
*Paper_Space
340
22
  0
BLOCK_RECORD
  5
27
330
1
100
AcDbSymbolTableRecord
100
AcDbBlockTableRecord
  2
*Paper_Space0
340
2A
  0
BLOCK_RECORD
  5
2F
330
1
100
AcDbSymbolTableRecord
100
AcDbBlockTableRecord
  2
_DotSmall
340
0
102
{BLKREFS
331
1A2
331
195
331
189
331
164
331
A90
331
AB1
331
ABB
331
AC8
102
}
  0
BLOCK_RECORD
  5
33
330
1
100
AcDbSymbolTableRecord
100
AcDbBlockTableRecord
  2
*D2
340
0
  0
BLOCK_RECORD
  5
3F
330
1
100
AcDbSymbolTableRecord
100
AcDbBlockTableRecord
  2
*D3
340
0
  0
BLOCK_RECORD
  5
4A
330
1
100
AcDbSymbolTableRecord
100
AcDbBlockTableRecord
  2
*D4
340
0
  0
BLOCK_RECORD
  5
56
330
1
100
AcDbSymbolTableRecord
100
AcDbBlockTableRecord
  2
*D5
340
0
  0
BLOCK_RECORD
  5
61
330
1
100
AcDbSymbolTableRecord
100
AcDbBlockTableRecord
  2
*D6
340
0
  0
BLOCK_RECORD
  5
6C
330
1
100
AcDbSymbolTableRecord
100
AcDbBlockTableRecord
  2
*D7
340
0
  0
BLOCK_RECORD
  5
78
330
1
100
AcDbSymbolTableRecord
100
AcDbBlockTableRecord
  2
*D8
340
0
  0
BLOCK_RECORD
  5
84
330
1
100
AcDbSymbolTableRecord
100
AcDbBlockTableRecord
  2
*D9
340
0
  0
BLOCK_RECORD
  5
90
330
1
100
AcDbSymbolTableRecord
100
AcDbBlockTableRecord
  2
*D10
340
0
  0
BLOCK_RECORD
  5
9C
330
1
100
AcDbSymbolTableRecord
100
AcDbBlockTableRecord
  2
*D11
340
0
  0
BLOCK_RECORD
  5
A8
330
1
100
AcDbSymbolTableRecord
100
AcDbBlockTableRecord
  2
*D12
340
0
  0
BLOCK_RECORD
  5
B4
330
1
100
AcDbSymbolTableRecord
100
AcDbBlockTableRecord
  2
*D13
340
0
  0
BLOCK_RECORD
  5
C0
330
1
100
AcDbSymbolTableRecord
100
AcDbBlockTableRecord
  2
*D14
340
0
  0
BLOCK_RECORD
  5
CB
330
1
100
AcDbSymbolTableRecord
100
AcDbBlockTableRecord
  2
*D15
340
0
  0
BLOCK_RECORD
  5
D7
330
1
100
AcDbSymbolTableRecord
100
AcDbBlockTableRecord
  2
*D16
340
0
  0
BLOCK_RECORD
  5
E3
330
1
100
AcDbSymbolTableRecord
100
AcDbBlockTableRecord
  2
*D17
340
0
  0
BLOCK_RECORD
  5
EF
330
1
100
AcDbSymbolTableRecord
100
AcDbBlockTableRecord
  2
*D18
340
0
  0
BLOCK_RECORD
  5
FB
330
1
100
AcDbSymbolTableRecord
100
AcDbBlockTableRecord
  2
*D19
340
0
  0
BLOCK_RECORD
  5
103
330
1
100
AcDbSymbolTableRecord
100
AcDbBlockTableRecord
  2
*D20
340
0
  0
BLOCK_RECORD
  5
10B
330
1
100
AcDbSymbolTableRecord
100
AcDbBlockTableRecord
  2
*D21
340
0
  0
BLOCK_RECORD
  5
113
330
1
100
AcDbSymbolTableRecord
100
AcDbBlockTableRecord
  2
*D22
340
0
  0
BLOCK_RECORD
  5
11B
330
1
100
AcDbSymbolTableRecord
100
AcDbBlockTableRecord
  2
*D23
340
0
  0
BLOCK_RECORD
  5
127
330
1
100
AcDbSymbolTableRecord
100
AcDbBlockTableRecord
  2
*D24
340
0
  0
BLOCK_RECORD
  5
135
330
1
100
AcDbSymbolTableRecord
100
AcDbBlockTableRecord
  2
*D25
340
0
  0
BLOCK_RECORD
  5
141
330
1
100
AcDbSymbolTableRecord
100
AcDbBlockTableRecord
  2
*D26
340
0
  0
BLOCK_RECORD
  5
14D
330
1
100
AcDbSymbolTableRecord
100
AcDbBlockTableRecord
  2
*D27
340
0
  0
BLOCK_RECORD
  5
15E
330
1
100
AcDbSymbolTableRecord
100
AcDbBlockTableRecord
  2
*D28
340
0
  0
BLOCK_RECORD
  5
16B
330
1
100
AcDbSymbolTableRecord
100
AcDbBlockTableRecord
  2
*D29
340
0
  0
BLOCK_RECORD
  5
177
330
1
100
AcDbSymbolTableRecord
100
AcDbBlockTableRecord
  2
*D30
340
0
  0
BLOCK_RECORD
  5
183
330
1
100
AcDbSymbolTableRecord
100
AcDbBlockTableRecord
  2
*D31
340
0
  0
BLOCK_RECORD
  5
190
330
1
100
AcDbSymbolTableRecord
100
AcDbBlockTableRecord
  2
*D32
340
0
  0
BLOCK_RECORD
  5
19C
330
1
100
AcDbSymbolTableRecord
100
AcDbBlockTableRecord
  2
*D33
340
0
  0
BLOCK_RECORD
  5
1A9
330
1
100
AcDbSymbolTableRecord
100
AcDbBlockTableRecord
  2
*D34
340
0
  0
BLOCK_RECORD
  5
1B7
330
1
100
AcDbSymbolTableRecord
100
AcDbBlockTableRecord
  2
*D35
340
0
  0
BLOCK_RECORD
  5
1C3
330
1
100
AcDbSymbolTableRecord
100
AcDbBlockTableRecord
  2
*D36
340
0
  0
BLOCK_RECORD
  5
1CF
330
1
100
AcDbSymbolTableRecord
100
AcDbBlockTableRecord
  2
*D37
340
0
  0
BLOCK_RECORD
  5
1DB
330
1
100
AcDbSymbolTableRecord
100
AcDbBlockTableRecord
  2
*D38
340
0
  0
BLOCK_RECORD
  5
1E7
330
1
100
AcDbSymbolTableRecord
100
AcDbBlockTableRecord
  2
*D39
340
0
  0
BLOCK_RECORD
  5
1F3
330
1
100
AcDbSymbolTableRecord
100
AcDbBlockTableRecord
  2
*D40
340
0
  0
BLOCK_RECORD
  5
1FF
330
1
100
AcDbSymbolTableRecord
100
AcDbBlockTableRecord
  2
*D41
340
0
  0
BLOCK_RECORD
  5
211
330
1
100
AcDbSymbolTableRecord
100
AcDbBlockTableRecord
  2
*D42
340
0
  0
BLOCK_RECORD
  5
221
330
1
100
AcDbSymbolTableRecord
100
AcDbBlockTableRecord
  2
*D43
340
0
  0
BLOCK_RECORD
  5
22D
330
1
100
AcDbSymbolTableRecord
100
AcDbBlockTableRecord
  2
*D44
340
0
  0
BLOCK_RECORD
  5
239
330
1
100
AcDbSymbolTableRecord
100
AcDbBlockTableRecord
  2
*D45
340
0
  0
BLOCK_RECORD
  5
247
330
1
100
AcDbSymbolTableRecord
100
AcDbBlockTableRecord
  2
*D46
340
0
  0
BLOCK_RECORD
  5
24F
330
1
100
AcDbSymbolTableRecord
100
AcDbBlockTableRecord
  2
*D47
340
0
  0
BLOCK_RECORD
  5
257
330
1
100
AcDbSymbolTableRecord
100
AcDbBlockTableRecord
  2
*D48
340
0
  0
BLOCK_RECORD
  5
263
330
1
100
AcDbSymbolTableRecord
100
AcDbBlockTableRecord
  2
*D49
340
0
  0
BLOCK_RECORD
  5
907
330
1
100
AcDbSymbolTableRecord
100
AcDbBlockTableRecord
  2
*D51
340
0
  0
BLOCK_RECORD
  5
912
330
1
100
AcDbSymbolTableRecord
100
AcDbBlockTableRecord
  2
*D52
340
0
  0
BLOCK_RECORD
  5
91E
330
1
100
AcDbSymbolTableRecord
100
AcDbBlockTableRecord
  2
*D53
340
0
  0
BLOCK_RECORD
  5
92C
330
1
100
AcDbSymbolTableRecord
100
AcDbBlockTableRecord
  2
*D54
340
0
  0
BLOCK_RECORD
  5
938
330
1
100
AcDbSymbolTableRecord
100
AcDbBlockTableRecord
  2
*D55
340
0
  0
BLOCK_RECORD
  5
945
330
1
100
AcDbSymbolTableRecord
100
AcDbBlockTableRecord
  2
*D56
340
0
  0
BLOCK_RECORD
  5
951
330
1
100
AcDbSymbolTableRecord
100
AcDbBlockTableRecord
  2
*D57
340
0
  0
BLOCK_RECORD
  5
95D
330
1
100
AcDbSymbolTableRecord
100
AcDbBlockTableRecord
  2
*D58
340
0
  0
BLOCK_RECORD
  5
969
330
1
100
AcDbSymbolTableRecord
100
AcDbBlockTableRecord
  2
*D59
340
0
  0
BLOCK_RECORD
  5
986
330
1
100
AcDbSymbolTableRecord
100
AcDbBlockTableRecord
  2
*D60
340
0
  0
BLOCK_RECORD
  5
991
330
1
100
AcDbSymbolTableRecord
100
AcDbBlockTableRecord
  2
*D61
340
0
  0
BLOCK_RECORD
  5
99C
330
1
100
AcDbSymbolTableRecord
100
AcDbBlockTableRecord
  2
*D62
340
0
  0
BLOCK_RECORD
  5
9A8
330
1
100
AcDbSymbolTableRecord
100
AcDbBlockTableRecord
  2
*D63
340
0
  0
BLOCK_RECORD
  5
9B4
330
1
100
AcDbSymbolTableRecord
100
AcDbBlockTableRecord
  2
*D64
340
0
  0
BLOCK_RECORD
  5
9C0
330
1
100
AcDbSymbolTableRecord
100
AcDbBlockTableRecord
  2
*D65
340
0
  0
BLOCK_RECORD
  5
9CC
330
1
100
AcDbSymbolTableRecord
100
AcDbBlockTableRecord
  2
*D66
340
0
  0
BLOCK_RECORD
  5
9D8
330
1
100
AcDbSymbolTableRecord
100
AcDbBlockTableRecord
  2
*D67
340
0
  0
BLOCK_RECORD
  5
9E4
330
1
100
AcDbSymbolTableRecord
100
AcDbBlockTableRecord
  2
*D68
340
0
  0
BLOCK_RECORD
  5
9F0
330
1
100
AcDbSymbolTableRecord
100
AcDbBlockTableRecord
  2
*D69
340
0
  0
BLOCK_RECORD
  5
9FB
330
1
100
AcDbSymbolTableRecord
100
AcDbBlockTableRecord
  2
*D70
340
0
  0
BLOCK_RECORD
  5
A07
330
1
100
AcDbSymbolTableRecord
100
AcDbBlockTableRecord
  2
*D71
340
0
  0
BLOCK_RECORD
  5
A13
330
1
100
AcDbSymbolTableRecord
100
AcDbBlockTableRecord
  2
*D72
340
0
  0
BLOCK_RECORD
  5
A1F
330
1
100
AcDbSymbolTableRecord
100
AcDbBlockTableRecord
  2
*D73
340
0
  0
BLOCK_RECORD
  5
A2B
330
1
100
AcDbSymbolTableRecord
100
AcDbBlockTableRecord
  2
*D74
340
0
  0
BLOCK_RECORD
  5
A33
330
1
100
AcDbSymbolTableRecord
100
AcDbBlockTableRecord
  2
*D75
340
0
  0
BLOCK_RECORD
  5
A3B
330
1
100
AcDbSymbolTableRecord
100
AcDbBlockTableRecord
  2
*D76
340
0
  0
BLOCK_RECORD
  5
A43
330
1
100
AcDbSymbolTableRecord
100
AcDbBlockTableRecord
  2
*D77
340
0
  0
BLOCK_RECORD
  5
A4B
330
1
100
AcDbSymbolTableRecord
100
AcDbBlockTableRecord
  2
*D78
340
0
  0
BLOCK_RECORD
  5
A62
330
1
100
AcDbSymbolTableRecord
100
AcDbBlockTableRecord
  2
*D79
340
0
  0
BLOCK_RECORD
  5
A6E
330
1
100
AcDbSymbolTableRecord
100
AcDbBlockTableRecord
  2
*D80
340
0
  0
BLOCK_RECORD
  5
A7A
330
1
100
AcDbSymbolTableRecord
100
AcDbBlockTableRecord
  2
*D81
340
0
  0
BLOCK_RECORD
  5
A8B
330
1
100
AcDbSymbolTableRecord
100
AcDbBlockTableRecord
  2
*D82
340
0
  0
BLOCK_RECORD
  5
A98
330
1
100
AcDbSymbolTableRecord
100
AcDbBlockTableRecord
  2
*D83
340
0
  0
BLOCK_RECORD
  5
AB7
330
1
100
AcDbSymbolTableRecord
100
AcDbBlockTableRecord
  2
*D84
340
0
  0
BLOCK_RECORD
  5
AC3
330
1
100
AcDbSymbolTableRecord
100
AcDbBlockTableRecord
  2
*D85
340
0
  0
BLOCK_RECORD
  5
AD0
330
1
100
AcDbSymbolTableRecord
100
AcDbBlockTableRecord
  2
*D86
340
0
  0
BLOCK_RECORD
  5
ADE
330
1
100
AcDbSymbolTableRecord
100
AcDbBlockTableRecord
  2
*D87
340
0
  0
BLOCK_RECORD
  5
AEA
330
1
100
AcDbSymbolTableRecord
100
AcDbBlockTableRecord
  2
*D88
340
0
  0
BLOCK_RECORD
  5
AF6
330
1
100
AcDbSymbolTableRecord
100
AcDbBlockTableRecord
  2
*D89
340
0
  0
BLOCK_RECORD
  5
B1D
330
1
100
AcDbSymbolTableRecord
100
AcDbBlockTableRecord
  2
*D90
340
0
  0
BLOCK_RECORD
  5
B2F
330
1
100
AcDbSymbolTableRecord
100
AcDbBlockTableRecord
  2
*D91
340
0
  0
BLOCK_RECORD
  5
B3F
330
1
100
AcDbSymbolTableRecord
100
AcDbBlockTableRecord
  2
*D92
340
0
  0
BLOCK_RECORD
  5
B4B
330
1
100
AcDbSymbolTableRecord
100
AcDbBlockTableRecord
  2
*D93
340
0
  0
BLOCK_RECORD
  5
B57
330
1
100
AcDbSymbolTableRecord
100
AcDbBlockTableRecord
  2
*D94
340
0
  0
BLOCK_RECORD
  5
B65
330
1
100
AcDbSymbolTableRecord
100
AcDbBlockTableRecord
  2
*D95
340
0
  0
BLOCK_RECORD
  5
B6D
330
1
100
AcDbSymbolTableRecord
100
AcDbBlockTableRecord
  2
*D96
340
0
  0
BLOCK_RECORD
  5
B75
330
1
100
AcDbSymbolTableRecord
100
AcDbBlockTableRecord
  2
*D97
340
0
  0
BLOCK_RECORD
  5
B81
330
1
100
AcDbSymbolTableRecord
100
AcDbBlockTableRecord
  2
*D98
340
0
  0
ENDTAB
  0
ENDSEC
  0
SECTION
  2
BLOCKS
  0
BLOCK
  5
24
330
23
100
AcDbEntity
  8
0
100
AcDbBlockBegin
  2
*Model_Space
 70
     0
 10
0.0
 20
0.0
 30
0.0
  3
*Model_Space
  1

  0
ENDBLK
  5
25
330
23
100
AcDbEntity
  8
0
100
AcDbBlockEnd
  0
BLOCK
  5
20
330
1F
100
AcDbEntity
 67
     1
  8
0
100
AcDbBlockBegin
  2
*Paper_Space
 70
     0
 10
0.0
 20
0.0
 30
0.0
  3
*Paper_Space
  1

  0
ENDBLK
  5
21
330
1F
100
AcDbEntity
 67
     1
  8
0
100
AcDbBlockEnd
  0
BLOCK
  5
28
330
27
100
AcDbEntity
 67
     1
  8
0
100
AcDbBlockBegin
  2
*Paper_Space0
 70
     0
 10
0.0
 20
0.0
 30
0.0
  3
*Paper_Space0
  1

  0
ENDBLK
  5
29
330
27
100
AcDbEntity
 67
     1
  8
0
100
AcDbBlockEnd
  0
BLOCK
  5
30
330
2F
100
AcDbEntity
  8
0
100
AcDbBlockBegin
  2
_DotSmall
 70
     0
 10
0.0
 20
0.0
 30
0.0
  3
_DotSmall
  1

  0
LWPOLYLINE
  5
31
330
2F
100
AcDbEntity
  8
0
  6
ByBlock
 62
     0
100
AcDbPolyline
 90
        2
 70
     1
 43
0.5
 10
-0.0625
 20
0.0
 42
1.0
 10
0.0625
 20
0.0
 42
1.0
  0
ENDBLK
  5
32
330
2F
100
AcDbEntity
  8
0
100
AcDbBlockEnd
  0
BLOCK
  5
34
330
33
100
AcDbEntity
  8
0
100
AcDbBlockBegin
  2
*D2
 70
     1
 10
0.0
 20
0.0
 30
0.0
  3
*D2
  1

  0
LINE
  5
35
330
33
100
AcDbEntity
  8
cotas
100
AcDbLine
 10
7248.548585949151
 20
721.2344761382951
 30
0.0
 11
7248.548585949151
 21
750.2232134724981
 31
0.0
  0
LINE
  5
36
330
33
100
AcDbEntity
  8
cotas
100
AcDbLine
 10
7172.577128963131
 20
575.0848430222112
 30
0.0
 11
7172.577128963131
 21
750.2232134724981
 31
0.0
  0
LINE
  5
37
330
33
100
AcDbEntity
  8
cotas
100
AcDbLine
 10
7238.548585949152
 20
745.2232134724981
 30
0.0
 11
7182.577128963131
 21
745.2232134724981
 31
0.0
  0
SOLID
  5
38
330
33
100
AcDbEntity
  8
cotas
100
AcDbTrace
 10
7238.548585949152
 20
746.8898801391648
 30
0.0
 11
7238.548585949152
 21
743.5565468058315
 31
0.0
 12
7248.548585949151
 22
745.2232134724981
 32
0.0
 13
7248.548585949151
 23
745.2232134724981
 33
0.0
  0
SOLID
  5
39
330
33
100
AcDbEntity
  8
cotas
100
AcDbTrace
 10
7182.577128963131
 20
746.8898801391648
 30
0.0
 11
7182.577128963131
 21
743.5565468058315
 31
0.0
 12
7172.577128963131
 22
745.2232134724981
 32
0.0
 13
7172.577128963131
 23
745.2232134724981
 33
0.0
  0
MTEXT
  5
3A
330
33
100
AcDbEntity
  8
cotas
100
AcDbMText
 10
7210.562857456142
 20
755.4213330158159
 30
0.0
 40
10.0
 41
0.0
 71
     5
 72
     1
  1
76
  7
SANINDUSA
 73
     1
 44
1.0
1001
ACAD
1000
MTEXTBEGIN
1070
    73
1070
     1
1070
    44
1040
1.0
1070
    74
1070
     0
1000
MTEXTEND
  0
POINT
  5
3B
330
33
100
AcDbEntity
  8
Defpoints
 62
     0
100
AcDbPoint
 10
7248.548585949151
 20
716.2344761382951
 30
0.0
  0
POINT
  5
3C
330
33
100
AcDbEntity
  8
Defpoints
 62
     0
100
AcDbPoint
 10
7172.577128963131
 20
570.0848430222111
 30
0.0
  0
POINT
  5
3D
330
33
100
AcDbEntity
  8
Defpoints
 62
     0
100
AcDbPoint
 10
7172.577128963131
 20
745.2232134724981
 30
0.0
  0
ENDBLK
  5
3E
330
33
100
AcDbEntity
  8
0
100
AcDbBlockEnd
  0
BLOCK
  5
40
330
3F
100
AcDbEntity
  8
0
100
AcDbBlockBegin
  2
*D3
 70
     1
 10
0.0
 20
0.0
 30
0.0
  3
*D3
  1

  0
LINE
  5
41
330
3F
100
AcDbEntity
  8
cotas
100
AcDbLine
 10
7108.644317462635
 20
689.6782291399609
 30
0.0
 11
7108.644317462635
 21
750.2232134724981
 31
0.0
  0
LINE
  5
42
330
3F
100
AcDbEntity
  8
cotas
100
AcDbLine
 10
7118.644317462636
 20
745.2232134724981
 30
0.0
 11
7162.57712896313
 21
745.2232134724981
 31
0.0
  0
SOLID
  5
43
330
3F
100
AcDbEntity
  8
cotas
100
AcDbTrace
 10
7118.644317462636
 20
746.8898801391648
 30
0.0
 11
7118.644317462636
 21
743.5565468058315
 31
0.0
 12
7108.644317462635
 22
745.2232134724981
 32
0.0
 13
7108.644317462635
 23
745.2232134724981
 33
0.0
  0
SOLID
  5
44
330
3F
100
AcDbEntity
  8
cotas
100
AcDbTrace
 10
7162.57712896313
 20
746.8898801391648
 30
0.0
 11
7162.57712896313
 21
743.5565468058315
 31
0.0
 12
7172.577128963131
 22
745.2232134724981
 32
0.0
 13
7172.577128963131
 23
745.2232134724981
 33
0.0
  0
MTEXT
  5
45
330
3F
100
AcDbEntity
  8
cotas
100
AcDbMText
 10
7140.610723212883
 20
755.4213330158159
 30
0.0
 40
10.0
 41
0.0
 71
     5
 72
     1
  1
64
  7
SANINDUSA
 73
     1
 44
1.0
1001
ACAD
1000
MTEXTBEGIN
1070
    73
1070
     1
1070
    44
1040
1.0
1070
    74
1070
     0
1000
MTEXTEND
  0
POINT
  5
46
330
3F
100
AcDbEntity
  8
Defpoints
 62
     0
100
AcDbPoint
 10
7108.644317462635
 20
684.6782291399608
 30
0.0
  0
POINT
  5
47
330
3F
100
AcDbEntity
  8
Defpoints
 62
     0
100
AcDbPoint
 10
7172.577128963131
 20
745.2232134724981
 30
0.0
  0
POINT
  5
48
330
3F
100
AcDbEntity
  8
Defpoints
 62
     0
100
AcDbPoint
 10
7172.577128963131
 20
745.2232134724981
 30
0.0
  0
ENDBLK
  5
49
330
3F
100
AcDbEntity
  8
0
100
AcDbBlockEnd
  0
BLOCK
  5
4B
330
4A
100
AcDbEntity
  8
0
100
AcDbBlockBegin
  2
*D4
 70
     1
 10
0.0
 20
0.0
 30
0.0
  3
*D4
  1

  0
LINE
  5
4C
330
4A
100
AcDbEntity
  8
cotas
100
AcDbLine
 10
7172.577128963131
 20
725.2344761382954
 30
0.0
 11
7172.577128963131
 21
775.2343862596888
 31
0.0
  0
LINE
  5
4D
330
4A
100
AcDbEntity
  8
cotas
100
AcDbLine
 10
7004.778736506982
 20
725.2344761382954
 30
0.0
 11
7004.778736506982
 21
775.2343862596888
 31
0.0
  0
LINE
  5
4E
330
4A
100
AcDbEntity
  8
cotas
100
AcDbLine
 10
7162.57712896313
 20
770.2343862596888
 30
0.0
 11
7014.778736506982
 21
770.2343862596888
 31
0.0
  0
SOLID
  5
4F
330
4A
100
AcDbEntity
  8
cotas
100
AcDbTrace
 10
7162.57712896313
 20
771.9010529263555
 30
0.0
 11
7162.57712896313
 21
768.5677195930223
 31
0.0
 12
7172.577128963131
 22
770.2343862596888
 32
0.0
 13
7172.577128963131
 23
770.2343862596888
 33
0.0
  0
SOLID
  5
50
330
4A
100
AcDbEntity
  8
cotas
100
AcDbTrace
 10
7014.778736506982
 20
771.9010529263555
 30
0.0
 11
7014.778736506982
 21
768.5677195930223
 31
0.0
 12
7004.778736506982
 22
770.2343862596888
 32
0.0
 13
7004.778736506982
 23
770.2343862596888
 33
0.0
  0
MTEXT
  5
51
330
4A
100
AcDbEntity
  8
cotas
100
AcDbMText
 10
7088.677932735056
 20
780.4627274282584
 30
0.0
 40
10.0
 41
0.0
 71
     5
 72
     1
  1
168
  7
SANINDUSA
 73
     1
 44
1.0
1001
ACAD
1000
MTEXTBEGIN
1070
    73
1070
     1
1070
    44
1040
1.0
1070
    74
1070
     0
1000
MTEXTEND
  0
POINT
  5
52
330
4A
100
AcDbEntity
  8
Defpoints
 62
     0
100
AcDbPoint
 10
7172.577128963131
 20
720.2344761382954
 30
0.0
  0
POINT
  5
53
330
4A
100
AcDbEntity
  8
Defpoints
 62
     0
100
AcDbPoint
 10
7004.778736506982
 20
720.2344761382954
 30
0.0
  0
POINT
  5
54
330
4A
100
AcDbEntity
  8
Defpoints
 62
     0
100
AcDbPoint
 10
7004.778736506982
 20
770.2343862596888
 30
0.0
  0
ENDBLK
  5
55
330
4A
100
AcDbEntity
  8
0
100
AcDbBlockEnd
  0
BLOCK
  5
57
330
56
100
AcDbEntity
  8
0
100
AcDbBlockBegin
  2
*D5
 70
     1
 10
0.0
 20
0.0
 30
0.0
  3
*D5
  1

  0
LINE
  5
58
330
56
100
AcDbEntity
  8
cotas
100
AcDbLine
 10
7229.874518679068
 20
592.1716940843957
 30
0.0
 11
7193.850481477179
 21
562.6613081169693
 31
0.0
  0
LINE
  5
59
330
56
100
AcDbEntity
  8
cotas
100
AcDbLine
 10
7151.303776449075
 20
527.8076441596213
 30
0.0
 11
7143.568011898512
 21
521.4706143491948
 31
0.0
  0
MTEXT
  5
5A
330
56
100
AcDbEntity
  8
cotas
100
AcDbMText
 10
7208.823062419004
 20
589.0169474132603
 30
0.0
 40
10.0
 41
0.0
 71
     5
 72
     1
  1
\U+220535
  7
SANINDUSA
 11
0.773576455056408
 21
0.6337029810426658
 31
0.0
 73
     1
 44
1.0
1001
ACAD
1000
MTEXTBEGIN
1070
    73
1070
     1
1070
    44
1040
1.0
1070
    74
1070
     0
1000
MTEXTEND
  0
LINE
  5
5B
330
56
100
AcDbEntity
  8
cotas
100
AcDbLine
 10
7159.03954099964
 20
534.1446739700481
 30
0.0
 11
7186.114716926614
 21
556.3242783065425
 31
0.0
  0
SOLID
  5
5C
330
56
100
AcDbEntity
  8
cotas
100
AcDbTrace
 10
7150.247604814004
 20
529.0969382513826
 30
0.0
 11
7152.359948084145
 21
526.5183500678603
 31
0.0
 12
7159.03954099964
 22
534.1446739700481
 32
0.0
 13
7159.03954099964
 23
534.1446739700481
 33
0.0
  0
SOLID
  5
5D
330
56
100
AcDbEntity
  8
cotas
100
AcDbTrace
 10
7192.794309842108
 20
563.9506022087307
 30
0.0
 11
7194.90665311225
 21
561.3720140252085
 31
0.0
 12
7186.114716926614
 22
556.3242783065425
 32
0.0
 13
7186.114716926614
 23
556.3242783065425
 33
0.0
  0
POINT
  5
5E
330
56
100
AcDbEntity
  8
Defpoints
 62
     0
100
AcDbPoint
 10
7186.114716926614
 20
556.3242783065425
 30
0.0
  0
POINT
  5
5F
330
56
100
AcDbEntity
  8
Defpoints
 62
     0
100
AcDbPoint
 10
7159.03954099964
 20
534.1446739700481
 30
0.0
  0
ENDBLK
  5
60
330
56
100
AcDbEntity
  8
0
100
AcDbBlockEnd
  0
BLOCK
  5
62
330
61
100
AcDbEntity
  8
0
100
AcDbBlockBegin
  2
*D6
 70
     1
 10
0.0
 20
0.0
 30
0.0
  3
*D6
  1

  0
LINE
  5
63
330
61
100
AcDbEntity
  8
cotas
100
AcDbLine
 10
7074.305428466125
 20
587.4196096962182
 30
0.0
 11
7033.41914500142
 21
562.611974812728
 31
0.0
  0
LINE
  5
64
330
61
100
AcDbEntity
  8
cotas
100
AcDbLine
 10
6976.138328012547
 20
527.8570038720549
 30
0.0
 11
6967.588952342566
 21
522.6696947764321
 31
0.0
  0
MTEXT
  5
65
330
61
100
AcDbEntity
  8
cotas
100
AcDbMText
 10
7052.973613201465
 20
587.2259825819001
 30
0.0
 40
10.0
 41
0.0
 71
     5
 72
     1
  1
\U+220547
  7
SANINDUSA
 11
0.8549375669981216
 21
0.5187309095623015
 31
0.0
 73
     1
 44
1.0
1001
ACAD
1000
MTEXTBEGIN
1070
    73
1070
     1
1070
    44
1040
1.0
1070
    74
1070
     0
1000
MTEXTEND
  0
LINE
  5
66
330
61
100
AcDbEntity
  8
cotas
100
AcDbLine
 10
6984.687703682529
 20
533.0443129676782
 30
0.0
 11
7024.869769331438
 21
557.4246657171047
 31
0.0
  0
SOLID
  5
67
330
61
100
AcDbEntity
  8
cotas
100
AcDbTrace
 10
6975.273776496611
 20
529.2818998170519
 30
0.0
 11
6977.002879528486
 21
526.4321079270585
 31
0.0
 12
6984.687703682529
 22
533.0443129676782
 32
0.0
 13
6984.687703682529
 23
533.0443129676782
 33
0.0
  0
SOLID
  5
68
330
61
100
AcDbEntity
  8
cotas
100
AcDbTrace
 10
7032.554593485483
 20
564.0368707577249
 30
0.0
 11
7034.283696517357
 21
561.1870788677315
 31
0.0
 12
7024.869769331438
 22
557.4246657171047
 32
0.0
 13
7024.869769331438
 23
557.4246657171047
 33
0.0
  0
POINT
  5
69
330
61
100
AcDbEntity
  8
Defpoints
 62
     0
100
AcDbPoint
 10
7024.869769331438
 20
557.4246657171047
 30
0.0
  0
POINT
  5
6A
330
61
100
AcDbEntity
  8
Defpoints
 62
     0
100
AcDbPoint
 10
6984.687703682529
 20
533.0443129676782
 30
0.0
  0
ENDBLK
  5
6B
330
61
100
AcDbEntity
  8
0
100
AcDbBlockEnd
  0
BLOCK
  5
6D
330
6C
100
AcDbEntity
  8
0
100
AcDbBlockBegin
  2
*D7
 70
     1
 10
0.0
 20
0.0
 30
0.0
  3
*D7
  1

  0
LINE
  5
6E
330
6C
100
AcDbEntity
  8
cotas
100
AcDbLine
 10
6649.153487262933
 20
400.790720988454
 30
0.0
 11
6649.153487262933
 21
340.2344761382955
 31
0.0
  0
LINE
  5
6F
330
6C
100
AcDbEntity
  8
cotas
100
AcDbLine
 10
7108.644322867985
 20
400.79072313663
 30
0.0
 11
7108.644322867985
 21
340.2344761382955
 31
0.0
  0
LINE
  5
70
330
6C
100
AcDbEntity
  8
cotas
100
AcDbLine
 10
6659.153487262932
 20
345.2344761382954
 30
0.0
 11
7098.644322867986
 21
345.2344761382954
 31
0.0
  0
SOLID
  5
71
330
6C
100
AcDbEntity
  8
cotas
100
AcDbTrace
 10
6659.153487262932
 20
346.9011428049622
 30
0.0
 11
6659.153487262932
 21
343.5678094716288
 31
0.0
 12
6649.153487262933
 22
345.2344761382954
 32
0.0
 13
6649.153487262933
 23
345.2344761382954
 33
0.0
  0
SOLID
  5
72
330
6C
100
AcDbEntity
  8
cotas
100
AcDbTrace
 10
7098.644322867986
 20
346.9011428049622
 30
0.0
 11
7098.644322867986
 21
343.5678094716288
 31
0.0
 12
7108.644322867985
 22
345.2344761382954
 32
0.0
 13
7108.644322867985
 23
345.2344761382954
 33
0.0
  0
MTEXT
  5
73
330
6C
100
AcDbEntity
  8
cotas
100
AcDbMText
 10
6878.898905065459
 20
355.4393115983357
 30
0.0
 40
10.0
 41
0.0
 71
     5
 72
     1
  1
459
  7
SANINDUSA
 73
     1
 44
1.0
1001
ACAD
1000
MTEXTBEGIN
1070
    73
1070
     1
1070
    44
1040
1.0
1070
    74
1070
     0
1000
MTEXTEND
  0
POINT
  5
74
330
6C
100
AcDbEntity
  8
Defpoints
 62
     0
100
AcDbPoint
 10
6649.153487262933
 20
405.790720988454
 30
0.0
  0
POINT
  5
75
330
6C
100
AcDbEntity
  8
Defpoints
 62
     0
100
AcDbPoint
 10
7108.644322867985
 20
405.79072313663
 30
0.0
  0
POINT
  5
76
330
6C
100
AcDbEntity
  8
Defpoints
 62
     0
100
AcDbPoint
 10
7108.644322867985
 20
345.2344761382954
 30
0.0
  0
ENDBLK
  5
77
330
6C
100
AcDbEntity
  8
0
100
AcDbBlockEnd
  0
BLOCK
  5
79
330
78
100
AcDbEntity
  8
0
100
AcDbBlockBegin
  2
*D8
 70
     1
 10
0.0
 20
0.0
 30
0.0
  3
*D8
  1

  0
LINE
  5
7A
330
78
100
AcDbEntity
  8
cotas
100
AcDbLine
 10
6618.548585949152
 20
370.2344761382954
 30
0.0
 11
6618.548585949152
 21
340.2344761382955
 31
0.0
  0
LINE
  5
7B
330
78
100
AcDbEntity
  8
cotas
100
AcDbLine
 10
6649.153487262933
 20
370.2344761382954
 30
0.0
 11
6649.153487262933
 21
340.2344761382955
 31
0.0
  0
LINE
  5
7C
330
78
100
AcDbEntity
  8
cotas
100
AcDbLine
 10
6628.548585949151
 20
345.2344761382954
 30
0.0
 11
6639.153487262932
 21
345.2344761382954
 31
0.0
  0
SOLID
  5
7D
330
78
100
AcDbEntity
  8
cotas
100
AcDbTrace
 10
6628.548585949151
 20
346.9011428049622
 30
0.0
 11
6628.548585949151
 21
343.5678094716288
 31
0.0
 12
6618.548585949152
 22
345.2344761382954
 32
0.0
 13
6618.548585949152
 23
345.2344761382954
 33
0.0
  0
SOLID
  5
7E
330
78
100
AcDbEntity
  8
cotas
100
AcDbTrace
 10
6639.153487262932
 20
346.9011428049622
 30
0.0
 11
6639.153487262932
 21
343.5678094716288
 31
0.0
 12
6649.153487262933
 22
345.2344761382954
 32
0.0
 13
6649.153487262933
 23
345.2344761382954
 33
0.0
  0
MTEXT
  5
7F
330
78
100
AcDbEntity
  8
cotas
100
AcDbMText
 10
6633.851036606042
 20
355.442669556697
 30
0.0
 40
10.0
 41
0.0
 71
     5
 72
     1
  1
31
  7
SANINDUSA
 73
     1
 44
1.0
1001
ACAD
1000
MTEXTBEGIN
1070
    73
1070
     1
1070
    44
1040
1.0
1070
    74
1070
     0
1000
MTEXTEND
  0
POINT
  5
80
330
78
100
AcDbEntity
  8
Defpoints
 62
     0
100
AcDbPoint
 10
6618.548585949152
 20
375.2344761382955
 30
0.0
  0
POINT
  5
81
330
78
100
AcDbEntity
  8
Defpoints
 62
     0
100
AcDbPoint
 10
6649.153487262933
 20
375.2344761382955
 30
0.0
  0
POINT
  5
82
330
78
100
AcDbEntity
  8
Defpoints
 62
     0
100
AcDbPoint
 10
6649.153487262933
 20
345.2344761382954
 30
0.0
  0
ENDBLK
  5
83
330
78
100
AcDbEntity
  8
0
100
AcDbBlockEnd
  0
BLOCK
  5
85
330
84
100
AcDbEntity
  8
0
100
AcDbBlockBegin
  2
*D9
 70
     1
 10
0.0
 20
0.0
 30
0.0
  3
*D9
  1

  0
LINE
  5
86
330
84
100
AcDbEntity
  8
cotas
100
AcDbLine
 10
7248.548585949151
 20
370.2344761382954
 30
0.0
 11
7248.548585949151
 21
340.2344761382955
 31
0.0
  0
LINE
  5
87
330
84
100
AcDbEntity
  8
cotas
100
AcDbLine
 10
7108.644322867985
 20
395.79072313663
 30
0.0
 11
7108.644322867985
 21
340.2344761382955
 31
0.0
  0
LINE
  5
88
330
84
100
AcDbEntity
  8
cotas
100
AcDbLine
 10
7238.548585949152
 20
345.2344761382954
 30
0.0
 11
7118.644322867986
 21
345.2344761382954
 31
0.0
  0
SOLID
  5
89
330
84
100
AcDbEntity
  8
cotas
100
AcDbTrace
 10
7238.548585949152
 20
346.9011428049622
 30
0.0
 11
7238.548585949152
 21
343.5678094716288
 31
0.0
 12
7248.548585949151
 22
345.2344761382954
 32
0.0
 13
7248.548585949151
 23
345.2344761382954
 33
0.0
  0
SOLID
  5
8A
330
84
100
AcDbEntity
  8
cotas
100
AcDbTrace
 10
7118.644322867986
 20
346.9011428049622
 30
0.0
 11
7118.644322867986
 21
343.5678094716288
 31
0.0
 12
7108.644322867985
 22
345.2344761382954
 32
0.0
 13
7108.644322867985
 23
345.2344761382954
 33
0.0
  0
MTEXT
  5
8B
330
84
100
AcDbEntity
  8
cotas
100
AcDbMText
 10
7178.596454408569
 20
355.4393115983357
 30
0.0
 40
10.0
 41
0.0
 71
     5
 72
     1
  1
140
  7
SANINDUSA
 73
     1
 44
1.0
1001
ACAD
1000
MTEXTBEGIN
1070
    73
1070
     1
1070
    44
1040
1.0
1070
    74
1070
     0
1000
MTEXTEND
  0
POINT
  5
8C
330
84
100
AcDbEntity
  8
Defpoints
 62
     0
100
AcDbPoint
 10
7248.548585949151
 20
375.2344761382955
 30
0.0
  0
POINT
  5
8D
330
84
100
AcDbEntity
  8
Defpoints
 62
     0
100
AcDbPoint
 10
7108.644322867985
 20
400.79072313663
 30
0.0
  0
POINT
  5
8E
330
84
100
AcDbEntity
  8
Defpoints
 62
     0
100
AcDbPoint
 10
7108.644322867985
 20
345.2344761382954
 30
0.0
  0
ENDBLK
  5
8F
330
84
100
AcDbEntity
  8
0
100
AcDbBlockEnd
  0
BLOCK
  5
91
330
90
100
AcDbEntity
  8
0
100
AcDbBlockBegin
  2
*D10
 70
     1
 10
0.0
 20
0.0
 30
0.0
  3
*D10
  1

  0
LINE
  5
92
330
90
100
AcDbEntity
  8
cotas
100
AcDbLine
 10
7108.692977118931
 20
689.6295694836687
 30
0.0
 11
7278.548538593864
 21
689.6295694836687
 31
0.0
  0
LINE
  5
93
330
90
100
AcDbEntity
  8
cotas
100
AcDbLine
 10
7249.548585949151
 20
720.2344761382954
 30
0.0
 11
7278.548538593864
 21
720.2344761382954
 31
0.0
  0
LINE
  5
94
330
90
100
AcDbEntity
  8
cotas
100
AcDbLine
 10
7273.548538593864
 20
699.6295694836686
 30
0.0
 11
7273.548538593864
 21
710.2344761382954
 31
0.0
  0
SOLID
  5
95
330
90
100
AcDbEntity
  8
cotas
100
AcDbTrace
 10
7271.881871927196
 20
699.6295694836686
 30
0.0
 11
7275.215205260531
 21
699.6295694836686
 31
0.0
 12
7273.548538593864
 22
689.6295694836687
 32
0.0
 13
7273.548538593864
 23
689.6295694836687
 33
0.0
  0
SOLID
  5
96
330
90
100
AcDbEntity
  8
cotas
100
AcDbTrace
 10
7271.881871927196
 20
710.2344761382954
 30
0.0
 11
7275.215205260531
 21
710.2344761382954
 31
0.0
 12
7273.548538593864
 22
720.2344761382954
 32
0.0
 13
7273.548538593864
 23
720.2344761382954
 33
0.0
  0
MTEXT
  5
97
330
90
100
AcDbEntity
  8
cotas
100
AcDbMText
 10
7263.340345175461
 20
704.9320228109832
 30
0.0
 40
10.0
 41
0.0
 71
     5
 72
     1
  1
31
  7
SANINDUSA
 11
0.0000000000000001
 21
1.0
 31
0.0
 73
     1
 44
1.0
1001
ACAD
1000
MTEXTBEGIN
1070
    73
1070
     1
1070
    44
1040
1.0
1070
    74
1070
     0
1000
MTEXTEND
  0
POINT
  5
98
330
90
100
AcDbEntity
  8
Defpoints
 62
     0
100
AcDbPoint
 10
7103.692977118931
 20
689.6295694836687
 30
0.0
  0
POINT
  5
99
330
90
100
AcDbEntity
  8
Defpoints
 62
     0
100
AcDbPoint
 10
7244.548585949151
 20
720.2344761382954
 30
0.0
  0
POINT
  5
9A
330
90
100
AcDbEntity
  8
Defpoints
 62
     0
100
AcDbPoint
 10
7273.548538593864
 20
720.2344761382954
 30
0.0
  0
ENDBLK
  5
9B
330
90
100
AcDbEntity
  8
0
100
AcDbBlockEnd
  0
BLOCK
  5
9D
330
9C
100
AcDbEntity
  8
0
100
AcDbBlockBegin
  2
*D11
 70
     1
 10
0.0
 20
0.0
 30
0.0
  3
*D11
  1

  0
LINE
  5
9E
330
9C
100
AcDbEntity
  8
cotas
100
AcDbLine
 10
7253.548585949151
 20
689.6295694836687
 30
0.0
 11
7278.548538593864
 21
689.6295694836687
 31
0.0
  0
LINE
  5
9F
330
9C
100
AcDbEntity
  8
cotas
100
AcDbLine
 10
7108.692977118931
 20
400.8393827929216
 30
0.0
 11
7278.548538593864
 21
400.8393827929216
 31
0.0
  0
LINE
  5
A0
330
9C
100
AcDbEntity
  8
cotas
100
AcDbLine
 10
7273.548538593864
 20
679.6295694836686
 30
0.0
 11
7273.548538593864
 21
410.8393827929217
 31
0.0
  0
SOLID
  5
A1
330
9C
100
AcDbEntity
  8
cotas
100
AcDbTrace
 10
7271.881871927196
 20
679.6295694836686
 30
0.0
 11
7275.215205260531
 21
679.6295694836686
 31
0.0
 12
7273.548538593864
 22
689.6295694836687
 32
0.0
 13
7273.548538593864
 23
689.6295694836687
 33
0.0
  0
SOLID
  5
A2
330
9C
100
AcDbEntity
  8
cotas
100
AcDbTrace
 10
7271.881871927196
 20
410.8393827929217
 30
0.0
 11
7275.215205260531
 21
410.8393827929217
 31
0.0
 12
7273.548538593864
 22
400.8393827929216
 32
0.0
 13
7273.548538593864
 23
400.8393827929216
 33
0.0
  0
MTEXT
  5
A3
330
9C
100
AcDbEntity
  8
cotas
100
AcDbMText
 10
7263.320197425294
 20
569.3706982388938
 30
0.0
 40
10.0
 41
0.0
 71
     5
 72
     1
  1
289
  7
SANINDUSA
 11
0.0000000000000001
 21
1.0
 31
0.0
 73
     1
 44
1.0
1001
ACAD
1000
MTEXTBEGIN
1070
    73
1070
     1
1070
    44
1040
1.0
1070
    74
1070
     0
1000
MTEXTEND
  0
POINT
  5
A4
330
9C
100
AcDbEntity
  8
Defpoints
 62
     0
100
AcDbPoint
 10
7248.548585949151
 20
689.6295694836687
 30
0.0
  0
POINT
  5
A5
330
9C
100
AcDbEntity
  8
Defpoints
 62
     0
100
AcDbPoint
 10
7103.692977118931
 20
400.8393827929216
 30
0.0
  0
POINT
  5
A6
330
9C
100
AcDbEntity
  8
Defpoints
 62
     0
100
AcDbPoint
 10
7273.548538593864
 20
400.8393827929216
 30
0.0
  0
ENDBLK
  5
A7
330
9C
100
AcDbEntity
  8
0
100
AcDbBlockEnd
  0
BLOCK
  5
A9
330
A8
100
AcDbEntity
  8
0
100
AcDbBlockBegin
  2
*D12
 70
     1
 10
0.0
 20
0.0
 30
0.0
  3
*D12
  1

  0
LINE
  5
AA
330
A8
100
AcDbEntity
  8
cotas
100
AcDbLine
 10
7108.692977118931
 20
400.8393827929216
 30
0.0
 11
7278.548538593864
 21
400.8393827929216
 31
0.0
  0
LINE
  5
AB
330
A8
100
AcDbEntity
  8
cotas
100
AcDbLine
 10
7249.548585949151
 20
370.2344761382952
 30
0.0
 11
7278.548538593864
 21
370.2344761382952
 31
0.0
  0
LINE
  5
AC
330
A8
100
AcDbEntity
  8
cotas
100
AcDbLine
 10
7273.548538593864
 20
390.8393827929217
 30
0.0
 11
7273.548538593864
 21
380.2344761382952
 31
0.0
  0
SOLID
  5
AD
330
A8
100
AcDbEntity
  8
cotas
100
AcDbTrace
 10
7271.881871927196
 20
390.8393827929217
 30
0.0
 11
7275.215205260531
 21
390.8393827929217
 31
0.0
 12
7273.548538593864
 22
400.8393827929216
 32
0.0
 13
7273.548538593864
 23
400.8393827929216
 33
0.0
  0
SOLID
  5
AE
330
A8
100
AcDbEntity
  8
cotas
100
AcDbTrace
 10
7271.881871927196
 20
380.2344761382952
 30
0.0
 11
7275.215205260531
 21
380.2344761382952
 31
0.0
 12
7273.548538593864
 22
370.2344761382952
 32
0.0
 13
7273.548538593864
 23
370.2344761382952
 33
0.0
  0
MTEXT
  5
AF
330
A8
100
AcDbEntity
  8
cotas
100
AcDbMText
 10
7263.340345175461
 20
385.5369294656096
 30
0.0
 40
10.0
 41
0.0
 71
     5
 72
     1
  1
31
  7
SANINDUSA
 11
0.0000000000000001
 21
1.0
 31
0.0
 73
     1
 44
1.0
1001
ACAD
1000
MTEXTBEGIN
1070
    73
1070
     1
1070
    44
1040
1.0
1070
    74
1070
     0
1000
MTEXTEND
  0
POINT
  5
B0
330
A8
100
AcDbEntity
  8
Defpoints
 62
     0
100
AcDbPoint
 10
7103.692977118931
 20
400.8393827929216
 30
0.0
  0
POINT
  5
B1
330
A8
100
AcDbEntity
  8
Defpoints
 62
     0
100
AcDbPoint
 10
7244.548585949151
 20
370.2344761382952
 30
0.0
  0
POINT
  5
B2
330
A8
100
AcDbEntity
  8
Defpoints
 62
     0
100
AcDbPoint
 10
7273.548538593864
 20
370.2344761382952
 30
0.0
  0
ENDBLK
  5
B3
330
A8
100
AcDbEntity
  8
0
100
AcDbBlockEnd
  0
BLOCK
  5
B5
330
B4
100
AcDbEntity
  8
0
100
AcDbBlockBegin
  2
*D13
 70
     1
 10
0.0
 20
0.0
 30
0.0
  3
*D13
  1

  0
LINE
  5
B6
330
B4
100
AcDbEntity
  8
cotas
100
AcDbLine
 10
6409.280983991192
 20
1117.690839610925
 30
0.0
 11
6438.280983991188
 21
1117.690839610925
 31
0.0
  0
LINE
  5
B7
330
B4
100
AcDbEntity
  8
cotas
100
AcDbLine
 10
6409.280983991191
 20
1152.690839610925
 30
0.0
 11
6438.280983991188
 21
1152.690839610925
 31
0.0
  0
LINE
  5
B8
330
B4
100
AcDbEntity
  8
cotas
100
AcDbLine
 10
6433.280983991187
 20
1127.690839610925
 30
0.0
 11
6433.280983991187
 21
1142.690839610925
 31
0.0
  0
SOLID
  5
B9
330
B4
100
AcDbEntity
  8
cotas
100
AcDbTrace
 10
6431.614317324521
 20
1127.690839610925
 30
0.0
 11
6434.947650657855
 21
1127.690839610925
 31
0.0
 12
6433.280983991187
 22
1117.690839610925
 32
0.0
 13
6433.280983991187
 23
1117.690839610925
 33
0.0
  0
SOLID
  5
BA
330
B4
100
AcDbEntity
  8
cotas
100
AcDbTrace
 10
6431.614317324521
 20
1142.690839610925
 30
0.0
 11
6434.947650657855
 21
1142.690839610925
 31
0.0
 12
6433.280983991187
 22
1152.690839610925
 32
0.0
 13
6433.280983991187
 23
1152.690839610925
 33
0.0
  0
MTEXT
  5
BB
330
B4
100
AcDbEntity
  8
cotas
100
AcDbMText
 10
6423.072790572786
 20
1135.190839610926
 30
0.0
 40
10.0
 41
0.0
 71
     5
 72
     1
  1
35
  7
SANINDUSA
 11
0.0000000000000001
 21
1.0
 31
0.0
 73
     1
 44
1.0
1001
ACAD
1000
MTEXTBEGIN
1070
    73
1070
     1
1070
    44
1040
1.0
1070
    74
1070
     0
1000
MTEXTEND
  0
POINT
  5
BC
330
B4
100
AcDbEntity
  8
Defpoints
 62
     0
100
AcDbPoint
 10
6404.280983991191
 20
1117.690839610925
 30
0.0
  0
POINT
  5
BD
330
B4
100
AcDbEntity
  8
Defpoints
 62
     0
100
AcDbPoint
 10
6404.280983991191
 20
1152.690839610925
 30
0.0
  0
POINT
  5
BE
330
B4
100
AcDbEntity
  8
Defpoints
 62
     0
100
AcDbPoint
 10
6433.280983991187
 20
1152.690839610925
 30
0.0
  0
ENDBLK
  5
BF
330
B4
100
AcDbEntity
  8
0
100
AcDbBlockEnd
  0
BLOCK
  5
C1
330
C0
100
AcDbEntity
  8
0
100
AcDbBlockBegin
  2
*D14
 70
     1
 10
0.0
 20
0.0
 30
0.0
  3
*D14
  1

  0
LINE
  5
C2
330
C0
100
AcDbEntity
  8
cotas
100
AcDbLine
 10
6409.280983991192
 20
1002.165718295057
 30
0.0
 11
6438.280983991188
 21
1002.165718295057
 31
0.0
  0
LINE
  5
C3
330
C0
100
AcDbEntity
  8
cotas
100
AcDbLine
 10
6433.280983991187
 20
1012.165718295057
 30
0.0
 11
6433.280983991187
 21
1107.690839610925
 31
0.0
  0
SOLID
  5
C4
330
C0
100
AcDbEntity
  8
cotas
100
AcDbTrace
 10
6431.614317324521
 20
1012.165718295057
 30
0.0
 11
6434.947650657855
 21
1012.165718295057
 31
0.0
 12
6433.280983991187
 22
1002.165718295057
 32
0.0
 13
6433.280983991187
 23
1002.165718295057
 33
0.0
  0
SOLID
  5
C5
330
C0
100
AcDbEntity
  8
cotas
100
AcDbTrace
 10
6431.614317324521
 20
1107.690839610925
 30
0.0
 11
6434.947650657855
 21
1107.690839610925
 31
0.0
 12
6433.280983991187
 22
1117.690839610925
 32
0.0
 13
6433.280983991187
 23
1117.690839610925
 33
0.0
  0
MTEXT
  5
C6
330
C0
100
AcDbEntity
  8
cotas
100
AcDbMText
 10
6423.08286444787
 20
1059.928278952992
 30
0.0
 40
10.0
 41
0.0
 71
     5
 72
     1
  1
116
  7
SANINDUSA
 11
0.0000000000000001
 21
1.0
 31
0.0
 73
     1
 44
1.0
1001
ACAD
1000
MTEXTBEGIN
1070
    73
1070
     1
1070
    44
1040
1.0
1070
    74
1070
     0
1000
MTEXTEND
  0
POINT
  5
C7
330
C0
100
AcDbEntity
  8
Defpoints
 62
     0
100
AcDbPoint
 10
6404.280983991191
 20
1002.165718295057
 30
0.0
  0
POINT
  5
C8
330
C0
100
AcDbEntity
  8
Defpoints
 62
     0
100
AcDbPoint
 10
6433.280983991187
 20
1117.690839610925
 30
0.0
  0
POINT
  5
C9
330
C0
100
AcDbEntity
  8
Defpoints
 62
     0
100
AcDbPoint
 10
6433.280983991187
 20
1117.690839610925
 30
0.0
  0
ENDBLK
  5
CA
330
C0
100
AcDbEntity
  8
0
100
AcDbBlockEnd
  0
BLOCK
  5
CC
330
CB
100
AcDbEntity
  8
0
100
AcDbBlockBegin
  2
*D15
 70
     1
 10
0.0
 20
0.0
 30
0.0
  3
*D15
  1

  0
LINE
  5
CD
330
CB
100
AcDbEntity
  8
cotas
100
AcDbLine
 10
6409.280983991192
 20
982.6932640193751
 30
0.0
 11
6463.280983991189
 21
982.6932640193751
 31
0.0
  0
LINE
  5
CE
330
CB
100
AcDbEntity
  8
cotas
100
AcDbLine
 10
6409.280983991192
 20
1152.690839610925
 30
0.0
 11
6463.280983991189
 21
1152.690839610925
 31
0.0
  0
LINE
  5
CF
330
CB
100
AcDbEntity
  8
cotas
100
AcDbLine
 10
6458.280983991187
 20
992.6932640193752
 30
0.0
 11
6458.280983991187
 21
1142.690839610925
 31
0.0
  0
SOLID
  5
D0
330
CB
100
AcDbEntity
  8
cotas
100
AcDbTrace
 10
6456.614317324521
 20
992.6932640193752
 30
0.0
 11
6459.947650657856
 21
992.6932640193752
 31
0.0
 12
6458.280983991187
 22
982.6932640193751
 32
0.0
 13
6458.280983991187
 23
982.6932640193751
 33
0.0
  0
SOLID
  5
D1
330
CB
100
AcDbEntity
  8
cotas
100
AcDbTrace
 10
6456.614317324521
 20
1142.690839610925
 30
0.0
 11
6459.947650657856
 21
1142.690839610925
 31
0.0
 12
6458.280983991187
 22
1152.690839610925
 32
0.0
 13
6458.280983991187
 23
1152.690839610925
 33
0.0
  0
MTEXT
  5
D2
330
CB
100
AcDbEntity
  8
cotas
100
AcDbMText
 10
6448.076148531147
 20
1067.692051815151
 30
0.0
 40
10.0
 41
0.0
 71
     5
 72
     1
  1
170
  7
SANINDUSA
 11
0.0000000000000001
 21
1.0
 31
0.0
 73
     1
 44
1.0
1001
ACAD
1000
MTEXTBEGIN
1070
    73
1070
     1
1070
    44
1040
1.0
1070
    74
1070
     0
1000
MTEXTEND
  0
POINT
  5
D3
330
CB
100
AcDbEntity
  8
Defpoints
 62
     0
100
AcDbPoint
 10
6404.280983991191
 20
982.6932640193751
 30
0.0
  0
POINT
  5
D4
330
CB
100
AcDbEntity
  8
Defpoints
 62
     0
100
AcDbPoint
 10
6404.280983991191
 20
1152.690839610925
 30
0.0
  0
POINT
  5
D5
330
CB
100
AcDbEntity
  8
Defpoints
 62
     0
100
AcDbPoint
 10
6458.280983991187
 20
1152.690839610925
 30
0.0
  0
ENDBLK
  5
D6
330
CB
100
AcDbEntity
  8
0
100
AcDbBlockEnd
  0
BLOCK
  5
D8
330
D7
100
AcDbEntity
  8
0
100
AcDbBlockBegin
  2
*D16
 70
     1
 10
0.0
 20
0.0
 30
0.0
  3
*D16
  1

  0
LINE
  5
D9
330
D7
100
AcDbEntity
  8
cotas
100
AcDbLine
 10
6408.280983991192
 20
981.6932640193755
 30
0.0
 11
6408.280983991192
 21
952.6932640193752
 31
0.0
  0
LINE
  5
DA
330
D7
100
AcDbEntity
  8
cotas
100
AcDbLine
 10
6093.280983395136
 20
1001.690839800916
 30
0.0
 11
6093.280983395136
 21
952.6932640193752
 31
0.0
  0
LINE
  5
DB
330
D7
100
AcDbEntity
  8
cotas
100
AcDbLine
 10
6398.280983991192
 20
957.6932640193751
 30
0.0
 11
6103.280983395137
 21
957.6932640193751
 31
0.0
  0
SOLID
  5
DC
330
D7
100
AcDbEntity
  8
cotas
100
AcDbTrace
 10
6398.280983991192
 20
959.3599306860419
 30
0.0
 11
6398.280983991192
 21
956.0265973527085
 31
0.0
 12
6408.280983991192
 22
957.6932640193751
 32
0.0
 13
6408.280983991192
 23
957.6932640193751
 33
0.0
  0
SOLID
  5
DD
330
D7
100
AcDbEntity
  8
cotas
100
AcDbTrace
 10
6103.280983395137
 20
959.3599306860419
 30
0.0
 11
6103.280983395137
 21
956.0265973527085
 31
0.0
 12
6093.280983395136
 22
957.6932640193751
 32
0.0
 13
6093.280983395136
 23
957.6932640193751
 33
0.0
  0
MTEXT
  5
DE
330
D7
100
AcDbEntity
  8
cotas
100
AcDbMText
 10
6250.780983693164
 20
967.9014574377768
 30
0.0
 40
10.0
 41
0.0
 71
     5
 72
     1
  1
315
  7
SANINDUSA
 73
     1
 44
1.0
1001
ACAD
1000
MTEXTBEGIN
1070
    73
1070
     1
1070
    44
1040
1.0
1070
    74
1070
     0
1000
MTEXTEND
  0
POINT
  5
DF
330
D7
100
AcDbEntity
  8
Defpoints
 62
     0
100
AcDbPoint
 10
6408.280983991192
 20
986.6932640193756
 30
0.0
  0
POINT
  5
E0
330
D7
100
AcDbEntity
  8
Defpoints
 62
     0
100
AcDbPoint
 10
6093.280983395136
 20
1006.690839800916
 30
0.0
  0
POINT
  5
E1
330
D7
100
AcDbEntity
  8
Defpoints
 62
     0
100
AcDbPoint
 10
6093.280983395136
 20
957.6932640193751
 30
0.0
  0
ENDBLK
  5
E2
330
D7
100
AcDbEntity
  8
0
100
AcDbBlockEnd
  0
BLOCK
  5
E4
330
E3
100
AcDbEntity
  8
0
100
AcDbBlockBegin
  2
*D17
 70
     1
 10
0.0
 20
0.0
 30
0.0
  3
*D17
  1

  0
LINE
  5
E5
330
E3
100
AcDbEntity
  8
cotas
100
AcDbLine
 10
6093.280983395136
 20
1001.690839800916
 30
0.0
 11
6093.280983395136
 21
952.6932640193752
 31
0.0
  0
LINE
  5
E6
330
E3
100
AcDbEntity
  8
cotas
100
AcDbLine
 10
6058.280983991188
 20
1001.690839800916
 30
0.0
 11
6058.280983991188
 21
952.6932640193752
 31
0.0
  0
LINE
  5
E7
330
E3
100
AcDbEntity
  8
cotas
100
AcDbLine
 10
6083.280983395138
 20
957.6932640193751
 30
0.0
 11
6068.280983991188
 21
957.6932640193751
 31
0.0
  0
SOLID
  5
E8
330
E3
100
AcDbEntity
  8
cotas
100
AcDbTrace
 10
6083.280983395138
 20
959.3599306860419
 30
0.0
 11
6083.280983395138
 21
956.0265973527085
 31
0.0
 12
6093.280983395136
 22
957.6932640193751
 32
0.0
 13
6093.280983395136
 23
957.6932640193751
 33
0.0
  0
SOLID
  5
E9
330
E3
100
AcDbEntity
  8
cotas
100
AcDbTrace
 10
6068.280983991188
 20
959.3599306860419
 30
0.0
 11
6068.280983991188
 21
956.0265973527085
 31
0.0
 12
6058.280983991188
 22
957.6932640193751
 32
0.0
 13
6058.280983991188
 23
957.6932640193751
 33
0.0
  0
MTEXT
  5
EA
330
E3
100
AcDbEntity
  8
cotas
100
AcDbMText
 10
6075.780983693163
 20
967.9014574377768
 30
0.0
 40
10.0
 41
0.0
 71
     5
 72
     1
  1
35
  7
SANINDUSA
 73
     1
 44
1.0
1001
ACAD
1000
MTEXTBEGIN
1070
    73
1070
     1
1070
    44
1040
1.0
1070
    74
1070
     0
1000
MTEXTEND
  0
POINT
  5
EB
330
E3
100
AcDbEntity
  8
Defpoints
 62
     0
100
AcDbPoint
 10
6093.280983395136
 20
1006.690839800916
 30
0.0
  0
POINT
  5
EC
330
E3
100
AcDbEntity
  8
Defpoints
 62
     0
100
AcDbPoint
 10
6058.280983991188
 20
1006.690839800916
 30
0.0
  0
POINT
  5
ED
330
E3
100
AcDbEntity
  8
Defpoints
 62
     0
100
AcDbPoint
 10
6058.280983991188
 20
957.6932640193751
 30
0.0
  0
ENDBLK
  5
EE
330
E3
100
AcDbEntity
  8
0
100
AcDbBlockEnd
  0
BLOCK
  5
F0
330
EF
100
AcDbEntity
  8
0
100
AcDbBlockBegin
  2
*D18
 70
     1
 10
0.0
 20
0.0
 30
0.0
  3
*D18
  1

  0
LINE
  5
F1
330
EF
100
AcDbEntity
  8
cotas
100
AcDbLine
 10
7249.548585949151
 20
1152.690839610925
 30
0.0
 11
7278.548585949152
 21
1152.690839610925
 31
0.0
  0
LINE
  5
F2
330
EF
100
AcDbEntity
  8
cotas
100
AcDbLine
 10
7249.548585949151
 20
1002.690839610925
 30
0.0
 11
7278.548585949152
 21
1002.690839610925
 31
0.0
  0
LINE
  5
F3
330
EF
100
AcDbEntity
  8
cotas
100
AcDbLine
 10
7273.548585949152
 20
1142.690839610925
 30
0.0
 11
7273.548585949152
 21
1012.690839610925
 31
0.0
  0
SOLID
  5
F4
330
EF
100
AcDbEntity
  8
cotas
100
AcDbTrace
 10
7271.881919282485
 20
1142.690839610925
 30
0.0
 11
7275.215252615819
 21
1142.690839610925
 31
0.0
 12
7273.548585949152
 22
1152.690839610925
 32
0.0
 13
7273.548585949152
 23
1152.690839610925
 33
0.0
  0
SOLID
  5
F5
330
EF
100
AcDbEntity
  8
cotas
100
AcDbTrace
 10
7271.881919282485
 20
1012.690839610925
 30
0.0
 11
7275.215252615819
 21
1012.690839610925
 31
0.0
 12
7273.548585949152
 22
1002.690839610925
 32
0.0
 13
7273.548585949152
 23
1002.690839610925
 33
0.0
  0
MTEXT
  5
F6
330
EF
100
AcDbEntity
  8
cotas
100
AcDbMText
 10
7263.343750489112
 20
1077.690839610926
 30
0.0
 40
10.0
 41
0.0
 71
     5
 72
     1
  1
150
  7
SANINDUSA
 11
0.0000000000000001
 21
1.0
 31
0.0
 73
     1
 44
1.0
1001
ACAD
1000
MTEXTBEGIN
1070
    73
1070
     1
1070
    44
1040
1.0
1070
    74
1070
     0
1000
MTEXTEND
  0
POINT
  5
F7
330
EF
100
AcDbEntity
  8
Defpoints
 62
     0
100
AcDbPoint
 10
7244.548585949151
 20
1152.690839610925
 30
0.0
  0
POINT
  5
F8
330
EF
100
AcDbEntity
  8
Defpoints
 62
     0
100
AcDbPoint
 10
7244.548585949151
 20
1002.690839610925
 30
0.0
  0
POINT
  5
F9
330
EF
100
AcDbEntity
  8
Defpoints
 62
     0
100
AcDbPoint
 10
7273.548585949152
 20
1002.690839610925
 30
0.0
  0
ENDBLK
  5
FA
330
EF
100
AcDbEntity
  8
0
100
AcDbBlockEnd
  0
BLOCK
  5
FC
330
FB
100
AcDbEntity
  8
0
100
AcDbBlockBegin
  2
*D19
 70
     1
 10
0.0
 20
0.0
 30
0.0
  3
*D19
  1

  0
LINE
  5
FD
330
FB
100
AcDbEntity
  8
cotas
100
AcDbLine
 10
7214.949562667432
 20
1118.472499991899
 30
0.0
 11
7240.350096269247
 21
1144.404502665725
 31
0.0
  0
MTEXT
  5
FE
330
FB
100
AcDbEntity
  8
cotas
100
AcDbMText
 10
7217.007193159759
 20
1134.864036674314
 30
0.0
 40
10.0
 41
0.0
 71
     5
 72
     1
  1
R4
  7
SANINDUSA
 11
0.6997482799834031
 21
0.7143894908663406
 31
0.0
 73
     1
 44
1.0
1001
ACAD
1000
MTEXTBEGIN
1070
    73
1070
     1
1070
    44
1040
1.0
1070
    74
1070
     0
1000
MTEXTEND
  0
SOLID
  5
FF
330
FB
100
AcDbEntity
  8
cotas
100
AcDbTrace
 10
7239.159447117804
 20
1145.570749799031
 30
0.0
 11
7241.540745420691
 21
1143.238255532419
 31
0.0
 12
7247.347579069082
 22
1151.548397574388
 32
0.0
 13
7247.347579069082
 23
1151.548397574388
 33
0.0
  0
POINT
  5
100
330
FB
100
AcDbEntity
  8
Defpoints
 62
     0
100
AcDbPoint
 10
7247.347579069082
 20
1151.548397574388
 30
0.0
  0
POINT
  5
101
330
FB
100
AcDbEntity
  8
Defpoints
 62
     0
100
AcDbPoint
 10
7244.54858594915
 20
1148.690839610925
 30
0.0
  0
ENDBLK
  5
102
330
FB
100
AcDbEntity
  8
0
100
AcDbBlockEnd
  0
BLOCK
  5
104
330
103
100
AcDbEntity
  8
0
100
AcDbBlockBegin
  2
*D20
 70
     1
 10
0.0
 20
0.0
 30
0.0
  3
*D20
  1

  0
LINE
  5
105
330
103
100
AcDbEntity
  8
cotas
100
AcDbLine
 10
7212.051217913721
 20
1033.767975710087
 30
0.0
 11
7239.938978969148
 21
1010.531610821232
 31
0.0
  0
MTEXT
  5
106
330
103
100
AcDbEntity
  8
cotas
100
AcDbMText
 10
7228.555044641938
 20
1033.033114240921
 30
0.0
 40
10.0
 41
0.0
 71
     5
 72
     1
  1
R4
  7
SANINDUSA
 11
0.7682678300004785
 21
-0.640128535050857
 31
0.0
 73
     1
 44
1.0
1001
ACAD
1000
MTEXTBEGIN
1070
    73
1070
     1
1070
    44
1040
1.0
1070
    74
1070
     0
1000
MTEXTEND
  0
SOLID
  5
107
330
103
100
AcDbEntity
  8
cotas
100
AcDbTrace
 10
7241.005859860901
 20
1011.812057204567
 30
0.0
 11
7238.872098077398
 21
1009.251164437898
 31
0.0
 12
7247.621657269154
 22
1004.130325470723
 32
0.0
 13
7247.621657269154
 23
1004.130325470723
 33
0.0
  0
POINT
  5
108
330
103
100
AcDbEntity
  8
Defpoints
 62
     0
100
AcDbPoint
 10
7247.621657269154
 20
1004.130325470723
 30
0.0
  0
POINT
  5
109
330
103
100
AcDbEntity
  8
Defpoints
 62
     0
100
AcDbPoint
 10
7244.548585949154
 20
1006.690839610925
 30
0.0
  0
ENDBLK
  5
10A
330
103
100
AcDbEntity
  8
0
100
AcDbBlockEnd
  0
BLOCK
  5
10C
330
10B
100
AcDbEntity
  8
0
100
AcDbBlockBegin
  2
*D21
 70
     1
 10
0.0
 20
0.0
 30
0.0
  3
*D21
  1

  0
LINE
  5
10D
330
10B
100
AcDbEntity
  8
cotas
100
AcDbLine
 10
6655.188826782463
 20
1121.630826925322
 30
0.0
 11
6627.408036969129
 21
1144.512060313072
 31
0.0
  0
MTEXT
  5
10E
330
10B
100
AcDbEntity
  8
cotas
100
AcDbMText
 10
6651.581621584305
 20
1137.69191759139
 30
0.0
 40
10.0
 41
0.0
 71
     5
 72
     1
  1
R5
  7
SANINDUSA
 11
0.7718902039943103
 21
-0.6357558595700256
 31
0.0
 73
     1
 44
1.0
1001
ACAD
1000
MTEXTBEGIN
1070
    73
1070
     1
1070
    44
1040
1.0
1070
    74
1070
     0
1000
MTEXTEND
  0
SOLID
  5
10F
330
10B
100
AcDbEntity
  8
cotas
100
AcDbTrace
 10
6628.467630068411
 20
1145.798543986396
 30
0.0
 11
6626.348443869845
 21
1143.225576639748
 31
0.0
 12
6619.689134929186
 22
1150.869618908772
 32
0.0
 13
6619.689134929186
 23
1150.869618908772
 33
0.0
  0
POINT
  5
110
330
10B
100
AcDbEntity
  8
Defpoints
 62
     0
100
AcDbPoint
 10
6619.689134929186
 20
1150.869618908772
 30
0.0
  0
POINT
  5
111
330
10B
100
AcDbEntity
  8
Defpoints
 62
     0
100
AcDbPoint
 10
6623.548585949153
 20
1147.690839610925
 30
0.0
  0
ENDBLK
  5
112
330
10B
100
AcDbEntity
  8
0
100
AcDbBlockEnd
  0
BLOCK
  5
114
330
113
100
AcDbEntity
  8
0
100
AcDbBlockBegin
  2
*D22
 70
     1
 10
0.0
 20
0.0
 30
0.0
  3
*D22
  1

  0
LINE
  5
115
330
113
100
AcDbEntity
  8
cotas
100
AcDbLine
 10
6658.555091973394
 20
1049.734991918312
 30
0.0
 11
6626.398290971927
 21
1011.292988156725
 31
0.0
  0
MTEXT
  5
116
330
113
100
AcDbEntity
  8
cotas
100
AcDbMText
 10
6642.447725038884
 20
1046.064971687994
 30
0.0
 40
10.0
 41
0.0
 71
     5
 72
     1
  1
R4
  7
SANINDUSA
 11
0.641617503795855
 21
0.7670247576335304
 31
0.0
 73
     1
 44
1.0
1001
ACAD
1000
MTEXTBEGIN
1070
    73
1070
     1
1070
    44
1040
1.0
1070
    74
1070
     0
1000
MTEXTEND
  0
SOLID
  5
117
330
113
100
AcDbEntity
  8
cotas
100
AcDbTrace
 10
6625.119916375872
 20
1012.362350663052
 30
0.0
 11
6627.676665567983
 21
1010.223625650399
 31
0.0
 12
6619.982115933971
 22
1003.62274058039
 32
0.0
 13
6619.982115933971
 23
1003.62274058039
 33
0.0
  0
POINT
  5
118
330
113
100
AcDbEntity
  8
Defpoints
 62
     0
100
AcDbPoint
 10
6619.982115933971
 20
1003.62274058039
 30
0.0
  0
POINT
  5
119
330
113
100
AcDbEntity
  8
Defpoints
 62
     0
100
AcDbPoint
 10
6622.548585949154
 20
1006.690839610925
 30
0.0
  0
ENDBLK
  5
11A
330
113
100
AcDbEntity
  8
0
100
AcDbBlockEnd
  0
BLOCK
  5
11C
330
11B
100
AcDbEntity
  8
0
100
AcDbBlockBegin
  2
*D23
 70
     1
 10
0.0
 20
0.0
 30
0.0
  3
*D23
  1

  0
LINE
  5
11D
330
11B
100
AcDbEntity
  8
cotas
100
AcDbLine
 10
8345.542176288999
 20
528.8921276701661
 30
0.0
 11
8345.542176288999
 21
495.0650543211132
 31
0.0
  0
LINE
  5
11E
330
11B
100
AcDbEntity
  8
cotas
100
AcDbLine
 10
8298.542176304374
 20
528.8921276597557
 30
0.0
 11
8298.542176304374
 21
495.0650543211132
 31
0.0
  0
LINE
  5
11F
330
11B
100
AcDbEntity
  8
cotas
100
AcDbLine
 10
8335.542176289001
 20
500.0650543211133
 30
0.0
 11
8308.542176304374
 21
500.0650543211133
 31
0.0
  0
SOLID
  5
120
330
11B
100
AcDbEntity
  8
cotas
100
AcDbTrace
 10
8335.542176289001
 20
501.7317209877799
 30
0.0
 11
8335.542176289001
 21
498.3983876544465
 31
0.0
 12
8345.542176288999
 22
500.0650543211133
 32
0.0
 13
8345.542176288999
 23
500.0650543211133
 33
0.0
  0
SOLID
  5
121
330
11B
100
AcDbEntity
  8
cotas
100
AcDbTrace
 10
8308.542176304374
 20
501.7317209877799
 30
0.0
 11
8308.542176304374
 21
498.3983876544465
 31
0.0
 12
8298.542176304374
 22
500.0650543211133
 32
0.0
 13
8298.542176304374
 23
500.0650543211133
 33
0.0
  0
MTEXT
  5
122
330
11B
100
AcDbEntity
  8
cotas
100
AcDbMText
 10
8322.042176296688
 20
510.562032158588
 30
0.0
 40
10.0
 41
0.0
 71
     5
 72
     1
  1
ø47
  7
SANINDUSA
 73
     1
 44
1.0
1001
ACAD
1000
MTEXTBEGIN
1070
    73
1070
     1
1070
    44
1040
1.0
1070
    74
1070
     0
1000
MTEXTEND
  0
POINT
  5
123
330
11B
100
AcDbEntity
  8
Defpoints
 62
     0
100
AcDbPoint
 10
8345.542176288999
 20
533.8921276701661
 30
0.0
  0
POINT
  5
124
330
11B
100
AcDbEntity
  8
Defpoints
 62
     0
100
AcDbPoint
 10
8298.542176304374
 20
533.8921276597557
 30
0.0
  0
POINT
  5
125
330
11B
100
AcDbEntity
  8
Defpoints
 62
     0
100
AcDbPoint
 10
8298.542176304374
 20
500.0650543211133
 30
0.0
  0
ENDBLK
  5
126
330
11B
100
AcDbEntity
  8
0
100
AcDbBlockEnd
  0
BLOCK
  5
128
330
127
100
AcDbEntity
  8
0
100
AcDbBlockBegin
  2
*D24
 70
     1
 10
0.0
 20
0.0
 30
0.0
  3
*D24
  1

  0
LINE
  5
129
330
127
100
AcDbEntity
  8
cotas
100
AcDbLine
 10
8525.213732414963
 20
641.5250765092036
 30
0.0
 11
8595.81205540333
 21
641.5250765092036
 31
0.0
  0
LINE
  5
12A
330
127
100
AcDbEntity
  8
cotas
100
AcDbLine
 10
8567.149984007352
 20
653.5250765092046
 30
0.0
 11
8595.81205540333
 21
653.5250765092046
 31
0.0
  0
LINE
  5
12B
330
127
100
AcDbEntity
  8
cotas
100
AcDbLine
 10
8590.812055403331
 20
631.5250765092035
 30
0.0
 11
8590.812055403331
 21
621.5250765092036
 31
0.0
  0
LINE
  5
12C
330
127
100
AcDbEntity
  8
cotas
100
AcDbLine
 10
8590.812055403331
 20
663.5250765092045
 30
0.0
 11
8590.812055403331
 21
698.2530818819379
 31
0.0
  0
LINE
  5
12D
330
127
100
AcDbEntity
  8
cotas
100
AcDbLine
 10
8590.812055403331
 20
641.5250765092036
 30
0.0
 11
8590.812055403331
 21
653.5250765092046
 31
0.0
  0
SOLID
  5
12E
330
127
100
AcDbEntity
  8
cotas
100
AcDbTrace
 10
8589.145388736664
 20
631.5250765092035
 30
0.0
 11
8592.478722069996
 21
631.5250765092035
 31
0.0
 12
8590.812055403331
 22
641.5250765092036
 32
0.0
 13
8590.812055403331
 23
641.5250765092036
 33
0.0
  0
SOLID
  5
12F
330
127
100
AcDbEntity
  8
cotas
100
AcDbTrace
 10
8589.145388736664
 20
663.5250765092045
 30
0.0
 11
8592.478722069996
 21
663.5250765092045
 31
0.0
 12
8590.812055403331
 22
653.5250765092046
 32
0.0
 13
8590.812055403331
 23
653.5250765092046
 33
0.0
  0
MTEXT
  5
130
330
127
100
AcDbEntity
  8
cotas
100
AcDbMText
 10
8580.70795869413
 20
685.8890791955726
 30
0.0
 40
10.0
 41
0.0
 71
     5
 72
     1
  1
12
  7
SANINDUSA
 11
0.0000000000000001
 21
1.0
 31
0.0
 73
     1
 44
1.0
1001
ACAD
1000
MTEXTBEGIN
1070
    73
1070
     1
1070
    44
1040
1.0
1070
    74
1070
     0
1000
MTEXTEND
  0
POINT
  5
131
330
127
100
AcDbEntity
  8
Defpoints
 62
     0
100
AcDbPoint
 10
8520.213732414964
 20
641.5250765092036
 30
0.0
  0
POINT
  5
132
330
127
100
AcDbEntity
  8
Defpoints
 62
     0
100
AcDbPoint
 10
8562.149984007353
 20
653.5250765092046
 30
0.0
  0
POINT
  5
133
330
127
100
AcDbEntity
  8
Defpoints
 62
     0
100
AcDbPoint
 10
8590.812055403331
 20
653.5250765092046
 30
0.0
  0
ENDBLK
  5
134
330
127
100
AcDbEntity
  8
0
100
AcDbBlockEnd
  0
BLOCK
  5
136
330
135
100
AcDbEntity
  8
0
100
AcDbBlockBegin
  2
*D25
 70
     1
 10
0.0
 20
0.0
 30
0.0
  3
*D25
  1

  0
LINE
  5
137
330
135
100
AcDbEntity
  8
cotas
100
AcDbLine
 10
8566.81205540333
 20
653.5250765092034
 30
0.0
 11
8620.81205540333
 21
653.5250765092034
 31
0.0
  0
LINE
  5
138
330
135
100
AcDbEntity
  8
cotas
100
AcDbLine
 10
8566.81205540333
 20
618.5250765092034
 30
0.0
 11
8620.81205540333
 21
618.5250765092034
 31
0.0
  0
LINE
  5
139
330
135
100
AcDbEntity
  8
cotas
100
AcDbLine
 10
8615.812055403329
 20
643.5250765092034
 30
0.0
 11
8615.812055403329
 21
628.5250765092034
 31
0.0
  0
SOLID
  5
13A
330
135
100
AcDbEntity
  8
cotas
100
AcDbTrace
 10
8614.145388736664
 20
643.5250765092034
 30
0.0
 11
8617.478722069996
 21
643.5250765092034
 31
0.0
 12
8615.812055403329
 22
653.5250765092034
 32
0.0
 13
8615.812055403329
 23
653.5250765092034
 33
0.0
  0
SOLID
  5
13B
330
135
100
AcDbEntity
  8
cotas
100
AcDbTrace
 10
8614.145388736664
 20
628.5250765092034
 30
0.0
 11
8617.478722069996
 21
628.5250765092034
 31
0.0
 12
8615.812055403329
 22
618.5250765092034
 32
0.0
 13
8615.812055403329
 23
618.5250765092034
 33
0.0
  0
MTEXT
  5
13C
330
135
100
AcDbEntity
  8
cotas
100
AcDbMText
 10
8605.603861984928
 20
636.0250765092048
 30
0.0
 40
10.0
 41
0.0
 71
     5
 72
     1
  1
35
  7
SANINDUSA
 11
0.0000000000000001
 21
1.0
 31
0.0
 73
     1
 44
1.0
1001
ACAD
1000
MTEXTBEGIN
1070
    73
1070
     1
1070
    44
1040
1.0
1070
    74
1070
     0
1000
MTEXTEND
  0
POINT
  5
13D
330
135
100
AcDbEntity
  8
Defpoints
 62
     0
100
AcDbPoint
 10
8561.812055403331
 20
653.5250765092034
 30
0.0
  0
POINT
  5
13E
330
135
100
AcDbEntity
  8
Defpoints
 62
     0
100
AcDbPoint
 10
8561.812055403331
 20
618.5250765092034
 30
0.0
  0
POINT
  5
13F
330
135
100
AcDbEntity
  8
Defpoints
 62
     0
100
AcDbPoint
 10
8615.812055403329
 20
618.5250765092034
 30
0.0
  0
ENDBLK
  5
140
330
135
100
AcDbEntity
  8
0
100
AcDbBlockEnd
  0
BLOCK
  5
142
330
141
100
AcDbEntity
  8
0
100
AcDbBlockBegin
  2
*D26
 70
     1
 10
0.0
 20
0.0
 30
0.0
  3
*D26
  1

  0
LINE
  5
143
330
141
100
AcDbEntity
  8
cotas
100
AcDbLine
 10
8562.149984007353
 20
653.5250765092046
 30
0.0
 11
8670.812055403329
 21
653.5250765092046
 31
0.0
  0
LINE
  5
144
330
141
100
AcDbEntity
  8
cotas
100
AcDbLine
 10
8541.932410532576
 20
503.5250765092178
 30
0.0
 11
8670.812055403329
 21
503.5250765092177
 31
0.0
  0
LINE
  5
145
330
141
100
AcDbEntity
  8
cotas
100
AcDbLine
 10
8665.81205540333
 20
643.5250765092046
 30
0.0
 11
8665.81205540333
 21
513.5250765092177
 31
0.0
  0
SOLID
  5
146
330
141
100
AcDbEntity
  8
cotas
100
AcDbTrace
 10
8664.145388736663
 20
643.5250765092046
 30
0.0
 11
8667.478722069997
 21
643.5250765092046
 31
0.0
 12
8665.81205540333
 22
653.5250765092046
 32
0.0
 13
8665.81205540333
 23
653.5250765092046
 33
0.0
  0
SOLID
  5
147
330
141
100
AcDbEntity
  8
cotas
100
AcDbTrace
 10
8664.145388736663
 20
513.5250765092177
 30
0.0
 11
8667.478722069997
 21
513.5250765092177
 31
0.0
 12
8665.81205540333
 22
503.5250765092177
 32
0.0
 13
8665.81205540333
 23
503.5250765092177
 33
0.0
  0
MTEXT
  5
148
330
141
100
AcDbEntity
  8
cotas
100
AcDbMText
 10
8655.60721994329
 20
578.5250765092124
 30
0.0
 40
10.0
 41
0.0
 71
     5
 72
     1
  1
150
  7
SANINDUSA
 11
0.0000000000000001
 21
1.0
 31
0.0
 73
     1
 44
1.0
1001
ACAD
1000
MTEXTBEGIN
1070
    73
1070
     1
1070
    44
1040
1.0
1070
    74
1070
     0
1000
MTEXTEND
  0
POINT
  5
149
330
141
100
AcDbEntity
  8
Defpoints
 62
     0
100
AcDbPoint
 10
8557.149984007352
 20
653.5250765092046
 30
0.0
  0
POINT
  5
14A
330
141
100
AcDbEntity
  8
Defpoints
 62
     0
100
AcDbPoint
 10
8536.932410532577
 20
503.5250765092178
 30
0.0
  0
POINT
  5
14B
330
141
100
AcDbEntity
  8
Defpoints
 62
     0
100
AcDbPoint
 10
8665.81205540333
 20
503.5250765092177
 30
0.0
  0
ENDBLK
  5
14C
330
141
100
AcDbEntity
  8
0
100
AcDbBlockEnd
  0
BLOCK
  5
14E
330
14D
100
AcDbEntity
  8
0
100
AcDbBlockBegin
  2
*D27
 70
     1
 10
0.0
 20
0.0
 30
0.0
  3
*D27
  1

  0
LINE
  5
14F
330
14D
100
AcDbEntity
  8
cotas
100
AcDbLine
 10
8525.042176288998
 20
597.3376029119935
 30
0.0
 11
8525.042176288998
 21
547.6236775711831
 31
0.0
  0
ARC
  5
150
330
14D
100
AcDbEntity
  8
cotas
100
AcDbCircle
 10
8525.042176288996
 20
641.5250765092373
 30
0.0
 40
88.90139893805423
100
AcDbArc
 50
257.08292610987
 51
270.0000000000009
  0
LINE
  5
151
330
14D
100
AcDbEntity
  8
cotas
100
AcDbLine
 10
8505.169105950672
 20
554.8733609551232
 30
0.0
 11
8468.295668654583
 21
563.3300707653671
 31
0.0
  0
ARC
  5
152
330
14D
100
AcDbEntity
  8
cotas
100
AcDbCircle
 10
8525.042176288996
 20
641.5250765092373
 30
0.0
 40
88.90139893805423
100
AcDbArc
 50
257.1034585859237
 51
263.5517292929623
  0
ARC
  5
153
330
14D
100
AcDbEntity
  8
cotas
100
AcDbCircle
 10
8525.042176288996
 20
641.5250765092373
 30
0.0
 40
88.90139893805423
100
AcDbArc
 50
278.4482707070381
 51
284.8965414140767
  0
ARC
  5
154
330
14D
100
AcDbEntity
  8
cotas
100
AcDbCircle
 10
8525.042176288996
 20
641.5250765092373
 30
0.0
 40
88.90139893805423
100
AcDbArc
 50
270.0000000000009
 51
271.9999999999994
  0
SOLID
  5
155
330
14D
100
AcDbEntity
  8
cotas
100
AcDbTrace
 10
8515.151741483956
 20
554.850127019286
 30
0.0
 11
8514.964267868627
 21
551.5220698150501
 31
0.0
 12
8525.042176288998
 22
552.6236775711831
 32
0.0
 13
8525.042176288998
 23
552.6236775711831
 33
0.0
  0
SOLID
  5
156
330
14D
100
AcDbEntity
  8
cotas
100
AcDbTrace
 10
8538.255005155191
 20
551.9286111466133
 30
0.0
 11
8537.951498222302
 21
555.2480982535016
 31
0.0
 12
8528.144790368081
 22
552.6778339013808
 32
0.0
 13
8528.144790368081
 23
552.6778339013808
 33
0.0
  0
MTEXT
  5
157
330
14D
100
AcDbEntity
  8
cotas
100
AcDbMText
 10
8489.268799733734
 20
570.1611286619034
 30
0.0
 40
10.0
 41
0.0
 71
     5
 72
     1
  1
2,0°
  7
SANINDUSA
 11
0.9746946233601134
 21
-0.2235405806400405
 31
0.0
 73
     1
 44
1.0
1001
ACAD
1000
MTEXTBEGIN
1070
    73
1070
     1
1070
    44
1040
1.0
1070
    74
1070
     0
1000
MTEXTEND
  0
POINT
  5
158
330
14D
100
AcDbEntity
  8
Defpoints
 62
     0
100
AcDbPoint
 10
8527.11081906248
 20
552.6477484091039
 30
0.0
  0
POINT
  5
159
330
14D
100
AcDbEntity
  8
Defpoints
 62
     0
100
AcDbPoint
 10
8529.726434270008
 20
507.3854785223936
 30
0.0
  0
POINT
  5
15A
330
14D
100
AcDbEntity
  8
Defpoints
 62
     0
100
AcDbPoint
 10
8525.042176288998
 20
641.5250765092034
 30
0.0
  0
POINT
  5
15B
330
14D
100
AcDbEntity
  8
Defpoints
 62
     0
100
AcDbPoint
 10
8525.042176288998
 20
602.3376029119936
 30
0.0
  0
POINT
  5
15C
330
14D
100
AcDbEntity
  8
Defpoints
 62
     0
100
AcDbPoint
 10
8525.210686550058
 20
636.699573992716
 30
0.0
  0
ENDBLK
  5
15D
330
14D
100
AcDbEntity
  8
0
100
AcDbBlockEnd
  0
BLOCK
  5
15F
330
15E
100
AcDbEntity
  8
0
100
AcDbBlockBegin
  2
*D28
 70
     1
 10
0.0
 20
0.0
 30
0.0
  3
*D28
  1

  0
LINE
  5
160
330
15E
100
AcDbEntity
  8
cotas
100
AcDbLine
 10
8540.81205540333
 20
498.5250765092034
 30
0.0
 11
8540.81205540333
 21
448.5250765092177
 31
0.0
  0
LINE
  5
161
330
15E
100
AcDbEntity
  8
cotas
100
AcDbLine
 10
8565.812055403331
 20
621.2661234209063
 30
0.0
 11
8565.812055403331
 21
448.5250765092177
 31
0.0
  0
LINE
  5
162
330
15E
100
AcDbEntity
  8
cotas
100
AcDbLine
 10
8540.81205540333
 20
453.5250765092178
 30
0.0
 11
8555.812055403331
 21
453.5250765092178
 31
0.0
  0
LINE
  5
163
330
15E
100
AcDbEntity
  8
cotas
100
AcDbLine
 10
8565.812055403331
 20
453.5250765092178
 30
0.0
 11
8601.24523203194
 21
453.5250765092178
 31
0.0
  0
INSERT
  5
164
330
15E
100
AcDbEntity
  8
cotas
100
AcDbBlockReference
  2
_DotSmall
 10
8540.81205540333
 20
453.5250765092178
 30
0.0
 41
10.0
 42
10.0
 43
10.0
 50
180.0
  0
SOLID
  5
165
330
15E
100
AcDbEntity
  8
cotas
100
AcDbTrace
 10
8555.812055403331
 20
455.1917431758845
 30
0.0
 11
8555.812055403331
 21
451.8584098425511
 31
0.0
 12
8565.812055403331
 22
453.5250765092178
 32
0.0
 13
8565.812055403331
 23
453.5250765092178
 33
0.0
  0
MTEXT
  5
166
330
15E
100
AcDbEntity
  8
cotas
100
AcDbMText
 10
8588.528643717635
 20
463.7332699276194
 30
0.0
 40
10.0
 41
0.0
 71
     5
 72
     1
  1
25
  7
SANINDUSA
 73
     1
 44
1.0
1001
ACAD
1000
MTEXTBEGIN
1070
    73
1070
     1
1070
    44
1040
1.0
1070
    74
1070
     0
1000
MTEXTEND
  0
POINT
  5
167
330
15E
100
AcDbEntity
  8
Defpoints
 62
     0
100
AcDbPoint
 10
8540.81205540333
 20
503.5250765092034
 30
0.0
  0
POINT
  5
168
330
15E
100
AcDbEntity
  8
Defpoints
 62
     0
100
AcDbPoint
 10
8565.812055403331
 20
626.2661234209063
 30
0.0
  0
POINT
  5
169
330
15E
100
AcDbEntity
  8
Defpoints
 62
     0
100
AcDbPoint
 10
8565.812055403331
 20
453.5250765092178
 30
0.0
  0
ENDBLK
  5
16A
330
15E
100
AcDbEntity
  8
0
100
AcDbBlockEnd
  0
BLOCK
  5
16C
330
16B
100
AcDbEntity
  8
0
100
AcDbBlockBegin
  2
*D29
 70
     1
 10
0.0
 20
0.0
 30
0.0
  3
*D29
  1

  0
LINE
  5
16D
330
16B
100
AcDbEntity
  8
cotas
100
AcDbLine
 10
8565.812055403331
 20
621.2661234209063
 30
0.0
 11
8565.812055403331
 21
423.5250765092177
 31
0.0
  0
LINE
  5
16E
330
16B
100
AcDbEntity
  8
cotas
100
AcDbLine
 10
8529.861242478858
 20
498.5250765092555
 30
0.0
 11
8529.861242478858
 21
423.5250765092177
 31
0.0
  0
LINE
  5
16F
330
16B
100
AcDbEntity
  8
cotas
100
AcDbLine
 10
8555.812055403331
 20
428.5250765092178
 30
0.0
 11
8539.86124247886
 21
428.5250765092178
 31
0.0
  0
SOLID
  5
170
330
16B
100
AcDbEntity
  8
cotas
100
AcDbTrace
 10
8555.812055403331
 20
430.1917431758845
 30
0.0
 11
8555.812055403331
 21
426.8584098425511
 31
0.0
 12
8565.812055403331
 22
428.5250765092178
 32
0.0
 13
8565.812055403331
 23
428.5250765092178
 33
0.0
  0
SOLID
  5
171
330
16B
100
AcDbEntity
  8
cotas
100
AcDbTrace
 10
8539.86124247886
 20
430.1917431758845
 30
0.0
 11
8539.86124247886
 21
426.8584098425511
 31
0.0
 12
8529.861242478858
 22
428.5250765092178
 32
0.0
 13
8529.861242478858
 23
428.5250765092178
 33
0.0
  0
MTEXT
  5
172
330
16B
100
AcDbEntity
  8
cotas
100
AcDbMText
 10
8547.836648941094
 20
438.7332699276194
 30
0.0
 40
10.0
 41
0.0
 71
     5
 72
     1
  1
36
  7
SANINDUSA
 73
     1
 44
1.0
1001
ACAD
1000
MTEXTBEGIN
1070
    73
1070
     1
1070
    44
1040
1.0
1070
    74
1070
     0
1000
MTEXTEND
  0
POINT
  5
173
330
16B
100
AcDbEntity
  8
Defpoints
 62
     0
100
AcDbPoint
 10
8565.812055403331
 20
626.2661234209063
 30
0.0
  0
POINT
  5
174
330
16B
100
AcDbEntity
  8
Defpoints
 62
     0
100
AcDbPoint
 10
8529.861242478858
 20
503.5250765092555
 30
0.0
  0
POINT
  5
175
330
16B
100
AcDbEntity
  8
Defpoints
 62
     0
100
AcDbPoint
 10
8529.861242478858
 20
428.5250765092178
 30
0.0
  0
ENDBLK
  5
176
330
16B
100
AcDbEntity
  8
0
100
AcDbBlockEnd
  0
BLOCK
  5
178
330
177
100
AcDbEntity
  8
0
100
AcDbBlockBegin
  2
*D30
 70
     1
 10
0.0
 20
0.0
 30
0.0
  3
*D30
  1

  0
LINE
  5
179
330
177
100
AcDbEntity
  8
cotas
100
AcDbLine
 10
8525.042176288998
 20
646.5250765092036
 30
0.0
 11
8525.042176288998
 21
683.5250765092045
 31
0.0
  0
LINE
  5
17A
330
177
100
AcDbEntity
  8
cotas
100
AcDbLine
 10
8565.812055403331
 20
654.5250765092037
 30
0.0
 11
8565.812055403331
 21
683.5250765092045
 31
0.0
  0
LINE
  5
17B
330
177
100
AcDbEntity
  8
cotas
100
AcDbLine
 10
8535.042176288998
 20
678.5250765092046
 30
0.0
 11
8555.812055403331
 21
678.5250765092046
 31
0.0
  0
SOLID
  5
17C
330
177
100
AcDbEntity
  8
cotas
100
AcDbTrace
 10
8535.042176288998
 20
680.1917431758712
 30
0.0
 11
8535.042176288998
 21
676.8584098425379
 31
0.0
 12
8525.042176288998
 22
678.5250765092046
 32
0.0
 13
8525.042176288998
 23
678.5250765092046
 33
0.0
  0
SOLID
  5
17D
330
177
100
AcDbEntity
  8
cotas
100
AcDbTrace
 10
8555.812055403331
 20
680.1917431758712
 30
0.0
 11
8555.812055403331
 21
676.8584098425379
 31
0.0
 12
8565.812055403331
 22
678.5250765092046
 32
0.0
 13
8565.812055403331
 23
678.5250765092046
 33
0.0
  0
MTEXT
  5
17E
330
177
100
AcDbEntity
  8
cotas
100
AcDbMText
 10
8545.427115846164
 20
688.5418663010112
 30
0.0
 40
10.0
 41
0.0
 71
     5
 72
     1
  1
41
  7
SANINDUSA
 73
     1
 44
1.0
1001
ACAD
1000
MTEXTBEGIN
1070
    73
1070
     1
1070
    44
1040
1.0
1070
    74
1070
     0
1000
MTEXTEND
  0
POINT
  5
17F
330
177
100
AcDbEntity
  8
Defpoints
 62
     0
100
AcDbPoint
 10
8525.042176288998
 20
641.5250765092036
 30
0.0
  0
POINT
  5
180
330
177
100
AcDbEntity
  8
Defpoints
 62
     0
100
AcDbPoint
 10
8565.812055403331
 20
649.5250765092037
 30
0.0
  0
POINT
  5
181
330
177
100
AcDbEntity
  8
Defpoints
 62
     0
100
AcDbPoint
 10
8565.812055403331
 20
678.5250765092046
 30
0.0
  0
ENDBLK
  5
182
330
177
100
AcDbEntity
  8
0
100
AcDbBlockEnd
  0
BLOCK
  5
184
330
183
100
AcDbEntity
  8
0
100
AcDbBlockBegin
  2
*D31
 70
     1
 10
0.0
 20
0.0
 30
0.0
  3
*D31
  1

  0
LINE
  5
185
330
183
100
AcDbEntity
  8
cotas
100
AcDbLine
 10
8544.325623182668
 20
613.5250765092035
 30
0.0
 11
8544.325623182668
 21
473.5250765092177
 31
0.0
  0
LINE
  5
186
330
183
100
AcDbEntity
  8
cotas
100
AcDbLine
 10
8565.812055403331
 20
616.2661234209062
 30
0.0
 11
8565.812055403331
 21
473.5250765092177
 31
0.0
  0
LINE
  5
187
330
183
100
AcDbEntity
  8
cotas
100
AcDbLine
 10
8544.325623182668
 20
478.5250765092178
 30
0.0
 11
8555.812055403331
 21
478.5250765092178
 31
0.0
  0
LINE
  5
188
330
183
100
AcDbEntity
  8
cotas
100
AcDbLine
 10
8565.812055403331
 20
478.5250765092178
 30
0.0
 11
8600.754970111188
 21
478.5250765092178
 31
0.0
  0
INSERT
  5
189
330
183
100
AcDbEntity
  8
cotas
100
AcDbBlockReference
  2
_DotSmall
 10
8544.325623182668
 20
478.5250765092178
 30
0.0
 41
10.0
 42
10.0
 43
10.0
 50
180.0
  0
SOLID
  5
18A
330
183
100
AcDbEntity
  8
cotas
100
AcDbTrace
 10
8555.812055403331
 20
480.1917431758845
 30
0.0
 11
8555.812055403331
 21
476.8584098425511
 31
0.0
 12
8565.812055403331
 22
478.5250765092178
 32
0.0
 13
8565.812055403331
 23
478.5250765092178
 33
0.0
  0
MTEXT
  5
18B
330
183
100
AcDbEntity
  8
cotas
100
AcDbMText
 10
8588.283512757261
 20
488.6291732184186
 30
0.0
 40
10.0
 41
0.0
 71
     5
 72
     1
  1
21
  7
SANINDUSA
 73
     1
 44
1.0
1001
ACAD
1000
MTEXTBEGIN
1070
    73
1070
     1
1070
    44
1040
1.0
1070
    74
1070
     0
1000
MTEXTEND
  0
POINT
  5
18C
330
183
100
AcDbEntity
  8
Defpoints
 62
     0
100
AcDbPoint
 10
8544.325623182668
 20
618.5250765092034
 30
0.0
  0
POINT
  5
18D
330
183
100
AcDbEntity
  8
Defpoints
 62
     0
100
AcDbPoint
 10
8565.812055403331
 20
621.2661234209063
 30
0.0
  0
POINT
  5
18E
330
183
100
AcDbEntity
  8
Defpoints
 62
     0
100
AcDbPoint
 10
8565.812055403331
 20
478.5250765092178
 30
0.0
  0
ENDBLK
  5
18F
330
183
100
AcDbEntity
  8
0
100
AcDbBlockEnd
  0
BLOCK
  5
191
330
190
100
AcDbEntity
  8
0
100
AcDbBlockBegin
  2
*D32
 70
     1
 10
0.0
 20
0.0
 30
0.0
  3
*D32
  1

  0
LINE
  5
192
330
190
100
AcDbEntity
  8
cotas
100
AcDbLine
 10
7965.81205540333
 20
658.5250765092034
 30
0.0
 11
7965.81205540333
 21
683.5250765092034
 31
0.0
  0
LINE
  5
193
330
190
100
AcDbEntity
  8
cotas
100
AcDbLine
 10
7935.812055403332
 20
653.5250765092034
 30
0.0
 11
7935.812055403332
 21
683.5250765092034
 31
0.0
  0
LINE
  5
194
330
190
100
AcDbEntity
  8
cotas
100
AcDbLine
 10
7965.81205540333
 20
678.5250765092034
 30
0.0
 11
7945.812055403331
 21
678.5250765092034
 31
0.0
  0
INSERT
  5
195
330
190
100
AcDbEntity
  8
cotas
100
AcDbBlockReference
  2
_DotSmall
 10
7965.81205540333
 20
678.5250765092034
 30
0.0
 41
10.0
 42
10.0
 43
10.0
  0
SOLID
  5
196
330
190
100
AcDbEntity
  8
cotas
100
AcDbTrace
 10
7945.812055403331
 20
680.1917431758701
 30
0.0
 11
7945.812055403331
 21
676.8584098425368
 31
0.0
 12
7935.812055403332
 22
678.5250765092034
 32
0.0
 13
7935.812055403332
 23
678.5250765092034
 33
0.0
  0
MTEXT
  5
197
330
190
100
AcDbEntity
  8
cotas
100
AcDbMText
 10
7955.812055403331
 20
688.7332699276051
 30
0.0
 40
10.0
 41
0.0
 71
     5
 72
     1
  1
30
  7
SANINDUSA
 73
     1
 44
1.0
1001
ACAD
1000
MTEXTBEGIN
1070
    73
1070
     1
1070
    44
1040
1.0
1070
    74
1070
     0
1000
MTEXTEND
  0
POINT
  5
198
330
190
100
AcDbEntity
  8
Defpoints
 62
     0
100
AcDbPoint
 10
7965.81205540333
 20
653.5250765092034
 30
0.0
  0
POINT
  5
199
330
190
100
AcDbEntity
  8
Defpoints
 62
     0
100
AcDbPoint
 10
7935.812055403332
 20
648.5250765092034
 30
0.0
  0
POINT
  5
19A
330
190
100
AcDbEntity
  8
Defpoints
 62
     0
100
AcDbPoint
 10
7935.812055403332
 20
678.5250765092034
 30
0.0
  0
ENDBLK
  5
19B
330
190
100
AcDbEntity
  8
0
100
AcDbBlockEnd
  0
BLOCK
  5
19D
330
19C
100
AcDbEntity
  8
0
100
AcDbBlockBegin
  2
*D33
 70
     1
 10
0.0
 20
0.0
 30
0.0
  3
*D33
  1

  0
LINE
  5
19E
330
19C
100
AcDbEntity
  8
cotas
100
AcDbLine
 10
7957.298487623991
 20
613.5250765092035
 30
0.0
 11
7957.298487623991
 21
473.5250765092034
 31
0.0
  0
LINE
  5
19F
330
19C
100
AcDbEntity
  8
cotas
100
AcDbLine
 10
7935.812055403329
 20
616.5250765092036
 30
0.0
 11
7935.812055403329
 21
473.5250765092034
 31
0.0
  0
LINE
  5
1A0
330
19C
100
AcDbEntity
  8
cotas
100
AcDbLine
 10
7957.298487623991
 20
478.5250765092034
 30
0.0
 11
7945.812055403329
 21
478.5250765092034
 31
0.0
  0
LINE
  5
1A1
330
19C
100
AcDbEntity
  8
cotas
100
AcDbLine
 10
7935.812055403329
 20
478.5250765092034
 30
0.0
 11
7900.869140695471
 21
478.5250765092034
 31
0.0
  0
INSERT
  5
1A2
330
19C
100
AcDbEntity
  8
cotas
100
AcDbBlockReference
  2
_DotSmall
 10
7957.298487623991
 20
478.5250765092034
 30
0.0
 41
10.0
 42
10.0
 43
10.0
  0
SOLID
  5
1A3
330
19C
100
AcDbEntity
  8
cotas
100
AcDbTrace
 10
7945.812055403329
 20
480.1917431758702
 30
0.0
 11
7945.812055403329
 21
476.8584098425368
 31
0.0
 12
7935.812055403329
 22
478.5250765092034
 32
0.0
 13
7935.812055403329
 23
478.5250765092034
 33
0.0
  0
MTEXT
  5
1A4
330
19C
100
AcDbEntity
  8
cotas
100
AcDbMText
 10
7913.3405980494
 20
488.6291732184043
 30
0.0
 40
10.0
 41
0.0
 71
     5
 72
     1
  1
21
  7
SANINDUSA
 73
     1
 44
1.0
1001
ACAD
1000
MTEXTBEGIN
1070
    73
1070
     1
1070
    44
1040
1.0
1070
    74
1070
     0
1000
MTEXTEND
  0
POINT
  5
1A5
330
19C
100
AcDbEntity
  8
Defpoints
 62
     0
100
AcDbPoint
 10
7957.298487623991
 20
618.5250765092034
 30
0.0
  0
POINT
  5
1A6
330
19C
100
AcDbEntity
  8
Defpoints
 62
     0
100
AcDbPoint
 10
7935.812055403329
 20
621.5250765092036
 30
0.0
  0
POINT
  5
1A7
330
19C
100
AcDbEntity
  8
Defpoints
 62
     0
100
AcDbPoint
 10
7935.812055403329
 20
478.5250765092034
 30
0.0
  0
ENDBLK
  5
1A8
330
19C
100
AcDbEntity
  8
0
100
AcDbBlockEnd
  0
BLOCK
  5
1AA
330
1A9
100
AcDbEntity
  8
0
100
AcDbBlockBegin
  2
*D34
 70
     1
 10
0.0
 20
0.0
 30
0.0
  3
*D34
  1

  0
LINE
  5
1AB
330
1A9
100
AcDbEntity
  8
cotas
100
AcDbLine
 10
7960.812055403329
 20
498.5250765092034
 30
0.0
 11
7960.812055403329
 21
448.5250765092034
 31
0.0
  0
LINE
  5
1AC
330
1A9
100
AcDbEntity
  8
cotas
100
AcDbLine
 10
7935.812055403329
 20
486.1065304139838
 30
0.0
 11
7935.812055403329
 21
448.5250765092034
 31
0.0
  0
LINE
  5
1AD
330
1A9
100
AcDbEntity
  8
cotas
100
AcDbLine
 10
7970.812055403328
 20
453.5250765092034
 30
0.0
 11
7980.812055403328
 21
453.5250765092034
 31
0.0
  0
LINE
  5
1AE
330
1A9
100
AcDbEntity
  8
cotas
100
AcDbLine
 10
7925.812055403328
 20
453.5250765092034
 30
0.0
 11
7890.378878774718
 21
453.5250765092034
 31
0.0
  0
LINE
  5
1AF
330
1A9
100
AcDbEntity
  8
cotas
100
AcDbLine
 10
7960.812055403329
 20
453.5250765092034
 30
0.0
 11
7935.812055403329
 21
453.5250765092034
 31
0.0
  0
SOLID
  5
1B0
330
1A9
100
AcDbEntity
  8
cotas
100
AcDbTrace
 10
7970.812055403328
 20
455.1917431758702
 30
0.0
 11
7970.812055403328
 21
451.8584098425368
 31
0.0
 12
7960.812055403329
 22
453.5250765092034
 32
0.0
 13
7960.812055403329
 23
453.5250765092034
 33
0.0
  0
SOLID
  5
1B1
330
1A9
100
AcDbEntity
  8
cotas
100
AcDbTrace
 10
7925.812055403328
 20
455.1917431758702
 30
0.0
 11
7925.812055403328
 21
451.8584098425368
 31
0.0
 12
7935.812055403329
 22
453.5250765092034
 32
0.0
 13
7935.812055403329
 23
453.5250765092034
 33
0.0
  0
MTEXT
  5
1B2
330
1A9
100
AcDbEntity
  8
cotas
100
AcDbMText
 10
7903.095467089023
 20
463.7332699276051
 30
0.0
 40
10.0
 41
0.0
 71
     5
 72
     1
  1
25
  7
SANINDUSA
 73
     1
 44
1.0
1001
ACAD
1000
MTEXTBEGIN
1070
    73
1070
     1
1070
    44
1040
1.0
1070
    74
1070
     0
1000
MTEXTEND
  0
POINT
  5
1B3
330
1A9
100
AcDbEntity
  8
Defpoints
 62
     0
100
AcDbPoint
 10
7960.812055403329
 20
503.5250765092034
 30
0.0
  0
POINT
  5
1B4
330
1A9
100
AcDbEntity
  8
Defpoints
 62
     0
100
AcDbPoint
 10
7935.812055403329
 20
491.1065304139838
 30
0.0
  0
POINT
  5
1B5
330
1A9
100
AcDbEntity
  8
Defpoints
 62
     0
100
AcDbPoint
 10
7935.812055403329
 20
453.5250765092034
 30
0.0
  0
ENDBLK
  5
1B6
330
1A9
100
AcDbEntity
  8
0
100
AcDbBlockEnd
  0
BLOCK
  5
1B8
330
1B7
100
AcDbEntity
  8
0
100
AcDbBlockBegin
  2
*D35
 70
     1
 10
0.0
 20
0.0
 30
0.0
  3
*D35
  1

  0
LINE
  5
1B9
330
1B7
100
AcDbEntity
  8
cotas
100
AcDbLine
 10
7935.812055403329
 20
486.1065304139838
 30
0.0
 11
7935.812055403329
 21
423.5250765092034
 31
0.0
  0
LINE
  5
1BA
330
1B7
100
AcDbEntity
  8
cotas
100
AcDbLine
 10
7980.812055403328
 20
498.5250765092034
 30
0.0
 11
7980.812055403328
 21
423.5250765092034
 31
0.0
  0
LINE
  5
1BB
330
1B7
100
AcDbEntity
  8
cotas
100
AcDbLine
 10
7945.812055403329
 20
428.5250765092034
 30
0.0
 11
7970.812055403328
 21
428.5250765092034
 31
0.0
  0
SOLID
  5
1BC
330
1B7
100
AcDbEntity
  8
cotas
100
AcDbTrace
 10
7945.812055403329
 20
430.1917431758702
 30
0.0
 11
7945.812055403329
 21
426.8584098425368
 31
0.0
 12
7935.812055403329
 22
428.5250765092034
 32
0.0
 13
7935.812055403329
 23
428.5250765092034
 33
0.0
  0
SOLID
  5
1BD
330
1B7
100
AcDbEntity
  8
cotas
100
AcDbTrace
 10
7970.812055403328
 20
430.1917431758702
 30
0.0
 11
7970.812055403328
 21
426.8584098425368
 31
0.0
 12
7980.812055403328
 22
428.5250765092034
 32
0.0
 13
7980.812055403328
 23
428.5250765092034
 33
0.0
  0
MTEXT
  5
1BE
330
1B7
100
AcDbEntity
  8
cotas
100
AcDbMText
 10
7958.312055403329
 20
438.6291732184043
 30
0.0
 40
10.0
 41
0.0
 71
     5
 72
     1
  1
45
  7
SANINDUSA
 73
     1
 44
1.0
1001
ACAD
1000
MTEXTBEGIN
1070
    73
1070
     1
1070
    44
1040
1.0
1070
    74
1070
     0
1000
MTEXTEND
  0
POINT
  5
1BF
330
1B7
100
AcDbEntity
  8
Defpoints
 62
     0
100
AcDbPoint
 10
7935.812055403329
 20
491.1065304139838
 30
0.0
  0
POINT
  5
1C0
330
1B7
100
AcDbEntity
  8
Defpoints
 62
     0
100
AcDbPoint
 10
7980.812055403328
 20
503.5250765092034
 30
0.0
  0
POINT
  5
1C1
330
1B7
100
AcDbEntity
  8
Defpoints
 62
     0
100
AcDbPoint
 10
7980.812055403328
 20
428.5250765092034
 30
0.0
  0
ENDBLK
  5
1C2
330
1B7
100
AcDbEntity
  8
0
100
AcDbBlockEnd
  0
BLOCK
  5
1C4
330
1C3
100
AcDbEntity
  8
0
100
AcDbBlockBegin
  2
*D36
 70
     1
 10
0.0
 20
0.0
 30
0.0
  3
*D36
  1

  0
LINE
  5
1C5
330
1C3
100
AcDbEntity
  8
cotas
100
AcDbLine
 10
7986.026489207969
 20
573.0949540670578
 30
0.0
 11
7986.026489207969
 21
398.5250765092035
 31
0.0
  0
LINE
  5
1C6
330
1C3
100
AcDbEntity
  8
cotas
100
AcDbLine
 10
7935.812055403329
 20
445.2362846051346
 30
0.0
 11
7935.812055403329
 21
398.5250765092035
 31
0.0
  0
LINE
  5
1C7
330
1C3
100
AcDbEntity
  8
cotas
100
AcDbLine
 10
7976.026489207969
 20
403.5250765092034
 30
0.0
 11
7945.812055403329
 21
403.5250765092034
 31
0.0
  0
SOLID
  5
1C8
330
1C3
100
AcDbEntity
  8
cotas
100
AcDbTrace
 10
7976.026489207969
 20
405.1917431758701
 30
0.0
 11
7976.026489207969
 21
401.8584098425368
 31
0.0
 12
7986.026489207969
 22
403.5250765092034
 32
0.0
 13
7986.026489207969
 23
403.5250765092034
 33
0.0
  0
SOLID
  5
1C9
330
1C3
100
AcDbEntity
  8
cotas
100
AcDbTrace
 10
7945.812055403329
 20
405.1917431758701
 30
0.0
 11
7945.812055403329
 21
401.8584098425368
 31
0.0
 12
7935.812055403329
 22
403.5250765092034
 32
0.0
 13
7935.812055403329
 23
403.5250765092034
 33
0.0
  0
MTEXT
  5
1CA
330
1C3
100
AcDbEntity
  8
cotas
100
AcDbMText
 10
7960.919272305649
 20
413.7299119692437
 30
0.0
 40
10.0
 41
0.0
 71
     5
 72
     1
  1
50
  7
SANINDUSA
 73
     1
 44
1.0
1001
ACAD
1000
MTEXTBEGIN
1070
    73
1070
     1
1070
    44
1040
1.0
1070
    74
1070
     0
1000
MTEXTEND
  0
POINT
  5
1CB
330
1C3
100
AcDbEntity
  8
Defpoints
 62
     0
100
AcDbPoint
 10
7986.026489207969
 20
578.0949540670579
 30
0.0
  0
POINT
  5
1CC
330
1C3
100
AcDbEntity
  8
Defpoints
 62
     0
100
AcDbPoint
 10
7935.812055403329
 20
450.2362846051346
 30
0.0
  0
POINT
  5
1CD
330
1C3
100
AcDbEntity
  8
Defpoints
 62
     0
100
AcDbPoint
 10
7935.812055403329
 20
403.5250765092034
 30
0.0
  0
ENDBLK
  5
1CE
330
1C3
100
AcDbEntity
  8
0
100
AcDbBlockEnd
  0
BLOCK
  5
1D0
330
1CF
100
AcDbEntity
  8
0
100
AcDbBlockBegin
  2
*D37
 70
     1
 10
0.0
 20
0.0
 30
0.0
  3
*D37
  1

  0
LINE
  5
1D1
330
1CF
100
AcDbEntity
  8
cotas
100
AcDbLine
 10
7974.956110102887
 20
593.4617465601454
 30
0.0
 11
7974.956110102887
 21
708.5250765092034
 31
0.0
  0
LINE
  5
1D2
330
1CF
100
AcDbEntity
  8
cotas
100
AcDbLine
 10
7935.812055403332
 20
653.5250765092034
 30
0.0
 11
7935.812055403332
 21
708.5250765092034
 31
0.0
  0
LINE
  5
1D3
330
1CF
100
AcDbEntity
  8
cotas
100
AcDbLine
 10
7964.956110102888
 20
703.5250765092034
 30
0.0
 11
7945.812055403331
 21
703.5250765092034
 31
0.0
  0
SOLID
  5
1D4
330
1CF
100
AcDbEntity
  8
cotas
100
AcDbTrace
 10
7964.956110102888
 20
705.1917431758701
 30
0.0
 11
7964.956110102888
 21
701.8584098425368
 31
0.0
 12
7974.956110102887
 22
703.5250765092034
 32
0.0
 13
7974.956110102887
 23
703.5250765092034
 33
0.0
  0
SOLID
  5
1D5
330
1CF
100
AcDbEntity
  8
cotas
100
AcDbTrace
 10
7945.812055403331
 20
705.1917431758701
 30
0.0
 11
7945.812055403331
 21
701.8584098425368
 31
0.0
 12
7935.812055403332
 22
703.5250765092034
 32
0.0
 13
7935.812055403332
 23
703.5250765092034
 33
0.0
  0
MTEXT
  5
1D6
330
1CF
100
AcDbEntity
  8
cotas
100
AcDbMText
 10
7955.384082753109
 20
713.7332699276051
 30
0.0
 40
10.0
 41
0.0
 71
     5
 72
     1
  1
39
  7
SANINDUSA
 73
     1
 44
1.0
1001
ACAD
1000
MTEXTBEGIN
1070
    73
1070
     1
1070
    44
1040
1.0
1070
    74
1070
     0
1000
MTEXTEND
  0
POINT
  5
1D7
330
1CF
100
AcDbEntity
  8
Defpoints
 62
     0
100
AcDbPoint
 10
7974.956110102887
 20
588.4617465601454
 30
0.0
  0
POINT
  5
1D8
330
1CF
100
AcDbEntity
  8
Defpoints
 62
     0
100
AcDbPoint
 10
7935.812055403332
 20
648.5250765092034
 30
0.0
  0
POINT
  5
1D9
330
1CF
100
AcDbEntity
  8
Defpoints
 62
     0
100
AcDbPoint
 10
7935.812055403332
 20
703.5250765092034
 30
0.0
  0
ENDBLK
  5
1DA
330
1CF
100
AcDbEntity
  8
0
100
AcDbBlockEnd
  0
BLOCK
  5
1DC
330
1DB
100
AcDbEntity
  8
0
100
AcDbBlockBegin
  2
*D38
 70
     1
 10
0.0
 20
0.0
 30
0.0
  3
*D38
  1

  0
LINE
  5
1DD
330
1DB
100
AcDbEntity
  8
cotas
100
AcDbLine
 10
7935.812055403332
 20
653.5250765092036
 30
0.0
 11
7905.81205540333
 21
653.5250765092036
 31
0.0
  0
LINE
  5
1DE
330
1DB
100
AcDbEntity
  8
cotas
100
AcDbLine
 10
7969.956110102888
 20
588.4617465601454
 30
0.0
 11
7905.81205540333
 21
588.4617465601455
 31
0.0
  0
LINE
  5
1DF
330
1DB
100
AcDbEntity
  8
cotas
100
AcDbLine
 10
7910.812055403332
 20
643.5250765092035
 30
0.0
 11
7910.812055403332
 21
598.4617465601456
 31
0.0
  0
SOLID
  5
1E0
330
1DB
100
AcDbEntity
  8
cotas
100
AcDbTrace
 10
7909.145388736664
 20
643.5250765092035
 30
0.0
 11
7912.478722069998
 21
643.5250765092035
 31
0.0
 12
7910.812055403332
 22
653.5250765092036
 32
0.0
 13
7910.812055403332
 23
653.5250765092036
 33
0.0
  0
SOLID
  5
1E1
330
1DB
100
AcDbEntity
  8
cotas
100
AcDbTrace
 10
7909.145388736664
 20
598.4617465601456
 30
0.0
 11
7912.478722069998
 21
598.4617465601456
 31
0.0
 12
7910.812055403332
 22
588.4617465601455
 32
0.0
 13
7910.812055403332
 23
588.4617465601455
 33
0.0
  0
MTEXT
  5
1E2
330
1DB
100
AcDbEntity
  8
cotas
100
AcDbMText
 10
7900.613935860014
 20
620.9934115346758
 30
0.0
 40
10.0
 41
0.0
 71
     5
 72
     1
  1
65
  7
SANINDUSA
 11
0.0000000000000001
 21
1.0
 31
0.0
 73
     1
 44
1.0
1001
ACAD
1000
MTEXTBEGIN
1070
    73
1070
     1
1070
    44
1040
1.0
1070
    74
1070
     0
1000
MTEXTEND
  0
POINT
  5
1E3
330
1DB
100
AcDbEntity
  8
Defpoints
 62
     0
100
AcDbPoint
 10
7940.812055403331
 20
653.5250765092034
 30
0.0
  0
POINT
  5
1E4
330
1DB
100
AcDbEntity
  8
Defpoints
 62
     0
100
AcDbPoint
 10
7974.956110102887
 20
588.4617465601454
 30
0.0
  0
POINT
  5
1E5
330
1DB
100
AcDbEntity
  8
Defpoints
 62
     0
100
AcDbPoint
 10
7910.812055403332
 20
588.4617465601455
 30
0.0
  0
ENDBLK
  5
1E6
330
1DB
100
AcDbEntity
  8
0
100
AcDbBlockEnd
  0
BLOCK
  5
1E8
330
1E7
100
AcDbEntity
  8
0
100
AcDbBlockBegin
  2
*D39
 70
     1
 10
0.0
 20
0.0
 30
0.0
  3
*D39
  1

  0
LINE
  5
1E9
330
1E7
100
AcDbEntity
  8
cotas
100
AcDbLine
 10
7981.02648920797
 20
578.0949540670579
 30
0.0
 11
7880.812055403331
 21
578.0949540670579
 31
0.0
  0
LINE
  5
1EA
330
1E7
100
AcDbEntity
  8
cotas
100
AcDbLine
 10
7905.81205540333
 20
653.5250765092034
 30
0.0
 11
7880.812055403331
 21
653.5250765092034
 31
0.0
  0
LINE
  5
1EB
330
1E7
100
AcDbEntity
  8
cotas
100
AcDbLine
 10
7885.812055403332
 20
588.0949540670579
 30
0.0
 11
7885.812055403332
 21
643.5250765092034
 31
0.0
  0
SOLID
  5
1EC
330
1E7
100
AcDbEntity
  8
cotas
100
AcDbTrace
 10
7884.145388736664
 20
588.0949540670579
 30
0.0
 11
7887.478722069999
 21
588.0949540670579
 31
0.0
 12
7885.812055403332
 22
578.0949540670579
 32
0.0
 13
7885.812055403332
 23
578.0949540670579
 33
0.0
  0
SOLID
  5
1ED
330
1E7
100
AcDbEntity
  8
cotas
100
AcDbTrace
 10
7884.145388736664
 20
643.5250765092034
 30
0.0
 11
7887.478722069999
 21
643.5250765092034
 31
0.0
 12
7885.812055403332
 22
653.5250765092034
 32
0.0
 13
7885.812055403332
 23
653.5250765092034
 33
0.0
  0
MTEXT
  5
1EE
330
1E7
100
AcDbEntity
  8
cotas
100
AcDbMText
 10
7875.70795869413
 20
615.810015288132
 30
0.0
 40
10.0
 41
0.0
 71
     5
 72
     1
  1
75
  7
SANINDUSA
 11
0.0000000000000001
 21
1.0
 31
0.0
 73
     1
 44
1.0
1001
ACAD
1000
MTEXTBEGIN
1070
    73
1070
     1
1070
    44
1040
1.0
1070
    74
1070
     0
1000
MTEXTEND
  0
POINT
  5
1EF
330
1E7
100
AcDbEntity
  8
Defpoints
 62
     0
100
AcDbPoint
 10
7986.026489207969
 20
578.0949540670579
 30
0.0
  0
POINT
  5
1F0
330
1E7
100
AcDbEntity
  8
Defpoints
 62
     0
100
AcDbPoint
 10
7910.812055403332
 20
653.5250765092034
 30
0.0
  0
POINT
  5
1F1
330
1E7
100
AcDbEntity
  8
Defpoints
 62
     0
100
AcDbPoint
 10
7885.812055403332
 20
653.5250765092034
 30
0.0
  0
ENDBLK
  5
1F2
330
1E7
100
AcDbEntity
  8
0
100
AcDbBlockEnd
  0
BLOCK
  5
1F4
330
1F3
100
AcDbEntity
  8
0
100
AcDbBlockBegin
  2
*D40
 70
     1
 10
0.0
 20
0.0
 30
0.0
  3
*D40
  1

  0
LINE
  5
1F5
330
1F3
100
AcDbEntity
  8
cotas
100
AcDbLine
 10
7955.812055403328
 20
503.5250765092034
 30
0.0
 11
7855.812055403331
 21
503.5250765092034
 31
0.0
  0
LINE
  5
1F6
330
1F3
100
AcDbEntity
  8
cotas
100
AcDbLine
 10
7935.812055403332
 20
653.5250765092036
 30
0.0
 11
7855.812055403331
 21
653.5250765092036
 31
0.0
  0
LINE
  5
1F7
330
1F3
100
AcDbEntity
  8
cotas
100
AcDbLine
 10
7860.812055403332
 20
513.5250765092036
 30
0.0
 11
7860.812055403332
 21
643.5250765092035
 31
0.0
  0
SOLID
  5
1F8
330
1F3
100
AcDbEntity
  8
cotas
100
AcDbTrace
 10
7859.145388736664
 20
513.5250765092036
 30
0.0
 11
7862.478722069998
 21
513.5250765092036
 31
0.0
 12
7860.812055403332
 22
503.5250765092034
 32
0.0
 13
7860.812055403332
 23
503.5250765092034
 33
0.0
  0
SOLID
  5
1F9
330
1F3
100
AcDbEntity
  8
cotas
100
AcDbTrace
 10
7859.145388736664
 20
643.5250765092035
 30
0.0
 11
7862.478722069998
 21
643.5250765092035
 31
0.0
 12
7860.812055403332
 22
653.5250765092036
 32
0.0
 13
7860.812055403332
 23
653.5250765092036
 33
0.0
  0
MTEXT
  5
1FA
330
1F3
100
AcDbEntity
  8
cotas
100
AcDbMText
 10
7850.607219943291
 20
578.5250765092048
 30
0.0
 40
10.0
 41
0.0
 71
     5
 72
     1
  1
150
  7
SANINDUSA
 11
0.0000000000000001
 21
1.0
 31
0.0
 73
     1
 44
1.0
1001
ACAD
1000
MTEXTBEGIN
1070
    73
1070
     1
1070
    44
1040
1.0
1070
    74
1070
     0
1000
MTEXTEND
  0
POINT
  5
1FB
330
1F3
100
AcDbEntity
  8
Defpoints
 62
     0
100
AcDbPoint
 10
7960.812055403329
 20
503.5250765092034
 30
0.0
  0
POINT
  5
1FC
330
1F3
100
AcDbEntity
  8
Defpoints
 62
     0
100
AcDbPoint
 10
7940.812055403331
 20
653.5250765092034
 30
0.0
  0
POINT
  5
1FD
330
1F3
100
AcDbEntity
  8
Defpoints
 62
     0
100
AcDbPoint
 10
7860.812055403332
 20
653.5250765092036
 30
0.0
  0
ENDBLK
  5
1FE
330
1F3
100
AcDbEntity
  8
0
100
AcDbBlockEnd
  0
BLOCK
  5
200
330
1FF
100
AcDbEntity
  8
0
100
AcDbBlockBegin
  2
*D41
 70
     1
 10
0.0
 20
0.0
 30
0.0
  3
*D41
  1

  0
LINE
  5
201
330
1FF
100
AcDbEntity
  8
cotas
100
AcDbLine
 10
8423.370390760696
 20
631.1664302310275
 30
0.0
 11
8436.123018187242
 21
721.9060893026509
 31
0.0
  0
LINE
  5
202
330
1FF
100
AcDbEntity
  8
cotas
100
AcDbLine
 10
8417.313243969147
 20
640.6661276135
 30
0.0
 11
8417.313243969147
 21
723.2213968471008
 31
0.0
  0
ARC
  5
203
330
1FF
100
AcDbEntity
  8
cotas
100
AcDbCircle
 10
8417.313243969145
 20
588.0675913464259
 30
0.0
 40
130.1538055006747
100
AcDbArc
 50
73.18699590626424
 51
81.99999999999375
  0
LINE
  5
204
330
1FF
100
AcDbEntity
  8
cotas
100
AcDbLine
 10
8454.960110750919
 20
712.6578257463293
 30
0.0
 11
8491.424475879188
 21
701.6395537053633
 31
0.0
  0
ARC
  5
205
330
1FF
100
AcDbEntity
  8
cotas
100
AcDbCircle
 10
8417.313243969145
 20
588.0675913464259
 30
0.0
 40
130.1538055006747
100
AcDbArc
 50
73.19351424697187
 51
77.5967571234828
  0
ARC
  5
206
330
1FF
100
AcDbEntity
  8
cotas
100
AcDbCircle
 10
8417.313243969145
 20
588.0675913464259
 30
0.0
 40
130.1538055006747
100
AcDbArc
 50
94.40324287651032
 51
98.80648575302126
  0
ARC
  5
207
330
1FF
100
AcDbEntity
  8
cotas
100
AcDbCircle
 10
8417.313243969145
 20
588.0675913464259
 30
0.0
 40
130.1538055006747
100
AcDbArc
 50
81.99999999999375
 51
89.99999999999939
  0
SOLID
  5
208
330
1FF
100
AcDbEntity
  8
cotas
100
AcDbTrace
 10
8444.973870990159
 20
713.5433053743528
 30
0.0
 11
8445.564246298259
 21
716.823940694942
 31
0.0
 12
8435.427152682441
 22
716.9547489589432
 32
0.0
 13
8435.427152682441
 23
716.9547489589432
 33
0.0
  0
SOLID
  5
209
330
1FF
100
AcDbEntity
  8
cotas
100
AcDbTrace
 10
8407.256598859827
 20
719.5026723533699
 30
0.0
 11
8407.384652485324
 21
716.1717995878462
 31
0.0
 12
8417.313243969147
 22
718.2213968471008
 32
0.0
 13
8417.313243969147
 23
718.2213968471008
 33
0.0
  0
MTEXT
  5
20A
330
1FF
100
AcDbEntity
  8
cotas
100
AcDbMText
 10
8476.477183657308
 20
718.0198535890164
 30
0.0
 40
10.0
 41
0.0
 71
     5
 72
     1
  1
8,0°
  7
SANINDUSA
 11
0.9572538729899696
 21
-0.2892490668017842
 31
0.0
 73
     1
 44
1.0
1001
ACAD
1000
MTEXTBEGIN
1070
    73
1070
     1
1070
    44
1040
1.0
1070
    74
1070
     0
1000
MTEXTEND
  0
POINT
  5
20B
330
1FF
100
AcDbEntity
  8
Defpoints
 62
     0
100
AcDbPoint
 10
8423.368690403796
 20
718.0804547668759
 30
0.0
  0
POINT
  5
20C
330
1FF
100
AcDbEntity
  8
Defpoints
 62
     0
100
AcDbPoint
 10
8417.858609042346
 20
591.9480654759139
 30
0.0
  0
POINT
  5
20D
330
1FF
100
AcDbEntity
  8
Defpoints
 62
     0
100
AcDbPoint
 10
8417.313243969145
 20
588.0675913464108
 30
0.0
  0
POINT
  5
20E
330
1FF
100
AcDbEntity
  8
Defpoints
 62
     0
100
AcDbPoint
 10
8417.313243969147
 20
635.6661276135
 30
0.0
  0
POINT
  5
20F
330
1FF
100
AcDbEntity
  8
Defpoints
 62
     0
100
AcDbPoint
 10
8422.674525255896
 20
626.2150898873195
 30
0.0
  0
ENDBLK
  5
210
330
1FF
100
AcDbEntity
  8
0
100
AcDbBlockEnd
  0
BLOCK
  5
212
330
211
100
AcDbEntity
  8
0
100
AcDbBlockBegin
  2
*D42
 70
     1
 10
0.0
 20
0.0
 30
0.0
  3
*D42
  1

  0
ARC
  5
213
330
211
100
AcDbEntity
  8
cotas
100
AcDbCircle
 10
7974.956110102887
 20
588.4617465601447
 30
0.0
 40
51.00384981383183
100
AcDbArc
 50
67.38627067684909
 51
90.00000000000031
  0
LINE
  5
214
330
211
100
AcDbEntity
  8
cotas
100
AcDbLine
 10
7994.567933603197
 20
635.5443237498509
 30
0.0
 11
8029.731975858178
 21
620.8970586376759
 31
0.0
  0
ARC
  5
215
330
211
100
AcDbEntity
  8
cotas
100
AcDbCircle
 10
7974.956110102887
 20
588.4617465601447
 30
0.0
 40
51.00384981383183
100
AcDbArc
 50
67.49662039889667
 51
78.74831019944848
  0
ARC
  5
216
330
211
100
AcDbEntity
  8
cotas
100
AcDbCircle
 10
7974.956110102887
 20
588.4617465601447
 30
0.0
 40
51.00384981383183
100
AcDbArc
 50
109.2516898005516
 51
120.5033796011035
  0
ARC
  5
217
330
211
100
AcDbEntity
  8
cotas
100
AcDbCircle
 10
7974.956110102887
 20
588.4617465601447
 30
0.0
 40
51.00384981383183
100
AcDbArc
 50
90.00000000000031
 51
97.99999999999981
  0
SOLID
  5
218
330
211
100
AcDbEntity
  8
cotas
100
AcDbTrace
 10
7984.744556555296
 20
636.8266394159875
 30
0.0
 11
7985.071329273973
 21
640.143917019903
 31
0.0
 12
7974.956110102887
 22
639.4655963739767
 32
0.0
 13
7974.956110102887
 23
639.4655963739767
 33
0.0
  0
SOLID
  5
219
330
211
100
AcDbEntity
  8
cotas
100
AcDbTrace
 10
7957.746563622208
 20
638.2331832707714
 30
0.0
 11
7958.531832022135
 21
634.99366715703
 31
0.0
 12
7967.857746163395
 22
638.9692304136732
 32
0.0
 13
7967.857746163395
 23
638.9692304136732
 33
0.0
  0
MTEXT
  5
21A
330
211
100
AcDbEntity
  8
cotas
100
AcDbMText
 10
8016.51676102559
 20
638.7041882764805
 30
0.0
 40
10.0
 41
0.0
 71
     5
 72
     1
  1
8,0°
  7
SANINDUSA
 11
0.9231181050364112
 21
-0.3845165330047399
 31
0.0
 73
     1
 44
1.0
1001
ACAD
1000
MTEXTBEGIN
1070
    73
1070
     1
1070
    44
1040
1.0
1070
    74
1070
     0
1000
MTEXTEND
  0
POINT
  5
21B
330
211
100
AcDbEntity
  8
Defpoints
 62
     0
100
AcDbPoint
 10
7970.215309355828
 20
639.2447900304667
 30
0.0
  0
POINT
  5
21C
330
211
100
AcDbEntity
  8
Defpoints
 62
     0
100
AcDbPoint
 10
7966.416961158817
 20
649.22094841173
 30
0.0
  0
POINT
  5
21D
330
211
100
AcDbEntity
  8
Defpoints
 62
     0
100
AcDbPoint
 10
7974.956110102887
 20
588.4617465601454
 30
0.0
  0
POINT
  5
21E
330
211
100
AcDbEntity
  8
Defpoints
 62
     0
100
AcDbPoint
 10
7974.956110102887
 20
643.138986632508
 30
0.0
  0
POINT
  5
21F
330
211
100
AcDbEntity
  8
Defpoints
 62
     0
100
AcDbPoint
 10
7974.364065143993
 20
592.6743653349499
 30
0.0
  0
ENDBLK
  5
220
330
211
100
AcDbEntity
  8
0
100
AcDbBlockEnd
  0
BLOCK
  5
222
330
221
100
AcDbEntity
  8
0
100
AcDbBlockBegin
  2
*D43
 70
     1
 10
0.0
 20
0.0
 30
0.0
  3
*D43
  1

  0
LINE
  5
223
330
221
100
AcDbEntity
  8
cotas
100
AcDbLine
 10
6618.548585949152
 20
1152.690839610925
 30
0.0
 11
6618.548585949152
 21
1182.690839610925
 31
0.0
  0
LINE
  5
224
330
221
100
AcDbEntity
  8
cotas
100
AcDbLine
 10
7248.548585949151
 20
1152.690839610925
 30
0.0
 11
7248.548585949151
 21
1182.690839610925
 31
0.0
  0
LINE
  5
225
330
221
100
AcDbEntity
  8
cotas
100
AcDbLine
 10
6628.548585949151
 20
1177.690839610925
 30
0.0
 11
7238.548585949152
 21
1177.690839610925
 31
0.0
  0
SOLID
  5
226
330
221
100
AcDbEntity
  8
cotas
100
AcDbTrace
 10
6628.548585949151
 20
1179.357506277592
 30
0.0
 11
6628.548585949151
 21
1176.024172944258
 31
0.0
 12
6618.548585949152
 22
1177.690839610925
 32
0.0
 13
6618.548585949152
 23
1177.690839610925
 33
0.0
  0
SOLID
  5
227
330
221
100
AcDbEntity
  8
cotas
100
AcDbTrace
 10
7238.548585949152
 20
1179.357506277592
 30
0.0
 11
7238.548585949152
 21
1176.024172944258
 31
0.0
 12
7248.548585949151
 22
1177.690839610925
 32
0.0
 13
7248.548585949151
 23
1177.690839610925
 33
0.0
  0
MTEXT
  5
228
330
221
100
AcDbEntity
  8
cotas
100
AcDbMText
 10
6933.548585949153
 20
1187.899033029327
 30
0.0
 40
10.0
 41
0.0
 71
     5
 72
     1
  1
630
  7
SANINDUSA
 73
     1
 44
1.0
1001
ACAD
1000
MTEXTBEGIN
1070
    73
1070
     1
1070
    44
1040
1.0
1070
    74
1070
     0
1000
MTEXTEND
  0
POINT
  5
229
330
221
100
AcDbEntity
  8
Defpoints
 62
     0
100
AcDbPoint
 10
6618.548585949152
 20
1147.690839610925
 30
0.0
  0
POINT
  5
22A
330
221
100
AcDbEntity
  8
Defpoints
 62
     0
100
AcDbPoint
 10
7248.548585949151
 20
1147.690839610925
 30
0.0
  0
POINT
  5
22B
330
221
100
AcDbEntity
  8
Defpoints
 62
     0
100
AcDbPoint
 10
7248.548585949151
 20
1177.690839610925
 30
0.0
  0
ENDBLK
  5
22C
330
221
100
AcDbEntity
  8
0
100
AcDbBlockEnd
  0
BLOCK
  5
22E
330
22D
100
AcDbEntity
  8
0
100
AcDbBlockBegin
  2
*D44
 70
     1
 10
0.0
 20
0.0
 30
0.0
  3
*D44
  1

  0
LINE
  5
22F
330
22D
100
AcDbEntity
  8
cotas
100
AcDbLine
 10
6058.280983991188
 20
1152.690839610925
 30
0.0
 11
6058.280983991188
 21
1182.690839610925
 31
0.0
  0
LINE
  5
230
330
22D
100
AcDbEntity
  8
cotas
100
AcDbLine
 10
6408.280983991192
 20
1153.690839610925
 30
0.0
 11
6408.280983991192
 21
1182.690839610925
 31
0.0
  0
LINE
  5
231
330
22D
100
AcDbEntity
  8
cotas
100
AcDbLine
 10
6068.280983991188
 20
1177.690839610925
 30
0.0
 11
6398.280983991192
 21
1177.690839610925
 31
0.0
  0
SOLID
  5
232
330
22D
100
AcDbEntity
  8
cotas
100
AcDbTrace
 10
6068.280983991188
 20
1179.357506277592
 30
0.0
 11
6068.280983991188
 21
1176.024172944258
 31
0.0
 12
6058.280983991188
 22
1177.690839610925
 32
0.0
 13
6058.280983991188
 23
1177.690839610925
 33
0.0
  0
SOLID
  5
233
330
22D
100
AcDbEntity
  8
cotas
100
AcDbTrace
 10
6398.280983991192
 20
1179.357506277592
 30
0.0
 11
6398.280983991192
 21
1176.024172944258
 31
0.0
 12
6408.280983991192
 22
1177.690839610925
 32
0.0
 13
6408.280983991192
 23
1177.690839610925
 33
0.0
  0
MTEXT
  5
234
330
22D
100
AcDbEntity
  8
cotas
100
AcDbMText
 10
6233.280983991189
 20
1187.899033029327
 30
0.0
 40
10.0
 41
0.0
 71
     5
 72
     1
  1
350
  7
SANINDUSA
 73
     1
 44
1.0
1001
ACAD
1000
MTEXTBEGIN
1070
    73
1070
     1
1070
    44
1040
1.0
1070
    74
1070
     0
1000
MTEXTEND
  0
POINT
  5
235
330
22D
100
AcDbEntity
  8
Defpoints
 62
     0
100
AcDbPoint
 10
6058.280983991188
 20
1147.690839610925
 30
0.0
  0
POINT
  5
236
330
22D
100
AcDbEntity
  8
Defpoints
 62
     0
100
AcDbPoint
 10
6408.280983991192
 20
1148.690839610925
 30
0.0
  0
POINT
  5
237
330
22D
100
AcDbEntity
  8
Defpoints
 62
     0
100
AcDbPoint
 10
6408.280983991192
 20
1177.690839610925
 30
0.0
  0
ENDBLK
  5
238
330
22D
100
AcDbEntity
  8
0
100
AcDbBlockEnd
  0
BLOCK
  5
23A
330
239
100
AcDbEntity
  8
0
100
AcDbBlockBegin
  2
*D45
 70
     1
 10
0.0
 20
0.0
 30
0.0
  3
*D45
  1

  0
LINE
  5
23B
330
239
100
AcDbEntity
  8
cotas
100
AcDbLine
 10
8361.977470528797
 20
585.1791109849353
 30
0.0
 11
8373.348481689234
 21
595.0637801822673
 31
0.0
  0
LINE
  5
23C
330
239
100
AcDbEntity
  8
cotas
100
AcDbLine
 10
8282.112254461404
 20
585.1744408182505
 30
0.0
 11
8270.735870888767
 21
595.0637801822536
 31
0.0
  0
ARC
  5
23D
330
239
100
AcDbEntity
  8
cotas
100
AcDbCircle
 10
8322.042176289006
 20
550.463889331486
 30
0.0
 40
62.98152129603431
100
AcDbArc
 50
50.10681962396166
 51
129.8931803760537
  0
SOLID
  5
23E
330
239
100
AcDbEntity
  8
cotas
100
AcDbTrace
 10
8363.602972154565
 20
599.9757650633569
 30
0.0
 11
8361.268825207391
 21
597.596086694309
 31
0.0
 12
8369.57493378812
 22
591.7834850373142
 32
0.0
 13
8369.57493378812
 23
591.7834850373142
 33
0.0
  0
SOLID
  5
23F
330
239
100
AcDbEntity
  8
cotas
100
AcDbTrace
 10
8282.815527370608
 20
597.5960866942984
 30
0.0
 11
8280.481380423434
 21
599.9757650633458
 31
0.0
 12
8274.509418789881
 22
591.7834850373014
 32
0.0
 13
8274.509418789881
 23
591.7834850373014
 33
0.0
  0
MTEXT
  5
240
330
239
100
AcDbEntity
  8
cotas
100
AcDbMText
 10
8322.042176288997
 20
624.8020258054921
 30
0.0
 40
10.0
 41
0.0
 71
     5
 72
     1
  1
98,0°
  7
SANINDUSA
 73
     1
 44
1.0
1001
ACAD
1000
MTEXTBEGIN
1070
    73
1070
     1
1070
    44
1040
1.0
1070
    74
1070
     0
1000
MTEXTEND
  0
POINT
  5
241
330
239
100
AcDbEntity
  8
Defpoints
 62
     0
100
AcDbPoint
 10
8339.754157983451
 20
610.9035925837229
 30
0.0
  0
POINT
  5
242
330
239
100
AcDbEntity
  8
Defpoints
 62
     0
100
AcDbPoint
 10
8285.885802362519
 20
581.8941456732983
 30
0.0
  0
POINT
  5
243
330
239
100
AcDbEntity
  8
Defpoints
 62
     0
100
AcDbPoint
 10
8347.261881144044
 20
572.3870442936173
 30
0.0
  0
POINT
  5
244
330
239
100
AcDbEntity
  8
Defpoints
 62
     0
100
AcDbPoint
 10
8358.203922627684
 20
581.8988158399821
 30
0.0
  0
POINT
  5
245
330
239
100
AcDbEntity
  8
Defpoints
 62
     0
100
AcDbPoint
 10
8296.82247144164
 20
572.3870442869357
 30
0.0
  0
ENDBLK
  5
246
330
239
100
AcDbEntity
  8
0
100
AcDbBlockEnd
  0
BLOCK
  5
248
330
247
100
AcDbEntity
  8
0
100
AcDbBlockBegin
  2
*D46
 70
     1
 10
0.0
 20
0.0
 30
0.0
  3
*D46
  1

  0
LINE
  5
249
330
247
100
AcDbEntity
  8
cotas
100
AcDbLine
 10
8380.299645888149
 20
617.4828527731865
 30
0.0
 11
8408.929817206482
 21
595.6737625977452
 31
0.0
  0
MTEXT
  5
24A
330
247
100
AcDbEntity
  8
cotas
100
AcDbMText
 10
8396.760022389349
 20
617.6458502090795
 30
0.0
 40
10.0
 41
0.0
 71
     5
 72
     1
  1
R5
  7
SANINDUSA
 11
0.7954902984323756
 21
-0.6059663234041725
 31
0.0
 73
     1
 44
1.0
1001
ACAD
1000
MTEXTBEGIN
1070
    73
1070
     1
1070
    44
1040
1.0
1070
    74
1070
     0
1000
MTEXTEND
  0
SOLID
  5
24B
330
247
100
AcDbEntity
  8
cotas
100
AcDbTrace
 10
8409.939761078822
 20
596.9995797617989
 30
0.0
 11
8407.91987333414
 21
594.3479454336907
 31
0.0
 12
8416.884720190806
 22
589.6140993637036
 32
0.0
 13
8416.884720190806
 23
589.6140993637036
 33
0.0
  0
POINT
  5
24C
330
247
100
AcDbEntity
  8
Defpoints
 62
     0
100
AcDbPoint
 10
8416.884720190806
 20
589.6140993637036
 30
0.0
  0
POINT
  5
24D
330
247
100
AcDbEntity
  8
Defpoints
 62
     0
100
AcDbPoint
 10
8412.907268698647
 20
592.6439309807205
 30
0.0
  0
ENDBLK
  5
24E
330
247
100
AcDbEntity
  8
0
100
AcDbBlockEnd
  0
BLOCK
  5
250
330
24F
100
AcDbEntity
  8
0
100
AcDbBlockBegin
  2
*D47
 70
     1
 10
0.0
 20
0.0
 30
0.0
  3
*D47
  1

  0
LINE
  5
251
330
24F
100
AcDbEntity
  8
cotas
100
AcDbLine
 10
8013.054978225332
 20
616.6483392819245
 30
0.0
 11
7983.430931317666
 21
596.2096757050217
 31
0.0
  0
MTEXT
  5
252
330
24F
100
AcDbEntity
  8
cotas
100
AcDbMText
 10
7996.620475497625
 20
617.5851865577719
 30
0.0
 40
10.0
 41
0.0
 71
     5
 72
     1
  1
R5
  7
SANINDUSA
 11
0.8231051659920284
 21
0.5678889730548001
 31
0.0
 73
     1
 44
1.0
1001
ACAD
1000
MTEXTBEGIN
1070
    73
1070
     1
1070
    44
1040
1.0
1070
    74
1070
     0
1000
MTEXTEND
  0
SOLID
  5
253
330
24F
100
AcDbEntity
  8
cotas
100
AcDbTrace
 10
7982.484449695907
 20
597.5815176483415
 30
0.0
 11
7984.377412939423
 21
594.8378337617018
 31
0.0
 12
7975.199879657745
 22
590.5307859744734
 32
0.0
 13
7975.199879657745
 23
590.5307859744734
 33
0.0
  0
POINT
  5
254
330
24F
100
AcDbEntity
  8
Defpoints
 62
     0
100
AcDbPoint
 10
7975.199879657745
 20
590.5307859744734
 30
0.0
  0
POINT
  5
255
330
24F
100
AcDbEntity
  8
Defpoints
 62
     0
100
AcDbPoint
 10
7979.31540548771
 20
593.3702308397514
 30
0.0
  0
ENDBLK
  5
256
330
24F
100
AcDbEntity
  8
0
100
AcDbBlockEnd
  0
BLOCK
  5
258
330
257
100
AcDbEntity
  8
0
100
AcDbBlockBegin
  2
*D48
 70
     1
 10
0.0
 20
0.0
 30
0.0
  3
*D48
  1

  0
LINE
  5
259
330
257
100
AcDbEntity
  8
cotas
100
AcDbLine
 10
8201.162374487386
 20
653.5250765092034
 30
0.0
 11
8270.724543097443
 21
653.5250765092034
 31
0.0
  0
LINE
  5
25A
330
257
100
AcDbEntity
  8
cotas
100
AcDbLine
 10
8281.535011910303
 20
581.8930560105537
 30
0.0
 11
8260.724543097444
 21
581.8930560105537
 31
0.0
  0
LINE
  5
25B
330
257
100
AcDbEntity
  8
cotas
100
AcDbLine
 10
8265.724543097444
 20
643.5250765092034
 30
0.0
 11
8265.724543097444
 21
591.8930560105537
 31
0.0
  0
SOLID
  5
25C
330
257
100
AcDbEntity
  8
cotas
100
AcDbTrace
 10
8264.057876430777
 20
643.5250765092034
 30
0.0
 11
8267.39120976411
 21
643.5250765092034
 31
0.0
 12
8265.724543097444
 22
653.5250765092034
 32
0.0
 13
8265.724543097444
 23
653.5250765092034
 33
0.0
  0
SOLID
  5
25D
330
257
100
AcDbEntity
  8
cotas
100
AcDbTrace
 10
8264.057876430777
 20
591.8930560105537
 30
0.0
 11
8267.39120976411
 21
591.8930560105537
 31
0.0
 12
8265.724543097444
 22
581.8930560105537
 32
0.0
 13
8265.724543097444
 23
581.8930560105537
 33
0.0
  0
MTEXT
  5
25E
330
257
100
AcDbEntity
  8
cotas
100
AcDbMText
 10
8255.620446388242
 20
617.70906625988
 30
0.0
 40
10.0
 41
0.0
 71
     5
 72
     1
  1
72
  7
SANINDUSA
 11
0.0000000000000001
 21
1.0
 31
0.0
 73
     1
 44
1.0
1001
ACAD
1000
MTEXTBEGIN
1070
    73
1070
     1
1070
    44
1040
1.0
1070
    74
1070
     0
1000
MTEXTEND
  0
POINT
  5
25F
330
257
100
AcDbEntity
  8
Defpoints
 62
     0
100
AcDbPoint
 10
8196.162374487387
 20
653.5250765092034
 30
0.0
  0
POINT
  5
260
330
257
100
AcDbEntity
  8
Defpoints
 62
     0
100
AcDbPoint
 10
8286.535011910302
 20
581.8930560105537
 30
0.0
  0
POINT
  5
261
330
257
100
AcDbEntity
  8
Defpoints
 62
     0
100
AcDbPoint
 10
8265.724543097444
 20
581.8930560105537
 30
0.0
  0
ENDBLK
  5
262
330
257
100
AcDbEntity
  8
0
100
AcDbBlockEnd
  0
BLOCK
  5
264
330
263
100
AcDbEntity
  8
0
100
AcDbBlockBegin
  2
*D49
 70
     1
 10
0.0
 20
0.0
 30
0.0
  3
*D49
  1

  0
LINE
  5
265
330
263
100
AcDbEntity
  8
cotas
100
AcDbLine
 10
8566.81205540333
 20
653.5250765092037
 30
0.0
 11
8645.812055403331
 21
653.5250765092037
 31
0.0
  0
LINE
  5
266
330
263
100
AcDbEntity
  8
cotas
100
AcDbLine
 10
8360.209513940962
 20
533.8921276701661
 30
0.0
 11
8645.812055403331
 21
533.892127670166
 31
0.0
  0
LINE
  5
267
330
263
100
AcDbEntity
  8
cotas
100
AcDbLine
 10
8640.81205540333
 20
643.5250765092036
 30
0.0
 11
8640.81205540333
 21
543.892127670166
 31
0.0
  0
SOLID
  5
268
330
263
100
AcDbEntity
  8
cotas
100
AcDbTrace
 10
8639.145388736663
 20
643.5250765092036
 30
0.0
 11
8642.478722069997
 21
643.5250765092036
 31
0.0
 12
8640.81205540333
 22
653.5250765092037
 32
0.0
 13
8640.81205540333
 23
653.5250765092037
 33
0.0
  0
SOLID
  5
269
330
263
100
AcDbEntity
  8
cotas
100
AcDbTrace
 10
8639.145388736663
 20
543.892127670166
 30
0.0
 11
8642.478722069997
 21
543.892127670166
 31
0.0
 12
8640.81205540333
 22
533.892127670166
 32
0.0
 13
8640.81205540333
 23
533.892127670166
 33
0.0
  0
MTEXT
  5
26A
330
263
100
AcDbEntity
  8
cotas
100
AcDbMText
 10
8630.603861984928
 20
593.7086020896862
 30
0.0
 40
10.0
 41
0.0
 71
     5
 72
     1
  1
120
  7
SANINDUSA
 11
0.0000000000000001
 21
1.0
 31
0.0
 73
     1
 44
1.0
1001
ACAD
1000
MTEXTBEGIN
1070
    73
1070
     1
1070
    44
1040
1.0
1070
    74
1070
     0
1000
MTEXTEND
  0
POINT
  5
26B
330
263
100
AcDbEntity
  8
Defpoints
 62
     0
100
AcDbPoint
 10
8561.812055403331
 20
653.5250765092037
 30
0.0
  0
POINT
  5
26C
330
263
100
AcDbEntity
  8
Defpoints
 62
     0
100
AcDbPoint
 10
8355.209513940961
 20
533.8921276701661
 30
0.0
  0
POINT
  5
26D
330
263
100
AcDbEntity
  8
Defpoints
 62
     0
100
AcDbPoint
 10
8640.81205540333
 20
533.892127670166
 30
0.0
  0
ENDBLK
  5
26E
330
263
100
AcDbEntity
  8
0
100
AcDbBlockEnd
  0
BLOCK
  5
910
330
907
100
AcDbEntity
  8
0
100
AcDbBlockBegin
  2
*D51
 70
     1
 10
0.0
 20
0.0
 30
0.0
  3
*D51
  1

  0
LINE
  5
975
330
907
100
AcDbEntity
  8
cotas
100
AcDbLine
 10
1241.859744359067
 20
602.5351999386158
 30
0.0
 11
1241.859744359067
 21
663.0801842711531
 31
0.0
  0
LINE
  5
976
330
907
100
AcDbEntity
  8
cotas
100
AcDbLine
 10
1251.859744359067
 20
658.0801842711531
 30
0.0
 11
1295.792555859562
 21
658.0801842711531
 31
0.0
  0
SOLID
  5
977
330
907
100
AcDbEntity
  8
cotas
100
AcDbTrace
 10
1251.859744359067
 20
659.7468509378197
 30
0.0
 11
1251.859744359067
 21
656.4135176044865
 31
0.0
 12
1241.859744359067
 22
658.0801842711531
 32
0.0
 13
1241.859744359067
 23
658.0801842711531
 33
0.0
  0
SOLID
  5
978
330
907
100
AcDbEntity
  8
cotas
100
AcDbTrace
 10
1295.792555859562
 20
659.7468509378197
 30
0.0
 11
1295.792555859562
 21
656.4135176044865
 31
0.0
 12
1305.792555859562
 22
658.0801842711531
 32
0.0
 13
1305.792555859562
 23
658.0801842711531
 33
0.0
  0
MTEXT
  5
979
330
907
100
AcDbEntity
  8
cotas
100
AcDbMText
 10
1273.826150109315
 20
668.2783038144708
 30
0.0
 40
10.0
 41
0.0
 71
     5
 72
     1
  1
64
  7
SANINDUSA
 73
     1
 44
1.0
1001
ACAD
1000
MTEXTBEGIN
1070
    73
1070
     1
1070
    44
1040
1.0
1070
    74
1070
     0
1000
MTEXTEND
  0
POINT
  5
97A
330
907
100
AcDbEntity
  8
Defpoints
 62
     0
100
AcDbPoint
 10
1241.859744359067
 20
597.5351999386158
 30
0.0
  0
POINT
  5
97B
330
907
100
AcDbEntity
  8
Defpoints
 62
     0
100
AcDbPoint
 10
1305.792555859562
 20
658.0801842711531
 30
0.0
  0
POINT
  5
97C
330
907
100
AcDbEntity
  8
Defpoints
 62
     0
100
AcDbPoint
 10
1305.792555859562
 20
658.0801842711531
 30
0.0
  0
ENDBLK
  5
911
330
907
100
AcDbEntity
  8
0
100
AcDbBlockEnd
  0
BLOCK
  5
91C
330
912
100
AcDbEntity
  8
0
100
AcDbBlockBegin
  2
*D52
 70
     1
 10
0.0
 20
0.0
 30
0.0
  3
*D52
  1

  0
LINE
  5
97D
330
912
100
AcDbEntity
  8
cotas
100
AcDbLine
 10
1305.792555859562
 20
638.0914469369504
 30
0.0
 11
1305.792555859562
 21
688.0913570583438
 31
0.0
  0
LINE
  5
97E
330
912
100
AcDbEntity
  8
cotas
100
AcDbLine
 10
1137.994163403413
 20
638.0914469369504
 30
0.0
 11
1137.994163403413
 21
688.0913570583438
 31
0.0
  0
LINE
  5
97F
330
912
100
AcDbEntity
  8
cotas
100
AcDbLine
 10
1295.792555859562
 20
683.0913570583438
 30
0.0
 11
1147.994163403413
 21
683.0913570583438
 31
0.0
  0
SOLID
  5
980
330
912
100
AcDbEntity
  8
cotas
100
AcDbTrace
 10
1295.792555859562
 20
684.7580237250105
 30
0.0
 11
1295.792555859562
 21
681.4246903916772
 31
0.0
 12
1305.792555859562
 22
683.0913570583438
 32
0.0
 13
1305.792555859562
 23
683.0913570583438
 33
0.0
  0
SOLID
  5
981
330
912
100
AcDbEntity
  8
cotas
100
AcDbTrace
 10
1147.994163403413
 20
684.7580237250105
 30
0.0
 11
1147.994163403413
 21
681.4246903916772
 31
0.0
 12
1137.994163403413
 22
683.0913570583438
 32
0.0
 13
1137.994163403413
 23
683.0913570583438
 33
0.0
  0
MTEXT
  5
982
330
912
100
AcDbEntity
  8
cotas
100
AcDbMText
 10
1221.893359631488
 20
693.3196982269134
 30
0.0
 40
10.0
 41
0.0
 71
     5
 72
     1
  1
168
  7
SANINDUSA
 73
     1
 44
1.0
1001
ACAD
1000
MTEXTBEGIN
1070
    73
1070
     1
1070
    44
1040
1.0
1070
    74
1070
     0
1000
MTEXTEND
  0
POINT
  5
983
330
912
100
AcDbEntity
  8
Defpoints
 62
     0
100
AcDbPoint
 10
1305.792555859562
 20
633.0914469369504
 30
0.0
  0
POINT
  5
984
330
912
100
AcDbEntity
  8
Defpoints
 62
     0
100
AcDbPoint
 10
1137.994163403413
 20
633.0914469369504
 30
0.0
  0
POINT
  5
985
330
912
100
AcDbEntity
  8
Defpoints
 62
     0
100
AcDbPoint
 10
1137.994163403413
 20
683.0913570583438
 30
0.0
  0
ENDBLK
  5
91D
330
912
100
AcDbEntity
  8
0
100
AcDbBlockEnd
  0
BLOCK
  5
92A
330
91E
100
AcDbEntity
  8
0
100
AcDbBlockBegin
  2
*D53
 70
     1
 10
0.0
 20
0.0
 30
0.0
  3
*D53
  1

  0
LINE
  5
A57
330
91E
100
AcDbEntity
  8
cotas
100
AcDbLine
 10
2658.429159311395
 20
554.3820473078585
 30
0.0
 11
2729.027482299762
 21
554.3820473078585
 31
0.0
  0
LINE
  5
A58
330
91E
100
AcDbEntity
  8
cotas
100
AcDbLine
 10
2700.365410903784
 20
566.3820473078596
 30
0.0
 11
2729.027482299762
 21
566.3820473078596
 31
0.0
  0
LINE
  5
A59
330
91E
100
AcDbEntity
  8
cotas
100
AcDbLine
 10
2724.027482299762
 20
544.3820473078585
 30
0.0
 11
2724.027482299762
 21
534.3820473078586
 31
0.0
  0
LINE
  5
A5A
330
91E
100
AcDbEntity
  8
cotas
100
AcDbLine
 10
2724.027482299762
 20
576.3820473078595
 30
0.0
 11
2724.027482299762
 21
611.1100526805929
 31
0.0
  0
LINE
  5
A5B
330
91E
100
AcDbEntity
  8
cotas
100
AcDbLine
 10
2724.027482299762
 20
554.3820473078585
 30
0.0
 11
2724.027482299762
 21
566.3820473078596
 31
0.0
  0
SOLID
  5
A5C
330
91E
100
AcDbEntity
  8
cotas
100
AcDbTrace
 10
2722.360815633096
 20
544.3820473078585
 30
0.0
 11
2725.694148966429
 21
544.3820473078585
 31
0.0
 12
2724.027482299762
 22
554.3820473078585
 32
0.0
 13
2724.027482299762
 23
554.3820473078585
 33
0.0
  0
SOLID
  5
A5D
330
91E
100
AcDbEntity
  8
cotas
100
AcDbTrace
 10
2722.360815633096
 20
576.3820473078595
 30
0.0
 11
2725.694148966429
 21
576.3820473078595
 31
0.0
 12
2724.027482299762
 22
566.3820473078596
 32
0.0
 13
2724.027482299762
 23
566.3820473078596
 33
0.0
  0
MTEXT
  5
A5E
330
91E
100
AcDbEntity
  8
cotas
100
AcDbMText
 10
2713.923385590562
 20
598.7460499942267
 30
0.0
 40
10.0
 41
0.0
 71
     5
 72
     1
  1
12
  7
SANINDUSA
 11
0.0000000000000001
 21
1.0
 31
0.0
 73
     1
 44
1.0
1001
ACAD
1000
MTEXTBEGIN
1070
    73
1070
     1
1070
    44
1040
1.0
1070
    74
1070
     0
1000
MTEXTEND
  0
POINT
  5
A5F
330
91E
100
AcDbEntity
  8
Defpoints
 62
     0
100
AcDbPoint
 10
2653.429159311395
 20
554.3820473078585
 30
0.0
  0
POINT
  5
A60
330
91E
100
AcDbEntity
  8
Defpoints
 62
     0
100
AcDbPoint
 10
2695.365410903784
 20
566.3820473078596
 30
0.0
  0
POINT
  5
A61
330
91E
100
AcDbEntity
  8
Defpoints
 62
     0
100
AcDbPoint
 10
2724.027482299762
 20
566.3820473078596
 30
0.0
  0
ENDBLK
  5
92B
330
91E
100
AcDbEntity
  8
0
100
AcDbBlockEnd
  0
BLOCK
  5
936
330
92C
100
AcDbEntity
  8
0
100
AcDbBlockBegin
  2
*D54
 70
     1
 10
0.0
 20
0.0
 30
0.0
  3
*D54
  1

  0
LINE
  5
AA4
330
92C
100
AcDbEntity
  8
cotas
100
AcDbLine
 10
2658.25760318543
 20
559.3820473078586
 30
0.0
 11
2658.25760318543
 21
596.3820473078595
 31
0.0
  0
LINE
  5
AA5
330
92C
100
AcDbEntity
  8
cotas
100
AcDbLine
 10
2699.027482299762
 20
567.3820473078587
 30
0.0
 11
2699.027482299762
 21
596.3820473078595
 31
0.0
  0
LINE
  5
AA6
330
92C
100
AcDbEntity
  8
cotas
100
AcDbLine
 10
2668.25760318543
 20
591.3820473078596
 30
0.0
 11
2689.027482299762
 21
591.3820473078596
 31
0.0
  0
SOLID
  5
AA7
330
92C
100
AcDbEntity
  8
cotas
100
AcDbTrace
 10
2668.25760318543
 20
593.0487139745261
 30
0.0
 11
2668.25760318543
 21
589.7153806411929
 31
0.0
 12
2658.25760318543
 22
591.3820473078596
 32
0.0
 13
2658.25760318543
 23
591.3820473078596
 33
0.0
  0
SOLID
  5
AA8
330
92C
100
AcDbEntity
  8
cotas
100
AcDbTrace
 10
2689.027482299762
 20
593.0487139745261
 30
0.0
 11
2689.027482299762
 21
589.7153806411929
 31
0.0
 12
2699.027482299762
 22
591.3820473078596
 32
0.0
 13
2699.027482299762
 23
591.3820473078596
 33
0.0
  0
MTEXT
  5
AA9
330
92C
100
AcDbEntity
  8
cotas
100
AcDbMText
 10
2678.642542742596
 20
601.3988370996661
 30
0.0
 40
10.0
 41
0.0
 71
     5
 72
     1
  1
41
  7
SANINDUSA
 73
     1
 44
1.0
1001
ACAD
1000
MTEXTBEGIN
1070
    73
1070
     1
1070
    44
1040
1.0
1070
    74
1070
     0
1000
MTEXTEND
  0
POINT
  5
AAA
330
92C
100
AcDbEntity
  8
Defpoints
 62
     0
100
AcDbPoint
 10
2658.25760318543
 20
554.3820473078585
 30
0.0
  0
POINT
  5
AAB
330
92C
100
AcDbEntity
  8
Defpoints
 62
     0
100
AcDbPoint
 10
2699.027482299762
 20
562.3820473078587
 30
0.0
  0
POINT
  5
AAC
330
92C
100
AcDbEntity
  8
Defpoints
 62
     0
100
AcDbPoint
 10
2699.027482299762
 20
591.3820473078596
 30
0.0
  0
ENDBLK
  5
937
330
92C
100
AcDbEntity
  8
0
100
AcDbBlockEnd
  0
BLOCK
  5
943
330
938
100
AcDbEntity
  8
0
100
AcDbBlockBegin
  2
*D55
 70
     1
 10
0.0
 20
0.0
 30
0.0
  3
*D55
  1

  0
LINE
  5
AAD
330
938
100
AcDbEntity
  8
cotas
100
AcDbLine
 10
2677.541050079099
 20
526.3820473078584
 30
0.0
 11
2677.541050079099
 21
386.3820473078728
 31
0.0
  0
LINE
  5
AAE
330
938
100
AcDbEntity
  8
cotas
100
AcDbLine
 10
2699.027482299762
 20
529.1230942195612
 30
0.0
 11
2699.027482299762
 21
386.3820473078728
 31
0.0
  0
LINE
  5
AAF
330
938
100
AcDbEntity
  8
cotas
100
AcDbLine
 10
2677.541050079099
 20
391.3820473078727
 30
0.0
 11
2689.027482299762
 21
391.3820473078727
 31
0.0
  0
LINE
  5
AB0
330
938
100
AcDbEntity
  8
cotas
100
AcDbLine
 10
2699.027482299762
 20
391.3820473078727
 30
0.0
 11
2733.97039700762
 21
391.3820473078727
 31
0.0
  0
INSERT
  5
AB1
330
938
100
AcDbEntity
  8
cotas
100
AcDbBlockReference
  2
_DotSmall
 10
2677.541050079099
 20
391.3820473078727
 30
0.0
 41
10.0
 42
10.0
 43
10.0
 50
180.0
  0
SOLID
  5
AB2
330
938
100
AcDbEntity
  8
cotas
100
AcDbTrace
 10
2689.027482299762
 20
393.0487139745395
 30
0.0
 11
2689.027482299762
 21
389.7153806412061
 31
0.0
 12
2699.027482299762
 22
391.3820473078727
 32
0.0
 13
2699.027482299762
 23
391.3820473078727
 33
0.0
  0
MTEXT
  5
AB3
330
938
100
AcDbEntity
  8
cotas
100
AcDbMText
 10
2721.498939653691
 20
401.4861440170736
 30
0.0
 40
10.0
 41
0.0
 71
     5
 72
     1
  1
21
  7
SANINDUSA
 73
     1
 44
1.0
1001
ACAD
1000
MTEXTBEGIN
1070
    73
1070
     1
1070
    44
1040
1.0
1070
    74
1070
     0
1000
MTEXTEND
  0
POINT
  5
AB4
330
938
100
AcDbEntity
  8
Defpoints
 62
     0
100
AcDbPoint
 10
2677.541050079099
 20
531.3820473078584
 30
0.0
  0
POINT
  5
AB5
330
938
100
AcDbEntity
  8
Defpoints
 62
     0
100
AcDbPoint
 10
2699.027482299762
 20
534.1230942195612
 30
0.0
  0
POINT
  5
AB6
330
938
100
AcDbEntity
  8
Defpoints
 62
     0
100
AcDbPoint
 10
2699.027482299762
 20
391.3820473078727
 30
0.0
  0
ENDBLK
  5
944
330
938
100
AcDbEntity
  8
0
100
AcDbBlockEnd
  0
BLOCK
  5
94F
330
945
100
AcDbEntity
  8
0
100
AcDbBlockBegin
  2
*D56
 70
     1
 10
0.0
 20
0.0
 30
0.0
  3
*D56
  1

  0
LINE
  5
B02
330
945
100
AcDbEntity
  8
cotas
100
AcDbLine
 10
2069.027482299763
 20
566.3820473078584
 30
0.0
 11
2039.027482299763
 21
566.3820473078584
 31
0.0
  0
LINE
  5
B03
330
945
100
AcDbEntity
  8
cotas
100
AcDbLine
 10
2103.171536999319
 20
501.3187173588004
 30
0.0
 11
2039.027482299763
 21
501.3187173588004
 31
0.0
  0
LINE
  5
B04
330
945
100
AcDbEntity
  8
cotas
100
AcDbLine
 10
2044.027482299763
 20
556.3820473078584
 30
0.0
 11
2044.027482299763
 21
511.3187173588004
 31
0.0
  0
SOLID
  5
B05
330
945
100
AcDbEntity
  8
cotas
100
AcDbTrace
 10
2042.360815633097
 20
556.3820473078584
 30
0.0
 11
2045.69414896643
 21
556.3820473078584
 31
0.0
 12
2044.027482299763
 22
566.3820473078584
 32
0.0
 13
2044.027482299763
 23
566.3820473078584
 33
0.0
  0
SOLID
  5
B06
330
945
100
AcDbEntity
  8
cotas
100
AcDbTrace
 10
2042.360815633097
 20
511.3187173588004
 30
0.0
 11
2045.69414896643
 21
511.3187173588004
 31
0.0
 12
2044.027482299763
 22
501.3187173588004
 32
0.0
 13
2044.027482299763
 23
501.3187173588004
 33
0.0
  0
MTEXT
  5
B07
330
945
100
AcDbEntity
  8
cotas
100
AcDbMText
 10
2033.829362756446
 20
533.8503823333297
 30
0.0
 40
10.0
 41
0.0
 71
     5
 72
     1
  1
65
  7
SANINDUSA
 11
0.0000000000000001
 21
1.0
 31
0.0
 73
     1
 44
1.0
1001
ACAD
1000
MTEXTBEGIN
1070
    73
1070
     1
1070
    44
1040
1.0
1070
    74
1070
     0
1000
MTEXTEND
  0
POINT
  5
B08
330
945
100
AcDbEntity
  8
Defpoints
 62
     0
100
AcDbPoint
 10
2074.027482299763
 20
566.3820473078584
 30
0.0
  0
POINT
  5
B09
330
945
100
AcDbEntity
  8
Defpoints
 62
     0
100
AcDbPoint
 10
2108.17153699932
 20
501.3187173588004
 30
0.0
  0
POINT
  5
B0A
330
945
100
AcDbEntity
  8
Defpoints
 62
     0
100
AcDbPoint
 10
2044.027482299763
 20
501.3187173588004
 30
0.0
  0
ENDBLK
  5
950
330
945
100
AcDbEntity
  8
0
100
AcDbBlockEnd
  0
BLOCK
  5
95B
330
951
100
AcDbEntity
  8
0
100
AcDbBlockBegin
  2
*D57
 70
     1
 10
0.0
 20
0.0
 30
0.0
  3
*D57
  1

  0
LINE
  5
B0B
330
951
100
AcDbEntity
  8
cotas
100
AcDbLine
 10
2114.241916104401
 20
490.9519248657128
 30
0.0
 11
2014.027482299763
 21
490.9519248657128
 31
0.0
  0
LINE
  5
B0C
330
951
100
AcDbEntity
  8
cotas
100
AcDbLine
 10
2039.027482299763
 20
566.3820473078584
 30
0.0
 11
2014.027482299763
 21
566.3820473078584
 31
0.0
  0
LINE
  5
B0D
330
951
100
AcDbEntity
  8
cotas
100
AcDbLine
 10
2019.027482299763
 20
500.9519248657128
 30
0.0
 11
2019.027482299763
 21
556.3820473078584
 31
0.0
  0
SOLID
  5
B0E
330
951
100
AcDbEntity
  8
cotas
100
AcDbTrace
 10
2017.360815633096
 20
500.9519248657128
 30
0.0
 11
2020.69414896643
 21
500.9519248657128
 31
0.0
 12
2019.027482299763
 22
490.9519248657128
 32
0.0
 13
2019.027482299763
 23
490.9519248657128
 33
0.0
  0
SOLID
  5
B0F
330
951
100
AcDbEntity
  8
cotas
100
AcDbTrace
 10
2017.360815633097
 20
556.3820473078584
 30
0.0
 11
2020.69414896643
 21
556.3820473078584
 31
0.0
 12
2019.027482299763
 22
566.3820473078584
 32
0.0
 13
2019.027482299763
 23
566.3820473078584
 33
0.0
  0
MTEXT
  5
B10
330
951
100
AcDbEntity
  8
cotas
100
AcDbMText
 10
2008.923385590562
 20
528.6669860867859
 30
0.0
 40
10.0
 41
0.0
 71
     5
 72
     1
  1
75
  7
SANINDUSA
 11
0.0000000000000001
 21
1.0
 31
0.0
 73
     1
 44
1.0
1001
ACAD
1000
MTEXTBEGIN
1070
    73
1070
     1
1070
    44
1040
1.0
1070
    74
1070
     0
1000
MTEXTEND
  0
POINT
  5
B11
330
951
100
AcDbEntity
  8
Defpoints
 62
     0
100
AcDbPoint
 10
2119.241916104401
 20
490.9519248657128
 30
0.0
  0
POINT
  5
B12
330
951
100
AcDbEntity
  8
Defpoints
 62
     0
100
AcDbPoint
 10
2044.027482299763
 20
566.3820473078584
 30
0.0
  0
POINT
  5
B13
330
951
100
AcDbEntity
  8
Defpoints
 62
     0
100
AcDbPoint
 10
2019.027482299763
 20
566.3820473078584
 30
0.0
  0
ENDBLK
  5
95C
330
951
100
AcDbEntity
  8
0
100
AcDbBlockEnd
  0
BLOCK
  5
967
330
95D
100
AcDbEntity
  8
0
100
AcDbBlockBegin
  2
*D58
 70
     1
 10
0.0
 20
0.0
 30
0.0
  3
*D58
  1

  0
LINE
  5
B14
330
95D
100
AcDbEntity
  8
cotas
100
AcDbLine
 10
2089.02748229976
 20
416.3820473078584
 30
0.0
 11
1989.027482299763
 21
416.3820473078584
 31
0.0
  0
LINE
  5
B15
330
95D
100
AcDbEntity
  8
cotas
100
AcDbLine
 10
2069.027482299763
 20
566.3820473078584
 30
0.0
 11
1989.027482299763
 21
566.3820473078584
 31
0.0
  0
LINE
  5
B16
330
95D
100
AcDbEntity
  8
cotas
100
AcDbLine
 10
1994.027482299763
 20
426.3820473078584
 30
0.0
 11
1994.027482299763
 21
556.3820473078584
 31
0.0
  0
SOLID
  5
B17
330
95D
100
AcDbEntity
  8
cotas
100
AcDbTrace
 10
1992.360815633096
 20
426.3820473078584
 30
0.0
 11
1995.694148966429
 21
426.3820473078584
 31
0.0
 12
1994.027482299763
 22
416.3820473078584
 32
0.0
 13
1994.027482299763
 23
416.3820473078584
 33
0.0
  0
SOLID
  5
B18
330
95D
100
AcDbEntity
  8
cotas
100
AcDbTrace
 10
1992.360815633096
 20
556.3820473078584
 30
0.0
 11
1995.69414896643
 21
556.3820473078584
 31
0.0
 12
1994.027482299763
 22
566.3820473078584
 32
0.0
 13
1994.027482299763
 23
566.3820473078584
 33
0.0
  0
MTEXT
  5
B19
330
95D
100
AcDbEntity
  8
cotas
100
AcDbMText
 10
1983.822646839722
 20
491.3820473078588
 30
0.0
 40
10.0
 41
0.0
 71
     5
 72
     1
  1
150
  7
SANINDUSA
 11
0.0000000000000001
 21
1.0
 31
0.0
 73
     1
 44
1.0
1001
ACAD
1000
MTEXTBEGIN
1070
    73
1070
     1
1070
    44
1040
1.0
1070
    74
1070
     0
1000
MTEXTEND
  0
POINT
  5
B1A
330
95D
100
AcDbEntity
  8
Defpoints
 62
     0
100
AcDbPoint
 10
2094.027482299761
 20
416.3820473078584
 30
0.0
  0
POINT
  5
B1B
330
95D
100
AcDbEntity
  8
Defpoints
 62
     0
100
AcDbPoint
 10
2074.027482299763
 20
566.3820473078584
 30
0.0
  0
POINT
  5
B1C
330
95D
100
AcDbEntity
  8
Defpoints
 62
     0
100
AcDbPoint
 10
1994.027482299763
 20
566.3820473078584
 30
0.0
  0
ENDBLK
  5
968
330
95D
100
AcDbEntity
  8
0
100
AcDbBlockEnd
  0
BLOCK
  5
973
330
969
100
AcDbEntity
  8
0
100
AcDbBlockBegin
  2
*D59
 70
     1
 10
0.0
 20
0.0
 30
0.0
  3
*D59
  1

  0
LINE
  5
96A
330
969
100
AcDbEntity
  8
cotas
100
AcDbLine
 10
1381.764012845583
 20
634.0914469369501
 30
0.0
 11
1381.764012845583
 21
663.0801842711531
 31
0.0
  0
LINE
  5
96B
330
969
100
AcDbEntity
  8
cotas
100
AcDbLine
 10
1305.792555859562
 20
487.9418138208661
 30
0.0
 11
1305.792555859562
 21
663.0801842711531
 31
0.0
  0
LINE
  5
96C
330
969
100
AcDbEntity
  8
cotas
100
AcDbLine
 10
1371.764012845584
 20
658.0801842711531
 30
0.0
 11
1315.792555859562
 21
658.0801842711531
 31
0.0
  0
SOLID
  5
96D
330
969
100
AcDbEntity
  8
cotas
100
AcDbTrace
 10
1371.764012845584
 20
659.7468509378197
 30
0.0
 11
1371.764012845584
 21
656.4135176044865
 31
0.0
 12
1381.764012845583
 22
658.0801842711531
 32
0.0
 13
1381.764012845583
 23
658.0801842711531
 33
0.0
  0
SOLID
  5
96E
330
969
100
AcDbEntity
  8
cotas
100
AcDbTrace
 10
1315.792555859562
 20
659.7468509378197
 30
0.0
 11
1315.792555859562
 21
656.4135176044865
 31
0.0
 12
1305.792555859562
 22
658.0801842711531
 32
0.0
 13
1305.792555859562
 23
658.0801842711531
 33
0.0
  0
MTEXT
  5
96F
330
969
100
AcDbEntity
  8
cotas
100
AcDbMText
 10
1343.778284352573
 20
668.2783038144708
 30
0.0
 40
10.0
 41
0.0
 71
     5
 72
     1
  1
76
  7
SANINDUSA
 73
     1
 44
1.0
1001
ACAD
1000
MTEXTBEGIN
1070
    73
1070
     1
1070
    44
1040
1.0
1070
    74
1070
     0
1000
MTEXTEND
  0
POINT
  5
970
330
969
100
AcDbEntity
  8
Defpoints
 62
     0
100
AcDbPoint
 10
1381.764012845583
 20
629.0914469369501
 30
0.0
  0
POINT
  5
971
330
969
100
AcDbEntity
  8
Defpoints
 62
     0
100
AcDbPoint
 10
1305.792555859562
 20
482.9418138208661
 30
0.0
  0
POINT
  5
972
330
969
100
AcDbEntity
  8
Defpoints
 62
     0
100
AcDbPoint
 10
1305.792555859562
 20
658.0801842711531
 30
0.0
  0
ENDBLK
  5
974
330
969
100
AcDbEntity
  8
0
100
AcDbBlockEnd
  0
BLOCK
  5
98F
330
986
100
AcDbEntity
  8
0
100
AcDbBlockBegin
  2
*D60
 70
     1
 10
0.0
 20
0.0
 30
0.0
  3
*D60
  1

  0
LINE
  5
BA9
330
986
100
AcDbEntity
  8
cotas
100
AcDbLine
 10
1363.089945575501
 20
505.0286648830508
 30
0.0
 11
1327.065908373613
 21
475.5182789156237
 31
0.0
  0
LINE
  5
BAA
330
986
100
AcDbEntity
  8
cotas
100
AcDbLine
 10
1284.519203345509
 20
440.664614958276
 30
0.0
 11
1276.783438794945
 21
434.3275851478494
 31
0.0
  0
MTEXT
  5
BAB
330
986
100
AcDbEntity
  8
cotas
100
AcDbMText
 10
1342.038489315439
 20
501.8739182119149
 30
0.0
 40
10.0
 41
0.0
 71
     5
 72
     1
  1
\U+220535
  7
SANINDUSA
 11
0.7735764550564057
 21
0.6337029810426686
 31
0.0
 73
     1
 44
1.0
1001
ACAD
1000
MTEXTBEGIN
1070
    73
1070
     1
1070
    44
1040
1.0
1070
    74
1070
     0
1000
MTEXTEND
  0
LINE
  5
BAC
330
986
100
AcDbEntity
  8
cotas
100
AcDbLine
 10
1292.254967896073
 20
447.0016447687027
 30
0.0
 11
1319.330143823049
 21
469.1812491051971
 31
0.0
  0
SOLID
  5
BAD
330
986
100
AcDbEntity
  8
cotas
100
AcDbTrace
 10
1283.463031710438
 20
441.9539090500367
 30
0.0
 11
1285.575374980581
 21
439.3753208665152
 31
0.0
 12
1292.254967896073
 22
447.0016447687027
 32
0.0
 13
1292.254967896073
 23
447.0016447687027
 33
0.0
  0
SOLID
  5
BAE
330
986
100
AcDbEntity
  8
cotas
100
AcDbTrace
 10
1326.009736738542
 20
476.8075730073844
 30
0.0
 11
1328.122080008684
 21
474.2289848238629
 31
0.0
 12
1319.330143823049
 22
469.1812491051971
 32
0.0
 13
1319.330143823049
 23
469.1812491051971
 33
0.0
  0
POINT
  5
BAF
330
986
100
AcDbEntity
  8
Defpoints
 62
     0
100
AcDbPoint
 10
1319.330143823049
 20
469.1812491051971
 30
0.0
  0
POINT
  5
BB0
330
986
100
AcDbEntity
  8
Defpoints
 62
     0
100
AcDbPoint
 10
1292.254967896073
 20
447.0016447687027
 30
0.0
  0
ENDBLK
  5
990
330
986
100
AcDbEntity
  8
0
100
AcDbBlockEnd
  0
BLOCK
  5
99A
330
991
100
AcDbEntity
  8
0
100
AcDbBlockBegin
  2
*D61
 70
     1
 10
0.0
 20
0.0
 30
0.0
  3
*D61
  1

  0
LINE
  5
BCE
330
991
100
AcDbEntity
  8
cotas
100
AcDbLine
 10
1207.520855362557
 20
500.276580494873
 30
0.0
 11
1166.634571897851
 21
475.4689456113826
 31
0.0
  0
LINE
  5
BCF
330
991
100
AcDbEntity
  8
cotas
100
AcDbLine
 10
1109.35375490898
 20
440.7139746707102
 30
0.0
 11
1100.804379238998
 21
435.5266655750871
 31
0.0
  0
MTEXT
  5
BD0
330
991
100
AcDbEntity
  8
cotas
100
AcDbMText
 10
1186.189040097896
 20
500.0829533805553
 30
0.0
 40
10.0
 41
0.0
 71
     5
 72
     1
  1
\U+220547
  7
SANINDUSA
 11
0.8549375669981216
 21
0.5187309095623015
 31
0.0
 73
     1
 44
1.0
1001
ACAD
1000
MTEXTBEGIN
1070
    73
1070
     1
1070
    44
1040
1.0
1070
    74
1070
     0
1000
MTEXTEND
  0
LINE
  5
BD1
330
991
100
AcDbEntity
  8
cotas
100
AcDbLine
 10
1117.903130578961
 20
445.9012837663332
 30
0.0
 11
1158.08519622787
 21
470.2816365157596
 31
0.0
  0
SOLID
  5
BD2
330
991
100
AcDbEntity
  8
cotas
100
AcDbTrace
 10
1108.489203393043
 20
442.138870615707
 30
0.0
 11
1110.218306424917
 21
439.2890787257133
 31
0.0
 12
1117.903130578961
 22
445.9012837663332
 32
0.0
 13
1117.903130578961
 23
445.9012837663332
 33
0.0
  0
SOLID
  5
BD3
330
991
100
AcDbEntity
  8
cotas
100
AcDbTrace
 10
1165.770020381914
 20
476.8938415563795
 30
0.0
 11
1167.499123413788
 21
474.0440496663858
 31
0.0
 12
1158.08519622787
 22
470.2816365157596
 32
0.0
 13
1158.08519622787
 23
470.2816365157596
 33
0.0
  0
POINT
  5
BD4
330
991
100
AcDbEntity
  8
Defpoints
 62
     0
100
AcDbPoint
 10
1158.08519622787
 20
470.2816365157596
 30
0.0
  0
POINT
  5
BD5
330
991
100
AcDbEntity
  8
Defpoints
 62
     0
100
AcDbPoint
 10
1117.903130578961
 20
445.9012837663332
 30
0.0
  0
ENDBLK
  5
99B
330
991
100
AcDbEntity
  8
0
100
AcDbBlockEnd
  0
BLOCK
  5
9A6
330
99C
100
AcDbEntity
  8
0
100
AcDbBlockBegin
  2
*D62
 70
     1
 10
0.0
 20
0.0
 30
0.0
  3
*D62
  1

  0
LINE
  5
99D
330
99C
100
AcDbEntity
  8
cotas
100
AcDbLine
 10
782.3689141593645
 20
313.647691787109
 30
0.0
 11
782.3689141593645
 21
253.0914469369504
 31
0.0
  0
LINE
  5
99E
330
99C
100
AcDbEntity
  8
cotas
100
AcDbLine
 10
1241.859749764417
 20
313.647693935285
 30
0.0
 11
1241.859749764417
 21
253.0914469369504
 31
0.0
  0
LINE
  5
99F
330
99C
100
AcDbEntity
  8
cotas
100
AcDbLine
 10
792.3689141593645
 20
258.0914469369504
 30
0.0
 11
1231.859749764417
 21
258.0914469369504
 31
0.0
  0
SOLID
  5
9A0
330
99C
100
AcDbEntity
  8
cotas
100
AcDbTrace
 10
792.3689141593645
 20
259.7581136036171
 30
0.0
 11
792.3689141593645
 21
256.4247802702837
 31
0.0
 12
782.3689141593645
 22
258.0914469369504
 32
0.0
 13
782.3689141593645
 23
258.0914469369504
 33
0.0
  0
SOLID
  5
9A1
330
99C
100
AcDbEntity
  8
cotas
100
AcDbTrace
 10
1231.859749764417
 20
259.7581136036171
 30
0.0
 11
1231.859749764417
 21
256.4247802702837
 31
0.0
 12
1241.859749764417
 22
258.0914469369504
 32
0.0
 13
1241.859749764417
 23
258.0914469369504
 33
0.0
  0
MTEXT
  5
9A2
330
99C
100
AcDbEntity
  8
cotas
100
AcDbMText
 10
1012.114331961891
 20
268.2962823969907
 30
0.0
 40
10.0
 41
0.0
 71
     5
 72
     1
  1
459
  7
SANINDUSA
 73
     1
 44
1.0
1001
ACAD
1000
MTEXTBEGIN
1070
    73
1070
     1
1070
    44
1040
1.0
1070
    74
1070
     0
1000
MTEXTEND
  0
POINT
  5
9A3
330
99C
100
AcDbEntity
  8
Defpoints
 62
     0
100
AcDbPoint
 10
782.3689141593645
 20
318.647691787109
 30
0.0
  0
POINT
  5
9A4
330
99C
100
AcDbEntity
  8
Defpoints
 62
     0
100
AcDbPoint
 10
1241.859749764417
 20
318.647693935285
 30
0.0
  0
POINT
  5
9A5
330
99C
100
AcDbEntity
  8
Defpoints
 62
     0
100
AcDbPoint
 10
1241.859749764417
 20
258.0914469369504
 30
0.0
  0
ENDBLK
  5
9A7
330
99C
100
AcDbEntity
  8
0
100
AcDbBlockEnd
  0
BLOCK
  5
9B2
330
9A8
100
AcDbEntity
  8
0
100
AcDbBlockBegin
  2
*D63
 70
     1
 10
0.0
 20
0.0
 30
0.0
  3
*D63
  1

  0
LINE
  5
9A9
330
9A8
100
AcDbEntity
  8
cotas
100
AcDbLine
 10
751.7640128455837
 20
283.0914469369504
 30
0.0
 11
751.7640128455837
 21
253.0914469369504
 31
0.0
  0
LINE
  5
9AA
330
9A8
100
AcDbEntity
  8
cotas
100
AcDbLine
 10
782.3689141593645
 20
283.0914469369504
 30
0.0
 11
782.3689141593645
 21
253.0914469369504
 31
0.0
  0
LINE
  5
9AB
330
9A8
100
AcDbEntity
  8
cotas
100
AcDbLine
 10
761.7640128455836
 20
258.0914469369504
 30
0.0
 11
772.3689141593645
 21
258.0914469369504
 31
0.0
  0
SOLID
  5
9AC
330
9A8
100
AcDbEntity
  8
cotas
100
AcDbTrace
 10
761.7640128455836
 20
259.7581136036171
 30
0.0
 11
761.7640128455836
 21
256.4247802702837
 31
0.0
 12
751.7640128455837
 22
258.0914469369504
 32
0.0
 13
751.7640128455837
 23
258.0914469369504
 33
0.0
  0
SOLID
  5
9AD
330
9A8
100
AcDbEntity
  8
cotas
100
AcDbTrace
 10
772.3689141593645
 20
259.7581136036171
 30
0.0
 11
772.3689141593645
 21
256.4247802702837
 31
0.0
 12
782.3689141593645
 22
258.0914469369504
 32
0.0
 13
782.3689141593645
 23
258.0914469369504
 33
0.0
  0
MTEXT
  5
9AE
330
9A8
100
AcDbEntity
  8
cotas
100
AcDbMText
 10
767.0664635024741
 20
268.299640355352
 30
0.0
 40
10.0
 41
0.0
 71
     5
 72
     1
  1
31
  7
SANINDUSA
 73
     1
 44
1.0
1001
ACAD
1000
MTEXTBEGIN
1070
    73
1070
     1
1070
    44
1040
1.0
1070
    74
1070
     0
1000
MTEXTEND
  0
POINT
  5
9AF
330
9A8
100
AcDbEntity
  8
Defpoints
 62
     0
100
AcDbPoint
 10
751.7640128455837
 20
288.0914469369504
 30
0.0
  0
POINT
  5
9B0
330
9A8
100
AcDbEntity
  8
Defpoints
 62
     0
100
AcDbPoint
 10
782.3689141593645
 20
288.0914469369504
 30
0.0
  0
POINT
  5
9B1
330
9A8
100
AcDbEntity
  8
Defpoints
 62
     0
100
AcDbPoint
 10
782.3689141593645
 20
258.0914469369504
 30
0.0
  0
ENDBLK
  5
9B3
330
9A8
100
AcDbEntity
  8
0
100
AcDbBlockEnd
  0
BLOCK
  5
9BE
330
9B4
100
AcDbEntity
  8
0
100
AcDbBlockBegin
  2
*D64
 70
     1
 10
0.0
 20
0.0
 30
0.0
  3
*D64
  1

  0
LINE
  5
9B5
330
9B4
100
AcDbEntity
  8
cotas
100
AcDbLine
 10
1381.764012845583
 20
283.0914469369504
 30
0.0
 11
1381.764012845583
 21
253.0914469369504
 31
0.0
  0
LINE
  5
9B6
330
9B4
100
AcDbEntity
  8
cotas
100
AcDbLine
 10
1241.859749764417
 20
308.647693935285
 30
0.0
 11
1241.859749764417
 21
253.0914469369504
 31
0.0
  0
LINE
  5
9B7
330
9B4
100
AcDbEntity
  8
cotas
100
AcDbLine
 10
1371.764012845584
 20
258.0914469369504
 30
0.0
 11
1251.859749764417
 21
258.0914469369504
 31
0.0
  0
SOLID
  5
9B8
330
9B4
100
AcDbEntity
  8
cotas
100
AcDbTrace
 10
1371.764012845584
 20
259.7581136036171
 30
0.0
 11
1371.764012845584
 21
256.4247802702837
 31
0.0
 12
1381.764012845583
 22
258.0914469369504
 32
0.0
 13
1381.764012845583
 23
258.0914469369504
 33
0.0
  0
SOLID
  5
9B9
330
9B4
100
AcDbEntity
  8
cotas
100
AcDbTrace
 10
1251.859749764417
 20
259.7581136036171
 30
0.0
 11
1251.859749764417
 21
256.4247802702837
 31
0.0
 12
1241.859749764417
 22
258.0914469369504
 32
0.0
 13
1241.859749764417
 23
258.0914469369504
 33
0.0
  0
MTEXT
  5
9BA
330
9B4
100
AcDbEntity
  8
cotas
100
AcDbMText
 10
1311.811881305
 20
268.2962823969907
 30
0.0
 40
10.0
 41
0.0
 71
     5
 72
     1
  1
140
  7
SANINDUSA
 73
     1
 44
1.0
1001
ACAD
1000
MTEXTBEGIN
1070
    73
1070
     1
1070
    44
1040
1.0
1070
    74
1070
     0
1000
MTEXTEND
  0
POINT
  5
9BB
330
9B4
100
AcDbEntity
  8
Defpoints
 62
     0
100
AcDbPoint
 10
1381.764012845583
 20
288.0914469369504
 30
0.0
  0
POINT
  5
9BC
330
9B4
100
AcDbEntity
  8
Defpoints
 62
     0
100
AcDbPoint
 10
1241.859749764417
 20
313.647693935285
 30
0.0
  0
POINT
  5
9BD
330
9B4
100
AcDbEntity
  8
Defpoints
 62
     0
100
AcDbPoint
 10
1241.859749764417
 20
258.0914469369504
 30
0.0
  0
ENDBLK
  5
9BF
330
9B4
100
AcDbEntity
  8
0
100
AcDbBlockEnd
  0
BLOCK
  5
9CA
330
9C0
100
AcDbEntity
  8
0
100
AcDbBlockBegin
  2
*D65
 70
     1
 10
0.0
 20
0.0
 30
0.0
  3
*D65
  1

  0
LINE
  5
9C1
330
9C0
100
AcDbEntity
  8
cotas
100
AcDbLine
 10
1241.908404015362
 20
602.4865402823236
 30
0.0
 11
1411.763965490295
 21
602.4865402823235
 31
0.0
  0
LINE
  5
9C2
330
9C0
100
AcDbEntity
  8
cotas
100
AcDbLine
 10
1382.764012845583
 20
633.0914469369504
 30
0.0
 11
1411.763965490295
 21
633.0914469369504
 31
0.0
  0
LINE
  5
9C3
330
9C0
100
AcDbEntity
  8
cotas
100
AcDbLine
 10
1406.763965490295
 20
612.4865402823234
 30
0.0
 11
1406.763965490295
 21
623.0914469369504
 31
0.0
  0
SOLID
  5
9C4
330
9C0
100
AcDbEntity
  8
cotas
100
AcDbTrace
 10
1405.097298823628
 20
612.4865402823234
 30
0.0
 11
1408.430632156962
 21
612.4865402823234
 31
0.0
 12
1406.763965490295
 22
602.4865402823235
 32
0.0
 13
1406.763965490295
 23
602.4865402823235
 33
0.0
  0
SOLID
  5
9C5
330
9C0
100
AcDbEntity
  8
cotas
100
AcDbTrace
 10
1405.097298823628
 20
623.0914469369504
 30
0.0
 11
1408.430632156962
 21
623.0914469369504
 31
0.0
 12
1406.763965490295
 22
633.0914469369504
 32
0.0
 13
1406.763965490295
 23
633.0914469369504
 33
0.0
  0
MTEXT
  5
9C6
330
9C0
100
AcDbEntity
  8
cotas
100
AcDbMText
 10
1396.555772071893
 20
617.7889936096372
 30
0.0
 40
10.0
 41
0.0
 71
     5
 72
     1
  1
31
  7
SANINDUSA
 11
0.0000000000000001
 21
1.0
 31
0.0
 73
     1
 44
1.0
1001
ACAD
1000
MTEXTBEGIN
1070
    73
1070
     1
1070
    44
1040
1.0
1070
    74
1070
     0
1000
MTEXTEND
  0
POINT
  5
9C7
330
9C0
100
AcDbEntity
  8
Defpoints
 62
     0
100
AcDbPoint
 10
1236.908404015362
 20
602.4865402823236
 30
0.0
  0
POINT
  5
9C8
330
9C0
100
AcDbEntity
  8
Defpoints
 62
     0
100
AcDbPoint
 10
1377.764012845583
 20
633.0914469369504
 30
0.0
  0
POINT
  5
9C9
330
9C0
100
AcDbEntity
  8
Defpoints
 62
     0
100
AcDbPoint
 10
1406.763965490295
 20
633.0914469369504
 30
0.0
  0
ENDBLK
  5
9CB
330
9C0
100
AcDbEntity
  8
0
100
AcDbBlockEnd
  0
BLOCK
  5
9D6
330
9CC
100
AcDbEntity
  8
0
100
AcDbBlockBegin
  2
*D66
 70
     1
 10
0.0
 20
0.0
 30
0.0
  3
*D66
  1

  0
LINE
  5
9CD
330
9CC
100
AcDbEntity
  8
cotas
100
AcDbLine
 10
1386.764012845584
 20
602.4865402823236
 30
0.0
 11
1411.763965490296
 21
602.4865402823236
 31
0.0
  0
LINE
  5
9CE
330
9CC
100
AcDbEntity
  8
cotas
100
AcDbLine
 10
1241.908404015362
 20
313.6963535915767
 30
0.0
 11
1411.763965490295
 21
313.6963535915766
 31
0.0
  0
LINE
  5
9CF
330
9CC
100
AcDbEntity
  8
cotas
100
AcDbLine
 10
1406.763965490296
 20
592.4865402823236
 30
0.0
 11
1406.763965490295
 21
323.6963535915767
 31
0.0
  0
SOLID
  5
9D0
330
9CC
100
AcDbEntity
  8
cotas
100
AcDbTrace
 10
1405.097298823629
 20
592.4865402823236
 30
0.0
 11
1408.430632156962
 21
592.4865402823236
 31
0.0
 12
1406.763965490296
 22
602.4865402823236
 32
0.0
 13
1406.763965490296
 23
602.4865402823236
 33
0.0
  0
SOLID
  5
9D1
330
9CC
100
AcDbEntity
  8
cotas
100
AcDbTrace
 10
1405.097298823628
 20
323.6963535915767
 30
0.0
 11
1408.430632156962
 21
323.6963535915766
 31
0.0
 12
1406.763965490295
 22
313.6963535915767
 32
0.0
 13
1406.763965490295
 23
313.6963535915767
 33
0.0
  0
MTEXT
  5
9D2
330
9CC
100
AcDbEntity
  8
cotas
100
AcDbMText
 10
1396.535624321726
 20
482.2276690375487
 30
0.0
 40
10.0
 41
0.0
 71
     5
 72
     1
  1
289
  7
SANINDUSA
 11
0.0000000000000001
 21
1.0
 31
0.0
 73
     1
 44
1.0
1001
ACAD
1000
MTEXTBEGIN
1070
    73
1070
     1
1070
    44
1040
1.0
1070
    74
1070
     0
1000
MTEXTEND
  0
POINT
  5
9D3
330
9CC
100
AcDbEntity
  8
Defpoints
 62
     0
100
AcDbPoint
 10
1381.764012845583
 20
602.4865402823236
 30
0.0
  0
POINT
  5
9D4
330
9CC
100
AcDbEntity
  8
Defpoints
 62
     0
100
AcDbPoint
 10
1236.908404015362
 20
313.6963535915767
 30
0.0
  0
POINT
  5
9D5
330
9CC
100
AcDbEntity
  8
Defpoints
 62
     0
100
AcDbPoint
 10
1406.763965490295
 20
313.6963535915767
 30
0.0
  0
ENDBLK
  5
9D7
330
9CC
100
AcDbEntity
  8
0
100
AcDbBlockEnd
  0
BLOCK
  5
9E2
330
9D8
100
AcDbEntity
  8
0
100
AcDbBlockBegin
  2
*D67
 70
     1
 10
0.0
 20
0.0
 30
0.0
  3
*D67
  1

  0
LINE
  5
9D9
330
9D8
100
AcDbEntity
  8
cotas
100
AcDbLine
 10
1241.908404015362
 20
313.6963535915767
 30
0.0
 11
1411.763965490295
 21
313.6963535915766
 31
0.0
  0
LINE
  5
9DA
330
9D8
100
AcDbEntity
  8
cotas
100
AcDbLine
 10
1382.764012845583
 20
283.0914469369502
 30
0.0
 11
1411.763965490295
 21
283.0914469369501
 31
0.0
  0
LINE
  5
9DB
330
9D8
100
AcDbEntity
  8
cotas
100
AcDbLine
 10
1406.763965490295
 20
303.6963535915767
 30
0.0
 11
1406.763965490295
 21
293.0914469369502
 31
0.0
  0
SOLID
  5
9DC
330
9D8
100
AcDbEntity
  8
cotas
100
AcDbTrace
 10
1405.097298823628
 20
303.6963535915767
 30
0.0
 11
1408.430632156962
 21
303.6963535915766
 31
0.0
 12
1406.763965490295
 22
313.6963535915767
 32
0.0
 13
1406.763965490295
 23
313.6963535915767
 33
0.0
  0
SOLID
  5
9DD
330
9D8
100
AcDbEntity
  8
cotas
100
AcDbTrace
 10
1405.097298823628
 20
293.0914469369502
 30
0.0
 11
1408.430632156962
 21
293.0914469369501
 31
0.0
 12
1406.763965490295
 22
283.0914469369502
 32
0.0
 13
1406.763965490295
 23
283.0914469369502
 33
0.0
  0
MTEXT
  5
9DE
330
9D8
100
AcDbEntity
  8
cotas
100
AcDbMText
 10
1396.555772071894
 20
298.3939002642636
 30
0.0
 40
10.0
 41
0.0
 71
     5
 72
     1
  1
31
  7
SANINDUSA
 11
0.0000000000000001
 21
1.0
 31
0.0
 73
     1
 44
1.0
1001
ACAD
1000
MTEXTBEGIN
1070
    73
1070
     1
1070
    44
1040
1.0
1070
    74
1070
     0
1000
MTEXTEND
  0
POINT
  5
9DF
330
9D8
100
AcDbEntity
  8
Defpoints
 62
     0
100
AcDbPoint
 10
1236.908404015362
 20
313.6963535915767
 30
0.0
  0
POINT
  5
9E0
330
9D8
100
AcDbEntity
  8
Defpoints
 62
     0
100
AcDbPoint
 10
1377.764012845583
 20
283.0914469369502
 30
0.0
  0
POINT
  5
9E1
330
9D8
100
AcDbEntity
  8
Defpoints
 62
     0
100
AcDbPoint
 10
1406.763965490295
 20
283.0914469369502
 30
0.0
  0
ENDBLK
  5
9E3
330
9D8
100
AcDbEntity
  8
0
100
AcDbBlockEnd
  0
BLOCK
  5
9EE
330
9E4
100
AcDbEntity
  8
0
100
AcDbBlockBegin
  2
*D68
 70
     1
 10
0.0
 20
0.0
 30
0.0
  3
*D68
  1

  0
LINE
  5
9E5
330
9E4
100
AcDbEntity
  8
cotas
100
AcDbLine
 10
542.4964108876233
 20
1030.54781040958
 30
0.0
 11
571.4964108876197
 21
1030.54781040958
 31
0.0
  0
LINE
  5
9E6
330
9E4
100
AcDbEntity
  8
cotas
100
AcDbLine
 10
542.4964108876224
 20
1065.54781040958
 30
0.0
 11
571.4964108876197
 21
1065.54781040958
 31
0.0
  0
LINE
  5
9E7
330
9E4
100
AcDbEntity
  8
cotas
100
AcDbLine
 10
566.4964108876197
 20
1040.54781040958
 30
0.0
 11
566.4964108876197
 21
1055.54781040958
 31
0.0
  0
SOLID
  5
9E8
330
9E4
100
AcDbEntity
  8
cotas
100
AcDbTrace
 10
564.8297442209531
 20
1040.54781040958
 30
0.0
 11
568.1630775542863
 21
1040.54781040958
 31
0.0
 12
566.4964108876197
 22
1030.54781040958
 32
0.0
 13
566.4964108876197
 23
1030.54781040958
 33
0.0
  0
SOLID
  5
9E9
330
9E4
100
AcDbEntity
  8
cotas
100
AcDbTrace
 10
564.8297442209531
 20
1055.54781040958
 30
0.0
 11
568.1630775542863
 21
1055.54781040958
 31
0.0
 12
566.4964108876197
 22
1065.54781040958
 32
0.0
 13
566.4964108876197
 23
1065.54781040958
 33
0.0
  0
MTEXT
  5
9EA
330
9E4
100
AcDbEntity
  8
cotas
100
AcDbMText
 10
556.2882174692179
 20
1048.04781040958
 30
0.0
 40
10.0
 41
0.0
 71
     5
 72
     1
  1
35
  7
SANINDUSA
 11
0.0000000000000001
 21
1.0
 31
0.0
 73
     1
 44
1.0
1001
ACAD
1000
MTEXTBEGIN
1070
    73
1070
     1
1070
    44
1040
1.0
1070
    74
1070
     0
1000
MTEXTEND
  0
POINT
  5
9EB
330
9E4
100
AcDbEntity
  8
Defpoints
 62
     0
100
AcDbPoint
 10
537.4964108876233
 20
1030.54781040958
 30
0.0
  0
POINT
  5
9EC
330
9E4
100
AcDbEntity
  8
Defpoints
 62
     0
100
AcDbPoint
 10
537.4964108876224
 20
1065.54781040958
 30
0.0
  0
POINT
  5
9ED
330
9E4
100
AcDbEntity
  8
Defpoints
 62
     0
100
AcDbPoint
 10
566.4964108876197
 20
1065.54781040958
 30
0.0
  0
ENDBLK
  5
9EF
330
9E4
100
AcDbEntity
  8
0
100
AcDbBlockEnd
  0
BLOCK
  5
9F9
330
9F0
100
AcDbEntity
  8
0
100
AcDbBlockBegin
  2
*D69
 70
     1
 10
0.0
 20
0.0
 30
0.0
  3
*D69
  1

  0
LINE
  5
9F1
330
9F0
100
AcDbEntity
  8
cotas
100
AcDbLine
 10
542.4964108876233
 20
915.0226890937121
 30
0.0
 11
571.4964108876197
 21
915.0226890937121
 31
0.0
  0
LINE
  5
9F2
330
9F0
100
AcDbEntity
  8
cotas
100
AcDbLine
 10
566.4964108876197
 20
925.0226890937121
 30
0.0
 11
566.4964108876197
 21
1020.54781040958
 31
0.0
  0
SOLID
  5
9F3
330
9F0
100
AcDbEntity
  8
cotas
100
AcDbTrace
 10
564.8297442209531
 20
925.0226890937121
 30
0.0
 11
568.1630775542863
 21
925.0226890937121
 31
0.0
 12
566.4964108876197
 22
915.0226890937121
 32
0.0
 13
566.4964108876197
 23
915.0226890937121
 33
0.0
  0
SOLID
  5
9F4
330
9F0
100
AcDbEntity
  8
cotas
100
AcDbTrace
 10
564.8297442209531
 20
1020.54781040958
 30
0.0
 11
568.1630775542863
 21
1020.54781040958
 31
0.0
 12
566.4964108876197
 22
1030.54781040958
 32
0.0
 13
566.4964108876197
 23
1030.54781040958
 33
0.0
  0
MTEXT
  5
9F5
330
9F0
100
AcDbEntity
  8
cotas
100
AcDbMText
 10
556.2982913443018
 20
972.7852497516462
 30
0.0
 40
10.0
 41
0.0
 71
     5
 72
     1
  1
116
  7
SANINDUSA
 11
0.0000000000000001
 21
1.0
 31
0.0
 73
     1
 44
1.0
1001
ACAD
1000
MTEXTBEGIN
1070
    73
1070
     1
1070
    44
1040
1.0
1070
    74
1070
     0
1000
MTEXTEND
  0
POINT
  5
9F6
330
9F0
100
AcDbEntity
  8
Defpoints
 62
     0
100
AcDbPoint
 10
537.4964108876233
 20
915.0226890937121
 30
0.0
  0
POINT
  5
9F7
330
9F0
100
AcDbEntity
  8
Defpoints
 62
     0
100
AcDbPoint
 10
566.4964108876197
 20
1030.54781040958
 30
0.0
  0
POINT
  5
9F8
330
9F0
100
AcDbEntity
  8
Defpoints
 62
     0
100
AcDbPoint
 10
566.4964108876197
 20
1030.54781040958
 30
0.0
  0
ENDBLK
  5
9FA
330
9F0
100
AcDbEntity
  8
0
100
AcDbBlockEnd
  0
BLOCK
  5
A05
330
9FB
100
AcDbEntity
  8
0
100
AcDbBlockBegin
  2
*D70
 70
     1
 10
0.0
 20
0.0
 30
0.0
  3
*D70
  1

  0
LINE
  5
9FC
330
9FB
100
AcDbEntity
  8
cotas
100
AcDbLine
 10
542.4964108876233
 20
895.5502348180301
 30
0.0
 11
596.4964108876197
 21
895.5502348180301
 31
0.0
  0
LINE
  5
9FD
330
9FB
100
AcDbEntity
  8
cotas
100
AcDbLine
 10
542.4964108876233
 20
1065.54781040958
 30
0.0
 11
596.4964108876197
 21
1065.54781040958
 31
0.0
  0
LINE
  5
9FE
330
9FB
100
AcDbEntity
  8
cotas
100
AcDbLine
 10
591.4964108876197
 20
905.5502348180301
 30
0.0
 11
591.4964108876197
 21
1055.54781040958
 31
0.0
  0
SOLID
  5
9FF
330
9FB
100
AcDbEntity
  8
cotas
100
AcDbTrace
 10
589.8297442209531
 20
905.5502348180301
 30
0.0
 11
593.1630775542863
 21
905.5502348180301
 31
0.0
 12
591.4964108876197
 22
895.5502348180301
 32
0.0
 13
591.4964108876197
 23
895.5502348180301
 33
0.0
  0
SOLID
  5
A00
330
9FB
100
AcDbEntity
  8
cotas
100
AcDbTrace
 10
589.8297442209531
 20
1055.54781040958
 30
0.0
 11
593.1630775542863
 21
1055.54781040958
 31
0.0
 12
591.4964108876197
 22
1065.54781040958
 32
0.0
 13
591.4964108876197
 23
1065.54781040958
 33
0.0
  0
MTEXT
  5
A01
330
9FB
100
AcDbEntity
  8
cotas
100
AcDbMText
 10
581.2915754275793
 20
980.5490226138054
 30
0.0
 40
10.0
 41
0.0
 71
     5
 72
     1
  1
170
  7
SANINDUSA
 11
0.0000000000000001
 21
1.0
 31
0.0
 73
     1
 44
1.0
1001
ACAD
1000
MTEXTBEGIN
1070
    73
1070
     1
1070
    44
1040
1.0
1070
    74
1070
     0
1000
MTEXTEND
  0
POINT
  5
A02
330
9FB
100
AcDbEntity
  8
Defpoints
 62
     0
100
AcDbPoint
 10
537.4964108876233
 20
895.5502348180301
 30
0.0
  0
POINT
  5
A03
330
9FB
100
AcDbEntity
  8
Defpoints
 62
     0
100
AcDbPoint
 10
537.4964108876233
 20
1065.54781040958
 30
0.0
  0
POINT
  5
A04
330
9FB
100
AcDbEntity
  8
Defpoints
 62
     0
100
AcDbPoint
 10
591.4964108876197
 20
1065.54781040958
 30
0.0
  0
ENDBLK
  5
A06
330
9FB
100
AcDbEntity
  8
0
100
AcDbBlockEnd
  0
BLOCK
  5
A11
330
A07
100
AcDbEntity
  8
0
100
AcDbBlockBegin
  2
*D71
 70
     1
 10
0.0
 20
0.0
 30
0.0
  3
*D71
  1

  0
LINE
  5
A08
330
A07
100
AcDbEntity
  8
cotas
100
AcDbLine
 10
541.4964108876233
 20
894.5502348180305
 30
0.0
 11
541.4964108876233
 21
865.5502348180302
 31
0.0
  0
LINE
  5
A09
330
A07
100
AcDbEntity
  8
cotas
100
AcDbLine
 10
226.4964102915687
 20
914.5478105995708
 30
0.0
 11
226.4964102915687
 21
865.5502348180302
 31
0.0
  0
LINE
  5
A0A
330
A07
100
AcDbEntity
  8
cotas
100
AcDbLine
 10
531.4964108876234
 20
870.5502348180301
 30
0.0
 11
236.4964102915688
 21
870.5502348180301
 31
0.0
  0
SOLID
  5
A0B
330
A07
100
AcDbEntity
  8
cotas
100
AcDbTrace
 10
531.4964108876234
 20
872.2169014846967
 30
0.0
 11
531.4964108876234
 21
868.8835681513635
 31
0.0
 12
541.4964108876233
 22
870.5502348180301
 32
0.0
 13
541.4964108876233
 23
870.5502348180301
 33
0.0
  0
SOLID
  5
A0C
330
A07
100
AcDbEntity
  8
cotas
100
AcDbTrace
 10
236.4964102915688
 20
872.2169014846967
 30
0.0
 11
236.4964102915688
 21
868.8835681513635
 31
0.0
 12
226.4964102915687
 22
870.5502348180301
 32
0.0
 13
226.4964102915687
 23
870.5502348180301
 33
0.0
  0
MTEXT
  5
A0D
330
A07
100
AcDbEntity
  8
cotas
100
AcDbMText
 10
383.996410589596
 20
880.7584282364317
 30
0.0
 40
10.0
 41
0.0
 71
     5
 72
     1
  1
315
  7
SANINDUSA
 73
     1
 44
1.0
1001
ACAD
1000
MTEXTBEGIN
1070
    73
1070
     1
1070
    44
1040
1.0
1070
    74
1070
     0
1000
MTEXTEND
  0
POINT
  5
A0E
330
A07
100
AcDbEntity
  8
Defpoints
 62
     0
100
AcDbPoint
 10
541.4964108876233
 20
899.5502348180306
 30
0.0
  0
POINT
  5
A0F
330
A07
100
AcDbEntity
  8
Defpoints
 62
     0
100
AcDbPoint
 10
226.4964102915687
 20
919.5478105995709
 30
0.0
  0
POINT
  5
A10
330
A07
100
AcDbEntity
  8
Defpoints
 62
     0
100
AcDbPoint
 10
226.4964102915687
 20
870.5502348180301
 30
0.0
  0
ENDBLK
  5
A12
330
A07
100
AcDbEntity
  8
0
100
AcDbBlockEnd
  0
BLOCK
  5
A1D
330
A13
100
AcDbEntity
  8
0
100
AcDbBlockBegin
  2
*D72
 70
     1
 10
0.0
 20
0.0
 30
0.0
  3
*D72
  1

  0
LINE
  5
BB1
330
A13
100
AcDbEntity
  8
cotas
100
AcDbLine
 10
226.4964102915687
 20
914.5478105995708
 30
0.0
 11
226.4964102915687
 21
865.5502348180302
 31
0.0
  0
LINE
  5
BB2
330
A13
100
AcDbEntity
  8
cotas
100
AcDbLine
 10
191.4964108876197
 20
1001.690839800916
 30
0.0
 11
191.4964108876197
 21
865.5502348180302
 31
0.0
  0
LINE
  5
BB3
330
A13
100
AcDbEntity
  8
cotas
100
AcDbLine
 10
216.4964102915687
 20
870.5502348180301
 30
0.0
 11
201.4964108876197
 21
870.5502348180301
 31
0.0
  0
SOLID
  5
BB4
330
A13
100
AcDbEntity
  8
cotas
100
AcDbTrace
 10
216.4964102915687
 20
872.2169014846967
 30
0.0
 11
216.4964102915687
 21
868.8835681513635
 31
0.0
 12
226.4964102915687
 22
870.5502348180301
 32
0.0
 13
226.4964102915687
 23
870.5502348180301
 33
0.0
  0
SOLID
  5
BB5
330
A13
100
AcDbEntity
  8
cotas
100
AcDbTrace
 10
201.4964108876197
 20
872.2169014846967
 30
0.0
 11
201.4964108876197
 21
868.8835681513635
 31
0.0
 12
191.4964108876197
 22
870.5502348180301
 32
0.0
 13
191.4964108876197
 23
870.5502348180301
 33
0.0
  0
MTEXT
  5
BB6
330
A13
100
AcDbEntity
  8
cotas
100
AcDbMText
 10
208.9964105895942
 20
880.7584282364317
 30
0.0
 40
10.0
 41
0.0
 71
     5
 72
     1
  1
35
  7
SANINDUSA
 73
     1
 44
1.0
1001
ACAD
1000
MTEXTBEGIN
1070
    73
1070
     1
1070
    44
1040
1.0
1070
    74
1070
     0
1000
MTEXTEND
  0
POINT
  5
BB7
330
A13
100
AcDbEntity
  8
Defpoints
 62
     0
100
AcDbPoint
 10
226.4964102915687
 20
919.5478105995709
 30
0.0
  0
POINT
  5
BB8
330
A13
100
AcDbEntity
  8
Defpoints
 62
     0
100
AcDbPoint
 10
191.4964108876197
 20
1006.690839800916
 30
0.0
  0
POINT
  5
BB9
330
A13
100
AcDbEntity
  8
Defpoints
 62
     0
100
AcDbPoint
 10
191.4964108876197
 20
870.5502348180301
 30
0.0
  0
ENDBLK
  5
A1E
330
A13
100
AcDbEntity
  8
0
100
AcDbBlockEnd
  0
BLOCK
  5
A29
330
A1F
100
AcDbEntity
  8
0
100
AcDbBlockBegin
  2
*D73
 70
     1
 10
0.0
 20
0.0
 30
0.0
  3
*D73
  1

  0
LINE
  5
A20
330
A1F
100
AcDbEntity
  8
cotas
100
AcDbLine
 10
1382.764012845583
 20
1065.54781040958
 30
0.0
 11
1411.764012845584
 21
1065.54781040958
 31
0.0
  0
LINE
  5
A21
330
A1F
100
AcDbEntity
  8
cotas
100
AcDbLine
 10
1382.764012845583
 20
915.54781040958
 30
0.0
 11
1411.764012845584
 21
915.54781040958
 31
0.0
  0
LINE
  5
A22
330
A1F
100
AcDbEntity
  8
cotas
100
AcDbLine
 10
1406.764012845584
 20
1055.54781040958
 30
0.0
 11
1406.764012845584
 21
925.54781040958
 31
0.0
  0
SOLID
  5
A23
330
A1F
100
AcDbEntity
  8
cotas
100
AcDbTrace
 10
1405.097346178917
 20
1055.54781040958
 30
0.0
 11
1408.43067951225
 21
1055.54781040958
 31
0.0
 12
1406.764012845584
 22
1065.54781040958
 32
0.0
 13
1406.764012845584
 23
1065.54781040958
 33
0.0
  0
SOLID
  5
A24
330
A1F
100
AcDbEntity
  8
cotas
100
AcDbTrace
 10
1405.097346178917
 20
925.54781040958
 30
0.0
 11
1408.43067951225
 21
925.54781040958
 31
0.0
 12
1406.764012845584
 22
915.54781040958
 32
0.0
 13
1406.764012845584
 23
915.54781040958
 33
0.0
  0
MTEXT
  5
A25
330
A1F
100
AcDbEntity
  8
cotas
100
AcDbMText
 10
1396.559177385543
 20
990.5478104095804
 30
0.0
 40
10.0
 41
0.0
 71
     5
 72
     1
  1
150
  7
SANINDUSA
 11
0.0000000000000001
 21
1.0
 31
0.0
 73
     1
 44
1.0
1001
ACAD
1000
MTEXTBEGIN
1070
    73
1070
     1
1070
    44
1040
1.0
1070
    74
1070
     0
1000
MTEXTEND
  0
POINT
  5
A26
330
A1F
100
AcDbEntity
  8
Defpoints
 62
     0
100
AcDbPoint
 10
1377.764012845583
 20
1065.54781040958
 30
0.0
  0
POINT
  5
A27
330
A1F
100
AcDbEntity
  8
Defpoints
 62
     0
100
AcDbPoint
 10
1377.764012845583
 20
915.54781040958
 30
0.0
  0
POINT
  5
A28
330
A1F
100
AcDbEntity
  8
Defpoints
 62
     0
100
AcDbPoint
 10
1406.764012845584
 20
915.54781040958
 30
0.0
  0
ENDBLK
  5
A2A
330
A1F
100
AcDbEntity
  8
0
100
AcDbBlockEnd
  0
BLOCK
  5
A31
330
A2B
100
AcDbEntity
  8
0
100
AcDbBlockBegin
  2
*D74
 70
     1
 10
0.0
 20
0.0
 30
0.0
  3
*D74
  1

  0
LINE
  5
BBA
330
A2B
100
AcDbEntity
  8
cotas
100
AcDbLine
 10
1348.164989563864
 20
1031.329470790554
 30
0.0
 11
1373.56552316568
 21
1057.26147346438
 31
0.0
  0
MTEXT
  5
BBB
330
A2B
100
AcDbEntity
  8
cotas
100
AcDbMText
 10
1350.222620056191
 20
1047.721007472969
 30
0.0
 40
10.0
 41
0.0
 71
     5
 72
     1
  1
R4
  7
SANINDUSA
 11
0.6997482799834031
 21
0.7143894908663406
 31
0.0
 73
     1
 44
1.0
1001
ACAD
1000
MTEXTBEGIN
1070
    73
1070
     1
1070
    44
1040
1.0
1070
    74
1070
     0
1000
MTEXTEND
  0
SOLID
  5
BBC
330
A2B
100
AcDbEntity
  8
cotas
100
AcDbTrace
 10
1372.374874014236
 20
1058.427720597686
 30
0.0
 11
1374.756172317124
 21
1056.095226331074
 31
0.0
 12
1380.563005965514
 22
1064.405368373043
 32
0.0
 13
1380.563005965514
 23
1064.405368373043
 33
0.0
  0
POINT
  5
BBD
330
A2B
100
AcDbEntity
  8
Defpoints
 62
     0
100
AcDbPoint
 10
1380.563005965514
 20
1064.405368373043
 30
0.0
  0
POINT
  5
BBE
330
A2B
100
AcDbEntity
  8
Defpoints
 62
     0
100
AcDbPoint
 10
1377.764012845583
 20
1061.54781040958
 30
0.0
  0
ENDBLK
  5
A32
330
A2B
100
AcDbEntity
  8
0
100
AcDbBlockEnd
  0
BLOCK
  5
A39
330
A33
100
AcDbEntity
  8
0
100
AcDbBlockBegin
  2
*D75
 70
     1
 10
0.0
 20
0.0
 30
0.0
  3
*D75
  1

  0
LINE
  5
BC4
330
A33
100
AcDbEntity
  8
cotas
100
AcDbLine
 10
1345.266644810147
 20
946.6249465087441
 30
0.0
 11
1373.154405865577
 21
923.3885816198883
 31
0.0
  0
MTEXT
  5
BC5
330
A33
100
AcDbEntity
  8
cotas
100
AcDbMText
 10
1361.770471538365
 20
945.8900850395776
 30
0.0
 40
10.0
 41
0.0
 71
     5
 72
     1
  1
R4
  7
SANINDUSA
 11
0.7682678300004785
 21
-0.640128535050857
 31
0.0
 73
     1
 44
1.0
1001
ACAD
1000
MTEXTBEGIN
1070
    73
1070
     1
1070
    44
1040
1.0
1070
    74
1070
     0
1000
MTEXTEND
  0
SOLID
  5
BC6
330
A33
100
AcDbEntity
  8
cotas
100
AcDbTrace
 10
1374.221286757329
 20
924.6690280032224
 30
0.0
 11
1372.087524973826
 21
922.1081352365541
 31
0.0
 12
1380.837084165582
 22
916.9872962693798
 32
0.0
 13
1380.837084165582
 23
916.9872962693798
 33
0.0
  0
POINT
  5
BC7
330
A33
100
AcDbEntity
  8
Defpoints
 62
     0
100
AcDbPoint
 10
1380.837084165582
 20
916.9872962693798
 30
0.0
  0
POINT
  5
BC8
330
A33
100
AcDbEntity
  8
Defpoints
 62
     0
100
AcDbPoint
 10
1377.764012845583
 20
919.5478104095808
 30
0.0
  0
ENDBLK
  5
A3A
330
A33
100
AcDbEntity
  8
0
100
AcDbBlockEnd
  0
BLOCK
  5
A41
330
A3B
100
AcDbEntity
  8
0
100
AcDbBlockBegin
  2
*D76
 70
     1
 10
0.0
 20
0.0
 30
0.0
  3
*D76
  1

  0
LINE
  5
BBF
330
A3B
100
AcDbEntity
  8
cotas
100
AcDbLine
 10
788.4042536788946
 20
1034.487797723977
 30
0.0
 11
760.6234638655593
 21
1057.369031111726
 31
0.0
  0
MTEXT
  5
BC0
330
A3B
100
AcDbEntity
  8
cotas
100
AcDbMText
 10
784.7970484807356
 20
1050.548888390044
 30
0.0
 40
10.0
 41
0.0
 71
     5
 72
     1
  1
R5
  7
SANINDUSA
 11
0.7718902039943103
 21
-0.6357558595700256
 31
0.0
 73
     1
 44
1.0
1001
ACAD
1000
MTEXTBEGIN
1070
    73
1070
     1
1070
    44
1040
1.0
1070
    74
1070
     0
1000
MTEXTEND
  0
SOLID
  5
BC1
330
A3B
100
AcDbEntity
  8
cotas
100
AcDbTrace
 10
761.6830569648428
 20
1058.65551478505
 30
0.0
 11
759.5638707662759
 21
1056.082547438403
 31
0.0
 12
752.9045618256162
 22
1063.726589707426
 32
0.0
 13
752.9045618256162
 23
1063.726589707426
 33
0.0
  0
POINT
  5
BC2
330
A3B
100
AcDbEntity
  8
Defpoints
 62
     0
100
AcDbPoint
 10
752.9045618256162
 20
1063.726589707426
 30
0.0
  0
POINT
  5
BC3
330
A3B
100
AcDbEntity
  8
Defpoints
 62
     0
100
AcDbPoint
 10
756.7640128455836
 20
1060.54781040958
 30
0.0
  0
ENDBLK
  5
A42
330
A3B
100
AcDbEntity
  8
0
100
AcDbBlockEnd
  0
BLOCK
  5
A49
330
A43
100
AcDbEntity
  8
0
100
AcDbBlockBegin
  2
*D77
 70
     1
 10
0.0
 20
0.0
 30
0.0
  3
*D77
  1

  0
LINE
  5
BC9
330
A43
100
AcDbEntity
  8
cotas
100
AcDbLine
 10
791.7705188698249
 20
962.591962716969
 30
0.0
 11
759.6137178683591
 21
924.1499589553811
 31
0.0
  0
MTEXT
  5
BCA
330
A43
100
AcDbEntity
  8
cotas
100
AcDbMText
 10
775.6631519353145
 20
958.9219424866499
 30
0.0
 40
10.0
 41
0.0
 71
     5
 72
     1
  1
R4
  7
SANINDUSA
 11
0.6416175037958271
 21
0.7670247576335538
 31
0.0
 73
     1
 44
1.0
1001
ACAD
1000
MTEXTBEGIN
1070
    73
1070
     1
1070
    44
1040
1.0
1070
    74
1070
     0
1000
MTEXTEND
  0
SOLID
  5
BCB
330
A43
100
AcDbEntity
  8
cotas
100
AcDbTrace
 10
758.3353432723031
 20
925.2193214617076
 30
0.0
 11
760.892092464415
 21
923.0805964490548
 31
0.0
 12
753.1975428304008
 22
916.4797113790456
 32
0.0
 13
753.1975428304008
 23
916.4797113790456
 33
0.0
  0
POINT
  5
BCC
330
A43
100
AcDbEntity
  8
Defpoints
 62
     0
100
AcDbPoint
 10
753.1975428304008
 20
916.4797113790456
 30
0.0
  0
POINT
  5
BCD
330
A43
100
AcDbEntity
  8
Defpoints
 62
     0
100
AcDbPoint
 10
755.7640128455846
 20
919.5478104095803
 30
0.0
  0
ENDBLK
  5
A4A
330
A43
100
AcDbEntity
  8
0
100
AcDbBlockEnd
  0
BLOCK
  5
A55
330
A4B
100
AcDbEntity
  8
0
100
AcDbBlockBegin
  2
*D78
 70
     1
 10
0.0
 20
0.0
 30
0.0
  3
*D78
  1

  0
LINE
  5
A4C
330
A4B
100
AcDbEntity
  8
cotas
100
AcDbLine
 10
2478.757603185432
 20
441.749098468821
 30
0.0
 11
2478.757603185432
 21
407.9220251197682
 31
0.0
  0
LINE
  5
A4D
330
A4B
100
AcDbEntity
  8
cotas
100
AcDbLine
 10
2431.757603200806
 20
441.7490984584106
 30
0.0
 11
2431.757603200806
 21
407.9220251197682
 31
0.0
  0
LINE
  5
A4E
330
A4B
100
AcDbEntity
  8
cotas
100
AcDbLine
 10
2468.757603185432
 20
412.9220251197682
 30
0.0
 11
2441.757603200806
 21
412.9220251197682
 31
0.0
  0
SOLID
  5
A4F
330
A4B
100
AcDbEntity
  8
cotas
100
AcDbTrace
 10
2468.757603185432
 20
414.5886917864349
 30
0.0
 11
2468.757603185432
 21
411.2553584531015
 31
0.0
 12
2478.757603185432
 22
412.9220251197682
 32
0.0
 13
2478.757603185432
 23
412.9220251197682
 33
0.0
  0
SOLID
  5
A50
330
A4B
100
AcDbEntity
  8
cotas
100
AcDbTrace
 10
2441.757603200806
 20
414.5886917864349
 30
0.0
 11
2441.757603200806
 21
411.2553584531015
 31
0.0
 12
2431.757603200806
 22
412.9220251197682
 32
0.0
 13
2431.757603200806
 23
412.9220251197682
 33
0.0
  0
MTEXT
  5
A51
330
A4B
100
AcDbEntity
  8
cotas
100
AcDbMText
 10
2455.257603193119
 20
423.419002957243
 30
0.0
 40
10.0
 41
0.0
 71
     5
 72
     1
  1
ø47
  7
SANINDUSA
 73
     1
 44
1.0
1001
ACAD
1000
MTEXTBEGIN
1070
    73
1070
     1
1070
    44
1040
1.0
1070
    74
1070
     0
1000
MTEXTEND
  0
POINT
  5
A52
330
A4B
100
AcDbEntity
  8
Defpoints
 62
     0
100
AcDbPoint
 10
2478.757603185432
 20
446.749098468821
 30
0.0
  0
POINT
  5
A53
330
A4B
100
AcDbEntity
  8
Defpoints
 62
     0
100
AcDbPoint
 10
2431.757603200806
 20
446.7490984584107
 30
0.0
  0
POINT
  5
A54
330
A4B
100
AcDbEntity
  8
Defpoints
 62
     0
100
AcDbPoint
 10
2431.757603200806
 20
412.9220251197682
 30
0.0
  0
ENDBLK
  5
A56
330
A4B
100
AcDbEntity
  8
0
100
AcDbBlockEnd
  0
BLOCK
  5
A6C
330
A62
100
AcDbEntity
  8
0
100
AcDbBlockBegin
  2
*D79
 70
     1
 10
0.0
 20
0.0
 30
0.0
  3
*D79
  1

  0
LINE
  5
A63
330
A62
100
AcDbEntity
  8
cotas
100
AcDbLine
 10
2700.027482299762
 20
566.3820473078584
 30
0.0
 11
2754.027482299762
 21
566.3820473078584
 31
0.0
  0
LINE
  5
A64
330
A62
100
AcDbEntity
  8
cotas
100
AcDbLine
 10
2700.027482299762
 20
531.3820473078584
 30
0.0
 11
2754.027482299762
 21
531.3820473078584
 31
0.0
  0
LINE
  5
A65
330
A62
100
AcDbEntity
  8
cotas
100
AcDbLine
 10
2749.027482299763
 20
556.3820473078584
 30
0.0
 11
2749.027482299763
 21
541.3820473078584
 31
0.0
  0
SOLID
  5
A66
330
A62
100
AcDbEntity
  8
cotas
100
AcDbTrace
 10
2747.360815633096
 20
556.3820473078584
 30
0.0
 11
2750.694148966429
 21
556.3820473078584
 31
0.0
 12
2749.027482299763
 22
566.3820473078584
 32
0.0
 13
2749.027482299763
 23
566.3820473078584
 33
0.0
  0
SOLID
  5
A67
330
A62
100
AcDbEntity
  8
cotas
100
AcDbTrace
 10
2747.360815633096
 20
541.3820473078584
 30
0.0
 11
2750.694148966429
 21
541.3820473078584
 31
0.0
 12
2749.027482299763
 22
531.3820473078584
 32
0.0
 13
2749.027482299763
 23
531.3820473078584
 33
0.0
  0
MTEXT
  5
A68
330
A62
100
AcDbEntity
  8
cotas
100
AcDbMText
 10
2738.819288881361
 20
548.8820473078589
 30
0.0
 40
10.0
 41
0.0
 71
     5
 72
     1
  1
35
  7
SANINDUSA
 11
0.0000000000000001
 21
1.0
 31
0.0
 73
     1
 44
1.0
1001
ACAD
1000
MTEXTBEGIN
1070
    73
1070
     1
1070
    44
1040
1.0
1070
    74
1070
     0
1000
MTEXTEND
  0
POINT
  5
A69
330
A62
100
AcDbEntity
  8
Defpoints
 62
     0
100
AcDbPoint
 10
2695.027482299762
 20
566.3820473078584
 30
0.0
  0
POINT
  5
A6A
330
A62
100
AcDbEntity
  8
Defpoints
 62
     0
100
AcDbPoint
 10
2695.027482299762
 20
531.3820473078584
 30
0.0
  0
POINT
  5
A6B
330
A62
100
AcDbEntity
  8
Defpoints
 62
     0
100
AcDbPoint
 10
2749.027482299763
 20
531.3820473078584
 30
0.0
  0
ENDBLK
  5
A6D
330
A62
100
AcDbEntity
  8
0
100
AcDbBlockEnd
  0
BLOCK
  5
A78
330
A6E
100
AcDbEntity
  8
0
100
AcDbBlockBegin
  2
*D80
 70
     1
 10
0.0
 20
0.0
 30
0.0
  3
*D80
  1

  0
LINE
  5
A6F
330
A6E
100
AcDbEntity
  8
cotas
100
AcDbLine
 10
2695.365410903784
 20
566.3820473078596
 30
0.0
 11
2804.027482299762
 21
566.3820473078596
 31
0.0
  0
LINE
  5
A70
330
A6E
100
AcDbEntity
  8
cotas
100
AcDbLine
 10
2675.147837429008
 20
416.3820473078727
 30
0.0
 11
2804.027482299762
 21
416.3820473078727
 31
0.0
  0
LINE
  5
A71
330
A6E
100
AcDbEntity
  8
cotas
100
AcDbLine
 10
2799.027482299762
 20
556.3820473078595
 30
0.0
 11
2799.027482299762
 21
426.3820473078727
 31
0.0
  0
SOLID
  5
A72
330
A6E
100
AcDbEntity
  8
cotas
100
AcDbTrace
 10
2797.360815633096
 20
556.3820473078595
 30
0.0
 11
2800.694148966428
 21
556.3820473078595
 31
0.0
 12
2799.027482299762
 22
566.3820473078596
 32
0.0
 13
2799.027482299762
 23
566.3820473078596
 33
0.0
  0
SOLID
  5
A73
330
A6E
100
AcDbEntity
  8
cotas
100
AcDbTrace
 10
2797.360815633096
 20
426.3820473078727
 30
0.0
 11
2800.694148966428
 21
426.3820473078727
 31
0.0
 12
2799.027482299762
 22
416.3820473078727
 32
0.0
 13
2799.027482299762
 23
416.3820473078727
 33
0.0
  0
MTEXT
  5
A74
330
A6E
100
AcDbEntity
  8
cotas
100
AcDbMText
 10
2788.822646839722
 20
491.3820473078665
 30
0.0
 40
10.0
 41
0.0
 71
     5
 72
     1
  1
150
  7
SANINDUSA
 11
0.0000000000000001
 21
1.0
 31
0.0
 73
     1
 44
1.0
1001
ACAD
1000
MTEXTBEGIN
1070
    73
1070
     1
1070
    44
1040
1.0
1070
    74
1070
     0
1000
MTEXTEND
  0
POINT
  5
A75
330
A6E
100
AcDbEntity
  8
Defpoints
 62
     0
100
AcDbPoint
 10
2690.365410903784
 20
566.3820473078596
 30
0.0
  0
POINT
  5
A76
330
A6E
100
AcDbEntity
  8
Defpoints
 62
     0
100
AcDbPoint
 10
2670.147837429008
 20
416.3820473078727
 30
0.0
  0
POINT
  5
A77
330
A6E
100
AcDbEntity
  8
Defpoints
 62
     0
100
AcDbPoint
 10
2799.027482299762
 20
416.3820473078727
 30
0.0
  0
ENDBLK
  5
A79
330
A6E
100
AcDbEntity
  8
0
100
AcDbBlockEnd
  0
BLOCK
  5
A89
330
A7A
100
AcDbEntity
  8
0
100
AcDbBlockBegin
  2
*D81
 70
     1
 10
0.0
 20
0.0
 30
0.0
  3
*D81
  1

  0
LINE
  5
A7B
330
A7A
100
AcDbEntity
  8
cotas
100
AcDbLine
 10
2658.25760318543
 20
510.1945737106485
 30
0.0
 11
2658.257603185429
 21
460.4806483698381
 31
0.0
  0
ARC
  5
A7C
330
A7A
100
AcDbEntity
  8
cotas
100
AcDbCircle
 10
2658.25760318543
 20
554.3820473078653
 30
0.0
 40
88.90139893802729
100
AcDbArc
 50
257.0829261098647
 51
269.9999999999995
  0
LINE
  5
A7D
330
A7A
100
AcDbEntity
  8
cotas
100
AcDbLine
 10
2638.384532847104
 20
467.7303317537794
 30
0.0
 11
2601.511095551016
 21
476.1870415640267
 31
0.0
  0
ARC
  5
A7E
330
A7A
100
AcDbEntity
  8
cotas
100
AcDbCircle
 10
2658.25760318543
 20
554.3820473078653
 30
0.0
 40
88.90139893802729
100
AcDbArc
 50
257.1034585859184
 51
263.551729292959
  0
ARC
  5
A7F
330
A7A
100
AcDbEntity
  8
cotas
100
AcDbCircle
 10
2658.25760318543
 20
554.3820473078653
 30
0.0
 40
88.90139893802729
100
AcDbArc
 50
278.4482707070402
 51
284.8965414140808
  0
ARC
  5
A80
330
A7A
100
AcDbEntity
  8
cotas
100
AcDbCircle
 10
2658.25760318543
 20
554.3820473078653
 30
0.0
 40
88.90139893802729
100
AcDbArc
 50
269.9999999999995
 51
271.9999999999996
  0
SOLID
  5
A81
330
A7A
100
AcDbEntity
  8
cotas
100
AcDbTrace
 10
2648.367168380385
 20
467.7070978179414
 30
0.0
 11
2648.179694765057
 21
464.3790406137055
 31
0.0
 12
2658.257603185429
 22
465.4806483698381
 32
0.0
 13
2658.257603185429
 23
465.4806483698381
 33
0.0
  0
SOLID
  5
A82
330
A7A
100
AcDbEntity
  8
cotas
100
AcDbTrace
 10
2671.470432051626
 20
464.7855819452685
 30
0.0
 11
2671.166925118733
 21
468.1050690521567
 31
0.0
 12
2661.360217264515
 22
465.5348047000357
 32
0.0
 13
2661.360217264515
 23
465.5348047000357
 33
0.0
  0
MTEXT
  5
A83
330
A7A
100
AcDbEntity
  8
cotas
100
AcDbMText
 10
2622.484226630165
 20
483.018099460561
 30
0.0
 40
10.0
 41
0.0
 71
     5
 72
     1
  1
2,0°
  7
SANINDUSA
 11
0.9746946233600951
 21
-0.2235405806401211
 31
0.0
 73
     1
 44
1.0
1001
ACAD
1000
MTEXTBEGIN
1070
    73
1070
     1
1070
    44
1040
1.0
1070
    74
1070
     0
1000
MTEXTEND
  0
POINT
  5
A84
330
A7A
100
AcDbEntity
  8
Defpoints
 62
     0
100
AcDbPoint
 10
2660.326245958911
 20
465.5047192077588
 30
0.0
  0
POINT
  5
A85
330
A7A
100
AcDbEntity
  8
Defpoints
 62
     0
100
AcDbPoint
 10
2662.941861166443
 20
420.2424493210485
 30
0.0
  0
POINT
  5
A86
330
A7A
100
AcDbEntity
  8
Defpoints
 62
     0
100
AcDbPoint
 10
2658.25760318543
 20
554.3820473078585
 30
0.0
  0
POINT
  5
A87
330
A7A
100
AcDbEntity
  8
Defpoints
 62
     0
100
AcDbPoint
 10
2658.25760318543
 20
515.1945737106485
 30
0.0
  0
POINT
  5
A88
330
A7A
100
AcDbEntity
  8
Defpoints
 62
     0
100
AcDbPoint
 10
2658.426113446491
 20
549.5565447913709
 30
0.0
  0
ENDBLK
  5
A8A
330
A7A
100
AcDbEntity
  8
0
100
AcDbBlockEnd
  0
BLOCK
  5
A96
330
A8B
100
AcDbEntity
  8
0
100
AcDbBlockBegin
  2
*D82
 70
     1
 10
0.0
 20
0.0
 30
0.0
  3
*D82
  1

  0
LINE
  5
A8C
330
A8B
100
AcDbEntity
  8
cotas
100
AcDbLine
 10
2674.027482299762
 20
411.3820473078584
 30
0.0
 11
2674.027482299762
 21
361.3820473078728
 31
0.0
  0
LINE
  5
A8D
330
A8B
100
AcDbEntity
  8
cotas
100
AcDbLine
 10
2699.027482299762
 20
534.1230942195612
 30
0.0
 11
2699.027482299762
 21
361.3820473078728
 31
0.0
  0
LINE
  5
A8E
330
A8B
100
AcDbEntity
  8
cotas
100
AcDbLine
 10
2674.027482299762
 20
366.3820473078728
 30
0.0
 11
2689.027482299762
 21
366.3820473078728
 31
0.0
  0
LINE
  5
A8F
330
A8B
100
AcDbEntity
  8
cotas
100
AcDbLine
 10
2699.027482299762
 20
366.3820473078728
 30
0.0
 11
2734.460658928372
 21
366.3820473078728
 31
0.0
  0
INSERT
  5
A90
330
A8B
100
AcDbEntity
  8
cotas
100
AcDbBlockReference
  2
_DotSmall
 10
2674.027482299762
 20
366.3820473078728
 30
0.0
 41
10.0
 42
10.0
 43
10.0
 50
180.0
  0
SOLID
  5
A91
330
A8B
100
AcDbEntity
  8
cotas
100
AcDbTrace
 10
2689.027482299762
 20
368.0487139745395
 30
0.0
 11
2689.027482299762
 21
364.7153806412061
 31
0.0
 12
2699.027482299762
 22
366.3820473078728
 32
0.0
 13
2699.027482299762
 23
366.3820473078728
 33
0.0
  0
MTEXT
  5
A92
330
A8B
100
AcDbEntity
  8
cotas
100
AcDbMText
 10
2721.744070614067
 20
376.5902407262744
 30
0.0
 40
10.0
 41
0.0
 71
     5
 72
     1
  1
25
  7
SANINDUSA
 73
     1
 44
1.0
1001
ACAD
1000
MTEXTBEGIN
1070
    73
1070
     1
1070
    44
1040
1.0
1070
    74
1070
     0
1000
MTEXTEND
  0
POINT
  5
A93
330
A8B
100
AcDbEntity
  8
Defpoints
 62
     0
100
AcDbPoint
 10
2674.027482299762
 20
416.3820473078584
 30
0.0
  0
POINT
  5
A94
330
A8B
100
AcDbEntity
  8
Defpoints
 62
     0
100
AcDbPoint
 10
2699.027482299762
 20
539.1230942195612
 30
0.0
  0
POINT
  5
A95
330
A8B
100
AcDbEntity
  8
Defpoints
 62
     0
100
AcDbPoint
 10
2699.027482299762
 20
366.3820473078728
 30
0.0
  0
ENDBLK
  5
A97
330
A8B
100
AcDbEntity
  8
0
100
AcDbBlockEnd
  0
BLOCK
  5
AA2
330
A98
100
AcDbEntity
  8
0
100
AcDbBlockBegin
  2
*D83
 70
     1
 10
0.0
 20
0.0
 30
0.0
  3
*D83
  1

  0
LINE
  5
A99
330
A98
100
AcDbEntity
  8
cotas
100
AcDbLine
 10
2699.027482299762
 20
534.1230942195612
 30
0.0
 11
2699.027482299762
 21
336.3820473078728
 31
0.0
  0
LINE
  5
A9A
330
A98
100
AcDbEntity
  8
cotas
100
AcDbLine
 10
2663.076669375291
 20
411.3820473079105
 30
0.0
 11
2663.076669375291
 21
336.3820473078728
 31
0.0
  0
LINE
  5
A9B
330
A98
100
AcDbEntity
  8
cotas
100
AcDbLine
 10
2689.027482299762
 20
341.3820473078728
 30
0.0
 11
2673.076669375291
 21
341.3820473078728
 31
0.0
  0
SOLID
  5
A9C
330
A98
100
AcDbEntity
  8
cotas
100
AcDbTrace
 10
2689.027482299762
 20
343.0487139745395
 30
0.0
 11
2689.027482299762
 21
339.7153806412061
 31
0.0
 12
2699.027482299762
 22
341.3820473078728
 32
0.0
 13
2699.027482299762
 23
341.3820473078728
 33
0.0
  0
SOLID
  5
A9D
330
A98
100
AcDbEntity
  8
cotas
100
AcDbTrace
 10
2673.076669375291
 20
343.0487139745395
 30
0.0
 11
2673.076669375291
 21
339.7153806412061
 31
0.0
 12
2663.076669375291
 22
341.3820473078728
 32
0.0
 13
2663.076669375291
 23
341.3820473078728
 33
0.0
  0
MTEXT
  5
A9E
330
A98
100
AcDbEntity
  8
cotas
100
AcDbMText
 10
2681.052075837527
 20
351.5902407262744
 30
0.0
 40
10.0
 41
0.0
 71
     5
 72
     1
  1
36
  7
SANINDUSA
 73
     1
 44
1.0
1001
ACAD
1000
MTEXTBEGIN
1070
    73
1070
     1
1070
    44
1040
1.0
1070
    74
1070
     0
1000
MTEXTEND
  0
POINT
  5
A9F
330
A98
100
AcDbEntity
  8
Defpoints
 62
     0
100
AcDbPoint
 10
2699.027482299762
 20
539.1230942195612
 30
0.0
  0
POINT
  5
AA0
330
A98
100
AcDbEntity
  8
Defpoints
 62
     0
100
AcDbPoint
 10
2663.076669375291
 20
416.3820473079105
 30
0.0
  0
POINT
  5
AA1
330
A98
100
AcDbEntity
  8
Defpoints
 62
     0
100
AcDbPoint
 10
2663.076669375291
 20
341.3820473078728
 30
0.0
  0
ENDBLK
  5
AA3
330
A98
100
AcDbEntity
  8
0
100
AcDbBlockEnd
  0
BLOCK
  5
AC1
330
AB7
100
AcDbEntity
  8
0
100
AcDbBlockBegin
  2
*D84
 70
     1
 10
0.0
 20
0.0
 30
0.0
  3
*D84
  1

  0
LINE
  5
AB8
330
AB7
100
AcDbEntity
  8
cotas
100
AcDbLine
 10
2099.027482299762
 20
571.3820473078584
 30
0.0
 11
2099.027482299762
 21
596.3820473078584
 31
0.0
  0
LINE
  5
AB9
330
AB7
100
AcDbEntity
  8
cotas
100
AcDbLine
 10
2069.027482299763
 20
566.3820473078584
 30
0.0
 11
2069.027482299763
 21
596.3820473078584
 31
0.0
  0
LINE
  5
ABA
330
AB7
100
AcDbEntity
  8
cotas
100
AcDbLine
 10
2099.027482299762
 20
591.3820473078584
 30
0.0
 11
2079.027482299763
 21
591.3820473078584
 31
0.0
  0
INSERT
  5
ABB
330
AB7
100
AcDbEntity
  8
cotas
100
AcDbBlockReference
  2
_DotSmall
 10
2099.027482299762
 20
591.3820473078584
 30
0.0
 41
10.0
 42
10.0
 43
10.0
  0
SOLID
  5
ABC
330
AB7
100
AcDbEntity
  8
cotas
100
AcDbTrace
 10
2079.027482299763
 20
593.0487139745251
 30
0.0
 11
2079.027482299763
 21
589.7153806411917
 31
0.0
 12
2069.027482299763
 22
591.3820473078584
 32
0.0
 13
2069.027482299763
 23
591.3820473078584
 33
0.0
  0
MTEXT
  5
ABD
330
AB7
100
AcDbEntity
  8
cotas
100
AcDbMText
 10
2089.027482299762
 20
601.5902407262601
 30
0.0
 40
10.0
 41
0.0
 71
     5
 72
     1
  1
30
  7
SANINDUSA
 73
     1
 44
1.0
1001
ACAD
1000
MTEXTBEGIN
1070
    73
1070
     1
1070
    44
1040
1.0
1070
    74
1070
     0
1000
MTEXTEND
  0
POINT
  5
ABE
330
AB7
100
AcDbEntity
  8
Defpoints
 62
     0
100
AcDbPoint
 10
2099.027482299762
 20
566.3820473078584
 30
0.0
  0
POINT
  5
ABF
330
AB7
100
AcDbEntity
  8
Defpoints
 62
     0
100
AcDbPoint
 10
2069.027482299763
 20
561.3820473078584
 30
0.0
  0
POINT
  5
AC0
330
AB7
100
AcDbEntity
  8
Defpoints
 62
     0
100
AcDbPoint
 10
2069.027482299763
 20
591.3820473078584
 30
0.0
  0
ENDBLK
  5
AC2
330
AB7
100
AcDbEntity
  8
0
100
AcDbBlockEnd
  0
BLOCK
  5
ACE
330
AC3
100
AcDbEntity
  8
0
100
AcDbBlockBegin
  2
*D85
 70
     1
 10
0.0
 20
0.0
 30
0.0
  3
*D85
  1

  0
LINE
  5
AC4
330
AC3
100
AcDbEntity
  8
cotas
100
AcDbLine
 10
2090.513914520423
 20
526.3820473078584
 30
0.0
 11
2090.513914520423
 21
386.3820473078584
 31
0.0
  0
LINE
  5
AC5
330
AC3
100
AcDbEntity
  8
cotas
100
AcDbLine
 10
2069.027482299761
 20
529.3820473078585
 30
0.0
 11
2069.027482299761
 21
386.3820473078584
 31
0.0
  0
LINE
  5
AC6
330
AC3
100
AcDbEntity
  8
cotas
100
AcDbLine
 10
2090.513914520423
 20
391.3820473078585
 30
0.0
 11
2079.02748229976
 21
391.3820473078585
 31
0.0
  0
LINE
  5
AC7
330
AC3
100
AcDbEntity
  8
cotas
100
AcDbLine
 10
2069.027482299761
 20
391.3820473078585
 30
0.0
 11
2034.084567591903
 21
391.3820473078585
 31
0.0
  0
INSERT
  5
AC8
330
AC3
100
AcDbEntity
  8
cotas
100
AcDbBlockReference
  2
_DotSmall
 10
2090.513914520423
 20
391.3820473078585
 30
0.0
 41
10.0
 42
10.0
 43
10.0
  0
SOLID
  5
AC9
330
AC3
100
AcDbEntity
  8
cotas
100
AcDbTrace
 10
2079.02748229976
 20
393.0487139745251
 30
0.0
 11
2079.02748229976
 21
389.7153806411917
 31
0.0
 12
2069.027482299761
 22
391.3820473078585
 32
0.0
 13
2069.027482299761
 23
391.3820473078585
 33
0.0
  0
MTEXT
  5
ACA
330
AC3
100
AcDbEntity
  8
cotas
100
AcDbMText
 10
2046.556024945832
 20
401.4861440170592
 30
0.0
 40
10.0
 41
0.0
 71
     5
 72
     1
  1
21
  7
SANINDUSA
 73
     1
 44
1.0
1001
ACAD
1000
MTEXTBEGIN
1070
    73
1070
     1
1070
    44
1040
1.0
1070
    74
1070
     0
1000
MTEXTEND
  0
POINT
  5
ACB
330
AC3
100
AcDbEntity
  8
Defpoints
 62
     0
100
AcDbPoint
 10
2090.513914520423
 20
531.3820473078584
 30
0.0
  0
POINT
  5
ACC
330
AC3
100
AcDbEntity
  8
Defpoints
 62
     0
100
AcDbPoint
 10
2069.027482299761
 20
534.3820473078586
 30
0.0
  0
POINT
  5
ACD
330
AC3
100
AcDbEntity
  8
Defpoints
 62
     0
100
AcDbPoint
 10
2069.027482299761
 20
391.3820473078585
 30
0.0
  0
ENDBLK
  5
ACF
330
AC3
100
AcDbEntity
  8
0
100
AcDbBlockEnd
  0
BLOCK
  5
ADC
330
AD0
100
AcDbEntity
  8
0
100
AcDbBlockBegin
  2
*D86
 70
     1
 10
0.0
 20
0.0
 30
0.0
  3
*D86
  1

  0
LINE
  5
AD1
330
AD0
100
AcDbEntity
  8
cotas
100
AcDbLine
 10
2094.027482299761
 20
411.3820473078584
 30
0.0
 11
2094.027482299761
 21
361.3820473078584
 31
0.0
  0
LINE
  5
AD2
330
AD0
100
AcDbEntity
  8
cotas
100
AcDbLine
 10
2069.027482299761
 20
398.9635012126388
 30
0.0
 11
2069.027482299761
 21
361.3820473078584
 31
0.0
  0
LINE
  5
AD3
330
AD0
100
AcDbEntity
  8
cotas
100
AcDbLine
 10
2104.02748229976
 20
366.3820473078585
 30
0.0
 11
2114.027482299761
 21
366.3820473078585
 31
0.0
  0
LINE
  5
AD4
330
AD0
100
AcDbEntity
  8
cotas
100
AcDbLine
 10
2059.02748229976
 20
366.3820473078585
 30
0.0
 11
2023.594305671151
 21
366.3820473078585
 31
0.0
  0
LINE
  5
AD5
330
AD0
100
AcDbEntity
  8
cotas
100
AcDbLine
 10
2094.027482299761
 20
366.3820473078585
 30
0.0
 11
2069.027482299761
 21
366.3820473078585
 31
0.0
  0
SOLID
  5
AD6
330
AD0
100
AcDbEntity
  8
cotas
100
AcDbTrace
 10
2104.02748229976
 20
368.0487139745251
 30
0.0
 11
2104.02748229976
 21
364.7153806411917
 31
0.0
 12
2094.027482299761
 22
366.3820473078585
 32
0.0
 13
2094.027482299761
 23
366.3820473078585
 33
0.0
  0
SOLID
  5
AD7
330
AD0
100
AcDbEntity
  8
cotas
100
AcDbTrace
 10
2059.02748229976
 20
368.0487139745251
 30
0.0
 11
2059.02748229976
 21
364.7153806411917
 31
0.0
 12
2069.027482299761
 22
366.3820473078585
 32
0.0
 13
2069.027482299761
 23
366.3820473078585
 33
0.0
  0
MTEXT
  5
AD8
330
AD0
100
AcDbEntity
  8
cotas
100
AcDbMText
 10
2036.310893985455
 20
376.5902407262601
 30
0.0
 40
10.0
 41
0.0
 71
     5
 72
     1
  1
25
  7
SANINDUSA
 73
     1
 44
1.0
1001
ACAD
1000
MTEXTBEGIN
1070
    73
1070
     1
1070
    44
1040
1.0
1070
    74
1070
     0
1000
MTEXTEND
  0
POINT
  5
AD9
330
AD0
100
AcDbEntity
  8
Defpoints
 62
     0
100
AcDbPoint
 10
2094.027482299761
 20
416.3820473078584
 30
0.0
  0
POINT
  5
ADA
330
AD0
100
AcDbEntity
  8
Defpoints
 62
     0
100
AcDbPoint
 10
2069.027482299761
 20
403.9635012126387
 30
0.0
  0
POINT
  5
ADB
330
AD0
100
AcDbEntity
  8
Defpoints
 62
     0
100
AcDbPoint
 10
2069.027482299761
 20
366.3820473078585
 30
0.0
  0
ENDBLK
  5
ADD
330
AD0
100
AcDbEntity
  8
0
100
AcDbBlockEnd
  0
BLOCK
  5
AE8
330
ADE
100
AcDbEntity
  8
0
100
AcDbBlockBegin
  2
*D87
 70
     1
 10
0.0
 20
0.0
 30
0.0
  3
*D87
  1

  0
LINE
  5
ADF
330
ADE
100
AcDbEntity
  8
cotas
100
AcDbLine
 10
2069.027482299761
 20
398.9635012126388
 30
0.0
 11
2069.027482299761
 21
336.3820473078584
 31
0.0
  0
LINE
  5
AE0
330
ADE
100
AcDbEntity
  8
cotas
100
AcDbLine
 10
2114.027482299761
 20
411.3820473078584
 30
0.0
 11
2114.027482299761
 21
336.3820473078584
 31
0.0
  0
LINE
  5
AE1
330
ADE
100
AcDbEntity
  8
cotas
100
AcDbLine
 10
2079.02748229976
 20
341.3820473078585
 30
0.0
 11
2104.02748229976
 21
341.3820473078585
 31
0.0
  0
SOLID
  5
AE2
330
ADE
100
AcDbEntity
  8
cotas
100
AcDbTrace
 10
2079.02748229976
 20
343.0487139745251
 30
0.0
 11
2079.02748229976
 21
339.7153806411917
 31
0.0
 12
2069.027482299761
 22
341.3820473078585
 32
0.0
 13
2069.027482299761
 23
341.3820473078585
 33
0.0
  0
SOLID
  5
AE3
330
ADE
100
AcDbEntity
  8
cotas
100
AcDbTrace
 10
2104.02748229976
 20
343.0487139745251
 30
0.0
 11
2104.02748229976
 21
339.7153806411917
 31
0.0
 12
2114.027482299761
 22
341.3820473078585
 32
0.0
 13
2114.027482299761
 23
341.3820473078585
 33
0.0
  0
MTEXT
  5
AE4
330
ADE
100
AcDbEntity
  8
cotas
100
AcDbMText
 10
2091.52748229976
 20
351.4861440170593
 30
0.0
 40
10.0
 41
0.0
 71
     5
 72
     1
  1
45
  7
SANINDUSA
 73
     1
 44
1.0
1001
ACAD
1000
MTEXTBEGIN
1070
    73
1070
     1
1070
    44
1040
1.0
1070
    74
1070
     0
1000
MTEXTEND
  0
POINT
  5
AE5
330
ADE
100
AcDbEntity
  8
Defpoints
 62
     0
100
AcDbPoint
 10
2069.027482299761
 20
403.9635012126387
 30
0.0
  0
POINT
  5
AE6
330
ADE
100
AcDbEntity
  8
Defpoints
 62
     0
100
AcDbPoint
 10
2114.027482299761
 20
416.3820473078584
 30
0.0
  0
POINT
  5
AE7
330
ADE
100
AcDbEntity
  8
Defpoints
 62
     0
100
AcDbPoint
 10
2114.027482299761
 20
341.3820473078585
 30
0.0
  0
ENDBLK
  5
AE9
330
ADE
100
AcDbEntity
  8
0
100
AcDbBlockEnd
  0
BLOCK
  5
AF4
330
AEA
100
AcDbEntity
  8
0
100
AcDbBlockBegin
  2
*D88
 70
     1
 10
0.0
 20
0.0
 30
0.0
  3
*D88
  1

  0
LINE
  5
AEB
330
AEA
100
AcDbEntity
  8
cotas
100
AcDbLine
 10
2119.241916104401
 20
485.9519248657128
 30
0.0
 11
2119.241916104401
 21
311.3820473078584
 31
0.0
  0
LINE
  5
AEC
330
AEA
100
AcDbEntity
  8
cotas
100
AcDbLine
 10
2069.027482299761
 20
358.0932554037896
 30
0.0
 11
2069.027482299761
 21
311.3820473078584
 31
0.0
  0
LINE
  5
AED
330
AEA
100
AcDbEntity
  8
cotas
100
AcDbLine
 10
2109.241916104402
 20
316.3820473078585
 30
0.0
 11
2079.02748229976
 21
316.3820473078585
 31
0.0
  0
SOLID
  5
AEE
330
AEA
100
AcDbEntity
  8
cotas
100
AcDbTrace
 10
2109.241916104402
 20
318.0487139745251
 30
0.0
 11
2109.241916104402
 21
314.7153806411917
 31
0.0
 12
2119.241916104401
 22
316.3820473078585
 32
0.0
 13
2119.241916104401
 23
316.3820473078585
 33
0.0
  0
SOLID
  5
AEF
330
AEA
100
AcDbEntity
  8
cotas
100
AcDbTrace
 10
2079.02748229976
 20
318.0487139745251
 30
0.0
 11
2079.02748229976
 21
314.7153806411917
 31
0.0
 12
2069.027482299761
 22
316.3820473078585
 32
0.0
 13
2069.027482299761
 23
316.3820473078585
 33
0.0
  0
MTEXT
  5
AF0
330
AEA
100
AcDbEntity
  8
cotas
100
AcDbMText
 10
2094.134699202081
 20
326.5868827678987
 30
0.0
 40
10.0
 41
0.0
 71
     5
 72
     1
  1
50
  7
SANINDUSA
 73
     1
 44
1.0
1001
ACAD
1000
MTEXTBEGIN
1070
    73
1070
     1
1070
    44
1040
1.0
1070
    74
1070
     0
1000
MTEXTEND
  0
POINT
  5
AF1
330
AEA
100
AcDbEntity
  8
Defpoints
 62
     0
100
AcDbPoint
 10
2119.241916104401
 20
490.9519248657128
 30
0.0
  0
POINT
  5
AF2
330
AEA
100
AcDbEntity
  8
Defpoints
 62
     0
100
AcDbPoint
 10
2069.027482299761
 20
363.0932554037896
 30
0.0
  0
POINT
  5
AF3
330
AEA
100
AcDbEntity
  8
Defpoints
 62
     0
100
AcDbPoint
 10
2069.027482299761
 20
316.3820473078585
 30
0.0
  0
ENDBLK
  5
AF5
330
AEA
100
AcDbEntity
  8
0
100
AcDbBlockEnd
  0
BLOCK
  5
B00
330
AF6
100
AcDbEntity
  8
0
100
AcDbBlockBegin
  2
*D89
 70
     1
 10
0.0
 20
0.0
 30
0.0
  3
*D89
  1

  0
LINE
  5
AF7
330
AF6
100
AcDbEntity
  8
cotas
100
AcDbLine
 10
2108.17153699932
 20
506.3187173588004
 30
0.0
 11
2108.17153699932
 21
621.3820473078584
 31
0.0
  0
LINE
  5
AF8
330
AF6
100
AcDbEntity
  8
cotas
100
AcDbLine
 10
2069.027482299763
 20
566.3820473078584
 30
0.0
 11
2069.027482299763
 21
621.3820473078584
 31
0.0
  0
LINE
  5
AF9
330
AF6
100
AcDbEntity
  8
cotas
100
AcDbLine
 10
2098.171536999319
 20
616.3820473078584
 30
0.0
 11
2079.027482299763
 21
616.3820473078584
 31
0.0
  0
SOLID
  5
AFA
330
AF6
100
AcDbEntity
  8
cotas
100
AcDbTrace
 10
2098.171536999319
 20
618.0487139745251
 30
0.0
 11
2098.171536999319
 21
614.7153806411917
 31
0.0
 12
2108.17153699932
 22
616.3820473078584
 32
0.0
 13
2108.17153699932
 23
616.3820473078584
 33
0.0
  0
SOLID
  5
AFB
330
AF6
100
AcDbEntity
  8
cotas
100
AcDbTrace
 10
2079.027482299763
 20
618.0487139745251
 30
0.0
 11
2079.027482299763
 21
614.7153806411917
 31
0.0
 12
2069.027482299763
 22
616.3820473078584
 32
0.0
 13
2069.027482299763
 23
616.3820473078584
 33
0.0
  0
MTEXT
  5
AFC
330
AF6
100
AcDbEntity
  8
cotas
100
AcDbMText
 10
2088.599509649541
 20
626.5902407262601
 30
0.0
 40
10.0
 41
0.0
 71
     5
 72
     1
  1
39
  7
SANINDUSA
 73
     1
 44
1.0
1001
ACAD
1000
MTEXTBEGIN
1070
    73
1070
     1
1070
    44
1040
1.0
1070
    74
1070
     0
1000
MTEXTEND
  0
POINT
  5
AFD
330
AF6
100
AcDbEntity
  8
Defpoints
 62
     0
100
AcDbPoint
 10
2108.17153699932
 20
501.3187173588004
 30
0.0
  0
POINT
  5
AFE
330
AF6
100
AcDbEntity
  8
Defpoints
 62
     0
100
AcDbPoint
 10
2069.027482299763
 20
561.3820473078584
 30
0.0
  0
POINT
  5
AFF
330
AF6
100
AcDbEntity
  8
Defpoints
 62
     0
100
AcDbPoint
 10
2069.027482299763
 20
616.3820473078584
 30
0.0
  0
ENDBLK
  5
B01
330
AF6
100
AcDbEntity
  8
0
100
AcDbBlockEnd
  0
BLOCK
  5
B2D
330
B1D
100
AcDbEntity
  8
0
100
AcDbBlockBegin
  2
*D90
 70
     1
 10
0.0
 20
0.0
 30
0.0
  3
*D90
  1

  0
LINE
  5
B1E
330
B1D
100
AcDbEntity
  8
cotas
100
AcDbLine
 10
2556.585817657127
 20
544.0234010296826
 30
0.0
 11
2569.33844508367
 21
634.7630601013066
 31
0.0
  0
LINE
  5
B1F
330
B1D
100
AcDbEntity
  8
cotas
100
AcDbLine
 10
2550.528670865578
 20
553.523098412155
 30
0.0
 11
2550.528670865576
 21
636.0783676457559
 31
0.0
  0
ARC
  5
B20
330
B1D
100
AcDbEntity
  8
cotas
100
AcDbCircle
 10
2550.528670865578
 20
500.9245621450808
 30
0.0
 40
130.1538055006751
100
AcDbArc
 50
73.18699590626635
 51
81.99999999999581
  0
LINE
  5
B21
330
B1D
100
AcDbEntity
  8
cotas
100
AcDbLine
 10
2588.175537647347
 20
625.5147965449858
 30
0.0
 11
2624.639902775615
 21
614.4965245040212
 31
0.0
  0
ARC
  5
B22
330
B1D
100
AcDbEntity
  8
cotas
100
AcDbCircle
 10
2550.528670865578
 20
500.9245621450808
 30
0.0
 40
130.1538055006751
100
AcDbArc
 50
73.19351424697398
 51
77.5967571234849
  0
ARC
  5
B23
330
B1D
100
AcDbEntity
  8
cotas
100
AcDbCircle
 10
2550.528670865578
 20
500.9245621450808
 30
0.0
 40
130.1538055006751
100
AcDbArc
 50
94.40324287651135
 51
98.80648575302229
  0
ARC
  5
B24
330
B1D
100
AcDbEntity
  8
cotas
100
AcDbCircle
 10
2550.528670865578
 20
500.9245621450808
 30
0.0
 40
130.1538055006751
100
AcDbArc
 50
81.99999999999581
 51
90.00000000000044
  0
SOLID
  5
B25
330
B1D
100
AcDbEntity
  8
cotas
100
AcDbTrace
 10
2578.189297886589
 20
626.4002761730088
 30
0.0
 11
2578.779673194687
 21
629.6809114935983
 31
0.0
 12
2568.642579578869
 22
629.8117197575988
 32
0.0
 13
2568.642579578869
 23
629.8117197575988
 33
0.0
  0
SOLID
  5
B26
330
B1D
100
AcDbEntity
  8
cotas
100
AcDbTrace
 10
2540.472025756256
 20
632.3596431520249
 30
0.0
 11
2540.600079381754
 21
629.0287703865012
 31
0.0
 12
2550.528670865576
 22
631.0783676457559
 32
0.0
 13
2550.528670865576
 23
631.0783676457559
 33
0.0
  0
MTEXT
  5
B27
330
B1D
100
AcDbEntity
  8
cotas
100
AcDbMText
 10
2609.692610553736
 20
630.8768243876738
 30
0.0
 40
10.0
 41
0.0
 71
     5
 72
     1
  1
8,0°
  7
SANINDUSA
 11
0.9572538729899722
 21
-0.2892490668017758
 31
0.0
 73
     1
 44
1.0
1001
ACAD
1000
MTEXTBEGIN
1070
    73
1070
     1
1070
    44
1040
1.0
1070
    74
1070
     0
1000
MTEXTEND
  0
POINT
  5
B28
330
B1D
100
AcDbEntity
  8
Defpoints
 62
     0
100
AcDbPoint
 10
2556.584117300224
 20
630.9374255655312
 30
0.0
  0
POINT
  5
B29
330
B1D
100
AcDbEntity
  8
Defpoints
 62
     0
100
AcDbPoint
 10
2551.074035938777
 20
504.8050362745691
 30
0.0
  0
POINT
  5
B2A
330
B1D
100
AcDbEntity
  8
Defpoints
 62
     0
100
AcDbPoint
 10
2550.528670865578
 20
500.9245621450657
 30
0.0
  0
POINT
  5
B2B
330
B1D
100
AcDbEntity
  8
Defpoints
 62
     0
100
AcDbPoint
 10
2550.528670865578
 20
548.5230984121551
 30
0.0
  0
POINT
  5
B2C
330
B1D
100
AcDbEntity
  8
Defpoints
 62
     0
100
AcDbPoint
 10
2555.889952152326
 20
539.0720606859749
 30
0.0
  0
ENDBLK
  5
B2E
330
B1D
100
AcDbEntity
  8
0
100
AcDbBlockEnd
  0
BLOCK
  5
B3D
330
B2F
100
AcDbEntity
  8
0
100
AcDbBlockBegin
  2
*D91
 70
     1
 10
0.0
 20
0.0
 30
0.0
  3
*D91
  1

  0
ARC
  5
B30
330
B2F
100
AcDbEntity
  8
cotas
100
AcDbCircle
 10
2108.17153699932
 20
501.3187173588001
 30
0.0
 40
51.00384981383164
100
AcDbArc
 50
67.38627067684899
 51
90.00000000000031
  0
LINE
  5
B31
330
B2F
100
AcDbEntity
  8
cotas
100
AcDbLine
 10
2127.783360499629
 20
548.401294548506
 30
0.0
 11
2162.947402754609
 21
533.7540294363309
 31
0.0
  0
ARC
  5
B32
330
B2F
100
AcDbEntity
  8
cotas
100
AcDbCircle
 10
2108.17153699932
 20
501.3187173588001
 30
0.0
 40
51.00384981383164
100
AcDbArc
 50
67.49662039889658
 51
78.74831019944844
  0
ARC
  5
B33
330
B2F
100
AcDbEntity
  8
cotas
100
AcDbCircle
 10
2108.17153699932
 20
501.3187173588001
 30
0.0
 40
51.00384981383164
100
AcDbArc
 50
109.2516898005521
 51
120.503379601104
  0
ARC
  5
B34
330
B2F
100
AcDbEntity
  8
cotas
100
AcDbCircle
 10
2108.17153699932
 20
501.3187173588001
 30
0.0
 40
51.00384981383164
100
AcDbArc
 50
90.00000000000031
 51
98.00000000000029
  0
SOLID
  5
B35
330
B2F
100
AcDbEntity
  8
cotas
100
AcDbTrace
 10
2117.959983451728
 20
549.6836102146426
 30
0.0
 11
2118.286756170404
 21
553.0008878185581
 31
0.0
 12
2108.17153699932
 22
552.3225671726317
 32
0.0
 13
2108.17153699932
 23
552.3225671726317
 33
0.0
  0
SOLID
  5
B36
330
B2F
100
AcDbEntity
  8
cotas
100
AcDbTrace
 10
2090.96199051864
 20
551.0901540694264
 30
0.0
 11
2091.747258918565
 21
547.850637955685
 31
0.0
 12
2101.073173059827
 22
551.8262012123281
 32
0.0
 13
2101.073173059827
 23
551.8262012123281
 33
0.0
  0
MTEXT
  5
B37
330
B2F
100
AcDbEntity
  8
cotas
100
AcDbMText
 10
2149.732187922021
 20
551.5611590751355
 30
0.0
 40
10.0
 41
0.0
 71
     5
 72
     1
  1
8,0°
  7
SANINDUSA
 11
0.9231181050364092
 21
-0.3845165330047448
 31
0.0
 73
     1
 44
1.0
1001
ACAD
1000
MTEXTBEGIN
1070
    73
1070
     1
1070
    44
1040
1.0
1070
    74
1070
     0
1000
MTEXTEND
  0
POINT
  5
B38
330
B2F
100
AcDbEntity
  8
Defpoints
 62
     0
100
AcDbPoint
 10
2103.43073625226
 20
552.1017608291217
 30
0.0
  0
POINT
  5
B39
330
B2F
100
AcDbEntity
  8
Defpoints
 62
     0
100
AcDbPoint
 10
2099.632388055247
 20
562.077919210385
 30
0.0
  0
POINT
  5
B3A
330
B2F
100
AcDbEntity
  8
Defpoints
 62
     0
100
AcDbPoint
 10
2108.17153699932
 20
501.3187173588004
 30
0.0
  0
POINT
  5
B3B
330
B2F
100
AcDbEntity
  8
Defpoints
 62
     0
100
AcDbPoint
 10
2108.17153699932
 20
555.9959574311631
 30
0.0
  0
POINT
  5
B3C
330
B2F
100
AcDbEntity
  8
Defpoints
 62
     0
100
AcDbPoint
 10
2107.579492040426
 20
505.5313361336051
 30
0.0
  0
ENDBLK
  5
B3E
330
B2F
100
AcDbEntity
  8
0
100
AcDbBlockEnd
  0
BLOCK
  5
B49
330
B3F
100
AcDbEntity
  8
0
100
AcDbBlockBegin
  2
*D92
 70
     1
 10
0.0
 20
0.0
 30
0.0
  3
*D92
  1

  0
LINE
  5
B40
330
B3F
100
AcDbEntity
  8
cotas
100
AcDbLine
 10
751.7640128455837
 20
1065.54781040958
 30
0.0
 11
751.7640128455837
 21
1095.54781040958
 31
0.0
  0
LINE
  5
B41
330
B3F
100
AcDbEntity
  8
cotas
100
AcDbLine
 10
1381.764012845583
 20
1065.54781040958
 30
0.0
 11
1381.764012845583
 21
1095.54781040958
 31
0.0
  0
LINE
  5
B42
330
B3F
100
AcDbEntity
  8
cotas
100
AcDbLine
 10
761.7640128455836
 20
1090.54781040958
 30
0.0
 11
1371.764012845584
 21
1090.54781040958
 31
0.0
  0
SOLID
  5
B43
330
B3F
100
AcDbEntity
  8
cotas
100
AcDbTrace
 10
761.7640128455836
 20
1092.214477076247
 30
0.0
 11
761.7640128455836
 21
1088.881143742913
 31
0.0
 12
751.7640128455837
 22
1090.54781040958
 32
0.0
 13
751.7640128455837
 23
1090.54781040958
 33
0.0
  0
SOLID
  5
B44
330
B3F
100
AcDbEntity
  8
cotas
100
AcDbTrace
 10
1371.764012845584
 20
1092.214477076247
 30
0.0
 11
1371.764012845584
 21
1088.881143742913
 31
0.0
 12
1381.764012845583
 22
1090.54781040958
 32
0.0
 13
1381.764012845583
 23
1090.54781040958
 33
0.0
  0
MTEXT
  5
B45
330
B3F
100
AcDbEntity
  8
cotas
100
AcDbMText
 10
1066.764012845583
 20
1100.756003827981
 30
0.0
 40
10.0
 41
0.0
 71
     5
 72
     1
  1
630
  7
SANINDUSA
 73
     1
 44
1.0
1001
ACAD
1000
MTEXTBEGIN
1070
    73
1070
     1
1070
    44
1040
1.0
1070
    74
1070
     0
1000
MTEXTEND
  0
POINT
  5
B46
330
B3F
100
AcDbEntity
  8
Defpoints
 62
     0
100
AcDbPoint
 10
751.7640128455837
 20
1060.54781040958
 30
0.0
  0
POINT
  5
B47
330
B3F
100
AcDbEntity
  8
Defpoints
 62
     0
100
AcDbPoint
 10
1381.764012845583
 20
1060.54781040958
 30
0.0
  0
POINT
  5
B48
330
B3F
100
AcDbEntity
  8
Defpoints
 62
     0
100
AcDbPoint
 10
1381.764012845583
 20
1090.54781040958
 30
0.0
  0
ENDBLK
  5
B4A
330
B3F
100
AcDbEntity
  8
0
100
AcDbBlockEnd
  0
BLOCK
  5
B55
330
B4B
100
AcDbEntity
  8
0
100
AcDbBlockBegin
  2
*D93
 70
     1
 10
0.0
 20
0.0
 30
0.0
  3
*D93
  1

  0
LINE
  5
B4C
330
B4B
100
AcDbEntity
  8
cotas
100
AcDbLine
 10
191.4964108876197
 20
1065.54781040958
 30
0.0
 11
191.4964108876197
 21
1095.54781040958
 31
0.0
  0
LINE
  5
B4D
330
B4B
100
AcDbEntity
  8
cotas
100
AcDbLine
 10
541.4964108876233
 20
1066.54781040958
 30
0.0
 11
541.4964108876233
 21
1095.54781040958
 31
0.0
  0
LINE
  5
B4E
330
B4B
100
AcDbEntity
  8
cotas
100
AcDbLine
 10
201.4964108876197
 20
1090.54781040958
 30
0.0
 11
531.4964108876234
 21
1090.54781040958
 31
0.0
  0
SOLID
  5
B4F
330
B4B
100
AcDbEntity
  8
cotas
100
AcDbTrace
 10
201.4964108876197
 20
1092.214477076247
 30
0.0
 11
201.4964108876197
 21
1088.881143742913
 31
0.0
 12
191.4964108876197
 22
1090.54781040958
 32
0.0
 13
191.4964108876197
 23
1090.54781040958
 33
0.0
  0
SOLID
  5
B50
330
B4B
100
AcDbEntity
  8
cotas
100
AcDbTrace
 10
531.4964108876234
 20
1092.214477076247
 30
0.0
 11
531.4964108876234
 21
1088.881143742913
 31
0.0
 12
541.4964108876233
 22
1090.54781040958
 32
0.0
 13
541.4964108876233
 23
1090.54781040958
 33
0.0
  0
MTEXT
  5
B51
330
B4B
100
AcDbEntity
  8
cotas
100
AcDbMText
 10
366.4964108876215
 20
1100.756003827981
 30
0.0
 40
10.0
 41
0.0
 71
     5
 72
     1
  1
350
  7
SANINDUSA
 73
     1
 44
1.0
1001
ACAD
1000
MTEXTBEGIN
1070
    73
1070
     1
1070
    44
1040
1.0
1070
    74
1070
     0
1000
MTEXTEND
  0
POINT
  5
B52
330
B4B
100
AcDbEntity
  8
Defpoints
 62
     0
100
AcDbPoint
 10
191.4964108876197
 20
1060.54781040958
 30
0.0
  0
POINT
  5
B53
330
B4B
100
AcDbEntity
  8
Defpoints
 62
     0
100
AcDbPoint
 10
541.4964108876233
 20
1061.54781040958
 30
0.0
  0
POINT
  5
B54
330
B4B
100
AcDbEntity
  8
Defpoints
 62
     0
100
AcDbPoint
 10
541.4964108876233
 20
1090.54781040958
 30
0.0
  0
ENDBLK
  5
B56
330
B4B
100
AcDbEntity
  8
0
100
AcDbBlockEnd
  0
BLOCK
  5
B63
330
B57
100
AcDbEntity
  8
0
100
AcDbBlockBegin
  2
*D94
 70
     1
 10
0.0
 20
0.0
 30
0.0
  3
*D94
  1

  0
LINE
  5
B58
330
B57
100
AcDbEntity
  8
cotas
100
AcDbLine
 10
2495.192897425229
 20
498.0360817835902
 30
0.0
 11
2506.563908585667
 21
507.9207509809221
 31
0.0
  0
LINE
  5
B59
330
B57
100
AcDbEntity
  8
cotas
100
AcDbLine
 10
2415.327681357835
 20
498.0314116169053
 30
0.0
 11
2403.951297785197
 21
507.9207509809084
 31
0.0
  0
ARC
  5
B5A
330
B57
100
AcDbEntity
  8
cotas
100
AcDbCircle
 10
2455.257603185438
 20
463.320860130141
 30
0.0
 40
62.98152129603421
100
AcDbArc
 50
50.10681962396167
 51
129.8931803760537
  0
SOLID
  5
B5B
330
B57
100
AcDbEntity
  8
cotas
100
AcDbTrace
 10
2496.818399050996
 20
512.8327358620119
 30
0.0
 11
2494.484252103823
 21
510.4530574929639
 31
0.0
 12
2502.790360684553
 22
504.6404558359691
 32
0.0
 13
2502.790360684553
 23
504.6404558359691
 33
0.0
  0
SOLID
  5
B5C
330
B57
100
AcDbEntity
  8
cotas
100
AcDbTrace
 10
2416.03095426704
 20
510.4530574929533
 30
0.0
 11
2413.696807319866
 21
512.8327358620007
 31
0.0
 12
2407.724845686311
 22
504.6404558359563
 32
0.0
 13
2407.724845686311
 23
504.6404558359563
 33
0.0
  0
MTEXT
  5
B5D
330
B57
100
AcDbEntity
  8
cotas
100
AcDbMText
 10
2455.257603185429
 20
537.6589966041469
 30
0.0
 40
10.0
 41
0.0
 71
     5
 72
     1
  1
98,0°
  7
SANINDUSA
 73
     1
 44
1.0
1001
ACAD
1000
MTEXTBEGIN
1070
    73
1070
     1
1070
    44
1040
1.0
1070
    74
1070
     0
1000
MTEXTEND
  0
POINT
  5
B5E
330
B57
100
AcDbEntity
  8
Defpoints
 62
     0
100
AcDbPoint
 10
2472.969584879883
 20
523.7605633823777
 30
0.0
  0
POINT
  5
B5F
330
B57
100
AcDbEntity
  8
Defpoints
 62
     0
100
AcDbPoint
 10
2419.10122925895
 20
494.7511164719533
 30
0.0
  0
POINT
  5
B60
330
B57
100
AcDbEntity
  8
Defpoints
 62
     0
100
AcDbPoint
 10
2480.477308040476
 20
485.2440150922723
 30
0.0
  0
POINT
  5
B61
330
B57
100
AcDbEntity
  8
Defpoints
 62
     0
100
AcDbPoint
 10
2491.419349524115
 20
494.7557866386371
 30
0.0
  0
POINT
  5
B62
330
B57
100
AcDbEntity
  8
Defpoints
 62
     0
100
AcDbPoint
 10
2430.037898338071
 20
485.2440150855906
 30
0.0
  0
ENDBLK
  5
B64
330
B57
100
AcDbEntity
  8
0
100
AcDbBlockEnd
  0
BLOCK
  5
B6B
330
B65
100
AcDbEntity
  8
0
100
AcDbBlockBegin
  2
*D95
 70
     1
 10
0.0
 20
0.0
 30
0.0
  3
*D95
  1

  0
LINE
  5
B9F
330
B65
100
AcDbEntity
  8
cotas
100
AcDbLine
 10
2513.515072784569
 20
530.3398235718331
 30
0.0
 11
2542.145244102901
 21
508.530733396394
 31
0.0
  0
MTEXT
  5
BA0
330
B65
100
AcDbEntity
  8
cotas
100
AcDbMText
 10
2529.975449285767
 20
530.5028210077271
 30
0.0
 40
10.0
 41
0.0
 71
     5
 72
     1
  1
R5
  7
SANINDUSA
 11
0.7954902984324197
 21
-0.6059663234041146
 31
0.0
 73
     1
 44
1.0
1001
ACAD
1000
MTEXTBEGIN
1070
    73
1070
     1
1070
    44
1040
1.0
1070
    74
1070
     0
1000
MTEXTEND
  0
SOLID
  5
BA1
330
B65
100
AcDbEntity
  8
cotas
100
AcDbTrace
 10
2543.155187975242
 20
509.8565505604481
 30
0.0
 11
2541.135300230561
 21
507.2049162323398
 31
0.0
 12
2550.100147087226
 22
502.4710701623527
 32
0.0
 13
2550.100147087226
 23
502.4710701623527
 33
0.0
  0
POINT
  5
BA2
330
B65
100
AcDbEntity
  8
Defpoints
 62
     0
100
AcDbPoint
 10
2550.100147087226
 20
502.4710701623527
 30
0.0
  0
POINT
  5
BA3
330
B65
100
AcDbEntity
  8
Defpoints
 62
     0
100
AcDbPoint
 10
2546.122695595069
 20
505.5009017793698
 30
0.0
  0
ENDBLK
  5
B6C
330
B65
100
AcDbEntity
  8
0
100
AcDbBlockEnd
  0
BLOCK
  5
B73
330
B6D
100
AcDbEntity
  8
0
100
AcDbBlockBegin
  2
*D96
 70
     1
 10
0.0
 20
0.0
 30
0.0
  3
*D96
  1

  0
LINE
  5
BA4
330
B6D
100
AcDbEntity
  8
cotas
100
AcDbLine
 10
2146.270405121752
 20
529.505310080578
 30
0.0
 11
2116.646358214088
 21
509.0666465036754
 31
0.0
  0
MTEXT
  5
BA5
330
B6D
100
AcDbEntity
  8
cotas
100
AcDbMText
 10
2129.835902394046
 20
530.442157356427
 30
0.0
 40
10.0
 41
0.0
 71
     5
 72
     1
  1
R5
  7
SANINDUSA
 11
0.8231051659920181
 21
0.567888973054815
 31
0.0
 73
     1
 44
1.0
1001
ACAD
1000
MTEXTBEGIN
1070
    73
1070
     1
1070
    44
1040
1.0
1070
    74
1070
     0
1000
MTEXTEND
  0
SOLID
  5
BA6
330
B6D
100
AcDbEntity
  8
cotas
100
AcDbTrace
 10
2115.69987659233
 20
510.4384884469953
 30
0.0
 11
2117.592839835845
 21
507.6948045603554
 31
0.0
 12
2108.415306554167
 22
503.3877567731272
 32
0.0
 13
2108.415306554167
 23
503.3877567731272
 33
0.0
  0
POINT
  5
BA7
330
B6D
100
AcDbEntity
  8
Defpoints
 62
     0
100
AcDbPoint
 10
2108.415306554167
 20
503.3877567731272
 30
0.0
  0
POINT
  5
BA8
330
B6D
100
AcDbEntity
  8
Defpoints
 62
     0
100
AcDbPoint
 10
2112.530832384133
 20
506.2272016384054
 30
0.0
  0
ENDBLK
  5
B74
330
B6D
100
AcDbEntity
  8
0
100
AcDbBlockEnd
  0
BLOCK
  5
B7F
330
B75
100
AcDbEntity
  8
0
100
AcDbBlockBegin
  2
*D97
 70
     1
 10
0.0
 20
0.0
 30
0.0
  3
*D97
  1

  0
LINE
  5
B8D
330
B75
100
AcDbEntity
  8
cotas
100
AcDbLine
 10
2334.37780138382
 20
566.3820473078584
 30
0.0
 11
2403.939969993877
 21
566.3820473078584
 31
0.0
  0
LINE
  5
B8E
330
B75
100
AcDbEntity
  8
cotas
100
AcDbLine
 10
2414.750438806735
 20
494.7500268092087
 30
0.0
 11
2393.939969993876
 21
494.7500268092087
 31
0.0
  0
LINE
  5
B8F
330
B75
100
AcDbEntity
  8
cotas
100
AcDbLine
 10
2398.939969993876
 20
556.3820473078584
 30
0.0
 11
2398.939969993876
 21
504.7500268092087
 31
0.0
  0
SOLID
  5
B90
330
B75
100
AcDbEntity
  8
cotas
100
AcDbTrace
 10
2397.27330332721
 20
556.3820473078584
 30
0.0
 11
2400.606636660543
 21
556.3820473078584
 31
0.0
 12
2398.939969993876
 22
566.3820473078584
 32
0.0
 13
2398.939969993876
 23
566.3820473078584
 33
0.0
  0
SOLID
  5
B91
330
B75
100
AcDbEntity
  8
cotas
100
AcDbTrace
 10
2397.27330332721
 20
504.7500268092087
 30
0.0
 11
2400.606636660543
 21
504.7500268092087
 31
0.0
 12
2398.939969993876
 22
494.7500268092087
 32
0.0
 13
2398.939969993876
 23
494.7500268092087
 33
0.0
  0
MTEXT
  5
B92
330
B75
100
AcDbEntity
  8
cotas
100
AcDbMText
 10
2388.835873284675
 20
530.5660370585339
 30
0.0
 40
10.0
 41
0.0
 71
     5
 72
     1
  1
72
  7
SANINDUSA
 11
0.0000000000000001
 21
1.0
 31
0.0
 73
     1
 44
1.0
1001
ACAD
1000
MTEXTBEGIN
1070
    73
1070
     1
1070
    44
1040
1.0
1070
    74
1070
     0
1000
MTEXTEND
  0
POINT
  5
B93
330
B75
100
AcDbEntity
  8
Defpoints
 62
     0
100
AcDbPoint
 10
2329.37780138382
 20
566.3820473078584
 30
0.0
  0
POINT
  5
B94
330
B75
100
AcDbEntity
  8
Defpoints
 62
     0
100
AcDbPoint
 10
2419.750438806735
 20
494.7500268092087
 30
0.0
  0
POINT
  5
B95
330
B75
100
AcDbEntity
  8
Defpoints
 62
     0
100
AcDbPoint
 10
2398.939969993876
 20
494.7500268092087
 30
0.0
  0
ENDBLK
  5
B80
330
B75
100
AcDbEntity
  8
0
100
AcDbBlockEnd
  0
BLOCK
  5
B8B
330
B81
100
AcDbEntity
  8
0
100
AcDbBlockBegin
  2
*D98
 70
     1
 10
0.0
 20
0.0
 30
0.0
  3
*D98
  1

  0
LINE
  5
B96
330
B81
100
AcDbEntity
  8
cotas
100
AcDbLine
 10
2700.027482299762
 20
566.3820473078588
 30
0.0
 11
2779.027482299762
 21
566.3820473078588
 31
0.0
  0
LINE
  5
B97
330
B81
100
AcDbEntity
  8
cotas
100
AcDbLine
 10
2493.424940837393
 20
446.7490984688212
 30
0.0
 11
2779.027482299762
 21
446.7490984688211
 31
0.0
  0
LINE
  5
B98
330
B81
100
AcDbEntity
  8
cotas
100
AcDbLine
 10
2774.027482299763
 20
556.3820473078587
 30
0.0
 11
2774.027482299763
 21
456.7490984688212
 31
0.0
  0
SOLID
  5
B99
330
B81
100
AcDbEntity
  8
cotas
100
AcDbTrace
 10
2772.360815633096
 20
556.3820473078587
 30
0.0
 11
2775.694148966429
 21
556.3820473078587
 31
0.0
 12
2774.027482299763
 22
566.3820473078588
 32
0.0
 13
2774.027482299763
 23
566.3820473078588
 33
0.0
  0
SOLID
  5
B9A
330
B81
100
AcDbEntity
  8
cotas
100
AcDbTrace
 10
2772.360815633096
 20
456.7490984688212
 30
0.0
 11
2775.694148966429
 21
456.7490984688212
 31
0.0
 12
2774.027482299763
 22
446.7490984688211
 32
0.0
 13
2774.027482299763
 23
446.7490984688211
 33
0.0
  0
MTEXT
  5
B9B
330
B81
100
AcDbEntity
  8
cotas
100
AcDbMText
 10
2763.819288881361
 20
506.5655728883403
 30
0.0
 40
10.0
 41
0.0
 71
     5
 72
     1
  1
120
  7
SANINDUSA
 11
0.0000000000000001
 21
1.0
 31
0.0
 73
     1
 44
1.0
1001
ACAD
1000
MTEXTBEGIN
1070
    73
1070
     1
1070
    44
1040
1.0
1070
    74
1070
     0
1000
MTEXTEND
  0
POINT
  5
B9C
330
B81
100
AcDbEntity
  8
Defpoints
 62
     0
100
AcDbPoint
 10
2695.027482299762
 20
566.3820473078588
 30
0.0
  0
POINT
  5
B9D
330
B81
100
AcDbEntity
  8
Defpoints
 62
     0
100
AcDbPoint
 10
2488.424940837393
 20
446.7490984688212
 30
0.0
  0
POINT
  5
B9E
330
B81
100
AcDbEntity
  8
Defpoints
 62
     0
100
AcDbPoint
 10
2774.027482299763
 20
446.7490984688211
 30
0.0
  0
ENDBLK
  5
B8C
330
B81
100
AcDbEntity
  8
0
100
AcDbBlockEnd
  0
ENDSEC
  0
SECTION
  2
ENTITIES
  0
LINE
  5
5DA
330
23
100
AcDbEntity
  8
SANINDUSA
100
AcDbLine
 10
1068.443737295282
 20
1065.43281040958
 30
0.0
 11
1068.453737295282
 21
1065.43281040958
 31
0.0
  0
LINE
  5
5DB
330
23
100
AcDbEntity
  8
SANINDUSA
100
AcDbLine
 10
1068.723737295282
 20
1065.43281040958
 30
0.0
 11
1068.733737295282
 21
1065.43281040958
 31
0.0
  0
ARC
  5
5E5
330
23
100
AcDbEntity
  8
SANINDUSA
100
AcDbCircle
 10
1068.443737299368
 20
1065.442810415007
 30
0.0
 40
0.0100000052781585
100
AcDbArc
 50
180.0000208440831
 51
270.0000004950469
  0
ARC
  5
5E7
330
23
100
AcDbEntity
  8
SANINDUSA
100
AcDbCircle
 10
1068.453737293526
 20
1065.442810411485
 30
0.0
 40
0.0100000017560519
100
AcDbArc
 50
269.999979325275
 51
359.9999993355949
  0
ARC
  5
5E9
330
23
100
AcDbEntity
  8
SANINDUSA
100
AcDbCircle
 10
1068.723737309206
 20
1065.442810431218
 30
0.0
 40
0.0100000214890925
100
AcDbArc
 50
182.6050151696617
 51
269.9999509512668
  0
ARC
  5
5EB
330
23
100
AcDbEntity
  8
SANINDUSA
100
AcDbCircle
 10
1068.733737294718
 20
1065.442810411485
 30
0.0
 40
0.0100000017560515
100
AcDbArc
 50
269.999979325275
 51
359.9999993355949
  0
LINE
  5
5ED
330
23
100
AcDbEntity
  8
SANINDUSA
100
AcDbLine
 10
1068.524560091805
 20
1065.447396526318
 30
0.0
 11
1068.478518061104
 21
1065.403357403087
 31
0.0
  0
LINE
  5
5EE
330
23
100
AcDbEntity
  8
SANINDUSA
100
AcDbLine
 10
1068.698956529461
 20
1065.403357403087
 30
0.0
 11
1068.673007648361
 21
1065.428177460741
 31
0.0
  0
ARC
  5
5F0
330
23
100
AcDbEntity
  8
SANINDUSA
100
AcDbCircle
 10
1068.453737295076
 20
1065.442810409076
 30
0.0
 40
0.0100000002059492
100
AcDbArc
 50
0.0000131317723914
 51
90.00002955951542
  0
ARC
  5
5F3
330
23
100
AcDbEntity
  8
SANINDUSA
100
AcDbCircle
 10
1068.443737294296
 20
1065.442810409076
 30
0.0
 40
0.0100000002059496
100
AcDbArc
 50
89.99997044048457
 51
179.9999868682276
  0
LINE
  5
5F5
330
23
100
AcDbEntity
  8
SANINDUSA
100
AcDbLine
 10
1068.453737295282
 20
1065.45281040958
 30
0.0
 11
1068.443737295282
 21
1065.45281040958
 31
0.0
  0
LWPOLYLINE
  5
5F7
330
23
100
AcDbEntity
  8
SANINDUSA
100
AcDbPolyline
 90
        3
 70
     0
 43
0.0
 10
1068.743737296474
 20
1065.442810411368
 10
1068.743545146001
 20
1065.44476131237
 10
1068.743391857755
 20
1065.44541603959
  0
ARC
  5
602
330
23
100
AcDbEntity
  8
SANINDUSA
100
AcDbCircle
 10
1068.566032944592
 20
1065.40403746361
 30
0.0
 40
0.0600000467589908
100
AcDbArc
 50
90.00002407491605
 51
133.7262543275652
  0
ARC
  5
603
330
23
100
AcDbEntity
  8
SANINDUSA
100
AcDbCircle
 10
1068.611441559917
 20
1065.404036712232
 30
0.0
 40
0.0600007981374989
100
AcDbArc
 50
78.27137943944411
 51
89.9998937472861
  0
LINE
  5
604
330
23
100
AcDbEntity
  8
SANINDUSA
100
AcDbLine
 10
1068.611441671151
 20
1065.464037506839
 30
0.0
 11
1068.566032919413
 21
1065.464037506839
 31
0.0
  0
LINE
  5
61B
330
23
100
AcDbEntity
  8
SANINDUSA
100
AcDbLine
 10
1068.30929354228
 20
1065.54781040958
 30
0.0
 11
1068.758881686452
 21
1065.54781040958
 31
0.0
  0
LINE
  5
621
330
23
100
AcDbEntity
  8
SANINDUSA
100
AcDbLine
 10
1068.758881686452
 20
1065.54781040958
 30
0.0
 11
1068.768784367139
 21
1065.54781040958
 31
0.0
  0
LINE
  5
623
330
23
100
AcDbEntity
  8
SANINDUSA
100
AcDbLine
 10
1068.299390861593
 20
1065.54781040958
 30
0.0
 11
1068.30929354228
 21
1065.54781040958
 31
0.0
  0
ARC
  5
635
330
23
100
AcDbEntity
  8
SANINDUSA
100
AcDbCircle
 10
1068.830208673788
 20
1065.53081040958
 30
0.0
 40
0.0050000000000001
100
AcDbArc
 50
10.00000000122301
 51
90.0
  0
LWPOLYLINE
  5
636
330
23
100
AcDbEntity
  8
SANINDUSA
100
AcDbPolyline
 90
       15
 70
     0
 43
0.0
 10
1068.858154461992
 20
1065.401115816821
 10
1068.856874064815
 20
1065.408377249528
 10
1068.855533556354
 20
1065.415979762365
 10
1068.854133800876
 20
1065.423918106396
 10
1068.85267581166
 20
1065.432186796133
 10
1068.851160572183
 20
1065.440780120705
 10
1068.849589155328
 20
1065.449692147587
 10
1068.847962604177
 20
1065.458916715149
 10
1068.84628208102
 20
1065.468447456871
 10
1068.844548718345
 20
1065.478277790163
 10
1068.842763738048
 20
1065.488400916372
 10
1068.840928362024
 20
1065.498809854303
 10
1068.839043871772
 20
1065.509497406696
 10
1068.837111533892
 20
1065.520456197475
 10
1068.83513271929
 20
1065.53167865685
  0
ARC
  5
63A
330
23
100
AcDbEntity
  8
SANINDUSA
100
AcDbCircle
 10
1068.862093693807
 20
1065.40181040958
 30
0.0
 40
0.0040000000000002
100
AcDbArc
 50
190.000000001223
 51
270.0
  0
LWPOLYLINE
  5
63B
330
23
100
AcDbEntity
  8
SANINDUSA
100
AcDbPolyline
 90
       15
 70
     0
 43
0.0
 10
1068.760599763405
 20
1065.520500424121
 10
1068.760624186409
 20
1065.520674216364
 10
1068.760696248424
 20
1065.521186890815
 10
1068.760812313569
 20
1065.522012742971
 10
1068.76096657039
 20
1065.523110340153
 10
1068.761151285184
 20
1065.524424667273
 10
1068.761357189429
 20
1065.525889809046
 10
1068.761573971522
 20
1065.527432302747
 10
1068.761790753615
 20
1065.528974781547
 10
1068.761996672762
 20
1065.53043992332
 10
1068.762181387556
 20
1065.531754250441
 10
1068.762335644376
 20
1065.532851855074
 10
1068.762451709521
 20
1065.533677707229
 10
1068.762523756635
 20
1065.53419038168
 10
1068.76254819454
 20
1065.534364173923
  0
LINE
  5
63E
330
23
100
AcDbEntity
  8
SANINDUSA
100
AcDbLine
 10
1068.809265838296
 20
1065.54781040958
 30
0.0
 11
1068.846265838296
 21
1065.54781040958
 31
0.0
  0
LINE
  5
640
330
23
100
AcDbEntity
  8
SANINDUSA
100
AcDbLine
 10
1068.846265838296
 20
1065.53581040958
 30
0.0
 11
1068.809265838296
 21
1065.53581040958
 31
0.0
  0
LINE
  5
649
330
23
100
AcDbEntity
  8
SANINDUSA
100
AcDbLine
 10
1068.77309969064
 20
1065.448482716054
 30
0.0
 11
1068.700449731426
 21
1065.439258325641
 31
0.0
  0
ARC
  5
64A
330
23
100
AcDbEntity
  8
SANINDUSA
100
AcDbCircle
 10
1068.772072867586
 20
1065.458429858076
 30
0.0
 40
0.0100000000000002
100
AcDbArc
 50
275.8936506084584
 51
352.0000000018956
  0
ARC
  5
64B
330
23
100
AcDbEntity
  8
SANINDUSA
100
AcDbCircle
 10
1068.797392704298
 20
1065.53081040958
 30
0.0
 40
0.0050000000000001
100
AcDbArc
 50
90.0
 51
172.0000000018956
  0
LINE
  5
64C
330
23
100
AcDbEntity
  8
SANINDUSA
100
AcDbLine
 10
1068.797392704298
 20
1065.53581040958
 30
0.0
 11
1068.809265838296
 21
1065.53581040958
 31
0.0
  0
ARC
  5
64D
330
23
100
AcDbEntity
  8
SANINDUSA
100
AcDbCircle
 10
1068.809265838296
 20
1065.53681040958
 30
0.0
 40
0.001
100
AcDbArc
 50
270.0
 51
0.0
  0
LINE
  5
64E
330
23
100
AcDbEntity
  8
SANINDUSA
100
AcDbLine
 10
1068.810265838296
 20
1065.54681040958
 30
0.0
 11
1068.810265838296
 21
1065.53681040958
 31
0.0
  0
ARC
  5
64F
330
23
100
AcDbEntity
  8
SANINDUSA
100
AcDbCircle
 10
1068.809265838296
 20
1065.54681040958
 30
0.0
 40
0.001
100
AcDbArc
 50
0.0
 51
90.0
  0
LINE
  5
650
330
23
100
AcDbEntity
  8
SANINDUSA
100
AcDbLine
 10
1068.809265838296
 20
1065.54781040958
 30
0.0
 11
1068.768784367139
 21
1065.54781040958
 31
0.0
  0
ARC
  5
651
330
23
100
AcDbEntity
  8
SANINDUSA
100
AcDbCircle
 10
1068.768784367139
 20
1065.54281040958
 30
0.0
 40
0.005
100
AcDbArc
 50
90.0
 51
172.0000000018956
  0
LINE
  5
652
330
23
100
AcDbEntity
  8
SANINDUSA
100
AcDbLine
 10
1068.762548188548
 20
1065.53436417592
 30
0.0
 11
1068.763833027717
 21
1065.543506281639
 31
0.0
  0
ARC
  5
653
330
23
100
AcDbEntity
  8
SANINDUSA
100
AcDbCircle
 10
1068.763538456617
 20
1065.53422500282
 30
0.0
 40
0.0009999999999999
100
AcDbArc
 50
172.0000000018956
 51
262.0000000018956
  0
LINE
  5
654
330
23
100
AcDbEntity
  8
SANINDUSA
100
AcDbLine
 10
1068.772311696134
 20
1065.531982176842
 30
0.0
 11
1068.763399283516
 21
1065.533234734751
 31
0.0
  0
LINE
  5
655
330
23
100
AcDbEntity
  8
SANINDUSA
100
AcDbLine
 10
1068.8788381763
 20
1065.401112271896
 30
0.0
 11
1068.882162003879
 21
1065.509902025119
 31
0.0
  0
ARC
  5
656
330
23
100
AcDbEntity
  8
SANINDUSA
100
AcDbCircle
 10
1068.874857639828
 20
1065.40181040958
 30
0.0
 40
0.004
100
AcDbArc
 50
270.0
 51
358.2500000062438
  0
LINE
  5
657
330
23
100
AcDbEntity
  8
SANINDUSA
100
AcDbLine
 10
1068.867651674149
 20
1065.401670811593
 30
0.0
 11
1068.863135926429
 21
1065.530984907063
 31
0.0
  0
ARC
  5
658
330
23
100
AcDbEntity
  8
SANINDUSA
100
AcDbCircle
 10
1068.871649237457
 20
1065.40181040958
 30
0.0
 40
0.004
100
AcDbArc
 50
182.0000000037536
 51
270.0
  0
ARC
  5
659
330
23
100
AcDbEntity
  8
SANINDUSA
100
AcDbCircle
 10
1068.885160604652
 20
1065.50981040958
 30
0.0
 40
0.003
100
AcDbArc
 50
90.0
 51
178.2500000062437
  0
LINE
  5
65A
330
23
100
AcDbEntity
  8
SANINDUSA
100
AcDbLine
 10
1068.900737295282
 20
1065.51281040958
 30
0.0
 11
1068.885160604652
 21
1065.51281040958
 31
0.0
  0
ARC
  5
65B
330
23
100
AcDbEntity
  8
SANINDUSA
100
AcDbCircle
 10
1068.900737295282
 20
1065.51581040958
 30
0.0
 40
0.0030000000000001
100
AcDbArc
 50
270.0
 51
0.0
  0
LINE
  5
65C
330
23
100
AcDbEntity
  8
SANINDUSA
100
AcDbLine
 10
1068.903737295282
 20
1065.54381040958
 30
0.0
 11
1068.903737295282
 21
1065.51581040958
 31
0.0
  0
ARC
  5
65D
330
23
100
AcDbEntity
  8
SANINDUSA
100
AcDbCircle
 10
1068.899737295282
 20
1065.54381040958
 30
0.0
 40
0.0040000000000001
100
AcDbArc
 50
0.0
 51
90.0
  0
LINE
  5
65E
330
23
100
AcDbEntity
  8
SANINDUSA
100
AcDbLine
 10
1068.899737295282
 20
1065.54781040958
 30
0.0
 11
1068.846265838296
 21
1065.54781040958
 31
0.0
  0
ARC
  5
65F
330
23
100
AcDbEntity
  8
SANINDUSA
100
AcDbCircle
 10
1068.846265838296
 20
1065.54681040958
 30
0.0
 40
0.001
100
AcDbArc
 50
90.0
 51
180.0
  0
LINE
  5
660
330
23
100
AcDbEntity
  8
SANINDUSA
100
AcDbLine
 10
1068.845265838296
 20
1065.53681040958
 30
0.0
 11
1068.845265838296
 21
1065.54681040958
 31
0.0
  0
ARC
  5
661
330
23
100
AcDbEntity
  8
SANINDUSA
100
AcDbCircle
 10
1068.846265838296
 20
1065.53681040958
 30
0.0
 40
0.001
100
AcDbArc
 50
180.0
 51
270.0
  0
LINE
  5
662
330
23
100
AcDbEntity
  8
SANINDUSA
100
AcDbLine
 10
1068.846265838296
 20
1065.53581040958
 30
0.0
 11
1068.858138972293
 21
1065.53581040958
 31
0.0
  0
LINE
  5
666
330
23
100
AcDbEntity
  8
SANINDUSA
100
AcDbLine
 10
1068.761729206304
 20
1065.521351517926
 30
0.0
 11
1068.770641618923
 21
1065.520098960017
 31
0.0
  0
ARC
  5
667
330
23
100
AcDbEntity
  8
SANINDUSA
100
AcDbCircle
 10
1068.761590033203
 20
1065.520361249857
 30
0.0
 40
0.0009999999999999
100
AcDbArc
 50
82.00000000189561
 51
172.0000000018956
  0
ARC
  5
668
330
23
100
AcDbEntity
  8
SANINDUSA
100
AcDbCircle
 10
1068.750832508577
 20
1065.486929264052
 30
0.0
 40
0.0049999999999999
100
AcDbArc
 50
276.7480933400312
 51
352.0000000018956
  0
LWPOLYLINE
  5
669
330
23
100
AcDbEntity
  8
SANINDUSA
100
AcDbPolyline
 90
        3
 70
     0
 43
0.0
 10
1068.751420176148
 20
1065.481963919469
 10
1068.723848493111
 20
1065.479154947017
 10
1068.696171091211
 20
1065.476176242147
  0
ARC
  5
66A
330
23
100
AcDbEntity
  8
SANINDUSA
100
AcDbCircle
 10
1068.317240645366
 20
1065.487655563911
 30
0.0
 40
0.0050000000000001
100
AcDbArc
 50
187.9999999981044
 51
267.9387100717895
  0
LINE
  5
66B
330
23
100
AcDbEntity
  8
SANINDUSA
100
AcDbLine
 10
1068.304342201038
 20
1065.543506281483
 30
0.0
 11
1068.312289305023
 21
1065.486959698406
 31
0.0
  0
ARC
  5
66C
330
23
100
AcDbEntity
  8
SANINDUSA
100
AcDbCircle
 10
1068.299390861593
 20
1065.54281040958
 30
0.0
 40
0.0050000000000001
100
AcDbArc
 50
7.999999998104389
 51
90.0
  0
LINE
  5
66D
330
23
100
AcDbEntity
  8
SANINDUSA
100
AcDbLine
 10
1068.299390861593
 20
1065.54781040958
 30
0.0
 11
1068.278737295282
 21
1065.54781040958
 31
0.0
  0
ARC
  5
66E
330
23
100
AcDbEntity
  8
SANINDUSA
100
AcDbCircle
 10
1068.278737295282
 20
1065.54281040958
 30
0.0
 40
0.005
100
AcDbArc
 50
90.0
 51
180.0
  0
LINE
  5
66F
330
23
100
AcDbEntity
  8
SANINDUSA
100
AcDbLine
 10
1068.273737295282
 20
1065.51581040958
 30
0.0
 11
1068.273737295282
 21
1065.54281040958
 31
0.0
  0
ARC
  5
670
330
23
100
AcDbEntity
  8
SANINDUSA
100
AcDbCircle
 10
1068.276737295282
 20
1065.51581040958
 30
0.0
 40
0.003
100
AcDbArc
 50
180.0
 51
270.0
  0
LINE
  5
671
330
23
100
AcDbEntity
  8
SANINDUSA
100
AcDbLine
 10
1068.292313985912
 20
1065.51281040958
 30
0.0
 11
1068.276737295282
 21
1065.51281040958
 31
0.0
  0
ARC
  5
672
330
23
100
AcDbEntity
  8
SANINDUSA
100
AcDbCircle
 10
1068.292313985912
 20
1065.50981040958
 30
0.0
 40
0.003
100
AcDbArc
 50
1.749999993756285
 51
90.0
  0
ARC
  5
673
330
23
100
AcDbEntity
  8
SANINDUSA
100
AcDbCircle
 10
1068.302616950736
 20
1065.40181040958
 30
0.0
 40
0.004
100
AcDbArc
 50
181.7499999937563
 51
270.0
  0
LINE
  5
674
330
23
100
AcDbEntity
  8
SANINDUSA
100
AcDbLine
 10
1068.315007234937
 20
1065.39781040958
 30
0.0
 11
1068.302616940153
 21
1065.39781040958
 31
0.0
  0
ARC
  5
675
330
23
100
AcDbEntity
  8
SANINDUSA
100
AcDbCircle
 10
1068.315007234937
 20
1065.40181040958
 30
0.0
 40
0.0040000000000001
100
AcDbArc
 50
270.0
 51
355.9999999998427
  0
LINE
  5
676
330
23
100
AcDbEntity
  8
SANINDUSA
100
AcDbLine
 10
1068.32361672932
 20
1065.46758956728
 30
0.0
 11
1068.318997491087
 21
1065.401531382952
 31
0.0
  0
ARC
  5
677
330
23
100
AcDbEntity
  8
SANINDUSA
100
AcDbCircle
 10
1068.328604549571
 20
1065.467240784911
 30
0.0
 40
0.0050000000000001
100
AcDbArc
 50
88.00670158167761
 51
175.9999999998427
  0
LINE
  5
678
330
23
100
AcDbEntity
  8
SANINDUSA
100
AcDbLine
 10
1068.623824808906
 20
1065.461375632666
 30
0.0
 11
1068.624916710511
 21
1065.430107661748
 31
0.0
  0
ARC
  5
679
330
23
100
AcDbEntity
  8
SANINDUSA
100
AcDbCircle
 10
1068.618827854771
 20
1065.461201135183
 30
0.0
 40
0.0050000000000001
100
AcDbArc
 50
2.000000003753602
 51
89.6435126014501
  0
LWPOLYLINE
  5
67A
330
23
100
AcDbEntity
  8
SANINDUSA
100
AcDbPolyline
 90
        4
 70
     0
 43
0.0
 10
1068.618858964455
 20
1065.466201039765
 10
1068.543355738086
 20
1065.467023583863
 10
1068.436059133422
 20
1065.469069923077
 10
1068.32872607309
 20
1065.472239307896
  0
CIRCLE
  5
67F
330
23
100
AcDbEntity
  8
SANINDUSA
100
AcDbCircle
 10
1066.58843438677
 20
1065.450060012107
 30
0.0
 40
0.0235000137767134
  0
LWPOLYLINE
  5
691
330
23
100
AcDbEntity
  8
SANINDUSA
100
AcDbPolyline
 90
        4
 70
     0
 43
0.0
 10
1066.679416667643
 20
1065.313596863422
 10
1066.531244201559
 20
1065.31364521769
 10
1066.3830723874
 20
1065.313622448716
 10
1066.245686959448
 20
1065.313591379795
  0
LWPOLYLINE
  5
692
330
23
100
AcDbEntity
  8
SANINDUSA
100
AcDbPolyline
 90
        4
 70
     0
 43
0.0
 10
1066.240735601607
 20
1065.318542707834
 10
1066.240756195012
 20
1065.444191747933
 10
1066.24075065178
 20
1065.512884561095
 10
1066.240735601607
 20
1065.581577289972
  0
LWPOLYLINE
  5
693
330
23
100
AcDbEntity
  8
SANINDUSA
100
AcDbPolyline
 90
        4
 70
     0
 43
0.0
 10
1066.245686959448
 20
1065.586528618011
 10
1066.39385871959
 20
1065.586495641741
 10
1066.542030546787
 20
1065.586473453912
 10
1066.679416667643
 20
1065.586523134384
  0
LINE
  5
694
330
23
100
AcDbEntity
  8
SANINDUSA
100
AcDbLine
 10
1066.689066706065
 20
1065.440984661609
 30
0.0
 11
1066.689066706065
 21
1065.459135336197
 31
0.0
  0
LWPOLYLINE
  5
695
330
23
100
AcDbEntity
  8
SANINDUSA
100
AcDbPolyline
 90
       15
 70
     0
 43
0.0
 10
1066.689066704336
 20
1065.459135335992
 10
1066.689091127339
 20
1065.460692982312
 10
1066.689163189354
 20
1065.462172522332
 10
1066.689279254499
 20
1065.463499765034
 10
1066.689433511319
 20
1065.464608156245
 10
1066.689618226114
 20
1065.465442118357
 10
1066.689824130359
 20
1065.465959832195
 10
1066.690040912452
 20
1065.466135336208
 10
1066.690257694545
 20
1065.465959832195
 10
1066.690463613692
 20
1065.465442118357
 10
1066.690648328486
 20
1065.464608156245
 10
1066.690802585307
 20
1065.463499765034
 10
1066.690918650451
 20
1065.462172522332
 10
1066.690990697566
 20
1065.460692982312
 10
1066.69101513547
 20
1065.459135335992
  0
LWPOLYLINE
  5
697
330
23
100
AcDbEntity
  8
SANINDUSA
100
AcDbPolyline
 90
       15
 70
     0
 43
0.0
 10
1066.69101513547
 20
1065.440984661813
 10
1066.690990697566
 20
1065.439427015494
 10
1066.690918650451
 20
1065.437947475474
 10
1066.690802585307
 20
1065.436620232771
 10
1066.690648328486
 20
1065.435511841561
 10
1066.690463613692
 20
1065.434677879449
 10
1066.690257694545
 20
1065.434160165611
 10
1066.690040912452
 20
1065.433984661597
 10
1066.689824130359
 20
1065.434160165611
 10
1066.689618226114
 20
1065.434677879449
 10
1066.689433511319
 20
1065.435511841561
 10
1066.689279254499
 20
1065.436620232771
 10
1066.689163189354
 20
1065.437947475474
 10
1066.689091127339
 20
1065.439427015494
 10
1066.689066704336
 20
1065.440984661813
  0
LWPOLYLINE
  5
698
330
23
100
AcDbEntity
  8
SANINDUSA
100
AcDbPolyline
 90
        5
 70
     0
 43
0.0
 10
1066.684368010583
 20
1065.581571806345
 10
1066.684287365499
 20
1065.518753234419
 10
1066.684251096073
 20
1065.455931190989
 10
1066.684281747761
 20
1065.387238334987
 10
1066.684368010583
 20
1065.318548191461
  0
ARC
  5
69B
330
23
100
AcDbEntity
  8
SANINDUSA
100
AcDbCircle
 10
1066.245800941236
 20
1065.31865672011
 30
0.0
 40
0.0050666225788935
100
AcDbArc
 50
181.2894139192432
 51
268.7109309553615
  0
ARC
  5
69E
330
23
100
AcDbEntity
  8
SANINDUSA
100
AcDbCircle
 10
1066.6793027017
 20
1065.318662172648
 30
0.0
 40
0.0050665911412183
100
AcDbArc
 50
271.288897819178
 51
358.7109297435196
  0
ARC
  5
6A1
330
23
100
AcDbEntity
  8
SANINDUSA
100
AcDbCircle
 10
1066.245800941236
 20
1065.581463277696
 30
0.0
 40
0.0050666225788933
100
AcDbArc
 50
91.28906904463852
 51
178.7105860807567
  0
ARC
  5
6A4
330
23
100
AcDbEntity
  8
SANINDUSA
100
AcDbCircle
 10
1066.6793027017
 20
1065.581457825158
 30
0.0
 40
0.0050665911412185
100
AcDbArc
 50
1.28907025648037
 51
88.71110218082199
  0
ARC
  5
6A5
330
23
100
AcDbEntity
  8
SANINDUSA
100
AcDbCircle
 10
1066.207204236212
 20
1065.280059998903
 30
0.0
 40
0.005
100
AcDbArc
 50
180.0
 51
270.0
  0
LINE
  5
6A6
330
23
100
AcDbEntity
  8
SANINDUSA
100
AcDbLine
 10
1066.828204236212
 20
1065.275059998903
 30
0.0
 11
1066.207204236212
 21
1065.275059998903
 31
0.0
  0
ARC
  5
6A9
330
23
100
AcDbEntity
  8
SANINDUSA
100
AcDbCircle
 10
1066.828204236212
 20
1065.279059998903
 30
0.0
 40
0.004
100
AcDbArc
 50
270.0
 51
0.0
  0
ARC
  5
6AB
330
23
100
AcDbEntity
  8
SANINDUSA
100
AcDbCircle
 10
1066.237622451055
 20
1065.310478213927
 30
0.0
 40
0.0048152922410005
100
AcDbArc
 50
178.3573977363426
 51
271.6427747018991
  0
LINE
  5
6AD
330
23
100
AcDbEntity
  8
SANINDUSA
100
AcDbLine
 10
1066.23776048321
 20
1065.305664905557
 30
0.0
 11
1066.687348627382
 21
1065.305664905557
 31
0.0
  0
ARC
  5
6AE
330
23
100
AcDbEntity
  8
SANINDUSA
100
AcDbCircle
 10
1066.68748666046
 20
1065.310478213546
 30
0.0
 40
0.0048152914558512
100
AcDbArc
 50
268.3573929404392
 51
1.642607059560828
  0
CIRCLE
  5
6B0
330
23
100
AcDbEntity
  8
SANINDUSA
100
AcDbCircle
 10
1066.756232779226
 20
1065.450059998903
 30
0.0
 40
0.0175
  0
LINE
  5
6B2
330
23
100
AcDbEntity
  8
SANINDUSA
100
AcDbLine
 10
1066.232809142867
 20
1065.589503751905
 30
0.0
 11
1066.232809142867
 21
1065.310616245901
 31
0.0
  0
LINE
  5
6B3
330
23
100
AcDbEntity
  8
SANINDUSA
100
AcDbLine
 10
1066.692299967725
 20
1065.310616245901
 30
0.0
 11
1066.692299967725
 21
1065.589503751905
 31
0.0
  0
ARC
  5
6B5
330
23
100
AcDbEntity
  8
SANINDUSA
100
AcDbCircle
 10
1066.68748666046
 20
1065.58964178426
 30
0.0
 40
0.0048152914558512
100
AcDbArc
 50
358.3573929404391
 51
91.64260705956083
  0
LINE
  5
6B7
330
23
100
AcDbEntity
  8
SANINDUSA
100
AcDbLine
 10
1066.687348627382
 20
1065.594455092248
 30
0.0
 11
1066.23776048321
 21
1065.594455092248
 31
0.0
  0
ARC
  5
6BA
330
23
100
AcDbEntity
  8
SANINDUSA
100
AcDbCircle
 10
1066.237622451055
 20
1065.589641783879
 30
0.0
 40
0.0048152922410003
100
AcDbArc
 50
88.35722529810087
 51
181.6426022636574
  0
LINE
  5
6BC
330
23
100
AcDbEntity
  8
SANINDUSA
100
AcDbLine
 10
1066.202204236212
 20
1065.280059998903
 30
0.0
 11
1066.202204236212
 21
1065.621059998903
 31
0.0
  0
ARC
  5
6C9
330
23
100
AcDbEntity
  8
SANINDUSA
100
AcDbCircle
 10
1066.828204236212
 20
1065.621059998903
 30
0.0
 40
0.0039999999999999
100
AcDbArc
 50
0.0
 51
90.0
  0
LINE
  5
6CB
330
23
100
AcDbEntity
  8
SANINDUSA
100
AcDbLine
 10
1066.207204236212
 20
1065.625059998903
 30
0.0
 11
1066.828204236212
 21
1065.625059998903
 31
0.0
  0
ARC
  5
6CD
330
23
100
AcDbEntity
  8
SANINDUSA
100
AcDbCircle
 10
1066.206204236212
 20
1065.621059998903
 30
0.0
 40
0.0039999999999999
100
AcDbArc
 50
90.0
 51
180.0
  0
LINE
  5
6D4
330
23
100
AcDbEntity
  8
SANINDUSA
100
AcDbLine
 10
1066.832204236212
 20
1065.621059998903
 30
0.0
 11
1066.832204236212
 21
1065.280059998903
 31
0.0
  0
LINE
  5
6D6
330
23
100
AcDbEntity
  8
SANINDUSA
100
AcDbLine
 10
1066.691005397547
 20
1065.459135336197
 30
0.0
 11
1066.691005397547
 21
1065.440984661609
 31
0.0
  0
ARC
  5
761
330
23
100
AcDbEntity
  8
SANINDUSA
100
AcDbCircle
 10
1067.574512845583
 20
1065.54381040958
 30
0.0
 40
0.0039999999999999
100
AcDbArc
 50
0.0
 51
90.0
  0
LINE
  5
762
330
23
100
AcDbEntity
  8
SANINDUSA
100
AcDbLine
 10
1067.578512845583
 20
1065.54381040958
 30
0.0
 11
1067.578512845583
 21
1065.54281040958
 31
0.0
  0
LINE
  5
764
330
23
100
AcDbEntity
  8
SANINDUSA
100
AcDbLine
 10
1066.953512845583
 20
1065.54781040958
 30
0.0
 11
1067.574512845583
 21
1065.54781040958
 31
0.0
  0
LINE
  5
765
330
23
100
AcDbEntity
  8
SANINDUSA
100
AcDbLine
 10
1066.948512845583
 20
1065.40181040958
 30
0.0
 11
1066.948512845583
 21
1065.54281040958
 31
0.0
  0
ARC
  5
769
330
23
100
AcDbEntity
  8
SANINDUSA
100
AcDbCircle
 10
1066.953512845583
 20
1065.54281040958
 30
0.0
 40
0.005
100
AcDbArc
 50
90.0
 51
180.0
  0
ARC
  5
76B
330
23
100
AcDbEntity
  8
SANINDUSA
100
AcDbCircle
 10
1067.574512845583
 20
1065.40181040958
 30
0.0
 40
0.0040000000000001
100
AcDbArc
 50
270.0
 51
0.0
  0
LINE
  5
76F
330
23
100
AcDbEntity
  8
SANINDUSA
100
AcDbLine
 10
1067.578512845583
 20
1065.54281040958
 30
0.0
 11
1067.578512845583
 21
1065.40181040958
 31
0.0
  0
LINE
  5
770
330
23
100
AcDbEntity
  8
SANINDUSA
100
AcDbLine
 10
1067.574512845583
 20
1065.39781040958
 30
0.0
 11
1066.953512845583
 21
1065.39781040958
 31
0.0
  0
ARC
  5
773
330
23
100
AcDbEntity
  8
SANINDUSA
100
AcDbCircle
 10
1066.952512845583
 20
1065.40181040958
 30
0.0
 40
0.0040000000000001
100
AcDbArc
 50
180.0
 51
270.0
  0
ARC
  5
78D
330
23
100
AcDbEntity
  8
SANINDUSA
100
AcDbCircle
 10
1066.588447508762
 20
1065.450074282011
 30
0.0
 40
0.0360287338943597
100
AcDbArc
 50
180.0226931493441
 51
359.9773068506559
  0
ARC
  5
78E
330
23
100
AcDbEntity
  8
SANINDUSA
100
AcDbCircle
 10
1066.588447508762
 20
1065.450045742203
 30
0.0
 40
0.0360287338943597
100
AcDbArc
 50
0.0226931493440894
 51
179.9773068506559
  0
CIRCLE
  5
78F
330
23
100
AcDbEntity
  8
SANINDUSA
100
AcDbCircle
 10
1066.58843438677
 20
1065.450060012107
 30
0.0
 40
0.0235000000000001
  0
LINE
  5
791
330
23
100
AcDbEntity
  8
SANINDUSA
100
AcDbLine
 10
1068.782627794207
 20
1065.533532063378
 30
0.0
 11
1068.772290751784
 21
1065.459980184704
 31
0.0
  0
LINE
  5
792
330
23
100
AcDbEntity
  8
SANINDUSA
100
AcDbLine
 10
1068.770515580258
 20
1065.458269102502
 30
0.0
 11
1068.684719328356
 21
1065.446759957803
 31
0.0
  0
LINE
  5
793
330
23
100
AcDbEntity
  8
SANINDUSA
100
AcDbLine
 10
1068.765686529609
 20
1065.484841667537
 30
0.0
 11
1068.770641618923
 21
1065.520098960017
 31
0.0
  0
ARC
  5
794
330
23
100
AcDbEntity
  8
SANINDUSA
100
AcDbCircle
 10
1068.750832508577
 20
1065.486929264052
 30
0.0
 40
0.0149999999999999
100
AcDbArc
 50
276.7480933400312
 51
352.0000000018956
  0
LWPOLYLINE
  5
795
330
23
100
AcDbEntity
  8
SANINDUSA
100
AcDbPolyline
 90
        5
 70
     0
 43
0.0
 10
1068.752433579701
 20
1065.472015401325
 10
1068.724890294606
 20
1065.469209322024
 10
1068.698825389984
 20
1065.466404157774
 42
0.3831500173186141
 10
1068.693467416168
 20
1065.460438606469
 10
1068.693467416168
 20
1065.459380633282
  0
LINE
  5
796
330
23
100
AcDbEntity
  8
SANINDUSA
100
AcDbLine
 10
1068.78064725807
 20
1065.53581040958
 30
0.0
 11
1068.774588292634
 21
1065.53581040958
 31
0.0
  0
ARC
  5
797
330
23
100
AcDbEntity
  8
SANINDUSA
100
AcDbCircle
 10
1068.774588292634
 20
1065.53381040958
 30
0.0
 40
0.002
100
AcDbArc
 50
90.0
 51
172.0000000018956
  0
ARC
  5
798
330
23
100
AcDbEntity
  8
SANINDUSA
100
AcDbCircle
 10
1068.78064725807
 20
1065.53381040958
 30
0.0
 40
0.002
100
AcDbArc
 50
352.0000000018956
 51
90.0
  0
ARC
  5
799
330
23
100
AcDbEntity
  8
SANINDUSA
100
AcDbCircle
 10
1068.770310215647
 20
1065.460258530906
 30
0.0
 40
0.002
100
AcDbArc
 50
275.8936506084584
 51
352.0000000018956
  0
LINE
  5
79C
330
23
100
AcDbEntity
  8
SANINDUSA
100
AcDbLine
 10
1068.695127143216
 20
1065.430003149255
 30
0.0
 11
1068.695464914485
 21
1065.433863892523
 31
0.0
  0
LINE
  5
79D
330
23
100
AcDbEntity
  8
SANINDUSA
100
AcDbLine
 10
1068.685187121023
 20
1065.466672377364
 30
0.0
 11
1068.696129162506
 21
1065.476184148911
 31
0.0
  0
ARC
  5
79E
330
23
100
AcDbEntity
  8
SANINDUSA
100
AcDbCircle
 10
1068.688467416168
 20
1065.462898829463
 30
0.0
 40
0.005
100
AcDbArc
 50
131.0000000062924
 51
180.0
  0
LINE
  5
79F
330
23
100
AcDbEntity
  8
SANINDUSA
100
AcDbLine
 10
1068.683467416168
 20
1065.462898829463
 30
0.0
 11
1068.683467416168
 21
1065.459476117363
 31
0.0
  0
ARC
  5
7A0
330
23
100
AcDbEntity
  8
SANINDUSA
100
AcDbCircle
 10
1068.684967416168
 20
1065.459476117363
 30
0.0
 40
0.0015000000000001
100
AcDbArc
 50
180.0
 51
279.5199999969719
  0
LINE
  5
7A1
330
23
100
AcDbEntity
  8
SANINDUSA
100
AcDbLine
 10
1068.685215503979
 20
1065.45799677547
 30
0.0
 11
1068.687055029201
 21
1065.458305266556
 31
0.0
  0
LINE
  5
7A2
330
23
100
AcDbEntity
  8
SANINDUSA
100
AcDbLine
 10
1068.687055029201
 20
1065.458305266556
 30
0.0
 11
1068.693467416168
 21
1065.459380633282
 31
0.0
  0
ARC
  5
7A3
330
23
100
AcDbEntity
  8
SANINDUSA
100
AcDbCircle
 10
1068.684967416168
 20
1065.445280615909
 30
0.0
 40
0.0015000000000001
100
AcDbArc
 50
99.51999999697191
 51
180.0
  0
LINE
  5
7A4
330
23
100
AcDbEntity
  8
SANINDUSA
100
AcDbLine
 10
1068.683467416168
 20
1065.445280615909
 30
0.0
 11
1068.683467416168
 21
1065.428177460741
 31
0.0
  0
LINE
  5
7A5
330
23
100
AcDbEntity
  8
SANINDUSA
100
AcDbLine
 10
1068.683467416168
 20
1065.428177460741
 30
0.0
 11
1068.69313475382
 21
1065.428177460741
 31
0.0
  0
ARC
  5
7A6
330
23
100
AcDbEntity
  8
SANINDUSA
100
AcDbCircle
 10
1068.69313475382
 20
1065.430177460741
 30
0.0
 40
0.0020000000000001
100
AcDbArc
 50
270.0
 51
355.0000000037089
  0
ARC
  5
7A7
330
23
100
AcDbEntity
  8
SANINDUSA
100
AcDbCircle
 10
1068.701442082673
 20
1065.433340958067
 30
0.0
 40
0.0060000000000003
100
AcDbArc
 50
99.51999999697191
 51
175.0000000037089
  0
LINE
  5
7AB
330
23
100
AcDbEntity
  8
SANINDUSA
100
AcDbLine
 10
1068.68008488618
 20
1065.457136363318
 30
0.0
 11
1068.685215503979
 21
1065.45799677547
 31
0.0
  0
LINE
  5
7AE
330
23
100
AcDbEntity
  8
SANINDUSA
100
AcDbLine
 10
1068.684719328356
 20
1065.446759957803
 30
0.0
 11
1068.680017605632
 21
1065.445971471985
 31
0.0
  0
LWPOLYLINE
  5
7B2
330
23
100
AcDbEntity
  8
SANINDUSA
100
AcDbPolyline
 90
        8
 70
   128
 43
0.0
 10
1068.677788751088
 20
1065.447016200837
 10
1068.677817290813
 20
1065.446783615228
 10
1068.677874182171
 20
1065.446640873311
 10
1068.678091243337
 20
1065.446369747093
 10
1068.678127632284
 20
1065.446338976713
 10
1068.678627415757
 20
1065.446070921559
 10
1068.679386407509
 20
1065.445932172351
 10
1068.680017605632
 20
1065.445971471985
  0
LWPOLYLINE
  5
7B5
330
23
100
AcDbEntity
  8
SANINDUSA
100
AcDbPolyline
 90
        7
 70
   128
 43
0.0
 10
1068.677223638956
 20
1065.455033145818
 10
1068.677228697009
 20
1065.455107134903
 10
1068.677303206938
 20
1065.455377790863
 10
1068.677593956579
 20
1065.455820221736
 10
1068.678188214993
 20
1065.456338531086
 10
1068.679151998342
 20
1065.456861626466
 10
1068.68008488618
 20
1065.457136363318
  0
ELLIPSE
  5
7B8
330
23
100
AcDbEntity
  8
SANINDUSA
100
AcDbEllipse
 10
1068.659980505971
 20
1065.19832285897
 30
0.0
 11
-0.0002197705394076
 21
0.3575303363109278
 31
0.0
210
0.0
220
0.0
230
-1.0
 40
0.0699214345207239
 41
0.7699005631459779
 42
0.8016031205507148
  0
LWPOLYLINE
  5
7B9
330
23
100
AcDbEntity
  8
SANINDUSA
100
AcDbPolyline
 90
       21
 70
   128
 43
0.0
 10
1068.696129102214
 20
1065.476184096499
 10
1068.695946507638
 20
1065.476184083915
 10
1068.695392791187
 20
1065.476183802963
 10
1068.693702259927
 20
1065.476183160258
 10
1068.690991932883
 20
1065.476182556253
 10
1068.687489168528
 20
1065.476182289351
 10
1068.68309323122
 20
1065.476182215986
 10
1068.678172434827
 20
1065.476181969315
 10
1068.672585036858
 20
1065.47618106021
 10
1068.666806256456
 20
1065.476179395911
 10
1068.660664483348
 20
1065.476176657637
 10
1068.654678440118
 20
1065.476173089632
 10
1068.648672971452
 20
1065.476169020354
 10
1068.643148683279
 20
1065.476166096856
 10
1068.637949410621
 20
1065.47616496303
 10
1068.633500883308
 20
1065.476165937697
 10
1068.629687472821
 20
1065.476168889506
 10
1068.62682953505
 20
1065.476173042168
 10
1068.624846396573
 20
1065.476177399815
 10
1068.624074107005
 20
1065.476179378347
 10
1068.623811042241
 20
1065.476179478744
  0
LINE
  5
7BA
330
23
100
AcDbEntity
  8
SANINDUSA
100
AcDbLine
 10
1068.623811042241
 20
1065.476179478744
 30
0.0
 11
1068.63474771132
 21
1065.466672377358
 31
0.0
  0
LINE
  5
7BB
330
23
100
AcDbEntity
  8
SANINDUSA
100
AcDbLine
 10
1068.685187121015
 20
1065.466672377358
 30
0.0
 11
1068.63474771132
 21
1065.466672377358
 31
0.0
  0
LINE
  5
7BC
330
23
100
AcDbEntity
  8
SANINDUSA
100
AcDbLine
 10
1068.636467416183
 20
1065.428177460741
 30
0.0
 11
1068.636467416175
 21
1065.462898829456
 31
0.0
  0
ARC
  5
7BD
330
23
100
AcDbEntity
  8
SANINDUSA
100
AcDbCircle
 10
1068.631467416175
 20
1065.462898829456
 30
0.0
 40
0.005
100
AcDbArc
 50
0.0
 51
48.99999999370759
  0
LINE
  5
7BF
330
23
100
AcDbEntity
  8
SANINDUSA
100
AcDbLine
 10
1068.626915492165
 20
1065.428177460741
 30
0.0
 11
1068.683467416168
 21
1065.428177460741
 31
0.0
  0
LINE
  5
7C0
330
23
100
AcDbEntity
  8
SANINDUSA
100
AcDbLine
 10
1068.623811042241
 20
1065.476179478744
 30
0.0
 11
1068.317060814968
 21
1065.482658799037
 31
0.0
  0
ARC
  5
7C1
330
23
100
AcDbEntity
  8
SANINDUSA
100
AcDbCircle
 10
1068.626915492165
 20
1065.430177460741
 30
0.0
 40
0.002
100
AcDbArc
 50
182.0000000037536
 51
270.0
  0
LINE
  5
7C2
330
23
100
AcDbEntity
  8
SANINDUSA
100
AcDbLine
 10
1068.772311696134
 20
1065.531982176842
 30
0.0
 11
1068.772607756497
 21
1065.534088755782
 31
0.0
  0
LINE
  5
7C3
330
23
100
AcDbEntity
  8
SANINDUSA
100
AcDbLine
 10
1068.772311696134
 20
1065.531982176842
 30
0.0
 11
1068.770641618923
 21
1065.520098960017
 31
0.0
  0
LINE
  5
7CD
330
23
100
AcDbEntity
  8
SANINDUSA
100
AcDbLine
 10
1068.893737295282
 20
1065.53381040958
 30
0.0
 11
1068.893737295282
 21
1065.52481040958
 31
0.0
  0
LINE
  5
7CE
330
23
100
AcDbEntity
  8
SANINDUSA
100
AcDbLine
 10
1068.87336007751
 20
1065.524740610586
 30
0.0
 11
1068.873045790584
 21
1065.533740610586
 31
0.0
  0
LINE
  5
7CF
330
23
100
AcDbEntity
  8
SANINDUSA
100
AcDbLine
 10
1068.891737295282
 20
1065.52281040958
 30
0.0
 11
1068.875358859164
 21
1065.52281040958
 31
0.0
  0
LINE
  5
7D0
330
23
100
AcDbEntity
  8
SANINDUSA
100
AcDbLine
 10
1068.891737295282
 20
1065.53581040958
 30
0.0
 11
1068.875044572238
 21
1065.53581040958
 31
0.0
  0
ARC
  5
7D1
330
23
100
AcDbEntity
  8
SANINDUSA
100
AcDbCircle
 10
1068.891737295282
 20
1065.53381040958
 30
0.0
 40
0.002
100
AcDbArc
 50
0.0
 51
90.0
  0
ARC
  5
7D2
330
23
100
AcDbEntity
  8
SANINDUSA
100
AcDbCircle
 10
1068.891737295282
 20
1065.52481040958
 30
0.0
 40
0.002
100
AcDbArc
 50
270.0
 51
0.0
  0
ARC
  5
7D3
330
23
100
AcDbEntity
  8
SANINDUSA
100
AcDbCircle
 10
1068.875358859164
 20
1065.52481040958
 30
0.0
 40
0.002
100
AcDbArc
 50
182.0000000037536
 51
270.0
  0
ARC
  5
7D4
330
23
100
AcDbEntity
  8
SANINDUSA
100
AcDbCircle
 10
1068.875044572238
 20
1065.53381040958
 30
0.0
 40
0.002
100
AcDbArc
 50
90.0
 51
182.0000000037536
  0
LINE
  5
7D5
330
23
100
AcDbEntity
  8
SANINDUSA
100
AcDbLine
 10
1068.293586936098
 20
1065.53581040958
 30
0.0
 11
1068.285737295282
 21
1065.53581040958
 31
0.0
  0
LINE
  5
7D6
330
23
100
AcDbEntity
  8
SANINDUSA
100
AcDbLine
 10
1068.283737295282
 20
1065.52481040958
 30
0.0
 11
1068.283737295282
 21
1065.53381040958
 31
0.0
  0
LINE
  5
7D7
330
23
100
AcDbEntity
  8
SANINDUSA
100
AcDbLine
 10
1068.29485180361
 20
1065.52281040958
 30
0.0
 11
1068.285737295282
 21
1065.52281040958
 31
0.0
  0
LINE
  5
7D8
330
23
100
AcDbEntity
  8
SANINDUSA
100
AcDbLine
 10
1068.295567472235
 20
1065.534088755782
 30
0.0
 11
1068.296832339747
 21
1065.525088755782
 31
0.0
  0
LINE
  5
7D9
330
23
100
AcDbEntity
  8
SANINDUSA
100
AcDbLine
 10
1068.307516937335
 20
1065.437905775183
 30
0.0
 11
1068.30644323355
 21
1065.473048383224
 31
0.0
  0
LINE
  5
7DA
330
23
100
AcDbEntity
  8
SANINDUSA
100
AcDbLine
 10
1068.31385799743
 20
1065.471389069693
 30
0.0
 11
1068.311511132618
 21
1065.437827339262
 31
0.0
  0
ARC
  5
7DB
330
23
100
AcDbEntity
  8
SANINDUSA
100
AcDbCircle
 10
1068.317240645366
 20
1065.487655563911
 30
0.0
 40
0.0150000000000001
100
AcDbArc
 50
238.8319677710297
 51
251.5582867470705
  0
ARC
  5
7DC
330
23
100
AcDbEntity
  8
SANINDUSA
100
AcDbCircle
 10
1068.285737295282
 20
1065.53381040958
 30
0.0
 40
0.002
100
AcDbArc
 50
90.0
 51
180.0
  0
ARC
  5
7DD
330
23
100
AcDbEntity
  8
SANINDUSA
100
AcDbCircle
 10
1068.293586936098
 20
1065.53381040958
 30
0.0
 40
0.002
100
AcDbArc
 50
7.999999998104389
 51
90.0
  0
ARC
  5
7DE
330
23
100
AcDbEntity
  8
SANINDUSA
100
AcDbCircle
 10
1068.29485180361
 20
1065.52481040958
 30
0.0
 40
0.002
100
AcDbArc
 50
270.0
 51
7.999999998104389
  0
ARC
  5
7DF
330
23
100
AcDbEntity
  8
SANINDUSA
100
AcDbCircle
 10
1068.285737295282
 20
1065.52481040958
 30
0.0
 40
0.002
100
AcDbArc
 50
180.0
 51
270.0
  0
ARC
  5
7E0
330
23
100
AcDbEntity
  8
SANINDUSA
100
AcDbCircle
 10
1068.311862869329
 20
1065.47152858264
 30
0.0
 40
0.002
100
AcDbArc
 50
355.9999999998427
 51
71.55828674707052
  0
ARC
  5
7E1
330
23
100
AcDbEntity
  8
SANINDUSA
100
AcDbCircle
 10
1068.308442300732
 20
1065.47310946025
 30
0.0
 40
0.002
100
AcDbArc
 50
58.83196777102968
 51
181.7499999937563
  0
ARC
  5
7E2
330
23
100
AcDbEntity
  8
SANINDUSA
100
AcDbCircle
 10
1068.309516004517
 20
1065.437966852209
 30
0.0
 40
0.002
100
AcDbArc
 50
181.7499999937563
 51
355.9999999998427
  0
LINE
  5
822
330
23
100
AcDbEntity
  8
SANINDUSA
100
AcDbLine
 10
1068.792441363955
 20
1065.531506275085
 30
0.0
 11
1068.781975548273
 21
1065.457038127067
 31
0.0
  0
ARC
  5
825
330
23
100
AcDbEntity
  8
SANINDUSA
100
AcDbCircle
 10
1068.858138972293
 20
1065.53081040958
 30
0.0
 40
0.005
100
AcDbArc
 50
2.000000003753602
 51
90.0
  0
LINE
  5
834
330
23
100
AcDbEntity
  8
SANINDUSA
100
AcDbLine
 10
1068.874857650411
 20
1065.39781040958
 30
0.0
 11
1068.871649237457
 21
1065.39781040958
 31
0.0
  0
LINE
  5
835
330
23
100
AcDbEntity
  8
SANINDUSA
100
AcDbLine
 10
1068.871649237457
 20
1065.39781040958
 30
0.0
 11
1068.86263610543
 21
1065.39781040958
 31
0.0
  0
LINE
  5
844
330
23
100
AcDbEntity
  8
SANINDUSA
100
AcDbLine
 10
1068.755783848921
 20
1065.486233398547
 30
0.0
 11
1068.760599765135
 21
1065.520500422958
 31
0.0
  0
LINE
  5
851
330
23
100
AcDbEntity
  8
SANINDUSA
100
AcDbLine
 10
1068.298636414264
 20
1065.401112271896
 30
0.0
 11
1068.295312586685
 21
1065.509902025119
 31
0.0
  0
LINE
  5
176D
330
23
100
AcDbEntity
  8
SANINDUSA
100
AcDbLine
 10
1067.82001627749
 20
1065.39781040958
 30
0.0
 11
1068.094544616996
 21
1065.39781040958
 31
0.0
  0
LINE
  5
176F
330
23
100
AcDbEntity
  8
SANINDUSA
100
AcDbLine
 10
1067.789780447541
 20
1065.510024179173
 30
0.0
 11
1067.789805726818
 21
1065.401759627562
 31
0.0
  0
ARC
  5
1770
330
23
100
AcDbEntity
  8
SANINDUSA
100
AcDbCircle
 10
1067.793780447541
 20
1065.401785212647
 30
0.0
 40
0.003974803066917
100
AcDbArc
 50
180.3688050653827
 51
270.3642988862303
  0
LINE
  5
1772
330
23
100
AcDbEntity
  8
SANINDUSA
100
AcDbLine
 10
1067.793780447541
 20
1065.39781040958
 30
0.0
 11
1068.101780447541
 21
1065.39781040958
 31
0.0
  0
LINE
  5
1773
330
23
100
AcDbEntity
  8
SANINDUSA
100
AcDbLine
 10
1068.101780447541
 20
1065.39781040958
 30
0.0
 11
1068.108780441342
 21
1065.39781040958
 31
0.0
  0
LINE
  5
177D
330
23
100
AcDbEntity
  8
SANINDUSA
100
AcDbLine
 10
1067.789780447541
 20
1065.51681040958
 30
0.0
 11
1067.789780447541
 21
1065.510024179173
 31
0.0
  0
LINE
  5
1780
330
23
100
AcDbEntity
  8
SANINDUSA
100
AcDbLine
 10
1068.139780447541
 20
1065.40181040958
 30
0.0
 11
1068.139780447541
 21
1065.54281040958
 31
0.0
  0
ARC
  5
1781
330
23
100
AcDbEntity
  8
SANINDUSA
100
AcDbCircle
 10
1068.134780447541
 20
1065.54281040958
 30
0.0
 40
0.005
100
AcDbArc
 50
0.0
 51
90.0
  0
ARC
  5
1783
330
23
100
AcDbEntity
  8
SANINDUSA
100
AcDbCircle
 10
1068.135780447541
 20
1065.40181040958
 30
0.0
 40
0.0040000000000001
100
AcDbArc
 50
270.0
 51
0.0
  0
LINE
  5
1785
330
23
100
AcDbEntity
  8
SANINDUSA
100
AcDbLine
 10
1068.104780447541
 20
1065.50981040958
 30
0.0
 11
1068.104780447541
 21
1065.40181040958
 31
0.0
  0
LINE
  5
1787
330
23
100
AcDbEntity
  8
SANINDUSA
100
AcDbLine
 10
1068.108780441342
 20
1065.39781040958
 30
0.0
 11
1068.135780447541
 21
1065.39781040958
 31
0.0
  0
ARC
  5
1789
330
23
100
AcDbEntity
  8
SANINDUSA
100
AcDbCircle
 10
1068.101780447541
 20
1065.50981040958
 30
0.0
 40
0.003
100
AcDbArc
 50
0.0
 51
90.0
  0
ARC
  5
178A
330
23
100
AcDbEntity
  8
SANINDUSA
100
AcDbCircle
 10
1068.108780453684
 20
1065.401810415127
 30
0.0
 40
0.0040000055472844
100
AcDbArc
 50
180.0000767322811
 51
269.9998232161197
  0
ARC
  5
178D
330
23
100
AcDbEntity
  8
SANINDUSA
100
AcDbCircle
 10
1067.793780441323
 20
1065.516810402467
 30
0.0
 40
0.0039999908014141
100
AcDbArc
 50
179.9998588464743
 51
270.0000344318199
  0
LINE
  5
178E
330
23
100
AcDbEntity
  8
SANINDUSA
100
AcDbLine
 10
1067.789780447541
 20
1065.54381040958
 30
0.0
 11
1067.789780447541
 21
1065.51681040958
 31
0.0
  0
ARC
  5
1791
330
23
100
AcDbEntity
  8
SANINDUSA
100
AcDbCircle
 10
1067.793780447541
 20
1065.54381040958
 30
0.0
 40
0.0039999999999999
100
AcDbArc
 50
90.0
 51
180.0
  0
LINE
  5
1798
330
23
100
AcDbEntity
  8
SANINDUSA
100
AcDbLine
 10
1067.793780447541
 20
1065.51281040958
 30
0.0
 11
1068.101780447541
 21
1065.51281040958
 31
0.0
  0
LINE
  5
179D
330
23
100
AcDbEntity
  8
SANINDUSA
100
AcDbLine
 10
1068.134780447541
 20
1065.54781040958
 30
0.0
 11
1067.793780447541
 21
1065.54781040958
 31
0.0
  0
LINE
  5
17A0
330
23
100
AcDbEntity
  8
SANINDUSA
100
AcDbLine
 10
1068.315007234937
 20
1065.39781040958
 30
0.0
 11
1068.464693785234
 21
1065.39781040958
 31
0.0
  0
ARC
  5
17A1
330
23
100
AcDbEntity
  8
SANINDUSA
100
AcDbCircle
 10
1068.464693785234
 20
1065.41781040958
 30
0.0
 40
0.02
100
AcDbArc
 50
270.0
 51
313.7262681026658
  0
ARC
  5
17AD
330
23
100
AcDbEntity
  8
SANINDUSA
100
AcDbCircle
 10
1068.71278080533
 20
1065.41781040958
 30
0.0
 40
0.02
100
AcDbArc
 50
226.2737318973341
 51
270.0
  0
LINE
  5
17AF
330
23
100
AcDbEntity
  8
SANINDUSA
100
AcDbLine
 10
1068.862467355627
 20
1065.39781040958
 30
0.0
 11
1068.71278080533
 21
1065.39781040958
 31
0.0
  0
ENDSEC
  0
SECTION
  2
OBJECTS
  0
DICTIONARY
  5
C
330
0
100
AcDbDictionary
281
     1
  3
ACAD_COLOR
350
1C
  3
ACAD_GROUP
350
D
  3
ACAD_LAYOUT
350
1A
  3
ACAD_MATERIAL
350
1B
  3
ACAD_MLINESTYLE
350
17
  3
ACAD_PLOTSETTINGS
350
19
  3
ACAD_PLOTSTYLENAME
350
E
  3
ACAD_TABLESTYLE
350
1D
  3
ACDBHEADERROUNDTRIPXREC
350
17C7
  3
AcDbVariableDictionary
350
17A5
  0
DICTIONARY
  5
17A2
330
23
100
AcDbDictionary
280
     1
281
     1
  3
ACAD_SORTENTS
360
17A3
  0
DICTIONARY
  5
1C
102
{ACAD_REACTORS
330
C
102
}
330
C
100
AcDbDictionary
281
     1
  0
DICTIONARY
  5
D
102
{ACAD_REACTORS
330
C
102
}
330
C
100
AcDbDictionary
281
     1
  0
DICTIONARY
  5
1A
102
{ACAD_REACTORS
330
C
102
}
330
C
100
AcDbDictionary
281
     1
  3
Layout1
350
22
  3
Layout2
350
2A
  3
Model
350
26
  0
DICTIONARY
  5
1B
102
{ACAD_REACTORS
330
C
102
}
330
C
100
AcDbDictionary
281
     1
  0
DICTIONARY
  5
17
102
{ACAD_REACTORS
330
C
102
}
330
C
100
AcDbDictionary
281
     1
  3
Standard
350
18
  0
DICTIONARY
  5
19
102
{ACAD_REACTORS
330
C
102
}
330
C
100
AcDbDictionary
281
     1
  0
ACDBDICTIONARYWDFLT
  5
E
102
{ACAD_REACTORS
330
C
102
}
330
C
100
AcDbDictionary
281
     1
  3
Normal
350
F
100
AcDbDictionaryWithDefault
340
F
  0
DICTIONARY
  5
1D
102
{ACAD_REACTORS
330
C
102
}
330
C
100
AcDbDictionary
281
     1
  3
Standard
350
1E
  0
DICTIONARY
  5
17C7
102
{ACAD_REACTORS
330
C
102
}
330
C
100
AcDbDictionary
281
     1
  0
DICTIONARY
  5
17A5
102
{ACAD_REACTORS
330
C
102
}
330
C
100
AcDbDictionary
281
     1
  3
CTABLESTYLE
350
17A6
  3
DIMASSOC
350
17C4
  3
HIDETEXT
350
17C3
  3
PROJECTNAME
350
17C5
  0
SORTENTSTABLE
  5
17A3
102
{ACAD_REACTORS
330
17A2
102
}
330
17A2
100
AcDbSortentsTable
330
23
331
769
  5
76D
331
658
  5
65C
331
1773
  5
1777
331
67A
  5
67E
331
7A5
  5
7A9
331
694
  5
698
331
794
  5
798
331
669
  5
66D
331
6A5
  5
6A9
331
7D8
  5
7DC
331
636
  5
63A
331
5ED
  5
5ED
331
678
  5
67C
331
7A3
  5
7A7
331
692
  5
696
331
6D6
  5
763
331
623
  5
627
331
792
  5
796
331
667
  5
66B
331
7D6
  5
7DA
331
5EB
  5
5EB
331
656
  5
65A
331
5DA
  5
5DA
331
1791
  5
1795
331
7A1
  5
7A5
331
7C3
  5
7D0
331
6B2
  5
6B6
331
6D4
  5
761
331
621
  5
625
331
1780
  5
1784
331
7B2
  5
7B6
331
6A1
  5
6A5
331
7D4
  5
7D8
331
765
  5
769
331
654
  5
658
331
676
  5
67A
331
5E9
  5
5E9
331
7C1
  5
7CE
331
6B0
  5
6B4
331
78E
  5
793
331
17A0
  5
17A9
331
7D2
  5
7D6
331
5E7
  5
5E7
331
652
  5
656
331
79F
  5
7A3
331
674
  5
678
331
7E1
  5
834
331
661
  5
665
331
7AE
  5
7B2
331
7D0
  5
7D4
331
5E5
  5
5E5
331
761
  5
765
331
650
  5
654
331
178D
  5
1791
331
79D
  5
7A1
331
672
  5
676
331
7BF
  5
7C3
331
6AE
  5
6B2
331
61B
  5
622
331
770
  5
774
331
65F
  5
663
331
69B
  5
69F
331
7CE
  5
7D2
331
64E
  5
652
331
670
  5
674
331
7BD
  5
7C1
331
7DF
  5
822
331
63B
  5
63F
331
65D
  5
661
331
67F
  5
683
331
603
  5
606
331
176F
  5
1773
331
66E
  5
672
331
64C
  5
650
331
1789
  5
178D
331
799
  5
79F
331
7BB
  5
7BF
331
7DD
  5
7E1
331
65B
  5
65F
331
1798
  5
179C
331
697
  5
69B
331
64A
  5
64E
331
5F0
  5
5F3
331
176D
  5
1771
331
66C
  5
670
331
1787
  5
178B
331
797
  5
79D
331
7B9
  5
7BD
331
835
  5
176E
331
7DB
  5
7DF
331
659
  5
65D
331
7A6
  5
7AA
331
695
  5
699
331
844
  5
176F
331
822
  5
844
331
6B7
  5
6BB
331
5EE
  5
5F1
331
1785
  5
1789
331
795
  5
799
331
66A
  5
66E
331
6A6
  5
6AA
331
7D9
  5
7DD
331
1772
  5
1776
331
679
  5
67D
331
7A4
  5
7A8
331
693
  5
697
331
6B5
  5
6B9
331
1783
  5
1787
331
793
  5
797
331
668
  5
66C
331
7B5
  5
7B9
331
6A4
  5
6A8
331
7D7
  5
7DB
331
635
  5
639
331
657
  5
65B
331
5DB
  5
5DB
331
1770
  5
1774
331
7A2
  5
7A6
331
691
  5
695
331
6B3
  5
6B7
331
1781
  5
1785
331
791
  5
795
331
666
  5
66A
331
851
  5
1770
331
7D5
  5
7D9
331
655
  5
659
331
677
  5
67B
331
7A0
  5
7A4
331
7C2
  5
7CF
331
78F
  5
794
331
7D3
  5
7D7
331
17A1
  5
5EE
331
764
  5
768
331
653
  5
657
331
675
  5
679
331
7C0
  5
7CD
331
7E2
  5
835
331
773
  5
78D
331
662
  5
666
331
640
  5
644
331
177D
  5
1781
331
78D
  5
792
331
69E
  5
6A2
331
7D1
  5
7D5
331
762
  5
766
331
651
  5
655
331
178E
  5
1792
331
79E
  5
7A2
331
673
  5
677
331
5F7
  5
5FD
331
7E0
  5
825
331
63E
  5
642
331
660
  5
664
331
179D
  5
17A1
331
7CF
  5
7D3
331
64F
  5
653
331
79C
  5
7A0
331
671
  5
675
331
6AD
  5
6B1
331
5F5
  5
5F8
331
76F
  5
773
331
65E
  5
662
331
604
  5
607
331
7AB
  5
7AF
331
7CD
  5
7D1
331
6BC
  5
6C0
331
64D
  5
651
331
5F3
  5
5F6
331
178A
  5
178E
331
66F
  5
673
331
7BC
  5
7C0
331
6AB
  5
6AF
331
7DE
  5
7E2
331
6CD
  5
6D1
331
63A
  5
63E
331
65C
  5
660
331
602
  5
605
331
698
  5
69C
331
825
  5
851
331
6BA
  5
6BE
331
66D
  5
671
331
64B
  5
64F
331
798
  5
79E
331
7BA
  5
7BE
331
6A9
  5
6AD
331
7DC
  5
7E0
331
6CB
  5
6CF
331
76B
  5
76F
331
65A
  5
65E
331
7A7
  5
7AB
331
649
  5
64D
331
796
  5
79C
331
66B
  5
66F
331
7B8
  5
7BC
331
834
  5
176D
331
7DA
  5
7DE
331
6C9
  5
6CD
  0
LAYOUT
  5
22
102
{ACAD_XDICTIONARY
360
17C8
102
}
102
{ACAD_REACTORS
330
1A
102
}
330
1A
100
AcDbPlotSettings
  1

  2
C:\Documents and Settings\Julio\Application Data\Autodesk\AutoCAD 2006\R16.2\enu\plotters\Default Windows System Printer.pc3
  4

  6

 40
0.0
 41
0.0
 42
0.0
 43
0.0
 44
0.0
 45
0.0
 46
0.0
 47
0.0
 48
0.0
 49
0.0
140
0.0
141
0.0
142
1.0
143
1.0
 70
   688
 72
     0
 73
     0
 74
     5
  7

 75
    16
147
1.0
148
0.0
149
0.0
100
AcDbLayout
  1
Layout1
 70
     1
 71
     1
 10
0.0
 20
0.0
 11
420.0
 21
297.0
 12
0.0
 22
0.0
 32
0.0
 14
1.000000000000000E+20
 24
1.000000000000000E+20
 34
1.000000000000000E+20
 15
-1.000000000000000E+20
 25
-1.000000000000000E+20
 35
-1.000000000000000E+20
146
0.0
 13
0.0
 23
0.0
 33
0.0
 16
1.0
 26
0.0
 36
0.0
 17
0.0
 27
1.0
 37
0.0
 76
     0
330
1F
  0
LAYOUT
  5
2A
102
{ACAD_XDICTIONARY
360
17CC
102
}
102
{ACAD_REACTORS
330
1A
102
}
330
1A
100
AcDbPlotSettings
  1

  2
C:\Documents and Settings\Julio\Application Data\Autodesk\AutoCAD 2006\R16.2\enu\plotters\Default Windows System Printer.pc3
  4

  6

 40
0.0
 41
0.0
 42
0.0
 43
0.0
 44
0.0
 45
0.0
 46
0.0
 47
0.0
 48
0.0
 49
0.0
140
0.0
141
0.0
142
1.0
143
1.0
 70
   688
 72
     0
 73
     0
 74
     5
  7

 75
    16
147
1.0
148
0.0
149
0.0
100
AcDbLayout
  1
Layout2
 70
     1
 71
     2
 10
0.0
 20
0.0
 11
12.0
 21
9.0
 12
0.0
 22
0.0
 32
0.0
 14
0.0
 24
0.0
 34
0.0
 15
0.0
 25
0.0
 35
0.0
146
0.0
 13
0.0
 23
0.0
 33
0.0
 16
1.0
 26
0.0
 36
0.0
 17
0.0
 27
1.0
 37
0.0
 76
     0
330
27
  0
LAYOUT
  5
26
102
{ACAD_XDICTIONARY
360
17CA
102
}
102
{ACAD_REACTORS
330
1A
102
}
330
1A
100
AcDbPlotSettings
  1

  2
C:\Documents and Settings\Julio\Application Data\Autodesk\AutoCAD 2006\R16.2\enu\plotters\Default Windows System Printer.pc3
  4

  6

 40
0.0
 41
0.0
 42
0.0
 43
0.0
 44
0.0
 45
0.0
 46
0.0
 47
0.0
 48
0.0
 49
0.0
140
0.0
141
0.0
142
1.0
143
1.0
 70
  1712
 72
     0
 73
     0
 74
     0
  7

 75
     0
147
1.0
148
0.0
149
0.0
100
AcDbLayout
  1
Model
 70
     1
 71
     0
 10
0.0
 20
0.0
 11
12.0
 21
9.0
 12
0.0
 22
0.0
 32
0.0
 14
0.0
 24
0.0
 34
0.0
 15
0.0
 25
0.0
 35
0.0
146
0.0
 13
0.0
 23
0.0
 33
0.0
 16
1.0
 26
0.0
 36
0.0
 17
0.0
 27
1.0
 37
0.0
 76
     0
330
23
  0
MLINESTYLE
  5
18
102
{ACAD_REACTORS
330
17
102
}
330
17
100
AcDbMlineStyle
  2
STANDARD
 70
     0
  3

 62
   256
 51
90.0
 52
90.0
 71
     2
 49
0.5
 62
   256
  6
BYLAYER
 49
-0.5
 62
   256
  6
BYLAYER
  0
ACDBPLACEHOLDER
  5
F
102
{ACAD_REACTORS
330
E
102
}
330
E
  0
TABLESTYLE
  5
1E
102
{ACAD_REACTORS
330
1D
102
}
330
1D
100
AcDbTableStyle
  3
Standard
 70
     0
 71
     0
 40
1.5
 41
1.5
280
     0
281
     0
  7
Standard
140
4.5
170
     2
 62
     0
 63
     7
283
     0
274
    -2
284
     1
 64
     0
275
    -2
285
     1
 65
     0
276
    -2
286
     1
 66
     0
277
    -2
287
     1
 67
     0
278
    -2
288
     1
 68
     0
279
    -2
289
     1
 69
     0
  7
Standard
140
6.0
170
     5
 62
     0
 63
     7
283
     0
274
    -2
284
     1
 64
     0
275
    -2
285
     1
 65
     0
276
    -2
286
     1
 66
     0
277
    -2
287
     1
 67
     0
278
    -2
288
     1
 68
     0
279
    -2
289
     1
 69
     0
  7
Standard
140
4.5
170
     5
 62
     0
 63
     7
283
     0
274
    -2
284
     1
 64
     0
275
    -2
285
     1
 65
     0
276
    -2
286
     1
 66
     0
277
    -2
287
     1
 67
     0
278
    -2
288
     1
 68
     0
279
    -2
289
     1
 69
     0
  0
DICTIONARYVAR
  5
17A6
102
{ACAD_REACTORS
330
17A5
102
}
330
17A5
100
DictionaryVariables
280
     0
  1
STANDARD
  0
DICTIONARYVAR
  5
17C4
102
{ACAD_REACTORS
330
17A5
102
}
330
17A5
100
DictionaryVariables
280
     0
  1
2
  0
DICTIONARYVAR
  5
17C3
102
{ACAD_REACTORS
330
17A5
102
}
330
17A5
100
DictionaryVariables
280
     0
  1
1
  0
DICTIONARYVAR
  5
17C5
102
{ACAD_REACTORS
330
17A5
102
}
330
17A5
100
DictionaryVariables
280
     0
  1

  0
DICTIONARY
  5
17C8
330
22
100
AcDbDictionary
280
     1
281
     1
  3
ACAD_XREC_ROUNDTRIP
360
17C9
  0
DICTIONARY
  5
17CC
330
2A
100
AcDbDictionary
280
     1
281
     1
  3
ACAD_XREC_ROUNDTRIP
360
17CD
  0
DICTIONARY
  5
17CA
330
26
100
AcDbDictionary
280
     1
281
     1
  3
ACAD_XREC_ROUNDTRIP
360
17CB
  0
XRECORD
  5
17C9
102
{ACAD_REACTORS
330
17C8
102
}
330
17C8
100
AcDbXrecord
280
     1
102
SHADEPLOT
 70
     0
102
SHADEPLOTRESLEVEL
 70
     2
102
SHADEPLOTCUSTOMDPI
 70
   300
  0
XRECORD
  5
17CD
102
{ACAD_REACTORS
330
17CC
102
}
330
17CC
100
AcDbXrecord
280
     1
102
SHADEPLOT
 70
     0
102
SHADEPLOTRESLEVEL
 70
     2
102
SHADEPLOTCUSTOMDPI
 70
   300
  0
XRECORD
  5
17CB
102
{ACAD_REACTORS
330
17CA
102
}
330
17CA
100
AcDbXrecord
280
     1
102
SHADEPLOT
 70
     0
102
SHADEPLOTRESLEVEL
 70
     2
102
SHADEPLOTCUSTOMDPI
 70
   300
  0
ENDSEC
  0
EOF
