  0
SECTION
  2
HEADER
  9
$ACADVER
  1
AC1015
  9
$ACADMAINTVER
 70
    20
  9
$DWGCODEPAGE
  3
ANSI_1252
  9
$INSBASE
 10
0.0
 20
0.0
 30
0.0
  9
$EXTMIN
 10
2131.666569064344
 20
1407.783397497367
 30
-0.0000000000000001
  9
$EXTMAX
 10
2135.21546430776
 20
1408.284270518461
 30
0.0000000000000001
  9
$LIMMIN
 10
0.0
 20
0.0
  9
$LIMMAX
 10
420.0
 20
297.0
  9
$ORTHOMODE
 70
     1
  9
$REGENMODE
 70
     1
  9
$FILLMODE
 70
     1
  9
$QTEXTMODE
 70
     0
  9
$MIRRTEXT
 70
     0
  9
$LTSCALE
 40
1.0
  9
$ATTMODE
 70
     1
  9
$TEXTSIZE
 40
2.5
  9
$TRACEWID
 40
1.0
  9
$TEXTSTYLE
  7
Standard
  9
$CLAYER
  8
0
  9
$CELTYPE
  6
ByLayer
  9
$CECOLOR
 62
   256
  9
$CELTSCALE
 40
1.0
  9
$DISPSILH
 70
     0
  9
$DIMSCALE
 40
1.0
  9
$DIMASZ
 40
2.5
  9
$DIMEXO
 40
0.625
  9
$DIMDLI
 40
3.75
  9
$DIMRND
 40
0.0
  9
$DIMDLE
 40
0.0
  9
$DIMEXE
 40
1.25
  9
$DIMTP
 40
0.0
  9
$DIMTM
 40
0.0
  9
$DIMTXT
 40
2.5
  9
$DIMCEN
 40
2.5
  9
$DIMTSZ
 40
0.0
  9
$DIMTOL
 70
     0
  9
$DIMLIM
 70
     0
  9
$DIMTIH
 70
     0
  9
$DIMTOH
 70
     0
  9
$DIMSE1
 70
     0
  9
$DIMSE2
 70
     0
  9
$DIMTAD
 70
     1
  9
$DIMZIN
 70
     8
  9
$DIMBLK
  1

  9
$DIMASO
 70
     1
  9
$DIMSHO
 70
     1
  9
$DIMPOST
  1

  9
$DIMAPOST
  1

  9
$DIMALT
 70
     0
  9
$DIMALTD
 70
     3
  9
$DIMALTF
 40
0.03937007874016
  9
$DIMLFAC
 40
1.0
  9
$DIMTOFL
 70
     1
  9
$DIMTVP
 40
0.0
  9
$DIMTIX
 70
     0
  9
$DIMSOXD
 70
     0
  9
$DIMSAH
 70
     0
  9
$DIMBLK1
  1

  9
$DIMBLK2
  1

  9
$DIMSTYLE
  2
ISO-25
  9
$DIMCLRD
 70
     0
  9
$DIMCLRE
 70
     0
  9
$DIMCLRT
 70
     0
  9
$DIMTFAC
 40
1.0
  9
$DIMGAP
 40
0.625
  9
$DIMJUST
 70
     0
  9
$DIMSD1
 70
     0
  9
$DIMSD2
 70
     0
  9
$DIMTOLJ
 70
     0
  9
$DIMTZIN
 70
     8
  9
$DIMALTZ
 70
     0
  9
$DIMALTTZ
 70
     0
  9
$DIMUPT
 70
     0
  9
$DIMDEC
 70
     2
  9
$DIMTDEC
 70
     2
  9
$DIMALTU
 70
     2
  9
$DIMALTTD
 70
     3
  9
$DIMTXSTY
  7
Standard
  9
$DIMAUNIT
 70
     0
  9
$DIMADEC
 70
     0
  9
$DIMALTRND
 40
0.0
  9
$DIMAZIN
 70
     0
  9
$DIMDSEP
 70
    44
  9
$DIMATFIT
 70
     3
  9
$DIMFRAC
 70
     0
  9
$DIMLDRBLK
  1

  9
$DIMLUNIT
 70
     2
  9
$DIMLWD
 70
    -2
  9
$DIMLWE
 70
    -2
  9
$DIMTMOVE
 70
     0
  9
$LUNITS
 70
     2
  9
$LUPREC
 70
     4
  9
$SKETCHINC
 40
1.0
  9
$FILLETRAD
 40
0.0
  9
$AUNITS
 70
     0
  9
$AUPREC
 70
     0
  9
$MENU
  1
.
  9
$ELEVATION
 40
0.0
  9
$PELEVATION
 40
0.0
  9
$THICKNESS
 40
0.0
  9
$LIMCHECK
 70
     0
  9
$CHAMFERA
 40
0.0
  9
$CHAMFERB
 40
0.0
  9
$CHAMFERC
 40
0.0
  9
$CHAMFERD
 40
0.0
  9
$SKPOLY
 70
     0
  9
$TDCREATE
 40
2454120.447102315
  9
$TDUCREATE
 40
2454120.405435649
  9
$TDUPDATE
 40
2456147.604446609
  9
$TDUUPDATE
 40
2456147.562779942
  9
$TDINDWG
 40
0.0030222801
  9
$TDUSRTIMER
 40
0.0030222801
  9
$USRTIMER
 70
     1
  9
$ANGBASE
 50
0.0
  9
$ANGDIR
 70
     0
  9
$PDMODE
 70
     0
  9
$PDSIZE
 40
0.0
  9
$PLINEWID
 40
0.0
  9
$SPLFRAME
 70
     0
  9
$SPLINETYPE
 70
     6
  9
$SPLINESEGS
 70
     8
  9
$HANDSEED
  5
9A4
  9
$SURFTAB1
 70
     6
  9
$SURFTAB2
 70
     6
  9
$SURFTYPE
 70
     6
  9
$SURFU
 70
     6
  9
$SURFV
 70
     6
  9
$UCSBASE
  2

  9
$UCSNAME
  2

  9
$UCSORG
 10
0.0
 20
0.0
 30
0.0
  9
$UCSXDIR
 10
1.0
 20
0.0
 30
0.0
  9
$UCSYDIR
 10
0.0
 20
1.0
 30
0.0
  9
$UCSORTHOREF
  2

  9
$UCSORTHOVIEW
 70
     0
  9
$UCSORGTOP
 10
0.0
 20
0.0
 30
0.0
  9
$UCSORGBOTTOM
 10
0.0
 20
0.0
 30
0.0
  9
$UCSORGLEFT
 10
0.0
 20
0.0
 30
0.0
  9
$UCSORGRIGHT
 10
0.0
 20
0.0
 30
0.0
  9
$UCSORGFRONT
 10
0.0
 20
0.0
 30
0.0
  9
$UCSORGBACK
 10
0.0
 20
0.0
 30
0.0
  9
$PUCSBASE
  2

  9
$PUCSNAME
  2

  9
$PUCSORG
 10
0.0
 20
0.0
 30
0.0
  9
$PUCSXDIR
 10
1.0
 20
0.0
 30
0.0
  9
$PUCSYDIR
 10
0.0
 20
1.0
 30
0.0
  9
$PUCSORTHOREF
  2

  9
$PUCSORTHOVIEW
 70
     0
  9
$PUCSORGTOP
 10
0.0
 20
0.0
 30
0.0
  9
$PUCSORGBOTTOM
 10
0.0
 20
0.0
 30
0.0
  9
$PUCSORGLEFT
 10
0.0
 20
0.0
 30
0.0
  9
$PUCSORGRIGHT
 10
0.0
 20
0.0
 30
0.0
  9
$PUCSORGFRONT
 10
0.0
 20
0.0
 30
0.0
  9
$PUCSORGBACK
 10
0.0
 20
0.0
 30
0.0
  9
$USERI1
 70
     0
  9
$USERI2
 70
     0
  9
$USERI3
 70
     0
  9
$USERI4
 70
     0
  9
$USERI5
 70
     0
  9
$USERR1
 40
0.0
  9
$USERR2
 40
0.0
  9
$USERR3
 40
0.0
  9
$USERR4
 40
0.0
  9
$USERR5
 40
0.0
  9
$WORLDVIEW
 70
     1
  9
$SHADEDGE
 70
     3
  9
$SHADEDIF
 70
    70
  9
$TILEMODE
 70
     1
  9
$MAXACTVP
 70
    64
  9
$PINSBASE
 10
0.0
 20
0.0
 30
0.0
  9
$PLIMCHECK
 70
     0
  9
$PEXTMIN
 10
1.000000000000000E+20
 20
1.000000000000000E+20
 30
1.000000000000000E+20
  9
$PEXTMAX
 10
-1.000000000000000E+20
 20
-1.000000000000000E+20
 30
-1.000000000000000E+20
  9
$PLIMMIN
 10
0.0
 20
0.0
  9
$PLIMMAX
 10
420.0
 20
297.0
  9
$UNITMODE
 70
     0
  9
$VISRETAIN
 70
     1
  9
$PLINEGEN
 70
     0
  9
$PSLTSCALE
 70
     1
  9
$TREEDEPTH
 70
  3020
  9
$CMLSTYLE
  2
Standard
  9
$CMLJUST
 70
     0
  9
$CMLSCALE
 40
20.0
  9
$PROXYGRAPHICS
 70
     1
  9
$MEASUREMENT
 70
     1
  9
$CELWEIGHT
370
    -1
  9
$ENDCAPS
280
     0
  9
$JOINSTYLE
280
     0
  9
$LWDISPLAY
290
     0
  9
$INSUNITS
 70
     4
  9
$HYPERLINKBASE
  1

  9
$STYLESHEET
  1

  9
$XEDIT
290
     1
  9
$CEPSNTYPE
380
     0
  9
$PSTYLEMODE
290
     1
  9
$FINGERPRINTGUID
  2
{1EDDC13B-DF73-444E-9389-81B58F39E8F8}
  9
$VERSIONGUID
  2
{D3957CFD-9393-42DC-BCC6-A28709BB65F3}
  9
$EXTNAMES
290
     1
  9
$PSVPSCALE
 40
0.0
  9
$OLESTARTUP
290
     0
  0
ENDSEC
  0
SECTION
  2
CLASSES
  0
CLASS
  1
ACDBDICTIONARYWDFLT
  2
AcDbDictionaryWithDefault
  3
ObjectDBX Classes
 90
        0
280
     0
281
     0
  0
CLASS
  1
TABLESTYLE
  2
AcDbTableStyle
  3
ObjectDBX Classes
 90
     4095
280
     0
281
     0
  0
CLASS
  1
DIMASSOC
  2
AcDbDimAssoc
  3
"AcDbDimAssoc|Product Desc:     AcDim ARX App For Dimension|Company:          Autodesk, Inc.|WEB Address:      www.autodesk.com"
 90
    32768
280
     0
281
     0
  0
CLASS
  1
SORTENTSTABLE
  2
AcDbSortentsTable
  3
ObjectDBX Classes
 90
        0
280
     0
281
     0
  0
CLASS
  1
DICTIONARYVAR
  2
AcDbDictionaryVar
  3
ObjectDBX Classes
 90
        0
280
     0
281
     0
  0
CLASS
  1
ACDBPLACEHOLDER
  2
AcDbPlaceHolder
  3
ObjectDBX Classes
 90
        0
280
     0
281
     0
  0
CLASS
  1
LAYOUT
  2
AcDbLayout
  3
ObjectDBX Classes
 90
        0
280
     0
281
     0
  0
CLASS
  1
MATERIAL
  2
AcDbMaterial
  3
ObjectDBX Classes
 90
     1153
280
     0
281
     0
  0
CLASS
  1
VISUALSTYLE
  2
AcDbVisualStyle
  3
ObjectDBX Classes
 90
     4095
280
     0
281
     0
  0
CLASS
  1
SCALE
  2
AcDbScale
  3
ObjectDBX Classes
 90
     1153
280
     0
281
     0
  0
CLASS
  1
MLEADERSTYLE
  2
AcDbMLeaderStyle
  3
ACDB_MLEADERSTYLE_CLASS
 90
     4095
280
     0
281
     0
  0
CLASS
  1
CELLSTYLEMAP
  2
AcDbCellStyleMap
  3
ObjectDBX Classes
 90
     1152
280
     0
281
     0
  0
ENDSEC
  0
SECTION
  2
TABLES
  0
TABLE
  2
VPORT
  5
8
330
0
100
AcDbSymbolTable
 70
     1
  0
VPORT
  5
90E
330
8
100
AcDbSymbolTableRecord
100
AcDbViewportTableRecord
  2
*Active
 70
     0
 10
0.0
 20
0.0
 11
1.0
 21
1.0
 12
2133.50045152299
 22
1408.033834007913
 13
0.0
 23
0.0
 14
10.0
 24
10.0
 15
10.0
 25
10.0
 16
0.0
 26
0.0
 36
1.0
 17
0.0
 27
0.0
 37
0.0
 40
2.237207958877741
 41
1.645464025026068
 42
50.0
 43
0.0
 44
0.0
 50
0.0
 51
0.0
 71
     0
 72
  1000
 73
     1
 74
     3
 75
     0
 76
     0
 77
     0
 78
     0
281
     0
 65
     1
110
0.0
120
0.0
130
0.0
111
1.0
121
0.0
131
0.0
112
0.0
122
1.0
132
0.0
 79
     0
146
0.0
  0
ENDTAB
  0
TABLE
  2
LTYPE
  5
5
330
0
100
AcDbSymbolTable
 70
     3
  0
LTYPE
  5
14
330
5
100
AcDbSymbolTableRecord
100
AcDbLinetypeTableRecord
  2
ByBlock
 70
     0
  3

 72
    65
 73
     0
 40
0.0
  0
LTYPE
  5
15
330
5
100
AcDbSymbolTableRecord
100
AcDbLinetypeTableRecord
  2
ByLayer
 70
     0
  3

 72
    65
 73
     0
 40
0.0
  0
LTYPE
  5
16
330
5
100
AcDbSymbolTableRecord
100
AcDbLinetypeTableRecord
  2
Continuous
 70
     0
  3
Solid line
 72
    65
 73
     0
 40
0.0
  0
LTYPE
  5
220
330
5
100
AcDbSymbolTableRecord
100
AcDbLinetypeTableRecord
  2
DASHDOT
 70
     0
  3
Dash dot __ . __ . __ . __ . __ . __ . __ . __
 72
    65
 73
     4
 40
25.4
 49
12.7
 74
     0
 49
-6.349999999999999
 74
     0
 49
0.0
 74
     0
 49
-6.349999999999999
 74
     0
  0
LTYPE
  5
221
330
5
100
AcDbSymbolTableRecord
100
AcDbLinetypeTableRecord
  2
HIDDEN
 70
     0
  3
Hidden __ __ __ __ __ __ __ __ __ __ __ __ __ _
 72
    65
 73
     2
 40
9.524999999999998
 49
6.349999999999999
 74
     0
 49
-3.174999999999999
 74
     0
  0
ENDTAB
  0
TABLE
  2
LAYER
  5
2
330
0
100
AcDbSymbolTable
 70
     9
  0
LAYER
  5
10
102
{ACAD_XDICTIONARY
360
95A
102
}
330
2
100
AcDbSymbolTableRecord
100
AcDbLayerTableRecord
  2
0
 70
     0
 62
     7
  6
Continuous
370
    -3
390
F
  0
LAYER
  5
222
102
{ACAD_XDICTIONARY
360
95C
102
}
330
2
100
AcDbSymbolTableRecord
100
AcDbLayerTableRecord
  2
4
 70
     0
 62
     4
  6
Continuous
370
    -3
390
F
  0
LAYER
  5
223
102
{ACAD_XDICTIONARY
360
95E
102
}
330
2
100
AcDbSymbolTableRecord
100
AcDbLayerTableRecord
  2
cen
 70
     0
 62
     7
  6
DASHDOT
370
    -3
390
F
  0
LAYER
  5
224
102
{ACAD_XDICTIONARY
360
960
102
}
330
2
100
AcDbSymbolTableRecord
100
AcDbLayerTableRecord
  2
hid
 70
     0
 62
     7
  6
HIDDEN
370
    -3
390
F
  0
LAYER
  5
225
102
{ACAD_XDICTIONARY
360
962
102
}
330
2
100
AcDbSymbolTableRecord
100
AcDbLayerTableRecord
  2
hatch
 70
     0
 62
     9
  6
Continuous
370
    -3
390
F
  0
LAYER
  5
226
102
{ACAD_XDICTIONARY
360
964
102
}
330
2
100
AcDbSymbolTableRecord
100
AcDbLayerTableRecord
  2
9
 70
     0
 62
     9
  6
Continuous
370
    -3
390
F
  0
LAYER
  5
227
102
{ACAD_XDICTIONARY
360
966
102
}
330
2
100
AcDbSymbolTableRecord
100
AcDbLayerTableRecord
  2
cotas
 70
     0
 62
     1
  6
Continuous
370
    -3
390
F
  0
LAYER
  5
228
330
2
100
AcDbSymbolTableRecord
100
AcDbLayerTableRecord
  2
Defpoints
 70
     0
 62
     7
  6
Continuous
290
     0
370
    -3
390
F
  0
LAYER
  5
229
102
{ACAD_XDICTIONARY
360
968
102
}
330
2
100
AcDbSymbolTableRecord
100
AcDbLayerTableRecord
  2
SANINDUSA
 70
     0
 62
     3
  6
Continuous
370
    -3
390
F
  0
ENDTAB
  0
TABLE
  2
STYLE
  5
3
330
0
100
AcDbSymbolTable
 70
     2
  0
STYLE
  5
11
330
3
100
AcDbSymbolTableRecord
100
AcDbTextStyleTableRecord
  2
Standard
 70
     0
 40
0.0
 41
1.0
 50
0.0
 71
     0
 42
2.5
  3
txt
  4

  0
STYLE
  5
22A
330
3
100
AcDbSymbolTableRecord
100
AcDbTextStyleTableRecord
  2
SANINDUSA
 70
     0
 40
0.0
 41
1.0
 50
0.0
 71
     0
 42
2.5
  3
verdana.TTF
  4

1001
ACAD
1000
Verdana
1071
       34
  0
ENDTAB
  0
TABLE
  2
VIEW
  5
6
330
0
100
AcDbSymbolTable
 70
     0
  0
ENDTAB
  0
TABLE
  2
UCS
  5
7
330
0
100
AcDbSymbolTable
 70
     0
  0
ENDTAB
  0
TABLE
  2
APPID
  5
9
330
0
100
AcDbSymbolTable
 70
     4
  0
APPID
  5
12
330
9
100
AcDbSymbolTableRecord
100
AcDbRegAppTableRecord
  2
ACAD
 70
     0
  0
APPID
  5
22C
330
9
100
AcDbSymbolTableRecord
100
AcDbRegAppTableRecord
  2
ACAD_PSEXT
 70
     0
  0
APPID
  5
8F3
330
9
100
AcDbSymbolTableRecord
100
AcDbRegAppTableRecord
  2
ACAD_EXEMPT_FROM_CAD_STANDARDS
 70
     0
  0
APPID
  5
9A3
330
9
100
AcDbSymbolTableRecord
100
AcDbRegAppTableRecord
  2
ACAD_MLEADERVER
 70
     0
  0
ENDTAB
  0
TABLE
  2
DIMSTYLE
  5
A
330
0
100
AcDbSymbolTable
 70
     2
100
AcDbDimStyleTable
 71
     1
340
2B
  0
DIMSTYLE
105
2B
330
A
100
AcDbSymbolTableRecord
100
AcDbDimStyleTableRecord
  2
ISO-25
 70
     0
 41
2.5
 42
0.625
 43
3.75
 44
1.25
 73
     0
 74
     0
 77
     1
 78
     8
140
2.5
141
2.5
143
0.03937007874016
147
0.625
171
     3
172
     1
271
     2
272
     2
274
     3
278
    44
283
     0
284
     8
340
11
  0
DIMSTYLE
105
22B
330
A
100
AcDbSymbolTableRecord
100
AcDbDimStyleTableRecord
  2
SANINDUSA
 70
     0
 40
5.0
 41
2.0
 42
1.0
 43
1.0
 44
1.0
 73
     0
 74
     0
 77
     1
 78
     8
140
2.0
141
0.0
143
0.03937007874016
147
1.0
171
     3
172
     1
176
   256
177
   256
178
   256
179
     1
271
     1
272
     1
274
     3
278
    44
283
     0
284
     8
340
22A
371
    -1
372
    -1
  0
ENDTAB
  0
TABLE
  2
BLOCK_RECORD
  5
1
330
0
100
AcDbSymbolTable
 70
     2
  0
BLOCK_RECORD
  5
23
102
{ACAD_XDICTIONARY
360
8FA
102
}
330
1
100
AcDbSymbolTableRecord
100
AcDbBlockTableRecord
  2
*Model_Space
340
26
  0
BLOCK_RECORD
  5
1F
330
1
100
AcDbSymbolTableRecord
100
AcDbBlockTableRecord
  2
*Paper_Space
340
22
  0
BLOCK_RECORD
  5
27
330
1
100
AcDbSymbolTableRecord
100
AcDbBlockTableRecord
  2
*Paper_Space0
340
2A
  0
BLOCK_RECORD
  5
2F
330
1
100
AcDbSymbolTableRecord
100
AcDbBlockTableRecord
  2
_DotSmall
340
0
  0
ENDTAB
  0
ENDSEC
  0
SECTION
  2
BLOCKS
  0
BLOCK
  5
24
330
23
100
AcDbEntity
  8
0
100
AcDbBlockBegin
  2
*Model_Space
 70
     0
 10
0.0
 20
0.0
 30
0.0
  3
*Model_Space
  1

  0
ENDBLK
  5
25
330
23
100
AcDbEntity
  8
0
100
AcDbBlockEnd
  0
BLOCK
  5
20
330
1F
100
AcDbEntity
 67
     1
  8
0
100
AcDbBlockBegin
  2
*Paper_Space
 70
     0
 10
0.0
 20
0.0
 30
0.0
  3
*Paper_Space
  1

  0
ENDBLK
  5
21
330
1F
100
AcDbEntity
 67
     1
  8
0
100
AcDbBlockEnd
  0
BLOCK
  5
28
330
27
100
AcDbEntity
 67
     1
  8
0
100
AcDbBlockBegin
  2
*Paper_Space0
 70
     0
 10
0.0
 20
0.0
 30
0.0
  3
*Paper_Space0
  1

  0
ENDBLK
  5
29
330
27
100
AcDbEntity
 67
     1
  8
0
100
AcDbBlockEnd
  0
BLOCK
  5
30
330
2F
100
AcDbEntity
  8
0
100
AcDbBlockBegin
  2
_DotSmall
 70
     0
 10
0.0
 20
0.0
 30
0.0
  3
_DotSmall
  1

  0
LWPOLYLINE
  5
31
330
2F
100
AcDbEntity
  8
0
  6
ByBlock
 62
     0
100
AcDbPolyline
 90
        2
 70
     1
 43
0.5
 10
-0.0625
 20
0.0
 42
1.0
 10
0.0625
 20
0.0
 42
1.0
  0
ENDBLK
  5
32
330
2F
100
AcDbEntity
  8
0
100
AcDbBlockEnd
  0
ENDSEC
  0
SECTION
  2
ENTITIES
  0
ARC
  5
409
330
23
100
AcDbEntity
  8
SANINDUSA
100
AcDbCircle
 10
2134.914404240778
 20
1407.94852943238
 30
0.0
 40
0.01
100
AcDbArc
 50
4.999999996291116
 51
83.98560452065359
  0
ARC
  5
40A
330
23
100
AcDbEntity
  8
SANINDUSA
100
AcDbCircle
 10
2135.004773262645
 20
1407.948471440615
 30
0.0
 40
0.0100000000000001
100
AcDbArc
 50
95.82763529490078
 51
175.0000000037089
  0
LWPOLYLINE
  5
40C
330
23
100
AcDbEntity
  8
SANINDUSA
100
AcDbPolyline
 90
       17
 70
   128
 43
0.0
 10
2135.003757901212
 20
1407.958419759124
 10
2135.014450765194
 20
1407.959645587255
 10
2135.03015231873
 20
1407.96194061798
 10
2135.045760864888
 20
1407.964802053647
 10
2135.056236137895
 20
1407.967297529995
 10
2135.066512247195
 20
1407.970559483675
 10
2135.076477224429
 20
1407.974624496552
 10
2135.086400615148
 20
1407.979679525468
 10
2135.095870470479
 20
1407.985539860614
 10
2135.105069967175
 20
1407.992373667963
 10
2135.113655054706
 20
1407.999965139988
 10
2135.12134538215
 20
1408.008020886978
 10
2135.128339871381
 20
1408.016687914187
 10
2135.134762487511
 20
1408.026180448336
 10
2135.140350986707
 20
1408.036186474995
 10
2135.144323225043
 20
1408.044831741154
 10
2135.14769033415
 20
1408.053781484864
  0
LWPOLYLINE
  5
40D
330
23
100
AcDbEntity
  8
SANINDUSA
100
AcDbPolyline
 90
       19
 70
   128
 43
0.0
 10
2134.835497033844
 20
1408.075567049615
 10
2134.837500984572
 20
1408.055766026043
 10
2134.840502390669
 20
1408.036040796348
 10
2134.842110735393
 20
1408.027305006222
 10
2134.844102339478
 20
1408.018655034926
 10
2134.846956427242
 20
1408.01004900117
 10
2134.850741812874
 20
1408.001809910936
 10
2134.854173733556
 20
1407.99592052174
 10
2134.85808241949
 20
1407.990336280172
 10
2134.862575550848
 20
1407.984949952625
 10
2134.86751123748
 20
1407.979966111579
 10
2134.87270010508
 20
1407.975545891289
 10
2134.87823727085
 20
1407.971570521682
 10
2134.884260392389
 20
1407.96797529356
 10
2134.89056855143
 20
1407.96490735491
 10
2134.896505505505
 20
1407.962597551737
 10
2134.902603766168
 20
1407.960755398136
 10
2134.908984390438
 20
1407.959375362078
 10
2134.915452024102
 20
1407.958474388394
  0
ARC
  5
40E
330
23
100
AcDbEntity
  8
SANINDUSA
100
AcDbCircle
 10
2134.959934468112
 20
1408.413922675846
 30
0.0
 40
0.4456445864155735
100
AcDbArc
 50
265.3110283948109
 51
274.5913198531608
  0
LINE
  5
40F
330
23
100
AcDbEntity
  8
SANINDUSA
100
AcDbLine
 10
2134.995607387736
 20
1407.969708155364
 30
0.0
 11
2134.983091288523
 21
1407.958828076308
 31
0.0
  0
LINE
  5
410
330
23
100
AcDbEntity
  8
SANINDUSA
100
AcDbLine
 10
2134.936091288523
 20
1407.958828076308
 30
0.0
 11
2134.983091288523
 21
1407.958828076308
 31
0.0
  0
LINE
  5
411
330
23
100
AcDbEntity
  8
SANINDUSA
100
AcDbLine
 10
2134.936091288523
 20
1407.958828076308
 30
0.0
 11
2134.923504505957
 21
1407.969769599464
 31
0.0
  0
LINE
  5
412
330
23
100
AcDbEntity
  8
SANINDUSA
100
AcDbLine
 10
2134.994811315664
 20
1407.949342998043
 30
0.0
 11
2134.994671152047
 21
1407.947740920565
 31
0.0
  0
LINE
  5
413
330
23
100
AcDbEntity
  8
SANINDUSA
100
AcDbLine
 10
2134.924511424999
 20
1407.947740920565
 30
0.0
 11
2134.924366187759
 21
1407.949400989808
 31
0.0
  0
ARC
  5
414
330
23
100
AcDbEntity
  8
SANINDUSA
100
AcDbCircle
 10
2135.198745299264
 20
1408.075188205588
 30
0.0
 40
0.0050000000000001
100
AcDbArc
 50
4.999999996291116
 51
90.0
  0
LINE
  5
415
330
23
100
AcDbEntity
  8
SANINDUSA
100
AcDbLine
 10
2135.182058202891
 20
1408.080188205588
 30
0.0
 11
2135.198745299264
 21
1408.080188205588
 31
0.0
  0
ARC
  5
416
330
23
100
AcDbEntity
  8
SANINDUSA
100
AcDbCircle
 10
2135.182058202891
 20
1408.075188205588
 30
0.0
 40
0.0050000000000001
100
AcDbArc
 50
90.0
 51
175.0000000037089
  0
ARC
  5
419
330
23
100
AcDbEntity
  8
SANINDUSA
100
AcDbCircle
 10
2135.182058202891
 20
1408.075188205588
 30
0.0
 40
0.0160000000000001
100
AcDbArc
 50
162.8953648195865
 51
175.0000000037089
  0
LINE
  5
41A
330
23
100
AcDbEntity
  8
SANINDUSA
100
AcDbLine
 10
2135.177077229401
 20
1408.075623984301
 30
0.0
 11
2135.17586362538
 21
1408.061752426874
 31
0.0
  0
LINE
  5
41B
330
23
100
AcDbEntity
  8
SANINDUSA
100
AcDbLine
 10
2135.166119087722
 20
1408.076582697472
 30
0.0
 11
2135.16546452837
 21
1408.069101049845
 31
0.0
  0
ARC
  5
41C
330
23
100
AcDbEntity
  8
SANINDUSA
100
AcDbCircle
 10
2135.17088265189
 20
1408.062188205588
 30
0.0
 40
0.005
100
AcDbArc
 50
270.0
 51
355.0000000037089
  0
LINE
  5
41D
330
23
100
AcDbEntity
  8
SANINDUSA
100
AcDbLine
 10
2135.152429686548
 20
1408.057188205588
 30
0.0
 11
2135.17088265189
 21
1408.057188205588
 31
0.0
  0
LINE
  5
41E
330
23
100
AcDbEntity
  8
SANINDUSA
100
AcDbLine
 10
2135.152429686548
 20
1408.068188205588
 30
0.0
 11
2135.164468333672
 21
1408.068188205588
 31
0.0
  0
ARC
  5
41F
330
23
100
AcDbEntity
  8
SANINDUSA
100
AcDbCircle
 10
2135.164468333672
 20
1408.069188205588
 30
0.0
 40
0.001
100
AcDbArc
 50
270.0
 51
355.0000000037089
  0
ARC
  5
420
330
23
100
AcDbEntity
  8
SANINDUSA
100
AcDbCircle
 10
2135.152429686548
 20
1408.052188205588
 30
0.0
 40
0.0050000000000001
100
AcDbArc
 50
90.0
 51
161.4183438350735
  0
ARC
  5
421
330
23
100
AcDbEntity
  8
SANINDUSA
100
AcDbCircle
 10
2135.152429686548
 20
1408.052188205588
 30
0.0
 40
0.0160000000000001
100
AcDbArc
 50
90.0
 51
92.27278514125579
  0
ARC
  5
422
330
23
100
AcDbEntity
  8
SANINDUSA
100
AcDbCircle
 10
2134.993674957348
 20
1407.947828076308
 30
0.0
 40
0.001
100
AcDbArc
 50
270.0
 51
355.0000000037089
  0
LINE
  5
423
330
23
100
AcDbEntity
  8
SANINDUSA
100
AcDbLine
 10
2134.993674957348
 20
1407.946828076308
 30
0.0
 11
2134.984091288523
 21
1407.946828076308
 31
0.0
  0
ARC
  5
424
330
23
100
AcDbEntity
  8
SANINDUSA
100
AcDbCircle
 10
2134.984091288523
 20
1407.947828076308
 30
0.0
 40
0.0010000000000002
100
AcDbArc
 50
180.0
 51
270.0
  0
LINE
  5
425
330
23
100
AcDbEntity
  8
SANINDUSA
100
AcDbLine
 10
2134.983091288523
 20
1407.947828076308
 30
0.0
 11
2134.983091288523
 21
1407.958828076308
 31
0.0
  0
LWPOLYLINE
  5
426
330
23
100
AcDbEntity
  8
SANINDUSA
100
AcDbPolyline
 90
       19
 70
   128
 43
0.0
 10
2134.995607387736
 20
1407.969708155364
 10
2135.01369199096
 20
1407.97156425441
 10
2135.031682990081
 20
1407.974209944208
 10
2135.049469157811
 20
1407.977894886274
 10
2135.059329927893
 20
1407.980742204401
 10
2135.068950702736
 20
1407.984421357741
 10
2135.078231522463
 20
1407.988889236115
 10
2135.087072427199
 20
1407.994102729341
 10
2135.095436011464
 20
1408.000052357522
 10
2135.10329759691
 20
1408.00670801564
 10
2135.110576822396
 20
1408.01399598547
 10
2135.117193326783
 20
1408.021842548786
 10
2135.123113380028
 20
1408.03022174853
 10
2135.128327997103
 20
1408.03909958076
 10
2135.132786261989
 20
1408.048380325205
 10
2135.136437258669
 20
1408.05796826159
 10
2135.13921527923
 20
1408.067650718953
 10
2135.141188709862
 20
1408.077546406622
 10
2135.142340452831
 20
1408.087553750281
  0
LWPOLYLINE
  5
427
330
23
100
AcDbEntity
  8
SANINDUSA
100
AcDbPolyline
 90
        5
 70
   128
 43
0.0
 10
2135.150774825173
 20
1408.069370404734
 10
2135.152064819711
 20
1408.075839029895
 10
2135.152578524175
 20
1408.080302540636
 42
-0.381036798423269
 10
2135.153571966421
 20
1408.081188205588
 10
2135.165810126082
 20
1408.081188205588
  0
ARC
  5
428
330
23
100
AcDbEntity
  8
SANINDUSA
100
AcDbCircle
 10
2135.147327072635
 20
1408.087188205588
 30
0.0
 40
0.0050000000000001
100
AcDbArc
 50
90.0
 51
175.8074258657829
  0
LINE
  5
429
330
23
100
AcDbEntity
  8
SANINDUSA
100
AcDbLine
 10
2135.147327072635
 20
1408.092188205588
 30
0.0
 11
2135.209762844649
 21
1408.092188205588
 31
0.0
  0
ARC
  5
42A
330
23
100
AcDbEntity
  8
SANINDUSA
100
AcDbCircle
 10
2135.209762844649
 20
1408.087188205588
 30
0.0
 40
0.0050000000000004
100
AcDbArc
 50
2.000000003753602
 51
90.0
  0
LINE
  5
42B
330
23
100
AcDbEntity
  8
SANINDUSA
100
AcDbLine
 10
2135.21546430776
 20
1408.067188205588
 30
0.0
 11
2135.214759798784
 21
1408.087362703071
 31
0.0
  0
LINE
  5
42C
330
23
100
AcDbEntity
  8
SANINDUSA
100
AcDbLine
 10
2135.20446430776
 20
1408.067188205588
 30
0.0
 11
2135.21546430776
 21
1408.067188205588
 31
0.0
  0
LINE
  5
42D
330
23
100
AcDbEntity
  8
SANINDUSA
100
AcDbLine
 10
2135.20446430776
 20
1408.067188205588
 30
0.0
 11
2135.203726272755
 21
1408.075623984301
 31
0.0
  0
ARC
  5
42E
330
23
100
AcDbEntity
  8
SANINDUSA
100
AcDbCircle
 10
2134.925507619697
 20
1407.947828076308
 30
0.0
 40
0.0010000000000002
100
AcDbArc
 50
184.9999999962911
 51
270.0
  0
ARC
  5
42F
330
23
100
AcDbEntity
  8
SANINDUSA
100
AcDbCircle
 10
2134.830511406781
 20
1408.075188205588
 30
0.0
 40
0.0050000000000004
100
AcDbArc
 50
4.345397304531042
 51
90.0
  0
LINE
  5
430
330
23
100
AcDbEntity
  8
SANINDUSA
100
AcDbLine
 10
2134.813091288523
 20
1408.080188205588
 30
0.0
 11
2134.830511406781
 21
1408.080188205588
 31
0.0
  0
ARC
  5
431
330
23
100
AcDbEntity
  8
SANINDUSA
100
AcDbCircle
 10
2134.813091288523
 20
1408.081188205588
 30
0.0
 40
0.001
100
AcDbArc
 50
180.0
 51
270.0
  0
LINE
  5
432
330
23
100
AcDbEntity
  8
SANINDUSA
100
AcDbLine
 10
2134.812091288523
 20
1408.081188205588
 30
0.0
 11
2134.812091288523
 21
1408.091188205588
 31
0.0
  0
ARC
  5
433
330
23
100
AcDbEntity
  8
SANINDUSA
100
AcDbCircle
 10
2134.813091288523
 20
1408.091188205588
 30
0.0
 40
0.0010000000000002
100
AcDbArc
 50
90.0
 51
180.0
  0
LINE
  5
434
330
23
100
AcDbEntity
  8
SANINDUSA
100
AcDbLine
 10
2134.813091288523
 20
1408.092188205588
 30
0.0
 11
2134.841792887138
 21
1408.092188205588
 31
0.0
  0
ARC
  5
435
330
23
100
AcDbEntity
  8
SANINDUSA
100
AcDbCircle
 10
2134.841792887138
 20
1408.087188205588
 30
0.0
 40
0.0050000000000001
100
AcDbArc
 50
2.712110756806224
 51
90.0
  0
LWPOLYLINE
  5
436
330
23
100
AcDbEntity
  8
SANINDUSA
100
AcDbPolyline
 90
       18
 70
   128
 43
0.0
 10
2134.846787286617
 20
1408.087424793526
 10
2134.848017867691
 20
1408.069941082718
 10
2134.850042464026
 20
1408.052522186869
 10
2134.852847115427
 20
1408.035220658882
 10
2134.854172293186
 20
1408.028522042834
 10
2134.855778971975
 20
1408.021869539935
 10
2134.857829507652
 20
1408.015364670235
 10
2134.860486256077
 20
1408.009108953779
 10
2134.865127472181
 20
1408.001116924184
 10
2134.870798730327
 20
1407.993768132865
 10
2134.877354972373
 20
1407.987254972454
 10
2134.883573518328
 20
1407.982449627245
 10
2134.89031023146
 20
1407.978354262704
 10
2134.897438667067
 20
1407.975045584518
 10
2134.904899176156
 20
1407.972627091403
 10
2134.91260881076
 20
1407.971025699312
 10
2134.920415206896
 20
1407.970049656738
 10
2134.923504505957
 20
1407.969769599464
  0
LINE
  5
437
330
23
100
AcDbEntity
  8
SANINDUSA
100
AcDbLine
 10
2134.936091288523
 20
1407.958828076308
 30
0.0
 11
2134.936091288523
 21
1407.947828076308
 31
0.0
  0
ARC
  5
438
330
23
100
AcDbEntity
  8
SANINDUSA
100
AcDbCircle
 10
2134.935091288523
 20
1407.947828076308
 30
0.0
 40
0.0010000000000001
100
AcDbArc
 50
270.0
 51
0.0
  0
LINE
  5
439
330
23
100
AcDbEntity
  8
SANINDUSA
100
AcDbLine
 10
2134.935091288523
 20
1407.946828076308
 30
0.0
 11
2134.925507619697
 21
1407.946828076308
 31
0.0
  0
LINE
  5
43B
330
23
100
AcDbEntity
  8
SANINDUSA
100
AcDbLine
 10
2134.984091288523
 20
1407.946828076308
 30
0.0
 11
2134.935091288523
 21
1407.946828076308
 31
0.0
  0
ARC
  5
43C
330
23
100
AcDbEntity
  8
SANINDUSA
100
AcDbCircle
 10
2134.759496606689
 20
1408.075188205588
 30
0.0
 40
0.0050000000000003
100
AcDbArc
 50
90.0
 51
175.0000000037089
  0
ARC
  5
43D
330
23
100
AcDbEntity
  8
SANINDUSA
100
AcDbCircle
 10
2134.759496606689
 20
1408.075188205588
 30
0.0
 40
0.0160000000000003
100
AcDbArc
 50
162.8953648195865
 51
175.0000000037089
  0
ARC
  5
43E
330
23
100
AcDbEntity
  8
SANINDUSA
100
AcDbCircle
 10
2134.74324852988
 20
1408.080188205588
 30
0.0
 40
0.001
100
AcDbArc
 50
342.8953648195866
 51
90.0
  0
LINE
  5
43F
330
23
100
AcDbEntity
  8
SANINDUSA
100
AcDbLine
 10
2134.744990606143
 20
1407.966752426874
 30
0.0
 11
2134.754515633199
 21
1408.075623984301
 31
0.0
  0
LINE
  5
440
330
23
100
AcDbEntity
  8
SANINDUSA
100
AcDbLine
 10
2134.734591509133
 20
1407.974101049845
 30
0.0
 11
2134.743557491519
 21
1408.076582697472
 31
0.0
  0
ARC
  5
441
330
23
100
AcDbEntity
  8
SANINDUSA
100
AcDbCircle
 10
2134.733595314434
 20
1407.974188205588
 30
0.0
 40
0.001
100
AcDbArc
 50
270.0
 51
355.0000000037089
  0
LINE
  5
442
330
23
100
AcDbEntity
  8
SANINDUSA
100
AcDbLine
 10
2134.716591288523
 20
1407.962188205588
 30
0.0
 11
2134.740009632653
 21
1407.962188205588
 31
0.0
  0
LINE
  5
443
330
23
100
AcDbEntity
  8
SANINDUSA
100
AcDbLine
 10
2134.726591288523
 20
1407.973188205588
 30
0.0
 11
2134.733595314434
 21
1407.973188205588
 31
0.0
  0
ARC
  5
444
330
23
100
AcDbEntity
  8
SANINDUSA
100
AcDbCircle
 10
2134.726591288523
 20
1407.974188205588
 30
0.0
 40
0.001
100
AcDbArc
 50
180.0
 51
270.0
  0
ARC
  5
445
330
23
100
AcDbEntity
  8
SANINDUSA
100
AcDbCircle
 10
2134.716591288523
 20
1407.964188205588
 30
0.0
 40
0.002
100
AcDbArc
 50
180.0
 51
270.0
  0
LINE
  5
446
330
23
100
AcDbEntity
  8
SANINDUSA
100
AcDbLine
 10
2134.714591288522
 20
1408.087188205588
 30
0.0
 11
2134.714591288522
 21
1407.964188205588
 31
0.0
  0
LINE
  5
447
330
23
100
AcDbEntity
  8
SANINDUSA
100
AcDbLine
 10
2134.725591288523
 20
1408.080188205588
 30
0.0
 11
2134.725591288523
 21
1407.974188205588
 31
0.0
  0
ARC
  5
448
330
23
100
AcDbEntity
  8
SANINDUSA
100
AcDbCircle
 10
2134.719591288523
 20
1408.087188205588
 30
0.0
 40
0.005
100
AcDbArc
 50
90.0
 51
180.0
  0
LINE
  5
449
330
23
100
AcDbEntity
  8
SANINDUSA
100
AcDbLine
 10
2134.719591288523
 20
1408.092188205588
 30
0.0
 11
2134.776091288523
 21
1408.092188205588
 31
0.0
  0
LINE
  5
44A
330
23
100
AcDbEntity
  8
SANINDUSA
100
AcDbLine
 10
2134.726591288523
 20
1408.081188205588
 30
0.0
 11
2134.74324852988
 21
1408.081188205588
 31
0.0
  0
ARC
  5
44B
330
23
100
AcDbEntity
  8
SANINDUSA
100
AcDbCircle
 10
2134.726591288523
 20
1408.080188205588
 30
0.0
 40
0.001
100
AcDbArc
 50
90.0
 51
180.0
  0
ARC
  5
44C
330
23
100
AcDbEntity
  8
SANINDUSA
100
AcDbCircle
 10
2134.776091288523
 20
1408.091188205588
 30
0.0
 40
0.001
100
AcDbArc
 50
0.0
 51
90.0
  0
LINE
  5
44D
330
23
100
AcDbEntity
  8
SANINDUSA
100
AcDbLine
 10
2134.777091288523
 20
1408.091188205588
 30
0.0
 11
2134.777091288523
 21
1408.081188205588
 31
0.0
  0
ARC
  5
44E
330
23
100
AcDbEntity
  8
SANINDUSA
100
AcDbCircle
 10
2134.776091288523
 20
1408.081188205588
 30
0.0
 40
0.0010000000000002
100
AcDbArc
 50
270.0
 51
0.0
  0
LINE
  5
44F
330
23
100
AcDbEntity
  8
SANINDUSA
100
AcDbLine
 10
2134.759496606689
 20
1408.080188205588
 30
0.0
 11
2134.776091288523
 21
1408.080188205588
 31
0.0
  0
ARC
  5
450
330
23
100
AcDbEntity
  8
SANINDUSA
100
AcDbCircle
 10
2134.740009632653
 20
1407.967188205588
 30
0.0
 40
0.0050000000000001
100
AcDbArc
 50
270.0
 51
355.0000000037089
  0
LINE
  5
455
330
23
100
AcDbEntity
  8
SANINDUSA
100
AcDbLine
 10
2134.813091288523
 20
1408.080188205588
 30
0.0
 11
2134.776091288523
 21
1408.080188205588
 31
0.0
  0
LINE
  5
458
330
23
100
AcDbEntity
  8
SANINDUSA
100
AcDbLine
 10
2135.146574036159
 20
1408.092188205588
 30
0.0
 11
2135.147327072635
 21
1408.092188205588
 31
0.0
  0
LINE
  5
45A
330
23
100
AcDbEntity
  8
SANINDUSA
100
AcDbLine
 10
2134.776091288523
 20
1408.092188205588
 30
0.0
 11
2134.813091288523
 21
1408.092188205588
 31
0.0
  0
LINE
  5
462
330
23
100
AcDbEntity
  8
SANINDUSA
100
AcDbLine
 10
2134.750017297925
 20
1407.962188205588
 30
0.0
 11
2134.740009632653
 21
1407.962188205588
 31
0.0
  0
LINE
  5
465
330
23
100
AcDbEntity
  8
SANINDUSA
100
AcDbLine
 10
2134.897860603972
 20
1407.962188205588
 30
0.0
 11
2134.750017297925
 21
1407.962188205588
 31
0.0
  0
LINE
  5
46B
330
23
100
AcDbEntity
  8
SANINDUSA
100
AcDbLine
 10
2135.146574036159
 20
1408.092188205588
 30
0.0
 11
2135.136352993268
 21
1408.092188205588
 31
0.0
  0
LINE
  5
46D
330
23
100
AcDbEntity
  8
SANINDUSA
100
AcDbLine
 10
2134.852827357262
 20
1408.092188205588
 30
0.0
 11
2134.841792887138
 21
1408.092188205588
 31
0.0
  0
LINE
  5
46E
330
23
100
AcDbEntity
  8
SANINDUSA
100
AcDbLine
 10
2134.852827357262
 20
1408.092188205588
 30
0.0
 11
2135.136352993268
 21
1408.092188205588
 31
0.0
  0
LINE
  5
471
330
23
100
AcDbEntity
  8
SANINDUSA
100
AcDbLine
 10
2135.20446430776
 20
1408.067188205588
 30
0.0
 11
2135.19948333427
 21
1408.067188205588
 31
0.0
  0
LINE
  5
473
330
23
100
AcDbEntity
  8
SANINDUSA
100
AcDbLine
 10
2135.176339194396
 20
1408.067188205588
 30
0.0
 11
2135.19948333427
 21
1408.067188205588
 31
0.0
  0
ARC
  5
47B
330
23
100
AcDbEntity
  8
SANINDUSA
100
AcDbCircle
 10
2135.165810126082
 20
1408.080188205588
 30
0.0
 40
0.001
100
AcDbArc
 50
342.8953648195866
 51
90.0
  0
ARC
  5
47C
330
23
100
AcDbEntity
  8
SANINDUSA
100
AcDbCircle
 10
2135.151755514461
 20
1408.069174832445
 30
0.0
 40
0.001
100
AcDbArc
 50
168.721842987491
 51
272.2727851152212
  0
LWPOLYLINE
  5
49D
330
23
100
AcDbEntity
  8
SANINDUSA
100
AcDbPolyline
 90
       31
 70
   128
 43
0.0
 10
2133.387902893604
 20
1407.956342292263
 10
2133.406148165825
 20
1407.956455903973
 10
2133.423775357501
 20
1407.956612467069
 10
2133.440956606925
 20
1407.956792826057
 10
2133.458141533626
 20
1407.956996846927
 10
2133.475330352538
 20
1407.957221340109
 10
2133.492523122441
 20
1407.957463413609
 10
2133.498197570863
 20
1407.9575467092
 10
2133.503243308069
 20
1407.957622074403
 10
2133.507513332185
 20
1407.957686764852
 10
2133.511007700816
 20
1407.957740301769
 10
2133.513726460208
 20
1407.957782315764
 10
2133.515669645802
 20
1407.957812532818
 10
2133.516739282079
 20
1407.95782923176
 10
2133.518307081922
 20
1407.957853791843
 10
2133.520523985748
 20
1407.957888690072
 10
2133.523389973017
 20
1407.957934096966
 10
2133.528220928726
 20
1407.958011358807
 10
2133.534205686182
 20
1407.958108281912
 10
2133.541344151073
 20
1407.958225539907
 10
2133.5492823824
 20
1407.958357897704
 10
2133.55828365575
 20
1407.958510273111
 10
2133.568347844808
 20
1407.958683245083
 10
2133.57947480958
 20
1407.95887731131
 10
2133.591664396533
 20
1407.959092851779
 10
2133.60491643886
 20
1407.959330094952
 10
2133.619230757005
 20
1407.959589087889
 10
2133.636203206908
 20
1407.959898904592
 10
2133.654460510422
 20
1407.960234314349
 10
2133.674002389054
 20
1407.960594442524
 10
2133.709391496267
 20
1407.961245465915
  0
LWPOLYLINE
  5
49E
330
23
100
AcDbEntity
  8
SANINDUSA
100
AcDbPolyline
 90
       35
 70
   128
 43
0.0
 10
2132.976926346726
 20
1407.961245308269
 10
2132.989536666582
 20
1407.961014046677
 10
2133.008628742576
 20
1407.960662485668
 10
2133.026659460968
 20
1407.960330124985
 10
2133.043628610526
 20
1407.96001794899
 10
2133.059535980487
 20
1407.959726699412
 10
2133.074381365481
 20
1407.95945687756
 10
2133.088164568928
 20
1407.959208753017
 10
2133.102099051887
 20
1407.958960934058
 10
2133.114747841119
 20
1407.958739230175
 10
2133.126110726045
 20
1407.958543202448
 10
2133.136187515814
 20
1407.958372224433
 10
2133.144978039561
 20
1407.958225539907
 10
2133.152116504453
 20
1407.958108281912
 10
2133.158101261909
 20
1407.958011358807
 10
2133.162932217617
 20
1407.957934096966
 10
2133.165798204886
 20
1407.957888690072
 10
2133.168015108713
 20
1407.957853791843
 10
2133.169582908556
 20
1407.95782923176
 10
2133.170638606153
 20
1407.957812750127
 10
2133.173538065411
 20
1407.957767718407
 10
2133.177781695673
 20
1407.957702447024
 10
2133.182182838144
 20
1407.957635581379
 10
2133.187457944746
 20
1407.957556598224
 10
2133.193282798648
 20
1407.957470927513
 10
2133.199367692135
 20
1407.957383263094
 10
2133.205712648699
 20
1407.957293970037
 10
2133.212317692866
 20
1407.957203464164
 10
2133.219182850335
 20
1407.957112216051
 10
2133.232444635254
 20
1407.956944801212
 10
2133.24658096311
 20
1407.956780547232
 10
2133.261592038908
 20
1407.956624104714
 10
2133.275734161635
 20
1407.956495546808
 10
2133.290572126945
 20
1407.956382331603
 10
2133.298417191021
 20
1407.956342874556
  0
ARC
  5
49F
330
23
100
AcDbEntity
  8
SANINDUSA
100
AcDbCircle
 10
2132.977022489472
 20
1407.966244622857
 30
0.0
 40
0.0049999996460193
100
AcDbArc
 50
181.9995551153323
 51
268.7768785953493
  0
ARC
  5
4A0
330
23
100
AcDbEntity
  8
SANINDUSA
100
AcDbCircle
 10
2133.709299701159
 20
1407.966244622858
 30
0.0
 40
0.0049999996485715
100
AcDbArc
 50
271.0284760822462
 51
358.000444871648
  0
ARC
  5
4A1
330
23
100
AcDbEntity
  8
SANINDUSA
100
AcDbCircle
 10
2133.298227365211
 20
1407.946416183703
 30
0.0
 40
0.0099285056848579
100
AcDbArc
 50
7.334391437860544
 51
88.90447959768939
  0
ARC
  5
4A2
330
23
100
AcDbEntity
  8
SANINDUSA
100
AcDbCircle
 10
2133.38807904826
 20
1407.946419839654
 30
0.0
 40
0.0099240161343172
100
AcDbArc
 50
91.01707296888621
 51
172.6948885226176
  0
ARC
  5
4A3
330
23
100
AcDbEntity
  8
SANINDUSA
100
AcDbCircle
 10
2133.377258044912
 20
1407.9478280755
 30
0.0
 40
0.0009999991921619
100
AcDbArc
 50
269.995565108642
 51
350.7473269798462
  0
ARC
  5
4A4
330
23
100
AcDbEntity
  8
SANINDUSA
100
AcDbCircle
 10
2133.309064151518
 20
1407.947828075409
 30
0.0
 40
0.0009999991011108
100
AcDbArc
 50
188.303645223602
 51
270.0050853309751
  0
LINE
  5
4A5
330
23
100
AcDbEntity
  8
SANINDUSA
100
AcDbLine
 10
2132.85228198435
 20
1408.067188205588
 30
0.0
 11
2132.84228807608
 21
1408.067188205588
 31
0.0
  0
LINE
  5
4A6
330
23
100
AcDbEntity
  8
SANINDUSA
100
AcDbLine
 10
2132.84228807608
 20
1408.067188205588
 30
0.0
 11
2132.842992585056
 21
1408.087362703071
 31
0.0
  0
LINE
  5
4A9
330
23
100
AcDbEntity
  8
SANINDUSA
100
AcDbLine
 10
2133.844034114554
 20
1408.067188205588
 30
0.0
 11
2133.834040206284
 21
1408.067188205588
 31
0.0
  0
LINE
  5
4AC
330
23
100
AcDbEntity
  8
SANINDUSA
100
AcDbLine
 10
2133.843329605578
 20
1408.087362703071
 30
0.0
 11
2133.844034114554
 21
1408.067188205588
 31
0.0
  0
LINE
  5
4AD
330
23
100
AcDbEntity
  8
SANINDUSA
100
AcDbLine
 10
2132.85228198435
 20
1408.067188205588
 30
0.0
 11
2133.834040206284
 21
1408.067188205588
 31
0.0
  0
LINE
  5
4AF
330
23
100
AcDbEntity
  8
SANINDUSA
100
AcDbLine
 10
2132.852986493326
 20
1408.092188205588
 30
0.0
 11
2133.833335697308
 21
1408.092188205588
 31
0.0
  0
LINE
  5
4B2
330
23
100
AcDbEntity
  8
SANINDUSA
100
AcDbLine
 10
2132.847989539191
 20
1408.092188205588
 30
0.0
 11
2132.852986493326
 21
1408.092188205588
 31
0.0
  0
ARC
  5
4B3
330
23
100
AcDbEntity
  8
SANINDUSA
100
AcDbCircle
 10
2132.847989539191
 20
1408.087188205588
 30
0.0
 40
0.0050000000000001
100
AcDbArc
 50
90.0
 51
177.9999999962464
  0
LINE
  5
4B4
330
23
100
AcDbEntity
  8
SANINDUSA
100
AcDbLine
 10
2133.833335697308
 20
1408.092188205588
 30
0.0
 11
2133.838332651443
 21
1408.092188205588
 31
0.0
  0
ARC
  5
4B5
330
23
100
AcDbEntity
  8
SANINDUSA
100
AcDbCircle
 10
2133.838332651443
 20
1408.087188205588
 30
0.0
 40
0.005
100
AcDbArc
 50
2.000000003753602
 51
90.0
  0
LINE
  5
4B7
330
23
100
AcDbEntity
  8
SANINDUSA
100
AcDbLine
 10
2133.79490900119
 20
1408.067188205588
 30
0.0
 11
2133.794433432175
 21
1408.061752426874
 31
0.0
  0
LINE
  5
4B9
330
23
100
AcDbEntity
  8
SANINDUSA
100
AcDbLine
 10
2132.89188875846
 20
1408.061752426874
 30
0.0
 11
2132.891413189444
 21
1408.067188205588
 31
0.0
  0
LINE
  5
4BC
330
23
100
AcDbEntity
  8
SANINDUSA
100
AcDbLine
 10
2133.784471485194
 20
1408.057188205588
 30
0.0
 11
2132.90185070544
 21
1408.057188205588
 31
0.0
  0
ARC
  5
4BE
330
23
100
AcDbEntity
  8
SANINDUSA
100
AcDbCircle
 10
2133.789452458684
 20
1408.062188205588
 30
0.0
 40
0.005
100
AcDbArc
 50
270.0
 51
355.0000000037089
  0
LINE
  5
4BF
330
23
100
AcDbEntity
  8
SANINDUSA
100
AcDbLine
 10
2133.789452458684
 20
1408.057188205588
 30
0.0
 11
2133.784471485194
 21
1408.057188205588
 31
0.0
  0
LINE
  5
4C0
330
23
100
AcDbEntity
  8
SANINDUSA
100
AcDbLine
 10
2132.90185070544
 20
1408.057188205588
 30
0.0
 11
2132.89686973195
 21
1408.057188205588
 31
0.0
  0
ARC
  5
4C1
330
23
100
AcDbEntity
  8
SANINDUSA
100
AcDbCircle
 10
2132.89686973195
 20
1408.062188205588
 30
0.0
 40
0.0050000000000001
100
AcDbArc
 50
184.9999999962911
 51
270.0
  0
LINE
  5
4C5
330
23
100
AcDbEntity
  8
SANINDUSA
100
AcDbLine
 10
2133.298417191021
 20
1407.956342874556
 30
0.0
 11
2133.298495625361
 21
1407.956342665793
 31
0.0
  0
ARC
  5
4C8
330
23
100
AcDbEntity
  8
SANINDUSA
100
AcDbCircle
 10
2132.964015178341
 20
1408.052188205588
 30
0.0
 40
0.0050000000000001
100
AcDbArc
 50
2.000000003753602
 51
90.0
  0
ARC
  5
4CA
330
23
100
AcDbEntity
  8
SANINDUSA
100
AcDbCircle
 10
2133.722307012293
 20
1408.052188205588
 30
0.0
 40
0.0050000000000001
100
AcDbArc
 50
90.0
 51
177.9999999962464
  0
LINE
  5
4CB
330
23
100
AcDbEntity
  8
SANINDUSA
100
AcDbLine
 10
2132.97202536609
 20
1407.96607498213
 30
0.0
 11
2132.969012132477
 21
1408.052362703071
 31
0.0
  0
LINE
  5
4CC
330
23
100
AcDbEntity
  8
SANINDUSA
100
AcDbLine
 10
2133.717310058158
 20
1408.052362703071
 30
0.0
 11
2133.714296654944
 21
1407.966070125387
 31
0.0
  0
LINE
  5
4CE
330
23
100
AcDbEntity
  8
SANINDUSA
100
AcDbLine
 10
2133.377257967509
 20
1407.946828076311
 30
0.0
 11
2133.309064151518
 21
1407.946828076308
 31
0.0
  0
ARC
  5
4D3
330
23
100
AcDbEntity
  8
SANINDUSA
100
AcDbCircle
 10
2133.343197254079
 20
1407.476334417867
 30
0.0
 40
0.4820852141352141
100
AcDbArc
 50
84.67909429674255
 51
95.32042696198093
  0
ARC
  5
4D9
330
23
100
AcDbEntity
  8
SANINDUSA
100
AcDbCircle
 10
2131.809612996473
 20
1408.146381496228
 30
0.0
 40
0.0050144266521381
100
AcDbArc
 50
91.04477957927407
 51
183.9686122872943
  0
LWPOLYLINE
  5
4DA
330
23
100
AcDbEntity
  8
SANINDUSA
100
AcDbPolyline
 90
       33
 70
   128
 43
0.0
 10
2131.809521564254
 20
1408.151395089231
 10
2131.809921364355
 20
1408.147323770972
 10
2131.810289227481
 20
1408.141973625808
 10
2131.810574274037
 20
1408.136380506453
 10
2131.810834592448
 20
1408.129888481012
 10
2131.811080765296
 20
1408.122552285285
 10
2131.81132337516
 20
1408.11442665507
 10
2131.811574278616
 20
1408.105480598832
 10
2131.811834224166
 20
1408.09578068146
 10
2131.812099791756
 20
1408.0854354399
 10
2131.812367561332
 20
1408.0745534111
 10
2131.812618866998
 20
1408.063533478622
 10
2131.812846480659
 20
1408.052101448272
 10
2131.813039646179
 20
1408.040373003897
 10
2131.813187607423
 20
1408.028463829343
 10
2131.813289324261
 20
1408.016086506557
 10
2131.813343549962
 20
1408.003637767052
 10
2131.813348457603
 20
1407.990577267471
 10
2131.813300313734
 20
1407.977573629444
 10
2131.813199959779
 20
1407.96476393894
 10
2131.813048237161
 20
1407.952285281928
 10
2131.812850558672
 20
1407.940171732808
 10
2131.81261692759
 20
1407.928490253432
 10
2131.812354291994
 20
1407.917373303483
 10
2131.812069599956
 20
1407.906953342648
 10
2131.811775400763
 20
1407.897586404286
 10
2131.811462883237
 20
1407.888942040803
 10
2131.81113573951
 20
1407.881106730603
 10
2131.810797661708
 20
1407.874166952086
 10
2131.810451910093
 20
1407.868188023261
 10
2131.810097467449
 20
1407.863140559546
 10
2131.809737205978
 20
1407.859074648146
 10
2131.809522299928
 20
1407.857146337207
  0
ARC
  5
4DB
330
23
100
AcDbEntity
  8
SANINDUSA
100
AcDbCircle
 10
2131.809752299556
 20
1407.862287654955
 30
0.0
 40
0.0051464597557593
100
AcDbArc
 50
177.5370913333361
 51
267.4385501538631
  0
LINE
  5
4DC
330
23
100
AcDbEntity
  8
SANINDUSA
100
AcDbLine
 10
2131.804610593842
 20
1408.146034447865
 30
0.0
 11
2131.804610593842
 21
1407.862508811859
 31
0.0
  0
LWPOLYLINE
  5
4DD
330
23
100
AcDbEntity
  8
SANINDUSA
100
AcDbPolyline
 90
       34
 70
   128
 43
0.0
 10
2132.525361867235
 20
1407.857146337207
 10
2132.525029521313
 20
1407.860284466622
 10
2132.524701674613
 20
1407.864251908574
 10
2132.524371778234
 20
1407.869154950943
 10
2132.524049212043
 20
1407.874877587034
 10
2132.523716185899
 20
1407.881820856807
 10
2132.523395220632
 20
1407.889605588658
 10
2132.523079901713
 20
1407.898444709805
 10
2132.522782573834
 20
1407.908055401998
 10
2132.522505300825
 20
1407.918398346462
 10
2132.522251414326
 20
1407.929369568214
 10
2132.522015802666
 20
1407.941258955254
 10
2132.521816826595
 20
1407.953631374895
 10
2132.521671764083
 20
1407.965984448265
 10
2132.521577148126
 20
1407.978607407017
 10
2132.521533527298
 20
1407.991788365442
 10
2132.521544403212
 20
1408.005066159738
 10
2132.521597285055
 20
1408.016480169217
 10
2132.521690809906
 20
1408.027893969175
 10
2132.521831062214
 20
1408.039675625626
 10
2132.522013612664
 20
1408.05124838894
 10
2132.522244968244
 20
1408.062827399557
 10
2132.52250393025
 20
1408.074026564192
 10
2132.522768658843
 20
1408.084790242437
 10
2132.523030551952
 20
1408.095000614315
 10
2132.523293618007
 20
1408.104865678213
 10
2132.523548405707
 20
1408.113995037312
 10
2132.523785562814
 20
1408.122065390375
 10
2132.524023301539
 20
1408.129344749771
 10
2132.5242874328
 20
1408.135970036184
 10
2132.524578833178
 20
1408.141697382289
 10
2132.524892700407
 20
1408.146436888718
 10
2132.525233066428
 20
1408.150251011194
 10
2132.525362602908
 20
1408.151395089231
  0
ARC
  5
4DE
330
23
100
AcDbEntity
  8
SANINDUSA
100
AcDbCircle
 10
2132.525132528958
 20
1408.146254484292
 30
0.0
 40
0.0051457509814003
100
AcDbArc
 50
357.549239409764
 51
87.43736872928101
  0
ARC
  5
4E0
330
23
100
AcDbEntity
  8
SANINDUSA
100
AcDbCircle
 10
2132.525271002388
 20
1407.862160215817
 30
0.0
 40
0.0050147018988607
100
AcDbArc
 50
271.0382386152677
 51
3.986119907059354
  0
LINE
  5
4E1
330
23
100
AcDbEntity
  8
SANINDUSA
100
AcDbLine
 10
2132.53027357332
 20
1407.862508811859
 30
0.0
 11
2132.53027357332
 21
1408.146034447865
 31
0.0
  0
ARC
  5
4E4
330
23
100
AcDbEntity
  8
SANINDUSA
100
AcDbCircle
 10
2131.677273575177
 20
1408.274270516604
 30
0.0
 40
0.0100000018565896
100
AcDbArc
 50
90.0
 51
180.0
  0
ARC
  5
4E6
330
23
100
AcDbEntity
  8
SANINDUSA
100
AcDbCircle
 10
2132.657610591986
 20
1408.274270516604
 30
0.0
 40
0.0100000018565896
100
AcDbArc
 50
0.0
 51
90.0
  0
LINE
  5
4EA
330
23
100
AcDbEntity
  8
SANINDUSA
100
AcDbLine
 10
2131.677273575177
 20
1408.284270516604
 30
0.0
 11
2132.657610591986
 21
1408.284270516604
 31
0.0
  0
LINE
  5
4FA
330
23
100
AcDbEntity
  8
SANINDUSA
100
AcDbLine
 10
2132.667610593842
 20
1408.274270516604
 30
0.0
 11
2132.667610593842
 21
1407.794095914613
 31
0.0
  0
LINE
  5
4FD
330
23
100
AcDbEntity
  8
SANINDUSA
100
AcDbLine
 10
2131.66727357332
 20
1407.794095914613
 30
0.0
 11
2131.66727357332
 21
1408.274270516604
 31
0.0
  0
CIRCLE
  5
4FE
330
23
100
AcDbEntity
  8
SANINDUSA
100
AcDbCircle
 10
2132.167442083581
 20
1408.204270516604
 30
0.0
 40
0.0175
  0
LWPOLYLINE
  5
4FF
330
23
100
AcDbEntity
  8
SANINDUSA
100
AcDbPolyline
 90
        5
 70
   128
 43
0.0
 10
2132.525362602908
 20
1408.151395089231
 10
2132.300579124988
 20
1408.151932433512
 10
2132.167442083581
 20
1408.15207451851
 10
2131.988481823918
 20
1408.151835079373
 10
2131.809521564254
 20
1408.151395089231
  0
LWPOLYLINE
  5
508
330
23
100
AcDbEntity
  8
SANINDUSA
100
AcDbPolyline
 90
        5
 70
   128
 43
0.0
 10
2131.809522299928
 20
1407.857146337207
 10
2132.034304096146
 20
1407.856647871164
 10
2132.167442083581
 20
1407.856521352296
 10
2132.346401975409
 20
1407.856735646304
 10
2132.525361867235
 20
1407.857146337207
  0
ARC
  5
509
330
23
100
AcDbEntity
  8
SANINDUSA
100
AcDbCircle
 10
2132.657610591986
 20
1407.7941020082
 30
0.0
 40
0.0100000037131789
100
AcDbArc
 50
270.0349136590652
 51
359.9650863278993
  0
ARC
  5
50C
330
23
100
AcDbEntity
  8
SANINDUSA
100
AcDbCircle
 10
2131.677273575177
 20
1407.7941020082
 30
0.0
 40
0.010000003713179
100
AcDbArc
 50
180.0349136721007
 51
269.9650863409348
  0
LINE
  5
50D
330
23
100
AcDbEntity
  8
SANINDUSA
100
AcDbLine
 10
2132.657616685572
 20
1407.784102006343
 30
0.0
 11
2131.677267481591
 21
1407.784102006343
 31
0.0
  0
LWPOLYLINE
  5
50E
330
23
100
AcDbEntity
  8
SANINDUSA
100
AcDbPolyline
 90
       39
 70
   128
 43
0.0
 10
2132.167442083581
 20
1408.00325441739
 10
2132.172573431187
 20
1408.003660875763
 10
2132.177704778793
 20
1408.004908710509
 10
2132.182695964386
 20
1408.007020726727
 10
2132.187401976267
 20
1408.009992989654
 10
2132.191590590058
 20
1408.013705411929
 10
2132.195225878829
 20
1408.018153626651
 10
2132.198170847583
 20
1408.023242650016
 10
2132.20031633559
 20
1408.028887147596
 10
2132.201539085955
 20
1408.034894572649
 10
2132.201765921168
 20
1408.041192744675
 10
2132.200953488636
 20
1408.047385104311
 10
2132.199053936689
 20
1408.053525208394
 10
2132.196240806246
 20
1408.059042478286
 10
2132.192398555523
 20
1408.064139214217
 10
2132.1880084988
 20
1408.068221905064
 10
2132.18280777244
 20
1408.071571658243
 10
2132.177519168309
 20
1408.073780714093
 10
2132.171750493169
 20
1408.075074373499
 10
2132.166231733211
 20
1408.075335053134
 10
2132.160585739825
 20
1408.074636319234
 10
2132.155356441542
 20
1408.073066081845
 10
2132.150321003557
 20
1408.070587863797
 10
2132.145810928652
 20
1408.067356331146
 10
2132.141777227875
 20
1408.063332646764
 10
2132.138410270789
 20
1408.058662815242
 10
2132.135768917017
 20
1408.053373736916
 10
2132.133986493199
 20
1408.047638102875
 10
2132.133135524435
 20
1408.041525466484
 10
2132.13329502176
 20
1408.035333308688
 10
2132.134512217194
 20
1408.029080805469
 10
2132.136715796502
 20
1408.023237450952
 10
2132.139979513717
 20
1408.017696878917
 10
2132.143954796623
 20
1408.013035782212
 10
2132.148837973161
 20
1408.00902406444
 10
2132.153949479715
 20
1408.006165172197
 10
2132.159666371346
 20
1408.004194663393
 10
2132.163497382029
 20
1408.003494070799
 10
2132.167442083581
 20
1408.00325441739
  0
ELLIPSE
  5
50F
330
23
100
AcDbEntity
  8
SANINDUSA
100
AcDbEllipse
 10
2131.676575159787
 20
1407.79340359281
 30
0.0
 11
0.0070796854459924
 21
0.0070796854459916
 31
0.0
210
0.0
220
0.0
230
1.0
 40
0.998782765958704
 41
2.356803477777994
 42
3.926381829401702
  0
ELLIPSE
  5
512
330
23
100
AcDbEntity
  8
SANINDUSA
100
AcDbEllipse
 10
2132.658309007375
 20
1407.79340359281
 30
0.0
 11
0.0070796854459923
 21
-0.0070796854459916
 31
0.0
210
0.0
220
0.0
230
1.0
 40
0.9987827659587129
 41
5.498396131367692
 42
7.067974482991406
  0
LINE
  5
516
330
23
100
AcDbEntity
  8
SANINDUSA
100
AcDbLine
 10
2132.657610591986
 20
1408.284270516604
 30
0.0
 11
2132.657925215727
 21
1408.284270516604
 31
0.0
  0
ARC
  5
517
330
23
100
AcDbEntity
  8
SANINDUSA
100
AcDbCircle
 10
2132.657912524503
 20
1408.271348570168
 30
0.0
 40
0.0129219526686546
100
AcDbArc
 50
86.46368054254777
 51
89.94372727175628
  0
ELLIPSE
  5
518
330
23
100
AcDbEntity
  8
SANINDUSA
100
AcDbEllipse
 10
2132.657635584728
 20
1408.274270516604
 30
0.0
 11
0.0153212848054977
 21
0.0000000000000009
 31
0.0
210
0.0
220
0.0
230
1.0
 40
0.6526867770522506
 41
1.443757117397805
 42
1.500641420273932
  0
ELLIPSE
  5
519
330
23
100
AcDbEntity
  8
SANINDUSA
100
AcDbEllipse
 10
2132.658309007375
 20
1408.274270516604
 30
0.0
 11
0.0100060954429881
 21
0.0
 31
0.0
210
0.0
220
0.0
230
1.0
 40
0.9993908270191061
 41
0.0
 42
1.443757117397831
  0
LINE
  5
51A
330
23
100
AcDbEntity
  8
SANINDUSA
100
AcDbLine
 10
2131.676958951436
 20
1408.284270516604
 30
0.0
 11
2131.677273575177
 21
1408.284270516604
 31
0.0
  0
ELLIPSE
  5
51C
330
23
100
AcDbEntity
  8
SANINDUSA
100
AcDbEllipse
 10
2131.676575159787
 20
1408.274270516604
 30
0.0
 11
0.0100060954429881
 21
0.0
 31
0.0
210
0.0
220
0.0
230
1.0
 40
0.9993908270191061
 41
1.697835536191947
 42
3.141592653589793
  0
ELLIPSE
  5
51D
330
23
100
AcDbEntity
  8
SANINDUSA
100
AcDbEllipse
 10
2131.677248582435
 20
1408.274270516604
 30
0.0
 11
0.0153212848054977
 21
-0.0000000000000009
 31
0.0
210
0.0
220
0.0
230
1.0
 40
0.6526867770522506
 41
1.640951233315863
 42
1.697835536191981
  0
LWPOLYLINE
  5
51E
330
23
100
AcDbEntity
  8
SANINDUSA
100
AcDbPolyline
 90
        3
 70
   128
 43
0.0
 10
2131.676958951436
 20
1408.284270516604
 10
2131.676620187238
 20
1408.284265548213
 10
2131.676174600609
 20
1408.284245918141
  0
LINE
  5
51F
330
23
100
AcDbEntity
  8
SANINDUSA
100
AcDbLine
 10
2132.668315102819
 20
1407.793391405637
 30
0.0
 11
2132.668315102819
 21
1408.274270516604
 31
0.0
  0
LINE
  5
520
330
23
100
AcDbEntity
  8
SANINDUSA
100
AcDbLine
 10
2131.666569064344
 20
1408.274270516604
 30
0.0
 11
2131.666569064344
 21
1407.793391405637
 31
0.0
  0
LINE
  5
521
330
23
100
AcDbEntity
  8
SANINDUSA
100
AcDbLine
 10
2131.676562972614
 20
1407.783397497367
 30
0.0
 11
2132.658321194549
 21
1407.783397497367
 31
0.0
  0
CIRCLE
  5
522
330
23
100
AcDbEntity
  8
SANINDUSA
100
AcDbCircle
 10
-2132.167442083581
 20
1408.039270516604
 30
0.0000000000049161
 40
0.0235
210
0.0
220
0.0000000000000035
230
-1.0
  0
LWPOLYLINE
  5
526
330
23
100
AcDbEntity
  8
SANINDUSA
100
AcDbPolyline
 90
       20
 70
   128
 43
0.0
 10
2134.336453604544
 20
1407.958448126048
 10
2134.342309691643
 20
1407.959042164265
 10
2134.353338044529
 20
1407.960459792218
 10
2134.36513603973
 20
1407.96229699601
 10
2134.377667058557
 20
1407.964616721906
 10
2134.385707394792
 20
1407.966375119209
 10
2134.394251770812
 20
1407.968794288234
 10
2134.403085067368
 20
1407.971960100843
 10
2134.412119789027
 20
1407.975952885503
 10
2134.420428730726
 20
1407.980361154054
 10
2134.428746544884
 20
1407.985570879931
 10
2134.436956804999
 20
1407.991615176348
 10
2134.444948422453
 20
1407.99850787699
 10
2134.452609127009
 20
1408.006265254565
 10
2134.458635057475
 20
1408.013373340375
 10
2134.464257250776
 20
1408.021033015945
 10
2134.469410891083
 20
1408.029217729944
 10
2134.474020448013
 20
1408.037883937125
 10
2134.478018425207
 20
1408.0469548037
 10
2134.480451326957
 20
1408.053806119633
  0
ARC
  5
527
330
23
100
AcDbEntity
  8
SANINDUSA
100
AcDbCircle
 10
2134.254340337533
 20
1408.02975379494
 30
0.0
 40
0.0714997501771934
100
AcDbArc
 50
250.9048451287423
 51
265.1608936757585
  0
ARC
  5
528
330
23
100
AcDbEntity
  8
SANINDUSA
100
AcDbCircle
 10
2134.485260027794
 20
1408.052188205588
 30
0.0
 40
0.005000001493603
100
AcDbArc
 50
91.26471661296537
 51
161.405736501113
  0
ARC
  5
529
330
23
100
AcDbEntity
  8
SANINDUSA
100
AcDbCircle
 10
2134.337667176215
 20
1407.948466406632
 30
0.0
 40
0.0100552214647034
100
AcDbArc
 50
96.93196623912051
 51
175.1045686089417
  0
ARC
  5
52A
330
23
100
AcDbEntity
  8
SANINDUSA
100
AcDbCircle
 10
2134.247288960354
 20
1407.94856884646
 30
0.0
 40
0.0099481426327676
100
AcDbArc
 50
4.779690706150304
 51
84.10180765804403
  0
LINE
  5
52B
330
23
100
AcDbEntity
  8
SANINDUSA
100
AcDbLine
 10
2134.257196877554
 20
1407.949397324709
 30
0.0
 11
2134.257341794139
 21
1407.947740920565
 31
0.0
  0
ARC
  5
52C
330
23
100
AcDbEntity
  8
SANINDUSA
100
AcDbCircle
 10
2134.258337988837
 20
1407.947828076308
 30
0.0
 40
0.0010000000000001
100
AcDbArc
 50
184.9999999962911
 51
270.0
  0
LINE
  5
52D
330
23
100
AcDbEntity
  8
SANINDUSA
100
AcDbLine
 10
2134.327501521187
 20
1407.947740920565
 30
0.0
 11
2134.327639934582
 21
1407.949322992912
 31
0.0
  0
ARC
  5
52E
330
23
100
AcDbEntity
  8
SANINDUSA
100
AcDbCircle
 10
2134.326505326489
 20
1407.947828076308
 30
0.0
 40
0.0010000000000002
100
AcDbArc
 50
270.0
 51
355.0000000037089
  0
LINE
  5
52F
330
23
100
AcDbEntity
  8
SANINDUSA
100
AcDbLine
 10
2134.047421657663
 20
1408.078178560459
 30
0.0
 11
2134.047421657663
 21
1408.087188205588
 31
0.0
  0
ELLIPSE
  5
532
330
23
100
AcDbEntity
  8
SANINDUSA
100
AcDbEllipse
 10
2134.057421657663
 20
1408.086472507094
 30
0.0
 11
-0.0000000000000003
 21
0.1522071088314794
 31
0.0
210
0.0
220
0.0
230
1.0
 40
0.0656999536800334
 41
1.640951233315823
 42
1.697835536191943
  0
LWPOLYLINE
  5
533
330
23
100
AcDbEntity
  8
SANINDUSA
100
AcDbPolyline
 90
        3
 70
   128
 43
0.0
 10
2134.047421657663
 20
1408.078178560459
 10
2134.047426626054
 20
1408.077508912447
 10
2134.047446256126
 20
1408.075803188513
  0
LINE
  5
534
330
23
100
AcDbEntity
  8
SANINDUSA
100
AcDbLine
 10
2134.057421657663
 20
1408.067188205588
 30
0.0
 11
2134.047502243998
 21
1408.067188205588
 31
0.0
  0
LINE
  5
537
330
23
100
AcDbEntity
  8
SANINDUSA
100
AcDbLine
 10
2134.057421657663
 20
1408.067188205588
 30
0.0
 11
2134.53830076863
 21
1408.067188205588
 31
0.0
  0
LINE
  5
539
330
23
100
AcDbEntity
  8
SANINDUSA
100
AcDbLine
 10
2134.547590167924
 20
1408.087362703071
 30
0.0
 11
2134.5482946769
 21
1408.067188205588
 31
0.0
  0
LINE
  5
53A
330
23
100
AcDbEntity
  8
SANINDUSA
100
AcDbLine
 10
2134.5482946769
 20
1408.067188205588
 30
0.0
 11
2134.53830076863
 21
1408.067188205588
 31
0.0
  0
LINE
  5
53B
330
23
100
AcDbEntity
  8
SANINDUSA
100
AcDbLine
 10
2134.052421657663
 20
1408.092188205588
 30
0.0
 11
2134.057421657663
 21
1408.092188205588
 31
0.0
  0
ARC
  5
53D
330
23
100
AcDbEntity
  8
SANINDUSA
100
AcDbCircle
 10
2134.052421657663
 20
1408.087188205588
 30
0.0
 40
0.005
100
AcDbArc
 50
90.0
 51
180.0
  0
LINE
  5
53E
330
23
100
AcDbEntity
  8
SANINDUSA
100
AcDbLine
 10
2134.057421657663
 20
1408.092188205588
 30
0.0
 11
2134.537596259654
 21
1408.092188205588
 31
0.0
  0
LINE
  5
540
330
23
100
AcDbEntity
  8
SANINDUSA
100
AcDbLine
 10
2134.537596259654
 20
1408.092188205588
 30
0.0
 11
2134.542593213789
 21
1408.092188205588
 31
0.0
  0
ARC
  5
541
330
23
100
AcDbEntity
  8
SANINDUSA
100
AcDbCircle
 10
2134.542593213789
 20
1408.087188205588
 30
0.0
 40
0.005
100
AcDbArc
 50
2.000000003753602
 51
90.0
  0
LINE
  5
542
330
23
100
AcDbEntity
  8
SANINDUSA
100
AcDbLine
 10
2134.047502243998
 20
1408.067188205588
 30
0.0
 11
2134.047524373542
 21
1408.067188205588
 31
0.0
  0
LINE
  5
543
330
23
100
AcDbEntity
  8
SANINDUSA
100
AcDbLine
 10
2134.047421657663
 20
1408.075798295787
 30
0.0
 11
2134.047421657663
 21
1408.082188205588
 31
0.0
  0
LINE
  5
545
330
23
100
AcDbEntity
  8
SANINDUSA
100
AcDbLine
 10
2134.509169563536
 20
1408.067188205588
 30
0.0
 11
2134.508693994521
 21
1408.061752426874
 31
0.0
  0
LINE
  5
548
330
23
100
AcDbEntity
  8
SANINDUSA
100
AcDbLine
 10
2134.047421657663
 20
1408.06192673836
 30
0.0
 11
2134.047421657663
 21
1408.075798295787
 31
0.0
  0
LINE
  5
54A
330
23
100
AcDbEntity
  8
SANINDUSA
100
AcDbLine
 10
2134.49873204754
 20
1408.057188205588
 30
0.0
 11
2134.049421657663
 21
1408.057188205588
 31
0.0
  0
ARC
  5
54C
330
23
100
AcDbEntity
  8
SANINDUSA
100
AcDbCircle
 10
2134.049421657663
 20
1408.059188205588
 30
0.0
 40
0.0019999999999999
100
AcDbArc
 50
180.0
 51
270.0
  0
LINE
  5
54D
330
23
100
AcDbEntity
  8
SANINDUSA
100
AcDbLine
 10
2134.047421657663
 20
1408.059188205588
 30
0.0
 11
2134.047421657663
 21
1408.06192673836
 31
0.0
  0
ARC
  5
54E
330
23
100
AcDbEntity
  8
SANINDUSA
100
AcDbCircle
 10
2134.503713021031
 20
1408.062188205588
 30
0.0
 40
0.0050000000000003
100
AcDbArc
 50
270.0
 51
355.0000000037089
  0
LINE
  5
54F
330
23
100
AcDbEntity
  8
SANINDUSA
100
AcDbLine
 10
2134.503713021031
 20
1408.057188205588
 30
0.0
 11
2134.49873204754
 21
1408.057188205588
 31
0.0
  0
ARC
  5
556
330
23
100
AcDbEntity
  8
SANINDUSA
100
AcDbCircle
 10
2134.327420869314
 20
1408.124616229082
 30
0.0
 40
0.1633442030905158
100
AcDbArc
 50
265.3622220753667
 51
334.5232609236852
  0
ARC
  5
558
330
23
100
AcDbEntity
  8
SANINDUSA
100
AcDbCircle
 10
2134.479386665153
 20
1408.052189980041
 30
0.0
 40
0.004998225559635
100
AcDbArc
 50
90.00413155783672
 51
154.3369974913976
  0
LINE
  5
55C
330
23
100
AcDbEntity
  8
SANINDUSA
100
AcDbLine
 10
2134.047421657663
 20
1408.052432502065
 30
0.0
 11
2134.047421657663
 21
1408.059188205588
 31
0.0
  0
LWPOLYLINE
  5
560
330
23
100
AcDbEntity
  8
SANINDUSA
100
AcDbPolyline
 90
       19
 70
   128
 43
0.0
 10
2134.252545873231
 20
1407.958127379343
 10
2134.252545898664
 20
1407.958127377295
 10
2134.255044788726
 20
1407.957930807206
 10
2134.258107335427
 20
1407.957702886174
 10
2134.263149063325
 20
1407.957360921548
 10
2134.269180546592
 20
1407.957010190392
 10
2134.275704007822
 20
1407.956707795677
 10
2134.282918374498
 20
1407.956472769691
 10
2134.290183886536
 20
1407.956347560407
 10
2134.297739553149
 20
1407.956341471591
 10
2134.30491718562
 20
1407.956456907092
 10
2134.311937625193
 20
1407.956686770984
 10
2134.31823448035
 20
1407.956992664114
 10
2134.323952523283
 20
1407.957352338242
 10
2134.328655145051
 20
1407.957706145024
 10
2134.332431860037
 20
1407.958027775816
 10
2134.334257883935
 20
1407.958195121801
 10
2134.335580710175
 20
1407.958321123317
 10
2134.336453604544
 20
1407.958448126048
  0
LWPOLYLINE
  5
561
330
23
100
AcDbEntity
  8
SANINDUSA
100
AcDbPolyline
 90
        7
 70
   128
 43
0.0
 10
2134.248304777849
 20
1407.95847244903
 10
2134.24828444784
 20
1407.958474209362
 10
2134.24893605946
 20
1407.958418394073
 10
2134.25084162063
 20
1407.958263359498
 10
2134.252545846999
 20
1407.958127381468
 10
2134.252545873231
 20
1407.958127379343
 10
2134.252545873231
 20
1407.958127379343
  0
LINE
  5
563
330
23
100
AcDbEntity
  8
SANINDUSA
100
AcDbLine
 10
2134.047421657663
 20
1407.967083507098
 30
0.0
 11
2134.047421657663
 21
1408.052432502065
 31
0.0
  0
LINE
  5
564
330
23
100
AcDbEntity
  8
SANINDUSA
100
AcDbLine
 10
2134.314213488831
 20
1407.961806850409
 30
0.0
 11
2134.305005406261
 21
1407.962188205588
 31
0.0
  0
ARC
  5
567
330
23
100
AcDbEntity
  8
SANINDUSA
100
AcDbCircle
 10
2134.049421657663
 20
1407.964188205588
 30
0.0
 40
0.002
100
AcDbArc
 50
180.0
 51
270.0
  0
LINE
  5
568
330
23
100
AcDbEntity
  8
SANINDUSA
100
AcDbLine
 10
2134.047421657663
 20
1407.964188205588
 30
0.0
 11
2134.047421657663
 21
1407.967083507098
 31
0.0
  0
LINE
  5
569
330
23
100
AcDbEntity
  8
SANINDUSA
100
AcDbLine
 10
2134.305005406261
 20
1407.962188205588
 30
0.0
 11
2134.049421657663
 21
1407.962188205588
 31
0.0
  0
LINE
  5
56E
330
23
100
AcDbEntity
  8
SANINDUSA
100
AcDbLine
 10
2134.310394300329
 20
1407.946828076308
 30
0.0
 11
2134.276798864524
 21
1407.946828076308
 31
0.0
  0
LINE
  5
56F
330
23
100
AcDbEntity
  8
SANINDUSA
100
AcDbLine
 10
2134.276798864524
 20
1407.946828076308
 30
0.0
 11
2134.258337988837
 21
1407.946828076308
 31
0.0
  0
LINE
  5
570
330
23
100
AcDbEntity
  8
SANINDUSA
100
AcDbLine
 10
2134.326505326489
 20
1407.946828076308
 30
0.0
 11
2134.310394300329
 21
1407.946828076308
 31
0.0
  0
LINE
  5
571
330
23
100
AcDbEntity
  8
SANINDUSA
100
AcDbLine
 10
2134.047421657663
 20
1408.078178560459
 30
0.0
 11
2134.047421657663
 21
1408.082188205588
 31
0.0
  0
ENDSEC
  0
SECTION
  2
OBJECTS
  0
DICTIONARY
  5
C
330
0
100
AcDbDictionary
281
     1
  3
ACAD_COLOR
350
1C
  3
ACAD_GROUP
350
D
  3
ACAD_LAYOUT
350
1A
  3
ACAD_MATERIAL
350
1B
  3
ACAD_MLEADERSTYLE
350
955
  3
ACAD_MLINESTYLE
350
17
  3
ACAD_PLOTSETTINGS
350
19
  3
ACAD_PLOTSTYLENAME
350
E
  3
ACAD_SCALELIST
350
943
  3
ACAD_TABLESTYLE
350
1D
  3
ACAD_VISUALSTYLE
350
92F
  3
ACDB_RECOMPOSE_DATA
350
971
  3
AcDbVariableDictionary
350
8FD
  3
DWGPROPS
350
972
  0
DICTIONARY
  5
95A
330
10
100
AcDbDictionary
280
     1
281
     1
  3
ADSK_XREC_LAYER_RECONCILED
360
95B
  0
DICTIONARY
  5
95C
330
222
100
AcDbDictionary
280
     1
281
     1
  3
ADSK_XREC_LAYER_RECONCILED
360
95D
  0
DICTIONARY
  5
95E
330
223
100
AcDbDictionary
280
     1
281
     1
  3
ADSK_XREC_LAYER_RECONCILED
360
95F
  0
DICTIONARY
  5
960
330
224
100
AcDbDictionary
280
     1
281
     1
  3
ADSK_XREC_LAYER_RECONCILED
360
961
  0
DICTIONARY
  5
962
330
225
100
AcDbDictionary
280
     1
281
     1
  3
ADSK_XREC_LAYER_RECONCILED
360
963
  0
DICTIONARY
  5
964
330
226
100
AcDbDictionary
280
     1
281
     1
  3
ADSK_XREC_LAYER_RECONCILED
360
965
  0
DICTIONARY
  5
966
330
227
100
AcDbDictionary
280
     1
281
     1
  3
ADSK_XREC_LAYER_RECONCILED
360
967
  0
DICTIONARY
  5
968
330
229
100
AcDbDictionary
280
     1
281
     1
  3
ADSK_XREC_LAYER_RECONCILED
360
969
  0
DICTIONARY
  5
8FA
330
23
100
AcDbDictionary
280
     1
281
     1
  3
ACAD_SORTENTS
360
8FB
  0
DICTIONARY
  5
1C
102
{ACAD_REACTORS
330
C
102
}
330
C
100
AcDbDictionary
281
     1
  0
DICTIONARY
  5
D
102
{ACAD_REACTORS
330
C
102
}
330
C
100
AcDbDictionary
281
     1
  0
DICTIONARY
  5
1A
102
{ACAD_REACTORS
330
C
102
}
330
C
100
AcDbDictionary
281
     1
  3
Layout1
350
22
  3
Layout2
350
2A
  3
Model
350
26
  0
DICTIONARY
  5
1B
102
{ACAD_REACTORS
330
C
102
}
330
C
100
AcDbDictionary
281
     1
  3
ByBlock
350
91F
  3
ByLayer
350
917
  3
Global
350
927
  0
DICTIONARY
  5
955
102
{ACAD_REACTORS
330
C
102
}
330
C
100
AcDbDictionary
281
     1
  3
Standard
350
956
  0
DICTIONARY
  5
17
102
{ACAD_REACTORS
330
C
102
}
330
C
100
AcDbDictionary
281
     1
  3
Standard
350
18
  0
DICTIONARY
  5
19
102
{ACAD_REACTORS
330
C
102
}
330
C
100
AcDbDictionary
281
     1
  0
ACDBDICTIONARYWDFLT
  5
E
102
{ACAD_REACTORS
330
C
102
}
330
C
100
AcDbDictionary
281
     1
  3
Normal
350
F
100
AcDbDictionaryWithDefault
340
F
  0
DICTIONARY
  5
943
102
{ACAD_REACTORS
330
C
102
}
330
C
100
AcDbDictionary
281
     1
  3
A0
350
944
  3
A1
350
945
  3
A2
350
946
  3
A3
350
947
  3
A4
350
948
  3
A5
350
949
  3
A6
350
94A
  3
A7
350
94B
  3
A8
350
94C
  3
A9
350
94D
  3
B0
350
94E
  3
B1
350
94F
  3
B2
350
950
  3
B3
350
951
  3
B4
350
952
  3
B5
350
953
  3
B6
350
954
  0
DICTIONARY
  5
1D
102
{ACAD_REACTORS
330
C
102
}
330
C
100
AcDbDictionary
281
     1
  3
Standard
350
1E
  0
DICTIONARY
  5
92F
102
{ACAD_REACTORS
330
C
102
}
330
C
100
AcDbDictionary
281
     1
  3
2dWireframe
350
935
  3
3D Hidden
350
937
  3
3dWireframe
350
936
  3
Basic
350
934
  3
Brighten
350
93B
  3
ColorChange
350
93F
  3
Conceptual
350
938
  3
Dim
350
93A
  3
EdgeColorOff
350
942
  3
Facepattern
350
93E
  3
Flat
350
930
  3
FlatWithEdges
350
931
  3
Gouraud
350
932
  3
GouraudWithEdges
350
933
  3
JitterOff
350
940
  3
Linepattern
350
93D
  3
OverhangOff
350
941
  3
Realistic
350
939
  3
Thicken
350
93C
  0
XRECORD
  5
971
102
{ACAD_REACTORS
330
C
102
}
330
C
100
AcDbXrecord
280
     1
 90
        1
330
1E
  0
DICTIONARY
  5
8FD
102
{ACAD_REACTORS
330
C
102
}
330
C
100
AcDbDictionary
281
     1
  3
CANNOSCALE
350
96B
  3
CMLEADERSTYLE
350
96A
  3
CTABLESTYLE
350
8FE
  3
DIMASSOC
350
908
  3
HIDETEXT
350
907
  3
INDEXCTL
350
96D
  3
PROJECTNAME
350
909
  3
SORTENTS
350
96C
  3
XCLIPFRAME
350
96E
  0
XRECORD
  5
972
102
{ACAD_REACTORS
330
C
102
}
330
C
100
AcDbXrecord
280
     1
  1
DWGPROPS COOKIE
  2

  3

  4

  6

  7

  8
Julio
  9

300
=
301
=
302
=
303
=
304
=
305
=
306
=
307
=
308
=
309
=
 40
0.0030221064814815
 41
2454120.447102315
 42
2456147.604446609
  1

 90
        0
  0
XRECORD
  5
95B
102
{ACAD_REACTORS
330
95A
102
}
330
95A
100
AcDbXrecord
280
     1
290
     1
  0
XRECORD
  5
95D
102
{ACAD_REACTORS
330
95C
102
}
330
95C
100
AcDbXrecord
280
     1
290
     1
  0
XRECORD
  5
95F
102
{ACAD_REACTORS
330
95E
102
}
330
95E
100
AcDbXrecord
280
     1
290
     1
  0
XRECORD
  5
961
102
{ACAD_REACTORS
330
960
102
}
330
960
100
AcDbXrecord
280
     1
290
     1
  0
XRECORD
  5
963
102
{ACAD_REACTORS
330
962
102
}
330
962
100
AcDbXrecord
280
     1
290
     1
  0
XRECORD
  5
965
102
{ACAD_REACTORS
330
964
102
}
330
964
100
AcDbXrecord
280
     1
290
     1
  0
XRECORD
  5
967
102
{ACAD_REACTORS
330
966
102
}
330
966
100
AcDbXrecord
280
     1
290
     1
  0
XRECORD
  5
969
102
{ACAD_REACTORS
330
968
102
}
330
968
100
AcDbXrecord
280
     1
290
     1
  0
SORTENTSTABLE
  5
8FB
102
{ACAD_REACTORS
330
8FA
102
}
330
8FA
100
AcDbSortentsTable
330
23
331
437
  5
437
331
433
  5
433
331
517
  5
517
331
471
  5
471
331
46D
  5
46D
331
54E
  5
54E
331
50F
  5
50F
331
54A
  5
54A
331
4C0
  5
4C0
331
42F
  5
42F
331
42B
  5
42B
331
427
  5
427
331
423
  5
423
331
571
  5
572
331
4BC
  5
4BC
331
465
  5
465
331
4FF
  5
4FF
331
542
  5
542
331
4B4
  5
4B4
331
53E
  5
53E
331
53A
  5
53A
331
41F
  5
41F
331
41B
  5
41B
331
413
  5
413
331
569
  5
56A
331
561
  5
562
331
4AC
  5
4AC
331
455
  5
455
331
532
  5
532
331
4A4
  5
4A4
331
44D
  5
44D
331
52E
  5
52E
331
4A0
  5
4A0
331
52A
  5
52A
331
4DB
  5
4DB
331
449
  5
449
331
40F
  5
40F
331
445
  5
445
331
526
  5
526
331
4D3
  5
4D3
331
522
  5
522
331
441
  5
441
331
47C
  5
47C
331
43D
  5
43D
331
51E
  5
51E
331
4CB
  5
4CB
331
51A
  5
51A
331
439
  5
439
331
436
  5
436
331
432
  5
432
331
516
  5
516
331
512
  5
512
331
54D
  5
54D
331
50E
  5
50E
331
42E
  5
42E
331
42A
  5
42A
331
426
  5
426
331
422
  5
422
331
570
  5
571
331
4BF
  5
4BF
331
4FE
  5
4FE
331
545
  5
545
331
4FA
  5
4FA
331
541
  5
541
331
4B7
  5
4B7
331
4B3
  5
4B3
331
53D
  5
53D
331
4EA
  5
4EA
331
539
  5
539
331
458
  5
458
331
41E
  5
41E
331
41A
  5
41A
331
416
  5
416
331
412
  5
412
331
568
  5
569
331
564
  5
565
331
560
  5
560
331
4AF
  5
4AF
331
4E6
  5
4E6
331
450
  5
450
331
4A3
  5
4A3
331
52D
  5
52D
331
4DE
  5
4DE
331
44C
  5
44C
331
448
  5
448
331
529
  5
529
331
4DA
  5
4DA
331
40E
  5
40E
331
40A
  5
40A
331
55C
  5
55C
331
558
  5
558
331
49F
  5
49F
331
444
  5
444
331
440
  5
440
331
521
  5
521
331
47B
  5
47B
331
51D
  5
51D
331
4CE
  5
4CE
331
43C
  5
43C
331
438
  5
438
331
519
  5
519
331
4CA
  5
4CA
331
435
  5
435
331
431
  5
431
331
473
  5
473
331
54C
  5
54C
331
50D
  5
50D
331
46B
  5
46B
331
548
  5
548
331
509
  5
509
331
42D
  5
42D
331
429
  5
429
331
425
  5
425
331
421
  5
421
331
4BE
  5
4BE
331
4FD
  5
4FD
331
540
  5
540
331
4B2
  5
4B2
331
41D
  5
41D
331
419
  5
419
331
56F
  5
570
331
415
  5
415
331
411
  5
411
331
567
  5
568
331
563
  5
564
331
534
  5
534
331
4A6
  5
4A6
331
44F
  5
44F
331
4E1
  5
4E1
331
4A2
  5
4A2
331
52C
  5
52C
331
4DD
  5
4DD
331
44B
  5
44B
331
4D9
  5
4D9
331
528
  5
528
331
40D
  5
40D
331
409
  5
409
331
49E
  5
49E
331
447
  5
447
331
443
  5
443
331
43F
  5
43F
331
520
  5
520
331
51C
  5
51C
331
43B
  5
43B
331
518
  5
518
331
434
  5
434
331
430
  5
430
331
4C5
  5
4C5
331
46E
  5
46E
331
54F
  5
54F
331
50C
  5
50C
331
4C1
  5
4C1
331
508
  5
508
331
42C
  5
42C
331
428
  5
428
331
424
  5
424
331
420
  5
420
331
543
  5
543
331
462
  5
462
331
4B9
  5
4B9
331
4B5
  5
4B5
331
53B
  5
53B
331
45A
  5
45A
331
41C
  5
41C
331
56E
  5
56F
331
414
  5
414
331
410
  5
410
331
4AD
  5
4AD
331
537
  5
537
331
533
  5
533
331
4E4
  5
4E4
331
4A9
  5
4A9
331
4A5
  5
4A5
331
44E
  5
44E
331
4E0
  5
4E0
331
52F
  5
52F
331
4A1
  5
4A1
331
52B
  5
52B
331
4DC
  5
4DC
331
44A
  5
44A
331
40C
  5
40C
331
556
  5
556
331
49D
  5
49D
331
446
  5
446
331
527
  5
527
331
442
  5
442
331
43E
  5
43E
331
51F
  5
51F
331
4CC
  5
4CC
331
4C8
  5
4C8
  0
LAYOUT
  5
22
102
{ACAD_XDICTIONARY
360
974
102
}
102
{ACAD_REACTORS
330
1A
102
}
330
1A
100
AcDbPlotSettings
  1

  2
C:\Documents and Settings\Julio\Application Data\Autodesk\AutoCAD 2006\R16.2\enu\plotters\Default Windows System Printer.pc3
  4

  6

 40
0.0
 41
0.0
 42
0.0
 43
0.0
 44
0.0
 45
0.0
 46
0.0
 47
0.0
 48
0.0
 49
0.0
140
0.0
141
0.0
142
1.0
143
1.0
 70
   688
 72
     0
 73
     0
 74
     5
  7

 75
    16
147
1.0
148
0.0
149
0.0
100
AcDbLayout
  1
Layout1
 70
     1
 71
     1
 10
0.0
 20
0.0
 11
420.0
 21
297.0
 12
0.0
 22
0.0
 32
0.0
 14
1.000000000000000E+20
 24
1.000000000000000E+20
 34
1.000000000000000E+20
 15
-1.000000000000000E+20
 25
-1.000000000000000E+20
 35
-1.000000000000000E+20
146
0.0
 13
0.0
 23
0.0
 33
0.0
 16
1.0
 26
0.0
 36
0.0
 17
0.0
 27
1.0
 37
0.0
 76
     0
330
1F
  0
LAYOUT
  5
2A
102
{ACAD_XDICTIONARY
360
978
102
}
102
{ACAD_REACTORS
330
1A
102
}
330
1A
100
AcDbPlotSettings
  1

  2
C:\Documents and Settings\Julio\Application Data\Autodesk\AutoCAD 2006\R16.2\enu\plotters\Default Windows System Printer.pc3
  4

  6

 40
0.0
 41
0.0
 42
0.0
 43
0.0
 44
0.0
 45
0.0
 46
0.0
 47
0.0
 48
0.0
 49
0.0
140
0.0
141
0.0
142
1.0
143
1.0
 70
   688
 72
     0
 73
     0
 74
     5
  7

 75
    16
147
1.0
148
0.0
149
0.0
100
AcDbLayout
  1
Layout2
 70
     1
 71
     2
 10
0.0
 20
0.0
 11
12.0
 21
9.0
 12
0.0
 22
0.0
 32
0.0
 14
0.0
 24
0.0
 34
0.0
 15
0.0
 25
0.0
 35
0.0
146
0.0
 13
0.0
 23
0.0
 33
0.0
 16
1.0
 26
0.0
 36
0.0
 17
0.0
 27
1.0
 37
0.0
 76
     0
330
27
  0
LAYOUT
  5
26
102
{ACAD_XDICTIONARY
360
976
102
}
102
{ACAD_REACTORS
330
1A
102
}
330
1A
100
AcDbPlotSettings
  1

  2
C:\Documents and Settings\Julio\Application Data\Autodesk\AutoCAD 2006\R16.2\enu\plotters\Default Windows System Printer.pc3
  4

  6

 40
0.0
 41
0.0
 42
0.0
 43
0.0
 44
0.0
 45
0.0
 46
0.0
 47
0.0
 48
0.0
 49
0.0
140
0.0
141
0.0
142
1.0
143
1.0
 70
  1712
 72
     0
 73
     0
 74
     0
  7

 75
     0
147
1.0
148
0.0
149
0.0
100
AcDbLayout
  1
Model
 70
     1
 71
     0
 10
0.0
 20
0.0
 11
12.0
 21
9.0
 12
0.0
 22
0.0
 32
0.0
 14
0.0
 24
0.0
 34
0.0
 15
0.0
 25
0.0
 35
0.0
146
0.0
 13
0.0
 23
0.0
 33
0.0
 16
1.0
 26
0.0
 36
0.0
 17
0.0
 27
1.0
 37
0.0
 76
     0
330
23
331
90E
  0
MATERIAL
  5
91F
102
{ACAD_XDICTIONARY
360
920
102
}
102
{ACAD_REACTORS
330
1B
102
}
330
1B
100
AcDbMaterial
  1
ByBlock
 72
     0
 43
0.0008202099737533
 43
0.0
 43
0.0
 43
0.0
 43
0.0
 43
0.0008202099737533
 43
0.0
 43
0.0
 43
0.0
 43
0.0
 43
1.0
 43
0.0
 43
0.0
 43
0.0
 43
0.0
 43
1.0
 77
     0
 47
0.0008202099737533
 47
0.0
 47
0.0
 47
0.0
 47
0.0
 47
0.0008202099737533
 47
0.0
 47
0.0
 47
0.0
 47
0.0
 47
1.0
 47
0.0
 47
0.0
 47
0.0
 47
0.0
 47
1.0
171
     0
 49
0.0008202099737533
 49
0.0
 49
0.0
 49
0.0
 49
0.0
 49
0.0008202099737533
 49
0.0
 49
0.0
 49
0.0
 49
0.0
 49
1.0
 49
0.0
 49
0.0
 49
0.0
 49
0.0
 49
1.0
175
     0
142
0.0008202099737533
142
0.0
142
0.0
142
0.0
142
0.0
142
0.0008202099737533
142
0.0
142
0.0
142
0.0
142
0.0
142
1.0
142
0.0
142
0.0
142
0.0
142
0.0
142
1.0
179
     0
144
0.0008202099737533
144
0.0
144
0.0
144
0.0
144
0.0
144
0.0008202099737533
144
0.0
144
0.0
144
0.0
144
0.0
144
1.0
144
0.0
144
0.0
144
0.0
144
0.0
144
1.0
147
0.0008202099737533
147
0.0
147
0.0
147
0.0
147
0.0
147
0.0008202099737533
147
0.0
147
0.0
147
0.0
147
0.0
147
1.0
147
0.0
147
0.0
147
0.0
147
0.0
147
1.0
  0
MATERIAL
  5
917
102
{ACAD_XDICTIONARY
360
918
102
}
102
{ACAD_REACTORS
330
1B
102
}
330
1B
100
AcDbMaterial
  1
ByLayer
 72
     0
 43
0.0008202099737533
 43
0.0
 43
0.0
 43
0.0
 43
0.0
 43
0.0008202099737533
 43
0.0
 43
0.0
 43
0.0
 43
0.0
 43
1.0
 43
0.0
 43
0.0
 43
0.0
 43
0.0
 43
1.0
 77
     0
 47
0.0008202099737533
 47
0.0
 47
0.0
 47
0.0
 47
0.0
 47
0.0008202099737533
 47
0.0
 47
0.0
 47
0.0
 47
0.0
 47
1.0
 47
0.0
 47
0.0
 47
0.0
 47
0.0
 47
1.0
171
     0
 49
0.0008202099737533
 49
0.0
 49
0.0
 49
0.0
 49
0.0
 49
0.0008202099737533
 49
0.0
 49
0.0
 49
0.0
 49
0.0
 49
1.0
 49
0.0
 49
0.0
 49
0.0
 49
0.0
 49
1.0
175
     0
142
0.0008202099737533
142
0.0
142
0.0
142
0.0
142
0.0
142
0.0008202099737533
142
0.0
142
0.0
142
0.0
142
0.0
142
1.0
142
0.0
142
0.0
142
0.0
142
0.0
142
1.0
179
     0
144
0.0008202099737533
144
0.0
144
0.0
144
0.0
144
0.0
144
0.0008202099737533
144
0.0
144
0.0
144
0.0
144
0.0
144
1.0
144
0.0
144
0.0
144
0.0
144
0.0
144
1.0
147
0.0008202099737533
147
0.0
147
0.0
147
0.0
147
0.0
147
0.0008202099737533
147
0.0
147
0.0
147
0.0
147
0.0
147
1.0
147
0.0
147
0.0
147
0.0
147
0.0
147
1.0
  0
MATERIAL
  5
927
102
{ACAD_XDICTIONARY
360
928
102
}
102
{ACAD_REACTORS
330
1B
102
}
330
1B
100
AcDbMaterial
  1
Global
 72
     0
 43
0.0008202099737533
 43
0.0
 43
0.0
 43
0.0
 43
0.0
 43
0.0008202099737533
 43
0.0
 43
0.0
 43
0.0
 43
0.0
 43
1.0
 43
0.0
 43
0.0
 43
0.0
 43
0.0
 43
1.0
 77
     0
 47
0.0008202099737533
 47
0.0
 47
0.0
 47
0.0
 47
0.0
 47
0.0008202099737533
 47
0.0
 47
0.0
 47
0.0
 47
0.0
 47
1.0
 47
0.0
 47
0.0
 47
0.0
 47
0.0
 47
1.0
171
     0
 49
0.0008202099737533
 49
0.0
 49
0.0
 49
0.0
 49
0.0
 49
0.0008202099737533
 49
0.0
 49
0.0
 49
0.0
 49
0.0
 49
1.0
 49
0.0
 49
0.0
 49
0.0
 49
0.0
 49
1.0
175
     0
142
0.0008202099737533
142
0.0
142
0.0
142
0.0
142
0.0
142
0.0008202099737533
142
0.0
142
0.0
142
0.0
142
0.0
142
1.0
142
0.0
142
0.0
142
0.0
142
0.0
142
1.0
179
     0
144
0.0008202099737533
144
0.0
144
0.0
144
0.0
144
0.0
144
0.0008202099737533
144
0.0
144
0.0
144
0.0
144
0.0
144
1.0
144
0.0
144
0.0
144
0.0
144
0.0
144
1.0
147
0.0008202099737533
147
0.0
147
0.0
147
0.0
147
0.0
147
0.0008202099737533
147
0.0
147
0.0
147
0.0
147
0.0
147
1.0
147
0.0
147
0.0
147
0.0
147
0.0
147
1.0
  0
MLEADERSTYLE
  5
956
102
{ACAD_REACTORS
330
955
102
}
330
955
100
AcDbMLeaderStyle
170
     2
171
     1
172
     0
 90
        2
 40
0.0
 41
0.0
173
     1
 91
-1056964608
340
14
 92
       -2
290
     1
 42
2.0
291
     1
 43
0.36
  3
Standard
 44
4.0
300

342
11
174
     1
178
     6
175
     1
176
     0
 93
-1056964608
 45
4.0
292
     0
297
     0
 46
4.0
 94
-1056964608
 47
1.0
 49
1.0
140
1.0
293
     1
141
0.0
294
     1
177
     0
142
1.0
295
     0
296
     0
143
0.125
1001
ACAD_MLEADERVER
1070
     2
  0
MLINESTYLE
  5
18
102
{ACAD_REACTORS
330
17
102
}
330
17
100
AcDbMlineStyle
  2
STANDARD
 70
     0
  3

 62
   256
 51
90.0
 52
90.0
 71
     2
 49
0.5
 62
   256
  6
BYLAYER
 49
-0.5
 62
   256
  6
BYLAYER
  0
ACDBPLACEHOLDER
  5
F
102
{ACAD_REACTORS
330
E
102
}
330
E
  0
SCALE
  5
944
102
{ACAD_REACTORS
330
943
102
}
330
943
100
AcDbScale
 70
     0
300
1:1
140
1.0
141
1.0
290
     1
  0
SCALE
  5
945
102
{ACAD_REACTORS
330
943
102
}
330
943
100
AcDbScale
 70
     0
300
1:2
140
1.0
141
2.0
290
     0
  0
SCALE
  5
946
102
{ACAD_REACTORS
330
943
102
}
330
943
100
AcDbScale
 70
     0
300
1:4
140
1.0
141
4.0
290
     0
  0
SCALE
  5
947
102
{ACAD_REACTORS
330
943
102
}
330
943
100
AcDbScale
 70
     0
300
1:5
140
1.0
141
5.0
290
     0
  0
SCALE
  5
948
102
{ACAD_REACTORS
330
943
102
}
330
943
100
AcDbScale
 70
     0
300
1:8
140
1.0
141
8.0
290
     0
  0
SCALE
  5
949
102
{ACAD_REACTORS
330
943
102
}
330
943
100
AcDbScale
 70
     0
300
1:10
140
1.0
141
10.0
290
     0
  0
SCALE
  5
94A
102
{ACAD_REACTORS
330
943
102
}
330
943
100
AcDbScale
 70
     0
300
1:16
140
1.0
141
16.0
290
     0
  0
SCALE
  5
94B
102
{ACAD_REACTORS
330
943
102
}
330
943
100
AcDbScale
 70
     0
300
1:20
140
1.0
141
20.0
290
     0
  0
SCALE
  5
94C
102
{ACAD_REACTORS
330
943
102
}
330
943
100
AcDbScale
 70
     0
300
1:30
140
1.0
141
30.0
290
     0
  0
SCALE
  5
94D
102
{ACAD_REACTORS
330
943
102
}
330
943
100
AcDbScale
 70
     0
300
1:40
140
1.0
141
40.0
290
     0
  0
SCALE
  5
94E
102
{ACAD_REACTORS
330
943
102
}
330
943
100
AcDbScale
 70
     0
300
1:50
140
1.0
141
50.0
290
     0
  0
SCALE
  5
94F
102
{ACAD_REACTORS
330
943
102
}
330
943
100
AcDbScale
 70
     0
300
1:100
140
1.0
141
100.0
290
     0
  0
SCALE
  5
950
102
{ACAD_REACTORS
330
943
102
}
330
943
100
AcDbScale
 70
     0
300
2:1
140
2.0
141
1.0
290
     0
  0
SCALE
  5
951
102
{ACAD_REACTORS
330
943
102
}
330
943
100
AcDbScale
 70
     0
300
4:1
140
4.0
141
1.0
290
     0
  0
SCALE
  5
952
102
{ACAD_REACTORS
330
943
102
}
330
943
100
AcDbScale
 70
     0
300
8:1
140
8.0
141
1.0
290
     0
  0
SCALE
  5
953
102
{ACAD_REACTORS
330
943
102
}
330
943
100
AcDbScale
 70
     0
300
10:1
140
10.0
141
1.0
290
     0
  0
SCALE
  5
954
102
{ACAD_REACTORS
330
943
102
}
330
943
100
AcDbScale
 70
     0
300
100:1
140
100.0
141
1.0
290
     0
  0
TABLESTYLE
  5
1E
102
{ACAD_XDICTIONARY
360
96F
102
}
102
{ACAD_REACTORS
330
1D
102
}
330
1D
100
AcDbTableStyle
  3
Standard
 70
     0
 71
     0
 40
1.5
 41
1.5
280
     0
281
     0
  7
Standard
140
4.5
170
     2
 62
     0
 63
     7
283
     0
274
    -2
284
     1
 64
     0
275
    -2
285
     1
 65
     0
276
    -2
286
     1
 66
     0
277
    -2
287
     1
 67
     0
278
    -2
288
     1
 68
     0
279
    -2
289
     1
 69
     0
  7
Standard
140
6.0
170
     5
 62
     0
 63
     7
283
     0
274
    -2
284
     1
 64
     0
275
    -2
285
     1
 65
     0
276
    -2
286
     1
 66
     0
277
    -2
287
     1
 67
     0
278
    -2
288
     1
 68
     0
279
    -2
289
     1
 69
     0
  7
Standard
140
4.5
170
     5
 62
     0
 63
     7
283
     0
274
    -2
284
     1
 64
     0
275
    -2
285
     1
 65
     0
276
    -2
286
     1
 66
     0
277
    -2
287
     1
 67
     0
278
    -2
288
     1
 68
     0
279
    -2
289
     1
 69
     0
  0
VISUALSTYLE
  5
935
102
{ACAD_XDICTIONARY
360
987
102
}
102
{ACAD_REACTORS
330
92F
102
}
330
92F
100
AcDbVisualStyle
  2
2dWireframe
 70
     4
 71
     0
 72
     2
 73
     0
 90
        0
 40
-0.6
 41
-30.0
 62
     5
 63
     7
 74
     1
 91
        4
 64
     7
 65
   257
 75
     1
175
     1
 42
1.0
 92
        0
 66
   257
 43
1.0
 76
     1
 77
     6
 78
     2
 67
     7
 79
     5
170
     0
171
     0
290
     0
174
     0
 93
        1
 44
0.0
173
     0
291
     0
 45
0.0
1001
ACAD
1000
AcDbSavedByObjectVersion
1070
     0
  0
VISUALSTYLE
  5
937
102
{ACAD_XDICTIONARY
360
98B
102
}
102
{ACAD_REACTORS
330
92F
102
}
330
92F
100
AcDbVisualStyle
  2
3D Hidden
 70
     6
 71
     1
 72
     2
 73
     2
 90
        0
 40
-0.6
 41
-30.0
 62
     5
 63
     7
 74
     2
 91
        2
 64
     7
 65
   257
 75
     2
175
     1
 42
179.0
 92
        0
 66
   257
 43
1.0
 76
     1
 77
     6
 78
     2
 67
     7
 79
     3
170
     0
171
     0
290
     0
174
     0
 93
        1
 44
0.0
173
     0
291
     0
 45
0.0
1001
ACAD
1000
AcDbSavedByObjectVersion
1070
     0
  0
VISUALSTYLE
  5
936
102
{ACAD_XDICTIONARY
360
989
102
}
102
{ACAD_REACTORS
330
92F
102
}
330
92F
100
AcDbVisualStyle
  2
3dWireframe
 70
     5
 71
     0
 72
     2
 73
     0
 90
        0
 40
-0.6
 41
-30.0
 62
     5
 63
     7
 74
     1
 91
        4
 64
     7
 65
   257
 75
     1
175
     1
 42
1.0
 92
        0
 66
   257
 43
1.0
 76
     1
 77
     6
 78
     2
 67
     7
 79
     5
170
     0
171
     0
290
     0
174
     0
 93
        1
 44
0.0
173
     0
291
     0
 45
0.0
1001
ACAD
1000
AcDbSavedByObjectVersion
1070
     0
  0
VISUALSTYLE
  5
934
102
{ACAD_XDICTIONARY
360
985
102
}
102
{ACAD_REACTORS
330
92F
102
}
330
92F
100
AcDbVisualStyle
  2
Basic
 70
     7
 71
     1
 72
     0
 73
     1
 90
        0
 40
-0.6
 41
-30.0
 62
     5
 63
     7
 74
     0
 91
        4
 64
     7
 65
   257
 75
     1
175
     1
 42
1.0
 92
        8
 66
     7
 43
1.0
 76
     1
 77
     6
 78
     2
 67
     7
 79
     5
170
     0
171
     0
290
     0
174
     0
 93
        1
 44
0.0
173
     0
291
     1
 45
0.0
1001
ACAD
1000
AcDbSavedByObjectVersion
1070
     0
  0
VISUALSTYLE
  5
93B
102
{ACAD_XDICTIONARY
360
993
102
}
102
{ACAD_REACTORS
330
92F
102
}
330
92F
100
AcDbVisualStyle
  2
Brighten
 70
    12
 71
     2
 72
     2
 73
     0
 90
        0
 40
-0.6
 41
-30.0
 62
     5
 63
     7
 74
     1
 91
        4
 64
     7
 65
   257
 75
     1
175
     1
 42
1.0
 92
        8
 66
     7
 43
1.0
 76
     1
 77
     6
 78
     2
 67
     7
 79
     5
170
     0
171
     0
290
     0
174
     0
 93
        1
 44
50.0
173
     0
291
     1
 45
0.0
1001
ACAD
1000
AcDbSavedByObjectVersion
1070
     0
  0
VISUALSTYLE
  5
93F
102
{ACAD_XDICTIONARY
360
99B
102
}
102
{ACAD_REACTORS
330
92F
102
}
330
92F
100
AcDbVisualStyle
  2
ColorChange
 70
    16
 71
     2
 72
     2
 73
     3
 90
        0
 40
-0.6
 41
-30.0
 62
     5
 63
     8
 74
     1
 91
        4
 64
     7
 65
   257
 75
     1
175
     1
 42
1.0
 92
        8
 66
     8
 43
1.0
 76
     1
 77
     6
 78
     2
 67
     7
 79
     5
170
     0
171
     0
290
     0
174
     0
 93
        1
 44
0.0
173
     0
291
     1
 45
0.0
1001
ACAD
1000
AcDbSavedByObjectVersion
1070
     0
  0
VISUALSTYLE
  5
938
102
{ACAD_XDICTIONARY
360
98D
102
}
102
{ACAD_REACTORS
330
92F
102
}
330
92F
100
AcDbVisualStyle
  2
Conceptual
 70
     9
 71
     3
 72
     2
 73
     0
 90
        0
 40
-0.6
 41
-30.0
 62
     5
 63
     7
 74
     2
 91
        2
 64
     7
 65
   257
 75
     1
175
     1
 42
179.0
 92
        8
 66
     7
 43
1.0
 76
     1
 77
     6
 78
     2
 67
     7
 79
     3
170
     0
171
     0
290
     0
174
     0
 93
        1
 44
0.0
173
     0
291
     0
 45
0.0
1001
ACAD
1000
AcDbSavedByObjectVersion
1070
     0
  0
VISUALSTYLE
  5
93A
102
{ACAD_XDICTIONARY
360
991
102
}
102
{ACAD_REACTORS
330
92F
102
}
330
92F
100
AcDbVisualStyle
  2
Dim
 70
    11
 71
     2
 72
     2
 73
     0
 90
        0
 40
-0.6
 41
-30.0
 62
     5
 63
     7
 74
     1
 91
        4
 64
     7
 65
   257
 75
     1
175
     1
 42
1.0
 92
        8
 66
     7
 43
1.0
 76
     1
 77
     6
 78
     2
 67
     7
 79
     5
170
     0
171
     0
290
     0
174
     0
 93
        1
 44
-50.0
173
     0
291
     1
 45
0.0
1001
ACAD
1000
AcDbSavedByObjectVersion
1070
     0
  0
VISUALSTYLE
  5
942
102
{ACAD_XDICTIONARY
360
9A1
102
}
102
{ACAD_REACTORS
330
92F
102
}
330
92F
100
AcDbVisualStyle
  2
EdgeColorOff
 70
    22
 71
     2
 72
     2
 73
     0
 90
        0
 40
-0.6
 41
-30.0
 62
     5
 63
     7
 74
     1
 91
        4
 64
     7
 65
   257
 75
     1
175
     1
 42
1.0
 92
        8
 66
     7
 43
1.0
 76
     1
 77
     6
 78
     2
 67
     7
 79
     5
170
     0
171
     0
290
     0
174
     0
 93
        1
 44
0.0
173
     0
291
     1
 45
0.0
1001
ACAD
1000
AcDbSavedByObjectVersion
1070
     0
  0
VISUALSTYLE
  5
93E
102
{ACAD_XDICTIONARY
360
999
102
}
102
{ACAD_REACTORS
330
92F
102
}
330
92F
100
AcDbVisualStyle
  2
Facepattern
 70
    15
 71
     2
 72
     2
 73
     0
 90
        0
 40
-0.6
 41
-30.0
 62
     5
 63
     7
 74
     1
 91
        4
 64
     7
 65
   257
 75
     1
175
     1
 42
1.0
 92
        8
 66
     7
 43
1.0
 76
     1
 77
     6
 78
     2
 67
     7
 79
     5
170
     0
171
     0
290
     0
174
     0
 93
        1
 44
0.0
173
     0
291
     1
 45
0.0
1001
ACAD
1000
AcDbSavedByObjectVersion
1070
     0
  0
VISUALSTYLE
  5
930
102
{ACAD_XDICTIONARY
360
97D
102
}
102
{ACAD_REACTORS
330
92F
102
}
330
92F
100
AcDbVisualStyle
  2
Flat
 70
     0
 71
     2
 72
     1
 73
     1
 90
        2
 40
-0.6
 41
30.0
 62
     5
 63
     7
 74
     0
 91
        4
 64
     7
 65
   257
 75
     1
175
     1
 42
1.0
 92
        8
 66
     7
 43
1.0
 76
     1
 77
     6
 78
     2
 67
     7
 79
     5
170
     0
171
     0
290
     0
174
     0
 93
       13
 44
0.0
173
     0
291
     1
 45
0.0
1001
ACAD
1000
AcDbSavedByObjectVersion
1070
     0
  0
VISUALSTYLE
  5
931
102
{ACAD_XDICTIONARY
360
97F
102
}
102
{ACAD_REACTORS
330
92F
102
}
330
92F
100
AcDbVisualStyle
  2
FlatWithEdges
 70
     1
 71
     2
 72
     1
 73
     1
 90
        2
 40
-0.6
 41
30.0
 62
     5
 63
     7
 74
     1
 91
        4
 64
     7
 65
   257
 75
     1
175
     1
 42
1.0
 92
        0
 66
   257
 43
1.0
 76
     1
 77
     6
 78
     2
 67
     7
 79
     5
170
     0
171
     0
290
     0
174
     0
 93
       13
 44
0.0
173
     0
291
     1
 45
0.0
1001
ACAD
1000
AcDbSavedByObjectVersion
1070
     0
  0
VISUALSTYLE
  5
932
102
{ACAD_XDICTIONARY
360
981
102
}
102
{ACAD_REACTORS
330
92F
102
}
330
92F
100
AcDbVisualStyle
  2
Gouraud
 70
     2
 71
     2
 72
     2
 73
     1
 90
        2
 40
-0.6
 41
30.0
 62
     5
 63
     7
 74
     0
 91
        4
 64
     7
 65
   257
 75
     1
175
     1
 42
1.0
 92
        0
 66
     7
 43
1.0
 76
     1
 77
     6
 78
     2
 67
     7
 79
     5
170
     0
171
     0
290
     0
174
     0
 93
       13
 44
0.0
173
     0
291
     1
 45
0.0
1001
ACAD
1000
AcDbSavedByObjectVersion
1070
     0
  0
VISUALSTYLE
  5
933
102
{ACAD_XDICTIONARY
360
983
102
}
102
{ACAD_REACTORS
330
92F
102
}
330
92F
100
AcDbVisualStyle
  2
GouraudWithEdges
 70
     3
 71
     2
 72
     2
 73
     1
 90
        2
 40
-0.6
 41
30.0
 62
     5
 63
     7
 74
     1
 91
        4
 64
     7
 65
   257
 75
     1
175
     1
 42
1.0
 92
        0
 66
   257
 43
1.0
 76
     1
 77
     6
 78
     2
 67
     7
 79
     5
170
     0
171
     0
290
     0
174
     0
 93
       13
 44
0.0
173
     0
291
     1
 45
0.0
1001
ACAD
1000
AcDbSavedByObjectVersion
1070
     0
  0
VISUALSTYLE
  5
940
102
{ACAD_XDICTIONARY
360
99D
102
}
102
{ACAD_REACTORS
330
92F
102
}
330
92F
100
AcDbVisualStyle
  2
JitterOff
 70
    20
 71
     2
 72
     2
 73
     0
 90
        0
 40
-0.6
 41
-30.0
 62
     5
 63
     7
 74
     1
 91
        4
 64
     7
 65
   257
 75
     1
175
     1
 42
1.0
 92
       10
 66
     7
 43
1.0
 76
     1
 77
     6
 78
     2
 67
     7
 79
     5
170
     0
171
     0
290
     0
174
     0
 93
        1
 44
0.0
173
     0
291
     1
 45
0.0
1001
ACAD
1000
AcDbSavedByObjectVersion
1070
     0
  0
VISUALSTYLE
  5
93D
102
{ACAD_XDICTIONARY
360
997
102
}
102
{ACAD_REACTORS
330
92F
102
}
330
92F
100
AcDbVisualStyle
  2
Linepattern
 70
    14
 71
     2
 72
     2
 73
     0
 90
        0
 40
-0.6
 41
-30.0
 62
     5
 63
     7
 74
     1
 91
        4
 64
     7
 65
   257
 75
     7
175
     7
 42
1.0
 92
        8
 66
     7
 43
1.0
 76
     1
 77
     6
 78
     2
 67
     7
 79
     5
170
     0
171
     0
290
     0
174
     0
 93
        1
 44
0.0
173
     0
291
     1
 45
0.0
1001
ACAD
1000
AcDbSavedByObjectVersion
1070
     0
  0
VISUALSTYLE
  5
941
102
{ACAD_XDICTIONARY
360
99F
102
}
102
{ACAD_REACTORS
330
92F
102
}
330
92F
100
AcDbVisualStyle
  2
OverhangOff
 70
    21
 71
     2
 72
     2
 73
     0
 90
        0
 40
-0.6
 41
-30.0
 62
     5
 63
     7
 74
     1
 91
        4
 64
     7
 65
   257
 75
     1
175
     1
 42
1.0
 92
        9
 66
     7
 43
1.0
 76
     1
 77
     6
 78
     2
 67
     7
 79
     5
170
     0
171
     0
290
     0
174
     0
 93
        1
 44
0.0
173
     0
291
     1
 45
0.0
1001
ACAD
1000
AcDbSavedByObjectVersion
1070
     0
  0
VISUALSTYLE
  5
939
102
{ACAD_XDICTIONARY
360
98F
102
}
102
{ACAD_REACTORS
330
92F
102
}
330
92F
100
AcDbVisualStyle
  2
Realistic
 70
     8
 71
     2
 72
     2
 73
     0
 90
        0
 40
-0.6
 41
-30.0
 62
     5
 63
     7
 74
     1
 91
        0
 64
     7
 65
   257
 75
     1
175
     1
 42
1.0
 92
        8
 66
     8
 43
1.0
 76
     1
 77
     6
 78
     2
 67
     7
 79
     5
170
     0
171
     0
290
     0
174
     0
 93
       13
 44
0.0
173
     0
291
     0
 45
0.0
1001
ACAD
1000
AcDbSavedByObjectVersion
1070
     0
  0
VISUALSTYLE
  5
93C
102
{ACAD_XDICTIONARY
360
995
102
}
102
{ACAD_REACTORS
330
92F
102
}
330
92F
100
AcDbVisualStyle
  2
Thicken
 70
    13
 71
     2
 72
     2
 73
     0
 90
        0
 40
-0.6
 41
-30.0
 62
     5
 63
     7
 74
     1
 91
        4
 64
     7
 65
   257
 75
     1
175
     1
 42
1.0
 92
       12
 66
     7
 43
1.0
 76
     1
 77
     6
 78
     2
 67
     7
 79
     5
170
     0
171
     0
290
     0
174
     0
 93
        1
 44
0.0
173
     0
291
     1
 45
0.0
1001
ACAD
1000
AcDbSavedByObjectVersion
1070
     0
  0
DICTIONARYVAR
  5
96B
102
{ACAD_REACTORS
330
8FD
102
}
330
8FD
100
DictionaryVariables
280
     0
  1
1:1
  0
DICTIONARYVAR
  5
96A
102
{ACAD_REACTORS
330
8FD
102
}
330
8FD
100
DictionaryVariables
280
     0
  1
STANDARD
  0
DICTIONARYVAR
  5
8FE
102
{ACAD_REACTORS
330
8FD
102
}
330
8FD
100
DictionaryVariables
280
     0
  1
STANDARD
  0
DICTIONARYVAR
  5
908
102
{ACAD_REACTORS
330
8FD
102
}
330
8FD
100
DictionaryVariables
280
     0
  1
2
  0
DICTIONARYVAR
  5
907
102
{ACAD_REACTORS
330
8FD
102
}
330
8FD
100
DictionaryVariables
280
     0
  1
1
  0
DICTIONARYVAR
  5
96D
102
{ACAD_REACTORS
330
8FD
102
}
330
8FD
100
DictionaryVariables
280
     0
  1
0
  0
DICTIONARYVAR
  5
909
102
{ACAD_REACTORS
330
8FD
102
}
330
8FD
100
DictionaryVariables
280
     0
  1

  0
DICTIONARYVAR
  5
96C
102
{ACAD_REACTORS
330
8FD
102
}
330
8FD
100
DictionaryVariables
280
     0
  1
127
  0
DICTIONARYVAR
  5
96E
102
{ACAD_REACTORS
330
8FD
102
}
330
8FD
100
DictionaryVariables
280
     0
  1
2
  0
DICTIONARY
  5
974
330
22
100
AcDbDictionary
280
     1
281
     1
  3
ACAD_XREC_ROUNDTRIP
360
975
  0
DICTIONARY
  5
978
330
2A
100
AcDbDictionary
280
     1
281
     1
  3
ACAD_XREC_ROUNDTRIP
360
979
  0
DICTIONARY
  5
976
330
26
100
AcDbDictionary
280
     1
281
     1
  3
ACAD_XREC_ROUNDTRIP
360
977
  0
DICTIONARY
  5
920
330
91F
100
AcDbDictionary
280
     1
281
     1
  3
ACAD_XREC_ROUNDTRIP
360
97B
  3
BUMPTILE
360
922
  3
DIFFUSETILE
360
921
  3
OPACITYTILE
360
925
  3
REFLECTIONTILE
360
924
  3
REFRACTIONTILE
360
926
  3
SPECULARTILE
360
923
  0
DICTIONARY
  5
918
330
917
100
AcDbDictionary
280
     1
281
     1
  3
ACAD_XREC_ROUNDTRIP
360
97A
  3
BUMPTILE
360
91A
  3
DIFFUSETILE
360
919
  3
OPACITYTILE
360
91D
  3
REFLECTIONTILE
360
91C
  3
REFRACTIONTILE
360
91E
  3
SPECULARTILE
360
91B
  0
DICTIONARY
  5
928
330
927
100
AcDbDictionary
280
     1
281
     1
  3
ACAD_XREC_ROUNDTRIP
360
97C
  3
BUMPTILE
360
92A
  3
DIFFUSETILE
360
929
  3
OPACITYTILE
360
92D
  3
REFLECTIONTILE
360
92C
  3
REFRACTIONTILE
360
92E
  3
SPECULARTILE
360
92B
  0
DICTIONARY
  5
96F
330
1E
100
AcDbDictionary
280
     1
281
     1
  3
ACAD_ROUNDTRIP_2008_TABLESTYLE_CELLSTYLEMAP
360
970
  3
ACAD_XREC_ROUNDTRIP
360
973
  0
DICTIONARY
  5
987
330
935
100
AcDbDictionary
280
     1
281
     1
  3
ACAD_XREC_ROUNDTRIP
360
988
  0
DICTIONARY
  5
98B
330
937
100
AcDbDictionary
280
     1
281
     1
  3
ACAD_XREC_ROUNDTRIP
360
98C
  0
DICTIONARY
  5
989
330
936
100
AcDbDictionary
280
     1
281
     1
  3
ACAD_XREC_ROUNDTRIP
360
98A
  0
DICTIONARY
  5
985
330
934
100
AcDbDictionary
280
     1
281
     1
  3
ACAD_XREC_ROUNDTRIP
360
986
  0
DICTIONARY
  5
993
330
93B
100
AcDbDictionary
280
     1
281
     1
  3
ACAD_XREC_ROUNDTRIP
360
994
  0
DICTIONARY
  5
99B
330
93F
100
AcDbDictionary
280
     1
281
     1
  3
ACAD_XREC_ROUNDTRIP
360
99C
  0
DICTIONARY
  5
98D
330
938
100
AcDbDictionary
280
     1
281
     1
  3
ACAD_XREC_ROUNDTRIP
360
98E
  0
DICTIONARY
  5
991
330
93A
100
AcDbDictionary
280
     1
281
     1
  3
ACAD_XREC_ROUNDTRIP
360
992
  0
DICTIONARY
  5
9A1
330
942
100
AcDbDictionary
280
     1
281
     1
  3
ACAD_XREC_ROUNDTRIP
360
9A2
  0
DICTIONARY
  5
999
330
93E
100
AcDbDictionary
280
     1
281
     1
  3
ACAD_XREC_ROUNDTRIP
360
99A
  0
DICTIONARY
  5
97D
330
930
100
AcDbDictionary
280
     1
281
     1
  3
ACAD_XREC_ROUNDTRIP
360
97E
  0
DICTIONARY
  5
97F
330
931
100
AcDbDictionary
280
     1
281
     1
  3
ACAD_XREC_ROUNDTRIP
360
980
  0
DICTIONARY
  5
981
330
932
100
AcDbDictionary
280
     1
281
     1
  3
ACAD_XREC_ROUNDTRIP
360
982
  0
DICTIONARY
  5
983
330
933
100
AcDbDictionary
280
     1
281
     1
  3
ACAD_XREC_ROUNDTRIP
360
984
  0
DICTIONARY
  5
99D
330
940
100
AcDbDictionary
280
     1
281
     1
  3
ACAD_XREC_ROUNDTRIP
360
99E
  0
DICTIONARY
  5
997
330
93D
100
AcDbDictionary
280
     1
281
     1
  3
ACAD_XREC_ROUNDTRIP
360
998
  0
DICTIONARY
  5
99F
330
941
100
AcDbDictionary
280
     1
281
     1
  3
ACAD_XREC_ROUNDTRIP
360
9A0
  0
DICTIONARY
  5
98F
330
939
100
AcDbDictionary
280
     1
281
     1
  3
ACAD_XREC_ROUNDTRIP
360
990
  0
DICTIONARY
  5
995
330
93C
100
AcDbDictionary
280
     1
281
     1
  3
ACAD_XREC_ROUNDTRIP
360
996
  0
XRECORD
  5
975
102
{ACAD_REACTORS
330
974
102
}
330
974
100
AcDbXrecord
280
     1
102
SHADEPLOT
 70
     0
102
SHADEPLOTRESLEVEL
 70
     2
102
SHADEPLOTCUSTOMDPI
 70
   300
  0
XRECORD
  5
979
102
{ACAD_REACTORS
330
978
102
}
330
978
100
AcDbXrecord
280
     1
102
SHADEPLOT
 70
     0
102
SHADEPLOTRESLEVEL
 70
     2
102
SHADEPLOTCUSTOMDPI
 70
   300
  0
XRECORD
  5
977
102
{ACAD_REACTORS
330
976
102
}
330
976
100
AcDbXrecord
280
     1
102
SHADEPLOT
 70
     0
102
SHADEPLOTRESLEVEL
 70
     2
102
SHADEPLOTCUSTOMDPI
 70
   300
  0
XRECORD
  5
97B
102
{ACAD_REACTORS
330
920
102
}
330
920
100
AcDbXrecord
280
     1
102
MATERIAL
148
0.0
149
0.0
149
0.0
 93
        0
 94
      127
282
     0
 72
     0
 77
     0
171
     0
175
     0
179
     0
273
     0
  0
XRECORD
  5
922
102
{ACAD_REACTORS
330
920
102
}
330
920
100
AcDbXrecord
280
     1
270
     1
271
     1
  0
XRECORD
  5
921
102
{ACAD_REACTORS
330
920
102
}
330
920
100
AcDbXrecord
280
     1
270
     1
271
     1
  0
XRECORD
  5
925
102
{ACAD_REACTORS
330
920
102
}
330
920
100
AcDbXrecord
280
     1
270
     1
271
     1
  0
XRECORD
  5
924
102
{ACAD_REACTORS
330
920
102
}
330
920
100
AcDbXrecord
280
     1
270
     1
271
     1
  0
XRECORD
  5
926
102
{ACAD_REACTORS
330
920
102
}
330
920
100
AcDbXrecord
280
     1
270
     1
271
     1
  0
XRECORD
  5
923
102
{ACAD_REACTORS
330
920
102
}
330
920
100
AcDbXrecord
280
     1
270
     1
271
     1
  0
XRECORD
  5
97A
102
{ACAD_REACTORS
330
918
102
}
330
918
100
AcDbXrecord
280
     1
102
MATERIAL
148
0.0
149
0.0
149
0.0
 93
        0
 94
      127
282
     0
 72
     0
 77
     0
171
     0
175
     0
179
     0
273
     0
  0
XRECORD
  5
91A
102
{ACAD_REACTORS
330
918
102
}
330
918
100
AcDbXrecord
280
     1
270
     1
271
     1
  0
XRECORD
  5
919
102
{ACAD_REACTORS
330
918
102
}
330
918
100
AcDbXrecord
280
     1
270
     1
271
     1
  0
XRECORD
  5
91D
102
{ACAD_REACTORS
330
918
102
}
330
918
100
AcDbXrecord
280
     1
270
     1
271
     1
  0
XRECORD
  5
91C
102
{ACAD_REACTORS
330
918
102
}
330
918
100
AcDbXrecord
280
     1
270
     1
271
     1
  0
XRECORD
  5
91E
102
{ACAD_REACTORS
330
918
102
}
330
918
100
AcDbXrecord
280
     1
270
     1
271
     1
  0
XRECORD
  5
91B
102
{ACAD_REACTORS
330
918
102
}
330
918
100
AcDbXrecord
280
     1
270
     1
271
     1
  0
XRECORD
  5
97C
102
{ACAD_REACTORS
330
928
102
}
330
928
100
AcDbXrecord
280
     1
102
MATERIAL
148
0.0
149
0.0
149
0.0
 93
        0
 94
      127
282
     0
 72
     0
 77
     0
171
     0
175
     0
179
     0
273
     0
  0
XRECORD
  5
92A
102
{ACAD_REACTORS
330
928
102
}
330
928
100
AcDbXrecord
280
     1
270
     1
271
     1
  0
XRECORD
  5
929
102
{ACAD_REACTORS
330
928
102
}
330
928
100
AcDbXrecord
280
     1
270
     1
271
     1
  0
XRECORD
  5
92D
102
{ACAD_REACTORS
330
928
102
}
330
928
100
AcDbXrecord
280
     1
270
     1
271
     1
  0
XRECORD
  5
92C
102
{ACAD_REACTORS
330
928
102
}
330
928
100
AcDbXrecord
280
     1
270
     1
271
     1
  0
XRECORD
  5
92E
102
{ACAD_REACTORS
330
928
102
}
330
928
100
AcDbXrecord
280
     1
270
     1
271
     1
  0
XRECORD
  5
92B
102
{ACAD_REACTORS
330
928
102
}
330
928
100
AcDbXrecord
280
     1
270
     1
271
     1
  0
CELLSTYLEMAP
  5
970
102
{ACAD_REACTORS
330
96F
102
}
330
96F
100
AcDbCellStyleMap
 90
        3
300
CELLSTYLE
  1
TABLEFORMAT_BEGIN
 90
        5
170
     1
 91
        0
 92
    32768
 62
   257
 93
        1
300
CONTENTFORMAT
  1
CONTENTFORMAT_BEGIN
 90
        0
 91
        0
 92
        4
 93
        0
300

 40
0.0
140
1.0
 94
        5
 62
     0
340
11
144
6.0
309
CONTENTFORMAT_END
171
     1
301
MARGIN
  1
CELLMARGIN_BEGIN
 40
1.5
 40
1.5
 40
1.5
 40
1.5
 40
0.18
 40
0.18
309
CELLMARGIN_END
 94
        6
 95
        1
302
GRIDFORMAT
  1
GRIDFORMAT_BEGIN
 90
        0
 91
        1
 62
     0
 92
       -2
340
0
 93
        0
 40
0.045
309
GRIDFORMAT_END
 95
        2
302
GRIDFORMAT
  1
GRIDFORMAT_BEGIN
 90
        0
 91
        1
 62
     0
 92
       -2
340
0
 93
        0
 40
0.045
309
GRIDFORMAT_END
 95
        4
302
GRIDFORMAT
  1
GRIDFORMAT_BEGIN
 90
        0
 91
        1
 62
     0
 92
       -2
340
0
 93
        0
 40
0.045
309
GRIDFORMAT_END
 95
        8
302
GRIDFORMAT
  1
GRIDFORMAT_BEGIN
 90
        0
 91
        1
 62
     0
 92
       -2
340
0
 93
        0
 40
0.045
309
GRIDFORMAT_END
 95
       16
302
GRIDFORMAT
  1
GRIDFORMAT_BEGIN
 90
        0
 91
        1
 62
     0
 92
       -2
340
0
 93
        0
 40
0.045
309
GRIDFORMAT_END
 95
       32
302
GRIDFORMAT
  1
GRIDFORMAT_BEGIN
 90
        0
 91
        1
 62
     0
 92
       -2
340
0
 93
        0
 40
0.045
309
GRIDFORMAT_END
309
TABLEFORMAT_END
  1
CELLSTYLE_BEGIN
 90
        1
 91
        1
300
_TITLE
309
CELLSTYLE_END
300
CELLSTYLE
  1
TABLEFORMAT_BEGIN
 90
        5
170
     1
 91
        0
 92
        0
 62
   257
 93
        1
300
CONTENTFORMAT
  1
CONTENTFORMAT_BEGIN
 90
        0
 91
        0
 92
        4
 93
        0
300

 40
0.0
140
1.0
 94
        5
 62
     0
340
11
144
4.5
309
CONTENTFORMAT_END
171
     1
301
MARGIN
  1
CELLMARGIN_BEGIN
 40
1.5
 40
1.5
 40
1.5
 40
1.5
 40
0.18
 40
0.18
309
CELLMARGIN_END
 94
        6
 95
        1
302
GRIDFORMAT
  1
GRIDFORMAT_BEGIN
 90
        0
 91
        1
 62
     0
 92
       -2
340
0
 93
        0
 40
0.045
309
GRIDFORMAT_END
 95
        2
302
GRIDFORMAT
  1
GRIDFORMAT_BEGIN
 90
        0
 91
        1
 62
     0
 92
       -2
340
0
 93
        0
 40
0.045
309
GRIDFORMAT_END
 95
        4
302
GRIDFORMAT
  1
GRIDFORMAT_BEGIN
 90
        0
 91
        1
 62
     0
 92
       -2
340
0
 93
        0
 40
0.045
309
GRIDFORMAT_END
 95
        8
302
GRIDFORMAT
  1
GRIDFORMAT_BEGIN
 90
        0
 91
        1
 62
     0
 92
       -2
340
0
 93
        0
 40
0.045
309
GRIDFORMAT_END
 95
       16
302
GRIDFORMAT
  1
GRIDFORMAT_BEGIN
 90
        0
 91
        1
 62
     0
 92
       -2
340
0
 93
        0
 40
0.045
309
GRIDFORMAT_END
 95
       32
302
GRIDFORMAT
  1
GRIDFORMAT_BEGIN
 90
        0
 91
        1
 62
     0
 92
       -2
340
0
 93
        0
 40
0.045
309
GRIDFORMAT_END
309
TABLEFORMAT_END
  1
CELLSTYLE_BEGIN
 90
        2
 91
        1
300
_HEADER
309
CELLSTYLE_END
300
CELLSTYLE
  1
TABLEFORMAT_BEGIN
 90
        5
170
     1
 91
        0
 92
        0
 62
   257
 93
        1
300
CONTENTFORMAT
  1
CONTENTFORMAT_BEGIN
 90
        0
 91
        0
 92
        4
 93
        0
300

 40
0.0
140
1.0
 94
        2
 62
     0
340
11
144
4.5
309
CONTENTFORMAT_END
171
     1
301
MARGIN
  1
CELLMARGIN_BEGIN
 40
1.5
 40
1.5
 40
1.5
 40
1.5
 40
0.18
 40
0.18
309
CELLMARGIN_END
 94
        6
 95
        1
302
GRIDFORMAT
  1
GRIDFORMAT_BEGIN
 90
        0
 91
        1
 62
     0
 92
       -2
340
0
 93
        0
 40
0.045
309
GRIDFORMAT_END
 95
        2
302
GRIDFORMAT
  1
GRIDFORMAT_BEGIN
 90
        0
 91
        1
 62
     0
 92
       -2
340
0
 93
        0
 40
0.045
309
GRIDFORMAT_END
 95
        4
302
GRIDFORMAT
  1
GRIDFORMAT_BEGIN
 90
        0
 91
        1
 62
     0
 92
       -2
340
0
 93
        0
 40
0.045
309
GRIDFORMAT_END
 95
        8
302
GRIDFORMAT
  1
GRIDFORMAT_BEGIN
 90
        0
 91
        1
 62
     0
 92
       -2
340
0
 93
        0
 40
0.045
309
GRIDFORMAT_END
 95
       16
302
GRIDFORMAT
  1
GRIDFORMAT_BEGIN
 90
        0
 91
        1
 62
     0
 92
       -2
340
0
 93
        0
 40
0.045
309
GRIDFORMAT_END
 95
       32
302
GRIDFORMAT
  1
GRIDFORMAT_BEGIN
 90
        0
 91
        1
 62
     0
 92
       -2
340
0
 93
        0
 40
0.045
309
GRIDFORMAT_END
309
TABLEFORMAT_END
  1
CELLSTYLE_BEGIN
 90
        3
 91
        2
300
_DATA
309
CELLSTYLE_END
  0
XRECORD
  5
973
102
{ACAD_REACTORS
330
96F
102
}
330
96F
100
AcDbXrecord
280
     1
102
ACAD_ROUNDTRIP_PRE2007_TABLESTYLE
 90
        4
 91
        0
  1

 92
        4
 93
        0
  2

 94
        4
 95
        0
  3

  0
XRECORD
  5
988
102
{ACAD_REACTORS
330
987
102
}
330
987
100
AcDbXrecord
280
     1
102
RTVSPropertyOp0
 70
     1
102
RTVSPropertyOp1
 70
     1
102
RTVSPropertyOp2
 70
     1
102
RTVSPropertyOp3
 70
     1
102
RTVSPropertyOp4
 70
     1
102
RTVSPropertyOp5
 70
     1
102
RTVSPropertyOp6
 70
     1
102
RTVSPropertyOp7
 70
     1
102
RTVSPropertyOp8
 70
     1
102
RTVSPropertyOp9
 70
     1
102
RTVSPropertyOp10
 70
     1
102
RTVSPropertyOp11
 70
     1
102
RTVSPropertyOp12
 70
     1
102
RTVSPropertyOp13
 70
     1
102
RTVSPropertyOp14
 70
     1
102
RTVSPropertyOp15
 70
     1
102
RTVSPropertyOp16
 70
     1
102
RTVSPropertyOp17
 70
     1
102
RTVSPropertyOp18
 70
     1
102
RTVSPropertyOp19
 70
     1
102
RTVSPropertyOp20
 70
     1
102
RTVSPropertyOp21
 70
     1
102
RTVSPropertyOp22
 70
     1
102
RTVSPropertyOp23
 70
     1
102
RTVSPropertyOp24
 70
     1
102
RTVSPropertyOp25
 70
     1
102
RTVSPropertyOp26
 70
     1
102
RTVSPropertyOp27
 70
     1
  0
XRECORD
  5
98C
102
{ACAD_REACTORS
330
98B
102
}
330
98B
100
AcDbXrecord
280
     1
102
RTVSPropertyOp0
 70
     1
102
RTVSPropertyOp1
 70
     1
102
RTVSPropertyOp2
 70
     1
102
RTVSPropertyOp3
 70
     1
102
RTVSPropertyOp4
 70
     1
102
RTVSPropertyOp5
 70
     1
102
RTVSPropertyOp6
 70
     1
102
RTVSPropertyOp7
 70
     1
102
RTVSPropertyOp8
 70
     1
102
RTVSPropertyOp9
 70
     1
102
RTVSPropertyOp10
 70
     1
102
RTVSPropertyOp11
 70
     1
102
RTVSPropertyOp12
 70
     1
102
RTVSPropertyOp13
 70
     1
102
RTVSPropertyOp14
 70
     1
102
RTVSPropertyOp15
 70
     1
102
RTVSPropertyOp16
 70
     1
102
RTVSPropertyOp17
 70
     1
102
RTVSPropertyOp18
 70
     1
102
RTVSPropertyOp19
 70
     1
102
RTVSPropertyOp20
 70
     1
102
RTVSPropertyOp21
 70
     1
102
RTVSPropertyOp22
 70
     1
102
RTVSPropertyOp23
 70
     1
102
RTVSPropertyOp24
 70
     1
102
RTVSPropertyOp25
 70
     1
102
RTVSPropertyOp26
 70
     1
102
RTVSPropertyOp27
 70
     1
  0
XRECORD
  5
98A
102
{ACAD_REACTORS
330
989
102
}
330
989
100
AcDbXrecord
280
     1
102
RTVSPropertyOp0
 70
     1
102
RTVSPropertyOp1
 70
     1
102
RTVSPropertyOp2
 70
     1
102
RTVSPropertyOp3
 70
     1
102
RTVSPropertyOp4
 70
     1
102
RTVSPropertyOp5
 70
     1
102
RTVSPropertyOp6
 70
     1
102
RTVSPropertyOp7
 70
     1
102
RTVSPropertyOp8
 70
     1
102
RTVSPropertyOp9
 70
     1
102
RTVSPropertyOp10
 70
     1
102
RTVSPropertyOp11
 70
     1
102
RTVSPropertyOp12
 70
     1
102
RTVSPropertyOp13
 70
     1
102
RTVSPropertyOp14
 70
     1
102
RTVSPropertyOp15
 70
     1
102
RTVSPropertyOp16
 70
     1
102
RTVSPropertyOp17
 70
     1
102
RTVSPropertyOp18
 70
     1
102
RTVSPropertyOp19
 70
     1
102
RTVSPropertyOp20
 70
     1
102
RTVSPropertyOp21
 70
     1
102
RTVSPropertyOp22
 70
     1
102
RTVSPropertyOp23
 70
     1
102
RTVSPropertyOp24
 70
     1
102
RTVSPropertyOp25
 70
     1
102
RTVSPropertyOp26
 70
     1
102
RTVSPropertyOp27
 70
     1
  0
XRECORD
  5
986
102
{ACAD_REACTORS
330
985
102
}
330
985
100
AcDbXrecord
280
     1
102
RTVSPropertyOp0
 70
     1
102
RTVSPropertyOp1
 70
     1
102
RTVSPropertyOp2
 70
     1
102
RTVSPropertyOp3
 70
     1
102
RTVSPropertyOp4
 70
     1
102
RTVSPropertyOp5
 70
     1
102
RTVSPropertyOp6
 70
     1
102
RTVSPropertyOp7
 70
     1
102
RTVSPropertyOp8
 70
     1
102
RTVSPropertyOp9
 70
     1
102
RTVSPropertyOp10
 70
     1
102
RTVSPropertyOp11
 70
     1
102
RTVSPropertyOp12
 70
     1
102
RTVSPropertyOp13
 70
     1
102
RTVSPropertyOp14
 70
     1
102
RTVSPropertyOp15
 70
     1
102
RTVSPropertyOp16
 70
     1
102
RTVSPropertyOp17
 70
     1
102
RTVSPropertyOp18
 70
     1
102
RTVSPropertyOp19
 70
     1
102
RTVSPropertyOp20
 70
     1
102
RTVSPropertyOp21
 70
     1
102
RTVSPropertyOp22
 70
     1
102
RTVSPropertyOp23
 70
     1
102
RTVSPropertyOp24
 70
     1
102
RTVSPropertyOp25
 70
     1
102
RTVSPropertyOp26
 70
     1
102
RTVSPropertyOp27
 70
     1
  0
XRECORD
  5
994
102
{ACAD_REACTORS
330
993
102
}
330
993
100
AcDbXrecord
280
     1
102
RTVSPropertyOp0
 70
     1
102
RTVSPropertyOp1
 70
     1
102
RTVSPropertyOp2
 70
     1
102
RTVSPropertyOp3
 70
     1
102
RTVSPropertyOp4
 70
     1
102
RTVSPropertyOp5
 70
     1
102
RTVSPropertyOp6
 70
     1
102
RTVSPropertyOp7
 70
     1
102
RTVSPropertyOp8
 70
     1
102
RTVSPropertyOp9
 70
     1
102
RTVSPropertyOp10
 70
     1
102
RTVSPropertyOp11
 70
     1
102
RTVSPropertyOp12
 70
     1
102
RTVSPropertyOp13
 70
     1
102
RTVSPropertyOp14
 70
     1
102
RTVSPropertyOp15
 70
     1
102
RTVSPropertyOp16
 70
     1
102
RTVSPropertyOp17
 70
     1
102
RTVSPropertyOp18
 70
     1
102
RTVSPropertyOp19
 70
     1
102
RTVSPropertyOp20
 70
     1
102
RTVSPropertyOp21
 70
     1
102
RTVSPropertyOp22
 70
     1
102
RTVSPropertyOp23
 70
     1
102
RTVSPropertyOp24
 70
     1
102
RTVSPropertyOp25
 70
     1
102
RTVSPropertyOp26
 70
     1
102
RTVSPropertyOp27
 70
     1
  0
XRECORD
  5
99C
102
{ACAD_REACTORS
330
99B
102
}
330
99B
100
AcDbXrecord
280
     1
102
RTVSPropertyOp0
 70
     1
102
RTVSPropertyOp1
 70
     1
102
RTVSPropertyOp2
 70
     1
102
RTVSPropertyOp3
 70
     1
102
RTVSPropertyOp4
 70
     1
102
RTVSPropertyOp5
 70
     1
102
RTVSPropertyOp6
 70
     1
102
RTVSPropertyOp7
 70
     1
102
RTVSPropertyOp8
 70
     1
102
RTVSPropertyOp9
 70
     1
102
RTVSPropertyOp10
 70
     1
102
RTVSPropertyOp11
 70
     1
102
RTVSPropertyOp12
 70
     1
102
RTVSPropertyOp13
 70
     1
102
RTVSPropertyOp14
 70
     1
102
RTVSPropertyOp15
 70
     1
102
RTVSPropertyOp16
 70
     1
102
RTVSPropertyOp17
 70
     1
102
RTVSPropertyOp18
 70
     1
102
RTVSPropertyOp19
 70
     1
102
RTVSPropertyOp20
 70
     1
102
RTVSPropertyOp21
 70
     1
102
RTVSPropertyOp22
 70
     1
102
RTVSPropertyOp23
 70
     1
102
RTVSPropertyOp24
 70
     1
102
RTVSPropertyOp25
 70
     1
102
RTVSPropertyOp26
 70
     1
102
RTVSPropertyOp27
 70
     1
  0
XRECORD
  5
98E
102
{ACAD_REACTORS
330
98D
102
}
330
98D
100
AcDbXrecord
280
     1
102
RTVSPropertyOp0
 70
     1
102
RTVSPropertyOp1
 70
     1
102
RTVSPropertyOp2
 70
     1
102
RTVSPropertyOp3
 70
     1
102
RTVSPropertyOp4
 70
     1
102
RTVSPropertyOp5
 70
     1
102
RTVSPropertyOp6
 70
     1
102
RTVSPropertyOp7
 70
     1
102
RTVSPropertyOp8
 70
     1
102
RTVSPropertyOp9
 70
     1
102
RTVSPropertyOp10
 70
     1
102
RTVSPropertyOp11
 70
     1
102
RTVSPropertyOp12
 70
     1
102
RTVSPropertyOp13
 70
     1
102
RTVSPropertyOp14
 70
     1
102
RTVSPropertyOp15
 70
     1
102
RTVSPropertyOp16
 70
     1
102
RTVSPropertyOp17
 70
     1
102
RTVSPropertyOp18
 70
     1
102
RTVSPropertyOp19
 70
     1
102
RTVSPropertyOp20
 70
     1
102
RTVSPropertyOp21
 70
     1
102
RTVSPropertyOp22
 70
     1
102
RTVSPropertyOp23
 70
     1
102
RTVSPropertyOp24
 70
     1
102
RTVSPropertyOp25
 70
     1
102
RTVSPropertyOp26
 70
     1
102
RTVSPropertyOp27
 70
     1
  0
XRECORD
  5
992
102
{ACAD_REACTORS
330
991
102
}
330
991
100
AcDbXrecord
280
     1
102
RTVSPropertyOp0
 70
     1
102
RTVSPropertyOp1
 70
     1
102
RTVSPropertyOp2
 70
     1
102
RTVSPropertyOp3
 70
     1
102
RTVSPropertyOp4
 70
     1
102
RTVSPropertyOp5
 70
     1
102
RTVSPropertyOp6
 70
     1
102
RTVSPropertyOp7
 70
     1
102
RTVSPropertyOp8
 70
     1
102
RTVSPropertyOp9
 70
     1
102
RTVSPropertyOp10
 70
     1
102
RTVSPropertyOp11
 70
     1
102
RTVSPropertyOp12
 70
     1
102
RTVSPropertyOp13
 70
     1
102
RTVSPropertyOp14
 70
     1
102
RTVSPropertyOp15
 70
     1
102
RTVSPropertyOp16
 70
     1
102
RTVSPropertyOp17
 70
     1
102
RTVSPropertyOp18
 70
     1
102
RTVSPropertyOp19
 70
     1
102
RTVSPropertyOp20
 70
     1
102
RTVSPropertyOp21
 70
     1
102
RTVSPropertyOp22
 70
     1
102
RTVSPropertyOp23
 70
     1
102
RTVSPropertyOp24
 70
     1
102
RTVSPropertyOp25
 70
     1
102
RTVSPropertyOp26
 70
     1
102
RTVSPropertyOp27
 70
     1
  0
XRECORD
  5
9A2
102
{ACAD_REACTORS
330
9A1
102
}
330
9A1
100
AcDbXrecord
280
     1
102
RTVSPropertyOp0
 70
     0
102
RTVSPropertyOp1
 70
     0
102
RTVSPropertyOp2
 70
     0
102
RTVSPropertyOp3
 70
     0
102
RTVSPropertyOp4
 70
     0
102
RTVSPropertyOp5
 70
     0
102
RTVSPropertyOp6
 70
     0
102
RTVSPropertyOp7
 70
     0
102
RTVSPropertyOp8
 70
     0
102
RTVSPropertyOp9
 70
     0
102
RTVSPropertyOp10
 70
     0
102
RTVSPropertyOp11
 70
     0
102
RTVSPropertyOp12
 70
     0
102
RTVSPropertyOp13
 70
     0
102
RTVSPropertyOp14
 70
     2
102
RTVSPropertyOp15
 70
     0
102
RTVSPropertyOp16
 70
     0
102
RTVSPropertyOp17
 70
     0
102
RTVSPropertyOp18
 70
     0
102
RTVSPropertyOp19
 70
     0
102
RTVSPropertyOp20
 70
     0
102
RTVSPropertyOp21
 70
     0
102
RTVSPropertyOp22
 70
     0
102
RTVSPropertyOp23
 70
     0
102
RTVSPropertyOp24
 70
     0
102
RTVSPropertyOp25
 70
     0
102
RTVSPropertyOp26
 70
     0
102
RTVSPropertyOp27
 70
     0
  0
XRECORD
  5
99A
102
{ACAD_REACTORS
330
999
102
}
330
999
100
AcDbXrecord
280
     1
102
RTVSPropertyOp0
 70
     1
102
RTVSPropertyOp1
 70
     1
102
RTVSPropertyOp2
 70
     1
102
RTVSPropertyOp3
 70
     1
102
RTVSPropertyOp4
 70
     1
102
RTVSPropertyOp5
 70
     1
102
RTVSPropertyOp6
 70
     1
102
RTVSPropertyOp7
 70
     1
102
RTVSPropertyOp8
 70
     1
102
RTVSPropertyOp9
 70
     1
102
RTVSPropertyOp10
 70
     1
102
RTVSPropertyOp11
 70
     1
102
RTVSPropertyOp12
 70
     1
102
RTVSPropertyOp13
 70
     1
102
RTVSPropertyOp14
 70
     1
102
RTVSPropertyOp15
 70
     1
102
RTVSPropertyOp16
 70
     1
102
RTVSPropertyOp17
 70
     1
102
RTVSPropertyOp18
 70
     1
102
RTVSPropertyOp19
 70
     1
102
RTVSPropertyOp20
 70
     1
102
RTVSPropertyOp21
 70
     1
102
RTVSPropertyOp22
 70
     1
102
RTVSPropertyOp23
 70
     1
102
RTVSPropertyOp24
 70
     1
102
RTVSPropertyOp25
 70
     1
102
RTVSPropertyOp26
 70
     1
102
RTVSPropertyOp27
 70
     1
  0
XRECORD
  5
97E
102
{ACAD_REACTORS
330
97D
102
}
330
97D
100
AcDbXrecord
280
     1
102
RTVSPropertyOp0
 70
     1
102
RTVSPropertyOp1
 70
     1
102
RTVSPropertyOp2
 70
     1
102
RTVSPropertyOp3
 70
     1
102
RTVSPropertyOp4
 70
     1
102
RTVSPropertyOp5
 70
     1
102
RTVSPropertyOp6
 70
     1
102
RTVSPropertyOp7
 70
     1
102
RTVSPropertyOp8
 70
     1
102
RTVSPropertyOp9
 70
     1
102
RTVSPropertyOp10
 70
     1
102
RTVSPropertyOp11
 70
     1
102
RTVSPropertyOp12
 70
     1
102
RTVSPropertyOp13
 70
     1
102
RTVSPropertyOp14
 70
     1
102
RTVSPropertyOp15
 70
     1
102
RTVSPropertyOp16
 70
     1
102
RTVSPropertyOp17
 70
     1
102
RTVSPropertyOp18
 70
     1
102
RTVSPropertyOp19
 70
     1
102
RTVSPropertyOp20
 70
     1
102
RTVSPropertyOp21
 70
     1
102
RTVSPropertyOp22
 70
     1
102
RTVSPropertyOp23
 70
     1
102
RTVSPropertyOp24
 70
     1
102
RTVSPropertyOp25
 70
     1
102
RTVSPropertyOp26
 70
     1
102
RTVSPropertyOp27
 70
     1
  0
XRECORD
  5
980
102
{ACAD_REACTORS
330
97F
102
}
330
97F
100
AcDbXrecord
280
     1
102
RTVSPropertyOp0
 70
     1
102
RTVSPropertyOp1
 70
     1
102
RTVSPropertyOp2
 70
     1
102
RTVSPropertyOp3
 70
     1
102
RTVSPropertyOp4
 70
     1
102
RTVSPropertyOp5
 70
     1
102
RTVSPropertyOp6
 70
     1
102
RTVSPropertyOp7
 70
     1
102
RTVSPropertyOp8
 70
     1
102
RTVSPropertyOp9
 70
     1
102
RTVSPropertyOp10
 70
     1
102
RTVSPropertyOp11
 70
     1
102
RTVSPropertyOp12
 70
     1
102
RTVSPropertyOp13
 70
     1
102
RTVSPropertyOp14
 70
     1
102
RTVSPropertyOp15
 70
     1
102
RTVSPropertyOp16
 70
     1
102
RTVSPropertyOp17
 70
     1
102
RTVSPropertyOp18
 70
     1
102
RTVSPropertyOp19
 70
     1
102
RTVSPropertyOp20
 70
     1
102
RTVSPropertyOp21
 70
     1
102
RTVSPropertyOp22
 70
     1
102
RTVSPropertyOp23
 70
     1
102
RTVSPropertyOp24
 70
     1
102
RTVSPropertyOp25
 70
     1
102
RTVSPropertyOp26
 70
     1
102
RTVSPropertyOp27
 70
     1
  0
XRECORD
  5
982
102
{ACAD_REACTORS
330
981
102
}
330
981
100
AcDbXrecord
280
     1
102
RTVSPropertyOp0
 70
     1
102
RTVSPropertyOp1
 70
     1
102
RTVSPropertyOp2
 70
     1
102
RTVSPropertyOp3
 70
     1
102
RTVSPropertyOp4
 70
     1
102
RTVSPropertyOp5
 70
     1
102
RTVSPropertyOp6
 70
     1
102
RTVSPropertyOp7
 70
     1
102
RTVSPropertyOp8
 70
     1
102
RTVSPropertyOp9
 70
     1
102
RTVSPropertyOp10
 70
     1
102
RTVSPropertyOp11
 70
     1
102
RTVSPropertyOp12
 70
     1
102
RTVSPropertyOp13
 70
     1
102
RTVSPropertyOp14
 70
     1
102
RTVSPropertyOp15
 70
     1
102
RTVSPropertyOp16
 70
     1
102
RTVSPropertyOp17
 70
     1
102
RTVSPropertyOp18
 70
     1
102
RTVSPropertyOp19
 70
     1
102
RTVSPropertyOp20
 70
     1
102
RTVSPropertyOp21
 70
     1
102
RTVSPropertyOp22
 70
     1
102
RTVSPropertyOp23
 70
     1
102
RTVSPropertyOp24
 70
     1
102
RTVSPropertyOp25
 70
     1
102
RTVSPropertyOp26
 70
     1
102
RTVSPropertyOp27
 70
     1
  0
XRECORD
  5
984
102
{ACAD_REACTORS
330
983
102
}
330
983
100
AcDbXrecord
280
     1
102
RTVSPropertyOp0
 70
     1
102
RTVSPropertyOp1
 70
     1
102
RTVSPropertyOp2
 70
     1
102
RTVSPropertyOp3
 70
     1
102
RTVSPropertyOp4
 70
     1
102
RTVSPropertyOp5
 70
     1
102
RTVSPropertyOp6
 70
     1
102
RTVSPropertyOp7
 70
     1
102
RTVSPropertyOp8
 70
     1
102
RTVSPropertyOp9
 70
     1
102
RTVSPropertyOp10
 70
     1
102
RTVSPropertyOp11
 70
     1
102
RTVSPropertyOp12
 70
     1
102
RTVSPropertyOp13
 70
     1
102
RTVSPropertyOp14
 70
     1
102
RTVSPropertyOp15
 70
     1
102
RTVSPropertyOp16
 70
     1
102
RTVSPropertyOp17
 70
     1
102
RTVSPropertyOp18
 70
     1
102
RTVSPropertyOp19
 70
     1
102
RTVSPropertyOp20
 70
     1
102
RTVSPropertyOp21
 70
     1
102
RTVSPropertyOp22
 70
     1
102
RTVSPropertyOp23
 70
     1
102
RTVSPropertyOp24
 70
     1
102
RTVSPropertyOp25
 70
     1
102
RTVSPropertyOp26
 70
     1
102
RTVSPropertyOp27
 70
     1
  0
XRECORD
  5
99E
102
{ACAD_REACTORS
330
99D
102
}
330
99D
100
AcDbXrecord
280
     1
102
RTVSPropertyOp0
 70
     0
102
RTVSPropertyOp1
 70
     0
102
RTVSPropertyOp2
 70
     0
102
RTVSPropertyOp3
 70
     0
102
RTVSPropertyOp4
 70
     0
102
RTVSPropertyOp5
 70
     0
102
RTVSPropertyOp6
 70
     0
102
RTVSPropertyOp7
 70
     0
102
RTVSPropertyOp8
 70
     0
102
RTVSPropertyOp9
 70
     0
102
RTVSPropertyOp10
 70
     0
102
RTVSPropertyOp11
 70
     0
102
RTVSPropertyOp12
 70
     0
102
RTVSPropertyOp13
 70
     0
102
RTVSPropertyOp14
 70
     2
102
RTVSPropertyOp15
 70
     0
102
RTVSPropertyOp16
 70
     0
102
RTVSPropertyOp17
 70
     0
102
RTVSPropertyOp18
 70
     0
102
RTVSPropertyOp19
 70
     0
102
RTVSPropertyOp20
 70
     0
102
RTVSPropertyOp21
 70
     0
102
RTVSPropertyOp22
 70
     0
102
RTVSPropertyOp23
 70
     0
102
RTVSPropertyOp24
 70
     0
102
RTVSPropertyOp25
 70
     0
102
RTVSPropertyOp26
 70
     0
102
RTVSPropertyOp27
 70
     0
  0
XRECORD
  5
998
102
{ACAD_REACTORS
330
997
102
}
330
997
100
AcDbXrecord
280
     1
102
RTVSPropertyOp0
 70
     1
102
RTVSPropertyOp1
 70
     1
102
RTVSPropertyOp2
 70
     1
102
RTVSPropertyOp3
 70
     1
102
RTVSPropertyOp4
 70
     1
102
RTVSPropertyOp5
 70
     1
102
RTVSPropertyOp6
 70
     1
102
RTVSPropertyOp7
 70
     1
102
RTVSPropertyOp8
 70
     1
102
RTVSPropertyOp9
 70
     1
102
RTVSPropertyOp10
 70
     1
102
RTVSPropertyOp11
 70
     1
102
RTVSPropertyOp12
 70
     1
102
RTVSPropertyOp13
 70
     1
102
RTVSPropertyOp14
 70
     1
102
RTVSPropertyOp15
 70
     1
102
RTVSPropertyOp16
 70
     1
102
RTVSPropertyOp17
 70
     1
102
RTVSPropertyOp18
 70
     1
102
RTVSPropertyOp19
 70
     1
102
RTVSPropertyOp20
 70
     1
102
RTVSPropertyOp21
 70
     1
102
RTVSPropertyOp22
 70
     1
102
RTVSPropertyOp23
 70
     1
102
RTVSPropertyOp24
 70
     1
102
RTVSPropertyOp25
 70
     1
102
RTVSPropertyOp26
 70
     1
102
RTVSPropertyOp27
 70
     1
  0
XRECORD
  5
9A0
102
{ACAD_REACTORS
330
99F
102
}
330
99F
100
AcDbXrecord
280
     1
102
RTVSPropertyOp0
 70
     0
102
RTVSPropertyOp1
 70
     0
102
RTVSPropertyOp2
 70
     0
102
RTVSPropertyOp3
 70
     0
102
RTVSPropertyOp4
 70
     0
102
RTVSPropertyOp5
 70
     0
102
RTVSPropertyOp6
 70
     0
102
RTVSPropertyOp7
 70
     0
102
RTVSPropertyOp8
 70
     0
102
RTVSPropertyOp9
 70
     0
102
RTVSPropertyOp10
 70
     0
102
RTVSPropertyOp11
 70
     0
102
RTVSPropertyOp12
 70
     0
102
RTVSPropertyOp13
 70
     0
102
RTVSPropertyOp14
 70
     2
102
RTVSPropertyOp15
 70
     0
102
RTVSPropertyOp16
 70
     0
102
RTVSPropertyOp17
 70
     0
102
RTVSPropertyOp18
 70
     0
102
RTVSPropertyOp19
 70
     0
102
RTVSPropertyOp20
 70
     0
102
RTVSPropertyOp21
 70
     0
102
RTVSPropertyOp22
 70
     0
102
RTVSPropertyOp23
 70
     0
102
RTVSPropertyOp24
 70
     0
102
RTVSPropertyOp25
 70
     0
102
RTVSPropertyOp26
 70
     0
102
RTVSPropertyOp27
 70
     0
  0
XRECORD
  5
990
102
{ACAD_REACTORS
330
98F
102
}
330
98F
100
AcDbXrecord
280
     1
102
RTVSPropertyOp0
 70
     1
102
RTVSPropertyOp1
 70
     1
102
RTVSPropertyOp2
 70
     1
102
RTVSPropertyOp3
 70
     1
102
RTVSPropertyOp4
 70
     1
102
RTVSPropertyOp5
 70
     1
102
RTVSPropertyOp6
 70
     1
102
RTVSPropertyOp7
 70
     1
102
RTVSPropertyOp8
 70
     1
102
RTVSPropertyOp9
 70
     1
102
RTVSPropertyOp10
 70
     1
102
RTVSPropertyOp11
 70
     1
102
RTVSPropertyOp12
 70
     1
102
RTVSPropertyOp13
 70
     1
102
RTVSPropertyOp14
 70
     1
102
RTVSPropertyOp15
 70
     1
102
RTVSPropertyOp16
 70
     1
102
RTVSPropertyOp17
 70
     1
102
RTVSPropertyOp18
 70
     1
102
RTVSPropertyOp19
 70
     1
102
RTVSPropertyOp20
 70
     1
102
RTVSPropertyOp21
 70
     1
102
RTVSPropertyOp22
 70
     1
102
RTVSPropertyOp23
 70
     1
102
RTVSPropertyOp24
 70
     1
102
RTVSPropertyOp25
 70
     1
102
RTVSPropertyOp26
 70
     1
102
RTVSPropertyOp27
 70
     1
  0
XRECORD
  5
996
102
{ACAD_REACTORS
330
995
102
}
330
995
100
AcDbXrecord
280
     1
102
RTVSPropertyOp0
 70
     1
102
RTVSPropertyOp1
 70
     1
102
RTVSPropertyOp2
 70
     1
102
RTVSPropertyOp3
 70
     1
102
RTVSPropertyOp4
 70
     1
102
RTVSPropertyOp5
 70
     1
102
RTVSPropertyOp6
 70
     1
102
RTVSPropertyOp7
 70
     1
102
RTVSPropertyOp8
 70
     1
102
RTVSPropertyOp9
 70
     1
102
RTVSPropertyOp10
 70
     1
102
RTVSPropertyOp11
 70
     1
102
RTVSPropertyOp12
 70
     1
102
RTVSPropertyOp13
 70
     1
102
RTVSPropertyOp14
 70
     1
102
RTVSPropertyOp15
 70
     1
102
RTVSPropertyOp16
 70
     1
102
RTVSPropertyOp17
 70
     1
102
RTVSPropertyOp18
 70
     1
102
RTVSPropertyOp19
 70
     1
102
RTVSPropertyOp20
 70
     1
102
RTVSPropertyOp21
 70
     1
102
RTVSPropertyOp22
 70
     1
102
RTVSPropertyOp23
 70
     1
102
RTVSPropertyOp24
 70
     1
102
RTVSPropertyOp25
 70
     1
102
RTVSPropertyOp26
 70
     1
102
RTVSPropertyOp27
 70
     1
  0
ENDSEC
  0
EOF
