  0
SECTION
  2
HEADER
  9
$ACADVER
  1
AC1015
  9
$ACADMAINTVER
 70
    20
  9
$DWGCODEPAGE
  3
ANSI_1252
  9
$INSBASE
 10
0.0
 20
0.0
 30
0.0
  9
$EXTMIN
 10
1147.881863316218
 20
1389.418428697317
 30
0.0
  9
$EXTMAX
 10
1151.196901946277
 20
1389.888428697317
 30
0.0
  9
$LIMMIN
 10
0.0
 20
0.0
  9
$LIMMAX
 10
420.0
 20
297.0
  9
$ORTHOMODE
 70
     1
  9
$REGENMODE
 70
     1
  9
$FILLMODE
 70
     1
  9
$QTEXTMODE
 70
     0
  9
$MIRRTEXT
 70
     0
  9
$LTSCALE
 40
1.0
  9
$ATTMODE
 70
     1
  9
$TEXTSIZE
 40
2.5
  9
$TRACEWID
 40
1.0
  9
$TEXTSTYLE
  7
Standard
  9
$CLAYER
  8
0
  9
$CELTYPE
  6
ByLayer
  9
$CECOLOR
 62
   256
  9
$CELTSCALE
 40
1.0
  9
$DISPSILH
 70
     0
  9
$DIMSCALE
 40
1.0
  9
$DIMASZ
 40
2.5
  9
$DIMEXO
 40
0.625
  9
$DIMDLI
 40
3.75
  9
$DIMRND
 40
0.0
  9
$DIMDLE
 40
0.0
  9
$DIMEXE
 40
1.25
  9
$DIMTP
 40
0.0
  9
$DIMTM
 40
0.0
  9
$DIMTXT
 40
2.5
  9
$DIMCEN
 40
2.5
  9
$DIMTSZ
 40
0.0
  9
$DIMTOL
 70
     0
  9
$DIMLIM
 70
     0
  9
$DIMTIH
 70
     0
  9
$DIMTOH
 70
     0
  9
$DIMSE1
 70
     0
  9
$DIMSE2
 70
     0
  9
$DIMTAD
 70
     1
  9
$DIMZIN
 70
     8
  9
$DIMBLK
  1

  9
$DIMASO
 70
     1
  9
$DIMSHO
 70
     1
  9
$DIMPOST
  1

  9
$DIMAPOST
  1

  9
$DIMALT
 70
     0
  9
$DIMALTD
 70
     3
  9
$DIMALTF
 40
0.03937007874016
  9
$DIMLFAC
 40
1.0
  9
$DIMTOFL
 70
     1
  9
$DIMTVP
 40
0.0
  9
$DIMTIX
 70
     0
  9
$DIMSOXD
 70
     0
  9
$DIMSAH
 70
     0
  9
$DIMBLK1
  1

  9
$DIMBLK2
  1

  9
$DIMSTYLE
  2
ISO-25
  9
$DIMCLRD
 70
     0
  9
$DIMCLRE
 70
     0
  9
$DIMCLRT
 70
     0
  9
$DIMTFAC
 40
1.0
  9
$DIMGAP
 40
0.625
  9
$DIMJUST
 70
     0
  9
$DIMSD1
 70
     0
  9
$DIMSD2
 70
     0
  9
$DIMTOLJ
 70
     0
  9
$DIMTZIN
 70
     8
  9
$DIMALTZ
 70
     0
  9
$DIMALTTZ
 70
     0
  9
$DIMUPT
 70
     0
  9
$DIMDEC
 70
     2
  9
$DIMTDEC
 70
     2
  9
$DIMALTU
 70
     2
  9
$DIMALTTD
 70
     3
  9
$DIMTXSTY
  7
Standard
  9
$DIMAUNIT
 70
     0
  9
$DIMADEC
 70
     0
  9
$DIMALTRND
 40
0.0
  9
$DIMAZIN
 70
     0
  9
$DIMDSEP
 70
    44
  9
$DIMATFIT
 70
     3
  9
$DIMFRAC
 70
     0
  9
$DIMLDRBLK
  1

  9
$DIMLUNIT
 70
     2
  9
$DIMLWD
 70
    -2
  9
$DIMLWE
 70
    -2
  9
$DIMTMOVE
 70
     0
  9
$LUNITS
 70
     2
  9
$LUPREC
 70
     4
  9
$SKETCHINC
 40
1.0
  9
$FILLETRAD
 40
0.0
  9
$AUNITS
 70
     0
  9
$AUPREC
 70
     0
  9
$MENU
  1
.
  9
$ELEVATION
 40
0.0
  9
$PELEVATION
 40
0.0
  9
$THICKNESS
 40
0.0
  9
$LIMCHECK
 70
     0
  9
$CHAMFERA
 40
0.0
  9
$CHAMFERB
 40
0.0
  9
$CHAMFERC
 40
0.0
  9
$CHAMFERD
 40
0.0
  9
$SKPOLY
 70
     0
  9
$TDCREATE
 40
2454117.567482095
  9
$TDUCREATE
 40
2454117.525815428
  9
$TDUPDATE
 40
2456142.761416007
  9
$TDUUPDATE
 40
2456142.719749340
  9
$TDINDWG
 40
0.0158183333
  9
$TDUSRTIMER
 40
0.0158183333
  9
$USRTIMER
 70
     1
  9
$ANGBASE
 50
0.0
  9
$ANGDIR
 70
     0
  9
$PDMODE
 70
     0
  9
$PDSIZE
 40
0.0
  9
$PLINEWID
 40
0.0
  9
$SPLFRAME
 70
     0
  9
$SPLINETYPE
 70
     6
  9
$SPLINESEGS
 70
     8
  9
$HANDSEED
  5
9BD
  9
$SURFTAB1
 70
     6
  9
$SURFTAB2
 70
     6
  9
$SURFTYPE
 70
     6
  9
$SURFU
 70
     6
  9
$SURFV
 70
     6
  9
$UCSBASE
  2

  9
$UCSNAME
  2

  9
$UCSORG
 10
0.0
 20
0.0
 30
0.0
  9
$UCSXDIR
 10
1.0
 20
0.0
 30
0.0
  9
$UCSYDIR
 10
0.0
 20
1.0
 30
0.0
  9
$UCSORTHOREF
  2

  9
$UCSORTHOVIEW
 70
     0
  9
$UCSORGTOP
 10
0.0
 20
0.0
 30
0.0
  9
$UCSORGBOTTOM
 10
0.0
 20
0.0
 30
0.0
  9
$UCSORGLEFT
 10
0.0
 20
0.0
 30
0.0
  9
$UCSORGRIGHT
 10
0.0
 20
0.0
 30
0.0
  9
$UCSORGFRONT
 10
0.0
 20
0.0
 30
0.0
  9
$UCSORGBACK
 10
0.0
 20
0.0
 30
0.0
  9
$PUCSBASE
  2

  9
$PUCSNAME
  2

  9
$PUCSORG
 10
0.0
 20
0.0
 30
0.0
  9
$PUCSXDIR
 10
1.0
 20
0.0
 30
0.0
  9
$PUCSYDIR
 10
0.0
 20
1.0
 30
0.0
  9
$PUCSORTHOREF
  2

  9
$PUCSORTHOVIEW
 70
     0
  9
$PUCSORGTOP
 10
0.0
 20
0.0
 30
0.0
  9
$PUCSORGBOTTOM
 10
0.0
 20
0.0
 30
0.0
  9
$PUCSORGLEFT
 10
0.0
 20
0.0
 30
0.0
  9
$PUCSORGRIGHT
 10
0.0
 20
0.0
 30
0.0
  9
$PUCSORGFRONT
 10
0.0
 20
0.0
 30
0.0
  9
$PUCSORGBACK
 10
0.0
 20
0.0
 30
0.0
  9
$USERI1
 70
     0
  9
$USERI2
 70
     0
  9
$USERI3
 70
     0
  9
$USERI4
 70
     0
  9
$USERI5
 70
     0
  9
$USERR1
 40
0.0
  9
$USERR2
 40
0.0
  9
$USERR3
 40
0.0
  9
$USERR4
 40
0.0
  9
$USERR5
 40
0.0
  9
$WORLDVIEW
 70
     1
  9
$SHADEDGE
 70
     3
  9
$SHADEDIF
 70
    70
  9
$TILEMODE
 70
     1
  9
$MAXACTVP
 70
    64
  9
$PINSBASE
 10
0.0
 20
0.0
 30
0.0
  9
$PLIMCHECK
 70
     0
  9
$PEXTMIN
 10
1.000000000000000E+20
 20
1.000000000000000E+20
 30
1.000000000000000E+20
  9
$PEXTMAX
 10
-1.000000000000000E+20
 20
-1.000000000000000E+20
 30
-1.000000000000000E+20
  9
$PLIMMIN
 10
0.0
 20
0.0
  9
$PLIMMAX
 10
420.0
 20
297.0
  9
$UNITMODE
 70
     0
  9
$VISRETAIN
 70
     1
  9
$PLINEGEN
 70
     0
  9
$PSLTSCALE
 70
     1
  9
$TREEDEPTH
 70
  3020
  9
$CMLSTYLE
  2
Standard
  9
$CMLJUST
 70
     0
  9
$CMLSCALE
 40
20.0
  9
$PROXYGRAPHICS
 70
     1
  9
$MEASUREMENT
 70
     1
  9
$CELWEIGHT
370
    -1
  9
$ENDCAPS
280
     0
  9
$JOINSTYLE
280
     0
  9
$LWDISPLAY
290
     0
  9
$INSUNITS
 70
     4
  9
$HYPERLINKBASE
  1

  9
$STYLESHEET
  1

  9
$XEDIT
290
     1
  9
$CEPSNTYPE
380
     0
  9
$PSTYLEMODE
290
     1
  9
$FINGERPRINTGUID
  2
{0B1F5A9A-4A5C-401D-BB95-5CBC8BCF5B89}
  9
$VERSIONGUID
  2
{7759EE04-1DBC-4E15-9A6A-EE6E66FD2EA2}
  9
$EXTNAMES
290
     1
  9
$PSVPSCALE
 40
0.0
  9
$OLESTARTUP
290
     0
  0
ENDSEC
  0
SECTION
  2
CLASSES
  0
CLASS
  1
ACDBDICTIONARYWDFLT
  2
AcDbDictionaryWithDefault
  3
ObjectDBX Classes
 90
        0
280
     0
281
     0
  0
CLASS
  1
TABLESTYLE
  2
AcDbTableStyle
  3
ObjectDBX Classes
 90
     4095
280
     0
281
     0
  0
CLASS
  1
DIMASSOC
  2
AcDbDimAssoc
  3
"AcDbDimAssoc|Product Desc:     AcDim ARX App For Dimension|Company:          Autodesk, Inc.|WEB Address:      www.autodesk.com"
 90
    32768
280
     0
281
     0
  0
CLASS
  1
SORTENTSTABLE
  2
AcDbSortentsTable
  3
ObjectDBX Classes
 90
        0
280
     0
281
     0
  0
CLASS
  1
DICTIONARYVAR
  2
AcDbDictionaryVar
  3
ObjectDBX Classes
 90
        0
280
     0
281
     0
  0
CLASS
  1
ACDBPLACEHOLDER
  2
AcDbPlaceHolder
  3
ObjectDBX Classes
 90
        0
280
     0
281
     0
  0
CLASS
  1
LAYOUT
  2
AcDbLayout
  3
ObjectDBX Classes
 90
        0
280
     0
281
     0
  0
CLASS
  1
MATERIAL
  2
AcDbMaterial
  3
ObjectDBX Classes
 90
     1153
280
     0
281
     0
  0
CLASS
  1
VISUALSTYLE
  2
AcDbVisualStyle
  3
ObjectDBX Classes
 90
     4095
280
     0
281
     0
  0
CLASS
  1
SCALE
  2
AcDbScale
  3
ObjectDBX Classes
 90
     1153
280
     0
281
     0
  0
CLASS
  1
MLEADERSTYLE
  2
AcDbMLeaderStyle
  3
ACDB_MLEADERSTYLE_CLASS
 90
     4095
280
     0
281
     0
  0
CLASS
  1
CELLSTYLEMAP
  2
AcDbCellStyleMap
  3
ObjectDBX Classes
 90
     1152
280
     0
281
     0
  0
ENDSEC
  0
SECTION
  2
TABLES
  0
TABLE
  2
VPORT
  5
8
330
0
100
AcDbSymbolTable
 70
     1
  0
VPORT
  5
925
330
8
100
AcDbSymbolTableRecord
100
AcDbViewportTableRecord
  2
*Active
 70
     0
 10
0.0
 20
0.0
 11
1.0
 21
1.0
 12
1149.59490097341
 22
1389.653428697317
 13
0.0
 23
0.0
 14
10.0
 24
10.0
 15
10.0
 25
10.0
 16
0.0
 26
0.0
 36
1.0
 17
0.0
 27
0.0
 37
0.0
 40
2.089785777958544
 41
1.645464025026068
 42
50.0
 43
0.0
 44
0.0
 50
0.0
 51
0.0
 71
     0
 72
  1000
 73
     1
 74
     3
 75
     0
 76
     0
 77
     0
 78
     0
281
     0
 65
     1
110
0.0
120
0.0
130
0.0
111
1.0
121
0.0
131
0.0
112
0.0
122
1.0
132
0.0
 79
     0
146
0.0
  0
ENDTAB
  0
TABLE
  2
LTYPE
  5
5
330
0
100
AcDbSymbolTable
 70
     3
  0
LTYPE
  5
14
330
5
100
AcDbSymbolTableRecord
100
AcDbLinetypeTableRecord
  2
ByBlock
 70
     0
  3

 72
    65
 73
     0
 40
0.0
  0
LTYPE
  5
15
330
5
100
AcDbSymbolTableRecord
100
AcDbLinetypeTableRecord
  2
ByLayer
 70
     0
  3

 72
    65
 73
     0
 40
0.0
  0
LTYPE
  5
16
330
5
100
AcDbSymbolTableRecord
100
AcDbLinetypeTableRecord
  2
Continuous
 70
     0
  3
Solid line
 72
    65
 73
     0
 40
0.0
  0
LTYPE
  5
202
330
5
100
AcDbSymbolTableRecord
100
AcDbLinetypeTableRecord
  2
DASHDOT
 70
     0
  3
Dash dot __ . __ . __ . __ . __ . __ . __ . __
 72
    65
 73
     4
 40
25.4
 49
12.7
 74
     0
 49
-6.349999999999999
 74
     0
 49
0.0
 74
     0
 49
-6.349999999999999
 74
     0
  0
LTYPE
  5
203
330
5
100
AcDbSymbolTableRecord
100
AcDbLinetypeTableRecord
  2
HIDDEN
 70
     0
  3
Hidden __ __ __ __ __ __ __ __ __ __ __ __ __ _
 72
    65
 73
     2
 40
9.524999999999998
 49
6.349999999999999
 74
     0
 49
-3.174999999999999
 74
     0
  0
ENDTAB
  0
TABLE
  2
LAYER
  5
2
330
0
100
AcDbSymbolTable
 70
     9
  0
LAYER
  5
10
102
{ACAD_XDICTIONARY
360
971
102
}
330
2
100
AcDbSymbolTableRecord
100
AcDbLayerTableRecord
  2
0
 70
     0
 62
     7
  6
Continuous
370
    -3
390
F
  0
LAYER
  5
204
102
{ACAD_XDICTIONARY
360
973
102
}
330
2
100
AcDbSymbolTableRecord
100
AcDbLayerTableRecord
  2
4
 70
     0
 62
     4
  6
Continuous
370
    -3
390
F
  0
LAYER
  5
205
102
{ACAD_XDICTIONARY
360
975
102
}
330
2
100
AcDbSymbolTableRecord
100
AcDbLayerTableRecord
  2
cen
 70
     0
 62
     7
  6
DASHDOT
370
    -3
390
F
  0
LAYER
  5
206
102
{ACAD_XDICTIONARY
360
977
102
}
330
2
100
AcDbSymbolTableRecord
100
AcDbLayerTableRecord
  2
hid
 70
     0
 62
     7
  6
HIDDEN
370
    -3
390
F
  0
LAYER
  5
207
102
{ACAD_XDICTIONARY
360
979
102
}
330
2
100
AcDbSymbolTableRecord
100
AcDbLayerTableRecord
  2
hatch
 70
     0
 62
     9
  6
Continuous
370
    -3
390
F
  0
LAYER
  5
208
102
{ACAD_XDICTIONARY
360
97B
102
}
330
2
100
AcDbSymbolTableRecord
100
AcDbLayerTableRecord
  2
9
 70
     0
 62
     9
  6
Continuous
370
    -3
390
F
  0
LAYER
  5
209
102
{ACAD_XDICTIONARY
360
97D
102
}
330
2
100
AcDbSymbolTableRecord
100
AcDbLayerTableRecord
  2
cotas
 70
     0
 62
     1
  6
Continuous
370
    -3
390
F
  0
LAYER
  5
20A
330
2
100
AcDbSymbolTableRecord
100
AcDbLayerTableRecord
  2
Defpoints
 70
     0
 62
     7
  6
Continuous
290
     0
370
    -3
390
F
  0
LAYER
  5
20B
102
{ACAD_XDICTIONARY
360
97F
102
}
330
2
100
AcDbSymbolTableRecord
100
AcDbLayerTableRecord
  2
SANINDUSA
 70
     0
 62
     3
  6
Continuous
370
    -3
390
F
  0
ENDTAB
  0
TABLE
  2
STYLE
  5
3
330
0
100
AcDbSymbolTable
 70
     2
  0
STYLE
  5
11
330
3
100
AcDbSymbolTableRecord
100
AcDbTextStyleTableRecord
  2
Standard
 70
     0
 40
0.0
 41
1.0
 50
0.0
 71
     0
 42
2.5
  3
txt
  4

  0
STYLE
  5
20C
330
3
100
AcDbSymbolTableRecord
100
AcDbTextStyleTableRecord
  2
SANINDUSA
 70
     0
 40
0.0
 41
1.0
 50
0.0
 71
     0
 42
2.5
  3
verdana.TTF
  4

1001
ACAD
1000
Verdana
1071
       34
  0
ENDTAB
  0
TABLE
  2
VIEW
  5
6
330
0
100
AcDbSymbolTable
 70
     0
  0
ENDTAB
  0
TABLE
  2
UCS
  5
7
330
0
100
AcDbSymbolTable
 70
     0
  0
ENDTAB
  0
TABLE
  2
APPID
  5
9
330
0
100
AcDbSymbolTable
 70
     8
  0
APPID
  5
12
330
9
100
AcDbSymbolTableRecord
100
AcDbRegAppTableRecord
  2
ACAD
 70
     0
  0
APPID
  5
20E
330
9
100
AcDbSymbolTableRecord
100
AcDbRegAppTableRecord
  2
ACAD_DSTYLE_DIMEXT_LENGTH
 70
     0
  0
APPID
  5
20F
330
9
100
AcDbSymbolTableRecord
100
AcDbRegAppTableRecord
  2
ACAD_DSTYLE_DIMEXT_ENABLED
 70
     0
  0
APPID
  5
210
330
9
100
AcDbSymbolTableRecord
100
AcDbRegAppTableRecord
  2
ACAD_DSTYLE_DIMJOGGED_JOGANGLE_SYMBOL
 70
     0
  0
APPID
  5
211
330
9
100
AcDbSymbolTableRecord
100
AcDbRegAppTableRecord
  2
ACAD_DSTYLE_DIMARC_LENGTH_SYMBOL
 70
     0
  0
APPID
  5
212
330
9
100
AcDbSymbolTableRecord
100
AcDbRegAppTableRecord
  2
ACAD_PSEXT
 70
     0
  0
APPID
  5
8EA
330
9
100
AcDbSymbolTableRecord
100
AcDbRegAppTableRecord
  2
ACAD_EXEMPT_FROM_CAD_STANDARDS
 70
     0
  0
APPID
  5
9BC
330
9
100
AcDbSymbolTableRecord
100
AcDbRegAppTableRecord
  2
ACAD_MLEADERVER
 70
     0
  0
ENDTAB
  0
TABLE
  2
DIMSTYLE
  5
A
330
0
100
AcDbSymbolTable
 70
     2
100
AcDbDimStyleTable
 71
     1
340
2B
  0
DIMSTYLE
105
2B
330
A
100
AcDbSymbolTableRecord
100
AcDbDimStyleTableRecord
  2
ISO-25
 70
     0
 41
2.5
 42
0.625
 43
3.75
 44
1.25
 73
     0
 74
     0
 77
     1
 78
     8
140
2.5
141
2.5
143
0.03937007874016
147
0.625
171
     3
172
     1
271
     2
272
     2
274
     3
278
    44
283
     0
284
     8
340
11
  0
DIMSTYLE
105
20D
330
A
100
AcDbSymbolTableRecord
100
AcDbDimStyleTableRecord
  2
SANINDUSA
 70
     0
 40
5.0
 41
2.0
 42
1.0
 43
1.0
 44
1.0
 73
     0
 74
     0
 77
     1
 78
     8
140
2.0
141
0.0
143
0.03937007874016
147
1.0
171
     3
172
     1
176
   256
177
   256
178
   256
179
     1
271
     1
272
     1
274
     3
278
    44
283
     0
284
     8
340
20C
371
    -1
372
    -1
1001
ACAD_DSTYLE_DIMJOGGED_JOGANGLE_SYMBOL
1070
   384
1040
1.570796326794896
  0
ENDTAB
  0
TABLE
  2
BLOCK_RECORD
  5
1
330
0
100
AcDbSymbolTable
 70
     2
  0
BLOCK_RECORD
  5
23
102
{ACAD_XDICTIONARY
360
8E6
102
}
330
1
100
AcDbSymbolTableRecord
100
AcDbBlockTableRecord
  2
*Model_Space
340
26
  0
BLOCK_RECORD
  5
1F
330
1
100
AcDbSymbolTableRecord
100
AcDbBlockTableRecord
  2
*Paper_Space
340
22
  0
BLOCK_RECORD
  5
27
330
1
100
AcDbSymbolTableRecord
100
AcDbBlockTableRecord
  2
*Paper_Space0
340
2A
  0
BLOCK_RECORD
  5
2F
330
1
100
AcDbSymbolTableRecord
100
AcDbBlockTableRecord
  2
_DotSmall
340
0
  0
ENDTAB
  0
ENDSEC
  0
SECTION
  2
BLOCKS
  0
BLOCK
  5
24
330
23
100
AcDbEntity
  8
0
100
AcDbBlockBegin
  2
*Model_Space
 70
     0
 10
0.0
 20
0.0
 30
0.0
  3
*Model_Space
  1

  0
ENDBLK
  5
25
330
23
100
AcDbEntity
  8
0
100
AcDbBlockEnd
  0
BLOCK
  5
20
330
1F
100
AcDbEntity
 67
     1
  8
0
100
AcDbBlockBegin
  2
*Paper_Space
 70
     0
 10
0.0
 20
0.0
 30
0.0
  3
*Paper_Space
  1

  0
ENDBLK
  5
21
330
1F
100
AcDbEntity
 67
     1
  8
0
100
AcDbBlockEnd
  0
BLOCK
  5
28
330
27
100
AcDbEntity
 67
     1
  8
0
100
AcDbBlockBegin
  2
*Paper_Space0
 70
     0
 10
0.0
 20
0.0
 30
0.0
  3
*Paper_Space0
  1

  0
ENDBLK
  5
29
330
27
100
AcDbEntity
 67
     1
  8
0
100
AcDbBlockEnd
  0
BLOCK
  5
30
330
2F
100
AcDbEntity
  8
0
100
AcDbBlockBegin
  2
_DotSmall
 70
     0
 10
0.0
 20
0.0
 30
0.0
  3
_DotSmall
  1

  0
LWPOLYLINE
  5
31
330
2F
100
AcDbEntity
  8
0
  6
ByBlock
 62
     0
100
AcDbPolyline
 90
        2
 70
     1
 43
0.5
 10
-0.0625
 20
0.0
 42
1.0
 10
0.0625
 20
0.0
 42
1.0
  0
ENDBLK
  5
32
330
2F
100
AcDbEntity
  8
0
100
AcDbBlockEnd
  0
ENDSEC
  0
SECTION
  2
ENTITIES
  0
LINE
  5
3FA
330
23
100
AcDbEntity
  8
SANINDUSA
100
AcDbLine
 10
1149.416146174518
 20
1389.64276107237
 30
0.0
 11
1149.881146163194
 21
1389.64276107237
 31
0.0
  0
LINE
  5
3FB
330
23
100
AcDbEntity
  8
SANINDUSA
100
AcDbLine
 10
1149.416146174518
 20
1389.542761070879
 30
0.0
 11
1148.951146170942
 21
1389.542761070879
 31
0.0
  0
LINE
  5
3FE
330
23
100
AcDbEntity
  8
SANINDUSA
100
AcDbLine
 10
1149.416146174518
 20
1389.542761070879
 30
0.0
 11
1149.416146174518
 21
1389.64276107237
 31
0.0
  0
LINE
  5
3FF
330
23
100
AcDbEntity
  8
SANINDUSA
100
AcDbLine
 10
1148.951146170942
 20
1389.74276107386
 30
0.0
 11
1149.881146163194
 21
1389.74276107386
 31
0.0
  0
ARC
  5
402
330
23
100
AcDbEntity
  8
SANINDUSA
100
AcDbCircle
 10
1148.951146175114
 20
1389.737761072935
 30
0.0
 40
0.005
100
AcDbArc
 50
90.0
 51
180.0
  0
LINE
  5
404
330
23
100
AcDbEntity
  8
SANINDUSA
100
AcDbLine
 10
1148.946146175711
 20
1389.542761070879
 30
0.0
 11
1148.946146175711
 21
1389.737761071178
 31
0.0
  0
LINE
  5
405
330
23
100
AcDbEntity
  8
SANINDUSA
100
AcDbLine
 10
1148.951146170942
 20
1389.542761070879
 30
0.0
 11
1148.946146175711
 21
1389.542761070879
 31
0.0
  0
LINE
  5
407
330
23
100
AcDbEntity
  8
SANINDUSA
100
AcDbLine
 10
1149.886146158425
 20
1389.737761071178
 30
0.0
 11
1149.886146158425
 21
1389.64276107237
 31
0.0
  0
LINE
  5
408
330
23
100
AcDbEntity
  8
SANINDUSA
100
AcDbLine
 10
1149.886146158425
 20
1389.64276107237
 30
0.0
 11
1149.881146163194
 21
1389.64276107237
 31
0.0
  0
ARC
  5
409
330
23
100
AcDbEntity
  8
SANINDUSA
100
AcDbCircle
 10
1149.881146175115
 20
1389.737761072935
 30
0.0
 40
0.005
100
AcDbArc
 50
0.0
 51
90.0
  0
LINE
  5
40A
330
23
100
AcDbEntity
  8
SANINDUSA
100
AcDbLine
 10
1149.841483086793
 20
1389.64276107237
 30
0.0
 11
1149.824176997392
 21
1389.60564797953
 31
0.0
  0
LINE
  5
40D
330
23
100
AcDbEntity
  8
SANINDUSA
100
AcDbLine
 10
1149.819645435063
 20
1389.602761073264
 30
0.0
 11
1149.416146174518
 21
1389.602761073264
 31
0.0
  0
ARC
  5
40E
330
23
100
AcDbEntity
  8
SANINDUSA
100
AcDbCircle
 10
1149.819645440903
 20
1389.607761072935
 30
0.0
 40
0.005
100
AcDbArc
 50
270.0
 51
334.999999996317
  0
ARC
  5
413
330
23
100
AcDbEntity
  8
SANINDUSA
100
AcDbCircle
 10
1147.886863316218
 20
1389.883428697317
 30
0.0
 40
0.005
100
AcDbArc
 50
90.0
 51
180.0
  0
LINE
  5
415
330
23
100
AcDbEntity
  8
SANINDUSA
100
AcDbLine
 10
1147.886863312046
 20
1389.888428696721
 30
0.0
 11
1148.816863304297
 21
1389.888428696721
 31
0.0
  0
ARC
  5
417
330
23
100
AcDbEntity
  8
SANINDUSA
100
AcDbCircle
 10
1148.816863316218
 20
1389.883428697317
 30
0.0
 40
0.005
100
AcDbArc
 50
0.0
 51
90.0
  0
LINE
  5
419
330
23
100
AcDbEntity
  8
SANINDUSA
100
AcDbLine
 10
1147.881863316814
 20
1389.423428693145
 30
0.0
 11
1147.881863316814
 21
1389.883428701489
 31
0.0
  0
LINE
  5
41D
330
23
100
AcDbEntity
  8
SANINDUSA
100
AcDbLine
 10
1148.821863299529
 20
1389.883428701489
 30
0.0
 11
1148.821863299529
 21
1389.423428693145
 31
0.0
  0
CIRCLE
  5
421
330
23
100
AcDbEntity
  8
SANINDUSA
100
AcDbCircle
 10
1148.116863316218
 20
1389.653428697317
 30
0.0
 40
0.1988124410476045
  0
LINE
  5
423
330
23
100
AcDbEntity
  8
SANINDUSA
100
AcDbLine
 10
1148.816863304297
 20
1389.418428697913
 30
0.0
 11
1147.886863312046
 21
1389.418428697913
 31
0.0
  0
ARC
  5
425
330
23
100
AcDbEntity
  8
SANINDUSA
100
AcDbCircle
 10
1147.886863316218
 20
1389.423428697317
 30
0.0
 40
0.005
100
AcDbArc
 50
180.0
 51
270.0
  0
ARC
  5
426
330
23
100
AcDbEntity
  8
SANINDUSA
100
AcDbCircle
 10
1148.816863316218
 20
1389.423428697317
 30
0.0
 40
0.005
100
AcDbArc
 50
270.0
 51
0.0
  0
CIRCLE
  5
428
330
23
100
AcDbEntity
  8
SANINDUSA
100
AcDbCircle
 10
1148.116863316218
 20
1389.653428697317
 30
0.0
 40
0.1736150801752578
  0
CIRCLE
  5
42A
330
23
100
AcDbEntity
  8
SANINDUSA
100
AcDbCircle
 10
1148.116863316218
 20
1389.653428697317
 30
0.0
 40
0.1496006823796284
  0
ARC
  5
433
330
23
100
AcDbEntity
  8
SANINDUSA
100
AcDbCircle
 10
1150.094101452238
 20
1389.737761072935
 30
0.0
 40
0.005
100
AcDbArc
 50
90.0
 51
180.0
  0
LINE
  5
436
330
23
100
AcDbEntity
  8
SANINDUSA
100
AcDbLine
 10
1150.089101452834
 20
1389.542761070879
 30
0.0
 11
1150.089101452834
 21
1389.737761071178
 31
0.0
  0
LINE
  5
438
330
23
100
AcDbEntity
  8
SANINDUSA
100
AcDbLine
 10
1150.094101448066
 20
1389.542761070879
 30
0.0
 11
1150.089101452834
 21
1389.542761070879
 31
0.0
  0
LINE
  5
43A
330
23
100
AcDbEntity
  8
SANINDUSA
100
AcDbLine
 10
1150.094101448066
 20
1389.74276107386
 30
0.0
 11
1150.55410145641
 21
1389.74276107386
 31
0.0
  0
LINE
  5
43D
330
23
100
AcDbEntity
  8
SANINDUSA
100
AcDbLine
 10
1150.55410145641
 20
1389.542761070879
 30
0.0
 11
1150.094101448066
 21
1389.542761070879
 31
0.0
  0
ARC
  5
43E
330
23
100
AcDbEntity
  8
SANINDUSA
100
AcDbCircle
 10
1150.554101452238
 20
1389.737761072935
 30
0.0
 40
0.005
100
AcDbArc
 50
0.0
 51
90.0
  0
LINE
  5
440
330
23
100
AcDbEntity
  8
SANINDUSA
100
AcDbLine
 10
1150.559101451642
 20
1389.737761071178
 30
0.0
 11
1150.559101451642
 21
1389.542761070879
 31
0.0
  0
LINE
  5
441
330
23
100
AcDbEntity
  8
SANINDUSA
100
AcDbLine
 10
1150.559101451642
 20
1389.542761070879
 30
0.0
 11
1150.55410145641
 21
1389.542761070879
 31
0.0
  0
LINE
  5
446
330
23
100
AcDbEntity
  8
SANINDUSA
100
AcDbLine
 10
1151.141414163918
 20
1389.652761074009
 30
0.0
 11
1150.769888786883
 21
1389.652761074009
 31
0.0
  0
ARC
  5
449
330
23
100
AcDbEntity
  8
SANINDUSA
100
AcDbCircle
 10
1150.769456620917
 20
1389.657761072935
 30
0.0
 40
0.005
100
AcDbArc
 50
270.0
 51
348.000000006008
  0
ARC
  5
44C
330
23
100
AcDbEntity
  8
SANINDUSA
100
AcDbCircle
 10
1151.154347271637
 20
1389.657761072935
 30
0.0
 40
0.005
100
AcDbArc
 50
191.9999999939919
 51
194.7883209893801
  0
LWPOLYLINE
  5
44D
330
23
100
AcDbEntity
  8
SANINDUSA
100
AcDbPolyline
 90
        3
 70
   128
 43
0.0
 10
1150.785972176403
 20
1389.711412003489
 10
1150.780159754962
 20
1389.684066687936
 10
1150.774347363324
 20
1389.656721515807
  0
LINE
  5
44E
330
23
100
AcDbEntity
  8
SANINDUSA
100
AcDbLine
 10
1150.77521255241
 20
1389.713699030277
 30
0.0
 11
1150.769400130969
 21
1389.686353714724
 31
0.0
  0
LINE
  5
44F
330
23
100
AcDbEntity
  8
SANINDUSA
100
AcDbLine
 10
1150.769400130969
 20
1389.686353714724
 30
0.0
 11
1150.764553727417
 21
1389.663553162459
 31
0.0
  0
ARC
  5
450
330
23
100
AcDbEntity
  8
SANINDUSA
100
AcDbCircle
 10
1150.763575579786
 20
1389.663761074009
 30
0.0
 40
0.001
100
AcDbArc
 50
270.0
 51
348.0000082768621
  0
LINE
  5
456
330
23
100
AcDbEntity
  8
SANINDUSA
100
AcDbLine
 10
1151.14945652923
 20
1389.656721515807
 30
0.0
 11
1151.13783171615
 21
1389.711412003489
 31
0.0
  0
LINE
  5
457
330
23
100
AcDbEntity
  8
SANINDUSA
100
AcDbLine
 10
1151.160565882348
 20
1389.65736319516
 30
0.0
 11
1151.148591340116
 21
1389.713699030406
 31
0.0
  0
ARC
  5
458
330
23
100
AcDbEntity
  8
SANINDUSA
100
AcDbCircle
 10
1151.159587734715
 20
1389.657155283622
 30
0.0
 40
0.001
100
AcDbArc
 50
7.999999473008214
 51
11.99999104345722
  0
ARC
  5
459
330
23
100
AcDbEntity
  8
SANINDUSA
100
AcDbCircle
 10
1150.793575322797
 20
1389.707761072935
 30
0.0
 40
0.0099999999999999
100
AcDbArc
 50
4.999999996291115
 51
83.62590836523512
  0
ARC
  5
45A
330
23
100
AcDbEntity
  8
SANINDUSA
100
AcDbCircle
 10
1150.793797361902
 20
1389.709748709379
 30
0.0
 40
0.0080000000000001
100
AcDbArc
 50
83.62590836523512
 51
168.000000006008
  0
ARC
  5
45B
330
23
100
AcDbEntity
  8
SANINDUSA
100
AcDbCircle
 10
1150.793797361902
 20
1389.709748709379
 30
0.0
 40
0.0190000000000001
100
AcDbArc
 50
149.3289895363513
 51
168.000000006008
  0
ARC
  5
45C
330
23
100
AcDbEntity
  8
SANINDUSA
100
AcDbCircle
 10
1150.776595152357
 20
1389.719950865366
 30
0.0
 40
0.001
100
AcDbArc
 50
329.3289895363513
 51
59.03624346792648
  0
ARC
  5
45D
330
23
100
AcDbEntity
  8
SANINDUSA
100
AcDbCircle
 10
1151.076719935288
 20
1389.69191938698
 30
0.0
 40
0.0050000000000002
100
AcDbArc
 50
271.4999999978369
 51
357.9999999962464
  0
LINE
  5
45E
330
23
100
AcDbEntity
  8
SANINDUSA
100
AcDbLine
 10
1151.081737792403
 20
1389.692343559342
 30
0.0
 11
1151.081716886074
 21
1389.691744889591
 31
0.0
  0
ARC
  5
45F
330
23
100
AcDbEntity
  8
SANINDUSA
100
AcDbCircle
 10
1151.086734749571
 20
1389.692169061871
 30
0.0
 40
0.0050000000000002
100
AcDbArc
 50
91.49999999783688
 51
177.9999999962464
  0
LINE
  5
460
330
23
100
AcDbEntity
  8
SANINDUSA
100
AcDbLine
 10
1151.104816152066
 20
1389.697644253953
 30
0.0
 11
1151.086603863448
 21
1389.697167348575
 31
0.0
  0
ARC
  5
461
330
23
100
AcDbEntity
  8
SANINDUSA
100
AcDbCircle
 10
1151.104685260254
 20
1389.702642540461
 30
0.0
 40
0.0050000000000002
100
AcDbArc
 50
271.4999999978369
 51
355.0000000037089
  0
LINE
  5
462
330
23
100
AcDbEntity
  8
SANINDUSA
100
AcDbLine
 10
1151.11150263092
 20
1389.723196851315
 30
0.0
 11
1151.109666226715
 21
1389.702206761802
 31
0.0
  0
ARC
  5
463
330
23
100
AcDbEntity
  8
SANINDUSA
100
AcDbCircle
 10
1151.116483602147
 20
1389.722761072935
 30
0.0
 40
0.0050000000000001
100
AcDbArc
 50
90.0
 51
175.0000000037089
  0
LINE
  5
464
330
23
100
AcDbEntity
  8
SANINDUSA
100
AcDbLine
 10
1151.135517029375
 20
1389.727761073264
 30
0.0
 11
1151.116483597368
 21
1389.727761073264
 31
0.0
  0
ARC
  5
465
330
23
100
AcDbEntity
  8
SANINDUSA
100
AcDbCircle
 10
1151.135517026452
 20
1389.732761072935
 30
0.0
 40
0.005
100
AcDbArc
 50
270.0
 51
300.9637565320735
  0
LINE
  5
466
330
23
100
AcDbEntity
  8
SANINDUSA
100
AcDbLine
 10
1151.160714386315
 20
1389.742048537584
 30
0.0
 11
1151.138089506239
 21
1389.728473609539
 31
0.0
  0
LINE
  5
467
330
23
100
AcDbEntity
  8
SANINDUSA
100
AcDbLine
 10
1151.164711258598
 20
1389.731618566785
 30
0.0
 11
1151.146694244441
 21
1389.720808358291
 31
0.0
  0
ARC
  5
468
330
23
100
AcDbEntity
  8
SANINDUSA
100
AcDbCircle
 10
1151.163286866102
 20
1389.737761072935
 30
0.0
 40
0.005
100
AcDbArc
 50
90.0
 51
120.9637565320735
  0
LINE
  5
469
330
23
100
AcDbEntity
  8
SANINDUSA
100
AcDbLine
 10
1151.191901950449
 20
1389.74276107386
 30
0.0
 11
1151.163286863178
 21
1389.74276107386
 31
0.0
  0
LINE
  5
46A
330
23
100
AcDbEntity
  8
SANINDUSA
100
AcDbLine
 10
1151.184901945681
 20
1389.731761073859
 30
0.0
 11
1151.165225754353
 21
1389.731761073859
 31
0.0
  0
ARC
  5
46B
330
23
100
AcDbEntity
  8
SANINDUSA
100
AcDbCircle
 10
1151.165225754353
 20
1389.73076107386
 30
0.0
 40
0.001
100
AcDbArc
 50
90.0
 51
120.9637565320735
  0
ARC
  5
46C
330
23
100
AcDbEntity
  8
SANINDUSA
100
AcDbCircle
 10
1151.191901946277
 20
1389.737761072935
 30
0.0
 40
0.005
100
AcDbArc
 50
0.0
 51
90.0
  0
LINE
  5
46D
330
23
100
AcDbEntity
  8
SANINDUSA
100
AcDbLine
 10
1151.196901945681
 20
1389.542761070879
 30
0.0
 11
1151.196901945681
 21
1389.737761071178
 31
0.0
  0
LINE
  5
46E
330
23
100
AcDbEntity
  8
SANINDUSA
100
AcDbLine
 10
1151.185901945681
 20
1389.564293712196
 30
0.0
 11
1151.185901945681
 21
1389.73076107386
 31
0.0
  0
ARC
  5
46F
330
23
100
AcDbEntity
  8
SANINDUSA
100
AcDbCircle
 10
1151.184901945681
 20
1389.73076107386
 30
0.0
 40
0.001
100
AcDbArc
 50
0.0
 51
90.0
  0
LINE
  5
470
330
23
100
AcDbEntity
  8
SANINDUSA
100
AcDbLine
 10
1151.196901945681
 20
1389.542761070879
 30
0.0
 11
1151.186901940316
 21
1389.542761070879
 31
0.0
  0
LINE
  5
471
330
23
100
AcDbEntity
  8
SANINDUSA
100
AcDbLine
 10
1151.185867218584
 20
1389.54862931207
 30
0.0
 11
1151.186901940316
 21
1389.542761070879
 31
0.0
  0
ARC
  5
472
330
23
100
AcDbEntity
  8
SANINDUSA
100
AcDbCircle
 10
1151.180943178314
 20
1389.547761072934
 30
0.0
 40
0.005
100
AcDbArc
 50
10.00000000122301
 51
90.0
  0
ARC
  5
473
330
23
100
AcDbEntity
  8
SANINDUSA
100
AcDbCircle
 10
1151.180943178314
 20
1389.547761072934
 30
0.0
 40
0.016
100
AcDbArc
 50
76.53397868105345
 51
90.0
  0
ARC
  5
474
330
23
100
AcDbEntity
  8
SANINDUSA
100
AcDbCircle
 10
1151.184901945681
 20
1389.564293712196
 30
0.0
 40
0.001
100
AcDbArc
 50
256.5339786810534
 51
0.0
  0
LINE
  5
475
330
23
100
AcDbEntity
  8
SANINDUSA
100
AcDbLine
 10
1151.168507544607
 20
1389.552761076244
 30
0.0
 11
1151.180943174571
 21
1389.552761076244
 31
0.0
  0
LINE
  5
476
330
23
100
AcDbEntity
  8
SANINDUSA
100
AcDbLine
 10
1151.174592548024
 20
1389.563761076244
 30
0.0
 11
1151.180943174571
 21
1389.563761076244
 31
0.0
  0
ARC
  5
477
330
23
100
AcDbEntity
  8
SANINDUSA
100
AcDbCircle
 10
1151.168507544193
 20
1389.557761072935
 30
0.0
 40
0.005
100
AcDbArc
 50
187.9999999981044
 51
270.0
  0
LINE
  5
478
330
23
100
AcDbEntity
  8
SANINDUSA
100
AcDbLine
 10
1151.149746818751
 20
1389.655324073734
 30
0.0
 11
1151.163556201667
 21
1389.557065202149
 31
0.0
  0
LINE
  5
479
330
23
100
AcDbEntity
  8
SANINDUSA
100
AcDbLine
 10
1151.160578002785
 20
1389.657294456714
 30
0.0
 11
1151.173602279954
 21
1389.564621903152
 31
0.0
  0
ARC
  5
47A
330
23
100
AcDbEntity
  8
SANINDUSA
100
AcDbCircle
 10
1151.174592548024
 20
1389.564761076244
 30
0.0
 40
0.001
100
AcDbArc
 50
187.9999994730082
 51
270.0
  0
ARC
  5
47B
330
23
100
AcDbEntity
  8
SANINDUSA
100
AcDbCircle
 10
1151.139844140069
 20
1389.653932342764
 30
0.0
 40
0.01
100
AcDbArc
 50
7.999999998104389
 51
14.78832098938011
  0
ARC
  5
47C
330
23
100
AcDbEntity
  8
SANINDUSA
100
AcDbCircle
 10
1151.130006530652
 20
1389.709748709379
 30
0.0
 40
0.0080000000000001
100
AcDbArc
 50
11.99999999399198
 51
96.3740916347649
  0
ARC
  5
47D
330
23
100
AcDbEntity
  8
SANINDUSA
100
AcDbCircle
 10
1151.130006530652
 20
1389.709748709379
 30
0.0
 40
0.0190000000000001
100
AcDbArc
 50
11.99999999399198
 51
30.67101046364867
  0
ARC
  5
47E
330
23
100
AcDbEntity
  8
SANINDUSA
100
AcDbCircle
 10
1151.147208740197
 20
1389.719950865366
 30
0.0
 40
0.001
100
AcDbArc
 50
120.9637565320735
 51
210.6710104636487
  0
ARC
  5
47F
330
23
100
AcDbEntity
  8
SANINDUSA
100
AcDbCircle
 10
1151.130228569757
 20
1389.707761072935
 30
0.0
 40
0.0100000000000002
100
AcDbArc
 50
96.3740916347649
 51
175.0000000037089
  0
LINE
  5
480
330
23
100
AcDbEntity
  8
SANINDUSA
100
AcDbLine
 10
1151.119628174514
 20
1389.701335204525
 30
0.0
 11
1151.120266629666
 21
1389.708632630522
 31
0.0
  0
ARC
  5
481
330
23
100
AcDbEntity
  8
SANINDUSA
100
AcDbCircle
 10
1151.104685260254
 20
1389.702642540461
 30
0.0
 40
0.0150000000000001
100
AcDbArc
 50
271.4999999978369
 51
355.0000000037089
  0
LINE
  5
482
330
23
100
AcDbEntity
  8
SANINDUSA
100
AcDbLine
 10
1151.097418425888
 20
1389.687447109951
 30
0.0
 11
1151.105077920765
 21
1389.687647680512
 31
0.0
  0
ARC
  5
483
330
23
100
AcDbEntity
  8
SANINDUSA
100
AcDbCircle
 10
1151.097680198681
 20
1389.677450536656
 30
0.0
 40
0.01
100
AcDbArc
 50
91.49999999783688
 51
144.5940893609659
  0
ARC
  5
484
330
23
100
AcDbEntity
  8
SANINDUSA
100
AcDbCircle
 10
1151.077303497864
 20
1389.691934668104
 30
0.0
 40
0.0150000000000002
100
AcDbArc
 50
271.4999999978369
 51
324.594089360966
  0
LINE
  5
485
330
23
100
AcDbEntity
  8
SANINDUSA
100
AcDbLine
 10
1151.00537859118
 20
1389.675046107026
 30
0.0
 11
1151.077696150452
 21
1389.676939808058
 31
0.0
  0
ARC
  5
486
330
23
100
AcDbEntity
  8
SANINDUSA
100
AcDbCircle
 10
1151.005640358961
 20
1389.665049532957
 30
0.0
 40
0.0100000000000001
100
AcDbArc
 50
91.49999999783688
 51
175.0000000037089
  0
LINE
  5
487
330
23
100
AcDbEntity
  8
SANINDUSA
100
AcDbLine
 10
1150.995401947111
 20
1389.662761071923
 30
0.0
 11
1150.99567841208
 21
1389.665921090396
 31
0.0
  0
LINE
  5
488
330
23
100
AcDbEntity
  8
SANINDUSA
100
AcDbLine
 10
1150.985401945472
 20
1389.662761071923
 30
0.0
 11
1150.995401947111
 21
1389.662761071923
 31
0.0
  0
LINE
  5
489
330
23
100
AcDbEntity
  8
SANINDUSA
100
AcDbLine
 10
1150.985401945472
 20
1389.674526427167
 30
0.0
 11
1150.985401945472
 21
1389.662761071923
 31
0.0
  0
LINE
  5
48A
330
23
100
AcDbEntity
  8
SANINDUSA
100
AcDbLine
 10
1150.99726292333
 20
1389.684837018365
 30
0.0
 11
1150.985401945472
 21
1389.674526427167
 31
0.0
  0
LINE
  5
48B
330
23
100
AcDbEntity
  8
SANINDUSA
100
AcDbLine
 10
1151.076850822479
 20
1389.686921100358
 30
0.0
 11
1150.99726292333
 21
1389.684837018365
 31
0.0
  0
ARC
  5
48C
330
23
100
AcDbEntity
  8
SANINDUSA
100
AcDbCircle
 10
1151.141414159656
 20
1389.642761072934
 30
0.0
 40
0.0100000000000003
100
AcDbArc
 50
7.999999998104389
 51
90.0
  0
ARC
  5
48D
330
23
100
AcDbEntity
  8
SANINDUSA
100
AcDbCircle
 10
1150.918163533593
 20
1389.665049532957
 30
0.0
 40
0.0100000000000002
100
AcDbArc
 50
4.999999996291115
 51
88.50000000216311
  0
LINE
  5
48E
330
23
100
AcDbEntity
  8
SANINDUSA
100
AcDbLine
 10
1150.846107742101
 20
1389.676939808058
 30
0.0
 11
1150.918425301374
 21
1389.675046107026
 31
0.0
  0
ARC
  5
48F
330
23
100
AcDbEntity
  8
SANINDUSA
100
AcDbCircle
 10
1150.84650039469
 20
1389.691934668104
 30
0.0
 40
0.0150000000000002
100
AcDbArc
 50
215.4059106390341
 51
268.5000000021631
  0
ARC
  5
490
330
23
100
AcDbEntity
  8
SANINDUSA
100
AcDbCircle
 10
1150.826123693873
 20
1389.677450536656
 30
0.0
 40
0.0100000000000001
100
AcDbArc
 50
35.40591063903407
 51
88.50000000216311
  0
LINE
  5
491
330
23
100
AcDbEntity
  8
SANINDUSA
100
AcDbLine
 10
1150.818725971789
 20
1389.687647680512
 30
0.0
 11
1150.826385466666
 21
1389.687447109951
 31
0.0
  0
ARC
  5
492
330
23
100
AcDbEntity
  8
SANINDUSA
100
AcDbCircle
 10
1150.8191186323
 20
1389.702642540461
 30
0.0
 40
0.0150000000000004
100
AcDbArc
 50
184.9999999962911
 51
268.5000000021631
  0
LINE
  5
493
330
23
100
AcDbEntity
  8
SANINDUSA
100
AcDbLine
 10
1150.803537262887
 20
1389.708632630522
 30
0.0
 11
1150.80417571804
 21
1389.701335204525
 31
0.0
  0
ARC
  5
494
330
23
100
AcDbEntity
  8
SANINDUSA
100
AcDbCircle
 10
1150.755858035323
 20
1389.647761072935
 30
0.0
 40
0.0050000000000001
100
AcDbArc
 50
90.0
 51
175.0000000037089
  0
ARC
  5
495
330
23
100
AcDbEntity
  8
SANINDUSA
100
AcDbCircle
 10
1150.755858035323
 20
1389.647761072935
 30
0.0
 40
0.0150000000000001
100
AcDbArc
 50
90.0
 51
175.0000000037089
  0
LINE
  5
496
330
23
100
AcDbEntity
  8
SANINDUSA
100
AcDbLine
 10
1150.747301264018
 20
1389.607325291487
 30
0.0
 11
1150.750877065868
 21
1389.64819685206
 31
0.0
  0
LINE
  5
497
330
23
100
AcDbEntity
  8
SANINDUSA
100
AcDbLine
 10
1150.738898141563
 20
1389.626014276647
 30
0.0
 11
1150.740915118964
 21
1389.649068410368
 31
0.0
  0
ARC
  5
498
330
23
100
AcDbEntity
  8
SANINDUSA
100
AcDbCircle
 10
1150.742320290407
 20
1389.607761072935
 30
0.0
 40
0.005
100
AcDbArc
 50
270.0
 51
355.0000000037089
  0
LINE
  5
499
330
23
100
AcDbEntity
  8
SANINDUSA
100
AcDbLine
 10
1150.742320297569
 20
1389.602761073264
 30
0.0
 11
1150.728901950926
 21
1389.602761073264
 31
0.0
  0
ARC
  5
49A
330
23
100
AcDbEntity
  8
SANINDUSA
100
AcDbCircle
 10
1150.728901946277
 20
1389.604761072934
 30
0.0
 40
0.0019999999999999
100
AcDbArc
 50
180.0
 51
270.0
  0
LINE
  5
49B
330
23
100
AcDbEntity
  8
SANINDUSA
100
AcDbLine
 10
1150.726901946873
 20
1389.737761071178
 30
0.0
 11
1150.726901946873
 21
1389.604761069866
 31
0.0
  0
LINE
  5
49C
330
23
100
AcDbEntity
  8
SANINDUSA
100
AcDbLine
 10
1150.736901946873
 20
1389.73076107386
 30
0.0
 11
1150.736901946873
 21
1389.626101432477
 31
0.0
  0
ARC
  5
49D
330
23
100
AcDbEntity
  8
SANINDUSA
100
AcDbCircle
 10
1150.737901946873
 20
1389.73076107386
 30
0.0
 40
0.001
100
AcDbArc
 50
90.0
 51
180.0
  0
ARC
  5
49E
330
23
100
AcDbEntity
  8
SANINDUSA
100
AcDbCircle
 10
1150.737901946873
 20
1389.626101432477
 30
0.0
 40
0.001
100
AcDbArc
 50
180.0
 51
354.9999949426268
  0
ARC
  5
49F
330
23
100
AcDbEntity
  8
SANINDUSA
100
AcDbCircle
 10
1150.731901946277
 20
1389.737761072935
 30
0.0
 40
0.005
100
AcDbArc
 50
90.0
 51
180.0
  0
LINE
  5
4A0
330
23
100
AcDbEntity
  8
SANINDUSA
100
AcDbLine
 10
1150.760517029375
 20
1389.74276107386
 30
0.0
 11
1150.731901942104
 21
1389.74276107386
 31
0.0
  0
LINE
  5
4A1
330
23
100
AcDbEntity
  8
SANINDUSA
100
AcDbLine
 10
1150.758578138201
 20
1389.731761073859
 30
0.0
 11
1150.737901946873
 21
1389.731761073859
 31
0.0
  0
ARC
  5
4A2
330
23
100
AcDbEntity
  8
SANINDUSA
100
AcDbCircle
 10
1150.760517026452
 20
1389.737761072935
 30
0.0
 40
0.005
100
AcDbArc
 50
59.03624346792648
 51
90.0
  0
LINE
  5
4A3
330
23
100
AcDbEntity
  8
SANINDUSA
100
AcDbLine
 10
1150.785714386315
 20
1389.728473609539
 30
0.0
 11
1150.763089506239
 21
1389.742048537584
 31
0.0
  0
LINE
  5
4A4
330
23
100
AcDbEntity
  8
SANINDUSA
100
AcDbLine
 10
1150.777109648113
 20
1389.720808358291
 30
0.0
 11
1150.759092633956
 21
1389.731618566785
 31
0.0
  0
ARC
  5
4A5
330
23
100
AcDbEntity
  8
SANINDUSA
100
AcDbCircle
 10
1150.758578138201
 20
1389.73076107386
 30
0.0
 40
0.001
100
AcDbArc
 50
59.03624346792648
 51
90.0
  0
ARC
  5
4A6
330
23
100
AcDbEntity
  8
SANINDUSA
100
AcDbCircle
 10
1150.788286866102
 20
1389.732761072935
 30
0.0
 40
0.0050000000000003
100
AcDbArc
 50
239.0362434679265
 51
270.0
  0
LINE
  5
4A7
330
23
100
AcDbEntity
  8
SANINDUSA
100
AcDbLine
 10
1150.807320295185
 20
1389.727761073264
 30
0.0
 11
1150.788286863178
 21
1389.727761073264
 31
0.0
  0
ARC
  5
4A8
330
23
100
AcDbEntity
  8
SANINDUSA
100
AcDbCircle
 10
1150.807320290407
 20
1389.722761072935
 30
0.0
 40
0.005
100
AcDbArc
 50
4.999999996291115
 51
90.0
  0
LINE
  5
4A9
330
23
100
AcDbEntity
  8
SANINDUSA
100
AcDbLine
 10
1150.814137665838
 20
1389.702206761802
 30
0.0
 11
1150.812301261634
 21
1389.723196851315
 31
0.0
  0
ARC
  5
4AA
330
23
100
AcDbEntity
  8
SANINDUSA
100
AcDbCircle
 10
1150.8191186323
 20
1389.702642540461
 30
0.0
 40
0.0050000000000002
100
AcDbArc
 50
184.9999999962911
 51
268.5000000021631
  0
LINE
  5
4AB
330
23
100
AcDbEntity
  8
SANINDUSA
100
AcDbLine
 10
1150.837200029105
 20
1389.697167348575
 30
0.0
 11
1150.818987740487
 21
1389.697644253953
 31
0.0
  0
ARC
  5
4AC
330
23
100
AcDbEntity
  8
SANINDUSA
100
AcDbCircle
 10
1150.837069142983
 20
1389.692169061871
 30
0.0
 40
0.005
100
AcDbArc
 50
2.000000003753603
 51
88.50000000216311
  0
LINE
  5
4AD
330
23
100
AcDbEntity
  8
SANINDUSA
100
AcDbLine
 10
1150.84208700648
 20
1389.691744889591
 30
0.0
 11
1150.842066100151
 21
1389.692343559342
 31
0.0
  0
ARC
  5
4AE
330
23
100
AcDbEntity
  8
SANINDUSA
100
AcDbCircle
 10
1150.847083957265
 20
1389.69191938698
 30
0.0
 40
0.0050000000000002
100
AcDbArc
 50
182.0000000037536
 51
268.5000000021631
  0
LINE
  5
4AF
330
23
100
AcDbEntity
  8
SANINDUSA
100
AcDbLine
 10
1150.926540969223
 20
1389.684837018365
 30
0.0
 11
1150.846953070075
 21
1389.686921100358
 31
0.0
  0
LINE
  5
4B0
330
23
100
AcDbEntity
  8
SANINDUSA
100
AcDbLine
 10
1150.938401947081
 20
1389.674526427167
 30
0.0
 11
1150.926540969223
 21
1389.684837018365
 31
0.0
  0
LINE
  5
4B1
330
23
100
AcDbEntity
  8
SANINDUSA
100
AcDbLine
 10
1150.938401947081
 20
1389.662761071923
 30
0.0
 11
1150.938401947081
 21
1389.674526427167
 31
0.0
  0
LINE
  5
4B2
330
23
100
AcDbEntity
  8
SANINDUSA
100
AcDbLine
 10
1150.928401945442
 20
1389.662761071923
 30
0.0
 11
1150.938401947081
 21
1389.662761071923
 31
0.0
  0
LINE
  5
4B3
330
23
100
AcDbEntity
  8
SANINDUSA
100
AcDbLine
 10
1150.928125480473
 20
1389.665921090396
 30
0.0
 11
1150.928401945442
 21
1389.662761071923
 31
0.0
  0
LINE
  5
4B4
330
23
100
AcDbEntity
  8
SANINDUSA
100
AcDbLine
 10
1150.755858032316
 20
1389.652761074009
 30
0.0
 11
1150.769456623406
 21
1389.652761074009
 31
0.0
  0
LINE
  5
4B5
330
23
100
AcDbEntity
  8
SANINDUSA
100
AcDbLine
 10
1150.755858032316
 20
1389.662761074009
 30
0.0
 11
1150.763575579786
 21
1389.662761074009
 31
0.0
  0
LINE
  5
4B7
330
23
100
AcDbEntity
  8
SANINDUSA
100
AcDbLine
 10
1150.938401947081
 20
1389.662761071923
 30
0.0
 11
1150.985401945472
 21
1389.662761071923
 31
0.0
  0
LINE
  5
4B8
330
23
100
AcDbEntity
  8
SANINDUSA
100
AcDbLine
 10
1150.926540969223
 20
1389.684837018365
 30
0.0
 11
1150.99726292333
 21
1389.684837018365
 31
0.0
  0
LINE
  5
4C3
330
23
100
AcDbEntity
  8
SANINDUSA
100
AcDbLine
 10
1150.760517029375
 20
1389.74276107386
 30
0.0
 11
1151.163286863178
 21
1389.74276107386
 31
0.0
  0
ARC
  5
4D8
330
23
100
AcDbEntity
  8
SANINDUSA
100
AcDbCircle
 10
1151.15278763478
 20
1389.59776106511
 30
0.0
 40
0.0050000081541104
100
AcDbArc
 50
8.000094416324175
 51
90.0
  0
LINE
  5
4DE
330
23
100
AcDbEntity
  8
SANINDUSA
100
AcDbLine
 10
1150.742320297569
 20
1389.602761073264
 30
0.0
 11
1150.752132056565
 21
1389.602761073264
 31
0.0
  0
LINE
  5
4DF
330
23
100
AcDbEntity
  8
SANINDUSA
100
AcDbLine
 10
1151.152787639112
 20
1389.602761073264
 30
0.0
 11
1151.152172578782
 21
1389.602761073264
 31
0.0
  0
LWPOLYLINE
  5
4E1
330
23
100
AcDbEntity
  8
SANINDUSA
100
AcDbPolyline
 90
        3
 70
   128
 43
0.0
 10
1151.152172578782
 20
1389.602761073264
 10
1151.148604585142
 20
1389.602607129367
 10
1151.144905148358
 20
1389.602283491047
  0
LWPOLYLINE
  5
4E3
330
23
100
AcDbEntity
  8
SANINDUSA
100
AcDbPolyline
 90
        3
 70
   128
 43
0.0
 10
1151.144905148358
 20
1389.602283491047
 10
1151.141313879103
 20
1389.602128690334
 10
1151.13766501686
 20
1389.602086832973
  0
LWPOLYLINE
  5
4E5
330
23
100
AcDbEntity
  8
SANINDUSA
100
AcDbPolyline
 90
        3
 70
   128
 43
0.0
 10
1151.113579167337
 20
1389.602247996481
 10
1151.109702868671
 20
1389.60260588512
 10
1151.105841232747
 20
1389.602761073264
  0
LINE
  5
4EA
330
23
100
AcDbEntity
  8
SANINDUSA
100
AcDbLine
 10
1151.158409266085
 20
1389.552761076244
 30
0.0
 11
1151.168507544607
 21
1389.552761076244
 31
0.0
  0
LWPOLYLINE
  5
4F0
330
23
100
AcDbEntity
  8
SANINDUSA
100
AcDbPolyline
 90
        3
 70
   128
 43
0.0
 10
1151.119548274488
 20
1389.602086050661
 10
1151.116563720912
 20
1389.602108022424
 10
1151.113579167337
 20
1389.602247996481
  0
LINE
  5
4F2
330
23
100
AcDbEntity
  8
SANINDUSA
100
AcDbLine
 10
1151.105841232747
 20
1389.602761073264
 30
0.0
 11
1150.752132056565
 21
1389.602761073264
 31
0.0
  0
LINE
  5
4F3
330
23
100
AcDbEntity
  8
SANINDUSA
100
AcDbLine
 10
1151.13766501686
 20
1389.602086832973
 30
0.0
 11
1151.13736191234
 21
1389.602086050661
 31
0.0
  0
LINE
  5
4F5
330
23
100
AcDbEntity
  8
SANINDUSA
100
AcDbLine
 10
1151.13736191234
 20
1389.602086050661
 30
0.0
 11
1151.119548274488
 21
1389.602086050661
 31
0.0
  0
ARC
  5
4FE
330
23
100
AcDbEntity
  8
SANINDUSA
100
AcDbCircle
 10
1151.0996992838
 20
1389.582761072935
 30
0.0
 40
0.02
100
AcDbArc
 50
20.00000000060502
 51
90.0
  0
LINE
  5
502
330
23
100
AcDbEntity
  8
SANINDUSA
100
AcDbLine
 10
1151.158409266085
 20
1389.552761076244
 30
0.0
 11
1151.145906104058
 21
1389.552761076244
 31
0.0
  0
ARC
  5
503
330
23
100
AcDbEntity
  8
SANINDUSA
100
AcDbCircle
 10
1151.145906097041
 20
1389.572761072935
 30
0.0
 40
0.02
100
AcDbArc
 50
200.000000000605
 51
270.0
  0
CIRCLE
  5
507
330
23
100
AcDbEntity
  8
SANINDUSA
100
AcDbCircle
 10
1151.146901946277
 20
1389.577761072934
 30
0.0
 40
0.006
  0
LINE
  5
508
330
23
100
AcDbEntity
  8
SANINDUSA
100
AcDbLine
 10
1151.12711223802
 20
1389.565920664223
 30
0.0
 11
1151.118493138165
 21
1389.589601477834
 31
0.0
  0
CIRCLE
  5
82D
330
23
100
AcDbEntity
  8
SANINDUSA
  6
Continuous
370
    15
100
AcDbCircle
 10
1148.116863316218
 20
1389.653428697317
 30
0.0
 40
0.1399086914989308
  0
LWPOLYLINE
  5
88E
330
23
100
AcDbEntity
  8
SANINDUSA
100
AcDbPolyline
 90
       13
 70
   128
 43
0.0
 10
1150.930374231366
 20
1389.688791001291
 10
1150.931479178625
 20
1389.690701973784
 10
1150.933637911777
 20
1389.694170417025
 10
1150.935868856487
 20
1389.697418605723
 10
1150.938164513923
 20
1389.700437253393
 10
1150.940517371402
 20
1389.703218237021
 10
1150.942919817501
 20
1389.705754367361
 10
1150.94536395372
 20
1389.708039166507
 10
1150.947842236088
 20
1389.710067431643
 10
1150.950347489091
 20
1389.711834977192
 10
1150.952873149433
 20
1389.713338538013
 10
1150.955413504817
 20
1389.714575553548
 10
1150.956231546484
 20
1389.714904854845
  0
LWPOLYLINE
  5
88F
330
23
100
AcDbEntity
  8
SANINDUSA
100
AcDbPolyline
 90
       13
 70
   128
 43
0.0
 10
1150.967576924729
 20
1389.714904854845
 10
1150.968254544339
 20
1389.714634015068
 10
1150.970819918986
 20
1389.713398224559
 10
1150.973367841075
 20
1389.711892382104
 10
1150.975889717473
 20
1389.710122100777
 10
1150.978379808468
 20
1389.708091760505
 10
1150.980831985652
 20
1389.705806106696
 10
1150.983239712178
 20
1389.703270512089
 10
1150.985596138915
 20
1389.700491141641
 10
1150.987894237894
 20
1389.697475031649
 10
1150.990126751963
 20
1389.694230383561
 10
1150.992286754618
 20
1389.690765928907
 10
1150.993429661188
 20
1389.688791001291
  0
ARC
  5
890
330
23
100
AcDbEntity
  8
SANINDUSA
100
AcDbCircle
 10
1150.927436913069
 20
1389.690163812579
 30
0.0
 40
0.0032312899324566
100
AcDbArc
 50
271.804056657382
 51
334.9878541212877
  0
ARC
  5
891
330
23
100
AcDbEntity
  8
SANINDUSA
100
AcDbCircle
 10
1150.996401781229
 20
1389.690185600621
 30
0.0
 40
0.0032830481007152
100
AcDbArc
 50
205.137243191827
 51
267.8541087721692
  0
LWPOLYLINE
  5
892
330
23
100
AcDbEntity
  8
SANINDUSA
100
AcDbPolyline
 90
        8
 70
   128
 43
0.0
 10
1151.021119990154
 20
1389.686923707048
 10
1151.021861135769
 20
1389.68700575788
 10
1151.022606148552
 20
1389.687327898534
 10
1151.023247523502
 20
1389.687830890841
 10
1151.023807047262
 20
1389.688526213749
 10
1151.024277598617
 20
1389.689439274198
 10
1151.024613963812
 20
1389.690530618725
 10
1151.024757350109
 20
1389.691526731783
  0
LWPOLYLINE
  5
893
330
23
100
AcDbEntity
  8
SANINDUSA
100
AcDbPolyline
 90
        9
 70
   128
 43
0.0
 10
1150.89905690235
 20
1389.691529453941
 10
1150.899091998792
 20
1389.691058083568
 10
1150.89935425795
 20
1389.689917539588
 10
1150.899804267691
 20
1389.688849874151
 10
1150.900389277474
 20
1389.688008060589
 10
1150.901062758321
 20
1389.687413594592
 10
1150.901828276953
 20
1389.687040197445
 10
1150.902650828271
 20
1389.686905055822
 10
1150.902682217447
 20
1389.686909547086
  0
LINE
  5
894
330
23
100
AcDbEntity
  8
SANINDUSA
100
AcDbLine
 10
1150.898823370023
 20
1389.693894698271
 30
0.0
 11
1150.899036628092
 21
1389.691526837912
 31
0.0
  0
LINE
  5
895
330
23
100
AcDbEntity
  8
SANINDUSA
100
AcDbLine
 10
1151.024765528396
 20
1389.691527069135
 30
0.0
 11
1151.024974245919
 21
1389.693848045564
 31
0.0
  0
LINE
  5
896
330
23
100
AcDbEntity
  8
SANINDUSA
100
AcDbLine
 10
1150.841025982315
 20
1389.713893621064
 30
0.0
 11
1150.842584453983
 21
1389.691573485343
 31
0.0
  0
ARC
  5
897
330
23
100
AcDbEntity
  8
SANINDUSA
100
AcDbCircle
 10
1150.839030379378
 20
1389.713761073263
 30
0.0
 40
0.002
100
AcDbArc
 50
3.799999994733459
 51
90.0
  0
LINE
  5
898
330
23
100
AcDbEntity
  8
SANINDUSA
100
AcDbLine
 10
1150.823868141413
 20
1389.715761073263
 30
0.0
 11
1150.839030379378
 21
1389.715761073263
 31
0.0
  0
ARC
  5
899
330
23
100
AcDbEntity
  8
SANINDUSA
100
AcDbCircle
 10
1150.823868141413
 20
1389.716761073263
 30
0.0
 40
0.0009999999999999
100
AcDbArc
 50
184.9999999962911
 51
270.0
  0
LINE
  5
89A
330
23
100
AcDbEntity
  8
SANINDUSA
100
AcDbLine
 10
1150.82199706008
 20
1389.726673917521
 30
0.0
 11
1150.822871946715
 21
1389.716673917521
 31
0.0
  0
ARC
  5
89B
330
23
100
AcDbEntity
  8
SANINDUSA
100
AcDbCircle
 10
1150.822993254778
 20
1389.726761073263
 30
0.0
 40
0.001
100
AcDbArc
 50
90.0
 51
184.9999999962911
  0
LINE
  5
89C
330
23
100
AcDbEntity
  8
SANINDUSA
100
AcDbLine
 10
1150.822993254778
 20
1389.727761073264
 30
0.0
 11
1151.100810637776
 21
1389.727761073264
 31
0.0
  0
ARC
  5
89D
330
23
100
AcDbEntity
  8
SANINDUSA
100
AcDbCircle
 10
1151.100810637776
 20
1389.726761073263
 30
0.0
 40
0.0010000000000001
100
AcDbArc
 50
355.0000000037089
 51
90.0
  0
LINE
  5
89E
330
23
100
AcDbEntity
  8
SANINDUSA
100
AcDbLine
 10
1151.100931945839
 20
1389.716673917521
 30
0.0
 11
1151.101806832474
 21
1389.726673917521
 31
0.0
  0
ARC
  5
89F
330
23
100
AcDbEntity
  8
SANINDUSA
100
AcDbCircle
 10
1151.099935751141
 20
1389.716761073263
 30
0.0
 40
0.001
100
AcDbArc
 50
270.0
 51
355.0000000037089
  0
LINE
  5
8A0
330
23
100
AcDbEntity
  8
SANINDUSA
100
AcDbLine
 10
1151.084773513175
 20
1389.715761073263
 30
0.0
 11
1151.099935751141
 21
1389.715761073263
 31
0.0
  0
ARC
  5
8A1
330
23
100
AcDbEntity
  8
SANINDUSA
100
AcDbCircle
 10
1151.084773513175
 20
1389.713761073263
 30
0.0
 40
0.002
100
AcDbArc
 50
90.0
 51
176.2000000052665
  0
LINE
  5
8A2
330
23
100
AcDbEntity
  8
SANINDUSA
100
AcDbLine
 10
1151.081219438571
 20
1389.691573485343
 30
0.0
 11
1151.082777910239
 21
1389.713893621064
 31
0.0
  0
ARC
  5
8A3
330
23
100
AcDbEntity
  8
SANINDUSA
100
AcDbCircle
 10
1151.07623043123
 20
1389.691904854845
 30
0.0
 40
0.0050000000000001
100
AcDbArc
 50
270.0
 51
356.2000000052665
  0
LINE
  5
8A4
330
23
100
AcDbEntity
  8
SANINDUSA
100
AcDbLine
 10
1151.07623043123
 20
1389.686904854845
 30
0.0
 11
1151.03482718066
 21
1389.686904854845
 31
0.0
  0
ARC
  5
8A5
330
23
100
AcDbEntity
  8
SANINDUSA
100
AcDbCircle
 10
1151.03482718066
 20
1389.691904854845
 30
0.0
 40
0.0050000000000001
100
AcDbArc
 50
225.2774052101736
 51
270.0
  0
ARC
  5
8A6
330
23
100
AcDbEntity
  8
SANINDUSA
100
AcDbCircle
 10
1150.961901946277
 20
1389.618270024682
 30
0.0
 40
0.0986348301633002
100
AcDbArc
 50
45.27740521017355
 51
84.18112335605096
  0
LINE
  5
8A7
330
23
100
AcDbEntity
  8
SANINDUSA
100
AcDbLine
 10
1150.971901946277
 20
1389.714904854845
 30
0.0
 11
1150.971901946277
 21
1389.71639662516
 31
0.0
  0
LINE
  5
8A8
330
23
100
AcDbEntity
  8
SANINDUSA
100
AcDbLine
 10
1150.971901946277
 20
1389.714904854845
 30
0.0
 11
1150.951901946277
 21
1389.714904854845
 31
0.0
  0
LINE
  5
8A9
330
23
100
AcDbEntity
  8
SANINDUSA
100
AcDbLine
 10
1150.951901946277
 20
1389.71639662516
 30
0.0
 11
1150.951901946277
 21
1389.714904854845
 31
0.0
  0
ARC
  5
8AA
330
23
100
AcDbEntity
  8
SANINDUSA
100
AcDbCircle
 10
1150.961901946277
 20
1389.618270024682
 30
0.0
 40
0.0986348301633002
100
AcDbArc
 50
95.81887664394903
 51
134.7225947898264
  0
ARC
  5
8AB
330
23
100
AcDbEntity
  8
SANINDUSA
100
AcDbCircle
 10
1150.888976711894
 20
1389.691904854845
 30
0.0
 40
0.0050000000000002
100
AcDbArc
 50
270.0
 51
314.7225947898264
  0
LINE
  5
8AC
330
23
100
AcDbEntity
  8
SANINDUSA
100
AcDbLine
 10
1150.888976711894
 20
1389.686904854845
 30
0.0
 11
1150.847573461324
 21
1389.686904854845
 31
0.0
  0
ARC
  5
8AD
330
23
100
AcDbEntity
  8
SANINDUSA
100
AcDbCircle
 10
1150.847573461324
 20
1389.691904854845
 30
0.0
 40
0.005
100
AcDbArc
 50
183.7999999947334
 51
270.0
  0
LINE
  5
8CD
330
23
100
AcDbEntity
  8
SANINDUSA
100
AcDbLine
 10
1150.927525042145
 20
1389.686904854845
 30
0.0
 11
1150.923392654187
 21
1389.686904854845
 31
0.0
  0
LINE
  5
8CE
330
23
100
AcDbEntity
  8
SANINDUSA
100
AcDbLine
 10
1151.000411238367
 20
1389.686904854845
 30
0.0
 11
1150.996278850409
 21
1389.686904854845
 31
0.0
  0
LINE
  5
8D0
330
23
100
AcDbEntity
  8
SANINDUSA
100
AcDbLine
 10
1150.923392654187
 20
1389.686904854845
 30
0.0
 11
1150.902683958228
 21
1389.686904854845
 31
0.0
  0
LINE
  5
8D3
330
23
100
AcDbEntity
  8
SANINDUSA
100
AcDbLine
 10
1151.021119934326
 20
1389.686904854845
 30
0.0
 11
1151.000411238367
 21
1389.686904854845
 31
0.0
  0
ENDSEC
  0
SECTION
  2
OBJECTS
  0
DICTIONARY
  5
C
330
0
100
AcDbDictionary
281
     1
  3
ACAD_2007HEADERVARS_RT
350
98A
  3
ACAD_COLOR
350
1C
  3
ACAD_GROUP
350
D
  3
ACAD_LAYOUT
350
1A
  3
ACAD_MATERIAL
350
1B
  3
ACAD_MLEADERSTYLE
350
96C
  3
ACAD_MLINESTYLE
350
17
  3
ACAD_PLOTSETTINGS
350
19
  3
ACAD_PLOTSTYLENAME
350
E
  3
ACAD_SCALELIST
350
95A
  3
ACAD_TABLESTYLE
350
1D
  3
ACAD_VISUALSTYLE
350
946
  3
ACDB_RECOMPOSE_DATA
350
988
  3
AcDbVariableDictionary
350
7EB
  3
DWGPROPS
350
989
  0
DICTIONARY
  5
971
330
10
100
AcDbDictionary
280
     1
281
     1
  3
ADSK_XREC_LAYER_RECONCILED
360
972
  0
DICTIONARY
  5
973
330
204
100
AcDbDictionary
280
     1
281
     1
  3
ADSK_XREC_LAYER_RECONCILED
360
974
  0
DICTIONARY
  5
975
330
205
100
AcDbDictionary
280
     1
281
     1
  3
ADSK_XREC_LAYER_RECONCILED
360
976
  0
DICTIONARY
  5
977
330
206
100
AcDbDictionary
280
     1
281
     1
  3
ADSK_XREC_LAYER_RECONCILED
360
978
  0
DICTIONARY
  5
979
330
207
100
AcDbDictionary
280
     1
281
     1
  3
ADSK_XREC_LAYER_RECONCILED
360
97A
  0
DICTIONARY
  5
97B
330
208
100
AcDbDictionary
280
     1
281
     1
  3
ADSK_XREC_LAYER_RECONCILED
360
97C
  0
DICTIONARY
  5
97D
330
209
100
AcDbDictionary
280
     1
281
     1
  3
ADSK_XREC_LAYER_RECONCILED
360
97E
  0
DICTIONARY
  5
97F
330
20B
100
AcDbDictionary
280
     1
281
     1
  3
ADSK_XREC_LAYER_RECONCILED
360
980
  0
DICTIONARY
  5
8E6
330
23
100
AcDbDictionary
280
     1
281
     1
  3
ACAD_SORTENTS
360
8E7
  0
DICTIONARY
  5
98A
102
{ACAD_REACTORS
330
C
102
}
330
C
100
AcDbDictionary
281
     1
  3
DIMJOGANG
350
98B
  0
DICTIONARY
  5
1C
102
{ACAD_REACTORS
330
C
102
}
330
C
100
AcDbDictionary
281
     1
  0
DICTIONARY
  5
D
102
{ACAD_REACTORS
330
C
102
}
330
C
100
AcDbDictionary
281
     1
  0
DICTIONARY
  5
1A
102
{ACAD_REACTORS
330
C
102
}
330
C
100
AcDbDictionary
281
     1
  3
Layout1
350
22
  3
Layout2
350
2A
  3
Model
350
26
  0
DICTIONARY
  5
1B
102
{ACAD_REACTORS
330
C
102
}
330
C
100
AcDbDictionary
281
     1
  3
ByBlock
350
936
  3
ByLayer
350
92E
  3
Global
350
93E
  0
DICTIONARY
  5
96C
102
{ACAD_REACTORS
330
C
102
}
330
C
100
AcDbDictionary
281
     1
  3
Standard
350
96D
  0
DICTIONARY
  5
17
102
{ACAD_REACTORS
330
C
102
}
330
C
100
AcDbDictionary
281
     1
  3
Standard
350
18
  0
DICTIONARY
  5
19
102
{ACAD_REACTORS
330
C
102
}
330
C
100
AcDbDictionary
281
     1
  0
ACDBDICTIONARYWDFLT
  5
E
102
{ACAD_REACTORS
330
C
102
}
330
C
100
AcDbDictionary
281
     1
  3
Normal
350
F
100
AcDbDictionaryWithDefault
340
F
  0
DICTIONARY
  5
95A
102
{ACAD_REACTORS
330
C
102
}
330
C
100
AcDbDictionary
281
     1
  3
A0
350
95B
  3
A1
350
95C
  3
A2
350
95D
  3
A3
350
95E
  3
A4
350
95F
  3
A5
350
960
  3
A6
350
961
  3
A7
350
962
  3
A8
350
963
  3
A9
350
964
  3
B0
350
965
  3
B1
350
966
  3
B2
350
967
  3
B3
350
968
  3
B4
350
969
  3
B5
350
96A
  3
B6
350
96B
  0
DICTIONARY
  5
1D
102
{ACAD_REACTORS
330
C
102
}
330
C
100
AcDbDictionary
281
     1
  3
Standard
350
1E
  0
DICTIONARY
  5
946
102
{ACAD_REACTORS
330
C
102
}
330
C
100
AcDbDictionary
281
     1
  3
2dWireframe
350
94C
  3
3D Hidden
350
94E
  3
3dWireframe
350
94D
  3
Basic
350
94B
  3
Brighten
350
952
  3
ColorChange
350
956
  3
Conceptual
350
94F
  3
Dim
350
951
  3
EdgeColorOff
350
959
  3
Facepattern
350
955
  3
Flat
350
947
  3
FlatWithEdges
350
948
  3
Gouraud
350
949
  3
GouraudWithEdges
350
94A
  3
JitterOff
350
957
  3
Linepattern
350
954
  3
OverhangOff
350
958
  3
Realistic
350
950
  3
Thicken
350
953
  0
XRECORD
  5
988
102
{ACAD_REACTORS
330
C
102
}
330
C
100
AcDbXrecord
280
     1
 90
        1
330
1E
  0
DICTIONARY
  5
7EB
102
{ACAD_REACTORS
330
C
102
}
330
C
100
AcDbDictionary
281
     1
  3
CANNOSCALE
350
982
  3
CMLEADERSTYLE
350
981
  3
CTABLESTYLE
350
7EC
  3
DIMASSOC
350
904
  3
HIDETEXT
350
903
  3
INDEXCTL
350
984
  3
PROJECTNAME
350
905
  3
SORTENTS
350
983
  3
XCLIPFRAME
350
985
  0
XRECORD
  5
989
102
{ACAD_REACTORS
330
C
102
}
330
C
100
AcDbXrecord
280
     1
  1
DWGPROPS COOKIE
  2

  3

  4

  6

  7

  8
Julio
  9

300
=
301
=
302
=
303
=
304
=
305
=
306
=
307
=
308
=
309
=
 40
0.0158181481481482
 41
2454117.567482095
 42
2456142.761416007
  1

 90
        0
  0
XRECORD
  5
972
102
{ACAD_REACTORS
330
971
102
}
330
971
100
AcDbXrecord
280
     1
290
     1
  0
XRECORD
  5
974
102
{ACAD_REACTORS
330
973
102
}
330
973
100
AcDbXrecord
280
     1
290
     1
  0
XRECORD
  5
976
102
{ACAD_REACTORS
330
975
102
}
330
975
100
AcDbXrecord
280
     1
290
     1
  0
XRECORD
  5
978
102
{ACAD_REACTORS
330
977
102
}
330
977
100
AcDbXrecord
280
     1
290
     1
  0
XRECORD
  5
97A
102
{ACAD_REACTORS
330
979
102
}
330
979
100
AcDbXrecord
280
     1
290
     1
  0
XRECORD
  5
97C
102
{ACAD_REACTORS
330
97B
102
}
330
97B
100
AcDbXrecord
280
     1
290
     1
  0
XRECORD
  5
97E
102
{ACAD_REACTORS
330
97D
102
}
330
97D
100
AcDbXrecord
280
     1
290
     1
  0
XRECORD
  5
980
102
{ACAD_REACTORS
330
97F
102
}
330
97F
100
AcDbXrecord
280
     1
290
     1
  0
SORTENTSTABLE
  5
8E7
102
{ACAD_REACTORS
330
8E6
102
}
330
8E6
100
AcDbSortentsTable
330
23
331
48F
  5
48F
331
44C
  5
44C
331
48B
  5
48B
331
487
  5
487
331
483
  5
483
331
440
  5
440
331
40E
  5
40E
331
40A
  5
40A
331
8CE
  5
8D0
331
8AA
  5
8AB
331
47F
  5
47F
331
47B
  5
47B
331
477
  5
477
331
438
  5
438
331
4B2
  5
4B2
331
4AE
  5
4AE
331
473
  5
473
331
4AA
  5
4AA
331
402
  5
402
331
3FE
  5
3FE
331
3FA
  5
3FA
331
8A6
  5
8A7
331
8A2
  5
8A3
331
89E
  5
89F
331
89A
  5
89B
331
46F
  5
46F
331
4A6
  5
4A6
331
4F5
  5
4FE
331
46B
  5
46B
331
428
  5
428
331
467
  5
467
331
4A2
  5
4A2
331
49E
  5
49E
331
463
  5
463
331
49A
  5
49A
331
896
  5
897
331
892
  5
893
331
88E
  5
88F
331
45F
  5
45F
331
4E5
  5
4EA
331
45B
  5
45B
331
457
  5
457
331
496
  5
496
331
4E1
  5
4E3
331
492
  5
492
331
41D
  5
41D
331
419
  5
419
331
44F
  5
44F
331
48E
  5
48E
331
48A
  5
48A
331
486
  5
486
331
482
  5
482
331
508
  5
82D
331
415
  5
415
331
40D
  5
40D
331
409
  5
409
331
8CD
  5
8CE
331
8AD
  5
8CD
331
8A9
  5
8AA
331
47E
  5
47E
331
4B5
  5
4B5
331
47A
  5
47A
331
476
  5
476
331
4B1
  5
4B1
331
4AD
  5
4AD
331
433
  5
433
331
472
  5
472
331
4A9
  5
4A9
331
405
  5
405
331
8A5
  5
8A6
331
8A1
  5
8A2
331
89D
  5
89E
331
899
  5
89A
331
46E
  5
46E
331
4A5
  5
4A5
331
46A
  5
46A
331
466
  5
466
331
4A1
  5
4A1
331
4F0
  5
4F2
331
49D
  5
49D
331
423
  5
423
331
462
  5
462
331
499
  5
499
331
895
  5
896
331
891
  5
892
331
45E
  5
45E
331
45A
  5
45A
331
495
  5
495
331
456
  5
456
331
491
  5
491
331
4D8
  5
4DE
331
8D0
  5
8D3
331
44E
  5
44E
331
48D
  5
48D
331
489
  5
489
331
446
  5
446
331
485
  5
485
331
481
  5
481
331
4B8
  5
4B8
331
408
  5
408
331
8AC
  5
8AD
331
8A8
  5
8A9
331
43E
  5
43E
331
47D
  5
47D
331
507
  5
508
331
479
  5
479
331
503
  5
507
331
4B4
  5
4B4
331
43A
  5
43A
331
475
  5
475
331
436
  5
436
331
4B0
  5
4B0
331
4AC
  5
4AC
331
471
  5
471
331
4A8
  5
4A8
331
404
  5
404
331
8A4
  5
8A5
331
8A0
  5
8A1
331
89C
  5
89D
331
898
  5
899
331
46D
  5
46D
331
4A4
  5
4A4
331
4F3
  5
4F5
331
42A
  5
42A
331
469
  5
469
331
465
  5
465
331
426
  5
426
331
4A0
  5
4A0
331
49C
  5
49C
331
461
  5
461
331
498
  5
498
331
894
  5
895
331
890
  5
891
331
45D
  5
45D
331
4E3
  5
4E5
331
459
  5
459
331
494
  5
494
331
4DF
  5
4E1
331
490
  5
490
331
8D3
  5
8E5
331
44D
  5
44D
331
48C
  5
48C
331
488
  5
488
331
4C3
  5
4D8
331
449
  5
449
331
484
  5
484
331
480
  5
480
331
441
  5
441
331
417
  5
417
331
413
  5
413
331
8AB
  5
8AC
331
43D
  5
43D
331
47C
  5
47C
331
4B7
  5
4B7
331
502
  5
503
331
4B3
  5
4B3
331
478
  5
478
331
474
  5
474
331
4AF
  5
4AF
331
4FE
  5
502
331
4AB
  5
4AB
331
470
  5
470
331
407
  5
407
331
3FF
  5
3FF
331
3FB
  5
3FB
331
8A7
  5
8A8
331
8A3
  5
8A4
331
89F
  5
8A0
331
89B
  5
89C
331
46C
  5
46C
331
4A7
  5
4A7
331
4A3
  5
4A3
331
4F2
  5
4F3
331
468
  5
468
331
425
  5
425
331
464
  5
464
331
49F
  5
49F
331
49B
  5
49B
331
4EA
  5
4F0
331
421
  5
421
331
460
  5
460
331
897
  5
898
331
893
  5
894
331
88F
  5
890
331
45C
  5
45C
331
497
  5
497
331
458
  5
458
331
493
  5
493
331
82D
  5
88E
331
4DE
  5
4DF
331
450
  5
450
  0
XRECORD
  5
98B
102
{ACAD_REACTORS
330
98A
102
}
330
98A
100
AcDbXrecord
280
     1
 40
1.570796326794896
  0
LAYOUT
  5
22
102
{ACAD_XDICTIONARY
360
98D
102
}
102
{ACAD_REACTORS
330
1A
102
}
330
1A
100
AcDbPlotSettings
  1

  2
C:\Documents and Settings\Julio\Application Data\Autodesk\AutoCAD 2006\R16.2\enu\plotters\Default Windows System Printer.pc3
  4

  6

 40
0.0
 41
0.0
 42
0.0
 43
0.0
 44
0.0
 45
0.0
 46
0.0
 47
0.0
 48
0.0
 49
0.0
140
0.0
141
0.0
142
1.0
143
1.0
 70
   688
 72
     0
 73
     0
 74
     5
  7

 75
    16
147
1.0
148
0.0
149
0.0
100
AcDbLayout
  1
Layout1
 70
     1
 71
     1
 10
0.0
 20
0.0
 11
420.0
 21
297.0
 12
0.0
 22
0.0
 32
0.0
 14
1.000000000000000E+20
 24
1.000000000000000E+20
 34
1.000000000000000E+20
 15
-1.000000000000000E+20
 25
-1.000000000000000E+20
 35
-1.000000000000000E+20
146
0.0
 13
0.0
 23
0.0
 33
0.0
 16
1.0
 26
0.0
 36
0.0
 17
0.0
 27
1.0
 37
0.0
 76
     0
330
1F
  0
LAYOUT
  5
2A
102
{ACAD_XDICTIONARY
360
991
102
}
102
{ACAD_REACTORS
330
1A
102
}
330
1A
100
AcDbPlotSettings
  1

  2
C:\Documents and Settings\Julio\Application Data\Autodesk\AutoCAD 2006\R16.2\enu\plotters\Default Windows System Printer.pc3
  4

  6

 40
0.0
 41
0.0
 42
0.0
 43
0.0
 44
0.0
 45
0.0
 46
0.0
 47
0.0
 48
0.0
 49
0.0
140
0.0
141
0.0
142
1.0
143
1.0
 70
   688
 72
     0
 73
     0
 74
     5
  7

 75
    16
147
1.0
148
0.0
149
0.0
100
AcDbLayout
  1
Layout2
 70
     1
 71
     2
 10
0.0
 20
0.0
 11
12.0
 21
9.0
 12
0.0
 22
0.0
 32
0.0
 14
0.0
 24
0.0
 34
0.0
 15
0.0
 25
0.0
 35
0.0
146
0.0
 13
0.0
 23
0.0
 33
0.0
 16
1.0
 26
0.0
 36
0.0
 17
0.0
 27
1.0
 37
0.0
 76
     0
330
27
  0
LAYOUT
  5
26
102
{ACAD_XDICTIONARY
360
98F
102
}
102
{ACAD_REACTORS
330
1A
102
}
330
1A
100
AcDbPlotSettings
  1

  2
C:\Documents and Settings\Julio\Application Data\Autodesk\AutoCAD 2006\R16.2\enu\plotters\Default Windows System Printer.pc3
  4

  6

 40
0.0
 41
0.0
 42
0.0
 43
0.0
 44
0.0
 45
0.0
 46
0.0
 47
0.0
 48
0.0
 49
0.0
140
0.0
141
0.0
142
1.0
143
1.0
 70
  1712
 72
     0
 73
     0
 74
     0
  7

 75
     0
147
1.0
148
0.0
149
0.0
100
AcDbLayout
  1
Model
 70
     1
 71
     0
 10
0.0
 20
0.0
 11
12.0
 21
9.0
 12
0.0
 22
0.0
 32
0.0
 14
0.0
 24
0.0
 34
0.0
 15
0.0
 25
0.0
 35
0.0
146
0.0
 13
0.0
 23
0.0
 33
0.0
 16
1.0
 26
0.0
 36
0.0
 17
0.0
 27
1.0
 37
0.0
 76
     0
330
23
331
925
  0
MATERIAL
  5
936
102
{ACAD_XDICTIONARY
360
937
102
}
102
{ACAD_REACTORS
330
1B
102
}
330
1B
100
AcDbMaterial
  1
ByBlock
 72
     0
 43
0.0008202099737533
 43
0.0
 43
0.0
 43
0.0
 43
0.0
 43
0.0008202099737533
 43
0.0
 43
0.0
 43
0.0
 43
0.0
 43
1.0
 43
0.0
 43
0.0
 43
0.0
 43
0.0
 43
1.0
 77
     0
 47
0.0008202099737533
 47
0.0
 47
0.0
 47
0.0
 47
0.0
 47
0.0008202099737533
 47
0.0
 47
0.0
 47
0.0
 47
0.0
 47
1.0
 47
0.0
 47
0.0
 47
0.0
 47
0.0
 47
1.0
171
     0
 49
0.0008202099737533
 49
0.0
 49
0.0
 49
0.0
 49
0.0
 49
0.0008202099737533
 49
0.0
 49
0.0
 49
0.0
 49
0.0
 49
1.0
 49
0.0
 49
0.0
 49
0.0
 49
0.0
 49
1.0
175
     0
142
0.0008202099737533
142
0.0
142
0.0
142
0.0
142
0.0
142
0.0008202099737533
142
0.0
142
0.0
142
0.0
142
0.0
142
1.0
142
0.0
142
0.0
142
0.0
142
0.0
142
1.0
179
     0
144
0.0008202099737533
144
0.0
144
0.0
144
0.0
144
0.0
144
0.0008202099737533
144
0.0
144
0.0
144
0.0
144
0.0
144
1.0
144
0.0
144
0.0
144
0.0
144
0.0
144
1.0
147
0.0008202099737533
147
0.0
147
0.0
147
0.0
147
0.0
147
0.0008202099737533
147
0.0
147
0.0
147
0.0
147
0.0
147
1.0
147
0.0
147
0.0
147
0.0
147
0.0
147
1.0
  0
MATERIAL
  5
92E
102
{ACAD_XDICTIONARY
360
92F
102
}
102
{ACAD_REACTORS
330
1B
102
}
330
1B
100
AcDbMaterial
  1
ByLayer
 72
     0
 43
0.0008202099737533
 43
0.0
 43
0.0
 43
0.0
 43
0.0
 43
0.0008202099737533
 43
0.0
 43
0.0
 43
0.0
 43
0.0
 43
1.0
 43
0.0
 43
0.0
 43
0.0
 43
0.0
 43
1.0
 77
     0
 47
0.0008202099737533
 47
0.0
 47
0.0
 47
0.0
 47
0.0
 47
0.0008202099737533
 47
0.0
 47
0.0
 47
0.0
 47
0.0
 47
1.0
 47
0.0
 47
0.0
 47
0.0
 47
0.0
 47
1.0
171
     0
 49
0.0008202099737533
 49
0.0
 49
0.0
 49
0.0
 49
0.0
 49
0.0008202099737533
 49
0.0
 49
0.0
 49
0.0
 49
0.0
 49
1.0
 49
0.0
 49
0.0
 49
0.0
 49
0.0
 49
1.0
175
     0
142
0.0008202099737533
142
0.0
142
0.0
142
0.0
142
0.0
142
0.0008202099737533
142
0.0
142
0.0
142
0.0
142
0.0
142
1.0
142
0.0
142
0.0
142
0.0
142
0.0
142
1.0
179
     0
144
0.0008202099737533
144
0.0
144
0.0
144
0.0
144
0.0
144
0.0008202099737533
144
0.0
144
0.0
144
0.0
144
0.0
144
1.0
144
0.0
144
0.0
144
0.0
144
0.0
144
1.0
147
0.0008202099737533
147
0.0
147
0.0
147
0.0
147
0.0
147
0.0008202099737533
147
0.0
147
0.0
147
0.0
147
0.0
147
1.0
147
0.0
147
0.0
147
0.0
147
0.0
147
1.0
  0
MATERIAL
  5
93E
102
{ACAD_XDICTIONARY
360
93F
102
}
102
{ACAD_REACTORS
330
1B
102
}
330
1B
100
AcDbMaterial
  1
Global
 72
     0
 43
0.0008202099737533
 43
0.0
 43
0.0
 43
0.0
 43
0.0
 43
0.0008202099737533
 43
0.0
 43
0.0
 43
0.0
 43
0.0
 43
1.0
 43
0.0
 43
0.0
 43
0.0
 43
0.0
 43
1.0
 77
     0
 47
0.0008202099737533
 47
0.0
 47
0.0
 47
0.0
 47
0.0
 47
0.0008202099737533
 47
0.0
 47
0.0
 47
0.0
 47
0.0
 47
1.0
 47
0.0
 47
0.0
 47
0.0
 47
0.0
 47
1.0
171
     0
 49
0.0008202099737533
 49
0.0
 49
0.0
 49
0.0
 49
0.0
 49
0.0008202099737533
 49
0.0
 49
0.0
 49
0.0
 49
0.0
 49
1.0
 49
0.0
 49
0.0
 49
0.0
 49
0.0
 49
1.0
175
     0
142
0.0008202099737533
142
0.0
142
0.0
142
0.0
142
0.0
142
0.0008202099737533
142
0.0
142
0.0
142
0.0
142
0.0
142
1.0
142
0.0
142
0.0
142
0.0
142
0.0
142
1.0
179
     0
144
0.0008202099737533
144
0.0
144
0.0
144
0.0
144
0.0
144
0.0008202099737533
144
0.0
144
0.0
144
0.0
144
0.0
144
1.0
144
0.0
144
0.0
144
0.0
144
0.0
144
1.0
147
0.0008202099737533
147
0.0
147
0.0
147
0.0
147
0.0
147
0.0008202099737533
147
0.0
147
0.0
147
0.0
147
0.0
147
1.0
147
0.0
147
0.0
147
0.0
147
0.0
147
1.0
  0
MLEADERSTYLE
  5
96D
102
{ACAD_REACTORS
330
96C
102
}
330
96C
100
AcDbMLeaderStyle
170
     2
171
     1
172
     0
 90
        2
 40
0.0
 41
0.0
173
     1
 91
-1056964608
340
14
 92
       -2
290
     1
 42
2.0
291
     1
 43
0.36
  3
Standard
 44
4.0
300

342
11
174
     1
178
     6
175
     1
176
     0
 93
-1056964608
 45
4.0
292
     0
297
     0
 46
4.0
 94
-1056964608
 47
1.0
 49
1.0
140
1.0
293
     1
141
0.0
294
     1
177
     0
142
1.0
295
     0
296
     0
143
0.125
1001
ACAD_MLEADERVER
1070
     2
  0
MLINESTYLE
  5
18
102
{ACAD_REACTORS
330
17
102
}
330
17
100
AcDbMlineStyle
  2
STANDARD
 70
     0
  3

 62
   256
 51
90.0
 52
90.0
 71
     2
 49
0.5
 62
   256
  6
BYLAYER
 49
-0.5
 62
   256
  6
BYLAYER
  0
ACDBPLACEHOLDER
  5
F
102
{ACAD_REACTORS
330
E
102
}
330
E
  0
SCALE
  5
95B
102
{ACAD_REACTORS
330
95A
102
}
330
95A
100
AcDbScale
 70
     0
300
1:1
140
1.0
141
1.0
290
     1
  0
SCALE
  5
95C
102
{ACAD_REACTORS
330
95A
102
}
330
95A
100
AcDbScale
 70
     0
300
1:2
140
1.0
141
2.0
290
     0
  0
SCALE
  5
95D
102
{ACAD_REACTORS
330
95A
102
}
330
95A
100
AcDbScale
 70
     0
300
1:4
140
1.0
141
4.0
290
     0
  0
SCALE
  5
95E
102
{ACAD_REACTORS
330
95A
102
}
330
95A
100
AcDbScale
 70
     0
300
1:5
140
1.0
141
5.0
290
     0
  0
SCALE
  5
95F
102
{ACAD_REACTORS
330
95A
102
}
330
95A
100
AcDbScale
 70
     0
300
1:8
140
1.0
141
8.0
290
     0
  0
SCALE
  5
960
102
{ACAD_REACTORS
330
95A
102
}
330
95A
100
AcDbScale
 70
     0
300
1:10
140
1.0
141
10.0
290
     0
  0
SCALE
  5
961
102
{ACAD_REACTORS
330
95A
102
}
330
95A
100
AcDbScale
 70
     0
300
1:16
140
1.0
141
16.0
290
     0
  0
SCALE
  5
962
102
{ACAD_REACTORS
330
95A
102
}
330
95A
100
AcDbScale
 70
     0
300
1:20
140
1.0
141
20.0
290
     0
  0
SCALE
  5
963
102
{ACAD_REACTORS
330
95A
102
}
330
95A
100
AcDbScale
 70
     0
300
1:30
140
1.0
141
30.0
290
     0
  0
SCALE
  5
964
102
{ACAD_REACTORS
330
95A
102
}
330
95A
100
AcDbScale
 70
     0
300
1:40
140
1.0
141
40.0
290
     0
  0
SCALE
  5
965
102
{ACAD_REACTORS
330
95A
102
}
330
95A
100
AcDbScale
 70
     0
300
1:50
140
1.0
141
50.0
290
     0
  0
SCALE
  5
966
102
{ACAD_REACTORS
330
95A
102
}
330
95A
100
AcDbScale
 70
     0
300
1:100
140
1.0
141
100.0
290
     0
  0
SCALE
  5
967
102
{ACAD_REACTORS
330
95A
102
}
330
95A
100
AcDbScale
 70
     0
300
2:1
140
2.0
141
1.0
290
     0
  0
SCALE
  5
968
102
{ACAD_REACTORS
330
95A
102
}
330
95A
100
AcDbScale
 70
     0
300
4:1
140
4.0
141
1.0
290
     0
  0
SCALE
  5
969
102
{ACAD_REACTORS
330
95A
102
}
330
95A
100
AcDbScale
 70
     0
300
8:1
140
8.0
141
1.0
290
     0
  0
SCALE
  5
96A
102
{ACAD_REACTORS
330
95A
102
}
330
95A
100
AcDbScale
 70
     0
300
10:1
140
10.0
141
1.0
290
     0
  0
SCALE
  5
96B
102
{ACAD_REACTORS
330
95A
102
}
330
95A
100
AcDbScale
 70
     0
300
100:1
140
100.0
141
1.0
290
     0
  0
TABLESTYLE
  5
1E
102
{ACAD_XDICTIONARY
360
986
102
}
102
{ACAD_REACTORS
330
1D
102
}
330
1D
100
AcDbTableStyle
  3
Standard
 70
     0
 71
     0
 40
1.5
 41
1.5
280
     0
281
     0
  7
Standard
140
4.5
170
     2
 62
     0
 63
     7
283
     0
274
    -2
284
     1
 64
     0
275
    -2
285
     1
 65
     0
276
    -2
286
     1
 66
     0
277
    -2
287
     1
 67
     0
278
    -2
288
     1
 68
     0
279
    -2
289
     1
 69
     0
  7
Standard
140
6.0
170
     5
 62
     0
 63
     7
283
     0
274
    -2
284
     1
 64
     0
275
    -2
285
     1
 65
     0
276
    -2
286
     1
 66
     0
277
    -2
287
     1
 67
     0
278
    -2
288
     1
 68
     0
279
    -2
289
     1
 69
     0
  7
Standard
140
4.5
170
     5
 62
     0
 63
     7
283
     0
274
    -2
284
     1
 64
     0
275
    -2
285
     1
 65
     0
276
    -2
286
     1
 66
     0
277
    -2
287
     1
 67
     0
278
    -2
288
     1
 68
     0
279
    -2
289
     1
 69
     0
  0
VISUALSTYLE
  5
94C
102
{ACAD_XDICTIONARY
360
9A0
102
}
102
{ACAD_REACTORS
330
946
102
}
330
946
100
AcDbVisualStyle
  2
2dWireframe
 70
     4
 71
     0
 72
     2
 73
     0
 90
        0
 40
-0.6
 41
-30.0
 62
     5
 63
     7
 74
     1
 91
        4
 64
     7
 65
   257
 75
     1
175
     1
 42
1.0
 92
        0
 66
   257
 43
1.0
 76
     1
 77
     6
 78
     2
 67
     7
 79
     5
170
     0
171
     0
290
     0
174
     0
 93
        1
 44
0.0
173
     0
291
     0
 45
0.0
1001
ACAD
1000
AcDbSavedByObjectVersion
1070
     0
  0
VISUALSTYLE
  5
94E
102
{ACAD_XDICTIONARY
360
9A4
102
}
102
{ACAD_REACTORS
330
946
102
}
330
946
100
AcDbVisualStyle
  2
3D Hidden
 70
     6
 71
     1
 72
     2
 73
     2
 90
        0
 40
-0.6
 41
-30.0
 62
     5
 63
     7
 74
     2
 91
        2
 64
     7
 65
   257
 75
     2
175
     1
 42
179.0
 92
        0
 66
   257
 43
1.0
 76
     1
 77
     6
 78
     2
 67
     7
 79
     3
170
     0
171
     0
290
     0
174
     0
 93
        1
 44
0.0
173
     0
291
     0
 45
0.0
1001
ACAD
1000
AcDbSavedByObjectVersion
1070
     0
  0
VISUALSTYLE
  5
94D
102
{ACAD_XDICTIONARY
360
9A2
102
}
102
{ACAD_REACTORS
330
946
102
}
330
946
100
AcDbVisualStyle
  2
3dWireframe
 70
     5
 71
     0
 72
     2
 73
     0
 90
        0
 40
-0.6
 41
-30.0
 62
     5
 63
     7
 74
     1
 91
        4
 64
     7
 65
   257
 75
     1
175
     1
 42
1.0
 92
        0
 66
   257
 43
1.0
 76
     1
 77
     6
 78
     2
 67
     7
 79
     5
170
     0
171
     0
290
     0
174
     0
 93
        1
 44
0.0
173
     0
291
     0
 45
0.0
1001
ACAD
1000
AcDbSavedByObjectVersion
1070
     0
  0
VISUALSTYLE
  5
94B
102
{ACAD_XDICTIONARY
360
99E
102
}
102
{ACAD_REACTORS
330
946
102
}
330
946
100
AcDbVisualStyle
  2
Basic
 70
     7
 71
     1
 72
     0
 73
     1
 90
        0
 40
-0.6
 41
-30.0
 62
     5
 63
     7
 74
     0
 91
        4
 64
     7
 65
   257
 75
     1
175
     1
 42
1.0
 92
        8
 66
     7
 43
1.0
 76
     1
 77
     6
 78
     2
 67
     7
 79
     5
170
     0
171
     0
290
     0
174
     0
 93
        1
 44
0.0
173
     0
291
     1
 45
0.0
1001
ACAD
1000
AcDbSavedByObjectVersion
1070
     0
  0
VISUALSTYLE
  5
952
102
{ACAD_XDICTIONARY
360
9AC
102
}
102
{ACAD_REACTORS
330
946
102
}
330
946
100
AcDbVisualStyle
  2
Brighten
 70
    12
 71
     2
 72
     2
 73
     0
 90
        0
 40
-0.6
 41
-30.0
 62
     5
 63
     7
 74
     1
 91
        4
 64
     7
 65
   257
 75
     1
175
     1
 42
1.0
 92
        8
 66
     7
 43
1.0
 76
     1
 77
     6
 78
     2
 67
     7
 79
     5
170
     0
171
     0
290
     0
174
     0
 93
        1
 44
50.0
173
     0
291
     1
 45
0.0
1001
ACAD
1000
AcDbSavedByObjectVersion
1070
     0
  0
VISUALSTYLE
  5
956
102
{ACAD_XDICTIONARY
360
9B4
102
}
102
{ACAD_REACTORS
330
946
102
}
330
946
100
AcDbVisualStyle
  2
ColorChange
 70
    16
 71
     2
 72
     2
 73
     3
 90
        0
 40
-0.6
 41
-30.0
 62
     5
 63
     8
 74
     1
 91
        4
 64
     7
 65
   257
 75
     1
175
     1
 42
1.0
 92
        8
 66
     8
 43
1.0
 76
     1
 77
     6
 78
     2
 67
     7
 79
     5
170
     0
171
     0
290
     0
174
     0
 93
        1
 44
0.0
173
     0
291
     1
 45
0.0
1001
ACAD
1000
AcDbSavedByObjectVersion
1070
     0
  0
VISUALSTYLE
  5
94F
102
{ACAD_XDICTIONARY
360
9A6
102
}
102
{ACAD_REACTORS
330
946
102
}
330
946
100
AcDbVisualStyle
  2
Conceptual
 70
     9
 71
     3
 72
     2
 73
     0
 90
        0
 40
-0.6
 41
-30.0
 62
     5
 63
     7
 74
     2
 91
        2
 64
     7
 65
   257
 75
     1
175
     1
 42
179.0
 92
        8
 66
     7
 43
1.0
 76
     1
 77
     6
 78
     2
 67
     7
 79
     3
170
     0
171
     0
290
     0
174
     0
 93
        1
 44
0.0
173
     0
291
     0
 45
0.0
1001
ACAD
1000
AcDbSavedByObjectVersion
1070
     0
  0
VISUALSTYLE
  5
951
102
{ACAD_XDICTIONARY
360
9AA
102
}
102
{ACAD_REACTORS
330
946
102
}
330
946
100
AcDbVisualStyle
  2
Dim
 70
    11
 71
     2
 72
     2
 73
     0
 90
        0
 40
-0.6
 41
-30.0
 62
     5
 63
     7
 74
     1
 91
        4
 64
     7
 65
   257
 75
     1
175
     1
 42
1.0
 92
        8
 66
     7
 43
1.0
 76
     1
 77
     6
 78
     2
 67
     7
 79
     5
170
     0
171
     0
290
     0
174
     0
 93
        1
 44
-50.0
173
     0
291
     1
 45
0.0
1001
ACAD
1000
AcDbSavedByObjectVersion
1070
     0
  0
VISUALSTYLE
  5
959
102
{ACAD_XDICTIONARY
360
9BA
102
}
102
{ACAD_REACTORS
330
946
102
}
330
946
100
AcDbVisualStyle
  2
EdgeColorOff
 70
    22
 71
     2
 72
     2
 73
     0
 90
        0
 40
-0.6
 41
-30.0
 62
     5
 63
     7
 74
     1
 91
        4
 64
     7
 65
   257
 75
     1
175
     1
 42
1.0
 92
        8
 66
     7
 43
1.0
 76
     1
 77
     6
 78
     2
 67
     7
 79
     5
170
     0
171
     0
290
     0
174
     0
 93
        1
 44
0.0
173
     0
291
     1
 45
0.0
1001
ACAD
1000
AcDbSavedByObjectVersion
1070
     0
  0
VISUALSTYLE
  5
955
102
{ACAD_XDICTIONARY
360
9B2
102
}
102
{ACAD_REACTORS
330
946
102
}
330
946
100
AcDbVisualStyle
  2
Facepattern
 70
    15
 71
     2
 72
     2
 73
     0
 90
        0
 40
-0.6
 41
-30.0
 62
     5
 63
     7
 74
     1
 91
        4
 64
     7
 65
   257
 75
     1
175
     1
 42
1.0
 92
        8
 66
     7
 43
1.0
 76
     1
 77
     6
 78
     2
 67
     7
 79
     5
170
     0
171
     0
290
     0
174
     0
 93
        1
 44
0.0
173
     0
291
     1
 45
0.0
1001
ACAD
1000
AcDbSavedByObjectVersion
1070
     0
  0
VISUALSTYLE
  5
947
102
{ACAD_XDICTIONARY
360
996
102
}
102
{ACAD_REACTORS
330
946
102
}
330
946
100
AcDbVisualStyle
  2
Flat
 70
     0
 71
     2
 72
     1
 73
     1
 90
        2
 40
-0.6
 41
30.0
 62
     5
 63
     7
 74
     0
 91
        4
 64
     7
 65
   257
 75
     1
175
     1
 42
1.0
 92
        8
 66
     7
 43
1.0
 76
     1
 77
     6
 78
     2
 67
     7
 79
     5
170
     0
171
     0
290
     0
174
     0
 93
       13
 44
0.0
173
     0
291
     1
 45
0.0
1001
ACAD
1000
AcDbSavedByObjectVersion
1070
     0
  0
VISUALSTYLE
  5
948
102
{ACAD_XDICTIONARY
360
998
102
}
102
{ACAD_REACTORS
330
946
102
}
330
946
100
AcDbVisualStyle
  2
FlatWithEdges
 70
     1
 71
     2
 72
     1
 73
     1
 90
        2
 40
-0.6
 41
30.0
 62
     5
 63
     7
 74
     1
 91
        4
 64
     7
 65
   257
 75
     1
175
     1
 42
1.0
 92
        0
 66
   257
 43
1.0
 76
     1
 77
     6
 78
     2
 67
     7
 79
     5
170
     0
171
     0
290
     0
174
     0
 93
       13
 44
0.0
173
     0
291
     1
 45
0.0
1001
ACAD
1000
AcDbSavedByObjectVersion
1070
     0
  0
VISUALSTYLE
  5
949
102
{ACAD_XDICTIONARY
360
99A
102
}
102
{ACAD_REACTORS
330
946
102
}
330
946
100
AcDbVisualStyle
  2
Gouraud
 70
     2
 71
     2
 72
     2
 73
     1
 90
        2
 40
-0.6
 41
30.0
 62
     5
 63
     7
 74
     0
 91
        4
 64
     7
 65
   257
 75
     1
175
     1
 42
1.0
 92
        0
 66
     7
 43
1.0
 76
     1
 77
     6
 78
     2
 67
     7
 79
     5
170
     0
171
     0
290
     0
174
     0
 93
       13
 44
0.0
173
     0
291
     1
 45
0.0
1001
ACAD
1000
AcDbSavedByObjectVersion
1070
     0
  0
VISUALSTYLE
  5
94A
102
{ACAD_XDICTIONARY
360
99C
102
}
102
{ACAD_REACTORS
330
946
102
}
330
946
100
AcDbVisualStyle
  2
GouraudWithEdges
 70
     3
 71
     2
 72
     2
 73
     1
 90
        2
 40
-0.6
 41
30.0
 62
     5
 63
     7
 74
     1
 91
        4
 64
     7
 65
   257
 75
     1
175
     1
 42
1.0
 92
        0
 66
   257
 43
1.0
 76
     1
 77
     6
 78
     2
 67
     7
 79
     5
170
     0
171
     0
290
     0
174
     0
 93
       13
 44
0.0
173
     0
291
     1
 45
0.0
1001
ACAD
1000
AcDbSavedByObjectVersion
1070
     0
  0
VISUALSTYLE
  5
957
102
{ACAD_XDICTIONARY
360
9B6
102
}
102
{ACAD_REACTORS
330
946
102
}
330
946
100
AcDbVisualStyle
  2
JitterOff
 70
    20
 71
     2
 72
     2
 73
     0
 90
        0
 40
-0.6
 41
-30.0
 62
     5
 63
     7
 74
     1
 91
        4
 64
     7
 65
   257
 75
     1
175
     1
 42
1.0
 92
       10
 66
     7
 43
1.0
 76
     1
 77
     6
 78
     2
 67
     7
 79
     5
170
     0
171
     0
290
     0
174
     0
 93
        1
 44
0.0
173
     0
291
     1
 45
0.0
1001
ACAD
1000
AcDbSavedByObjectVersion
1070
     0
  0
VISUALSTYLE
  5
954
102
{ACAD_XDICTIONARY
360
9B0
102
}
102
{ACAD_REACTORS
330
946
102
}
330
946
100
AcDbVisualStyle
  2
Linepattern
 70
    14
 71
     2
 72
     2
 73
     0
 90
        0
 40
-0.6
 41
-30.0
 62
     5
 63
     7
 74
     1
 91
        4
 64
     7
 65
   257
 75
     7
175
     7
 42
1.0
 92
        8
 66
     7
 43
1.0
 76
     1
 77
     6
 78
     2
 67
     7
 79
     5
170
     0
171
     0
290
     0
174
     0
 93
        1
 44
0.0
173
     0
291
     1
 45
0.0
1001
ACAD
1000
AcDbSavedByObjectVersion
1070
     0
  0
VISUALSTYLE
  5
958
102
{ACAD_XDICTIONARY
360
9B8
102
}
102
{ACAD_REACTORS
330
946
102
}
330
946
100
AcDbVisualStyle
  2
OverhangOff
 70
    21
 71
     2
 72
     2
 73
     0
 90
        0
 40
-0.6
 41
-30.0
 62
     5
 63
     7
 74
     1
 91
        4
 64
     7
 65
   257
 75
     1
175
     1
 42
1.0
 92
        9
 66
     7
 43
1.0
 76
     1
 77
     6
 78
     2
 67
     7
 79
     5
170
     0
171
     0
290
     0
174
     0
 93
        1
 44
0.0
173
     0
291
     1
 45
0.0
1001
ACAD
1000
AcDbSavedByObjectVersion
1070
     0
  0
VISUALSTYLE
  5
950
102
{ACAD_XDICTIONARY
360
9A8
102
}
102
{ACAD_REACTORS
330
946
102
}
330
946
100
AcDbVisualStyle
  2
Realistic
 70
     8
 71
     2
 72
     2
 73
     0
 90
        0
 40
-0.6
 41
-30.0
 62
     5
 63
     7
 74
     1
 91
        0
 64
     7
 65
   257
 75
     1
175
     1
 42
1.0
 92
        8
 66
     8
 43
1.0
 76
     1
 77
     6
 78
     2
 67
     7
 79
     5
170
     0
171
     0
290
     0
174
     0
 93
       13
 44
0.0
173
     0
291
     0
 45
0.0
1001
ACAD
1000
AcDbSavedByObjectVersion
1070
     0
  0
VISUALSTYLE
  5
953
102
{ACAD_XDICTIONARY
360
9AE
102
}
102
{ACAD_REACTORS
330
946
102
}
330
946
100
AcDbVisualStyle
  2
Thicken
 70
    13
 71
     2
 72
     2
 73
     0
 90
        0
 40
-0.6
 41
-30.0
 62
     5
 63
     7
 74
     1
 91
        4
 64
     7
 65
   257
 75
     1
175
     1
 42
1.0
 92
       12
 66
     7
 43
1.0
 76
     1
 77
     6
 78
     2
 67
     7
 79
     5
170
     0
171
     0
290
     0
174
     0
 93
        1
 44
0.0
173
     0
291
     1
 45
0.0
1001
ACAD
1000
AcDbSavedByObjectVersion
1070
     0
  0
DICTIONARYVAR
  5
982
102
{ACAD_REACTORS
330
7EB
102
}
330
7EB
100
DictionaryVariables
280
     0
  1
1:1
  0
DICTIONARYVAR
  5
981
102
{ACAD_REACTORS
330
7EB
102
}
330
7EB
100
DictionaryVariables
280
     0
  1
STANDARD
  0
DICTIONARYVAR
  5
7EC
102
{ACAD_REACTORS
330
7EB
102
}
330
7EB
100
DictionaryVariables
280
     0
  1
STANDARD
  0
DICTIONARYVAR
  5
904
102
{ACAD_REACTORS
330
7EB
102
}
330
7EB
100
DictionaryVariables
280
     0
  1
2
  0
DICTIONARYVAR
  5
903
102
{ACAD_REACTORS
330
7EB
102
}
330
7EB
100
DictionaryVariables
280
     0
  1
1
  0
DICTIONARYVAR
  5
984
102
{ACAD_REACTORS
330
7EB
102
}
330
7EB
100
DictionaryVariables
280
     0
  1
0
  0
DICTIONARYVAR
  5
905
102
{ACAD_REACTORS
330
7EB
102
}
330
7EB
100
DictionaryVariables
280
     0
  1

  0
DICTIONARYVAR
  5
983
102
{ACAD_REACTORS
330
7EB
102
}
330
7EB
100
DictionaryVariables
280
     0
  1
127
  0
DICTIONARYVAR
  5
985
102
{ACAD_REACTORS
330
7EB
102
}
330
7EB
100
DictionaryVariables
280
     0
  1
2
  0
DICTIONARY
  5
98D
330
22
100
AcDbDictionary
280
     1
281
     1
  3
ACAD_XREC_ROUNDTRIP
360
98E
  0
DICTIONARY
  5
991
330
2A
100
AcDbDictionary
280
     1
281
     1
  3
ACAD_XREC_ROUNDTRIP
360
992
  0
DICTIONARY
  5
98F
330
26
100
AcDbDictionary
280
     1
281
     1
  3
ACAD_XREC_ROUNDTRIP
360
990
  0
DICTIONARY
  5
937
330
936
100
AcDbDictionary
280
     1
281
     1
  3
ACAD_XREC_ROUNDTRIP
360
994
  3
BUMPTILE
360
939
  3
DIFFUSETILE
360
938
  3
OPACITYTILE
360
93C
  3
REFLECTIONTILE
360
93B
  3
REFRACTIONTILE
360
93D
  3
SPECULARTILE
360
93A
  0
DICTIONARY
  5
92F
330
92E
100
AcDbDictionary
280
     1
281
     1
  3
ACAD_XREC_ROUNDTRIP
360
993
  3
BUMPTILE
360
931
  3
DIFFUSETILE
360
930
  3
OPACITYTILE
360
934
  3
REFLECTIONTILE
360
933
  3
REFRACTIONTILE
360
935
  3
SPECULARTILE
360
932
  0
DICTIONARY
  5
93F
330
93E
100
AcDbDictionary
280
     1
281
     1
  3
ACAD_XREC_ROUNDTRIP
360
995
  3
BUMPTILE
360
941
  3
DIFFUSETILE
360
940
  3
OPACITYTILE
360
944
  3
REFLECTIONTILE
360
943
  3
REFRACTIONTILE
360
945
  3
SPECULARTILE
360
942
  0
DICTIONARY
  5
986
330
1E
100
AcDbDictionary
280
     1
281
     1
  3
ACAD_ROUNDTRIP_2008_TABLESTYLE_CELLSTYLEMAP
360
987
  3
ACAD_XREC_ROUNDTRIP
360
98C
  0
DICTIONARY
  5
9A0
330
94C
100
AcDbDictionary
280
     1
281
     1
  3
ACAD_XREC_ROUNDTRIP
360
9A1
  0
DICTIONARY
  5
9A4
330
94E
100
AcDbDictionary
280
     1
281
     1
  3
ACAD_XREC_ROUNDTRIP
360
9A5
  0
DICTIONARY
  5
9A2
330
94D
100
AcDbDictionary
280
     1
281
     1
  3
ACAD_XREC_ROUNDTRIP
360
9A3
  0
DICTIONARY
  5
99E
330
94B
100
AcDbDictionary
280
     1
281
     1
  3
ACAD_XREC_ROUNDTRIP
360
99F
  0
DICTIONARY
  5
9AC
330
952
100
AcDbDictionary
280
     1
281
     1
  3
ACAD_XREC_ROUNDTRIP
360
9AD
  0
DICTIONARY
  5
9B4
330
956
100
AcDbDictionary
280
     1
281
     1
  3
ACAD_XREC_ROUNDTRIP
360
9B5
  0
DICTIONARY
  5
9A6
330
94F
100
AcDbDictionary
280
     1
281
     1
  3
ACAD_XREC_ROUNDTRIP
360
9A7
  0
DICTIONARY
  5
9AA
330
951
100
AcDbDictionary
280
     1
281
     1
  3
ACAD_XREC_ROUNDTRIP
360
9AB
  0
DICTIONARY
  5
9BA
330
959
100
AcDbDictionary
280
     1
281
     1
  3
ACAD_XREC_ROUNDTRIP
360
9BB
  0
DICTIONARY
  5
9B2
330
955
100
AcDbDictionary
280
     1
281
     1
  3
ACAD_XREC_ROUNDTRIP
360
9B3
  0
DICTIONARY
  5
996
330
947
100
AcDbDictionary
280
     1
281
     1
  3
ACAD_XREC_ROUNDTRIP
360
997
  0
DICTIONARY
  5
998
330
948
100
AcDbDictionary
280
     1
281
     1
  3
ACAD_XREC_ROUNDTRIP
360
999
  0
DICTIONARY
  5
99A
330
949
100
AcDbDictionary
280
     1
281
     1
  3
ACAD_XREC_ROUNDTRIP
360
99B
  0
DICTIONARY
  5
99C
330
94A
100
AcDbDictionary
280
     1
281
     1
  3
ACAD_XREC_ROUNDTRIP
360
99D
  0
DICTIONARY
  5
9B6
330
957
100
AcDbDictionary
280
     1
281
     1
  3
ACAD_XREC_ROUNDTRIP
360
9B7
  0
DICTIONARY
  5
9B0
330
954
100
AcDbDictionary
280
     1
281
     1
  3
ACAD_XREC_ROUNDTRIP
360
9B1
  0
DICTIONARY
  5
9B8
330
958
100
AcDbDictionary
280
     1
281
     1
  3
ACAD_XREC_ROUNDTRIP
360
9B9
  0
DICTIONARY
  5
9A8
330
950
100
AcDbDictionary
280
     1
281
     1
  3
ACAD_XREC_ROUNDTRIP
360
9A9
  0
DICTIONARY
  5
9AE
330
953
100
AcDbDictionary
280
     1
281
     1
  3
ACAD_XREC_ROUNDTRIP
360
9AF
  0
XRECORD
  5
98E
102
{ACAD_REACTORS
330
98D
102
}
330
98D
100
AcDbXrecord
280
     1
102
SHADEPLOT
 70
     0
102
SHADEPLOTRESLEVEL
 70
     2
102
SHADEPLOTCUSTOMDPI
 70
   300
  0
XRECORD
  5
992
102
{ACAD_REACTORS
330
991
102
}
330
991
100
AcDbXrecord
280
     1
102
SHADEPLOT
 70
     0
102
SHADEPLOTRESLEVEL
 70
     2
102
SHADEPLOTCUSTOMDPI
 70
   300
  0
XRECORD
  5
990
102
{ACAD_REACTORS
330
98F
102
}
330
98F
100
AcDbXrecord
280
     1
102
SHADEPLOT
 70
     0
102
SHADEPLOTRESLEVEL
 70
     2
102
SHADEPLOTCUSTOMDPI
 70
   300
  0
XRECORD
  5
994
102
{ACAD_REACTORS
330
937
102
}
330
937
100
AcDbXrecord
280
     1
102
MATERIAL
148
0.0
149
0.0
149
0.0
 93
        0
 94
      127
282
     0
 72
     0
 77
     0
171
     0
175
     0
179
     0
273
     0
  0
XRECORD
  5
939
102
{ACAD_REACTORS
330
937
102
}
330
937
100
AcDbXrecord
280
     1
270
     1
271
     1
  0
XRECORD
  5
938
102
{ACAD_REACTORS
330
937
102
}
330
937
100
AcDbXrecord
280
     1
270
     1
271
     1
  0
XRECORD
  5
93C
102
{ACAD_REACTORS
330
937
102
}
330
937
100
AcDbXrecord
280
     1
270
     1
271
     1
  0
XRECORD
  5
93B
102
{ACAD_REACTORS
330
937
102
}
330
937
100
AcDbXrecord
280
     1
270
     1
271
     1
  0
XRECORD
  5
93D
102
{ACAD_REACTORS
330
937
102
}
330
937
100
AcDbXrecord
280
     1
270
     1
271
     1
  0
XRECORD
  5
93A
102
{ACAD_REACTORS
330
937
102
}
330
937
100
AcDbXrecord
280
     1
270
     1
271
     1
  0
XRECORD
  5
993
102
{ACAD_REACTORS
330
92F
102
}
330
92F
100
AcDbXrecord
280
     1
102
MATERIAL
148
0.0
149
0.0
149
0.0
 93
        0
 94
      127
282
     0
 72
     0
 77
     0
171
     0
175
     0
179
     0
273
     0
  0
XRECORD
  5
931
102
{ACAD_REACTORS
330
92F
102
}
330
92F
100
AcDbXrecord
280
     1
270
     1
271
     1
  0
XRECORD
  5
930
102
{ACAD_REACTORS
330
92F
102
}
330
92F
100
AcDbXrecord
280
     1
270
     1
271
     1
  0
XRECORD
  5
934
102
{ACAD_REACTORS
330
92F
102
}
330
92F
100
AcDbXrecord
280
     1
270
     1
271
     1
  0
XRECORD
  5
933
102
{ACAD_REACTORS
330
92F
102
}
330
92F
100
AcDbXrecord
280
     1
270
     1
271
     1
  0
XRECORD
  5
935
102
{ACAD_REACTORS
330
92F
102
}
330
92F
100
AcDbXrecord
280
     1
270
     1
271
     1
  0
XRECORD
  5
932
102
{ACAD_REACTORS
330
92F
102
}
330
92F
100
AcDbXrecord
280
     1
270
     1
271
     1
  0
XRECORD
  5
995
102
{ACAD_REACTORS
330
93F
102
}
330
93F
100
AcDbXrecord
280
     1
102
MATERIAL
148
0.0
149
0.0
149
0.0
 93
        0
 94
      127
282
     0
 72
     0
 77
     0
171
     0
175
     0
179
     0
273
     0
  0
XRECORD
  5
941
102
{ACAD_REACTORS
330
93F
102
}
330
93F
100
AcDbXrecord
280
     1
270
     1
271
     1
  0
XRECORD
  5
940
102
{ACAD_REACTORS
330
93F
102
}
330
93F
100
AcDbXrecord
280
     1
270
     1
271
     1
  0
XRECORD
  5
944
102
{ACAD_REACTORS
330
93F
102
}
330
93F
100
AcDbXrecord
280
     1
270
     1
271
     1
  0
XRECORD
  5
943
102
{ACAD_REACTORS
330
93F
102
}
330
93F
100
AcDbXrecord
280
     1
270
     1
271
     1
  0
XRECORD
  5
945
102
{ACAD_REACTORS
330
93F
102
}
330
93F
100
AcDbXrecord
280
     1
270
     1
271
     1
  0
XRECORD
  5
942
102
{ACAD_REACTORS
330
93F
102
}
330
93F
100
AcDbXrecord
280
     1
270
     1
271
     1
  0
CELLSTYLEMAP
  5
987
102
{ACAD_REACTORS
330
986
102
}
330
986
100
AcDbCellStyleMap
 90
        3
300
CELLSTYLE
  1
TABLEFORMAT_BEGIN
 90
        5
170
     1
 91
        0
 92
    32768
 62
   257
 93
        1
300
CONTENTFORMAT
  1
CONTENTFORMAT_BEGIN
 90
        0
 91
        0
 92
        4
 93
        0
300

 40
0.0
140
1.0
 94
        5
 62
     0
340
11
144
6.0
309
CONTENTFORMAT_END
171
     1
301
MARGIN
  1
CELLMARGIN_BEGIN
 40
1.5
 40
1.5
 40
1.5
 40
1.5
 40
0.18
 40
0.18
309
CELLMARGIN_END
 94
        6
 95
        1
302
GRIDFORMAT
  1
GRIDFORMAT_BEGIN
 90
        0
 91
        1
 62
     0
 92
       -2
340
0
 93
        0
 40
0.045
309
GRIDFORMAT_END
 95
        2
302
GRIDFORMAT
  1
GRIDFORMAT_BEGIN
 90
        0
 91
        1
 62
     0
 92
       -2
340
0
 93
        0
 40
0.045
309
GRIDFORMAT_END
 95
        4
302
GRIDFORMAT
  1
GRIDFORMAT_BEGIN
 90
        0
 91
        1
 62
     0
 92
       -2
340
0
 93
        0
 40
0.045
309
GRIDFORMAT_END
 95
        8
302
GRIDFORMAT
  1
GRIDFORMAT_BEGIN
 90
        0
 91
        1
 62
     0
 92
       -2
340
0
 93
        0
 40
0.045
309
GRIDFORMAT_END
 95
       16
302
GRIDFORMAT
  1
GRIDFORMAT_BEGIN
 90
        0
 91
        1
 62
     0
 92
       -2
340
0
 93
        0
 40
0.045
309
GRIDFORMAT_END
 95
       32
302
GRIDFORMAT
  1
GRIDFORMAT_BEGIN
 90
        0
 91
        1
 62
     0
 92
       -2
340
0
 93
        0
 40
0.045
309
GRIDFORMAT_END
309
TABLEFORMAT_END
  1
CELLSTYLE_BEGIN
 90
        1
 91
        1
300
_TITLE
309
CELLSTYLE_END
300
CELLSTYLE
  1
TABLEFORMAT_BEGIN
 90
        5
170
     1
 91
        0
 92
        0
 62
   257
 93
        1
300
CONTENTFORMAT
  1
CONTENTFORMAT_BEGIN
 90
        0
 91
        0
 92
        4
 93
        0
300

 40
0.0
140
1.0
 94
        5
 62
     0
340
11
144
4.5
309
CONTENTFORMAT_END
171
     1
301
MARGIN
  1
CELLMARGIN_BEGIN
 40
1.5
 40
1.5
 40
1.5
 40
1.5
 40
0.18
 40
0.18
309
CELLMARGIN_END
 94
        6
 95
        1
302
GRIDFORMAT
  1
GRIDFORMAT_BEGIN
 90
        0
 91
        1
 62
     0
 92
       -2
340
0
 93
        0
 40
0.045
309
GRIDFORMAT_END
 95
        2
302
GRIDFORMAT
  1
GRIDFORMAT_BEGIN
 90
        0
 91
        1
 62
     0
 92
       -2
340
0
 93
        0
 40
0.045
309
GRIDFORMAT_END
 95
        4
302
GRIDFORMAT
  1
GRIDFORMAT_BEGIN
 90
        0
 91
        1
 62
     0
 92
       -2
340
0
 93
        0
 40
0.045
309
GRIDFORMAT_END
 95
        8
302
GRIDFORMAT
  1
GRIDFORMAT_BEGIN
 90
        0
 91
        1
 62
     0
 92
       -2
340
0
 93
        0
 40
0.045
309
GRIDFORMAT_END
 95
       16
302
GRIDFORMAT
  1
GRIDFORMAT_BEGIN
 90
        0
 91
        1
 62
     0
 92
       -2
340
0
 93
        0
 40
0.045
309
GRIDFORMAT_END
 95
       32
302
GRIDFORMAT
  1
GRIDFORMAT_BEGIN
 90
        0
 91
        1
 62
     0
 92
       -2
340
0
 93
        0
 40
0.045
309
GRIDFORMAT_END
309
TABLEFORMAT_END
  1
CELLSTYLE_BEGIN
 90
        2
 91
        1
300
_HEADER
309
CELLSTYLE_END
300
CELLSTYLE
  1
TABLEFORMAT_BEGIN
 90
        5
170
     1
 91
        0
 92
        0
 62
   257
 93
        1
300
CONTENTFORMAT
  1
CONTENTFORMAT_BEGIN
 90
        0
 91
        0
 92
        4
 93
        0
300

 40
0.0
140
1.0
 94
        2
 62
     0
340
11
144
4.5
309
CONTENTFORMAT_END
171
     1
301
MARGIN
  1
CELLMARGIN_BEGIN
 40
1.5
 40
1.5
 40
1.5
 40
1.5
 40
0.18
 40
0.18
309
CELLMARGIN_END
 94
        6
 95
        1
302
GRIDFORMAT
  1
GRIDFORMAT_BEGIN
 90
        0
 91
        1
 62
     0
 92
       -2
340
0
 93
        0
 40
0.045
309
GRIDFORMAT_END
 95
        2
302
GRIDFORMAT
  1
GRIDFORMAT_BEGIN
 90
        0
 91
        1
 62
     0
 92
       -2
340
0
 93
        0
 40
0.045
309
GRIDFORMAT_END
 95
        4
302
GRIDFORMAT
  1
GRIDFORMAT_BEGIN
 90
        0
 91
        1
 62
     0
 92
       -2
340
0
 93
        0
 40
0.045
309
GRIDFORMAT_END
 95
        8
302
GRIDFORMAT
  1
GRIDFORMAT_BEGIN
 90
        0
 91
        1
 62
     0
 92
       -2
340
0
 93
        0
 40
0.045
309
GRIDFORMAT_END
 95
       16
302
GRIDFORMAT
  1
GRIDFORMAT_BEGIN
 90
        0
 91
        1
 62
     0
 92
       -2
340
0
 93
        0
 40
0.045
309
GRIDFORMAT_END
 95
       32
302
GRIDFORMAT
  1
GRIDFORMAT_BEGIN
 90
        0
 91
        1
 62
     0
 92
       -2
340
0
 93
        0
 40
0.045
309
GRIDFORMAT_END
309
TABLEFORMAT_END
  1
CELLSTYLE_BEGIN
 90
        3
 91
        2
300
_DATA
309
CELLSTYLE_END
  0
XRECORD
  5
98C
102
{ACAD_REACTORS
330
986
102
}
330
986
100
AcDbXrecord
280
     1
102
ACAD_ROUNDTRIP_PRE2007_TABLESTYLE
 90
        4
 91
        0
  1

 92
        4
 93
        0
  2

 94
        4
 95
        0
  3

  0
XRECORD
  5
9A1
102
{ACAD_REACTORS
330
9A0
102
}
330
9A0
100
AcDbXrecord
280
     1
102
RTVSPropertyOp0
 70
     1
102
RTVSPropertyOp1
 70
     1
102
RTVSPropertyOp2
 70
     1
102
RTVSPropertyOp3
 70
     1
102
RTVSPropertyOp4
 70
     1
102
RTVSPropertyOp5
 70
     1
102
RTVSPropertyOp6
 70
     1
102
RTVSPropertyOp7
 70
     1
102
RTVSPropertyOp8
 70
     1
102
RTVSPropertyOp9
 70
     1
102
RTVSPropertyOp10
 70
     1
102
RTVSPropertyOp11
 70
     1
102
RTVSPropertyOp12
 70
     1
102
RTVSPropertyOp13
 70
     1
102
RTVSPropertyOp14
 70
     1
102
RTVSPropertyOp15
 70
     1
102
RTVSPropertyOp16
 70
     1
102
RTVSPropertyOp17
 70
     1
102
RTVSPropertyOp18
 70
     1
102
RTVSPropertyOp19
 70
     1
102
RTVSPropertyOp20
 70
     1
102
RTVSPropertyOp21
 70
     1
102
RTVSPropertyOp22
 70
     1
102
RTVSPropertyOp23
 70
     1
102
RTVSPropertyOp24
 70
     1
102
RTVSPropertyOp25
 70
     1
102
RTVSPropertyOp26
 70
     1
102
RTVSPropertyOp27
 70
     1
  0
XRECORD
  5
9A5
102
{ACAD_REACTORS
330
9A4
102
}
330
9A4
100
AcDbXrecord
280
     1
102
RTVSPropertyOp0
 70
     1
102
RTVSPropertyOp1
 70
     1
102
RTVSPropertyOp2
 70
     1
102
RTVSPropertyOp3
 70
     1
102
RTVSPropertyOp4
 70
     1
102
RTVSPropertyOp5
 70
     1
102
RTVSPropertyOp6
 70
     1
102
RTVSPropertyOp7
 70
     1
102
RTVSPropertyOp8
 70
     1
102
RTVSPropertyOp9
 70
     1
102
RTVSPropertyOp10
 70
     1
102
RTVSPropertyOp11
 70
     1
102
RTVSPropertyOp12
 70
     1
102
RTVSPropertyOp13
 70
     1
102
RTVSPropertyOp14
 70
     1
102
RTVSPropertyOp15
 70
     1
102
RTVSPropertyOp16
 70
     1
102
RTVSPropertyOp17
 70
     1
102
RTVSPropertyOp18
 70
     1
102
RTVSPropertyOp19
 70
     1
102
RTVSPropertyOp20
 70
     1
102
RTVSPropertyOp21
 70
     1
102
RTVSPropertyOp22
 70
     1
102
RTVSPropertyOp23
 70
     1
102
RTVSPropertyOp24
 70
     1
102
RTVSPropertyOp25
 70
     1
102
RTVSPropertyOp26
 70
     1
102
RTVSPropertyOp27
 70
     1
  0
XRECORD
  5
9A3
102
{ACAD_REACTORS
330
9A2
102
}
330
9A2
100
AcDbXrecord
280
     1
102
RTVSPropertyOp0
 70
     1
102
RTVSPropertyOp1
 70
     1
102
RTVSPropertyOp2
 70
     1
102
RTVSPropertyOp3
 70
     1
102
RTVSPropertyOp4
 70
     1
102
RTVSPropertyOp5
 70
     1
102
RTVSPropertyOp6
 70
     1
102
RTVSPropertyOp7
 70
     1
102
RTVSPropertyOp8
 70
     1
102
RTVSPropertyOp9
 70
     1
102
RTVSPropertyOp10
 70
     1
102
RTVSPropertyOp11
 70
     1
102
RTVSPropertyOp12
 70
     1
102
RTVSPropertyOp13
 70
     1
102
RTVSPropertyOp14
 70
     1
102
RTVSPropertyOp15
 70
     1
102
RTVSPropertyOp16
 70
     1
102
RTVSPropertyOp17
 70
     1
102
RTVSPropertyOp18
 70
     1
102
RTVSPropertyOp19
 70
     1
102
RTVSPropertyOp20
 70
     1
102
RTVSPropertyOp21
 70
     1
102
RTVSPropertyOp22
 70
     1
102
RTVSPropertyOp23
 70
     1
102
RTVSPropertyOp24
 70
     1
102
RTVSPropertyOp25
 70
     1
102
RTVSPropertyOp26
 70
     1
102
RTVSPropertyOp27
 70
     1
  0
XRECORD
  5
99F
102
{ACAD_REACTORS
330
99E
102
}
330
99E
100
AcDbXrecord
280
     1
102
RTVSPropertyOp0
 70
     1
102
RTVSPropertyOp1
 70
     1
102
RTVSPropertyOp2
 70
     1
102
RTVSPropertyOp3
 70
     1
102
RTVSPropertyOp4
 70
     1
102
RTVSPropertyOp5
 70
     1
102
RTVSPropertyOp6
 70
     1
102
RTVSPropertyOp7
 70
     1
102
RTVSPropertyOp8
 70
     1
102
RTVSPropertyOp9
 70
     1
102
RTVSPropertyOp10
 70
     1
102
RTVSPropertyOp11
 70
     1
102
RTVSPropertyOp12
 70
     1
102
RTVSPropertyOp13
 70
     1
102
RTVSPropertyOp14
 70
     1
102
RTVSPropertyOp15
 70
     1
102
RTVSPropertyOp16
 70
     1
102
RTVSPropertyOp17
 70
     1
102
RTVSPropertyOp18
 70
     1
102
RTVSPropertyOp19
 70
     1
102
RTVSPropertyOp20
 70
     1
102
RTVSPropertyOp21
 70
     1
102
RTVSPropertyOp22
 70
     1
102
RTVSPropertyOp23
 70
     1
102
RTVSPropertyOp24
 70
     1
102
RTVSPropertyOp25
 70
     1
102
RTVSPropertyOp26
 70
     1
102
RTVSPropertyOp27
 70
     1
  0
XRECORD
  5
9AD
102
{ACAD_REACTORS
330
9AC
102
}
330
9AC
100
AcDbXrecord
280
     1
102
RTVSPropertyOp0
 70
     1
102
RTVSPropertyOp1
 70
     1
102
RTVSPropertyOp2
 70
     1
102
RTVSPropertyOp3
 70
     1
102
RTVSPropertyOp4
 70
     1
102
RTVSPropertyOp5
 70
     1
102
RTVSPropertyOp6
 70
     1
102
RTVSPropertyOp7
 70
     1
102
RTVSPropertyOp8
 70
     1
102
RTVSPropertyOp9
 70
     1
102
RTVSPropertyOp10
 70
     1
102
RTVSPropertyOp11
 70
     1
102
RTVSPropertyOp12
 70
     1
102
RTVSPropertyOp13
 70
     1
102
RTVSPropertyOp14
 70
     1
102
RTVSPropertyOp15
 70
     1
102
RTVSPropertyOp16
 70
     1
102
RTVSPropertyOp17
 70
     1
102
RTVSPropertyOp18
 70
     1
102
RTVSPropertyOp19
 70
     1
102
RTVSPropertyOp20
 70
     1
102
RTVSPropertyOp21
 70
     1
102
RTVSPropertyOp22
 70
     1
102
RTVSPropertyOp23
 70
     1
102
RTVSPropertyOp24
 70
     1
102
RTVSPropertyOp25
 70
     1
102
RTVSPropertyOp26
 70
     1
102
RTVSPropertyOp27
 70
     1
  0
XRECORD
  5
9B5
102
{ACAD_REACTORS
330
9B4
102
}
330
9B4
100
AcDbXrecord
280
     1
102
RTVSPropertyOp0
 70
     1
102
RTVSPropertyOp1
 70
     1
102
RTVSPropertyOp2
 70
     1
102
RTVSPropertyOp3
 70
     1
102
RTVSPropertyOp4
 70
     1
102
RTVSPropertyOp5
 70
     1
102
RTVSPropertyOp6
 70
     1
102
RTVSPropertyOp7
 70
     1
102
RTVSPropertyOp8
 70
     1
102
RTVSPropertyOp9
 70
     1
102
RTVSPropertyOp10
 70
     1
102
RTVSPropertyOp11
 70
     1
102
RTVSPropertyOp12
 70
     1
102
RTVSPropertyOp13
 70
     1
102
RTVSPropertyOp14
 70
     1
102
RTVSPropertyOp15
 70
     1
102
RTVSPropertyOp16
 70
     1
102
RTVSPropertyOp17
 70
     1
102
RTVSPropertyOp18
 70
     1
102
RTVSPropertyOp19
 70
     1
102
RTVSPropertyOp20
 70
     1
102
RTVSPropertyOp21
 70
     1
102
RTVSPropertyOp22
 70
     1
102
RTVSPropertyOp23
 70
     1
102
RTVSPropertyOp24
 70
     1
102
RTVSPropertyOp25
 70
     1
102
RTVSPropertyOp26
 70
     1
102
RTVSPropertyOp27
 70
     1
  0
XRECORD
  5
9A7
102
{ACAD_REACTORS
330
9A6
102
}
330
9A6
100
AcDbXrecord
280
     1
102
RTVSPropertyOp0
 70
     1
102
RTVSPropertyOp1
 70
     1
102
RTVSPropertyOp2
 70
     1
102
RTVSPropertyOp3
 70
     1
102
RTVSPropertyOp4
 70
     1
102
RTVSPropertyOp5
 70
     1
102
RTVSPropertyOp6
 70
     1
102
RTVSPropertyOp7
 70
     1
102
RTVSPropertyOp8
 70
     1
102
RTVSPropertyOp9
 70
     1
102
RTVSPropertyOp10
 70
     1
102
RTVSPropertyOp11
 70
     1
102
RTVSPropertyOp12
 70
     1
102
RTVSPropertyOp13
 70
     1
102
RTVSPropertyOp14
 70
     1
102
RTVSPropertyOp15
 70
     1
102
RTVSPropertyOp16
 70
     1
102
RTVSPropertyOp17
 70
     1
102
RTVSPropertyOp18
 70
     1
102
RTVSPropertyOp19
 70
     1
102
RTVSPropertyOp20
 70
     1
102
RTVSPropertyOp21
 70
     1
102
RTVSPropertyOp22
 70
     1
102
RTVSPropertyOp23
 70
     1
102
RTVSPropertyOp24
 70
     1
102
RTVSPropertyOp25
 70
     1
102
RTVSPropertyOp26
 70
     1
102
RTVSPropertyOp27
 70
     1
  0
XRECORD
  5
9AB
102
{ACAD_REACTORS
330
9AA
102
}
330
9AA
100
AcDbXrecord
280
     1
102
RTVSPropertyOp0
 70
     1
102
RTVSPropertyOp1
 70
     1
102
RTVSPropertyOp2
 70
     1
102
RTVSPropertyOp3
 70
     1
102
RTVSPropertyOp4
 70
     1
102
RTVSPropertyOp5
 70
     1
102
RTVSPropertyOp6
 70
     1
102
RTVSPropertyOp7
 70
     1
102
RTVSPropertyOp8
 70
     1
102
RTVSPropertyOp9
 70
     1
102
RTVSPropertyOp10
 70
     1
102
RTVSPropertyOp11
 70
     1
102
RTVSPropertyOp12
 70
     1
102
RTVSPropertyOp13
 70
     1
102
RTVSPropertyOp14
 70
     1
102
RTVSPropertyOp15
 70
     1
102
RTVSPropertyOp16
 70
     1
102
RTVSPropertyOp17
 70
     1
102
RTVSPropertyOp18
 70
     1
102
RTVSPropertyOp19
 70
     1
102
RTVSPropertyOp20
 70
     1
102
RTVSPropertyOp21
 70
     1
102
RTVSPropertyOp22
 70
     1
102
RTVSPropertyOp23
 70
     1
102
RTVSPropertyOp24
 70
     1
102
RTVSPropertyOp25
 70
     1
102
RTVSPropertyOp26
 70
     1
102
RTVSPropertyOp27
 70
     1
  0
XRECORD
  5
9BB
102
{ACAD_REACTORS
330
9BA
102
}
330
9BA
100
AcDbXrecord
280
     1
102
RTVSPropertyOp0
 70
     0
102
RTVSPropertyOp1
 70
     0
102
RTVSPropertyOp2
 70
     0
102
RTVSPropertyOp3
 70
     0
102
RTVSPropertyOp4
 70
     0
102
RTVSPropertyOp5
 70
     0
102
RTVSPropertyOp6
 70
     0
102
RTVSPropertyOp7
 70
     0
102
RTVSPropertyOp8
 70
     0
102
RTVSPropertyOp9
 70
     0
102
RTVSPropertyOp10
 70
     0
102
RTVSPropertyOp11
 70
     0
102
RTVSPropertyOp12
 70
     0
102
RTVSPropertyOp13
 70
     0
102
RTVSPropertyOp14
 70
     2
102
RTVSPropertyOp15
 70
     0
102
RTVSPropertyOp16
 70
     0
102
RTVSPropertyOp17
 70
     0
102
RTVSPropertyOp18
 70
     0
102
RTVSPropertyOp19
 70
     0
102
RTVSPropertyOp20
 70
     0
102
RTVSPropertyOp21
 70
     0
102
RTVSPropertyOp22
 70
     0
102
RTVSPropertyOp23
 70
     0
102
RTVSPropertyOp24
 70
     0
102
RTVSPropertyOp25
 70
     0
102
RTVSPropertyOp26
 70
     0
102
RTVSPropertyOp27
 70
     0
  0
XRECORD
  5
9B3
102
{ACAD_REACTORS
330
9B2
102
}
330
9B2
100
AcDbXrecord
280
     1
102
RTVSPropertyOp0
 70
     1
102
RTVSPropertyOp1
 70
     1
102
RTVSPropertyOp2
 70
     1
102
RTVSPropertyOp3
 70
     1
102
RTVSPropertyOp4
 70
     1
102
RTVSPropertyOp5
 70
     1
102
RTVSPropertyOp6
 70
     1
102
RTVSPropertyOp7
 70
     1
102
RTVSPropertyOp8
 70
     1
102
RTVSPropertyOp9
 70
     1
102
RTVSPropertyOp10
 70
     1
102
RTVSPropertyOp11
 70
     1
102
RTVSPropertyOp12
 70
     1
102
RTVSPropertyOp13
 70
     1
102
RTVSPropertyOp14
 70
     1
102
RTVSPropertyOp15
 70
     1
102
RTVSPropertyOp16
 70
     1
102
RTVSPropertyOp17
 70
     1
102
RTVSPropertyOp18
 70
     1
102
RTVSPropertyOp19
 70
     1
102
RTVSPropertyOp20
 70
     1
102
RTVSPropertyOp21
 70
     1
102
RTVSPropertyOp22
 70
     1
102
RTVSPropertyOp23
 70
     1
102
RTVSPropertyOp24
 70
     1
102
RTVSPropertyOp25
 70
     1
102
RTVSPropertyOp26
 70
     1
102
RTVSPropertyOp27
 70
     1
  0
XRECORD
  5
997
102
{ACAD_REACTORS
330
996
102
}
330
996
100
AcDbXrecord
280
     1
102
RTVSPropertyOp0
 70
     1
102
RTVSPropertyOp1
 70
     1
102
RTVSPropertyOp2
 70
     1
102
RTVSPropertyOp3
 70
     1
102
RTVSPropertyOp4
 70
     1
102
RTVSPropertyOp5
 70
     1
102
RTVSPropertyOp6
 70
     1
102
RTVSPropertyOp7
 70
     1
102
RTVSPropertyOp8
 70
     1
102
RTVSPropertyOp9
 70
     1
102
RTVSPropertyOp10
 70
     1
102
RTVSPropertyOp11
 70
     1
102
RTVSPropertyOp12
 70
     1
102
RTVSPropertyOp13
 70
     1
102
RTVSPropertyOp14
 70
     1
102
RTVSPropertyOp15
 70
     1
102
RTVSPropertyOp16
 70
     1
102
RTVSPropertyOp17
 70
     1
102
RTVSPropertyOp18
 70
     1
102
RTVSPropertyOp19
 70
     1
102
RTVSPropertyOp20
 70
     1
102
RTVSPropertyOp21
 70
     1
102
RTVSPropertyOp22
 70
     1
102
RTVSPropertyOp23
 70
     1
102
RTVSPropertyOp24
 70
     1
102
RTVSPropertyOp25
 70
     1
102
RTVSPropertyOp26
 70
     1
102
RTVSPropertyOp27
 70
     1
  0
XRECORD
  5
999
102
{ACAD_REACTORS
330
998
102
}
330
998
100
AcDbXrecord
280
     1
102
RTVSPropertyOp0
 70
     1
102
RTVSPropertyOp1
 70
     1
102
RTVSPropertyOp2
 70
     1
102
RTVSPropertyOp3
 70
     1
102
RTVSPropertyOp4
 70
     1
102
RTVSPropertyOp5
 70
     1
102
RTVSPropertyOp6
 70
     1
102
RTVSPropertyOp7
 70
     1
102
RTVSPropertyOp8
 70
     1
102
RTVSPropertyOp9
 70
     1
102
RTVSPropertyOp10
 70
     1
102
RTVSPropertyOp11
 70
     1
102
RTVSPropertyOp12
 70
     1
102
RTVSPropertyOp13
 70
     1
102
RTVSPropertyOp14
 70
     1
102
RTVSPropertyOp15
 70
     1
102
RTVSPropertyOp16
 70
     1
102
RTVSPropertyOp17
 70
     1
102
RTVSPropertyOp18
 70
     1
102
RTVSPropertyOp19
 70
     1
102
RTVSPropertyOp20
 70
     1
102
RTVSPropertyOp21
 70
     1
102
RTVSPropertyOp22
 70
     1
102
RTVSPropertyOp23
 70
     1
102
RTVSPropertyOp24
 70
     1
102
RTVSPropertyOp25
 70
     1
102
RTVSPropertyOp26
 70
     1
102
RTVSPropertyOp27
 70
     1
  0
XRECORD
  5
99B
102
{ACAD_REACTORS
330
99A
102
}
330
99A
100
AcDbXrecord
280
     1
102
RTVSPropertyOp0
 70
     1
102
RTVSPropertyOp1
 70
     1
102
RTVSPropertyOp2
 70
     1
102
RTVSPropertyOp3
 70
     1
102
RTVSPropertyOp4
 70
     1
102
RTVSPropertyOp5
 70
     1
102
RTVSPropertyOp6
 70
     1
102
RTVSPropertyOp7
 70
     1
102
RTVSPropertyOp8
 70
     1
102
RTVSPropertyOp9
 70
     1
102
RTVSPropertyOp10
 70
     1
102
RTVSPropertyOp11
 70
     1
102
RTVSPropertyOp12
 70
     1
102
RTVSPropertyOp13
 70
     1
102
RTVSPropertyOp14
 70
     1
102
RTVSPropertyOp15
 70
     1
102
RTVSPropertyOp16
 70
     1
102
RTVSPropertyOp17
 70
     1
102
RTVSPropertyOp18
 70
     1
102
RTVSPropertyOp19
 70
     1
102
RTVSPropertyOp20
 70
     1
102
RTVSPropertyOp21
 70
     1
102
RTVSPropertyOp22
 70
     1
102
RTVSPropertyOp23
 70
     1
102
RTVSPropertyOp24
 70
     1
102
RTVSPropertyOp25
 70
     1
102
RTVSPropertyOp26
 70
     1
102
RTVSPropertyOp27
 70
     1
  0
XRECORD
  5
99D
102
{ACAD_REACTORS
330
99C
102
}
330
99C
100
AcDbXrecord
280
     1
102
RTVSPropertyOp0
 70
     1
102
RTVSPropertyOp1
 70
     1
102
RTVSPropertyOp2
 70
     1
102
RTVSPropertyOp3
 70
     1
102
RTVSPropertyOp4
 70
     1
102
RTVSPropertyOp5
 70
     1
102
RTVSPropertyOp6
 70
     1
102
RTVSPropertyOp7
 70
     1
102
RTVSPropertyOp8
 70
     1
102
RTVSPropertyOp9
 70
     1
102
RTVSPropertyOp10
 70
     1
102
RTVSPropertyOp11
 70
     1
102
RTVSPropertyOp12
 70
     1
102
RTVSPropertyOp13
 70
     1
102
RTVSPropertyOp14
 70
     1
102
RTVSPropertyOp15
 70
     1
102
RTVSPropertyOp16
 70
     1
102
RTVSPropertyOp17
 70
     1
102
RTVSPropertyOp18
 70
     1
102
RTVSPropertyOp19
 70
     1
102
RTVSPropertyOp20
 70
     1
102
RTVSPropertyOp21
 70
     1
102
RTVSPropertyOp22
 70
     1
102
RTVSPropertyOp23
 70
     1
102
RTVSPropertyOp24
 70
     1
102
RTVSPropertyOp25
 70
     1
102
RTVSPropertyOp26
 70
     1
102
RTVSPropertyOp27
 70
     1
  0
XRECORD
  5
9B7
102
{ACAD_REACTORS
330
9B6
102
}
330
9B6
100
AcDbXrecord
280
     1
102
RTVSPropertyOp0
 70
     0
102
RTVSPropertyOp1
 70
     0
102
RTVSPropertyOp2
 70
     0
102
RTVSPropertyOp3
 70
     0
102
RTVSPropertyOp4
 70
     0
102
RTVSPropertyOp5
 70
     0
102
RTVSPropertyOp6
 70
     0
102
RTVSPropertyOp7
 70
     0
102
RTVSPropertyOp8
 70
     0
102
RTVSPropertyOp9
 70
     0
102
RTVSPropertyOp10
 70
     0
102
RTVSPropertyOp11
 70
     0
102
RTVSPropertyOp12
 70
     0
102
RTVSPropertyOp13
 70
     0
102
RTVSPropertyOp14
 70
     2
102
RTVSPropertyOp15
 70
     0
102
RTVSPropertyOp16
 70
     0
102
RTVSPropertyOp17
 70
     0
102
RTVSPropertyOp18
 70
     0
102
RTVSPropertyOp19
 70
     0
102
RTVSPropertyOp20
 70
     0
102
RTVSPropertyOp21
 70
     0
102
RTVSPropertyOp22
 70
     0
102
RTVSPropertyOp23
 70
     0
102
RTVSPropertyOp24
 70
     0
102
RTVSPropertyOp25
 70
     0
102
RTVSPropertyOp26
 70
     0
102
RTVSPropertyOp27
 70
     0
  0
XRECORD
  5
9B1
102
{ACAD_REACTORS
330
9B0
102
}
330
9B0
100
AcDbXrecord
280
     1
102
RTVSPropertyOp0
 70
     1
102
RTVSPropertyOp1
 70
     1
102
RTVSPropertyOp2
 70
     1
102
RTVSPropertyOp3
 70
     1
102
RTVSPropertyOp4
 70
     1
102
RTVSPropertyOp5
 70
     1
102
RTVSPropertyOp6
 70
     1
102
RTVSPropertyOp7
 70
     1
102
RTVSPropertyOp8
 70
     1
102
RTVSPropertyOp9
 70
     1
102
RTVSPropertyOp10
 70
     1
102
RTVSPropertyOp11
 70
     1
102
RTVSPropertyOp12
 70
     1
102
RTVSPropertyOp13
 70
     1
102
RTVSPropertyOp14
 70
     1
102
RTVSPropertyOp15
 70
     1
102
RTVSPropertyOp16
 70
     1
102
RTVSPropertyOp17
 70
     1
102
RTVSPropertyOp18
 70
     1
102
RTVSPropertyOp19
 70
     1
102
RTVSPropertyOp20
 70
     1
102
RTVSPropertyOp21
 70
     1
102
RTVSPropertyOp22
 70
     1
102
RTVSPropertyOp23
 70
     1
102
RTVSPropertyOp24
 70
     1
102
RTVSPropertyOp25
 70
     1
102
RTVSPropertyOp26
 70
     1
102
RTVSPropertyOp27
 70
     1
  0
XRECORD
  5
9B9
102
{ACAD_REACTORS
330
9B8
102
}
330
9B8
100
AcDbXrecord
280
     1
102
RTVSPropertyOp0
 70
     0
102
RTVSPropertyOp1
 70
     0
102
RTVSPropertyOp2
 70
     0
102
RTVSPropertyOp3
 70
     0
102
RTVSPropertyOp4
 70
     0
102
RTVSPropertyOp5
 70
     0
102
RTVSPropertyOp6
 70
     0
102
RTVSPropertyOp7
 70
     0
102
RTVSPropertyOp8
 70
     0
102
RTVSPropertyOp9
 70
     0
102
RTVSPropertyOp10
 70
     0
102
RTVSPropertyOp11
 70
     0
102
RTVSPropertyOp12
 70
     0
102
RTVSPropertyOp13
 70
     0
102
RTVSPropertyOp14
 70
     2
102
RTVSPropertyOp15
 70
     0
102
RTVSPropertyOp16
 70
     0
102
RTVSPropertyOp17
 70
     0
102
RTVSPropertyOp18
 70
     0
102
RTVSPropertyOp19
 70
     0
102
RTVSPropertyOp20
 70
     0
102
RTVSPropertyOp21
 70
     0
102
RTVSPropertyOp22
 70
     0
102
RTVSPropertyOp23
 70
     0
102
RTVSPropertyOp24
 70
     0
102
RTVSPropertyOp25
 70
     0
102
RTVSPropertyOp26
 70
     0
102
RTVSPropertyOp27
 70
     0
  0
XRECORD
  5
9A9
102
{ACAD_REACTORS
330
9A8
102
}
330
9A8
100
AcDbXrecord
280
     1
102
RTVSPropertyOp0
 70
     1
102
RTVSPropertyOp1
 70
     1
102
RTVSPropertyOp2
 70
     1
102
RTVSPropertyOp3
 70
     1
102
RTVSPropertyOp4
 70
     1
102
RTVSPropertyOp5
 70
     1
102
RTVSPropertyOp6
 70
     1
102
RTVSPropertyOp7
 70
     1
102
RTVSPropertyOp8
 70
     1
102
RTVSPropertyOp9
 70
     1
102
RTVSPropertyOp10
 70
     1
102
RTVSPropertyOp11
 70
     1
102
RTVSPropertyOp12
 70
     1
102
RTVSPropertyOp13
 70
     1
102
RTVSPropertyOp14
 70
     1
102
RTVSPropertyOp15
 70
     1
102
RTVSPropertyOp16
 70
     1
102
RTVSPropertyOp17
 70
     1
102
RTVSPropertyOp18
 70
     1
102
RTVSPropertyOp19
 70
     1
102
RTVSPropertyOp20
 70
     1
102
RTVSPropertyOp21
 70
     1
102
RTVSPropertyOp22
 70
     1
102
RTVSPropertyOp23
 70
     1
102
RTVSPropertyOp24
 70
     1
102
RTVSPropertyOp25
 70
     1
102
RTVSPropertyOp26
 70
     1
102
RTVSPropertyOp27
 70
     1
  0
XRECORD
  5
9AF
102
{ACAD_REACTORS
330
9AE
102
}
330
9AE
100
AcDbXrecord
280
     1
102
RTVSPropertyOp0
 70
     1
102
RTVSPropertyOp1
 70
     1
102
RTVSPropertyOp2
 70
     1
102
RTVSPropertyOp3
 70
     1
102
RTVSPropertyOp4
 70
     1
102
RTVSPropertyOp5
 70
     1
102
RTVSPropertyOp6
 70
     1
102
RTVSPropertyOp7
 70
     1
102
RTVSPropertyOp8
 70
     1
102
RTVSPropertyOp9
 70
     1
102
RTVSPropertyOp10
 70
     1
102
RTVSPropertyOp11
 70
     1
102
RTVSPropertyOp12
 70
     1
102
RTVSPropertyOp13
 70
     1
102
RTVSPropertyOp14
 70
     1
102
RTVSPropertyOp15
 70
     1
102
RTVSPropertyOp16
 70
     1
102
RTVSPropertyOp17
 70
     1
102
RTVSPropertyOp18
 70
     1
102
RTVSPropertyOp19
 70
     1
102
RTVSPropertyOp20
 70
     1
102
RTVSPropertyOp21
 70
     1
102
RTVSPropertyOp22
 70
     1
102
RTVSPropertyOp23
 70
     1
102
RTVSPropertyOp24
 70
     1
102
RTVSPropertyOp25
 70
     1
102
RTVSPropertyOp26
 70
     1
102
RTVSPropertyOp27
 70
     1
  0
ENDSEC
  0
EOF
