  0
SECTION
  2
HEADER
  9
$ACADVER
  1
AC1015
  9
$ACADMAINTVER
 70
    20
  9
$DWGCODEPAGE
  3
ANSI_1252
  9
$INSBASE
 10
0.0
 20
0.0
 30
0.0
  9
$EXTMIN
 10
373.3365129581574
 20
663.9005128586973
 30
0.0
  9
$EXTMAX
 10
375.7024108625789
 20
664.37225836519
 30
0.0
  9
$LIMMIN
 10
0.0
 20
0.0
  9
$LIMMAX
 10
420.0
 20
297.0
  9
$ORTHOMODE
 70
     1
  9
$REGENMODE
 70
     1
  9
$FILLMODE
 70
     1
  9
$QTEXTMODE
 70
     0
  9
$MIRRTEXT
 70
     0
  9
$LTSCALE
 40
1.0
  9
$ATTMODE
 70
     1
  9
$TEXTSIZE
 40
2.5
  9
$TRACEWID
 40
1.0
  9
$TEXTSTYLE
  7
Standard
  9
$CLAYER
  8
0
  9
$CELTYPE
  6
ByLayer
  9
$CECOLOR
 62
   256
  9
$CELTSCALE
 40
1.0
  9
$DISPSILH
 70
     0
  9
$DIMSCALE
 40
1.0
  9
$DIMASZ
 40
2.5
  9
$DIMEXO
 40
0.625
  9
$DIMDLI
 40
3.75
  9
$DIMRND
 40
0.0
  9
$DIMDLE
 40
0.0
  9
$DIMEXE
 40
1.25
  9
$DIMTP
 40
0.0
  9
$DIMTM
 40
0.0
  9
$DIMTXT
 40
2.5
  9
$DIMCEN
 40
2.5
  9
$DIMTSZ
 40
0.0
  9
$DIMTOL
 70
     0
  9
$DIMLIM
 70
     0
  9
$DIMTIH
 70
     0
  9
$DIMTOH
 70
     0
  9
$DIMSE1
 70
     0
  9
$DIMSE2
 70
     0
  9
$DIMTAD
 70
     1
  9
$DIMZIN
 70
     8
  9
$DIMBLK
  1

  9
$DIMASO
 70
     1
  9
$DIMSHO
 70
     1
  9
$DIMPOST
  1

  9
$DIMAPOST
  1

  9
$DIMALT
 70
     0
  9
$DIMALTD
 70
     3
  9
$DIMALTF
 40
0.03937007874016
  9
$DIMLFAC
 40
1.0
  9
$DIMTOFL
 70
     1
  9
$DIMTVP
 40
0.0
  9
$DIMTIX
 70
     0
  9
$DIMSOXD
 70
     0
  9
$DIMSAH
 70
     0
  9
$DIMBLK1
  1

  9
$DIMBLK2
  1

  9
$DIMSTYLE
  2
ISO-25
  9
$DIMCLRD
 70
     0
  9
$DIMCLRE
 70
     0
  9
$DIMCLRT
 70
     0
  9
$DIMTFAC
 40
1.0
  9
$DIMGAP
 40
0.625
  9
$DIMJUST
 70
     0
  9
$DIMSD1
 70
     0
  9
$DIMSD2
 70
     0
  9
$DIMTOLJ
 70
     0
  9
$DIMTZIN
 70
     8
  9
$DIMALTZ
 70
     0
  9
$DIMALTTZ
 70
     0
  9
$DIMUPT
 70
     0
  9
$DIMDEC
 70
     2
  9
$DIMTDEC
 70
     2
  9
$DIMALTU
 70
     2
  9
$DIMALTTD
 70
     3
  9
$DIMTXSTY
  7
Standard
  9
$DIMAUNIT
 70
     0
  9
$DIMADEC
 70
     0
  9
$DIMALTRND
 40
0.0
  9
$DIMAZIN
 70
     0
  9
$DIMDSEP
 70
    44
  9
$DIMATFIT
 70
     3
  9
$DIMFRAC
 70
     0
  9
$DIMLDRBLK
  1

  9
$DIMLUNIT
 70
     2
  9
$DIMLWD
 70
    -2
  9
$DIMLWE
 70
    -2
  9
$DIMTMOVE
 70
     0
  9
$LUNITS
 70
     2
  9
$LUPREC
 70
     4
  9
$SKETCHINC
 40
1.0
  9
$FILLETRAD
 40
0.0
  9
$AUNITS
 70
     0
  9
$AUPREC
 70
     0
  9
$MENU
  1
.
  9
$ELEVATION
 40
0.0
  9
$PELEVATION
 40
0.0
  9
$THICKNESS
 40
0.0
  9
$LIMCHECK
 70
     0
  9
$CHAMFERA
 40
0.0
  9
$CHAMFERB
 40
0.0
  9
$CHAMFERC
 40
0.0
  9
$CHAMFERD
 40
0.0
  9
$SKPOLY
 70
     0
  9
$TDCREATE
 40
2454117.573629734
  9
$TDUCREATE
 40
2454117.531963067
  9
$TDUPDATE
 40
2456142.760060220
  9
$TDUUPDATE
 40
2456142.718393553
  9
$TDINDWG
 40
0.0032723843
  9
$TDUSRTIMER
 40
0.0032723843
  9
$USRTIMER
 70
     1
  9
$ANGBASE
 50
0.0
  9
$ANGDIR
 70
     0
  9
$PDMODE
 70
     0
  9
$PDSIZE
 40
0.0
  9
$PLINEWID
 40
0.0
  9
$SPLFRAME
 70
     0
  9
$SPLINETYPE
 70
     6
  9
$SPLINESEGS
 70
     8
  9
$HANDSEED
  5
8C3
  9
$SURFTAB1
 70
     6
  9
$SURFTAB2
 70
     6
  9
$SURFTYPE
 70
     6
  9
$SURFU
 70
     6
  9
$SURFV
 70
     6
  9
$UCSBASE
  2

  9
$UCSNAME
  2

  9
$UCSORG
 10
0.0
 20
0.0
 30
0.0
  9
$UCSXDIR
 10
1.0
 20
0.0
 30
0.0
  9
$UCSYDIR
 10
0.0
 20
1.0
 30
0.0
  9
$UCSORTHOREF
  2

  9
$UCSORTHOVIEW
 70
     0
  9
$UCSORGTOP
 10
0.0
 20
0.0
 30
0.0
  9
$UCSORGBOTTOM
 10
0.0
 20
0.0
 30
0.0
  9
$UCSORGLEFT
 10
0.0
 20
0.0
 30
0.0
  9
$UCSORGRIGHT
 10
0.0
 20
0.0
 30
0.0
  9
$UCSORGFRONT
 10
0.0
 20
0.0
 30
0.0
  9
$UCSORGBACK
 10
0.0
 20
0.0
 30
0.0
  9
$PUCSBASE
  2

  9
$PUCSNAME
  2

  9
$PUCSORG
 10
0.0
 20
0.0
 30
0.0
  9
$PUCSXDIR
 10
1.0
 20
0.0
 30
0.0
  9
$PUCSYDIR
 10
0.0
 20
1.0
 30
0.0
  9
$PUCSORTHOREF
  2

  9
$PUCSORTHOVIEW
 70
     0
  9
$PUCSORGTOP
 10
0.0
 20
0.0
 30
0.0
  9
$PUCSORGBOTTOM
 10
0.0
 20
0.0
 30
0.0
  9
$PUCSORGLEFT
 10
0.0
 20
0.0
 30
0.0
  9
$PUCSORGRIGHT
 10
0.0
 20
0.0
 30
0.0
  9
$PUCSORGFRONT
 10
0.0
 20
0.0
 30
0.0
  9
$PUCSORGBACK
 10
0.0
 20
0.0
 30
0.0
  9
$USERI1
 70
     0
  9
$USERI2
 70
     0
  9
$USERI3
 70
     0
  9
$USERI4
 70
     0
  9
$USERI5
 70
     0
  9
$USERR1
 40
0.0
  9
$USERR2
 40
0.0
  9
$USERR3
 40
0.0
  9
$USERR4
 40
0.0
  9
$USERR5
 40
0.0
  9
$WORLDVIEW
 70
     1
  9
$SHADEDGE
 70
     3
  9
$SHADEDIF
 70
    70
  9
$TILEMODE
 70
     1
  9
$MAXACTVP
 70
    64
  9
$PINSBASE
 10
0.0
 20
0.0
 30
0.0
  9
$PLIMCHECK
 70
     0
  9
$PEXTMIN
 10
1.000000000000000E+20
 20
1.000000000000000E+20
 30
1.000000000000000E+20
  9
$PEXTMAX
 10
-1.000000000000000E+20
 20
-1.000000000000000E+20
 30
-1.000000000000000E+20
  9
$PLIMMIN
 10
0.0
 20
0.0
  9
$PLIMMAX
 10
420.0
 20
297.0
  9
$UNITMODE
 70
     0
  9
$VISRETAIN
 70
     1
  9
$PLINEGEN
 70
     0
  9
$PSLTSCALE
 70
     1
  9
$TREEDEPTH
 70
  3020
  9
$CMLSTYLE
  2
Standard
  9
$CMLJUST
 70
     0
  9
$CMLSCALE
 40
20.0
  9
$PROXYGRAPHICS
 70
     1
  9
$MEASUREMENT
 70
     1
  9
$CELWEIGHT
370
    -1
  9
$ENDCAPS
280
     0
  9
$JOINSTYLE
280
     0
  9
$LWDISPLAY
290
     0
  9
$INSUNITS
 70
     4
  9
$HYPERLINKBASE
  1

  9
$STYLESHEET
  1

  9
$XEDIT
290
     1
  9
$CEPSNTYPE
380
     0
  9
$PSTYLEMODE
290
     1
  9
$FINGERPRINTGUID
  2
{132905C6-032D-4133-9B90-EA12BF77CEC6}
  9
$VERSIONGUID
  2
{ECE2EF12-BA69-42A0-9100-040EC59D98D0}
  9
$EXTNAMES
290
     1
  9
$PSVPSCALE
 40
0.0
  9
$OLESTARTUP
290
     0
  0
ENDSEC
  0
SECTION
  2
CLASSES
  0
CLASS
  1
ACDBDICTIONARYWDFLT
  2
AcDbDictionaryWithDefault
  3
ObjectDBX Classes
 90
        0
280
     0
281
     0
  0
CLASS
  1
TABLESTYLE
  2
AcDbTableStyle
  3
ObjectDBX Classes
 90
     4095
280
     0
281
     0
  0
CLASS
  1
DIMASSOC
  2
AcDbDimAssoc
  3
"AcDbDimAssoc|Product Desc:     AcDim ARX App For Dimension|Company:          Autodesk, Inc.|WEB Address:      www.autodesk.com"
 90
    32768
280
     0
281
     0
  0
CLASS
  1
SORTENTSTABLE
  2
AcDbSortentsTable
  3
ObjectDBX Classes
 90
    32768
280
     0
281
     0
  0
CLASS
  1
DICTIONARYVAR
  2
AcDbDictionaryVar
  3
ObjectDBX Classes
 90
        0
280
     0
281
     0
  0
CLASS
  1
ACDBPLACEHOLDER
  2
AcDbPlaceHolder
  3
ObjectDBX Classes
 90
        0
280
     0
281
     0
  0
CLASS
  1
LAYOUT
  2
AcDbLayout
  3
ObjectDBX Classes
 90
        0
280
     0
281
     0
  0
CLASS
  1
MATERIAL
  2
AcDbMaterial
  3
ObjectDBX Classes
 90
     1153
280
     0
281
     0
  0
CLASS
  1
VISUALSTYLE
  2
AcDbVisualStyle
  3
ObjectDBX Classes
 90
     4095
280
     0
281
     0
  0
CLASS
  1
SCALE
  2
AcDbScale
  3
ObjectDBX Classes
 90
     1153
280
     0
281
     0
  0
CLASS
  1
MLEADERSTYLE
  2
AcDbMLeaderStyle
  3
ACDB_MLEADERSTYLE_CLASS
 90
     4095
280
     0
281
     0
  0
CLASS
  1
CELLSTYLEMAP
  2
AcDbCellStyleMap
  3
ObjectDBX Classes
 90
     1152
280
     0
281
     0
  0
ENDSEC
  0
SECTION
  2
TABLES
  0
TABLE
  2
VPORT
  5
8
330
0
100
AcDbSymbolTable
 70
     1
  0
VPORT
  5
803
330
8
100
AcDbSymbolTableRecord
100
AcDbViewportTableRecord
  2
*Active
 70
     0
 10
0.0
 20
0.0
 11
1.0
 21
1.0
 12
374.5590845947575
 22
664.1363856119436
 13
0.0
 23
0.0
 14
10.0
 24
10.0
 15
10.0
 25
10.0
 16
0.0
 26
0.0
 36
1.0
 17
0.0
 27
0.0
 37
0.0
 40
1.491451637374757
 41
1.645464025026068
 42
50.0
 43
0.0
 44
0.0
 50
0.0
 51
0.0
 71
     0
 72
  1000
 73
     1
 74
     3
 75
     0
 76
     0
 77
     0
 78
     0
281
     0
 65
     1
110
0.0
120
0.0
130
0.0
111
1.0
121
0.0
131
0.0
112
0.0
122
1.0
132
0.0
 79
     0
146
0.0
  0
ENDTAB
  0
TABLE
  2
LTYPE
  5
5
330
0
100
AcDbSymbolTable
 70
     3
  0
LTYPE
  5
14
330
5
100
AcDbSymbolTableRecord
100
AcDbLinetypeTableRecord
  2
ByBlock
 70
     0
  3

 72
    65
 73
     0
 40
0.0
  0
LTYPE
  5
15
330
5
100
AcDbSymbolTableRecord
100
AcDbLinetypeTableRecord
  2
ByLayer
 70
     0
  3

 72
    65
 73
     0
 40
0.0
  0
LTYPE
  5
16
330
5
100
AcDbSymbolTableRecord
100
AcDbLinetypeTableRecord
  2
Continuous
 70
     0
  3
Solid line
 72
    65
 73
     0
 40
0.0
  0
LTYPE
  5
1AA
330
5
100
AcDbSymbolTableRecord
100
AcDbLinetypeTableRecord
  2
DASHDOT
 70
     0
  3
Dash dot __ . __ . __ . __ . __ . __ . __ . __
 72
    65
 73
     4
 40
25.4
 49
12.7
 74
     0
 49
-6.349999999999999
 74
     0
 49
0.0
 74
     0
 49
-6.349999999999999
 74
     0
  0
LTYPE
  5
1AB
330
5
100
AcDbSymbolTableRecord
100
AcDbLinetypeTableRecord
  2
HIDDEN
 70
     0
  3
Hidden __ __ __ __ __ __ __ __ __ __ __ __ __ _
 72
    65
 73
     2
 40
9.524999999999998
 49
6.349999999999999
 74
     0
 49
-3.174999999999999
 74
     0
  0
ENDTAB
  0
TABLE
  2
LAYER
  5
2
330
0
100
AcDbSymbolTable
 70
     9
  0
LAYER
  5
10
102
{ACAD_XDICTIONARY
360
853
102
}
330
2
100
AcDbSymbolTableRecord
100
AcDbLayerTableRecord
  2
0
 70
     0
 62
     7
  6
Continuous
370
    -3
390
F
  0
LAYER
  5
1AC
102
{ACAD_XDICTIONARY
360
855
102
}
330
2
100
AcDbSymbolTableRecord
100
AcDbLayerTableRecord
  2
4
 70
     0
 62
     4
  6
Continuous
370
    -3
390
F
  0
LAYER
  5
1AD
102
{ACAD_XDICTIONARY
360
857
102
}
330
2
100
AcDbSymbolTableRecord
100
AcDbLayerTableRecord
  2
cen
 70
     0
 62
     7
  6
DASHDOT
370
    -3
390
F
  0
LAYER
  5
1AE
102
{ACAD_XDICTIONARY
360
859
102
}
330
2
100
AcDbSymbolTableRecord
100
AcDbLayerTableRecord
  2
hid
 70
     0
 62
     7
  6
HIDDEN
370
    -3
390
F
  0
LAYER
  5
1AF
102
{ACAD_XDICTIONARY
360
85B
102
}
330
2
100
AcDbSymbolTableRecord
100
AcDbLayerTableRecord
  2
hatch
 70
     0
 62
     9
  6
Continuous
370
    -3
390
F
  0
LAYER
  5
1B0
102
{ACAD_XDICTIONARY
360
85D
102
}
330
2
100
AcDbSymbolTableRecord
100
AcDbLayerTableRecord
  2
9
 70
     0
 62
     9
  6
Continuous
370
    -3
390
F
  0
LAYER
  5
1B1
102
{ACAD_XDICTIONARY
360
85F
102
}
330
2
100
AcDbSymbolTableRecord
100
AcDbLayerTableRecord
  2
cotas
 70
     0
 62
     1
  6
Continuous
370
    -3
390
F
  0
LAYER
  5
1B2
330
2
100
AcDbSymbolTableRecord
100
AcDbLayerTableRecord
  2
Defpoints
 70
     0
 62
     7
  6
Continuous
290
     0
370
    -3
390
F
  0
LAYER
  5
1B3
102
{ACAD_XDICTIONARY
360
861
102
}
330
2
100
AcDbSymbolTableRecord
100
AcDbLayerTableRecord
  2
SANINDUSA
 70
     0
 62
     3
  6
Continuous
370
    -3
390
F
  0
ENDTAB
  0
TABLE
  2
STYLE
  5
3
330
0
100
AcDbSymbolTable
 70
     2
  0
STYLE
  5
11
330
3
100
AcDbSymbolTableRecord
100
AcDbTextStyleTableRecord
  2
Standard
 70
     0
 40
0.0
 41
1.0
 50
0.0
 71
     0
 42
2.5
  3
txt
  4

  0
STYLE
  5
1B4
330
3
100
AcDbSymbolTableRecord
100
AcDbTextStyleTableRecord
  2
SANINDUSA
 70
     0
 40
0.0
 41
1.0
 50
0.0
 71
     0
 42
2.5
  3
verdana.TTF
  4

1001
ACAD
1000
Verdana
1071
       34
  0
ENDTAB
  0
TABLE
  2
VIEW
  5
6
330
0
100
AcDbSymbolTable
 70
     0
  0
ENDTAB
  0
TABLE
  2
UCS
  5
7
330
0
100
AcDbSymbolTable
 70
     0
  0
ENDTAB
  0
TABLE
  2
APPID
  5
9
330
0
100
AcDbSymbolTable
 70
     7
  0
APPID
  5
12
330
9
100
AcDbSymbolTableRecord
100
AcDbRegAppTableRecord
  2
ACAD
 70
     0
  0
APPID
  5
1B6
330
9
100
AcDbSymbolTableRecord
100
AcDbRegAppTableRecord
  2
ACAD_DSTYLE_DIMEXT_LENGTH
 70
     0
  0
APPID
  5
1B7
330
9
100
AcDbSymbolTableRecord
100
AcDbRegAppTableRecord
  2
ACAD_DSTYLE_DIMEXT_ENABLED
 70
     0
  0
APPID
  5
1B8
330
9
100
AcDbSymbolTableRecord
100
AcDbRegAppTableRecord
  2
ACAD_DSTYLE_DIMJOGGED_JOGANGLE_SYMBOL
 70
     0
  0
APPID
  5
1B9
330
9
100
AcDbSymbolTableRecord
100
AcDbRegAppTableRecord
  2
ACAD_DSTYLE_DIMARC_LENGTH_SYMBOL
 70
     0
  0
APPID
  5
1BA
330
9
100
AcDbSymbolTableRecord
100
AcDbRegAppTableRecord
  2
ACAD_PSEXT
 70
     0
  0
APPID
  5
8C2
330
9
100
AcDbSymbolTableRecord
100
AcDbRegAppTableRecord
  2
ACAD_MLEADERVER
 70
     0
  0
ENDTAB
  0
TABLE
  2
DIMSTYLE
  5
A
330
0
100
AcDbSymbolTable
 70
     2
100
AcDbDimStyleTable
 71
     1
340
2B
  0
DIMSTYLE
105
2B
330
A
100
AcDbSymbolTableRecord
100
AcDbDimStyleTableRecord
  2
ISO-25
 70
     0
 41
2.5
 42
0.625
 43
3.75
 44
1.25
 73
     0
 74
     0
 77
     1
 78
     8
140
2.5
141
2.5
143
0.03937007874016
147
0.625
171
     3
172
     1
271
     2
272
     2
274
     3
278
    44
283
     0
284
     8
340
11
  0
DIMSTYLE
105
1B5
330
A
100
AcDbSymbolTableRecord
100
AcDbDimStyleTableRecord
  2
SANINDUSA
 70
     0
 40
5.0
 41
2.0
 42
1.0
 43
1.0
 44
1.0
 73
     0
 74
     0
 77
     1
 78
     8
140
2.0
141
0.0
143
0.03937007874016
147
1.0
171
     3
172
     1
176
   256
177
   256
178
   256
179
     1
271
     1
272
     1
274
     3
278
    44
283
     0
284
     8
340
1B4
371
    -1
372
    -1
1001
ACAD_DSTYLE_DIMJOGGED_JOGANGLE_SYMBOL
1070
   384
1040
1.570796326794896
  0
ENDTAB
  0
TABLE
  2
BLOCK_RECORD
  5
1
330
0
100
AcDbSymbolTable
 70
    66
  0
BLOCK_RECORD
  5
23
330
1
100
AcDbSymbolTableRecord
100
AcDbBlockTableRecord
  2
*Model_Space
340
26
  0
BLOCK_RECORD
  5
1F
330
1
100
AcDbSymbolTableRecord
100
AcDbBlockTableRecord
  2
*Paper_Space
340
22
  0
BLOCK_RECORD
  5
27
330
1
100
AcDbSymbolTableRecord
100
AcDbBlockTableRecord
  2
*Paper_Space0
340
2A
  0
BLOCK_RECORD
  5
2F
330
1
100
AcDbSymbolTableRecord
100
AcDbBlockTableRecord
  2
_DotSmall
340
0
102
{BLKREFS
331
15C
331
150
331
622
331
62C
102
}
  0
ENDTAB
  0
ENDSEC
  0
SECTION
  2
BLOCKS
  0
BLOCK
  5
24
330
23
100
AcDbEntity
  8
0
100
AcDbBlockBegin
  2
*Model_Space
 70
     0
 10
0.0
 20
0.0
 30
0.0
  3
*Model_Space
  1

  0
ENDBLK
  5
25
330
23
100
AcDbEntity
  8
0
100
AcDbBlockEnd
  0
BLOCK
  5
20
330
1F
100
AcDbEntity
 67
     1
  8
0
100
AcDbBlockBegin
  2
*Paper_Space
 70
     0
 10
0.0
 20
0.0
 30
0.0
  3
*Paper_Space
  1

  0
ENDBLK
  5
21
330
1F
100
AcDbEntity
 67
     1
  8
0
100
AcDbBlockEnd
  0
BLOCK
  5
28
330
27
100
AcDbEntity
 67
     1
  8
0
100
AcDbBlockBegin
  2
*Paper_Space0
 70
     0
 10
0.0
 20
0.0
 30
0.0
  3
*Paper_Space0
  1

  0
ENDBLK
  5
29
330
27
100
AcDbEntity
 67
     1
  8
0
100
AcDbBlockEnd
  0
BLOCK
  5
30
330
2F
100
AcDbEntity
  8
0
100
AcDbBlockBegin
  2
_DotSmall
 70
     0
 10
0.0
 20
0.0
 30
0.0
  3
_DotSmall
  1

  0
LWPOLYLINE
  5
31
330
2F
100
AcDbEntity
  8
0
  6
ByBlock
 62
     0
100
AcDbPolyline
 90
        2
 70
     1
 43
0.5
 10
-0.0625
 20
0.0
 42
1.0
 10
0.0625
 20
0.0
 42
1.0
  0
ENDBLK
  5
32
330
2F
100
AcDbEntity
  8
0
100
AcDbBlockEnd
  0
ENDSEC
  0
SECTION
  2
ENTITIES
  0
LINE
  5
306
330
23
100
AcDbEntity
  8
SANINDUSA
100
AcDbLine
 10
375.0501954066138
 20
664.1016751811762
 30
0.0
 11
375.045196168138
 21
664.1016751811762
 31
0.0
  0
ARC
  5
34D
330
23
100
AcDbEntity
  8
SANINDUSA
  6
Continuous
370
    15
100
AcDbCircle
 10
374.3272214092365
 20
664.1046751767007
 30
0.0
 40
0.0049999955282112
100
AcDbArc
 50
270.4269568437663
 51
323.130128028204
  0
ARC
  5
34E
330
23
100
AcDbEntity
  8
SANINDUSA
  6
Continuous
370
    15
100
AcDbCircle
 10
374.0348948661177
 20
664.1046751811763
 30
0.0
 40
0.0050000009218782
100
AcDbArc
 50
216.8699119553071
 51
269.9980334682307
  0
LINE
  5
351
330
23
100
AcDbEntity
  8
SANINDUSA
  6
Continuous
370
    15
100
AcDbLine
 10
374.4161439825469
 20
664.1967624432083
 30
0.0
 11
374.4178037368795
 21
664.1016751811762
 31
0.0
  0
LINE
  5
352
330
23
100
AcDbEntity
  8
SANINDUSA
  6
Continuous
370
    15
100
AcDbLine
 10
374.4178037368795
 20
664.1016751811762
 30
0.0
 11
374.4128044984038
 21
664.1016751811762
 31
0.0
  0
LINE
  5
353
330
23
100
AcDbEntity
  8
SANINDUSA
  6
Continuous
370
    15
100
AcDbLine
 10
373.9443127238939
 20
664.1016751811762
 30
0.0
 11
373.9459724782265
 21
664.1967624432083
 31
0.0
  0
LINE
  5
356
330
23
100
AcDbEntity
  8
SANINDUSA
  6
Continuous
370
    15
100
AcDbLine
 10
373.9493119623697
 20
664.1016751811762
 30
0.0
 11
373.9443127238939
 21
664.1016751811762
 31
0.0
  0
LINE
  5
358
330
23
100
AcDbEntity
  8
SANINDUSA
  6
Continuous
370
    15
100
AcDbLine
 10
373.9493119623697
 20
664.1016751811762
 30
0.0
 11
374.4128044984038
 21
664.1016751811762
 31
0.0
  0
ARC
  5
359
330
23
100
AcDbEntity
  8
SANINDUSA
  6
Continuous
370
    15
100
AcDbCircle
 10
374.4111447440711
 20
664.1966751811763
 30
0.0
 40
0.0050000000000001
100
AcDbArc
 50
0.999999996865035
 51
90.0
  0
LINE
  5
35B
330
23
100
AcDbEntity
  8
SANINDUSA
  6
Continuous
370
    15
100
AcDbLine
 10
373.9509717167023
 20
664.2016751811762
 30
0.0
 11
374.4111447440711
 21
664.2016751811762
 31
0.0
  0
ARC
  5
35D
330
23
100
AcDbEntity
  8
SANINDUSA
  6
Continuous
370
    15
100
AcDbCircle
 10
373.9509717167023
 20
664.1966751811763
 30
0.0
 40
0.0050000000000001
100
AcDbArc
 50
90.0
 51
179.000000003135
  0
LINE
  5
35E
330
23
100
AcDbEntity
  8
SANINDUSA
  6
Continuous
370
    15
100
AcDbLine
 10
374.0349308316746
 20
664.0996751811762
 30
0.0
 11
374.3272172496386
 21
664.0996751811762
 31
0.0
  0
LINE
  5
361
330
23
100
AcDbEntity
  8
SANINDUSA
  6
Continuous
370
    15
100
AcDbLine
 10
373.3381727124901
 20
663.9071718515057
 30
0.0
 11
373.3381727124901
 21
664.3672591267117
 31
0.0
  0
LINE
  5
365
330
23
100
AcDbEntity
  8
SANINDUSA
  6
Continuous
370
    15
100
AcDbLine
 10
373.8083442168104
 20
664.3672591266644
 30
0.0
 11
373.8083442168104
 21
663.9071718515057
 31
0.0
  0
CIRCLE
  5
367
330
23
100
AcDbEntity
  8
SANINDUSA
  6
Continuous
370
    15
100
AcDbCircle
 10
373.5732584646502
 20
664.13725836519
 30
0.0
 40
0.1988124410476046
  0
ARC
  5
368
330
23
100
AcDbEntity
  8
SANINDUSA
  6
Continuous
370
    15
100
AcDbCircle
 10
373.8033431398765
 20
663.9071736899637
 30
0.0
 40
0.0050010772718329
100
AcDbArc
 50
270.0210626403602
 51
359.9789373596398
  0
LINE
  5
36A
330
23
100
AcDbEntity
  8
SANINDUSA
  6
Continuous
370
    15
100
AcDbLine
 10
373.8033449783347
 20
663.9021726130299
 30
0.0
 11
373.3431719509658
 21
663.9021726130299
 31
0.0
  0
ARC
  5
36C
330
23
100
AcDbEntity
  8
SANINDUSA
  6
Continuous
370
    15
100
AcDbCircle
 10
373.343173789424
 20
663.9071736899637
 30
0.0
 40
0.0050010772718378
100
AcDbArc
 50
180.0210626403602
 51
269.9789373596398
  0
ELLIPSE
  5
370
330
23
100
AcDbEntity
  8
SANINDUSA
  6
Continuous
370
    15
100
AcDbEllipse
 10
373.3415137197976
 20
663.9055136203374
 30
0.0
 11
0.0035366109458463
 21
0.0035366109458495
 31
0.0
210
0.0
220
0.0
230
1.0
 40
0.99969545988189
 41
2.356346783439478
 42
3.926838523739217
  0
ELLIPSE
  5
373
330
23
100
AcDbEntity
  8
SANINDUSA
  6
Continuous
370
    15
100
AcDbEllipse
 10
373.8050032095028
 20
663.9055136203374
 30
0.0
 11
0.0035366109458464
 21
-0.0035366109458495
 31
0.0
210
0.0
220
0.0
230
1.0
 40
0.99969545988186
 41
5.49793943703016
 42
7.068431177329921
  0
LINE
  5
374
330
23
100
AcDbEntity
  8
SANINDUSA
  6
Continuous
370
    15
100
AcDbLine
 10
373.8100039711431
 20
663.9055120971731
 30
0.0
 11
373.8100039711431
 21
664.36725836519
 31
0.0
  0
LINE
  5
375
330
23
100
AcDbEntity
  8
SANINDUSA
  6
Continuous
370
    15
100
AcDbLine
 10
373.3365129581574
 20
664.36725836519
 30
0.0
 11
373.3365129581574
 21
663.9055120971731
 31
0.0
  0
LINE
  5
376
330
23
100
AcDbEntity
  8
SANINDUSA
  6
Continuous
370
    15
100
AcDbLine
 10
373.3415121966332
 20
663.9005128586973
 30
0.0
 11
373.8050047326673
 21
663.9005128586973
 31
0.0
  0
CIRCLE
  5
377
330
23
100
AcDbEntity
  8
SANINDUSA
  6
Continuous
370
    15
100
AcDbCircle
 10
373.5732584646502
 20
664.13725836519
 30
0.0
 40
0.1736150801752578
  0
CIRCLE
  5
379
330
23
100
AcDbEntity
  8
SANINDUSA
  6
Continuous
370
    15
100
AcDbCircle
 10
373.5732584646502
 20
664.13725836519
 30
0.0
 40
0.1496006823796284
  0
ARC
  5
382
330
23
100
AcDbEntity
  8
SANINDUSA
  6
Continuous
370
    15
100
AcDbCircle
 10
375.0131837539294
 20
664.1046751524572
 30
0.0
 40
0.0049999712804488
100
AcDbArc
 50
269.9893959113485
 51
323.1302668947429
  0
ARC
  5
383
330
23
100
AcDbEntity
  8
SANINDUSA
  6
Continuous
370
    15
100
AcDbCircle
 10
374.6137156242675
 20
664.1046751784203
 30
0.0
 40
0.0049999972440862
100
AcDbArc
 50
216.869881856451
 51
270.0010223859946
  0
LINE
  5
384
330
23
100
AcDbEntity
  8
SANINDUSA
  6
Continuous
370
    15
100
AcDbLine
 10
374.583449900121
 20
664.1016751811762
 30
0.0
 11
374.578449900121
 21
664.1016751811762
 31
0.0
  0
LINE
  5
387
330
23
100
AcDbEntity
  8
SANINDUSA
  6
Continuous
370
    15
100
AcDbLine
 10
374.583449900121
 20
664.1016751811762
 30
0.0
 11
375.045196168138
 21
664.1016751811762
 31
0.0
  0
LINE
  5
389
330
23
100
AcDbEntity
  8
SANINDUSA
  6
Continuous
370
    15
100
AcDbLine
 10
375.0485356522812
 20
664.1967624432083
 30
0.0
 11
375.0501954066138
 21
664.1016751811762
 31
0.0
  0
LINE
  5
38A
330
23
100
AcDbEntity
  8
SANINDUSA
  6
Continuous
370
    15
100
AcDbLine
 10
374.583449900121
 20
664.2016751811762
 30
0.0
 11
375.0435364138054
 21
664.2016751811762
 31
0.0
  0
ARC
  5
38C
330
23
100
AcDbEntity
  8
SANINDUSA
  6
Continuous
370
    15
100
AcDbCircle
 10
375.0435364138054
 20
664.1966751811763
 30
0.0
 40
0.0050000000000001
100
AcDbArc
 50
0.999999996865035
 51
90.0
  0
LINE
  5
38D
330
23
100
AcDbEntity
  8
SANINDUSA
  6
Continuous
370
    15
100
AcDbLine
 10
374.6137155792173
 20
664.0996751811762
 30
0.0
 11
375.0130925137369
 21
664.0996751811762
 31
0.0
  0
ARC
  5
3A4
330
23
100
AcDbEntity
  8
SANINDUSA
100
AcDbCircle
 10
375.6762883371787
 20
664.1066751811762
 30
0.0
 40
0.0050000000000001
100
AcDbArc
 50
90.0
 51
164.9999999975854
  0
ARC
  5
3A5
330
23
100
AcDbEntity
  8
SANINDUSA
100
AcDbCircle
 10
375.6762883371787
 20
664.1066751811762
 30
0.0
 40
0.0150000000000001
100
AcDbArc
 50
90.0
 51
138.5597727055263
  0
ARC
  5
3A6
330
23
100
AcDbEntity
  8
SANINDUSA
100
AcDbCircle
 10
375.6642939919219
 20
664.1172645948455
 30
0.0
 40
0.001
100
AcDbArc
 50
192.0000000010406
 51
318.5597727055264
  0
ARC
  5
3A8
330
23
100
AcDbEntity
  8
SANINDUSA
100
AcDbCircle
 10
375.6608359108357
 20
664.1046751811763
 30
0.0
 40
0.005
100
AcDbArc
 50
192.0000000010406
 51
270.0
  0
LINE
  5
3A9
330
23
100
AcDbEntity
  8
SANINDUSA
100
AcDbLine
 10
375.6608359108357
 20
664.0996751811761
 30
0.0
 11
375.2704948013366
 21
664.0996751811762
 31
0.0
  0
ARC
  5
3AA
330
23
100
AcDbEntity
  8
SANINDUSA
100
AcDbCircle
 10
375.2704948013366
 20
664.1046751811763
 30
0.0
 40
0.005
100
AcDbArc
 50
270.0
 51
347.9999999989595
  0
LINE
  5
3AB
330
23
100
AcDbEntity
  8
SANINDUSA
100
AcDbLine
 10
375.2887241599144
 20
664.1663888986947
 30
0.0
 11
375.2753855393402
 21
664.103635622722
 31
0.0
  0
LINE
  5
3AD
330
23
100
AcDbEntity
  8
SANINDUSA
100
AcDbLine
 10
375.2789426839072
 20
664.1684680156028
 30
0.0
 11
375.2680148678511
 21
664.1170566831547
 31
0.0
  0
LINE
  5
3B0
330
23
100
AcDbEntity
  8
SANINDUSA
100
AcDbLine
 10
375.655945172832
 20
664.103635622722
 30
0.0
 11
375.6426065522577
 21
664.1663888986947
 31
0.0
  0
LINE
  5
3B1
330
23
100
AcDbEntity
  8
SANINDUSA
100
AcDbLine
 10
375.6633158443211
 20
664.1170566831547
 30
0.0
 11
375.6523880282651
 21
664.1684680156028
 31
0.0
  0
ARC
  5
3B2
330
23
100
AcDbEntity
  8
SANINDUSA
100
AcDbCircle
 10
375.2659310351825
 20
664.1046751811763
 30
0.0
 40
0.005
100
AcDbArc
 50
195.0000000024146
 51
270.0
  0
ARC
  5
3B3
330
23
100
AcDbEntity
  8
SANINDUSA
100
AcDbCircle
 10
375.6653996769898
 20
664.1046751811763
 30
0.0
 40
0.005
100
AcDbArc
 50
270.0
 51
344.9999999975854
  0
LINE
  5
3B5
330
23
100
AcDbEntity
  8
SANINDUSA
100
AcDbLine
 10
375.5855012052447
 20
664.1512576675966
 30
0.0
 11
375.5854805119605
 21
664.1506650894683
 31
0.0
  0
ARC
  5
3B6
330
23
100
AcDbEntity
  8
SANINDUSA
100
AcDbCircle
 10
375.5904981593798
 20
664.1510831701131
 30
0.0
 40
0.0050000000000001
100
AcDbArc
 50
91.50000000092214
 51
178.0000000027562
  0
LINE
  5
3B7
330
23
100
AcDbEntity
  8
SANINDUSA
100
AcDbLine
 10
375.6085795548041
 20
664.156558362078
 30
0.0
 11
375.5903672746383
 21
664.1560814567379
 31
0.0
  0
ARC
  5
3B8
330
23
100
AcDbEntity
  8
SANINDUSA
100
AcDbCircle
 10
375.6084486700626
 20
664.1615566487029
 30
0.0
 40
0.005
100
AcDbArc
 50
271.5000000009221
 51
354.9999999975038
  0
LINE
  5
3B9
330
23
100
AcDbEntity
  8
SANINDUSA
100
AcDbLine
 10
375.6152660384657
 20
664.1821109598899
 30
0.0
 11
375.6134296435531
 21
664.1611208699892
 31
0.0
  0
ARC
  5
3BA
330
23
100
AcDbEntity
  8
SANINDUSA
100
AcDbCircle
 10
375.6202470119561
 20
664.1816751811762
 30
0.0
 40
0.005
100
AcDbArc
 50
90.0
 51
174.9999999975037
  0
LINE
  5
3BB
330
23
100
AcDbEntity
  8
SANINDUSA
100
AcDbLine
 10
375.6392804362613
 20
664.1866751811762
 30
0.0
 11
375.6202470119561
 21
664.1866751811762
 31
0.0
  0
ARC
  5
3BC
330
23
100
AcDbEntity
  8
SANINDUSA
100
AcDbCircle
 10
375.6392804362613
 20
664.1916751811763
 30
0.0
 40
0.0050000000000001
100
AcDbArc
 50
270.0
 51
300.9637565348663
  0
LINE
  5
3BD
330
23
100
AcDbEntity
  8
SANINDUSA
100
AcDbLine
 10
375.6644777971337
 20
664.2009626458047
 30
0.0
 11
375.6418529150385
 21
664.1873877165476
 31
0.0
  0
LINE
  5
3BE
330
23
100
AcDbEntity
  8
SANINDUSA
100
AcDbLine
 10
375.6681976839451
 20
664.191532674102
 30
0.0
 11
375.6477054280261
 21
664.1792373205504
 31
0.0
  0
ARC
  5
3BF
330
23
100
AcDbEntity
  8
SANINDUSA
100
AcDbCircle
 10
375.6670502759109
 20
664.1966751811763
 30
0.0
 40
0.005
100
AcDbArc
 50
90.0
 51
120.9637565348663
  0
LINE
  5
3C0
330
23
100
AcDbEntity
  8
SANINDUSA
100
AcDbLine
 10
375.6957518697705
 20
664.2016751811762
 30
0.0
 11
375.6670502759109
 21
664.2016751811762
 31
0.0
  0
LINE
  5
3C1
330
23
100
AcDbEntity
  8
SANINDUSA
100
AcDbLine
 10
375.6898556861918
 20
664.1916751811763
 30
0.0
 11
375.6687121797006
 21
664.1916751811763
 31
0.0
  0
ARC
  5
3C2
330
23
100
AcDbEntity
  8
SANINDUSA
100
AcDbCircle
 10
375.6687121797006
 20
664.1906751811761
 30
0.0
 40
0.001
100
AcDbArc
 50
90.0
 51
120.9637565348663
  0
ARC
  5
3C3
330
23
100
AcDbEntity
  8
SANINDUSA
100
AcDbCircle
 10
375.6957518697705
 20
664.1966751811763
 30
0.0
 40
0.005
100
AcDbArc
 50
0.999999996865035
 51
90.0
  0
LINE
  5
3C4
330
23
100
AcDbEntity
  8
SANINDUSA
100
AcDbLine
 10
375.7024108625789
 20
664.1016751811762
 30
0.0
 11
375.7007511082463
 21
664.1967624432083
 31
0.0
  0
LINE
  5
3C5
330
23
100
AcDbEntity
  8
SANINDUSA
100
AcDbLine
 10
375.6920674690534
 20
664.1212609143982
 30
0.0
 11
375.690855533887
 21
664.1906926335827
 31
0.0
  0
ARC
  5
3C6
330
23
100
AcDbEntity
  8
SANINDUSA
100
AcDbCircle
 10
375.6898556861918
 20
664.1906751811761
 30
0.0
 40
0.001
100
AcDbArc
 50
0.999999996865035
 51
90.0
  0
LINE
  5
3C7
330
23
100
AcDbEntity
  8
SANINDUSA
100
AcDbLine
 10
375.7024108625789
 20
664.1016751811762
 30
0.0
 11
375.6904108625789
 21
664.1016751811762
 31
0.0
  0
LINE
  5
3C8
330
23
100
AcDbEntity
  8
SANINDUSA
100
AcDbLine
 10
375.6904108625789
 20
664.1016751811762
 30
0.0
 11
375.689376133381
 21
664.1075434220645
 31
0.0
  0
ARC
  5
3C9
330
23
100
AcDbEntity
  8
SANINDUSA
100
AcDbCircle
 10
375.684452094616
 20
664.1066751811762
 30
0.0
 40
0.005
100
AcDbArc
 50
10.00000000065746
 51
90.0
  0
ARC
  5
3CA
330
23
100
AcDbEntity
  8
SANINDUSA
100
AcDbCircle
 10
375.684452094616
 20
664.1066751811762
 30
0.0
 40
0.015
100
AcDbArc
 50
65.57697149430912
 51
90.0
  0
ARC
  5
3CB
330
23
100
AcDbEntity
  8
SANINDUSA
100
AcDbCircle
 10
375.6910676213583
 20
664.1212434619917
 30
0.0
 40
0.001
100
AcDbArc
 50
245.5769714943091
 51
0.999999996865035
  0
ARC
  5
3CC
330
23
100
AcDbEntity
  8
SANINDUSA
100
AcDbCircle
 10
375.6338032238511
 20
664.1645176934773
 30
0.0
 40
0.009
100
AcDbArc
 50
12.00000000104056
 51
174.9999999975037
  0
ARC
  5
3CD
330
23
100
AcDbEntity
  8
SANINDUSA
100
AcDbCircle
 10
375.6338032238511
 20
664.1645176934773
 30
0.0
 40
0.019
100
AcDbArc
 50
12.00000000104056
 51
43.87653760753105
  0
ARC
  5
3CE
330
23
100
AcDbEntity
  8
SANINDUSA
100
AcDbCircle
 10
375.6482199237814
 20
664.1783798276247
 30
0.0
 40
0.001
100
AcDbArc
 50
120.9637565348663
 51
223.876537607531
  0
LINE
  5
3CF
330
23
100
AcDbEntity
  8
SANINDUSA
100
AcDbLine
 10
375.6243099957575
 20
664.1592730190564
 30
0.0
 11
375.6248374715683
 21
664.1653020951621
 31
0.0
  0
ARC
  5
3D0
330
23
100
AcDbEntity
  8
SANINDUSA
100
AcDbCircle
 10
375.6093670752861
 20
664.1605803551975
 30
0.0
 40
0.015
100
AcDbArc
 50
271.5000000009221
 51
354.9999999975038
  0
LINE
  5
3D1
330
23
100
AcDbEntity
  8
SANINDUSA
100
AcDbLine
 10
375.6021459886148
 20
664.1453861225009
 30
0.0
 11
375.6097597295108
 21
664.1455854953229
 31
0.0
  0
ARC
  5
3D2
330
23
100
AcDbEntity
  8
SANINDUSA
100
AcDbCircle
 10
375.6024077580979
 20
664.1353895492512
 30
0.0
 40
0.01
100
AcDbArc
 50
91.50000000092214
 51
144.5766495569384
  0
ARC
  5
3D3
330
23
100
AcDbEntity
  8
SANINDUSA
100
AcDbCircle
 10
375.5820354669337
 20
664.1498798823294
 30
0.0
 40
0.0150000000000007
100
AcDbArc
 50
271.5000000009221
 51
324.5766495569384
  0
LINE
  5
3D4
330
23
100
AcDbEntity
  8
SANINDUSA
100
AcDbLine
 10
375.5100571095947
 20
664.1329899208222
 30
0.0
 11
375.5824281211583
 21
664.1348850224549
 31
0.0
  0
ARC
  5
3D5
330
23
100
AcDbEntity
  8
SANINDUSA
100
AcDbCircle
 10
375.5103188790778
 20
664.1229933475724
 30
0.0
 40
0.01
100
AcDbArc
 50
91.50000000092214
 51
174.9999999975037
  0
LINE
  5
3D6
330
23
100
AcDbEntity
  8
SANINDUSA
100
AcDbLine
 10
375.5001653560861
 20
664.1216751811762
 30
0.0
 11
375.5003569320969
 21
664.1238649049999
 31
0.0
  0
LINE
  5
3D7
330
23
100
AcDbEntity
  8
SANINDUSA
100
AcDbLine
 10
375.4891653560861
 20
664.1216751811762
 30
0.0
 11
375.5001653560861
 21
664.1216751811762
 31
0.0
  0
LINE
  5
3D8
330
23
100
AcDbEntity
  8
SANINDUSA
100
AcDbLine
 10
375.4891653560861
 20
664.1334466217208
 30
0.0
 11
375.4891653560861
 21
664.1216751811762
 31
0.0
  0
LINE
  5
3D9
330
23
100
AcDbEntity
  8
SANINDUSA
100
AcDbLine
 10
375.5010263338094
 20
664.1437572123532
 30
0.0
 11
375.4891653560861
 21
664.1334466217208
 31
0.0
  0
LINE
  5
3DA
330
23
100
AcDbEntity
  8
SANINDUSA
100
AcDbLine
 10
375.5806144425669
 20
664.1458413003269
 30
0.0
 11
375.5010263338094
 21
664.1437572123532
 31
0.0
  0
ARC
  5
3DB
330
23
100
AcDbEntity
  8
SANINDUSA
100
AcDbCircle
 10
375.5804835578254
 20
664.1508395869518
 30
0.0
 40
0.0050000000000003
100
AcDbArc
 50
271.5000000009221
 51
358.0000000027562
  0
LINE
  5
3DC
330
23
100
AcDbEntity
  8
SANINDUSA
100
AcDbLine
 10
375.6653996769898
 20
664.0996751811761
 30
0.0
 11
375.6608359108357
 21
664.0996751811761
 31
0.0
  0
LINE
  5
3DD
330
23
100
AcDbEntity
  8
SANINDUSA
100
AcDbLine
 10
375.6702293061212
 20
664.1033810859506
 30
0.0
 11
375.6714587080473
 21
664.1079692764017
 31
0.0
  0
LINE
  5
3DE
330
23
100
AcDbEntity
  8
SANINDUSA
100
AcDbLine
 10
375.684452094616
 20
664.1116751811762
 30
0.0
 11
375.6762883371787
 21
664.1116751811762
 31
0.0
  0
LINE
  5
3DF
330
23
100
AcDbEntity
  8
SANINDUSA
100
AcDbLine
 10
375.684452094616
 20
664.1216751811762
 30
0.0
 11
375.6762883371787
 21
664.1216751811762
 31
0.0
  0
LINE
  5
3E0
330
23
100
AcDbEntity
  8
SANINDUSA
100
AcDbLine
 10
375.4421653560861
 20
664.1216751811762
 30
0.0
 11
375.4421653560861
 21
664.1334466217208
 31
0.0
  0
LINE
  5
3E1
330
23
100
AcDbEntity
  8
SANINDUSA
100
AcDbLine
 10
375.4311653560861
 20
664.1216751811762
 30
0.0
 11
375.4421653560861
 21
664.1216751811762
 31
0.0
  0
LINE
  5
3E2
330
23
100
AcDbEntity
  8
SANINDUSA
100
AcDbLine
 10
375.4309737800753
 20
664.1238649049999
 30
0.0
 11
375.4311653560861
 21
664.1216751811762
 31
0.0
  0
ARC
  5
3E3
330
23
100
AcDbEntity
  8
SANINDUSA
100
AcDbCircle
 10
375.4210118330944
 20
664.1229933475724
 30
0.0
 40
0.01
100
AcDbArc
 50
5.000000002496249
 51
88.49999999907787
  0
LINE
  5
3E4
330
23
100
AcDbEntity
  8
SANINDUSA
100
AcDbLine
 10
375.3489025910139
 20
664.1348850224549
 30
0.0
 11
375.4212736025774
 21
664.1329899208222
 31
0.0
  0
ARC
  5
3E5
330
23
100
AcDbEntity
  8
SANINDUSA
100
AcDbCircle
 10
375.3492952452385
 20
664.1498798823294
 30
0.0
 40
0.0150000000000007
100
AcDbArc
 50
215.4233504430616
 51
268.4999999990779
  0
ARC
  5
3E6
330
23
100
AcDbEntity
  8
SANINDUSA
100
AcDbCircle
 10
375.3289229540743
 20
664.1353895492512
 30
0.0
 40
0.0100000000000002
100
AcDbArc
 50
35.4233504430616
 51
88.49999999907787
  0
LINE
  5
3E7
330
23
100
AcDbEntity
  8
SANINDUSA
100
AcDbLine
 10
375.3215709826615
 20
664.1455854953229
 30
0.0
 11
375.3291847235574
 21
664.1453861225009
 31
0.0
  0
ARC
  5
3E8
330
23
100
AcDbEntity
  8
SANINDUSA
100
AcDbCircle
 10
375.3219636368861
 20
664.1605803551975
 30
0.0
 40
0.0150000000000001
100
AcDbArc
 50
185.0000000024962
 51
268.4999999990779
  0
LINE
  5
3E9
330
23
100
AcDbEntity
  8
SANINDUSA
100
AcDbLine
 10
375.3064932406039
 20
664.1653020951621
 30
0.0
 11
375.3070207164147
 21
664.1592730190564
 31
0.0
  0
ARC
  5
3EA
330
23
100
AcDbEntity
  8
SANINDUSA
100
AcDbCircle
 10
375.2975274883211
 20
664.1645176934773
 30
0.0
 40
0.009
100
AcDbArc
 50
5.000000002496249
 51
167.9999999989594
  0
ARC
  5
3EB
330
23
100
AcDbEntity
  8
SANINDUSA
100
AcDbCircle
 10
375.2975274883211
 20
664.1645176934773
 30
0.0
 40
0.019
100
AcDbArc
 50
136.1234623924689
 51
167.9999999989594
  0
ARC
  5
3EC
330
23
100
AcDbEntity
  8
SANINDUSA
100
AcDbCircle
 10
375.2831107883908
 20
664.1783798276247
 30
0.0
 40
0.001
100
AcDbArc
 50
316.1234623924689
 51
59.03624346513373
  0
ARC
  5
3ED
330
23
100
AcDbEntity
  8
SANINDUSA
100
AcDbCircle
 10
375.2550423749935
 20
664.1066751811762
 30
0.0
 40
0.005
100
AcDbArc
 50
15.00000000241461
 51
90.0
  0
ARC
  5
3EE
330
23
100
AcDbEntity
  8
SANINDUSA
100
AcDbCircle
 10
375.2550423749935
 20
664.1066751811762
 30
0.0
 40
0.015
100
AcDbArc
 50
41.44022729447365
 51
90.0
  0
ARC
  5
3EF
330
23
100
AcDbEntity
  8
SANINDUSA
100
AcDbCircle
 10
375.2670367202504
 20
664.1172645948455
 30
0.0
 40
0.001
100
AcDbArc
 50
221.4402272944737
 51
347.9999999989595
  0
ARC
  5
3F0
330
23
100
AcDbEntity
  8
SANINDUSA
100
AcDbCircle
 10
375.248624124049
 20
664.1066751811762
 30
0.0
 40
0.005
100
AcDbArc
 50
90.0
 51
169.9999999993425
  0
ARC
  5
3F1
330
23
100
AcDbEntity
  8
SANINDUSA
100
AcDbCircle
 10
375.248624124049
 20
664.1066751811762
 30
0.0
 40
0.015
100
AcDbArc
 50
90.0
 51
115.7803942029425
  0
ARC
  5
3F2
330
23
100
AcDbEntity
  8
SANINDUSA
100
AcDbCircle
 10
375.2416653560861
 20
664.1210826635529
 30
0.0
 40
0.001
100
AcDbArc
 50
180.0
 51
295.7803942029425
  0
LINE
  5
3F3
330
23
100
AcDbEntity
  8
SANINDUSA
100
AcDbLine
 10
375.243700085284
 20
664.1075434220645
 30
0.0
 11
375.2426653560861
 21
664.1016751811762
 31
0.0
  0
LINE
  5
3F4
330
23
100
AcDbEntity
  8
SANINDUSA
100
AcDbLine
 10
375.2426653560861
 20
664.1016751811762
 30
0.0
 11
375.2306653560861
 21
664.1016751811762
 31
0.0
  0
LINE
  5
3F5
330
23
100
AcDbEntity
  8
SANINDUSA
100
AcDbLine
 10
375.2306653560861
 20
664.1966751811763
 30
0.0
 11
375.2306653560861
 21
664.1016751811762
 31
0.0
  0
LINE
  5
3F6
330
23
100
AcDbEntity
  8
SANINDUSA
100
AcDbLine
 10
375.2406653560861
 20
664.1906751811761
 30
0.0
 11
375.2406653560861
 21
664.1210826635529
 31
0.0
  0
ARC
  5
3F7
330
23
100
AcDbEntity
  8
SANINDUSA
100
AcDbCircle
 10
375.2356653560861
 20
664.1966751811763
 30
0.0
 40
0.005
100
AcDbArc
 50
90.0
 51
180.0
  0
LINE
  5
3F8
330
23
100
AcDbEntity
  8
SANINDUSA
100
AcDbLine
 10
375.2642804362614
 20
664.2016751811762
 30
0.0
 11
375.2356653560861
 21
664.2016751811762
 31
0.0
  0
LINE
  5
3F9
330
23
100
AcDbEntity
  8
SANINDUSA
100
AcDbLine
 10
375.2626185324717
 20
664.1916751811763
 30
0.0
 11
375.2416653560861
 21
664.1916751811763
 31
0.0
  0
ARC
  5
3FA
330
23
100
AcDbEntity
  8
SANINDUSA
100
AcDbCircle
 10
375.2416653560861
 20
664.1906751811761
 30
0.0
 40
0.001
100
AcDbArc
 50
90.0
 51
180.0
  0
ARC
  5
3FB
330
23
100
AcDbEntity
  8
SANINDUSA
100
AcDbCircle
 10
375.2626185324717
 20
664.1906751811761
 30
0.0
 40
0.001
100
AcDbArc
 50
59.03624346513373
 51
90.0
  0
ARC
  5
3FC
330
23
100
AcDbEntity
  8
SANINDUSA
100
AcDbCircle
 10
375.2642804362614
 20
664.1966751811763
 30
0.0
 40
0.005
100
AcDbArc
 50
59.03624346513373
 51
90.0
  0
LINE
  5
3FD
330
23
100
AcDbEntity
  8
SANINDUSA
100
AcDbLine
 10
375.2894777971337
 20
664.1873877165476
 30
0.0
 11
375.2668529150385
 21
664.2009626458047
 31
0.0
  0
LINE
  5
3FE
330
23
100
AcDbEntity
  8
SANINDUSA
100
AcDbLine
 10
375.2836252841462
 20
664.1792373205504
 30
0.0
 11
375.2631330282271
 21
664.191532674102
 31
0.0
  0
ARC
  5
3FF
330
23
100
AcDbEntity
  8
SANINDUSA
100
AcDbCircle
 10
375.2920502759109
 20
664.1916751811763
 30
0.0
 40
0.0050000000000001
100
AcDbArc
 50
239.0362434651337
 51
270.0
  0
LINE
  5
400
330
23
100
AcDbEntity
  8
SANINDUSA
100
AcDbLine
 10
375.311083700216
 20
664.1866751811762
 30
0.0
 11
375.2920502759109
 21
664.1866751811762
 31
0.0
  0
ARC
  5
401
330
23
100
AcDbEntity
  8
SANINDUSA
100
AcDbCircle
 10
375.311083700216
 20
664.1816751811762
 30
0.0
 40
0.005
100
AcDbArc
 50
5.000000002496249
 51
90.0
  0
LINE
  5
402
330
23
100
AcDbEntity
  8
SANINDUSA
100
AcDbLine
 10
375.3179010686192
 20
664.1611208699892
 30
0.0
 11
375.3160646737065
 21
664.1821109598899
 31
0.0
  0
ARC
  5
403
330
23
100
AcDbEntity
  8
SANINDUSA
100
AcDbCircle
 10
375.3228820421096
 20
664.1615566487029
 30
0.0
 40
0.0050000000000001
100
AcDbArc
 50
185.0000000024962
 51
268.4999999990779
  0
LINE
  5
404
330
23
100
AcDbEntity
  8
SANINDUSA
100
AcDbLine
 10
375.340963437534
 20
664.1560814567379
 30
0.0
 11
375.3227511573681
 21
664.156558362078
 31
0.0
  0
ARC
  5
405
330
23
100
AcDbEntity
  8
SANINDUSA
100
AcDbCircle
 10
375.3408325527924
 20
664.1510831701131
 30
0.0
 40
0.0050000000000001
100
AcDbArc
 50
1.999999997243794
 51
88.49999999907787
  0
LINE
  5
406
330
23
100
AcDbEntity
  8
SANINDUSA
100
AcDbLine
 10
375.3458502002117
 20
664.1506650894683
 30
0.0
 11
375.3458295069275
 21
664.1512576675966
 31
0.0
  0
ARC
  5
407
330
23
100
AcDbEntity
  8
SANINDUSA
100
AcDbCircle
 10
375.3508471543468
 20
664.1508395869518
 30
0.0
 40
0.0050000000000005
100
AcDbArc
 50
181.9999999972438
 51
268.4999999990779
  0
LINE
  5
408
330
23
100
AcDbEntity
  8
SANINDUSA
100
AcDbLine
 10
375.4303043783628
 20
664.1437572123532
 30
0.0
 11
375.3507162696053
 21
664.1458413003269
 31
0.0
  0
LINE
  5
409
330
23
100
AcDbEntity
  8
SANINDUSA
100
AcDbLine
 10
375.4421653560861
 20
664.1334466217208
 30
0.0
 11
375.4303043783628
 21
664.1437572123532
 31
0.0
  0
LINE
  5
40A
330
23
100
AcDbEntity
  8
SANINDUSA
100
AcDbLine
 10
375.2704948013366
 20
664.0996751811762
 30
0.0
 11
375.2659310351825
 21
664.0996751811762
 31
0.0
  0
LINE
  5
40B
330
23
100
AcDbEntity
  8
SANINDUSA
100
AcDbLine
 10
375.2598720041249
 20
664.1079692764017
 30
0.0
 11
375.261101406051
 21
664.1033810859506
 31
0.0
  0
LINE
  5
40C
330
23
100
AcDbEntity
  8
SANINDUSA
100
AcDbLine
 10
375.2550423749935
 20
664.1116751811762
 30
0.0
 11
375.248624124049
 21
664.1116751811762
 31
0.0
  0
LINE
  5
40D
330
23
100
AcDbEntity
  8
SANINDUSA
100
AcDbLine
 10
375.2550423749935
 20
664.1216751811762
 30
0.0
 11
375.248624124049
 21
664.1216751811762
 31
0.0
  0
LINE
  5
40E
330
23
100
AcDbEntity
  8
SANINDUSA
100
AcDbLine
 10
375.4421653560861
 20
664.1216751811762
 30
0.0
 11
375.4891653560861
 21
664.1216751811762
 31
0.0
  0
LINE
  5
410
330
23
100
AcDbEntity
  8
SANINDUSA
100
AcDbLine
 10
375.4303043783628
 20
664.1437572123532
 30
0.0
 11
375.5010263338094
 21
664.1437572123532
 31
0.0
  0
LINE
  5
41B
330
23
100
AcDbEntity
  8
SANINDUSA
100
AcDbLine
 10
375.2642804362614
 20
664.2016751811762
 30
0.0
 11
375.6670502759109
 21
664.2016751811762
 31
0.0
  0
LINE
  5
41F
330
23
100
AcDbEntity
  8
SANINDUSA
100
AcDbLine
 10
375.2475893948512
 20
664.1016751811762
 30
0.0
 11
375.2426653560861
 21
664.1016751811762
 31
0.0
  0
LINE
  5
422
330
23
100
AcDbEntity
  8
SANINDUSA
100
AcDbLine
 10
375.6904108625789
 20
664.1016751811762
 30
0.0
 11
375.6854868238138
 21
664.1016751811762
 31
0.0
  0
LINE
  5
425
330
23
100
AcDbEntity
  8
SANINDUSA
100
AcDbLine
 10
375.2475893948512
 20
664.1016751811762
 30
0.0
 11
375.2619310351824
 21
664.1016751811762
 31
0.0
  0
LINE
  5
426
330
23
100
AcDbEntity
  8
SANINDUSA
100
AcDbLine
 10
375.6693991955343
 20
664.1016751811762
 30
0.0
 11
375.6854868238138
 21
664.1016751811762
 31
0.0
  0
LINE
  5
42F
330
23
100
AcDbEntity
  8
SANINDUSA
100
AcDbLine
 10
374.578449900121
 20
664.1016751811761
 30
0.0
 11
374.578449900121
 21
664.1966751811761
 31
0.0
  0
ARC
  5
432
330
23
100
AcDbEntity
  8
SANINDUSA
100
AcDbCircle
 10
374.583449900121
 20
664.1966751811761
 30
0.0
 40
0.005
100
AcDbArc
 50
90.0
 51
180.0
  0
ARC
  5
436
330
23
100
AcDbEntity
  8
SANINDUSA
100
AcDbCircle
 10
373.8033445975436
 20
664.3672587459231
 30
0.0
 40
0.0049996192813998
100
AcDbArc
 50
0.0
 51
89.99563612182813
  0
LINE
  5
437
330
23
100
AcDbEntity
  8
SANINDUSA
100
AcDbLine
 10
373.3431719509658
 20
664.37225836519
 30
0.0
 11
373.8033449783347
 21
664.37225836519
 31
0.0
  0
ARC
  5
43B
330
23
100
AcDbEntity
  8
SANINDUSA
100
AcDbCircle
 10
373.3431723317569
 20
664.3672587459231
 30
0.0
 40
0.0049996192813815
100
AcDbArc
 50
90.00436387817188
 51
180.0
  0
LINE
  5
43D
330
23
100
AcDbEntity
  8
SANINDUSA
100
AcDbLine
 10
373.8033449783347
 20
664.37225836519
 30
0.0
 11
373.8050032095028
 21
664.37225836519
 31
0.0
  0
ELLIPSE
  5
43E
330
23
100
AcDbEntity
  8
SANINDUSA
100
AcDbEllipse
 10
373.8050032095028
 20
664.36725836519
 30
0.0
 11
0.0050007616402195
 21
0.0
 31
0.0
210
0.0
220
0.0
230
0.9999999999999998
 40
0.9998476951564029
 41
0.0
 42
1.570796326794896
  0
LINE
  5
43F
330
23
100
AcDbEntity
  8
SANINDUSA
100
AcDbLine
 10
373.3415137197976
 20
664.37225836519
 30
0.0
 11
373.3431719509658
 21
664.37225836519
 31
0.0
  0
ELLIPSE
  5
441
330
23
100
AcDbEntity
  8
SANINDUSA
100
AcDbEllipse
 10
373.3415137197976
 20
664.36725836519
 30
0.0
 11
0.0050007616402196
 21
0.0
 31
0.0
210
0.0
220
0.0
230
1.0
 40
0.9998476951563887
 41
1.570796326794875
 42
3.141592653589793
  0
LWPOLYLINE
  5
7DB
330
23
100
AcDbEntity
  8
SANINDUSA
100
AcDbPolyline
 90
       13
 70
   128
 43
0.0
 10
375.4341376411754
 20
664.1477051105444
 10
375.4352425884345
 20
664.1496160830379
 10
375.4374013215862
 20
664.1530845262782
 10
375.4396322662966
 20
664.156332714977
 10
375.4419279237321
 20
664.1593513626462
 10
375.4442807812117
 20
664.1621323462747
 10
375.44668322731
 20
664.1646684766146
 10
375.4491273635293
 20
664.1669532757603
 10
375.4516056458971
 20
664.168981540897
 10
375.4541108989
 20
664.170749086446
 10
375.4566365592422
 20
664.1722526472667
 10
375.4591769146258
 20
664.1734896628013
 10
375.4599949562938
 20
664.1738189640987
  0
LWPOLYLINE
  5
7DC
330
23
100
AcDbEntity
  8
SANINDUSA
100
AcDbPolyline
 90
       13
 70
   128
 43
0.0
 10
375.4713403345387
 20
664.1738189640987
 10
375.4720179541483
 20
664.1735481243215
 10
375.4745833287947
 20
664.1723123338128
 10
375.4771312508841
 20
664.1708064913578
 10
375.479653127282
 20
664.1690362100303
 10
375.4821432182767
 20
664.1670058697584
 10
375.4845953954611
 20
664.1647202159499
 10
375.4870031219876
 20
664.1621846213431
 10
375.4893595487242
 20
664.1594052508946
 10
375.4916576477036
 20
664.1563891409023
 10
375.4938901617729
 20
664.1531444928146
 10
375.4960501644276
 20
664.1496800381609
 10
375.497193070997
 20
664.1477051105444
  0
ARC
  5
7DD
330
23
100
AcDbEntity
  8
SANINDUSA
100
AcDbCircle
 10
375.4312003228784
 20
664.1490779218329
 30
0.0
 40
0.0032312899324566
100
AcDbArc
 50
271.8040566575871
 51
334.9878541199106
  0
ARC
  5
7DE
330
23
100
AcDbEntity
  8
SANINDUSA
100
AcDbCircle
 10
375.5001651910385
 20
664.1490997098745
 30
0.0
 40
0.0032830481007152
100
AcDbArc
 50
205.1372431945939
 51
267.8541087721692
  0
LWPOLYLINE
  5
7DF
330
23
100
AcDbEntity
  8
SANINDUSA
100
AcDbPolyline
 90
        8
 70
   128
 43
0.0
 10
375.5248833999632
 20
664.1458378163015
 10
375.5256245455786
 20
664.1459198671339
 10
375.5263695583614
 20
664.146242007788
 10
375.5270109333111
 20
664.1467450000943
 10
375.5275704570707
 20
664.1474403230031
 10
375.5280410084259
 20
664.1483533834518
 10
375.5283773736211
 20
664.1494447279785
 10
375.5285207599178
 20
664.1504408410369
  0
LWPOLYLINE
  5
7E0
330
23
100
AcDbEntity
  8
SANINDUSA
100
AcDbPolyline
 90
        9
 70
   128
 43
0.0
 10
375.4028203121592
 20
664.1504435631945
 10
375.4028554086009
 20
664.1499721928221
 10
375.4031176677594
 20
664.1488316488419
 10
375.4035676775003
 20
664.1477639834045
 10
375.4041526872835
 20
664.1469221698428
 10
375.4048261681306
 20
664.1463277038454
 10
375.4055916867621
 20
664.1459543066985
 10
375.4064142380802
 20
664.1458191650758
 10
375.4064456272564
 20
664.1458236563394
  0
LINE
  5
7E1
330
23
100
AcDbEntity
  8
SANINDUSA
100
AcDbLine
 10
375.4025867798322
 20
664.1528088075247
 30
0.0
 11
375.4028000379013
 21
664.1504409471656
 31
0.0
  0
LINE
  5
7E2
330
23
100
AcDbEntity
  8
SANINDUSA
100
AcDbLine
 10
375.5285289382056
 20
664.1504411783885
 30
0.0
 11
375.5287376557288
 21
664.1527621548175
 31
0.0
  0
LINE
  5
7E3
330
23
100
AcDbEntity
  8
SANINDUSA
100
AcDbLine
 10
375.3447893921245
 20
664.172807730318
 30
0.0
 11
375.3463478637922
 21
664.1504875945965
 31
0.0
  0
ARC
  5
7E4
330
23
100
AcDbEntity
  8
SANINDUSA
100
AcDbCircle
 10
375.3427937891878
 20
664.1726751825172
 30
0.0
 40
0.002
100
AcDbArc
 50
3.799999994301765
 51
90.0
  0
LINE
  5
7E5
330
23
100
AcDbEntity
  8
SANINDUSA
100
AcDbLine
 10
375.3276315512224
 20
664.1746751825171
 30
0.0
 11
375.3427937891878
 21
664.1746751825171
 31
0.0
  0
ARC
  5
7E6
330
23
100
AcDbEntity
  8
SANINDUSA
100
AcDbCircle
 10
375.3276315512224
 20
664.1756751825171
 30
0.0
 40
0.0009999999999999
100
AcDbArc
 50
184.9999999960072
 51
270.0
  0
LINE
  5
7E7
330
23
100
AcDbEntity
  8
SANINDUSA
100
AcDbLine
 10
375.3257604698891
 20
664.1855880267744
 30
0.0
 11
375.3266353565245
 21
664.1755880267744
 31
0.0
  0
ARC
  5
7E8
330
23
100
AcDbEntity
  8
SANINDUSA
100
AcDbCircle
 10
375.3267566645874
 20
664.1856751825171
 30
0.0
 40
0.001
100
AcDbArc
 50
90.0
 51
184.9999999960072
  0
LINE
  5
7E9
330
23
100
AcDbEntity
  8
SANINDUSA
100
AcDbLine
 10
375.3267566645874
 20
664.1866751825173
 30
0.0
 11
375.6045740475851
 21
664.1866751825173
 31
0.0
  0
ARC
  5
7EA
330
23
100
AcDbEntity
  8
SANINDUSA
100
AcDbCircle
 10
375.6045740475851
 20
664.1856751825171
 30
0.0
 40
0.0010000000000001
100
AcDbArc
 50
355.0000000039927
 51
90.0
  0
LINE
  5
7EB
330
23
100
AcDbEntity
  8
SANINDUSA
100
AcDbLine
 10
375.604695355648
 20
664.1755880267744
 30
0.0
 11
375.6055702422833
 21
664.1855880267744
 31
0.0
  0
ARC
  5
7EC
330
23
100
AcDbEntity
  8
SANINDUSA
100
AcDbCircle
 10
375.60369916095
 20
664.1756751825171
 30
0.0
 40
0.001
100
AcDbArc
 50
270.0
 51
355.0000000039927
  0
LINE
  5
7ED
330
23
100
AcDbEntity
  8
SANINDUSA
100
AcDbLine
 10
375.5885369229846
 20
664.1746751825171
 30
0.0
 11
375.60369916095
 21
664.1746751825171
 31
0.0
  0
ARC
  5
7EE
330
23
100
AcDbEntity
  8
SANINDUSA
100
AcDbCircle
 10
375.5885369229846
 20
664.1726751825172
 30
0.0
 40
0.002
100
AcDbArc
 50
90.0
 51
176.2000000056982
  0
LINE
  5
7EF
330
23
100
AcDbEntity
  8
SANINDUSA
100
AcDbLine
 10
375.5849828483803
 20
664.1504875945965
 30
0.0
 11
375.5865413200481
 21
664.172807730318
 31
0.0
  0
ARC
  5
7F0
330
23
100
AcDbEntity
  8
SANINDUSA
100
AcDbCircle
 10
375.5799938410388
 20
664.1508189640985
 30
0.0
 40
0.0050000000000001
100
AcDbArc
 50
270.0
 51
356.2000000056982
  0
LINE
  5
7F1
330
23
100
AcDbEntity
  8
SANINDUSA
100
AcDbLine
 10
375.5799938410388
 20
664.1458189640986
 30
0.0
 11
375.5385905904692
 21
664.1458189640986
 31
0.0
  0
ARC
  5
7F2
330
23
100
AcDbEntity
  8
SANINDUSA
100
AcDbCircle
 10
375.5385905904692
 20
664.1508189640985
 30
0.0
 40
0.0050000000000001
100
AcDbArc
 50
225.2774052101736
 51
270.0
  0
ARC
  5
7F3
330
23
100
AcDbEntity
  8
SANINDUSA
100
AcDbCircle
 10
375.4656653560861
 20
664.0771841339353
 30
0.0
 40
0.0986348301633002
100
AcDbArc
 50
45.27740521017356
 51
84.18112335539056
  0
LINE
  5
7F4
330
23
100
AcDbEntity
  8
SANINDUSA
100
AcDbLine
 10
375.4756653560863
 20
664.1738189640987
 30
0.0
 11
375.4756653560863
 21
664.1753107344132
 31
0.0
  0
LINE
  5
7F5
330
23
100
AcDbEntity
  8
SANINDUSA
100
AcDbLine
 10
375.4756653560863
 20
664.1738189640987
 30
0.0
 11
375.4556653560861
 21
664.1738189640987
 31
0.0
  0
LINE
  5
7F6
330
23
100
AcDbEntity
  8
SANINDUSA
100
AcDbLine
 10
375.4556653560861
 20
664.1753107344132
 30
0.0
 11
375.4556653560861
 21
664.1738189640987
 31
0.0
  0
ARC
  5
7F7
330
23
100
AcDbEntity
  8
SANINDUSA
100
AcDbCircle
 10
375.4656653560861
 20
664.0771841339353
 30
0.0
 40
0.0986348301633002
100
AcDbArc
 50
95.81887664460943
 51
134.7225947898264
  0
ARC
  5
7F8
330
23
100
AcDbEntity
  8
SANINDUSA
100
AcDbCircle
 10
375.3927401217032
 20
664.1508189640985
 30
0.0
 40
0.0050000000000002
100
AcDbArc
 50
270.0
 51
314.7225947898264
  0
LINE
  5
7F9
330
23
100
AcDbEntity
  8
SANINDUSA
100
AcDbLine
 10
375.3927401217032
 20
664.1458189640986
 30
0.0
 11
375.3513368711336
 21
664.1458189640986
 31
0.0
  0
ARC
  5
7FA
330
23
100
AcDbEntity
  8
SANINDUSA
100
AcDbCircle
 10
375.3513368711336
 20
664.1508189640985
 30
0.0
 40
0.005
100
AcDbArc
 50
183.7999999943017
 51
270.0
  0
LINE
  5
7FB
330
23
100
AcDbEntity
  8
SANINDUSA
100
AcDbLine
 10
375.4312884519545
 20
664.1458189640986
 30
0.0
 11
375.427156063996
 21
664.1458189640986
 31
0.0
  0
LINE
  5
7FC
330
23
100
AcDbEntity
  8
SANINDUSA
100
AcDbLine
 10
375.5041746481765
 20
664.1458189640986
 30
0.0
 11
375.500042260218
 21
664.1458189640986
 31
0.0
  0
LINE
  5
7FD
330
23
100
AcDbEntity
  8
SANINDUSA
100
AcDbLine
 10
375.427156063996
 20
664.1458189640986
 30
0.0
 11
375.4064473680375
 21
664.1458189640986
 31
0.0
  0
LINE
  5
7FE
330
23
100
AcDbEntity
  8
SANINDUSA
100
AcDbLine
 10
375.524883344135
 20
664.1458189640986
 30
0.0
 11
375.5041746481765
 21
664.1458189640986
 31
0.0
  0
CIRCLE
  5
7FF
330
23
100
AcDbEntity
  8
SANINDUSA
  6
Continuous
370
    15
100
AcDbCircle
 10
373.5732584646502
 20
664.13725836519
 30
0.0
 40
0.1399086914989308
  0
ENDSEC
  0
SECTION
  2
OBJECTS
  0
DICTIONARY
  5
C
330
0
100
AcDbDictionary
281
     1
  3
ACAD_2007HEADERVARS_RT
350
86C
  3
ACAD_COLOR
350
1C
  3
ACAD_GROUP
350
D
  3
ACAD_LAYOUT
350
1A
  3
ACAD_MATERIAL
350
1B
  3
ACAD_MLEADERSTYLE
350
84D
  3
ACAD_MLINESTYLE
350
17
  3
ACAD_PLOTSETTINGS
350
19
  3
ACAD_PLOTSTYLENAME
350
E
  3
ACAD_SCALELIST
350
83B
  3
ACAD_TABLESTYLE
350
1D
  3
ACAD_VISUALSTYLE
350
827
  3
ACDB_RECOMPOSE_DATA
350
86A
  3
AcDbVariableDictionary
350
801
  3
DWGPROPS
350
86B
  0
DICTIONARY
  5
853
330
10
100
AcDbDictionary
280
     1
281
     1
  3
ADSK_XREC_LAYER_RECONCILED
360
854
  0
DICTIONARY
  5
855
330
1AC
100
AcDbDictionary
280
     1
281
     1
  3
ADSK_XREC_LAYER_RECONCILED
360
856
  0
DICTIONARY
  5
857
330
1AD
100
AcDbDictionary
280
     1
281
     1
  3
ADSK_XREC_LAYER_RECONCILED
360
858
  0
DICTIONARY
  5
859
330
1AE
100
AcDbDictionary
280
     1
281
     1
  3
ADSK_XREC_LAYER_RECONCILED
360
85A
  0
DICTIONARY
  5
85B
330
1AF
100
AcDbDictionary
280
     1
281
     1
  3
ADSK_XREC_LAYER_RECONCILED
360
85C
  0
DICTIONARY
  5
85D
330
1B0
100
AcDbDictionary
280
     1
281
     1
  3
ADSK_XREC_LAYER_RECONCILED
360
85E
  0
DICTIONARY
  5
85F
330
1B1
100
AcDbDictionary
280
     1
281
     1
  3
ADSK_XREC_LAYER_RECONCILED
360
860
  0
DICTIONARY
  5
861
330
1B3
100
AcDbDictionary
280
     1
281
     1
  3
ADSK_XREC_LAYER_RECONCILED
360
862
  0
DICTIONARY
  5
86C
102
{ACAD_REACTORS
330
C
102
}
330
C
100
AcDbDictionary
281
     1
  3
DIMJOGANG
350
86D
  0
DICTIONARY
  5
1C
102
{ACAD_REACTORS
330
C
102
}
330
C
100
AcDbDictionary
281
     1
  0
DICTIONARY
  5
D
102
{ACAD_REACTORS
330
C
102
}
330
C
100
AcDbDictionary
281
     1
  0
DICTIONARY
  5
1A
102
{ACAD_REACTORS
330
C
102
}
330
C
100
AcDbDictionary
281
     1
  3
Layout1
350
22
  3
Layout2
350
2A
  3
Model
350
26
  0
DICTIONARY
  5
1B
102
{ACAD_REACTORS
330
C
102
}
330
C
100
AcDbDictionary
281
     1
  3
ByBlock
350
817
  3
ByLayer
350
80F
  3
Global
350
81F
  0
DICTIONARY
  5
84D
102
{ACAD_REACTORS
330
C
102
}
330
C
100
AcDbDictionary
281
     1
  3
Standard
350
84E
  0
DICTIONARY
  5
17
102
{ACAD_REACTORS
330
C
102
}
330
C
100
AcDbDictionary
281
     1
  3
Standard
350
18
  0
DICTIONARY
  5
19
102
{ACAD_REACTORS
330
C
102
}
330
C
100
AcDbDictionary
281
     1
  0
ACDBDICTIONARYWDFLT
  5
E
102
{ACAD_REACTORS
330
C
102
}
330
C
100
AcDbDictionary
281
     1
  3
Normal
350
F
100
AcDbDictionaryWithDefault
340
F
  0
DICTIONARY
  5
83B
102
{ACAD_REACTORS
330
C
102
}
330
C
100
AcDbDictionary
281
     1
  3
A0
350
83C
  3
A1
350
83D
  3
A2
350
83E
  3
A3
350
83F
  3
A4
350
840
  3
A5
350
841
  3
A6
350
842
  3
A7
350
843
  3
A8
350
844
  3
A9
350
845
  3
B0
350
846
  3
B1
350
847
  3
B2
350
848
  3
B3
350
849
  3
B4
350
84A
  3
B5
350
84B
  3
B6
350
84C
  0
DICTIONARY
  5
1D
102
{ACAD_REACTORS
330
C
102
}
330
C
100
AcDbDictionary
281
     1
  3
Standard
350
1E
  0
DICTIONARY
  5
827
102
{ACAD_REACTORS
330
C
102
}
330
C
100
AcDbDictionary
281
     1
  3
2dWireframe
350
82D
  3
3D Hidden
350
82F
  3
3dWireframe
350
82E
  3
Basic
350
82C
  3
Brighten
350
833
  3
ColorChange
350
837
  3
Conceptual
350
830
  3
Dim
350
832
  3
EdgeColorOff
350
83A
  3
Facepattern
350
836
  3
Flat
350
828
  3
FlatWithEdges
350
829
  3
Gouraud
350
82A
  3
GouraudWithEdges
350
82B
  3
JitterOff
350
838
  3
Linepattern
350
835
  3
OverhangOff
350
839
  3
Realistic
350
831
  3
Thicken
350
834
  0
XRECORD
  5
86A
102
{ACAD_REACTORS
330
C
102
}
330
C
100
AcDbXrecord
280
     1
 90
        1
330
1E
  0
DICTIONARY
  5
801
102
{ACAD_REACTORS
330
C
102
}
330
C
100
AcDbDictionary
281
     1
  3
CANNOSCALE
350
864
  3
CMLEADERSTYLE
350
863
  3
CTABLESTYLE
350
802
  3
DIMASSOC
350
80C
  3
HIDETEXT
350
80B
  3
INDEXCTL
350
866
  3
PROJECTNAME
350
80D
  3
SORTENTS
350
865
  3
XCLIPFRAME
350
867
  0
XRECORD
  5
86B
102
{ACAD_REACTORS
330
C
102
}
330
C
100
AcDbXrecord
280
     1
  1
DWGPROPS COOKIE
  2

  3

  4

  6

  7

  8
Julio
  9

300
=
301
=
302
=
303
=
304
=
305
=
306
=
307
=
308
=
309
=
 40
0.0032720138888889
 41
2454117.573629734
 42
2456142.76006022
  1

 90
        0
  0
XRECORD
  5
854
102
{ACAD_REACTORS
330
853
102
}
330
853
100
AcDbXrecord
280
     1
290
     1
  0
XRECORD
  5
856
102
{ACAD_REACTORS
330
855
102
}
330
855
100
AcDbXrecord
280
     1
290
     1
  0
XRECORD
  5
858
102
{ACAD_REACTORS
330
857
102
}
330
857
100
AcDbXrecord
280
     1
290
     1
  0
XRECORD
  5
85A
102
{ACAD_REACTORS
330
859
102
}
330
859
100
AcDbXrecord
280
     1
290
     1
  0
XRECORD
  5
85C
102
{ACAD_REACTORS
330
85B
102
}
330
85B
100
AcDbXrecord
280
     1
290
     1
  0
XRECORD
  5
85E
102
{ACAD_REACTORS
330
85D
102
}
330
85D
100
AcDbXrecord
280
     1
290
     1
  0
XRECORD
  5
860
102
{ACAD_REACTORS
330
85F
102
}
330
85F
100
AcDbXrecord
280
     1
290
     1
  0
XRECORD
  5
862
102
{ACAD_REACTORS
330
861
102
}
330
861
100
AcDbXrecord
280
     1
290
     1
  0
XRECORD
  5
86D
102
{ACAD_REACTORS
330
86C
102
}
330
86C
100
AcDbXrecord
280
     1
 40
1.570796326794896
  0
LAYOUT
  5
22
102
{ACAD_XDICTIONARY
360
86F
102
}
102
{ACAD_REACTORS
330
1A
102
}
330
1A
100
AcDbPlotSettings
  1

  2
C:\Documents and Settings\Julio\Application Data\Autodesk\AutoCAD 2006\R16.2\enu\plotters\Default Windows System Printer.pc3
  4

  6

 40
0.0
 41
0.0
 42
0.0
 43
0.0
 44
0.0
 45
0.0
 46
0.0
 47
0.0
 48
0.0
 49
0.0
140
0.0
141
0.0
142
1.0
143
1.0
 70
   688
 72
     0
 73
     0
 74
     5
  7

 75
    16
147
1.0
148
0.0
149
0.0
100
AcDbLayout
  1
Layout1
 70
     1
 71
     1
 10
0.0
 20
0.0
 11
420.0
 21
297.0
 12
0.0
 22
0.0
 32
0.0
 14
1.000000000000000E+20
 24
1.000000000000000E+20
 34
1.000000000000000E+20
 15
-1.000000000000000E+20
 25
-1.000000000000000E+20
 35
-1.000000000000000E+20
146
0.0
 13
0.0
 23
0.0
 33
0.0
 16
1.0
 26
0.0
 36
0.0
 17
0.0
 27
1.0
 37
0.0
 76
     0
330
1F
  0
LAYOUT
  5
2A
102
{ACAD_XDICTIONARY
360
873
102
}
102
{ACAD_REACTORS
330
1A
102
}
330
1A
100
AcDbPlotSettings
  1

  2
C:\Documents and Settings\Julio\Application Data\Autodesk\AutoCAD 2006\R16.2\enu\plotters\Default Windows System Printer.pc3
  4

  6

 40
0.0
 41
0.0
 42
0.0
 43
0.0
 44
0.0
 45
0.0
 46
0.0
 47
0.0
 48
0.0
 49
0.0
140
0.0
141
0.0
142
1.0
143
1.0
 70
   688
 72
     0
 73
     0
 74
     5
  7

 75
    16
147
1.0
148
0.0
149
0.0
100
AcDbLayout
  1
Layout2
 70
     1
 71
     2
 10
0.0
 20
0.0
 11
12.0
 21
9.0
 12
0.0
 22
0.0
 32
0.0
 14
0.0
 24
0.0
 34
0.0
 15
0.0
 25
0.0
 35
0.0
146
0.0
 13
0.0
 23
0.0
 33
0.0
 16
1.0
 26
0.0
 36
0.0
 17
0.0
 27
1.0
 37
0.0
 76
     0
330
27
  0
LAYOUT
  5
26
102
{ACAD_XDICTIONARY
360
871
102
}
102
{ACAD_REACTORS
330
1A
102
}
330
1A
100
AcDbPlotSettings
  1

  2
C:\Documents and Settings\Julio\Application Data\Autodesk\AutoCAD 2006\R16.2\enu\plotters\Default Windows System Printer.pc3
  4

  6

 40
0.0
 41
0.0
 42
0.0
 43
0.0
 44
0.0
 45
0.0
 46
0.0
 47
0.0
 48
0.0
 49
0.0
140
0.0
141
0.0
142
1.0
143
1.0
 70
  1712
 72
     0
 73
     0
 74
     0
  7

 75
     0
147
1.0
148
0.0
149
0.0
100
AcDbLayout
  1
Model
 70
     1
 71
     0
 10
0.0
 20
0.0
 11
12.0
 21
9.0
 12
0.0
 22
0.0
 32
0.0
 14
0.0
 24
0.0
 34
0.0
 15
0.0
 25
0.0
 35
0.0
146
0.0
 13
0.0
 23
0.0
 33
0.0
 16
1.0
 26
0.0
 36
0.0
 17
0.0
 27
1.0
 37
0.0
 76
     0
330
23
331
803
  0
MATERIAL
  5
817
102
{ACAD_XDICTIONARY
360
818
102
}
102
{ACAD_REACTORS
330
1B
102
}
330
1B
100
AcDbMaterial
  1
ByBlock
 72
     0
 43
0.0008202099737533
 43
0.0
 43
0.0
 43
0.0
 43
0.0
 43
0.0008202099737533
 43
0.0
 43
0.0
 43
0.0
 43
0.0
 43
1.0
 43
0.0
 43
0.0
 43
0.0
 43
0.0
 43
1.0
 77
     0
 47
0.0008202099737533
 47
0.0
 47
0.0
 47
0.0
 47
0.0
 47
0.0008202099737533
 47
0.0
 47
0.0
 47
0.0
 47
0.0
 47
1.0
 47
0.0
 47
0.0
 47
0.0
 47
0.0
 47
1.0
171
     0
 49
0.0008202099737533
 49
0.0
 49
0.0
 49
0.0
 49
0.0
 49
0.0008202099737533
 49
0.0
 49
0.0
 49
0.0
 49
0.0
 49
1.0
 49
0.0
 49
0.0
 49
0.0
 49
0.0
 49
1.0
175
     0
142
0.0008202099737533
142
0.0
142
0.0
142
0.0
142
0.0
142
0.0008202099737533
142
0.0
142
0.0
142
0.0
142
0.0
142
1.0
142
0.0
142
0.0
142
0.0
142
0.0
142
1.0
179
     0
144
0.0008202099737533
144
0.0
144
0.0
144
0.0
144
0.0
144
0.0008202099737533
144
0.0
144
0.0
144
0.0
144
0.0
144
1.0
144
0.0
144
0.0
144
0.0
144
0.0
144
1.0
147
0.0008202099737533
147
0.0
147
0.0
147
0.0
147
0.0
147
0.0008202099737533
147
0.0
147
0.0
147
0.0
147
0.0
147
1.0
147
0.0
147
0.0
147
0.0
147
0.0
147
1.0
  0
MATERIAL
  5
80F
102
{ACAD_XDICTIONARY
360
810
102
}
102
{ACAD_REACTORS
330
1B
102
}
330
1B
100
AcDbMaterial
  1
ByLayer
 72
     0
 43
0.0008202099737533
 43
0.0
 43
0.0
 43
0.0
 43
0.0
 43
0.0008202099737533
 43
0.0
 43
0.0
 43
0.0
 43
0.0
 43
1.0
 43
0.0
 43
0.0
 43
0.0
 43
0.0
 43
1.0
 77
     0
 47
0.0008202099737533
 47
0.0
 47
0.0
 47
0.0
 47
0.0
 47
0.0008202099737533
 47
0.0
 47
0.0
 47
0.0
 47
0.0
 47
1.0
 47
0.0
 47
0.0
 47
0.0
 47
0.0
 47
1.0
171
     0
 49
0.0008202099737533
 49
0.0
 49
0.0
 49
0.0
 49
0.0
 49
0.0008202099737533
 49
0.0
 49
0.0
 49
0.0
 49
0.0
 49
1.0
 49
0.0
 49
0.0
 49
0.0
 49
0.0
 49
1.0
175
     0
142
0.0008202099737533
142
0.0
142
0.0
142
0.0
142
0.0
142
0.0008202099737533
142
0.0
142
0.0
142
0.0
142
0.0
142
1.0
142
0.0
142
0.0
142
0.0
142
0.0
142
1.0
179
     0
144
0.0008202099737533
144
0.0
144
0.0
144
0.0
144
0.0
144
0.0008202099737533
144
0.0
144
0.0
144
0.0
144
0.0
144
1.0
144
0.0
144
0.0
144
0.0
144
0.0
144
1.0
147
0.0008202099737533
147
0.0
147
0.0
147
0.0
147
0.0
147
0.0008202099737533
147
0.0
147
0.0
147
0.0
147
0.0
147
1.0
147
0.0
147
0.0
147
0.0
147
0.0
147
1.0
  0
MATERIAL
  5
81F
102
{ACAD_XDICTIONARY
360
820
102
}
102
{ACAD_REACTORS
330
1B
102
}
330
1B
100
AcDbMaterial
  1
Global
 72
     0
 43
0.0008202099737533
 43
0.0
 43
0.0
 43
0.0
 43
0.0
 43
0.0008202099737533
 43
0.0
 43
0.0
 43
0.0
 43
0.0
 43
1.0
 43
0.0
 43
0.0
 43
0.0
 43
0.0
 43
1.0
 77
     0
 47
0.0008202099737533
 47
0.0
 47
0.0
 47
0.0
 47
0.0
 47
0.0008202099737533
 47
0.0
 47
0.0
 47
0.0
 47
0.0
 47
1.0
 47
0.0
 47
0.0
 47
0.0
 47
0.0
 47
1.0
171
     0
 49
0.0008202099737533
 49
0.0
 49
0.0
 49
0.0
 49
0.0
 49
0.0008202099737533
 49
0.0
 49
0.0
 49
0.0
 49
0.0
 49
1.0
 49
0.0
 49
0.0
 49
0.0
 49
0.0
 49
1.0
175
     0
142
0.0008202099737533
142
0.0
142
0.0
142
0.0
142
0.0
142
0.0008202099737533
142
0.0
142
0.0
142
0.0
142
0.0
142
1.0
142
0.0
142
0.0
142
0.0
142
0.0
142
1.0
179
     0
144
0.0008202099737533
144
0.0
144
0.0
144
0.0
144
0.0
144
0.0008202099737533
144
0.0
144
0.0
144
0.0
144
0.0
144
1.0
144
0.0
144
0.0
144
0.0
144
0.0
144
1.0
147
0.0008202099737533
147
0.0
147
0.0
147
0.0
147
0.0
147
0.0008202099737533
147
0.0
147
0.0
147
0.0
147
0.0
147
1.0
147
0.0
147
0.0
147
0.0
147
0.0
147
1.0
  0
MLEADERSTYLE
  5
84E
102
{ACAD_REACTORS
330
84D
102
}
330
84D
100
AcDbMLeaderStyle
170
     2
171
     1
172
     0
 90
        2
 40
0.0
 41
0.0
173
     1
 91
-1056964608
340
14
 92
       -2
290
     1
 42
2.0
291
     1
 43
0.36
  3
Standard
 44
4.0
300

342
11
174
     1
178
     6
175
     1
176
     0
 93
-1056964608
 45
4.0
292
     0
297
     0
 46
4.0
 94
-1056964608
 47
1.0
 49
1.0
140
1.0
293
     1
141
0.0
294
     1
177
     0
142
1.0
295
     0
296
     0
143
0.125
1001
ACAD_MLEADERVER
1070
     2
  0
MLINESTYLE
  5
18
102
{ACAD_REACTORS
330
17
102
}
330
17
100
AcDbMlineStyle
  2
STANDARD
 70
     0
  3

 62
   256
 51
90.0
 52
90.0
 71
     2
 49
0.5
 62
   256
  6
BYLAYER
 49
-0.5
 62
   256
  6
BYLAYER
  0
ACDBPLACEHOLDER
  5
F
102
{ACAD_REACTORS
330
E
102
}
330
E
  0
SCALE
  5
83C
102
{ACAD_REACTORS
330
83B
102
}
330
83B
100
AcDbScale
 70
     0
300
1:1
140
1.0
141
1.0
290
     1
  0
SCALE
  5
83D
102
{ACAD_REACTORS
330
83B
102
}
330
83B
100
AcDbScale
 70
     0
300
1:2
140
1.0
141
2.0
290
     0
  0
SCALE
  5
83E
102
{ACAD_REACTORS
330
83B
102
}
330
83B
100
AcDbScale
 70
     0
300
1:4
140
1.0
141
4.0
290
     0
  0
SCALE
  5
83F
102
{ACAD_REACTORS
330
83B
102
}
330
83B
100
AcDbScale
 70
     0
300
1:5
140
1.0
141
5.0
290
     0
  0
SCALE
  5
840
102
{ACAD_REACTORS
330
83B
102
}
330
83B
100
AcDbScale
 70
     0
300
1:8
140
1.0
141
8.0
290
     0
  0
SCALE
  5
841
102
{ACAD_REACTORS
330
83B
102
}
330
83B
100
AcDbScale
 70
     0
300
1:10
140
1.0
141
10.0
290
     0
  0
SCALE
  5
842
102
{ACAD_REACTORS
330
83B
102
}
330
83B
100
AcDbScale
 70
     0
300
1:16
140
1.0
141
16.0
290
     0
  0
SCALE
  5
843
102
{ACAD_REACTORS
330
83B
102
}
330
83B
100
AcDbScale
 70
     0
300
1:20
140
1.0
141
20.0
290
     0
  0
SCALE
  5
844
102
{ACAD_REACTORS
330
83B
102
}
330
83B
100
AcDbScale
 70
     0
300
1:30
140
1.0
141
30.0
290
     0
  0
SCALE
  5
845
102
{ACAD_REACTORS
330
83B
102
}
330
83B
100
AcDbScale
 70
     0
300
1:40
140
1.0
141
40.0
290
     0
  0
SCALE
  5
846
102
{ACAD_REACTORS
330
83B
102
}
330
83B
100
AcDbScale
 70
     0
300
1:50
140
1.0
141
50.0
290
     0
  0
SCALE
  5
847
102
{ACAD_REACTORS
330
83B
102
}
330
83B
100
AcDbScale
 70
     0
300
1:100
140
1.0
141
100.0
290
     0
  0
SCALE
  5
848
102
{ACAD_REACTORS
330
83B
102
}
330
83B
100
AcDbScale
 70
     0
300
2:1
140
2.0
141
1.0
290
     0
  0
SCALE
  5
849
102
{ACAD_REACTORS
330
83B
102
}
330
83B
100
AcDbScale
 70
     0
300
4:1
140
4.0
141
1.0
290
     0
  0
SCALE
  5
84A
102
{ACAD_REACTORS
330
83B
102
}
330
83B
100
AcDbScale
 70
     0
300
8:1
140
8.0
141
1.0
290
     0
  0
SCALE
  5
84B
102
{ACAD_REACTORS
330
83B
102
}
330
83B
100
AcDbScale
 70
     0
300
10:1
140
10.0
141
1.0
290
     0
  0
SCALE
  5
84C
102
{ACAD_REACTORS
330
83B
102
}
330
83B
100
AcDbScale
 70
     0
300
100:1
140
100.0
141
1.0
290
     0
  0
TABLESTYLE
  5
1E
102
{ACAD_XDICTIONARY
360
868
102
}
102
{ACAD_REACTORS
330
1D
102
}
330
1D
100
AcDbTableStyle
  3
Standard
 70
     0
 71
     0
 40
1.5
 41
1.5
280
     0
281
     0
  7
Standard
140
4.5
170
     2
 62
     0
 63
     7
283
     0
274
    -2
284
     1
 64
     0
275
    -2
285
     1
 65
     0
276
    -2
286
     1
 66
     0
277
    -2
287
     1
 67
     0
278
    -2
288
     1
 68
     0
279
    -2
289
     1
 69
     0
  7
Standard
140
6.0
170
     5
 62
     0
 63
     7
283
     0
274
    -2
284
     1
 64
     0
275
    -2
285
     1
 65
     0
276
    -2
286
     1
 66
     0
277
    -2
287
     1
 67
     0
278
    -2
288
     1
 68
     0
279
    -2
289
     1
 69
     0
  7
Standard
140
4.5
170
     5
 62
     0
 63
     7
283
     0
274
    -2
284
     1
 64
     0
275
    -2
285
     1
 65
     0
276
    -2
286
     1
 66
     0
277
    -2
287
     1
 67
     0
278
    -2
288
     1
 68
     0
279
    -2
289
     1
 69
     0
  0
VISUALSTYLE
  5
82D
102
{ACAD_XDICTIONARY
360
8A6
102
}
102
{ACAD_REACTORS
330
827
102
}
330
827
100
AcDbVisualStyle
  2
2dWireframe
 70
     4
 71
     0
 72
     2
 73
     0
 90
        0
 40
-0.6
 41
-30.0
 62
     5
 63
     7
 74
     1
 91
        4
 64
     7
 65
   257
 75
     1
175
     1
 42
1.0
 92
        0
 66
   257
 43
1.0
 76
     1
 77
     6
 78
     2
 67
     7
 79
     5
170
     0
171
     0
290
     0
174
     0
 93
        1
 44
0.0
173
     0
291
     0
 45
0.0
1001
ACAD
1000
AcDbSavedByObjectVersion
1070
     0
  0
VISUALSTYLE
  5
82F
102
{ACAD_XDICTIONARY
360
8AA
102
}
102
{ACAD_REACTORS
330
827
102
}
330
827
100
AcDbVisualStyle
  2
3D Hidden
 70
     6
 71
     1
 72
     2
 73
     2
 90
        0
 40
-0.6
 41
-30.0
 62
     5
 63
     7
 74
     2
 91
        2
 64
     7
 65
   257
 75
     2
175
     1
 42
179.0
 92
        0
 66
   257
 43
1.0
 76
     1
 77
     6
 78
     2
 67
     7
 79
     3
170
     0
171
     0
290
     0
174
     0
 93
        1
 44
0.0
173
     0
291
     0
 45
0.0
1001
ACAD
1000
AcDbSavedByObjectVersion
1070
     0
  0
VISUALSTYLE
  5
82E
102
{ACAD_XDICTIONARY
360
8A8
102
}
102
{ACAD_REACTORS
330
827
102
}
330
827
100
AcDbVisualStyle
  2
3dWireframe
 70
     5
 71
     0
 72
     2
 73
     0
 90
        0
 40
-0.6
 41
-30.0
 62
     5
 63
     7
 74
     1
 91
        4
 64
     7
 65
   257
 75
     1
175
     1
 42
1.0
 92
        0
 66
   257
 43
1.0
 76
     1
 77
     6
 78
     2
 67
     7
 79
     5
170
     0
171
     0
290
     0
174
     0
 93
        1
 44
0.0
173
     0
291
     0
 45
0.0
1001
ACAD
1000
AcDbSavedByObjectVersion
1070
     0
  0
VISUALSTYLE
  5
82C
102
{ACAD_XDICTIONARY
360
8A4
102
}
102
{ACAD_REACTORS
330
827
102
}
330
827
100
AcDbVisualStyle
  2
Basic
 70
     7
 71
     1
 72
     0
 73
     1
 90
        0
 40
-0.6
 41
-30.0
 62
     5
 63
     7
 74
     0
 91
        4
 64
     7
 65
   257
 75
     1
175
     1
 42
1.0
 92
        8
 66
     7
 43
1.0
 76
     1
 77
     6
 78
     2
 67
     7
 79
     5
170
     0
171
     0
290
     0
174
     0
 93
        1
 44
0.0
173
     0
291
     1
 45
0.0
1001
ACAD
1000
AcDbSavedByObjectVersion
1070
     0
  0
VISUALSTYLE
  5
833
102
{ACAD_XDICTIONARY
360
8B2
102
}
102
{ACAD_REACTORS
330
827
102
}
330
827
100
AcDbVisualStyle
  2
Brighten
 70
    12
 71
     2
 72
     2
 73
     0
 90
        0
 40
-0.6
 41
-30.0
 62
     5
 63
     7
 74
     1
 91
        4
 64
     7
 65
   257
 75
     1
175
     1
 42
1.0
 92
        8
 66
     7
 43
1.0
 76
     1
 77
     6
 78
     2
 67
     7
 79
     5
170
     0
171
     0
290
     0
174
     0
 93
        1
 44
50.0
173
     0
291
     1
 45
0.0
1001
ACAD
1000
AcDbSavedByObjectVersion
1070
     0
  0
VISUALSTYLE
  5
837
102
{ACAD_XDICTIONARY
360
8BA
102
}
102
{ACAD_REACTORS
330
827
102
}
330
827
100
AcDbVisualStyle
  2
ColorChange
 70
    16
 71
     2
 72
     2
 73
     3
 90
        0
 40
-0.6
 41
-30.0
 62
     5
 63
     8
 74
     1
 91
        4
 64
     7
 65
   257
 75
     1
175
     1
 42
1.0
 92
        8
 66
     8
 43
1.0
 76
     1
 77
     6
 78
     2
 67
     7
 79
     5
170
     0
171
     0
290
     0
174
     0
 93
        1
 44
0.0
173
     0
291
     1
 45
0.0
1001
ACAD
1000
AcDbSavedByObjectVersion
1070
     0
  0
VISUALSTYLE
  5
830
102
{ACAD_XDICTIONARY
360
8AC
102
}
102
{ACAD_REACTORS
330
827
102
}
330
827
100
AcDbVisualStyle
  2
Conceptual
 70
     9
 71
     3
 72
     2
 73
     0
 90
        0
 40
-0.6
 41
-30.0
 62
     5
 63
     7
 74
     2
 91
        2
 64
     7
 65
   257
 75
     1
175
     1
 42
179.0
 92
        8
 66
     7
 43
1.0
 76
     1
 77
     6
 78
     2
 67
     7
 79
     3
170
     0
171
     0
290
     0
174
     0
 93
        1
 44
0.0
173
     0
291
     0
 45
0.0
1001
ACAD
1000
AcDbSavedByObjectVersion
1070
     0
  0
VISUALSTYLE
  5
832
102
{ACAD_XDICTIONARY
360
8B0
102
}
102
{ACAD_REACTORS
330
827
102
}
330
827
100
AcDbVisualStyle
  2
Dim
 70
    11
 71
     2
 72
     2
 73
     0
 90
        0
 40
-0.6
 41
-30.0
 62
     5
 63
     7
 74
     1
 91
        4
 64
     7
 65
   257
 75
     1
175
     1
 42
1.0
 92
        8
 66
     7
 43
1.0
 76
     1
 77
     6
 78
     2
 67
     7
 79
     5
170
     0
171
     0
290
     0
174
     0
 93
        1
 44
-50.0
173
     0
291
     1
 45
0.0
1001
ACAD
1000
AcDbSavedByObjectVersion
1070
     0
  0
VISUALSTYLE
  5
83A
102
{ACAD_XDICTIONARY
360
8C0
102
}
102
{ACAD_REACTORS
330
827
102
}
330
827
100
AcDbVisualStyle
  2
EdgeColorOff
 70
    22
 71
     2
 72
     2
 73
     0
 90
        0
 40
-0.6
 41
-30.0
 62
     5
 63
     7
 74
     1
 91
        4
 64
     7
 65
   257
 75
     1
175
     1
 42
1.0
 92
        8
 66
     7
 43
1.0
 76
     1
 77
     6
 78
     2
 67
     7
 79
     5
170
     0
171
     0
290
     0
174
     0
 93
        1
 44
0.0
173
     0
291
     1
 45
0.0
1001
ACAD
1000
AcDbSavedByObjectVersion
1070
     0
  0
VISUALSTYLE
  5
836
102
{ACAD_XDICTIONARY
360
8B8
102
}
102
{ACAD_REACTORS
330
827
102
}
330
827
100
AcDbVisualStyle
  2
Facepattern
 70
    15
 71
     2
 72
     2
 73
     0
 90
        0
 40
-0.6
 41
-30.0
 62
     5
 63
     7
 74
     1
 91
        4
 64
     7
 65
   257
 75
     1
175
     1
 42
1.0
 92
        8
 66
     7
 43
1.0
 76
     1
 77
     6
 78
     2
 67
     7
 79
     5
170
     0
171
     0
290
     0
174
     0
 93
        1
 44
0.0
173
     0
291
     1
 45
0.0
1001
ACAD
1000
AcDbSavedByObjectVersion
1070
     0
  0
VISUALSTYLE
  5
828
102
{ACAD_XDICTIONARY
360
89C
102
}
102
{ACAD_REACTORS
330
827
102
}
330
827
100
AcDbVisualStyle
  2
Flat
 70
     0
 71
     2
 72
     1
 73
     1
 90
        2
 40
-0.6
 41
30.0
 62
     5
 63
     7
 74
     0
 91
        4
 64
     7
 65
   257
 75
     1
175
     1
 42
1.0
 92
        8
 66
     7
 43
1.0
 76
     1
 77
     6
 78
     2
 67
     7
 79
     5
170
     0
171
     0
290
     0
174
     0
 93
       13
 44
0.0
173
     0
291
     1
 45
0.0
1001
ACAD
1000
AcDbSavedByObjectVersion
1070
     0
  0
VISUALSTYLE
  5
829
102
{ACAD_XDICTIONARY
360
89E
102
}
102
{ACAD_REACTORS
330
827
102
}
330
827
100
AcDbVisualStyle
  2
FlatWithEdges
 70
     1
 71
     2
 72
     1
 73
     1
 90
        2
 40
-0.6
 41
30.0
 62
     5
 63
     7
 74
     1
 91
        4
 64
     7
 65
   257
 75
     1
175
     1
 42
1.0
 92
        0
 66
   257
 43
1.0
 76
     1
 77
     6
 78
     2
 67
     7
 79
     5
170
     0
171
     0
290
     0
174
     0
 93
       13
 44
0.0
173
     0
291
     1
 45
0.0
1001
ACAD
1000
AcDbSavedByObjectVersion
1070
     0
  0
VISUALSTYLE
  5
82A
102
{ACAD_XDICTIONARY
360
8A0
102
}
102
{ACAD_REACTORS
330
827
102
}
330
827
100
AcDbVisualStyle
  2
Gouraud
 70
     2
 71
     2
 72
     2
 73
     1
 90
        2
 40
-0.6
 41
30.0
 62
     5
 63
     7
 74
     0
 91
        4
 64
     7
 65
   257
 75
     1
175
     1
 42
1.0
 92
        0
 66
     7
 43
1.0
 76
     1
 77
     6
 78
     2
 67
     7
 79
     5
170
     0
171
     0
290
     0
174
     0
 93
       13
 44
0.0
173
     0
291
     1
 45
0.0
1001
ACAD
1000
AcDbSavedByObjectVersion
1070
     0
  0
VISUALSTYLE
  5
82B
102
{ACAD_XDICTIONARY
360
8A2
102
}
102
{ACAD_REACTORS
330
827
102
}
330
827
100
AcDbVisualStyle
  2
GouraudWithEdges
 70
     3
 71
     2
 72
     2
 73
     1
 90
        2
 40
-0.6
 41
30.0
 62
     5
 63
     7
 74
     1
 91
        4
 64
     7
 65
   257
 75
     1
175
     1
 42
1.0
 92
        0
 66
   257
 43
1.0
 76
     1
 77
     6
 78
     2
 67
     7
 79
     5
170
     0
171
     0
290
     0
174
     0
 93
       13
 44
0.0
173
     0
291
     1
 45
0.0
1001
ACAD
1000
AcDbSavedByObjectVersion
1070
     0
  0
VISUALSTYLE
  5
838
102
{ACAD_XDICTIONARY
360
8BC
102
}
102
{ACAD_REACTORS
330
827
102
}
330
827
100
AcDbVisualStyle
  2
JitterOff
 70
    20
 71
     2
 72
     2
 73
     0
 90
        0
 40
-0.6
 41
-30.0
 62
     5
 63
     7
 74
     1
 91
        4
 64
     7
 65
   257
 75
     1
175
     1
 42
1.0
 92
       10
 66
     7
 43
1.0
 76
     1
 77
     6
 78
     2
 67
     7
 79
     5
170
     0
171
     0
290
     0
174
     0
 93
        1
 44
0.0
173
     0
291
     1
 45
0.0
1001
ACAD
1000
AcDbSavedByObjectVersion
1070
     0
  0
VISUALSTYLE
  5
835
102
{ACAD_XDICTIONARY
360
8B6
102
}
102
{ACAD_REACTORS
330
827
102
}
330
827
100
AcDbVisualStyle
  2
Linepattern
 70
    14
 71
     2
 72
     2
 73
     0
 90
        0
 40
-0.6
 41
-30.0
 62
     5
 63
     7
 74
     1
 91
        4
 64
     7
 65
   257
 75
     7
175
     7
 42
1.0
 92
        8
 66
     7
 43
1.0
 76
     1
 77
     6
 78
     2
 67
     7
 79
     5
170
     0
171
     0
290
     0
174
     0
 93
        1
 44
0.0
173
     0
291
     1
 45
0.0
1001
ACAD
1000
AcDbSavedByObjectVersion
1070
     0
  0
VISUALSTYLE
  5
839
102
{ACAD_XDICTIONARY
360
8BE
102
}
102
{ACAD_REACTORS
330
827
102
}
330
827
100
AcDbVisualStyle
  2
OverhangOff
 70
    21
 71
     2
 72
     2
 73
     0
 90
        0
 40
-0.6
 41
-30.0
 62
     5
 63
     7
 74
     1
 91
        4
 64
     7
 65
   257
 75
     1
175
     1
 42
1.0
 92
        9
 66
     7
 43
1.0
 76
     1
 77
     6
 78
     2
 67
     7
 79
     5
170
     0
171
     0
290
     0
174
     0
 93
        1
 44
0.0
173
     0
291
     1
 45
0.0
1001
ACAD
1000
AcDbSavedByObjectVersion
1070
     0
  0
VISUALSTYLE
  5
831
102
{ACAD_XDICTIONARY
360
8AE
102
}
102
{ACAD_REACTORS
330
827
102
}
330
827
100
AcDbVisualStyle
  2
Realistic
 70
     8
 71
     2
 72
     2
 73
     0
 90
        0
 40
-0.6
 41
-30.0
 62
     5
 63
     7
 74
     1
 91
        0
 64
     7
 65
   257
 75
     1
175
     1
 42
1.0
 92
        8
 66
     8
 43
1.0
 76
     1
 77
     6
 78
     2
 67
     7
 79
     5
170
     0
171
     0
290
     0
174
     0
 93
       13
 44
0.0
173
     0
291
     0
 45
0.0
1001
ACAD
1000
AcDbSavedByObjectVersion
1070
     0
  0
VISUALSTYLE
  5
834
102
{ACAD_XDICTIONARY
360
8B4
102
}
102
{ACAD_REACTORS
330
827
102
}
330
827
100
AcDbVisualStyle
  2
Thicken
 70
    13
 71
     2
 72
     2
 73
     0
 90
        0
 40
-0.6
 41
-30.0
 62
     5
 63
     7
 74
     1
 91
        4
 64
     7
 65
   257
 75
     1
175
     1
 42
1.0
 92
       12
 66
     7
 43
1.0
 76
     1
 77
     6
 78
     2
 67
     7
 79
     5
170
     0
171
     0
290
     0
174
     0
 93
        1
 44
0.0
173
     0
291
     1
 45
0.0
1001
ACAD
1000
AcDbSavedByObjectVersion
1070
     0
  0
DICTIONARYVAR
  5
864
102
{ACAD_REACTORS
330
801
102
}
330
801
100
DictionaryVariables
280
     0
  1
1:1
  0
DICTIONARYVAR
  5
863
102
{ACAD_REACTORS
330
801
102
}
330
801
100
DictionaryVariables
280
     0
  1
STANDARD
  0
DICTIONARYVAR
  5
802
102
{ACAD_REACTORS
330
801
102
}
330
801
100
DictionaryVariables
280
     0
  1
STANDARD
  0
DICTIONARYVAR
  5
80C
102
{ACAD_REACTORS
330
801
102
}
330
801
100
DictionaryVariables
280
     0
  1
2
  0
DICTIONARYVAR
  5
80B
102
{ACAD_REACTORS
330
801
102
}
330
801
100
DictionaryVariables
280
     0
  1
1
  0
DICTIONARYVAR
  5
866
102
{ACAD_REACTORS
330
801
102
}
330
801
100
DictionaryVariables
280
     0
  1
0
  0
DICTIONARYVAR
  5
80D
102
{ACAD_REACTORS
330
801
102
}
330
801
100
DictionaryVariables
280
     0
  1

  0
DICTIONARYVAR
  5
865
102
{ACAD_REACTORS
330
801
102
}
330
801
100
DictionaryVariables
280
     0
  1
127
  0
DICTIONARYVAR
  5
867
102
{ACAD_REACTORS
330
801
102
}
330
801
100
DictionaryVariables
280
     0
  1
2
  0
DICTIONARY
  5
86F
330
22
100
AcDbDictionary
280
     1
281
     1
  3
ACAD_XREC_ROUNDTRIP
360
870
  0
DICTIONARY
  5
873
330
2A
100
AcDbDictionary
280
     1
281
     1
  3
ACAD_XREC_ROUNDTRIP
360
874
  0
DICTIONARY
  5
871
330
26
100
AcDbDictionary
280
     1
281
     1
  3
ACAD_XREC_ROUNDTRIP
360
872
  0
DICTIONARY
  5
818
330
817
100
AcDbDictionary
280
     1
281
     1
  3
ACAD_XREC_ROUNDTRIP
360
89A
  3
BUMPTILE
360
81A
  3
DIFFUSETILE
360
819
  3
OPACITYTILE
360
81D
  3
REFLECTIONTILE
360
81C
  3
REFRACTIONTILE
360
81E
  3
SPECULARTILE
360
81B
  0
DICTIONARY
  5
810
330
80F
100
AcDbDictionary
280
     1
281
     1
  3
ACAD_XREC_ROUNDTRIP
360
899
  3
BUMPTILE
360
812
  3
DIFFUSETILE
360
811
  3
OPACITYTILE
360
815
  3
REFLECTIONTILE
360
814
  3
REFRACTIONTILE
360
816
  3
SPECULARTILE
360
813
  0
DICTIONARY
  5
820
330
81F
100
AcDbDictionary
280
     1
281
     1
  3
ACAD_XREC_ROUNDTRIP
360
89B
  3
BUMPTILE
360
822
  3
DIFFUSETILE
360
821
  3
OPACITYTILE
360
825
  3
REFLECTIONTILE
360
824
  3
REFRACTIONTILE
360
826
  3
SPECULARTILE
360
823
  0
DICTIONARY
  5
868
330
1E
100
AcDbDictionary
280
     1
281
     1
  3
ACAD_ROUNDTRIP_2008_TABLESTYLE_CELLSTYLEMAP
360
869
  3
ACAD_XREC_ROUNDTRIP
360
86E
  0
DICTIONARY
  5
8A6
330
82D
100
AcDbDictionary
280
     1
281
     1
  3
ACAD_XREC_ROUNDTRIP
360
8A7
  0
DICTIONARY
  5
8AA
330
82F
100
AcDbDictionary
280
     1
281
     1
  3
ACAD_XREC_ROUNDTRIP
360
8AB
  0
DICTIONARY
  5
8A8
330
82E
100
AcDbDictionary
280
     1
281
     1
  3
ACAD_XREC_ROUNDTRIP
360
8A9
  0
DICTIONARY
  5
8A4
330
82C
100
AcDbDictionary
280
     1
281
     1
  3
ACAD_XREC_ROUNDTRIP
360
8A5
  0
DICTIONARY
  5
8B2
330
833
100
AcDbDictionary
280
     1
281
     1
  3
ACAD_XREC_ROUNDTRIP
360
8B3
  0
DICTIONARY
  5
8BA
330
837
100
AcDbDictionary
280
     1
281
     1
  3
ACAD_XREC_ROUNDTRIP
360
8BB
  0
DICTIONARY
  5
8AC
330
830
100
AcDbDictionary
280
     1
281
     1
  3
ACAD_XREC_ROUNDTRIP
360
8AD
  0
DICTIONARY
  5
8B0
330
832
100
AcDbDictionary
280
     1
281
     1
  3
ACAD_XREC_ROUNDTRIP
360
8B1
  0
DICTIONARY
  5
8C0
330
83A
100
AcDbDictionary
280
     1
281
     1
  3
ACAD_XREC_ROUNDTRIP
360
8C1
  0
DICTIONARY
  5
8B8
330
836
100
AcDbDictionary
280
     1
281
     1
  3
ACAD_XREC_ROUNDTRIP
360
8B9
  0
DICTIONARY
  5
89C
330
828
100
AcDbDictionary
280
     1
281
     1
  3
ACAD_XREC_ROUNDTRIP
360
89D
  0
DICTIONARY
  5
89E
330
829
100
AcDbDictionary
280
     1
281
     1
  3
ACAD_XREC_ROUNDTRIP
360
89F
  0
DICTIONARY
  5
8A0
330
82A
100
AcDbDictionary
280
     1
281
     1
  3
ACAD_XREC_ROUNDTRIP
360
8A1
  0
DICTIONARY
  5
8A2
330
82B
100
AcDbDictionary
280
     1
281
     1
  3
ACAD_XREC_ROUNDTRIP
360
8A3
  0
DICTIONARY
  5
8BC
330
838
100
AcDbDictionary
280
     1
281
     1
  3
ACAD_XREC_ROUNDTRIP
360
8BD
  0
DICTIONARY
  5
8B6
330
835
100
AcDbDictionary
280
     1
281
     1
  3
ACAD_XREC_ROUNDTRIP
360
8B7
  0
DICTIONARY
  5
8BE
330
839
100
AcDbDictionary
280
     1
281
     1
  3
ACAD_XREC_ROUNDTRIP
360
8BF
  0
DICTIONARY
  5
8AE
330
831
100
AcDbDictionary
280
     1
281
     1
  3
ACAD_XREC_ROUNDTRIP
360
8AF
  0
DICTIONARY
  5
8B4
330
834
100
AcDbDictionary
280
     1
281
     1
  3
ACAD_XREC_ROUNDTRIP
360
8B5
  0
XRECORD
  5
870
102
{ACAD_REACTORS
330
86F
102
}
330
86F
100
AcDbXrecord
280
     1
102
SHADEPLOT
 70
     0
102
SHADEPLOTRESLEVEL
 70
     2
102
SHADEPLOTCUSTOMDPI
 70
   300
  0
XRECORD
  5
874
102
{ACAD_REACTORS
330
873
102
}
330
873
100
AcDbXrecord
280
     1
102
SHADEPLOT
 70
     0
102
SHADEPLOTRESLEVEL
 70
     2
102
SHADEPLOTCUSTOMDPI
 70
   300
  0
XRECORD
  5
872
102
{ACAD_REACTORS
330
871
102
}
330
871
100
AcDbXrecord
280
     1
102
SHADEPLOT
 70
     0
102
SHADEPLOTRESLEVEL
 70
     2
102
SHADEPLOTCUSTOMDPI
 70
   300
  0
XRECORD
  5
89A
102
{ACAD_REACTORS
330
818
102
}
330
818
100
AcDbXrecord
280
     1
102
MATERIAL
148
0.0
149
0.0
149
0.0
 93
        0
 94
      127
282
     0
 72
     0
 77
     0
171
     0
175
     0
179
     0
273
     0
  0
XRECORD
  5
81A
102
{ACAD_REACTORS
330
818
102
}
330
818
100
AcDbXrecord
280
     1
270
     1
271
     1
  0
XRECORD
  5
819
102
{ACAD_REACTORS
330
818
102
}
330
818
100
AcDbXrecord
280
     1
270
     1
271
     1
  0
XRECORD
  5
81D
102
{ACAD_REACTORS
330
818
102
}
330
818
100
AcDbXrecord
280
     1
270
     1
271
     1
  0
XRECORD
  5
81C
102
{ACAD_REACTORS
330
818
102
}
330
818
100
AcDbXrecord
280
     1
270
     1
271
     1
  0
XRECORD
  5
81E
102
{ACAD_REACTORS
330
818
102
}
330
818
100
AcDbXrecord
280
     1
270
     1
271
     1
  0
XRECORD
  5
81B
102
{ACAD_REACTORS
330
818
102
}
330
818
100
AcDbXrecord
280
     1
270
     1
271
     1
  0
XRECORD
  5
899
102
{ACAD_REACTORS
330
810
102
}
330
810
100
AcDbXrecord
280
     1
102
MATERIAL
148
0.0
149
0.0
149
0.0
 93
        0
 94
      127
282
     0
 72
     0
 77
     0
171
     0
175
     0
179
     0
273
     0
  0
XRECORD
  5
812
102
{ACAD_REACTORS
330
810
102
}
330
810
100
AcDbXrecord
280
     1
270
     1
271
     1
  0
XRECORD
  5
811
102
{ACAD_REACTORS
330
810
102
}
330
810
100
AcDbXrecord
280
     1
270
     1
271
     1
  0
XRECORD
  5
815
102
{ACAD_REACTORS
330
810
102
}
330
810
100
AcDbXrecord
280
     1
270
     1
271
     1
  0
XRECORD
  5
814
102
{ACAD_REACTORS
330
810
102
}
330
810
100
AcDbXrecord
280
     1
270
     1
271
     1
  0
XRECORD
  5
816
102
{ACAD_REACTORS
330
810
102
}
330
810
100
AcDbXrecord
280
     1
270
     1
271
     1
  0
XRECORD
  5
813
102
{ACAD_REACTORS
330
810
102
}
330
810
100
AcDbXrecord
280
     1
270
     1
271
     1
  0
XRECORD
  5
89B
102
{ACAD_REACTORS
330
820
102
}
330
820
100
AcDbXrecord
280
     1
102
MATERIAL
148
0.0
149
0.0
149
0.0
 93
        0
 94
      127
282
     0
 72
     0
 77
     0
171
     0
175
     0
179
     0
273
     0
  0
XRECORD
  5
822
102
{ACAD_REACTORS
330
820
102
}
330
820
100
AcDbXrecord
280
     1
270
     1
271
     1
  0
XRECORD
  5
821
102
{ACAD_REACTORS
330
820
102
}
330
820
100
AcDbXrecord
280
     1
270
     1
271
     1
  0
XRECORD
  5
825
102
{ACAD_REACTORS
330
820
102
}
330
820
100
AcDbXrecord
280
     1
270
     1
271
     1
  0
XRECORD
  5
824
102
{ACAD_REACTORS
330
820
102
}
330
820
100
AcDbXrecord
280
     1
270
     1
271
     1
  0
XRECORD
  5
826
102
{ACAD_REACTORS
330
820
102
}
330
820
100
AcDbXrecord
280
     1
270
     1
271
     1
  0
XRECORD
  5
823
102
{ACAD_REACTORS
330
820
102
}
330
820
100
AcDbXrecord
280
     1
270
     1
271
     1
  0
CELLSTYLEMAP
  5
869
102
{ACAD_REACTORS
330
868
102
}
330
868
100
AcDbCellStyleMap
 90
        3
300
CELLSTYLE
  1
TABLEFORMAT_BEGIN
 90
        5
170
     1
 91
        0
 92
    32768
 62
   257
 93
        1
300
CONTENTFORMAT
  1
CONTENTFORMAT_BEGIN
 90
        0
 91
        0
 92
        4
 93
        0
300

 40
0.0
140
1.0
 94
        5
 62
     0
340
11
144
6.0
309
CONTENTFORMAT_END
171
     1
301
MARGIN
  1
CELLMARGIN_BEGIN
 40
1.5
 40
1.5
 40
1.5
 40
1.5
 40
0.18
 40
0.18
309
CELLMARGIN_END
 94
        6
 95
        1
302
GRIDFORMAT
  1
GRIDFORMAT_BEGIN
 90
        0
 91
        1
 62
     0
 92
       -2
340
0
 93
        0
 40
0.045
309
GRIDFORMAT_END
 95
        2
302
GRIDFORMAT
  1
GRIDFORMAT_BEGIN
 90
        0
 91
        1
 62
     0
 92
       -2
340
0
 93
        0
 40
0.045
309
GRIDFORMAT_END
 95
        4
302
GRIDFORMAT
  1
GRIDFORMAT_BEGIN
 90
        0
 91
        1
 62
     0
 92
       -2
340
0
 93
        0
 40
0.045
309
GRIDFORMAT_END
 95
        8
302
GRIDFORMAT
  1
GRIDFORMAT_BEGIN
 90
        0
 91
        1
 62
     0
 92
       -2
340
0
 93
        0
 40
0.045
309
GRIDFORMAT_END
 95
       16
302
GRIDFORMAT
  1
GRIDFORMAT_BEGIN
 90
        0
 91
        1
 62
     0
 92
       -2
340
0
 93
        0
 40
0.045
309
GRIDFORMAT_END
 95
       32
302
GRIDFORMAT
  1
GRIDFORMAT_BEGIN
 90
        0
 91
        1
 62
     0
 92
       -2
340
0
 93
        0
 40
0.045
309
GRIDFORMAT_END
309
TABLEFORMAT_END
  1
CELLSTYLE_BEGIN
 90
        1
 91
        1
300
_TITLE
309
CELLSTYLE_END
300
CELLSTYLE
  1
TABLEFORMAT_BEGIN
 90
        5
170
     1
 91
        0
 92
        0
 62
   257
 93
        1
300
CONTENTFORMAT
  1
CONTENTFORMAT_BEGIN
 90
        0
 91
        0
 92
        4
 93
        0
300

 40
0.0
140
1.0
 94
        5
 62
     0
340
11
144
4.5
309
CONTENTFORMAT_END
171
     1
301
MARGIN
  1
CELLMARGIN_BEGIN
 40
1.5
 40
1.5
 40
1.5
 40
1.5
 40
0.18
 40
0.18
309
CELLMARGIN_END
 94
        6
 95
        1
302
GRIDFORMAT
  1
GRIDFORMAT_BEGIN
 90
        0
 91
        1
 62
     0
 92
       -2
340
0
 93
        0
 40
0.045
309
GRIDFORMAT_END
 95
        2
302
GRIDFORMAT
  1
GRIDFORMAT_BEGIN
 90
        0
 91
        1
 62
     0
 92
       -2
340
0
 93
        0
 40
0.045
309
GRIDFORMAT_END
 95
        4
302
GRIDFORMAT
  1
GRIDFORMAT_BEGIN
 90
        0
 91
        1
 62
     0
 92
       -2
340
0
 93
        0
 40
0.045
309
GRIDFORMAT_END
 95
        8
302
GRIDFORMAT
  1
GRIDFORMAT_BEGIN
 90
        0
 91
        1
 62
     0
 92
       -2
340
0
 93
        0
 40
0.045
309
GRIDFORMAT_END
 95
       16
302
GRIDFORMAT
  1
GRIDFORMAT_BEGIN
 90
        0
 91
        1
 62
     0
 92
       -2
340
0
 93
        0
 40
0.045
309
GRIDFORMAT_END
 95
       32
302
GRIDFORMAT
  1
GRIDFORMAT_BEGIN
 90
        0
 91
        1
 62
     0
 92
       -2
340
0
 93
        0
 40
0.045
309
GRIDFORMAT_END
309
TABLEFORMAT_END
  1
CELLSTYLE_BEGIN
 90
        2
 91
        1
300
_HEADER
309
CELLSTYLE_END
300
CELLSTYLE
  1
TABLEFORMAT_BEGIN
 90
        5
170
     1
 91
        0
 92
        0
 62
   257
 93
        1
300
CONTENTFORMAT
  1
CONTENTFORMAT_BEGIN
 90
        0
 91
        0
 92
        4
 93
        0
300

 40
0.0
140
1.0
 94
        2
 62
     0
340
11
144
4.5
309
CONTENTFORMAT_END
171
     1
301
MARGIN
  1
CELLMARGIN_BEGIN
 40
1.5
 40
1.5
 40
1.5
 40
1.5
 40
0.18
 40
0.18
309
CELLMARGIN_END
 94
        6
 95
        1
302
GRIDFORMAT
  1
GRIDFORMAT_BEGIN
 90
        0
 91
        1
 62
     0
 92
       -2
340
0
 93
        0
 40
0.045
309
GRIDFORMAT_END
 95
        2
302
GRIDFORMAT
  1
GRIDFORMAT_BEGIN
 90
        0
 91
        1
 62
     0
 92
       -2
340
0
 93
        0
 40
0.045
309
GRIDFORMAT_END
 95
        4
302
GRIDFORMAT
  1
GRIDFORMAT_BEGIN
 90
        0
 91
        1
 62
     0
 92
       -2
340
0
 93
        0
 40
0.045
309
GRIDFORMAT_END
 95
        8
302
GRIDFORMAT
  1
GRIDFORMAT_BEGIN
 90
        0
 91
        1
 62
     0
 92
       -2
340
0
 93
        0
 40
0.045
309
GRIDFORMAT_END
 95
       16
302
GRIDFORMAT
  1
GRIDFORMAT_BEGIN
 90
        0
 91
        1
 62
     0
 92
       -2
340
0
 93
        0
 40
0.045
309
GRIDFORMAT_END
 95
       32
302
GRIDFORMAT
  1
GRIDFORMAT_BEGIN
 90
        0
 91
        1
 62
     0
 92
       -2
340
0
 93
        0
 40
0.045
309
GRIDFORMAT_END
309
TABLEFORMAT_END
  1
CELLSTYLE_BEGIN
 90
        3
 91
        2
300
_DATA
309
CELLSTYLE_END
  0
XRECORD
  5
86E
102
{ACAD_REACTORS
330
868
102
}
330
868
100
AcDbXrecord
280
     1
102
ACAD_ROUNDTRIP_PRE2007_TABLESTYLE
 90
        4
 91
        0
  1

 92
        4
 93
        0
  2

 94
        4
 95
        0
  3

  0
XRECORD
  5
8A7
102
{ACAD_REACTORS
330
8A6
102
}
330
8A6
100
AcDbXrecord
280
     1
102
RTVSPropertyOp0
 70
     1
102
RTVSPropertyOp1
 70
     1
102
RTVSPropertyOp2
 70
     1
102
RTVSPropertyOp3
 70
     1
102
RTVSPropertyOp4
 70
     1
102
RTVSPropertyOp5
 70
     1
102
RTVSPropertyOp6
 70
     1
102
RTVSPropertyOp7
 70
     1
102
RTVSPropertyOp8
 70
     1
102
RTVSPropertyOp9
 70
     1
102
RTVSPropertyOp10
 70
     1
102
RTVSPropertyOp11
 70
     1
102
RTVSPropertyOp12
 70
     1
102
RTVSPropertyOp13
 70
     1
102
RTVSPropertyOp14
 70
     1
102
RTVSPropertyOp15
 70
     1
102
RTVSPropertyOp16
 70
     1
102
RTVSPropertyOp17
 70
     1
102
RTVSPropertyOp18
 70
     1
102
RTVSPropertyOp19
 70
     1
102
RTVSPropertyOp20
 70
     1
102
RTVSPropertyOp21
 70
     1
102
RTVSPropertyOp22
 70
     1
102
RTVSPropertyOp23
 70
     1
102
RTVSPropertyOp24
 70
     1
102
RTVSPropertyOp25
 70
     1
102
RTVSPropertyOp26
 70
     1
102
RTVSPropertyOp27
 70
     1
  0
XRECORD
  5
8AB
102
{ACAD_REACTORS
330
8AA
102
}
330
8AA
100
AcDbXrecord
280
     1
102
RTVSPropertyOp0
 70
     1
102
RTVSPropertyOp1
 70
     1
102
RTVSPropertyOp2
 70
     1
102
RTVSPropertyOp3
 70
     1
102
RTVSPropertyOp4
 70
     1
102
RTVSPropertyOp5
 70
     1
102
RTVSPropertyOp6
 70
     1
102
RTVSPropertyOp7
 70
     1
102
RTVSPropertyOp8
 70
     1
102
RTVSPropertyOp9
 70
     1
102
RTVSPropertyOp10
 70
     1
102
RTVSPropertyOp11
 70
     1
102
RTVSPropertyOp12
 70
     1
102
RTVSPropertyOp13
 70
     1
102
RTVSPropertyOp14
 70
     1
102
RTVSPropertyOp15
 70
     1
102
RTVSPropertyOp16
 70
     1
102
RTVSPropertyOp17
 70
     1
102
RTVSPropertyOp18
 70
     1
102
RTVSPropertyOp19
 70
     1
102
RTVSPropertyOp20
 70
     1
102
RTVSPropertyOp21
 70
     1
102
RTVSPropertyOp22
 70
     1
102
RTVSPropertyOp23
 70
     1
102
RTVSPropertyOp24
 70
     1
102
RTVSPropertyOp25
 70
     1
102
RTVSPropertyOp26
 70
     1
102
RTVSPropertyOp27
 70
     1
  0
XRECORD
  5
8A9
102
{ACAD_REACTORS
330
8A8
102
}
330
8A8
100
AcDbXrecord
280
     1
102
RTVSPropertyOp0
 70
     1
102
RTVSPropertyOp1
 70
     1
102
RTVSPropertyOp2
 70
     1
102
RTVSPropertyOp3
 70
     1
102
RTVSPropertyOp4
 70
     1
102
RTVSPropertyOp5
 70
     1
102
RTVSPropertyOp6
 70
     1
102
RTVSPropertyOp7
 70
     1
102
RTVSPropertyOp8
 70
     1
102
RTVSPropertyOp9
 70
     1
102
RTVSPropertyOp10
 70
     1
102
RTVSPropertyOp11
 70
     1
102
RTVSPropertyOp12
 70
     1
102
RTVSPropertyOp13
 70
     1
102
RTVSPropertyOp14
 70
     1
102
RTVSPropertyOp15
 70
     1
102
RTVSPropertyOp16
 70
     1
102
RTVSPropertyOp17
 70
     1
102
RTVSPropertyOp18
 70
     1
102
RTVSPropertyOp19
 70
     1
102
RTVSPropertyOp20
 70
     1
102
RTVSPropertyOp21
 70
     1
102
RTVSPropertyOp22
 70
     1
102
RTVSPropertyOp23
 70
     1
102
RTVSPropertyOp24
 70
     1
102
RTVSPropertyOp25
 70
     1
102
RTVSPropertyOp26
 70
     1
102
RTVSPropertyOp27
 70
     1
  0
XRECORD
  5
8A5
102
{ACAD_REACTORS
330
8A4
102
}
330
8A4
100
AcDbXrecord
280
     1
102
RTVSPropertyOp0
 70
     1
102
RTVSPropertyOp1
 70
     1
102
RTVSPropertyOp2
 70
     1
102
RTVSPropertyOp3
 70
     1
102
RTVSPropertyOp4
 70
     1
102
RTVSPropertyOp5
 70
     1
102
RTVSPropertyOp6
 70
     1
102
RTVSPropertyOp7
 70
     1
102
RTVSPropertyOp8
 70
     1
102
RTVSPropertyOp9
 70
     1
102
RTVSPropertyOp10
 70
     1
102
RTVSPropertyOp11
 70
     1
102
RTVSPropertyOp12
 70
     1
102
RTVSPropertyOp13
 70
     1
102
RTVSPropertyOp14
 70
     1
102
RTVSPropertyOp15
 70
     1
102
RTVSPropertyOp16
 70
     1
102
RTVSPropertyOp17
 70
     1
102
RTVSPropertyOp18
 70
     1
102
RTVSPropertyOp19
 70
     1
102
RTVSPropertyOp20
 70
     1
102
RTVSPropertyOp21
 70
     1
102
RTVSPropertyOp22
 70
     1
102
RTVSPropertyOp23
 70
     1
102
RTVSPropertyOp24
 70
     1
102
RTVSPropertyOp25
 70
     1
102
RTVSPropertyOp26
 70
     1
102
RTVSPropertyOp27
 70
     1
  0
XRECORD
  5
8B3
102
{ACAD_REACTORS
330
8B2
102
}
330
8B2
100
AcDbXrecord
280
     1
102
RTVSPropertyOp0
 70
     1
102
RTVSPropertyOp1
 70
     1
102
RTVSPropertyOp2
 70
     1
102
RTVSPropertyOp3
 70
     1
102
RTVSPropertyOp4
 70
     1
102
RTVSPropertyOp5
 70
     1
102
RTVSPropertyOp6
 70
     1
102
RTVSPropertyOp7
 70
     1
102
RTVSPropertyOp8
 70
     1
102
RTVSPropertyOp9
 70
     1
102
RTVSPropertyOp10
 70
     1
102
RTVSPropertyOp11
 70
     1
102
RTVSPropertyOp12
 70
     1
102
RTVSPropertyOp13
 70
     1
102
RTVSPropertyOp14
 70
     1
102
RTVSPropertyOp15
 70
     1
102
RTVSPropertyOp16
 70
     1
102
RTVSPropertyOp17
 70
     1
102
RTVSPropertyOp18
 70
     1
102
RTVSPropertyOp19
 70
     1
102
RTVSPropertyOp20
 70
     1
102
RTVSPropertyOp21
 70
     1
102
RTVSPropertyOp22
 70
     1
102
RTVSPropertyOp23
 70
     1
102
RTVSPropertyOp24
 70
     1
102
RTVSPropertyOp25
 70
     1
102
RTVSPropertyOp26
 70
     1
102
RTVSPropertyOp27
 70
     1
  0
XRECORD
  5
8BB
102
{ACAD_REACTORS
330
8BA
102
}
330
8BA
100
AcDbXrecord
280
     1
102
RTVSPropertyOp0
 70
     1
102
RTVSPropertyOp1
 70
     1
102
RTVSPropertyOp2
 70
     1
102
RTVSPropertyOp3
 70
     1
102
RTVSPropertyOp4
 70
     1
102
RTVSPropertyOp5
 70
     1
102
RTVSPropertyOp6
 70
     1
102
RTVSPropertyOp7
 70
     1
102
RTVSPropertyOp8
 70
     1
102
RTVSPropertyOp9
 70
     1
102
RTVSPropertyOp10
 70
     1
102
RTVSPropertyOp11
 70
     1
102
RTVSPropertyOp12
 70
     1
102
RTVSPropertyOp13
 70
     1
102
RTVSPropertyOp14
 70
     1
102
RTVSPropertyOp15
 70
     1
102
RTVSPropertyOp16
 70
     1
102
RTVSPropertyOp17
 70
     1
102
RTVSPropertyOp18
 70
     1
102
RTVSPropertyOp19
 70
     1
102
RTVSPropertyOp20
 70
     1
102
RTVSPropertyOp21
 70
     1
102
RTVSPropertyOp22
 70
     1
102
RTVSPropertyOp23
 70
     1
102
RTVSPropertyOp24
 70
     1
102
RTVSPropertyOp25
 70
     1
102
RTVSPropertyOp26
 70
     1
102
RTVSPropertyOp27
 70
     1
  0
XRECORD
  5
8AD
102
{ACAD_REACTORS
330
8AC
102
}
330
8AC
100
AcDbXrecord
280
     1
102
RTVSPropertyOp0
 70
     1
102
RTVSPropertyOp1
 70
     1
102
RTVSPropertyOp2
 70
     1
102
RTVSPropertyOp3
 70
     1
102
RTVSPropertyOp4
 70
     1
102
RTVSPropertyOp5
 70
     1
102
RTVSPropertyOp6
 70
     1
102
RTVSPropertyOp7
 70
     1
102
RTVSPropertyOp8
 70
     1
102
RTVSPropertyOp9
 70
     1
102
RTVSPropertyOp10
 70
     1
102
RTVSPropertyOp11
 70
     1
102
RTVSPropertyOp12
 70
     1
102
RTVSPropertyOp13
 70
     1
102
RTVSPropertyOp14
 70
     1
102
RTVSPropertyOp15
 70
     1
102
RTVSPropertyOp16
 70
     1
102
RTVSPropertyOp17
 70
     1
102
RTVSPropertyOp18
 70
     1
102
RTVSPropertyOp19
 70
     1
102
RTVSPropertyOp20
 70
     1
102
RTVSPropertyOp21
 70
     1
102
RTVSPropertyOp22
 70
     1
102
RTVSPropertyOp23
 70
     1
102
RTVSPropertyOp24
 70
     1
102
RTVSPropertyOp25
 70
     1
102
RTVSPropertyOp26
 70
     1
102
RTVSPropertyOp27
 70
     1
  0
XRECORD
  5
8B1
102
{ACAD_REACTORS
330
8B0
102
}
330
8B0
100
AcDbXrecord
280
     1
102
RTVSPropertyOp0
 70
     1
102
RTVSPropertyOp1
 70
     1
102
RTVSPropertyOp2
 70
     1
102
RTVSPropertyOp3
 70
     1
102
RTVSPropertyOp4
 70
     1
102
RTVSPropertyOp5
 70
     1
102
RTVSPropertyOp6
 70
     1
102
RTVSPropertyOp7
 70
     1
102
RTVSPropertyOp8
 70
     1
102
RTVSPropertyOp9
 70
     1
102
RTVSPropertyOp10
 70
     1
102
RTVSPropertyOp11
 70
     1
102
RTVSPropertyOp12
 70
     1
102
RTVSPropertyOp13
 70
     1
102
RTVSPropertyOp14
 70
     1
102
RTVSPropertyOp15
 70
     1
102
RTVSPropertyOp16
 70
     1
102
RTVSPropertyOp17
 70
     1
102
RTVSPropertyOp18
 70
     1
102
RTVSPropertyOp19
 70
     1
102
RTVSPropertyOp20
 70
     1
102
RTVSPropertyOp21
 70
     1
102
RTVSPropertyOp22
 70
     1
102
RTVSPropertyOp23
 70
     1
102
RTVSPropertyOp24
 70
     1
102
RTVSPropertyOp25
 70
     1
102
RTVSPropertyOp26
 70
     1
102
RTVSPropertyOp27
 70
     1
  0
XRECORD
  5
8C1
102
{ACAD_REACTORS
330
8C0
102
}
330
8C0
100
AcDbXrecord
280
     1
102
RTVSPropertyOp0
 70
     0
102
RTVSPropertyOp1
 70
     0
102
RTVSPropertyOp2
 70
     0
102
RTVSPropertyOp3
 70
     0
102
RTVSPropertyOp4
 70
     0
102
RTVSPropertyOp5
 70
     0
102
RTVSPropertyOp6
 70
     0
102
RTVSPropertyOp7
 70
     0
102
RTVSPropertyOp8
 70
     0
102
RTVSPropertyOp9
 70
     0
102
RTVSPropertyOp10
 70
     0
102
RTVSPropertyOp11
 70
     0
102
RTVSPropertyOp12
 70
     0
102
RTVSPropertyOp13
 70
     0
102
RTVSPropertyOp14
 70
     2
102
RTVSPropertyOp15
 70
     0
102
RTVSPropertyOp16
 70
     0
102
RTVSPropertyOp17
 70
     0
102
RTVSPropertyOp18
 70
     0
102
RTVSPropertyOp19
 70
     0
102
RTVSPropertyOp20
 70
     0
102
RTVSPropertyOp21
 70
     0
102
RTVSPropertyOp22
 70
     0
102
RTVSPropertyOp23
 70
     0
102
RTVSPropertyOp24
 70
     0
102
RTVSPropertyOp25
 70
     0
102
RTVSPropertyOp26
 70
     0
102
RTVSPropertyOp27
 70
     0
  0
XRECORD
  5
8B9
102
{ACAD_REACTORS
330
8B8
102
}
330
8B8
100
AcDbXrecord
280
     1
102
RTVSPropertyOp0
 70
     1
102
RTVSPropertyOp1
 70
     1
102
RTVSPropertyOp2
 70
     1
102
RTVSPropertyOp3
 70
     1
102
RTVSPropertyOp4
 70
     1
102
RTVSPropertyOp5
 70
     1
102
RTVSPropertyOp6
 70
     1
102
RTVSPropertyOp7
 70
     1
102
RTVSPropertyOp8
 70
     1
102
RTVSPropertyOp9
 70
     1
102
RTVSPropertyOp10
 70
     1
102
RTVSPropertyOp11
 70
     1
102
RTVSPropertyOp12
 70
     1
102
RTVSPropertyOp13
 70
     1
102
RTVSPropertyOp14
 70
     1
102
RTVSPropertyOp15
 70
     1
102
RTVSPropertyOp16
 70
     1
102
RTVSPropertyOp17
 70
     1
102
RTVSPropertyOp18
 70
     1
102
RTVSPropertyOp19
 70
     1
102
RTVSPropertyOp20
 70
     1
102
RTVSPropertyOp21
 70
     1
102
RTVSPropertyOp22
 70
     1
102
RTVSPropertyOp23
 70
     1
102
RTVSPropertyOp24
 70
     1
102
RTVSPropertyOp25
 70
     1
102
RTVSPropertyOp26
 70
     1
102
RTVSPropertyOp27
 70
     1
  0
XRECORD
  5
89D
102
{ACAD_REACTORS
330
89C
102
}
330
89C
100
AcDbXrecord
280
     1
102
RTVSPropertyOp0
 70
     1
102
RTVSPropertyOp1
 70
     1
102
RTVSPropertyOp2
 70
     1
102
RTVSPropertyOp3
 70
     1
102
RTVSPropertyOp4
 70
     1
102
RTVSPropertyOp5
 70
     1
102
RTVSPropertyOp6
 70
     1
102
RTVSPropertyOp7
 70
     1
102
RTVSPropertyOp8
 70
     1
102
RTVSPropertyOp9
 70
     1
102
RTVSPropertyOp10
 70
     1
102
RTVSPropertyOp11
 70
     1
102
RTVSPropertyOp12
 70
     1
102
RTVSPropertyOp13
 70
     1
102
RTVSPropertyOp14
 70
     1
102
RTVSPropertyOp15
 70
     1
102
RTVSPropertyOp16
 70
     1
102
RTVSPropertyOp17
 70
     1
102
RTVSPropertyOp18
 70
     1
102
RTVSPropertyOp19
 70
     1
102
RTVSPropertyOp20
 70
     1
102
RTVSPropertyOp21
 70
     1
102
RTVSPropertyOp22
 70
     1
102
RTVSPropertyOp23
 70
     1
102
RTVSPropertyOp24
 70
     1
102
RTVSPropertyOp25
 70
     1
102
RTVSPropertyOp26
 70
     1
102
RTVSPropertyOp27
 70
     1
  0
XRECORD
  5
89F
102
{ACAD_REACTORS
330
89E
102
}
330
89E
100
AcDbXrecord
280
     1
102
RTVSPropertyOp0
 70
     1
102
RTVSPropertyOp1
 70
     1
102
RTVSPropertyOp2
 70
     1
102
RTVSPropertyOp3
 70
     1
102
RTVSPropertyOp4
 70
     1
102
RTVSPropertyOp5
 70
     1
102
RTVSPropertyOp6
 70
     1
102
RTVSPropertyOp7
 70
     1
102
RTVSPropertyOp8
 70
     1
102
RTVSPropertyOp9
 70
     1
102
RTVSPropertyOp10
 70
     1
102
RTVSPropertyOp11
 70
     1
102
RTVSPropertyOp12
 70
     1
102
RTVSPropertyOp13
 70
     1
102
RTVSPropertyOp14
 70
     1
102
RTVSPropertyOp15
 70
     1
102
RTVSPropertyOp16
 70
     1
102
RTVSPropertyOp17
 70
     1
102
RTVSPropertyOp18
 70
     1
102
RTVSPropertyOp19
 70
     1
102
RTVSPropertyOp20
 70
     1
102
RTVSPropertyOp21
 70
     1
102
RTVSPropertyOp22
 70
     1
102
RTVSPropertyOp23
 70
     1
102
RTVSPropertyOp24
 70
     1
102
RTVSPropertyOp25
 70
     1
102
RTVSPropertyOp26
 70
     1
102
RTVSPropertyOp27
 70
     1
  0
XRECORD
  5
8A1
102
{ACAD_REACTORS
330
8A0
102
}
330
8A0
100
AcDbXrecord
280
     1
102
RTVSPropertyOp0
 70
     1
102
RTVSPropertyOp1
 70
     1
102
RTVSPropertyOp2
 70
     1
102
RTVSPropertyOp3
 70
     1
102
RTVSPropertyOp4
 70
     1
102
RTVSPropertyOp5
 70
     1
102
RTVSPropertyOp6
 70
     1
102
RTVSPropertyOp7
 70
     1
102
RTVSPropertyOp8
 70
     1
102
RTVSPropertyOp9
 70
     1
102
RTVSPropertyOp10
 70
     1
102
RTVSPropertyOp11
 70
     1
102
RTVSPropertyOp12
 70
     1
102
RTVSPropertyOp13
 70
     1
102
RTVSPropertyOp14
 70
     1
102
RTVSPropertyOp15
 70
     1
102
RTVSPropertyOp16
 70
     1
102
RTVSPropertyOp17
 70
     1
102
RTVSPropertyOp18
 70
     1
102
RTVSPropertyOp19
 70
     1
102
RTVSPropertyOp20
 70
     1
102
RTVSPropertyOp21
 70
     1
102
RTVSPropertyOp22
 70
     1
102
RTVSPropertyOp23
 70
     1
102
RTVSPropertyOp24
 70
     1
102
RTVSPropertyOp25
 70
     1
102
RTVSPropertyOp26
 70
     1
102
RTVSPropertyOp27
 70
     1
  0
XRECORD
  5
8A3
102
{ACAD_REACTORS
330
8A2
102
}
330
8A2
100
AcDbXrecord
280
     1
102
RTVSPropertyOp0
 70
     1
102
RTVSPropertyOp1
 70
     1
102
RTVSPropertyOp2
 70
     1
102
RTVSPropertyOp3
 70
     1
102
RTVSPropertyOp4
 70
     1
102
RTVSPropertyOp5
 70
     1
102
RTVSPropertyOp6
 70
     1
102
RTVSPropertyOp7
 70
     1
102
RTVSPropertyOp8
 70
     1
102
RTVSPropertyOp9
 70
     1
102
RTVSPropertyOp10
 70
     1
102
RTVSPropertyOp11
 70
     1
102
RTVSPropertyOp12
 70
     1
102
RTVSPropertyOp13
 70
     1
102
RTVSPropertyOp14
 70
     1
102
RTVSPropertyOp15
 70
     1
102
RTVSPropertyOp16
 70
     1
102
RTVSPropertyOp17
 70
     1
102
RTVSPropertyOp18
 70
     1
102
RTVSPropertyOp19
 70
     1
102
RTVSPropertyOp20
 70
     1
102
RTVSPropertyOp21
 70
     1
102
RTVSPropertyOp22
 70
     1
102
RTVSPropertyOp23
 70
     1
102
RTVSPropertyOp24
 70
     1
102
RTVSPropertyOp25
 70
     1
102
RTVSPropertyOp26
 70
     1
102
RTVSPropertyOp27
 70
     1
  0
XRECORD
  5
8BD
102
{ACAD_REACTORS
330
8BC
102
}
330
8BC
100
AcDbXrecord
280
     1
102
RTVSPropertyOp0
 70
     0
102
RTVSPropertyOp1
 70
     0
102
RTVSPropertyOp2
 70
     0
102
RTVSPropertyOp3
 70
     0
102
RTVSPropertyOp4
 70
     0
102
RTVSPropertyOp5
 70
     0
102
RTVSPropertyOp6
 70
     0
102
RTVSPropertyOp7
 70
     0
102
RTVSPropertyOp8
 70
     0
102
RTVSPropertyOp9
 70
     0
102
RTVSPropertyOp10
 70
     0
102
RTVSPropertyOp11
 70
     0
102
RTVSPropertyOp12
 70
     0
102
RTVSPropertyOp13
 70
     0
102
RTVSPropertyOp14
 70
     2
102
RTVSPropertyOp15
 70
     0
102
RTVSPropertyOp16
 70
     0
102
RTVSPropertyOp17
 70
     0
102
RTVSPropertyOp18
 70
     0
102
RTVSPropertyOp19
 70
     0
102
RTVSPropertyOp20
 70
     0
102
RTVSPropertyOp21
 70
     0
102
RTVSPropertyOp22
 70
     0
102
RTVSPropertyOp23
 70
     0
102
RTVSPropertyOp24
 70
     0
102
RTVSPropertyOp25
 70
     0
102
RTVSPropertyOp26
 70
     0
102
RTVSPropertyOp27
 70
     0
  0
XRECORD
  5
8B7
102
{ACAD_REACTORS
330
8B6
102
}
330
8B6
100
AcDbXrecord
280
     1
102
RTVSPropertyOp0
 70
     1
102
RTVSPropertyOp1
 70
     1
102
RTVSPropertyOp2
 70
     1
102
RTVSPropertyOp3
 70
     1
102
RTVSPropertyOp4
 70
     1
102
RTVSPropertyOp5
 70
     1
102
RTVSPropertyOp6
 70
     1
102
RTVSPropertyOp7
 70
     1
102
RTVSPropertyOp8
 70
     1
102
RTVSPropertyOp9
 70
     1
102
RTVSPropertyOp10
 70
     1
102
RTVSPropertyOp11
 70
     1
102
RTVSPropertyOp12
 70
     1
102
RTVSPropertyOp13
 70
     1
102
RTVSPropertyOp14
 70
     1
102
RTVSPropertyOp15
 70
     1
102
RTVSPropertyOp16
 70
     1
102
RTVSPropertyOp17
 70
     1
102
RTVSPropertyOp18
 70
     1
102
RTVSPropertyOp19
 70
     1
102
RTVSPropertyOp20
 70
     1
102
RTVSPropertyOp21
 70
     1
102
RTVSPropertyOp22
 70
     1
102
RTVSPropertyOp23
 70
     1
102
RTVSPropertyOp24
 70
     1
102
RTVSPropertyOp25
 70
     1
102
RTVSPropertyOp26
 70
     1
102
RTVSPropertyOp27
 70
     1
  0
XRECORD
  5
8BF
102
{ACAD_REACTORS
330
8BE
102
}
330
8BE
100
AcDbXrecord
280
     1
102
RTVSPropertyOp0
 70
     0
102
RTVSPropertyOp1
 70
     0
102
RTVSPropertyOp2
 70
     0
102
RTVSPropertyOp3
 70
     0
102
RTVSPropertyOp4
 70
     0
102
RTVSPropertyOp5
 70
     0
102
RTVSPropertyOp6
 70
     0
102
RTVSPropertyOp7
 70
     0
102
RTVSPropertyOp8
 70
     0
102
RTVSPropertyOp9
 70
     0
102
RTVSPropertyOp10
 70
     0
102
RTVSPropertyOp11
 70
     0
102
RTVSPropertyOp12
 70
     0
102
RTVSPropertyOp13
 70
     0
102
RTVSPropertyOp14
 70
     2
102
RTVSPropertyOp15
 70
     0
102
RTVSPropertyOp16
 70
     0
102
RTVSPropertyOp17
 70
     0
102
RTVSPropertyOp18
 70
     0
102
RTVSPropertyOp19
 70
     0
102
RTVSPropertyOp20
 70
     0
102
RTVSPropertyOp21
 70
     0
102
RTVSPropertyOp22
 70
     0
102
RTVSPropertyOp23
 70
     0
102
RTVSPropertyOp24
 70
     0
102
RTVSPropertyOp25
 70
     0
102
RTVSPropertyOp26
 70
     0
102
RTVSPropertyOp27
 70
     0
  0
XRECORD
  5
8AF
102
{ACAD_REACTORS
330
8AE
102
}
330
8AE
100
AcDbXrecord
280
     1
102
RTVSPropertyOp0
 70
     1
102
RTVSPropertyOp1
 70
     1
102
RTVSPropertyOp2
 70
     1
102
RTVSPropertyOp3
 70
     1
102
RTVSPropertyOp4
 70
     1
102
RTVSPropertyOp5
 70
     1
102
RTVSPropertyOp6
 70
     1
102
RTVSPropertyOp7
 70
     1
102
RTVSPropertyOp8
 70
     1
102
RTVSPropertyOp9
 70
     1
102
RTVSPropertyOp10
 70
     1
102
RTVSPropertyOp11
 70
     1
102
RTVSPropertyOp12
 70
     1
102
RTVSPropertyOp13
 70
     1
102
RTVSPropertyOp14
 70
     1
102
RTVSPropertyOp15
 70
     1
102
RTVSPropertyOp16
 70
     1
102
RTVSPropertyOp17
 70
     1
102
RTVSPropertyOp18
 70
     1
102
RTVSPropertyOp19
 70
     1
102
RTVSPropertyOp20
 70
     1
102
RTVSPropertyOp21
 70
     1
102
RTVSPropertyOp22
 70
     1
102
RTVSPropertyOp23
 70
     1
102
RTVSPropertyOp24
 70
     1
102
RTVSPropertyOp25
 70
     1
102
RTVSPropertyOp26
 70
     1
102
RTVSPropertyOp27
 70
     1
  0
XRECORD
  5
8B5
102
{ACAD_REACTORS
330
8B4
102
}
330
8B4
100
AcDbXrecord
280
     1
102
RTVSPropertyOp0
 70
     1
102
RTVSPropertyOp1
 70
     1
102
RTVSPropertyOp2
 70
     1
102
RTVSPropertyOp3
 70
     1
102
RTVSPropertyOp4
 70
     1
102
RTVSPropertyOp5
 70
     1
102
RTVSPropertyOp6
 70
     1
102
RTVSPropertyOp7
 70
     1
102
RTVSPropertyOp8
 70
     1
102
RTVSPropertyOp9
 70
     1
102
RTVSPropertyOp10
 70
     1
102
RTVSPropertyOp11
 70
     1
102
RTVSPropertyOp12
 70
     1
102
RTVSPropertyOp13
 70
     1
102
RTVSPropertyOp14
 70
     1
102
RTVSPropertyOp15
 70
     1
102
RTVSPropertyOp16
 70
     1
102
RTVSPropertyOp17
 70
     1
102
RTVSPropertyOp18
 70
     1
102
RTVSPropertyOp19
 70
     1
102
RTVSPropertyOp20
 70
     1
102
RTVSPropertyOp21
 70
     1
102
RTVSPropertyOp22
 70
     1
102
RTVSPropertyOp23
 70
     1
102
RTVSPropertyOp24
 70
     1
102
RTVSPropertyOp25
 70
     1
102
RTVSPropertyOp26
 70
     1
102
RTVSPropertyOp27
 70
     1
  0
ENDSEC
  0
EOF
