  0
SECTION
  2
HEADER
  9
$ACADVER
  1
AC1015
  9
$ACADMAINTVER
 70
    20
  9
$DWGCODEPAGE
  3
ANSI_1252
  9
$INSBASE
 10
0.0
 20
0.0
 30
0.0
  9
$EXTMIN
 10
1167.188514232943
 20
1058.024768157951
 30
0.0
  9
$EXTMAX
 10
1169.894185233954
 20
1058.629983680202
 30
0.0
  9
$LIMMIN
 10
0.0
 20
0.0
  9
$LIMMAX
 10
420.0
 20
297.0
  9
$ORTHOMODE
 70
     0
  9
$REGENMODE
 70
     1
  9
$FILLMODE
 70
     1
  9
$QTEXTMODE
 70
     0
  9
$MIRRTEXT
 70
     0
  9
$LTSCALE
 40
1.0
  9
$ATTMODE
 70
     1
  9
$TEXTSIZE
 40
2.5
  9
$TRACEWID
 40
1.0
  9
$TEXTSTYLE
  7
Standard
  9
$CLAYER
  8
0
  9
$CELTYPE
  6
ByLayer
  9
$CECOLOR
 62
   256
  9
$CELTSCALE
 40
1.0
  9
$DISPSILH
 70
     0
  9
$DIMSCALE
 40
1.0
  9
$DIMASZ
 40
2.5
  9
$DIMEXO
 40
0.625
  9
$DIMDLI
 40
3.75
  9
$DIMRND
 40
0.0
  9
$DIMDLE
 40
0.0
  9
$DIMEXE
 40
1.25
  9
$DIMTP
 40
0.0
  9
$DIMTM
 40
0.0
  9
$DIMTXT
 40
2.5
  9
$DIMCEN
 40
2.5
  9
$DIMTSZ
 40
0.0
  9
$DIMTOL
 70
     0
  9
$DIMLIM
 70
     0
  9
$DIMTIH
 70
     0
  9
$DIMTOH
 70
     0
  9
$DIMSE1
 70
     0
  9
$DIMSE2
 70
     0
  9
$DIMTAD
 70
     1
  9
$DIMZIN
 70
     8
  9
$DIMBLK
  1

  9
$DIMASO
 70
     1
  9
$DIMSHO
 70
     1
  9
$DIMPOST
  1

  9
$DIMAPOST
  1

  9
$DIMALT
 70
     0
  9
$DIMALTD
 70
     3
  9
$DIMALTF
 40
0.03937007874016
  9
$DIMLFAC
 40
1.0
  9
$DIMTOFL
 70
     1
  9
$DIMTVP
 40
0.0
  9
$DIMTIX
 70
     0
  9
$DIMSOXD
 70
     0
  9
$DIMSAH
 70
     0
  9
$DIMBLK1
  1

  9
$DIMBLK2
  1

  9
$DIMSTYLE
  2
ISO-25
  9
$DIMCLRD
 70
     0
  9
$DIMCLRE
 70
     0
  9
$DIMCLRT
 70
     0
  9
$DIMTFAC
 40
1.0
  9
$DIMGAP
 40
0.625
  9
$DIMJUST
 70
     0
  9
$DIMSD1
 70
     0
  9
$DIMSD2
 70
     0
  9
$DIMTOLJ
 70
     0
  9
$DIMTZIN
 70
     8
  9
$DIMALTZ
 70
     0
  9
$DIMALTTZ
 70
     0
  9
$DIMUPT
 70
     0
  9
$DIMDEC
 70
     2
  9
$DIMTDEC
 70
     2
  9
$DIMALTU
 70
     2
  9
$DIMALTTD
 70
     3
  9
$DIMTXSTY
  7
Standard
  9
$DIMAUNIT
 70
     0
  9
$DIMADEC
 70
     0
  9
$DIMALTRND
 40
0.0
  9
$DIMAZIN
 70
     0
  9
$DIMDSEP
 70
    44
  9
$DIMATFIT
 70
     3
  9
$DIMFRAC
 70
     0
  9
$DIMLDRBLK
  1

  9
$DIMLUNIT
 70
     2
  9
$DIMLWD
 70
    -2
  9
$DIMLWE
 70
    -2
  9
$DIMTMOVE
 70
     0
  9
$LUNITS
 70
     2
  9
$LUPREC
 70
     4
  9
$SKETCHINC
 40
1.0
  9
$FILLETRAD
 40
0.0
  9
$AUNITS
 70
     0
  9
$AUPREC
 70
     0
  9
$MENU
  1
.
  9
$ELEVATION
 40
0.0
  9
$PELEVATION
 40
0.0
  9
$THICKNESS
 40
0.0
  9
$LIMCHECK
 70
     0
  9
$CHAMFERA
 40
0.0
  9
$CHAMFERB
 40
0.0
  9
$CHAMFERC
 40
0.0
  9
$CHAMFERD
 40
0.0
  9
$SKPOLY
 70
     0
  9
$TDCREATE
 40
2454862.655873299
  9
$TDUCREATE
 40
2454862.655873299
  9
$TDUPDATE
 40
2454862.663140545
  9
$TDUUPDATE
 40
2454862.663140545
  9
$TDINDWG
 40
0.0072681481
  9
$TDUSRTIMER
 40
0.0072681481
  9
$USRTIMER
 70
     1
  9
$ANGBASE
 50
0.0
  9
$ANGDIR
 70
     0
  9
$PDMODE
 70
     0
  9
$PDSIZE
 40
0.0
  9
$PLINEWID
 40
0.0
  9
$SPLFRAME
 70
     0
  9
$SPLINETYPE
 70
     6
  9
$SPLINESEGS
 70
     8
  9
$HANDSEED
  5
D9D
  9
$SURFTAB1
 70
     6
  9
$SURFTAB2
 70
     6
  9
$SURFTYPE
 70
     6
  9
$SURFU
 70
     6
  9
$SURFV
 70
     6
  9
$UCSBASE
  2

  9
$UCSNAME
  2

  9
$UCSORG
 10
0.0
 20
0.0
 30
0.0
  9
$UCSXDIR
 10
1.0
 20
0.0
 30
0.0
  9
$UCSYDIR
 10
0.0
 20
1.0
 30
0.0
  9
$UCSORTHOREF
  2

  9
$UCSORTHOVIEW
 70
     0
  9
$UCSORGTOP
 10
0.0
 20
0.0
 30
0.0
  9
$UCSORGBOTTOM
 10
0.0
 20
0.0
 30
0.0
  9
$UCSORGLEFT
 10
0.0
 20
0.0
 30
0.0
  9
$UCSORGRIGHT
 10
0.0
 20
0.0
 30
0.0
  9
$UCSORGFRONT
 10
0.0
 20
0.0
 30
0.0
  9
$UCSORGBACK
 10
0.0
 20
0.0
 30
0.0
  9
$PUCSBASE
  2

  9
$PUCSNAME
  2

  9
$PUCSORG
 10
0.0
 20
0.0
 30
0.0
  9
$PUCSXDIR
 10
1.0
 20
0.0
 30
0.0
  9
$PUCSYDIR
 10
0.0
 20
1.0
 30
0.0
  9
$PUCSORTHOREF
  2

  9
$PUCSORTHOVIEW
 70
     0
  9
$PUCSORGTOP
 10
0.0
 20
0.0
 30
0.0
  9
$PUCSORGBOTTOM
 10
0.0
 20
0.0
 30
0.0
  9
$PUCSORGLEFT
 10
0.0
 20
0.0
 30
0.0
  9
$PUCSORGRIGHT
 10
0.0
 20
0.0
 30
0.0
  9
$PUCSORGFRONT
 10
0.0
 20
0.0
 30
0.0
  9
$PUCSORGBACK
 10
0.0
 20
0.0
 30
0.0
  9
$USERI1
 70
     0
  9
$USERI2
 70
     0
  9
$USERI3
 70
     0
  9
$USERI4
 70
     0
  9
$USERI5
 70
     0
  9
$USERR1
 40
0.0
  9
$USERR2
 40
0.0
  9
$USERR3
 40
0.0
  9
$USERR4
 40
0.0
  9
$USERR5
 40
0.0
  9
$WORLDVIEW
 70
     1
  9
$SHADEDGE
 70
     3
  9
$SHADEDIF
 70
    70
  9
$TILEMODE
 70
     1
  9
$MAXACTVP
 70
    64
  9
$PINSBASE
 10
0.0
 20
0.0
 30
0.0
  9
$PLIMCHECK
 70
     0
  9
$PEXTMIN
 10
1.000000000000000E+20
 20
1.000000000000000E+20
 30
1.000000000000000E+20
  9
$PEXTMAX
 10
-1.000000000000000E+20
 20
-1.000000000000000E+20
 30
-1.000000000000000E+20
  9
$PLIMMIN
 10
0.0
 20
0.0
  9
$PLIMMAX
 10
420.0
 20
297.0
  9
$UNITMODE
 70
     0
  9
$VISRETAIN
 70
     1
  9
$PLINEGEN
 70
     0
  9
$PSLTSCALE
 70
     1
  9
$TREEDEPTH
 70
  3020
  9
$CMLSTYLE
  2
Standard
  9
$CMLJUST
 70
     0
  9
$CMLSCALE
 40
20.0
  9
$PROXYGRAPHICS
 70
     1
  9
$MEASUREMENT
 70
     1
  9
$CELWEIGHT
370
    -1
  9
$ENDCAPS
280
     0
  9
$JOINSTYLE
280
     0
  9
$LWDISPLAY
290
     0
  9
$INSUNITS
 70
     4
  9
$HYPERLINKBASE
  1

  9
$STYLESHEET
  1

  9
$XEDIT
290
     1
  9
$CEPSNTYPE
380
     0
  9
$PSTYLEMODE
290
     1
  9
$FINGERPRINTGUID
  2
{0AC364F9-79B2-4D9D-8B7C-DBA3A0980CE1}
  9
$VERSIONGUID
  2
{8A5406BD-1DFB-42DE-90F9-42715FDF5F9A}
  9
$EXTNAMES
290
     1
  9
$PSVPSCALE
 40
0.0
  9
$OLESTARTUP
290
     0
  0
ENDSEC
  0
SECTION
  2
CLASSES
  0
CLASS
  1
ACDBDICTIONARYWDFLT
  2
AcDbDictionaryWithDefault
  3
ObjectDBX Classes
 90
        0
280
     0
281
     0
  0
CLASS
  1
TABLESTYLE
  2
AcDbTableStyle
  3
ObjectDBX Classes
 90
     2047
280
     0
281
     0
  0
CLASS
  1
DIMASSOC
  2
AcDbDimAssoc
  3
"AcDbDimAssoc|Product Desc:     AcDim ARX App For Dimension|Company:          Autodesk, Inc.|WEB Address:      www.autodesk.com"
 90
        0
280
     0
281
     0
  0
CLASS
  1
SORTENTSTABLE
  2
AcDbSortentsTable
  3
ObjectDBX Classes
 90
        0
280
     0
281
     0
  0
CLASS
  1
DICTIONARYVAR
  2
AcDbDictionaryVar
  3
ObjectDBX Classes
 90
        0
280
     0
281
     0
  0
CLASS
  1
ACDBPLACEHOLDER
  2
AcDbPlaceHolder
  3
ObjectDBX Classes
 90
        0
280
     0
281
     0
  0
CLASS
  1
LAYOUT
  2
AcDbLayout
  3
ObjectDBX Classes
 90
        0
280
     0
281
     0
  0
ENDSEC
  0
SECTION
  2
TABLES
  0
TABLE
  2
VPORT
  5
8
330
0
100
AcDbSymbolTable
 70
     6
  0
VPORT
  5
D95
330
8
100
AcDbSymbolTableRecord
100
AcDbViewportTableRecord
  2
*Active
 70
     0
 10
0.0
 20
0.0
 11
1.0
 21
1.0
 12
1168.541349733448
 22
1058.327375919076
 13
0.0
 23
0.0
 14
10.0
 24
10.0
 15
10.0
 25
10.0
 16
0.0
 26
0.0
 36
1.0
 17
0.0
 27
0.0
 37
0.0
 40
1.695316264454258
 41
1.602030456852791
 42
50.0
 43
0.0
 44
0.0
 50
0.0
 51
0.0
 71
     0
 72
  1000
 73
     1
 74
     3
 75
     0
 76
     0
 77
     0
 78
     0
281
     0
 65
     1
110
0.0
120
0.0
130
0.0
111
1.0
121
0.0
131
0.0
112
0.0
122
1.0
132
0.0
 79
     0
146
0.0
  0
ENDTAB
  0
TABLE
  2
LTYPE
  5
5
330
0
100
AcDbSymbolTable
 70
     3
  0
LTYPE
  5
14
330
5
100
AcDbSymbolTableRecord
100
AcDbLinetypeTableRecord
  2
ByBlock
 70
     0
  3

 72
    65
 73
     0
 40
0.0
  0
LTYPE
  5
15
330
5
100
AcDbSymbolTableRecord
100
AcDbLinetypeTableRecord
  2
ByLayer
 70
     0
  3

 72
    65
 73
     0
 40
0.0
  0
LTYPE
  5
16
330
5
100
AcDbSymbolTableRecord
100
AcDbLinetypeTableRecord
  2
Continuous
 70
     0
  3
Solid line
 72
    65
 73
     0
 40
0.0
  0
LTYPE
  5
1E4
330
5
100
AcDbSymbolTableRecord
100
AcDbLinetypeTableRecord
  2
DASHDOT
 70
     0
  3
Dash dot __ . __ . __ . __ . __ . __ . __ . __
 72
    65
 73
     4
 40
25.4
 49
12.7
 74
     0
 49
-6.349999999999999
 74
     0
 49
0.0
 74
     0
 49
-6.349999999999999
 74
     0
  0
ENDTAB
  0
TABLE
  2
LAYER
  5
2
330
0
100
AcDbSymbolTable
 70
     7
  0
LAYER
  5
10
330
2
100
AcDbSymbolTableRecord
100
AcDbLayerTableRecord
  2
0
 70
     0
 62
     7
  6
Continuous
370
    -3
390
F
  0
LAYER
  5
1E5
330
2
100
AcDbSymbolTableRecord
100
AcDbLayerTableRecord
  2
4
 70
     0
 62
     4
  6
Continuous
370
    -3
390
F
  0
LAYER
  5
1E6
330
2
100
AcDbSymbolTableRecord
100
AcDbLayerTableRecord
  2
cen
 70
     0
 62
     7
  6
DASHDOT
370
    -3
390
F
  0
LAYER
  5
1E7
330
2
100
AcDbSymbolTableRecord
100
AcDbLayerTableRecord
  2
9
 70
     0
 62
     9
  6
Continuous
370
    -3
390
F
  0
LAYER
  5
1E8
330
2
100
AcDbSymbolTableRecord
100
AcDbLayerTableRecord
  2
cotas
 70
     0
 62
     1
  6
Continuous
370
    -3
390
F
  0
LAYER
  5
1E9
330
2
100
AcDbSymbolTableRecord
100
AcDbLayerTableRecord
  2
Defpoints
 70
     0
 62
     7
  6
Continuous
290
     0
370
    -3
390
F
  0
LAYER
  5
1EA
330
2
100
AcDbSymbolTableRecord
100
AcDbLayerTableRecord
  2
SANINDUSA
 70
     0
 62
     3
  6
Continuous
370
    -3
390
F
  0
ENDTAB
  0
TABLE
  2
STYLE
  5
3
330
0
100
AcDbSymbolTable
 70
     2
  0
STYLE
  5
11
330
3
100
AcDbSymbolTableRecord
100
AcDbTextStyleTableRecord
  2
Standard
 70
     0
 40
0.0
 41
1.0
 50
0.0
 71
     0
 42
2.5
  3
txt
  4

  0
STYLE
  5
1EB
330
3
100
AcDbSymbolTableRecord
100
AcDbTextStyleTableRecord
  2
SANINDUSA
 70
     0
 40
0.0
 41
1.0
 50
0.0
 71
     0
 42
2.5
  3
verdana.TTF
  4

1001
ACAD
1000
Verdana
1071
       34
  0
ENDTAB
  0
TABLE
  2
VIEW
  5
6
330
0
100
AcDbSymbolTable
 70
     0
  0
ENDTAB
  0
TABLE
  2
UCS
  5
7
330
0
100
AcDbSymbolTable
 70
     0
  0
ENDTAB
  0
TABLE
  2
APPID
  5
9
330
0
100
AcDbSymbolTable
 70
     6
  0
APPID
  5
12
330
9
100
AcDbSymbolTableRecord
100
AcDbRegAppTableRecord
  2
ACAD
 70
     0
  0
APPID
  5
1ED
330
9
100
AcDbSymbolTableRecord
100
AcDbRegAppTableRecord
  2
ACAD_DSTYLE_DIMEXT_LENGTH
 70
     0
  0
APPID
  5
1EE
330
9
100
AcDbSymbolTableRecord
100
AcDbRegAppTableRecord
  2
ACAD_DSTYLE_DIMEXT_ENABLED
 70
     0
  0
APPID
  5
1EF
330
9
100
AcDbSymbolTableRecord
100
AcDbRegAppTableRecord
  2
ACAD_DSTYLE_DIMJOGGED_JOGANGLE_SYMBOL
 70
     0
  0
APPID
  5
1F0
330
9
100
AcDbSymbolTableRecord
100
AcDbRegAppTableRecord
  2
ACAD_DSTYLE_DIMARC_LENGTH_SYMBOL
 70
     0
  0
APPID
  5
D7F
330
9
100
AcDbSymbolTableRecord
100
AcDbRegAppTableRecord
  2
ACAD_EXEMPT_FROM_CAD_STANDARDS
 70
     0
  0
ENDTAB
  0
TABLE
  2
DIMSTYLE
  5
A
330
0
100
AcDbSymbolTable
 70
     3
100
AcDbDimStyleTable
 71
     1
340
2B
  0
DIMSTYLE
105
2B
330
A
100
AcDbSymbolTableRecord
100
AcDbDimStyleTableRecord
  2
ISO-25
 70
     0
 41
2.5
 42
0.625
 43
3.75
 44
1.25
 73
     0
 74
     0
 77
     1
 78
     8
140
2.5
141
2.5
143
0.03937007874016
147
0.625
171
     3
172
     1
271
     2
272
     2
274
     3
278
    44
283
     0
284
     8
340
11
  0
DIMSTYLE
105
1EC
102
{ACAD_REACTORS
330
248
330
249
330
24A
330
24B
330
24C
330
24D
330
24E
330
24F
330
250
330
251
330
254
330
257
330
25A
330
25D
330
260
330
263
330
266
330
269
330
26C
330
26F
330
270
330
271
330
272
330
273
330
274
330
26E
330
26D
330
276
330
27A
330
27D
330
27E
330
27F
330
282
330
285
330
288
330
28B
330
28E
330
291
330
316
102
}
330
A
100
AcDbSymbolTableRecord
100
AcDbDimStyleTableRecord
  2
SANINDUSA
 70
     0
 40
5.0
 41
2.0
 42
1.0
 43
1.0
 44
1.0
 73
     0
 74
     0
 77
     1
 78
     8
140
2.0
141
0.0
143
0.03937007874016
147
1.0
171
     3
172
     1
176
   256
177
   256
178
   256
179
     1
271
     1
272
     1
274
     3
278
    44
283
     0
284
     8
340
1EB
371
    -1
372
    -1
1001
ACAD_DSTYLE_DIMEXT_LENGTH
1070
   378
1040
1.0
1001
ACAD_DSTYLE_DIMEXT_ENABLED
1070
   383
1070
     0
1001
ACAD_DSTYLE_DIMARC_LENGTH_SYMBOL
1070
   379
1070
     0
1001
ACAD_DSTYLE_DIMJOGGED_JOGANGLE_SYMBOL
1070
   384
1040
1.570796326794896
  0
ENDTAB
  0
TABLE
  2
BLOCK_RECORD
  5
1
330
0
100
AcDbSymbolTable
 70
    81
  0
BLOCK_RECORD
  5
23
330
1
100
AcDbSymbolTableRecord
100
AcDbBlockTableRecord
  2
*Model_Space
340
26
  0
BLOCK_RECORD
  5
1F
330
1
100
AcDbSymbolTableRecord
100
AcDbBlockTableRecord
  2
*Paper_Space
340
22
  0
BLOCK_RECORD
  5
27
330
1
100
AcDbSymbolTableRecord
100
AcDbBlockTableRecord
  2
*Paper_Space0
340
2A
  0
BLOCK_RECORD
  5
2F
330
1
100
AcDbSymbolTableRecord
100
AcDbBlockTableRecord
  2
*D1
340
0
  0
BLOCK_RECORD
  5
3D
330
1
100
AcDbSymbolTableRecord
100
AcDbBlockTableRecord
  2
*D2
340
0
  0
BLOCK_RECORD
  5
45
330
1
100
AcDbSymbolTableRecord
100
AcDbBlockTableRecord
  2
*D3
340
0
  0
BLOCK_RECORD
  5
4D
330
1
100
AcDbSymbolTableRecord
100
AcDbBlockTableRecord
  2
*D4
340
0
  0
BLOCK_RECORD
  5
55
330
1
100
AcDbSymbolTableRecord
100
AcDbBlockTableRecord
  2
*D5
340
0
  0
BLOCK_RECORD
  5
5E
330
1
100
AcDbSymbolTableRecord
100
AcDbBlockTableRecord
  2
*D6
340
0
  0
BLOCK_RECORD
  5
67
330
1
100
AcDbSymbolTableRecord
100
AcDbBlockTableRecord
  2
*D7
340
0
  0
BLOCK_RECORD
  5
6F
330
1
100
AcDbSymbolTableRecord
100
AcDbBlockTableRecord
  2
*D8
340
0
  0
BLOCK_RECORD
  5
7B
330
1
100
AcDbSymbolTableRecord
100
AcDbBlockTableRecord
  2
*D9
340
0
  0
BLOCK_RECORD
  5
89
330
1
100
AcDbSymbolTableRecord
100
AcDbBlockTableRecord
  2
*D10
340
0
  0
BLOCK_RECORD
  5
91
330
1
100
AcDbSymbolTableRecord
100
AcDbBlockTableRecord
  2
*D11
340
0
  0
BLOCK_RECORD
  5
9D
330
1
100
AcDbSymbolTableRecord
100
AcDbBlockTableRecord
  2
*D12
340
0
  0
BLOCK_RECORD
  5
A9
330
1
100
AcDbSymbolTableRecord
100
AcDbBlockTableRecord
  2
*D13
340
0
  0
BLOCK_RECORD
  5
B5
330
1
100
AcDbSymbolTableRecord
100
AcDbBlockTableRecord
  2
*D14
340
0
  0
BLOCK_RECORD
  5
C3
330
1
100
AcDbSymbolTableRecord
100
AcDbBlockTableRecord
  2
*D15
340
0
  0
BLOCK_RECORD
  5
CF
330
1
100
AcDbSymbolTableRecord
100
AcDbBlockTableRecord
  2
*D16
340
0
  0
BLOCK_RECORD
  5
DB
330
1
100
AcDbSymbolTableRecord
100
AcDbBlockTableRecord
  2
*D17
340
0
  0
BLOCK_RECORD
  5
E7
330
1
100
AcDbSymbolTableRecord
100
AcDbBlockTableRecord
  2
*D18
340
0
  0
BLOCK_RECORD
  5
F3
330
1
100
AcDbSymbolTableRecord
100
AcDbBlockTableRecord
  2
*D19
340
0
  0
BLOCK_RECORD
  5
FF
330
1
100
AcDbSymbolTableRecord
100
AcDbBlockTableRecord
  2
*D20
340
0
  0
BLOCK_RECORD
  5
10B
330
1
100
AcDbSymbolTableRecord
100
AcDbBlockTableRecord
  2
*D21
340
0
  0
BLOCK_RECORD
  5
117
330
1
100
AcDbSymbolTableRecord
100
AcDbBlockTableRecord
  2
*D22
340
0
  0
BLOCK_RECORD
  5
123
330
1
100
AcDbSymbolTableRecord
100
AcDbBlockTableRecord
  2
*D23
340
0
  0
BLOCK_RECORD
  5
12F
330
1
100
AcDbSymbolTableRecord
100
AcDbBlockTableRecord
  2
*D24
340
0
  0
BLOCK_RECORD
  5
13B
330
1
100
AcDbSymbolTableRecord
100
AcDbBlockTableRecord
  2
*D25
340
0
  0
BLOCK_RECORD
  5
147
330
1
100
AcDbSymbolTableRecord
100
AcDbBlockTableRecord
  2
*D26
340
0
  0
BLOCK_RECORD
  5
14F
330
1
100
AcDbSymbolTableRecord
100
AcDbBlockTableRecord
  2
*D27
340
0
  0
BLOCK_RECORD
  5
157
330
1
100
AcDbSymbolTableRecord
100
AcDbBlockTableRecord
  2
*D28
340
0
  0
BLOCK_RECORD
  5
15F
330
1
100
AcDbSymbolTableRecord
100
AcDbBlockTableRecord
  2
*D29
340
0
  0
BLOCK_RECORD
  5
167
330
1
100
AcDbSymbolTableRecord
100
AcDbBlockTableRecord
  2
*D30
340
0
  0
BLOCK_RECORD
  5
173
330
1
100
AcDbSymbolTableRecord
100
AcDbBlockTableRecord
  2
*D31
340
0
  0
BLOCK_RECORD
  5
181
330
1
100
AcDbSymbolTableRecord
100
AcDbBlockTableRecord
  2
*D32
340
0
  0
BLOCK_RECORD
  5
18D
330
1
100
AcDbSymbolTableRecord
100
AcDbBlockTableRecord
  2
*D33
340
0
  0
BLOCK_RECORD
  5
199
330
1
100
AcDbSymbolTableRecord
100
AcDbBlockTableRecord
  2
*D34
340
0
  0
BLOCK_RECORD
  5
1A5
330
1
100
AcDbSymbolTableRecord
100
AcDbBlockTableRecord
  2
*D35
340
0
  0
BLOCK_RECORD
  5
1B1
330
1
100
AcDbSymbolTableRecord
100
AcDbBlockTableRecord
  2
*D36
340
0
  0
BLOCK_RECORD
  5
1BD
330
1
100
AcDbSymbolTableRecord
100
AcDbBlockTableRecord
  2
*D37
340
0
  0
BLOCK_RECORD
  5
1CB
330
1
100
AcDbSymbolTableRecord
100
AcDbBlockTableRecord
  2
*D38
340
0
  0
BLOCK_RECORD
  5
1D7
330
1
100
AcDbSymbolTableRecord
100
AcDbBlockTableRecord
  2
*D39
340
0
  0
BLOCK_RECORD
  5
446
330
1
100
AcDbSymbolTableRecord
100
AcDbBlockTableRecord
  2
*D41
340
0
  0
BLOCK_RECORD
  5
452
330
1
100
AcDbSymbolTableRecord
100
AcDbBlockTableRecord
  2
*D42
340
0
  0
BLOCK_RECORD
  5
45E
330
1
100
AcDbSymbolTableRecord
100
AcDbBlockTableRecord
  2
*D43
340
0
  0
BLOCK_RECORD
  5
46A
330
1
100
AcDbSymbolTableRecord
100
AcDbBlockTableRecord
  2
*D44
340
0
  0
BLOCK_RECORD
  5
476
330
1
100
AcDbSymbolTableRecord
100
AcDbBlockTableRecord
  2
*D45
340
0
  0
BLOCK_RECORD
  5
482
330
1
100
AcDbSymbolTableRecord
100
AcDbBlockTableRecord
  2
*D46
340
0
  0
BLOCK_RECORD
  5
48E
330
1
100
AcDbSymbolTableRecord
100
AcDbBlockTableRecord
  2
*D47
340
0
  0
BLOCK_RECORD
  5
49A
330
1
100
AcDbSymbolTableRecord
100
AcDbBlockTableRecord
  2
*D48
340
0
  0
BLOCK_RECORD
  5
4A2
330
1
100
AcDbSymbolTableRecord
100
AcDbBlockTableRecord
  2
*D49
340
0
  0
BLOCK_RECORD
  5
4AA
330
1
100
AcDbSymbolTableRecord
100
AcDbBlockTableRecord
  2
*D50
340
0
  0
BLOCK_RECORD
  5
4B6
330
1
100
AcDbSymbolTableRecord
100
AcDbBlockTableRecord
  2
*D51
340
0
  0
BLOCK_RECORD
  5
4C4
330
1
100
AcDbSymbolTableRecord
100
AcDbBlockTableRecord
  2
*D52
340
0
  0
BLOCK_RECORD
  5
4D2
330
1
100
AcDbSymbolTableRecord
100
AcDbBlockTableRecord
  2
*D53
340
0
  0
BLOCK_RECORD
  5
4DA
330
1
100
AcDbSymbolTableRecord
100
AcDbBlockTableRecord
  2
*D54
340
0
  0
BLOCK_RECORD
  5
4E2
330
1
100
AcDbSymbolTableRecord
100
AcDbBlockTableRecord
  2
*D55
340
0
  0
BLOCK_RECORD
  5
4EA
330
1
100
AcDbSymbolTableRecord
100
AcDbBlockTableRecord
  2
*D56
340
0
  0
BLOCK_RECORD
  5
4F3
330
1
100
AcDbSymbolTableRecord
100
AcDbBlockTableRecord
  2
*D57
340
0
  0
BLOCK_RECORD
  5
4FC
330
1
100
AcDbSymbolTableRecord
100
AcDbBlockTableRecord
  2
*D58
340
0
  0
BLOCK_RECORD
  5
504
330
1
100
AcDbSymbolTableRecord
100
AcDbBlockTableRecord
  2
*D59
340
0
  0
BLOCK_RECORD
  5
510
330
1
100
AcDbSymbolTableRecord
100
AcDbBlockTableRecord
  2
*D60
340
0
  0
BLOCK_RECORD
  5
51E
330
1
100
AcDbSymbolTableRecord
100
AcDbBlockTableRecord
  2
*D61
340
0
  0
BLOCK_RECORD
  5
52A
330
1
100
AcDbSymbolTableRecord
100
AcDbBlockTableRecord
  2
*D62
340
0
  0
BLOCK_RECORD
  5
538
330
1
100
AcDbSymbolTableRecord
100
AcDbBlockTableRecord
  2
*D63
340
0
  0
BLOCK_RECORD
  5
544
330
1
100
AcDbSymbolTableRecord
100
AcDbBlockTableRecord
  2
*D64
340
0
  0
BLOCK_RECORD
  5
550
330
1
100
AcDbSymbolTableRecord
100
AcDbBlockTableRecord
  2
*D65
340
0
  0
BLOCK_RECORD
  5
55C
330
1
100
AcDbSymbolTableRecord
100
AcDbBlockTableRecord
  2
*D66
340
0
  0
BLOCK_RECORD
  5
5B1
330
1
100
AcDbSymbolTableRecord
100
AcDbBlockTableRecord
  2
*D67
340
0
  0
BLOCK_RECORD
  5
5B9
330
1
100
AcDbSymbolTableRecord
100
AcDbBlockTableRecord
  2
*D68
340
0
  0
BLOCK_RECORD
  5
5D5
330
1
100
AcDbSymbolTableRecord
100
AcDbBlockTableRecord
  2
*D69
340
0
  0
BLOCK_RECORD
  5
5E1
330
1
100
AcDbSymbolTableRecord
100
AcDbBlockTableRecord
  2
*D70
340
0
  0
BLOCK_RECORD
  5
5ED
330
1
100
AcDbSymbolTableRecord
100
AcDbBlockTableRecord
  2
*D71
340
0
  0
BLOCK_RECORD
  5
5F9
330
1
100
AcDbSymbolTableRecord
100
AcDbBlockTableRecord
  2
*D72
340
0
  0
BLOCK_RECORD
  5
605
330
1
100
AcDbSymbolTableRecord
100
AcDbBlockTableRecord
  2
*D73
340
0
  0
BLOCK_RECORD
  5
611
330
1
100
AcDbSymbolTableRecord
100
AcDbBlockTableRecord
  2
*D74
340
0
  0
BLOCK_RECORD
  5
61F
330
1
100
AcDbSymbolTableRecord
100
AcDbBlockTableRecord
  2
*D75
340
0
  0
BLOCK_RECORD
  5
62B
330
1
100
AcDbSymbolTableRecord
100
AcDbBlockTableRecord
  2
*D76
340
0
  0
BLOCK_RECORD
  5
677
330
1
100
AcDbSymbolTableRecord
100
AcDbBlockTableRecord
  2
*D77
340
0
  0
BLOCK_RECORD
  5
67F
330
1
100
AcDbSymbolTableRecord
100
AcDbBlockTableRecord
  2
*D78
340
0
  0
BLOCK_RECORD
  5
68B
330
1
100
AcDbSymbolTableRecord
100
AcDbBlockTableRecord
  2
*D79
340
0
  0
ENDTAB
  0
ENDSEC
  0
SECTION
  2
BLOCKS
  0
BLOCK
  5
24
330
23
100
AcDbEntity
  8
0
100
AcDbBlockBegin
  2
*Model_Space
 70
     0
 10
0.0
 20
0.0
 30
0.0
  3
*Model_Space
  1

  0
ENDBLK
  5
25
330
23
100
AcDbEntity
  8
0
100
AcDbBlockEnd
  0
BLOCK
  5
20
330
1F
100
AcDbEntity
 67
     1
  8
0
100
AcDbBlockBegin
  2
*Paper_Space
 70
     0
 10
0.0
 20
0.0
 30
0.0
  3
*Paper_Space
  1

  0
ENDBLK
  5
21
330
1F
100
AcDbEntity
 67
     1
  8
0
100
AcDbBlockEnd
  0
BLOCK
  5
28
330
27
100
AcDbEntity
 67
     1
  8
0
100
AcDbBlockBegin
  2
*Paper_Space0
 70
     0
 10
0.0
 20
0.0
 30
0.0
  3
*Paper_Space0
  1

  0
ENDBLK
  5
29
330
27
100
AcDbEntity
 67
     1
  8
0
100
AcDbBlockEnd
  0
BLOCK
  5
30
330
2F
100
AcDbEntity
  8
0
100
AcDbBlockBegin
  2
*D1
 70
     1
 10
0.0
 20
0.0
 30
0.0
  3
*D1
  1

  0
LINE
  5
31
330
2F
100
AcDbEntity
  8
cotas
100
AcDbLine
 10
3272.753116456039
 20
937.1772781772797
 30
0.0
 11
3285.369307320266
 21
948.1443655773134
 31
0.0
  0
LINE
  5
32
330
2F
100
AcDbEntity
  8
cotas
100
AcDbLine
 10
3193.20601136154
 20
937.1772861207563
 30
0.0
 11
3180.589829635247
 21
948.1443655772983
 31
0.0
  0
ARC
  5
33
330
2F
100
AcDbEntity
  8
cotas
100
AcDbCircle
 10
3232.979568477764
 20
902.6026604038579
 30
0.0
 40
64.41708468447479
100
AcDbArc
 50
49.90345601700723
 51
130.0965439830095
  0
SOLID
  5
34
330
2F
100
AcDbEntity
  8
cotas
100
AcDbTrace
 10
3275.638345876331
 20
953.0669358864308
 30
0.0
 11
3273.299979434082
 21
950.6914036317821
 31
0.0
 12
3281.595759419153
 22
944.8640704323604
 32
0.0
 13
3281.595759419153
 23
944.8640704323604
 33
0.0
  0
SOLID
  5
35
330
2F
100
AcDbEntity
  8
cotas
100
AcDbTrace
 10
3192.659157521431
 20
950.6914036317704
 30
0.0
 11
3190.320791079181
 21
953.0669358864184
 31
0.0
 12
3184.363377536362
 22
944.8640704323462
 32
0.0
 13
3184.363377536362
 23
944.8640704323462
 33
0.0
  0
MTEXT
  5
36
330
2F
100
AcDbEntity
  8
cotas
100
AcDbMText
 10
3232.979568477754
 20
978.3763602663045
 30
0.0
 40
10.0
 41
0.0
 71
     5
 72
     1
  1
98,0°
  7
SANINDUSA
 73
     1
 44
1.0
1001
ACAD
1000
MTEXTBEGIN
1070
    73
1070
     1
1070
    44
1040
1.0
1070
    74
1070
     0
1000
MTEXTEND
  0
POINT
  5
37
330
2F
100
AcDbEntity
  8
Defpoints
 62
     0
100
AcDbPoint
 10
3251.09526656289
 20
964.4199903537622
 30
0.0
  0
POINT
  5
38
330
2F
100
AcDbEntity
  8
Defpoints
 62
     0
100
AcDbPoint
 10
3196.979559262655
 20
933.8969909758043
 30
0.0
  0
POINT
  5
39
330
2F
100
AcDbEntity
  8
Defpoints
 62
     0
100
AcDbPoint
 10
3255.979568477756
 20
922.5962553736307
 30
0.0
  0
POINT
  5
3A
330
2F
100
AcDbEntity
  8
Defpoints
 62
     0
100
AcDbPoint
 10
3268.979568554925
 20
933.8969830323266
 30
0.0
  0
POINT
  5
3B
330
2F
100
AcDbEntity
  8
Defpoints
 62
     0
100
AcDbPoint
 10
3209.979568477756
 20
922.5962553736307
 30
0.0
  0
ENDBLK
  5
3C
330
2F
100
AcDbEntity
  8
0
100
AcDbBlockEnd
  0
BLOCK
  5
3E
330
3D
100
AcDbEntity
  8
0
100
AcDbBlockBegin
  2
*D2
 70
     1
 10
0.0
 20
0.0
 30
0.0
  3
*D2
  1

  0
LINE
  5
3F
330
3D
100
AcDbEntity
  8
cotas
100
AcDbLine
 10
3161.96015557613
 20
878.9772679200314
 30
0.0
 11
3189.744824432638
 21
914.1229741867872
 31
0.0
  0
MTEXT
  5
40
330
3D
100
AcDbEntity
  8
cotas
100
AcDbMText
 10
3164.746271051303
 20
898.9564808213398
 30
0.0
 40
10.0
 41
0.0
 71
     5
 72
     1
  1
R10
  7
SANINDUSA
 11
0.6201674700545603
 21
0.7844694443291762
 31
0.0
 73
     1
 44
1.0
1001
ACAD
1000
MTEXTBEGIN
1070
    73
1070
     1
1070
    44
1040
1.0
1070
    74
1070
     0
1000
MTEXTEND
  0
SOLID
  5
41
330
3D
100
AcDbEntity
  8
cotas
100
AcDbTrace
 10
3188.437375358756
 20
915.1565866368782
 30
0.0
 11
3191.05227350652
 21
913.0893617366963
 31
0.0
 12
3195.946499133184
 22
921.967668630079
 32
0.0
 13
3195.946499133184
 23
921.967668630079
 33
0.0
  0
POINT
  5
42
330
3D
100
AcDbEntity
  8
Defpoints
 62
     0
100
AcDbPoint
 10
3195.946499133184
 20
921.967668630079
 30
0.0
  0
POINT
  5
43
330
3D
100
AcDbEntity
  8
Defpoints
 62
     0
100
AcDbPoint
 10
3189.741346057447
 20
914.1185742800125
 30
0.0
  0
ENDBLK
  5
44
330
3D
100
AcDbEntity
  8
0
100
AcDbBlockEnd
  0
BLOCK
  5
46
330
45
100
AcDbEntity
  8
0
100
AcDbBlockBegin
  2
*D3
 70
     1
 10
0.0
 20
0.0
 30
0.0
  3
*D3
  1

  0
LINE
  5
47
330
45
100
AcDbEntity
  8
cotas
100
AcDbLine
 10
3308.744120399145
 20
1015.400489854498
 30
0.0
 11
3369.746331721223
 21
986.6105195569618
 31
0.0
  0
MTEXT
  5
48
330
45
100
AcDbEntity
  8
cotas
100
AcDbMText
 10
3339.561964763186
 20
1013.391592479344
 30
0.0
 40
10.0
 41
0.0
 71
     5
 72
     1
  1
R514,6
  7
SANINDUSA
 11
0.9043438138049932
 21
-0.4268047169756207
 31
0.0
 73
     1
 44
1.0
1001
ACAD
1000
MTEXTBEGIN
1070
    73
1070
     1
1070
    44
1040
1.0
1070
    74
1070
     0
1000
MTEXTEND
  0
SOLID
  5
49
330
45
100
AcDbEntity
  8
cotas
100
AcDbTrace
 10
3370.457672916181
 20
988.1177592466368
 30
0.0
 11
3369.034990526263
 21
985.103279867287
 31
0.0
 12
3378.789769859273
 22
982.3424723872056
 32
0.0
 13
3378.789769859273
 23
982.3424723872056
 33
0.0
  0
POINT
  5
4A
330
45
100
AcDbEntity
  8
Defpoints
 62
     0
100
AcDbPoint
 10
3378.789769859273
 20
982.3424723872056
 30
0.0
  0
POINT
  5
4B
330
45
100
AcDbEntity
  8
Defpoints
 62
     0
100
AcDbPoint
 10
2913.379755425442
 20
1201.992550660295
 30
0.0
  0
ENDBLK
  5
4C
330
45
100
AcDbEntity
  8
0
100
AcDbBlockEnd
  0
BLOCK
  5
4E
330
4D
100
AcDbEntity
  8
0
100
AcDbBlockBegin
  2
*D4
 70
     1
 10
0.0
 20
0.0
 30
0.0
  3
*D4
  1

  0
LINE
  5
4F
330
4D
100
AcDbEntity
  8
cotas
100
AcDbLine
 10
3164.650826474282
 20
1013.393098407408
 30
0.0
 11
3099.820453139038
 21
974.7371612098367
 31
0.0
  0
MTEXT
  5
50
330
4D
100
AcDbEntity
  8
cotas
100
AcDbMText
 10
3130.719224382939
 20
1006.371408035643
 30
0.0
 40
10.0
 41
0.0
 71
     5
 72
     1
  1
R1343,1
  7
SANINDUSA
 11
0.85890582699685
 21
0.5121335571419403
 31
0.0
 73
     1
 44
1.0
1001
ACAD
1000
MTEXTBEGIN
1070
    73
1070
     1
1070
    44
1040
1.0
1070
    74
1070
     0
1000
MTEXTEND
  0
SOLID
  5
51
330
4D
100
AcDbEntity
  8
cotas
100
AcDbTrace
 10
3098.966897210469
 20
976.1686709214981
 30
0.0
 11
3100.674009067609
 21
973.3056514981752
 31
0.0
 12
3091.23139486907
 22
969.6158256384173
 32
0.0
 13
3091.23139486907
 23
969.6158256384173
 33
0.0
  0
POINT
  5
52
330
4D
100
AcDbEntity
  8
Defpoints
 62
     0
100
AcDbPoint
 10
3091.23139486907
 20
969.6158256384173
 30
0.0
  0
POINT
  5
53
330
4D
100
AcDbEntity
  8
Defpoints
 62
     0
100
AcDbPoint
 10
4244.860164744539
 20
1657.481697503986
 30
0.0
  0
ENDBLK
  5
54
330
4D
100
AcDbEntity
  8
0
100
AcDbBlockEnd
  0
BLOCK
  5
56
330
55
100
AcDbEntity
  8
0
100
AcDbBlockBegin
  2
*D5
 70
     1
 10
0.0
 20
0.0
 30
0.0
  3
*D5
  1

  0
LINE
  5
57
330
55
100
AcDbEntity
  8
cotas
100
AcDbLine
 10
3467.661058860863
 20
1101.203154223745
 30
0.0
 11
3444.612185431694
 21
1073.561291811031
 31
0.0
  0
MTEXT
  5
58
330
55
100
AcDbEntity
  8
cotas
100
AcDbMText
 10
3451.578440445977
 20
1097.693175926597
 30
0.0
 40
10.0
 41
0.0
 71
     5
 72
     1
  1
R5
  7
SANINDUSA
 11
0.6404137439080369
 21
0.768030101372135
 31
0.0
 73
     1
 44
1.0
1001
ACAD
1000
MTEXTBEGIN
1070
    73
1070
     1
1070
    44
1040
1.0
1070
    74
1070
     0
1000
MTEXTEND
  0
LINE
  5
59
330
55
100
AcDbEntity
  8
cotas
100
AcDbLine
 10
3435.005979276291
 20
1062.040840294307
 30
0.0
 11
3438.208047992614
 21
1065.880990797309
 31
0.0
  0
SOLID
  5
5A
330
55
100
AcDbEntity
  8
cotas
100
AcDbTrace
 10
3443.332135262741
 20
1074.628648050877
 30
0.0
 11
3445.892235600648
 21
1072.493935571184
 31
0.0
 12
3438.208047992614
 22
1065.880990797309
 32
0.0
 13
3438.208047992614
 23
1065.880990797309
 33
0.0
  0
POINT
  5
5B
330
55
100
AcDbEntity
  8
Defpoints
 62
     0
100
AcDbPoint
 10
3438.208047992614
 20
1065.880990797309
 30
0.0
  0
POINT
  5
5C
330
55
100
AcDbEntity
  8
Defpoints
 62
     0
100
AcDbPoint
 10
3435.005979276291
 20
1062.040840294307
 30
0.0
  0
ENDBLK
  5
5D
330
55
100
AcDbEntity
  8
0
100
AcDbBlockEnd
  0
BLOCK
  5
5F
330
5E
100
AcDbEntity
  8
0
100
AcDbBlockBegin
  2
*D6
 70
     1
 10
0.0
 20
0.0
 30
0.0
  3
*D6
  1

  0
LINE
  5
60
330
5E
100
AcDbEntity
  8
cotas
100
AcDbLine
 10
3089.188746349706
 20
1061.73562115524
 30
0.0
 11
3064.891642818968
 21
1035.184276857562
 31
0.0
  0
MTEXT
  5
61
330
5E
100
AcDbEntity
  8
cotas
100
AcDbMText
 10
3072.961578440053
 20
1058.969832957067
 30
0.0
 40
10.0
 41
0.0
 71
     5
 72
     1
  1
R5
  7
SANINDUSA
 11
0.6750958603707743
 21
0.7377300178996679
 31
0.0
 73
     1
 44
1.0
1001
ACAD
1000
MTEXTBEGIN
1070
    73
1070
     1
1070
    44
1040
1.0
1070
    74
1070
     0
1000
MTEXTEND
  0
LINE
  5
62
330
5E
100
AcDbEntity
  8
cotas
100
AcDbLine
 10
3054.765204914111
 20
1024.118326589837
 30
0.0
 11
3058.14068421526
 21
1027.806976678566
 31
0.0
  0
SOLID
  5
63
330
5E
100
AcDbEntity
  8
cotas
100
AcDbTrace
 10
3063.662092789135
 20
1036.309436624847
 30
0.0
 11
3066.121192848801
 21
1034.059117090277
 31
0.0
 12
3058.14068421526
 22
1027.806976678566
 32
0.0
 13
3058.14068421526
 23
1027.806976678566
 33
0.0
  0
POINT
  5
64
330
5E
100
AcDbEntity
  8
Defpoints
 62
     0
100
AcDbPoint
 10
3058.14068421526
 20
1027.806976678566
 30
0.0
  0
POINT
  5
65
330
5E
100
AcDbEntity
  8
Defpoints
 62
     0
100
AcDbPoint
 10
3054.765204914111
 20
1024.118326589837
 30
0.0
  0
ENDBLK
  5
66
330
5E
100
AcDbEntity
  8
0
100
AcDbBlockEnd
  0
BLOCK
  5
68
330
67
100
AcDbEntity
  8
0
100
AcDbBlockBegin
  2
*D7
 70
     1
 10
0.0
 20
0.0
 30
0.0
  3
*D7
  1

  0
LINE
  5
69
330
67
100
AcDbEntity
  8
cotas
100
AcDbLine
 10
3027.391315540731
 20
1110.751434707196
 30
0.0
 11
3017.088346553153
 21
1044.210568301452
 31
0.0
  0
MTEXT
  5
6A
330
67
100
AcDbEntity
  8
cotas
100
AcDbMText
 10
3011.782016895649
 20
1084.159836094098
 30
0.0
 40
10.0
 41
0.0
 71
     5
 72
     1
  1
R888,7
  7
SANINDUSA
 11
0.1530133734540676
 21
0.988224118074542
 31
0.0
 73
     1
 44
1.0
1001
ACAD
1000
MTEXTBEGIN
1070
    73
1070
     1
1070
    44
1040
1.0
1070
    74
1070
     0
1000
MTEXTEND
  0
SOLID
  5
6B
330
67
100
AcDbEntity
  8
cotas
100
AcDbTrace
 10
3015.441306356362
 20
1044.465590590542
 30
0.0
 11
3018.735386749944
 21
1043.955546012362
 31
0.0
 12
3015.558212818612
 22
1034.328327120706
 32
0.0
 13
3015.558212818612
 23
1034.328327120706
 33
0.0
  0
POINT
  5
6C
330
67
100
AcDbEntity
  8
Defpoints
 62
     0
100
AcDbPoint
 10
3015.558212818612
 20
1034.328327120706
 30
0.0
  0
POINT
  5
6D
330
67
100
AcDbEntity
  8
Defpoints
 62
     0
100
AcDbPoint
 10
3151.543031465532
 20
1912.574943382777
 30
0.0
  0
ENDBLK
  5
6E
330
67
100
AcDbEntity
  8
0
100
AcDbBlockEnd
  0
BLOCK
  5
70
330
6F
100
AcDbEntity
  8
0
100
AcDbBlockBegin
  2
*D8
 70
     1
 10
0.0
 20
0.0
 30
0.0
  3
*D8
  1

  0
LINE
  5
71
330
6F
100
AcDbEntity
  8
cotas
100
AcDbLine
 10
3440.005979276292
 20
1067.040840289281
 30
0.0
 11
3470.005979271266
 21
1067.040840289281
 31
0.0
  0
LINE
  5
72
330
6F
100
AcDbEntity
  8
cotas
100
AcDbLine
 10
3360.643810820989
 20
938.8288302774141
 30
0.0
 11
3470.005979271265
 21
938.8288302774141
 31
0.0
  0
LINE
  5
73
330
6F
100
AcDbEntity
  8
cotas
100
AcDbLine
 10
3465.005979271265
 20
1057.040840289281
 30
0.0
 11
3465.005979271265
 21
948.828830277414
 31
0.0
  0
SOLID
  5
74
330
6F
100
AcDbEntity
  8
cotas
100
AcDbTrace
 10
3463.339312604599
 20
1057.040840289281
 30
0.0
 11
3466.672645937932
 21
1057.040840289281
 31
0.0
 12
3465.005979271265
 22
1067.040840289281
 32
0.0
 13
3465.005979271265
 23
1067.040840289281
 33
0.0
  0
SOLID
  5
75
330
6F
100
AcDbEntity
  8
cotas
100
AcDbTrace
 10
3463.339312604599
 20
948.828830277414
 30
0.0
 11
3466.672645937932
 21
948.828830277414
 31
0.0
 12
3465.005979271265
 22
938.8288302774141
 32
0.0
 13
3465.005979271265
 23
938.8288302774141
 33
0.0
  0
MTEXT
  5
76
330
6F
100
AcDbEntity
  8
cotas
100
AcDbMText
 10
3454.777638102696
 20
1002.934835283348
 30
0.0
 40
10.0
 41
0.0
 71
     5
 72
     1
  1
128
  7
SANINDUSA
 11
0.0000000000000001
 21
1.0
 31
0.0
 73
     1
 44
1.0
1001
ACAD
1000
MTEXTBEGIN
1070
    73
1070
     1
1070
    44
1040
1.0
1070
    74
1070
     0
1000
MTEXTEND
  0
POINT
  5
77
330
6F
100
AcDbEntity
  8
Defpoints
 62
     0
100
AcDbPoint
 10
3435.005979276291
 20
1067.040840289281
 30
0.0
  0
POINT
  5
78
330
6F
100
AcDbEntity
  8
Defpoints
 62
     0
100
AcDbPoint
 10
3355.643810820989
 20
938.8288302774141
 30
0.0
  0
POINT
  5
79
330
6F
100
AcDbEntity
  8
Defpoints
 62
     0
100
AcDbPoint
 10
3465.005979271265
 20
938.8288302774141
 30
0.0
  0
ENDBLK
  5
7A
330
6F
100
AcDbEntity
  8
0
100
AcDbBlockEnd
  0
BLOCK
  5
7C
330
7B
100
AcDbEntity
  8
0
100
AcDbBlockBegin
  2
*D9
 70
     1
 10
0.0
 20
0.0
 30
0.0
  3
*D9
  1

  0
LINE
  5
7D
330
7B
100
AcDbEntity
  8
cotas
100
AcDbLine
 10
3360.643810820989
 20
938.8288302774141
 30
0.0
 11
3402.962268052701
 21
938.8288302774141
 31
0.0
  0
LINE
  5
7E
330
7B
100
AcDbEntity
  8
cotas
100
AcDbLine
 10
3273.979568554926
 20
933.8969830323266
 30
0.0
 11
3402.962268052701
 21
933.8969830323266
 31
0.0
  0
LINE
  5
7F
330
7B
100
AcDbEntity
  8
cotas
100
AcDbLine
 10
3397.962268052701
 20
948.828830277414
 30
0.0
 11
3397.962268052701
 21
958.828830277414
 31
0.0
  0
LINE
  5
80
330
7B
100
AcDbEntity
  8
cotas
100
AcDbLine
 10
3397.962268052701
 20
923.8969830323267
 30
0.0
 11
3397.962268052701
 21
897.3825438113729
 31
0.0
  0
LINE
  5
81
330
7B
100
AcDbEntity
  8
cotas
100
AcDbLine
 10
3397.962268052701
 20
938.8288302774141
 30
0.0
 11
3397.962268052701
 21
933.8969830323266
 31
0.0
  0
SOLID
  5
82
330
7B
100
AcDbEntity
  8
cotas
100
AcDbTrace
 10
3396.295601386035
 20
948.828830277414
 30
0.0
 11
3399.628934719368
 21
948.828830277414
 31
0.0
 12
3397.962268052701
 22
938.8288302774141
 32
0.0
 13
3397.962268052701
 23
938.8288302774141
 33
0.0
  0
SOLID
  5
83
330
7B
100
AcDbEntity
  8
cotas
100
AcDbTrace
 10
3396.295601386035
 20
923.8969830323267
 30
0.0
 11
3399.628934719368
 21
923.8969830323267
 31
0.0
 12
3397.962268052701
 22
933.8969830323266
 32
0.0
 13
3397.962268052701
 23
933.8969830323266
 33
0.0
  0
MTEXT
  5
84
330
7B
100
AcDbEntity
  8
cotas
100
AcDbMText
 10
3387.858171343501
 20
905.6397634218503
 30
0.0
 40
10.0
 41
0.0
 71
     5
 72
     1
  1
5
  7
SANINDUSA
 11
0.0000000000000001
 21
1.0
 31
0.0
 73
     1
 44
1.0
1001
ACAD
1000
MTEXTBEGIN
1070
    73
1070
     1
1070
    44
1040
1.0
1070
    74
1070
     0
1000
MTEXTEND
  0
POINT
  5
85
330
7B
100
AcDbEntity
  8
Defpoints
 62
     0
100
AcDbPoint
 10
3355.643810820989
 20
938.8288302774141
 30
0.0
  0
POINT
  5
86
330
7B
100
AcDbEntity
  8
Defpoints
 62
     0
100
AcDbPoint
 10
3268.979568554925
 20
933.8969830323266
 30
0.0
  0
POINT
  5
87
330
7B
100
AcDbEntity
  8
Defpoints
 62
     0
100
AcDbPoint
 10
3397.962268052701
 20
933.8969830323266
 30
0.0
  0
ENDBLK
  5
88
330
7B
100
AcDbEntity
  8
0
100
AcDbBlockEnd
  0
BLOCK
  5
8A
330
89
100
AcDbEntity
  8
0
100
AcDbBlockBegin
  2
*D10
 70
     1
 10
0.0
 20
0.0
 30
0.0
  3
*D10
  1

  0
LINE
  5
8B
330
89
100
AcDbEntity
  8
cotas
100
AcDbLine
 10
4205.563332395706
 20
1628.289896509551
 30
0.0
 11
4250.154788713472
 21
1598.645730624958
 31
0.0
  0
MTEXT
  5
8C
330
89
100
AcDbEntity
  8
cotas
100
AcDbMText
 10
4229.344821351411
 20
1624.734187501273
 30
0.0
 40
10.0
 41
0.0
 71
     5
 72
     1
  1
R410
  7
SANINDUSA
 11
0.832769076347108
 21
-0.5536205067372274
 31
0.0
 73
     1
 44
1.0
1001
ACAD
1000
MTEXTBEGIN
1070
    73
1070
     1
1070
    44
1040
1.0
1070
    74
1070
     0
1000
MTEXTEND
  0
SOLID
  5
8D
330
89
100
AcDbEntity
  8
cotas
100
AcDbTrace
 10
4251.077489558035
 20
1600.033679085536
 30
0.0
 11
4249.232087868911
 21
1597.25778216438
 31
0.0
 12
4258.482479476945
 22
1593.109525557586
 32
0.0
 13
4258.482479476945
 23
1593.109525557586
 33
0.0
  0
POINT
  5
8E
330
89
100
AcDbEntity
  8
Defpoints
 62
     0
100
AcDbPoint
 10
4258.482479476945
 20
1593.109525557586
 30
0.0
  0
POINT
  5
8F
330
89
100
AcDbEntity
  8
Defpoints
 62
     0
100
AcDbPoint
 10
3917.017620309722
 20
1820.113569937253
 30
0.0
  0
ENDBLK
  5
90
330
89
100
AcDbEntity
  8
0
100
AcDbBlockEnd
  0
BLOCK
  5
92
330
91
100
AcDbEntity
  8
0
100
AcDbBlockBegin
  2
*D11
 70
     1
 10
0.0
 20
0.0
 30
0.0
  3
*D11
  1

  0
LINE
  5
93
330
91
100
AcDbEntity
  8
cotas
100
AcDbLine
 10
3907.317260555424
 20
1527.050473750684
 30
0.0
 11
3907.317260555424
 21
1502.05047375074
 31
0.0
  0
LINE
  5
94
330
91
100
AcDbEntity
  8
cotas
100
AcDbLine
 10
4208.820188540793
 20
1527.050473750729
 30
0.0
 11
4208.820188540793
 21
1502.05047375074
 31
0.0
  0
LINE
  5
95
330
91
100
AcDbEntity
  8
cotas
100
AcDbLine
 10
3917.317260555424
 20
1507.05047375074
 30
0.0
 11
4198.820188540793
 21
1507.05047375074
 31
0.0
  0
SOLID
  5
96
330
91
100
AcDbEntity
  8
cotas
100
AcDbTrace
 10
3917.317260555424
 20
1508.717140417407
 30
0.0
 11
3917.317260555424
 21
1505.383807084074
 31
0.0
 12
3907.317260555424
 22
1507.05047375074
 32
0.0
 13
3907.317260555424
 23
1507.05047375074
 33
0.0
  0
SOLID
  5
97
330
91
100
AcDbEntity
  8
cotas
100
AcDbTrace
 10
4198.820188540793
 20
1508.717140417407
 30
0.0
 11
4198.820188540793
 21
1505.383807084074
 31
0.0
 12
4208.820188540793
 22
1507.05047375074
 32
0.0
 13
4208.820188540793
 23
1507.05047375074
 33
0.0
  0
MTEXT
  5
98
330
91
100
AcDbEntity
  8
cotas
100
AcDbMText
 10
4058.068724548109
 20
1518.397015053628
 30
0.0
 40
10.0
 41
0.0
 71
     5
 72
     1
  1
301,5
  7
SANINDUSA
 73
     1
 44
1.0
1001
ACAD
1000
MTEXTBEGIN
1070
    73
1070
     1
1070
    44
1040
1.0
1070
    74
1070
     0
1000
MTEXTEND
  0
POINT
  5
99
330
91
100
AcDbEntity
  8
Defpoints
 62
     0
100
AcDbPoint
 10
3907.317260555424
 20
1532.050473750684
 30
0.0
  0
POINT
  5
9A
330
91
100
AcDbEntity
  8
Defpoints
 62
     0
100
AcDbPoint
 10
4208.820188540793
 20
1532.050473750729
 30
0.0
  0
POINT
  5
9B
330
91
100
AcDbEntity
  8
Defpoints
 62
     0
100
AcDbPoint
 10
4208.820188540793
 20
1507.05047375074
 30
0.0
  0
ENDBLK
  5
9C
330
91
100
AcDbEntity
  8
0
100
AcDbBlockEnd
  0
BLOCK
  5
9E
330
9D
100
AcDbEntity
  8
0
100
AcDbBlockBegin
  2
*D12
 70
     1
 10
0.0
 20
0.0
 30
0.0
  3
*D12
  1

  0
LINE
  5
9F
330
9D
100
AcDbEntity
  8
cotas
100
AcDbLine
 10
4208.820188540804
 20
1527.050473750741
 30
0.0
 11
4208.820188540804
 21
1502.05047375074
 31
0.0
  0
LINE
  5
A0
330
9D
100
AcDbEntity
  8
cotas
100
AcDbLine
 10
4302.856921515584
 20
1677.206374655496
 30
0.0
 11
4302.856921515584
 21
1502.05047375074
 31
0.0
  0
LINE
  5
A1
330
9D
100
AcDbEntity
  8
cotas
100
AcDbLine
 10
4218.820188540804
 20
1507.05047375074
 30
0.0
 11
4292.856921515585
 21
1507.05047375074
 31
0.0
  0
SOLID
  5
A2
330
9D
100
AcDbEntity
  8
cotas
100
AcDbTrace
 10
4218.820188540804
 20
1508.717140417407
 30
0.0
 11
4218.820188540804
 21
1505.383807084074
 31
0.0
 12
4208.820188540804
 22
1507.05047375074
 32
0.0
 13
4208.820188540804
 23
1507.05047375074
 33
0.0
  0
SOLID
  5
A3
330
9D
100
AcDbEntity
  8
cotas
100
AcDbTrace
 10
4292.856921515585
 20
1508.717140417407
 30
0.0
 11
4292.856921515585
 21
1505.383807084074
 31
0.0
 12
4302.856921515584
 22
1507.05047375074
 32
0.0
 13
4302.856921515584
 23
1507.05047375074
 33
0.0
  0
MTEXT
  5
A4
330
9D
100
AcDbEntity
  8
cotas
100
AcDbMText
 10
4255.838555028194
 20
1517.248593294058
 30
0.0
 40
10.0
 41
0.0
 71
     5
 72
     1
  1
94
  7
SANINDUSA
 73
     1
 44
1.0
1001
ACAD
1000
MTEXTBEGIN
1070
    73
1070
     1
1070
    44
1040
1.0
1070
    74
1070
     0
1000
MTEXTEND
  0
POINT
  5
A5
330
9D
100
AcDbEntity
  8
Defpoints
 62
     0
100
AcDbPoint
 10
4208.820188540804
 20
1532.05047375074
 30
0.0
  0
POINT
  5
A6
330
9D
100
AcDbEntity
  8
Defpoints
 62
     0
100
AcDbPoint
 10
4302.856921515584
 20
1682.206374655496
 30
0.0
  0
POINT
  5
A7
330
9D
100
AcDbEntity
  8
Defpoints
 62
     0
100
AcDbPoint
 10
4302.856921515584
 20
1507.05047375074
 30
0.0
  0
ENDBLK
  5
A8
330
9D
100
AcDbEntity
  8
0
100
AcDbBlockEnd
  0
BLOCK
  5
AA
330
A9
100
AcDbEntity
  8
0
100
AcDbBlockBegin
  2
*D13
 70
     1
 10
0.0
 20
0.0
 30
0.0
  3
*D13
  1

  0
LINE
  5
AB
330
A9
100
AcDbEntity
  8
cotas
100
AcDbLine
 10
3907.317260555424
 20
1527.050473750684
 30
0.0
 11
3907.317260555424
 21
1502.05047375074
 31
0.0
  0
LINE
  5
AC
330
A9
100
AcDbEntity
  8
cotas
100
AcDbLine
 10
3697.682602104351
 20
1690.560026156232
 30
0.0
 11
3697.682602104351
 21
1502.05047375074
 31
0.0
  0
LINE
  5
AD
330
A9
100
AcDbEntity
  8
cotas
100
AcDbLine
 10
3897.317260555424
 20
1507.05047375074
 30
0.0
 11
3707.682602104351
 21
1507.05047375074
 31
0.0
  0
SOLID
  5
AE
330
A9
100
AcDbEntity
  8
cotas
100
AcDbTrace
 10
3897.317260555424
 20
1508.717140417407
 30
0.0
 11
3897.317260555424
 21
1505.383807084074
 31
0.0
 12
3907.317260555424
 22
1507.05047375074
 32
0.0
 13
3907.317260555424
 23
1507.05047375074
 33
0.0
  0
SOLID
  5
AF
330
A9
100
AcDbEntity
  8
cotas
100
AcDbTrace
 10
3707.682602104351
 20
1508.717140417407
 30
0.0
 11
3707.682602104351
 21
1505.383807084074
 31
0.0
 12
3697.682602104351
 22
1507.05047375074
 32
0.0
 13
3697.682602104351
 23
1507.05047375074
 33
0.0
  0
MTEXT
  5
B0
330
A9
100
AcDbEntity
  8
cotas
100
AcDbMText
 10
3802.499931329887
 20
1518.397015053628
 30
0.0
 40
10.0
 41
0.0
 71
     5
 72
     1
  1
209,5
  7
SANINDUSA
 73
     1
 44
1.0
1001
ACAD
1000
MTEXTBEGIN
1070
    73
1070
     1
1070
    44
1040
1.0
1070
    74
1070
     0
1000
MTEXTEND
  0
POINT
  5
B1
330
A9
100
AcDbEntity
  8
Defpoints
 62
     0
100
AcDbPoint
 10
3907.317260555424
 20
1532.050473750684
 30
0.0
  0
POINT
  5
B2
330
A9
100
AcDbEntity
  8
Defpoints
 62
     0
100
AcDbPoint
 10
3697.682602104351
 20
1695.560026156232
 30
0.0
  0
POINT
  5
B3
330
A9
100
AcDbEntity
  8
Defpoints
 62
     0
100
AcDbPoint
 10
3697.682602104351
 20
1507.05047375074
 30
0.0
  0
ENDBLK
  5
B4
330
A9
100
AcDbEntity
  8
0
100
AcDbBlockEnd
  0
BLOCK
  5
B6
330
B5
100
AcDbEntity
  8
0
100
AcDbBlockBegin
  2
*D14
 70
     1
 10
0.0
 20
0.0
 30
0.0
  3
*D14
  1

  0
LINE
  5
B7
330
B5
100
AcDbEntity
  8
cotas
100
AcDbLine
 10
4021.997508507931
 20
1659.18016766387
 30
0.0
 11
4332.856921515585
 21
1659.18016766387
 31
0.0
  0
LINE
  5
B8
330
B5
100
AcDbEntity
  8
cotas
100
AcDbLine
 10
4302.846959394162
 20
1687.188794578587
 30
0.0
 11
4332.856921515585
 21
1687.188794578587
 31
0.0
  0
LINE
  5
B9
330
B5
100
AcDbEntity
  8
cotas
100
AcDbLine
 10
4327.856921515585
 20
1649.180167663869
 30
0.0
 11
4327.856921515585
 21
1639.180167663869
 31
0.0
  0
LINE
  5
BA
330
B5
100
AcDbEntity
  8
cotas
100
AcDbLine
 10
4327.856921515585
 20
1697.188794578587
 30
0.0
 11
4327.856921515585
 21
1707.188794578587
 31
0.0
  0
LINE
  5
BB
330
B5
100
AcDbEntity
  8
cotas
100
AcDbLine
 10
4327.856921515585
 20
1659.18016766387
 30
0.0
 11
4327.856921515585
 21
1687.188794578587
 31
0.0
  0
SOLID
  5
BC
330
B5
100
AcDbEntity
  8
cotas
100
AcDbTrace
 10
4326.190254848918
 20
1649.180167663869
 30
0.0
 11
4329.523588182252
 21
1649.180167663869
 31
0.0
 12
4327.856921515585
 22
1659.18016766387
 32
0.0
 13
4327.856921515585
 23
1659.18016766387
 33
0.0
  0
SOLID
  5
BD
330
B5
100
AcDbEntity
  8
cotas
100
AcDbTrace
 10
4326.190254848918
 20
1697.188794578587
 30
0.0
 11
4329.523588182252
 21
1697.188794578587
 31
0.0
 12
4327.856921515585
 22
1687.188794578587
 32
0.0
 13
4327.856921515585
 23
1687.188794578587
 33
0.0
  0
MTEXT
  5
BE
330
B5
100
AcDbEntity
  8
cotas
100
AcDbMText
 10
4317.628580347015
 20
1673.184481121229
 30
0.0
 40
10.0
 41
0.0
 71
     5
 72
     1
  1
28
  7
SANINDUSA
 11
0.0000000000000001
 21
1.0
 31
0.0
 73
     1
 44
1.0
1001
ACAD
1000
MTEXTBEGIN
1070
    73
1070
     1
1070
    44
1040
1.0
1070
    74
1070
     0
1000
MTEXTEND
  0
POINT
  5
BF
330
B5
100
AcDbEntity
  8
Defpoints
 62
     0
100
AcDbPoint
 10
4016.997508507931
 20
1659.18016766387
 30
0.0
  0
POINT
  5
C0
330
B5
100
AcDbEntity
  8
Defpoints
 62
     0
100
AcDbPoint
 10
4297.846959394163
 20
1687.188794578587
 30
0.0
  0
POINT
  5
C1
330
B5
100
AcDbEntity
  8
Defpoints
 62
     0
100
AcDbPoint
 10
4327.856921515585
 20
1687.188794578587
 30
0.0
  0
ENDBLK
  5
C2
330
B5
100
AcDbEntity
  8
0
100
AcDbBlockEnd
  0
BLOCK
  5
C4
330
C3
100
AcDbEntity
  8
0
100
AcDbBlockBegin
  2
*D15
 70
     1
 10
0.0
 20
0.0
 30
0.0
  3
*D15
  1

  0
LINE
  5
C5
330
C3
100
AcDbEntity
  8
cotas
100
AcDbLine
 10
4011.99750850793
 20
1659.18016766387
 30
0.0
 11
3667.682602104351
 21
1659.18016766387
 31
0.0
  0
LINE
  5
C6
330
C3
100
AcDbEntity
  8
cotas
100
AcDbLine
 10
3704.905809373972
 20
1702.146444431702
 30
0.0
 11
3667.682602104351
 21
1702.146444431702
 31
0.0
  0
LINE
  5
C7
330
C3
100
AcDbEntity
  8
cotas
100
AcDbLine
 10
3672.682602104351
 20
1669.18016766387
 30
0.0
 11
3672.682602104351
 21
1692.146444431702
 31
0.0
  0
SOLID
  5
C8
330
C3
100
AcDbEntity
  8
cotas
100
AcDbTrace
 10
3671.015935437684
 20
1669.18016766387
 30
0.0
 11
3674.349268771017
 21
1669.18016766387
 31
0.0
 12
3672.682602104351
 22
1659.18016766387
 32
0.0
 13
3672.682602104351
 23
1659.18016766387
 33
0.0
  0
SOLID
  5
C9
330
C3
100
AcDbEntity
  8
cotas
100
AcDbTrace
 10
3671.015935437684
 20
1692.146444431702
 30
0.0
 11
3674.349268771017
 21
1692.146444431702
 31
0.0
 12
3672.682602104351
 22
1702.146444431702
 32
0.0
 13
3672.682602104351
 23
1702.146444431702
 33
0.0
  0
MTEXT
  5
CA
330
C3
100
AcDbEntity
  8
cotas
100
AcDbMText
 10
3662.474408685949
 20
1680.663306047787
 30
0.0
 40
10.0
 41
0.0
 71
     5
 72
     1
  1
43
  7
SANINDUSA
 11
0.0000000000000001
 21
1.0
 31
0.0
 73
     1
 44
1.0
1001
ACAD
1000
MTEXTBEGIN
1070
    73
1070
     1
1070
    44
1040
1.0
1070
    74
1070
     0
1000
MTEXTEND
  0
POINT
  5
CB
330
C3
100
AcDbEntity
  8
Defpoints
 62
     0
100
AcDbPoint
 10
4016.997508507931
 20
1659.18016766387
 30
0.0
  0
POINT
  5
CC
330
C3
100
AcDbEntity
  8
Defpoints
 62
     0
100
AcDbPoint
 10
3709.905809373972
 20
1702.146444431702
 30
0.0
  0
POINT
  5
CD
330
C3
100
AcDbEntity
  8
Defpoints
 62
     0
100
AcDbPoint
 10
3672.682602104351
 20
1702.146444431702
 30
0.0
  0
ENDBLK
  5
CE
330
C3
100
AcDbEntity
  8
0
100
AcDbBlockEnd
  0
BLOCK
  5
D0
330
CF
100
AcDbEntity
  8
0
100
AcDbBlockBegin
  2
*D16
 70
     1
 10
0.0
 20
0.0
 30
0.0
  3
*D16
  1

  0
LINE
  5
D1
330
CF
100
AcDbEntity
  8
cotas
100
AcDbLine
 10
4016.997508507931
 20
1659.18016766387
 30
0.0
 11
3667.682602104351
 21
1659.18016766387
 31
0.0
  0
LINE
  5
D2
330
CF
100
AcDbEntity
  8
cotas
100
AcDbLine
 10
3902.317260555369
 20
1532.050473750729
 30
0.0
 11
3667.682602104351
 21
1532.050473750729
 31
0.0
  0
LINE
  5
D3
330
CF
100
AcDbEntity
  8
cotas
100
AcDbLine
 10
3672.682602104351
 20
1649.180167663869
 30
0.0
 11
3672.682602104351
 21
1542.050473750729
 31
0.0
  0
SOLID
  5
D4
330
CF
100
AcDbEntity
  8
cotas
100
AcDbTrace
 10
3671.015935437684
 20
1649.180167663869
 30
0.0
 11
3674.349268771017
 21
1649.180167663869
 31
0.0
 12
3672.682602104351
 22
1659.18016766387
 32
0.0
 13
3672.682602104351
 23
1659.18016766387
 33
0.0
  0
SOLID
  5
D5
330
CF
100
AcDbEntity
  8
cotas
100
AcDbTrace
 10
3671.015935437684
 20
1542.050473750729
 30
0.0
 11
3674.349268771017
 21
1542.050473750729
 31
0.0
 12
3672.682602104351
 22
1532.050473750729
 32
0.0
 13
3672.682602104351
 23
1532.050473750729
 33
0.0
  0
MTEXT
  5
D6
330
CF
100
AcDbEntity
  8
cotas
100
AcDbMText
 10
3662.57850539515
 20
1595.6153207073
 30
0.0
 40
10.0
 41
0.0
 71
     5
 72
     1
  1
127
  7
SANINDUSA
 11
0.0000000000000001
 21
1.0
 31
0.0
 73
     1
 44
1.0
1001
ACAD
1000
MTEXTBEGIN
1070
    73
1070
     1
1070
    44
1040
1.0
1070
    74
1070
     0
1000
MTEXTEND
  0
POINT
  5
D7
330
CF
100
AcDbEntity
  8
Defpoints
 62
     0
100
AcDbPoint
 10
4021.997508507931
 20
1659.18016766387
 30
0.0
  0
POINT
  5
D8
330
CF
100
AcDbEntity
  8
Defpoints
 62
     0
100
AcDbPoint
 10
3907.317260555369
 20
1532.050473750729
 30
0.0
  0
POINT
  5
D9
330
CF
100
AcDbEntity
  8
Defpoints
 62
     0
100
AcDbPoint
 10
3672.682602104351
 20
1532.050473750729
 30
0.0
  0
ENDBLK
  5
DA
330
CF
100
AcDbEntity
  8
0
100
AcDbBlockEnd
  0
BLOCK
  5
DC
330
DB
100
AcDbEntity
  8
0
100
AcDbBlockBegin
  2
*D17
 70
     1
 10
0.0
 20
0.0
 30
0.0
  3
*D17
  1

  0
LINE
  5
DD
330
DB
100
AcDbEntity
  8
cotas
100
AcDbLine
 10
3257.264830074899
 20
1702.157980692543
 30
0.0
 11
3417.670534630845
 21
1702.157980692543
 31
0.0
  0
LINE
  5
DE
330
DB
100
AcDbEntity
  8
cotas
100
AcDbLine
 10
3274.400183346247
 20
1532.050473750729
 30
0.0
 11
3417.670534630845
 21
1532.050473750729
 31
0.0
  0
LINE
  5
DF
330
DB
100
AcDbEntity
  8
cotas
100
AcDbLine
 10
3412.670534630845
 20
1692.157980692543
 30
0.0
 11
3412.670534630845
 21
1542.050473750729
 31
0.0
  0
SOLID
  5
E0
330
DB
100
AcDbEntity
  8
cotas
100
AcDbTrace
 10
3411.003867964178
 20
1692.157980692543
 30
0.0
 11
3414.337201297512
 21
1692.157980692543
 31
0.0
 12
3412.670534630845
 22
1702.157980692543
 32
0.0
 13
3412.670534630845
 23
1702.157980692543
 33
0.0
  0
SOLID
  5
E1
330
DB
100
AcDbEntity
  8
cotas
100
AcDbTrace
 10
3411.003867964178
 20
1542.050473750729
 30
0.0
 11
3414.337201297512
 21
1542.050473750729
 31
0.0
 12
3412.670534630845
 22
1532.050473750729
 32
0.0
 13
3412.670534630845
 23
1532.050473750729
 33
0.0
  0
MTEXT
  5
E2
330
DB
100
AcDbEntity
  8
cotas
100
AcDbMText
 10
3402.465699170804
 20
1617.104227221636
 30
0.0
 40
10.0
 41
0.0
 71
     5
 72
     1
  1
170
  7
SANINDUSA
 11
0.0000000000000001
 21
1.0
 31
0.0
 73
     1
 44
1.0
1001
ACAD
1000
MTEXTBEGIN
1070
    73
1070
     1
1070
    44
1040
1.0
1070
    74
1070
     0
1000
MTEXTEND
  0
POINT
  5
E3
330
DB
100
AcDbEntity
  8
Defpoints
 62
     0
100
AcDbPoint
 10
3252.264830074899
 20
1702.157980692543
 30
0.0
  0
POINT
  5
E4
330
DB
100
AcDbEntity
  8
Defpoints
 62
     0
100
AcDbPoint
 10
3269.400183346247
 20
1532.050473750729
 30
0.0
  0
POINT
  5
E5
330
DB
100
AcDbEntity
  8
Defpoints
 62
     0
100
AcDbPoint
 10
3412.670534630845
 20
1532.050473750729
 30
0.0
  0
ENDBLK
  5
E6
330
DB
100
AcDbEntity
  8
0
100
AcDbBlockEnd
  0
BLOCK
  5
E8
330
E7
100
AcDbEntity
  8
0
100
AcDbBlockBegin
  2
*D18
 70
     1
 10
0.0
 20
0.0
 30
0.0
  3
*D18
  1

  0
LINE
  5
E9
330
E7
100
AcDbEntity
  8
cotas
100
AcDbLine
 10
3161.199806581237
 20
1687.187347938012
 30
0.0
 11
3392.670534630845
 21
1687.187347938012
 31
0.0
  0
LINE
  5
EA
330
E7
100
AcDbEntity
  8
cotas
100
AcDbLine
 10
3274.400183346247
 20
1532.050473750729
 30
0.0
 11
3392.670534630845
 21
1532.050473750729
 31
0.0
  0
LINE
  5
EB
330
E7
100
AcDbEntity
  8
cotas
100
AcDbLine
 10
3387.670534630845
 20
1677.187347938012
 30
0.0
 11
3387.670534630845
 21
1542.050473750729
 31
0.0
  0
SOLID
  5
EC
330
E7
100
AcDbEntity
  8
cotas
100
AcDbTrace
 10
3386.003867964178
 20
1677.187347938012
 30
0.0
 11
3389.337201297511
 21
1677.187347938012
 31
0.0
 12
3387.670534630845
 22
1687.187347938012
 32
0.0
 13
3387.670534630845
 23
1687.187347938012
 33
0.0
  0
SOLID
  5
ED
330
E7
100
AcDbEntity
  8
cotas
100
AcDbTrace
 10
3386.003867964178
 20
1542.050473750729
 30
0.0
 11
3389.337201297511
 21
1542.050473750729
 31
0.0
 12
3387.670534630845
 22
1532.050473750729
 32
0.0
 13
3387.670534630845
 23
1532.050473750729
 33
0.0
  0
MTEXT
  5
EE
330
E7
100
AcDbEntity
  8
cotas
100
AcDbMText
 10
3377.549648129836
 20
1609.618910844371
 30
0.0
 40
10.0
 41
0.0
 71
     5
 72
     1
  1
155
  7
SANINDUSA
 11
0.0000000000000001
 21
1.0
 31
0.0
 73
     1
 44
1.0
1001
ACAD
1000
MTEXTBEGIN
1070
    73
1070
     1
1070
    44
1040
1.0
1070
    74
1070
     0
1000
MTEXTEND
  0
POINT
  5
EF
330
E7
100
AcDbEntity
  8
Defpoints
 62
     0
100
AcDbPoint
 10
3156.199806581237
 20
1687.187347938012
 30
0.0
  0
POINT
  5
F0
330
E7
100
AcDbEntity
  8
Defpoints
 62
     0
100
AcDbPoint
 10
3269.400183346247
 20
1532.050473750729
 30
0.0
  0
POINT
  5
F1
330
E7
100
AcDbEntity
  8
Defpoints
 62
     0
100
AcDbPoint
 10
3387.670534630845
 20
1532.050473750729
 30
0.0
  0
ENDBLK
  5
F2
330
E7
100
AcDbEntity
  8
0
100
AcDbBlockEnd
  0
BLOCK
  5
F4
330
F3
100
AcDbEntity
  8
0
100
AcDbBlockBegin
  2
*D19
 70
     1
 10
0.0
 20
0.0
 30
0.0
  3
*D19
  1

  0
LINE
  5
F5
330
F3
100
AcDbEntity
  8
cotas
100
AcDbLine
 10
3042.999406127951
 20
1527.050473750729
 30
0.0
 11
3042.999406127951
 21
1502.050473750729
 31
0.0
  0
LINE
  5
F6
330
F3
100
AcDbEntity
  8
cotas
100
AcDbLine
 10
3269.400183346247
 20
1527.050473750729
 30
0.0
 11
3269.400183346247
 21
1502.050473750729
 31
0.0
  0
LINE
  5
F7
330
F3
100
AcDbEntity
  8
cotas
100
AcDbLine
 10
3052.999406127951
 20
1507.050473750729
 30
0.0
 11
3259.400183346246
 21
1507.050473750729
 31
0.0
  0
SOLID
  5
F8
330
F3
100
AcDbEntity
  8
cotas
100
AcDbTrace
 10
3052.999406127951
 20
1508.717140417395
 30
0.0
 11
3052.999406127951
 21
1505.383807084062
 31
0.0
 12
3042.999406127951
 22
1507.050473750729
 32
0.0
 13
3042.999406127951
 23
1507.050473750729
 33
0.0
  0
SOLID
  5
F9
330
F3
100
AcDbEntity
  8
cotas
100
AcDbTrace
 10
3259.400183346246
 20
1508.717140417395
 30
0.0
 11
3259.400183346246
 21
1505.383807084062
 31
0.0
 12
3269.400183346247
 22
1507.050473750729
 32
0.0
 13
3269.400183346247
 23
1507.050473750729
 33
0.0
  0
MTEXT
  5
FA
330
F3
100
AcDbEntity
  8
cotas
100
AcDbMText
 10
3156.199794737098
 20
1517.154570459929
 30
0.0
 40
10.0
 41
0.0
 71
     5
 72
     1
  1
227
  7
SANINDUSA
 73
     1
 44
1.0
1001
ACAD
1000
MTEXTBEGIN
1070
    73
1070
     1
1070
    44
1040
1.0
1070
    74
1070
     0
1000
MTEXTEND
  0
POINT
  5
FB
330
F3
100
AcDbEntity
  8
Defpoints
 62
     0
100
AcDbPoint
 10
3042.999406127951
 20
1532.050473750729
 30
0.0
  0
POINT
  5
FC
330
F3
100
AcDbEntity
  8
Defpoints
 62
     0
100
AcDbPoint
 10
3269.400183346247
 20
1532.050473750729
 30
0.0
  0
POINT
  5
FD
330
F3
100
AcDbEntity
  8
Defpoints
 62
     0
100
AcDbPoint
 10
3269.400183346247
 20
1507.050473750729
 30
0.0
  0
ENDBLK
  5
FE
330
F3
100
AcDbEntity
  8
0
100
AcDbBlockEnd
  0
BLOCK
  5
100
330
FF
100
AcDbEntity
  8
0
100
AcDbBlockBegin
  2
*D20
 70
     1
 10
0.0
 20
0.0
 30
0.0
  3
*D20
  1

  0
LINE
  5
101
330
FF
100
AcDbEntity
  8
cotas
100
AcDbLine
 10
3042.999406127951
 20
1527.050473750729
 30
0.0
 11
3042.999406127951
 21
1502.050473750729
 31
0.0
  0
LINE
  5
102
330
FF
100
AcDbEntity
  8
cotas
100
AcDbLine
 10
2949.729126420258
 20
1650.623981087585
 30
0.0
 11
2949.729126420258
 21
1502.050473750729
 31
0.0
  0
LINE
  5
103
330
FF
100
AcDbEntity
  8
cotas
100
AcDbLine
 10
3032.999406127951
 20
1507.050473750729
 30
0.0
 11
2959.729126420258
 21
1507.050473750729
 31
0.0
  0
SOLID
  5
104
330
FF
100
AcDbEntity
  8
cotas
100
AcDbTrace
 10
3032.999406127951
 20
1508.717140417395
 30
0.0
 11
3032.999406127951
 21
1505.383807084062
 31
0.0
 12
3042.999406127951
 22
1507.050473750729
 32
0.0
 13
3042.999406127951
 23
1507.050473750729
 33
0.0
  0
SOLID
  5
105
330
FF
100
AcDbEntity
  8
cotas
100
AcDbTrace
 10
2959.729126420258
 20
1508.717140417395
 30
0.0
 11
2959.729126420258
 21
1505.383807084062
 31
0.0
 12
2949.729126420258
 22
1507.050473750729
 32
0.0
 13
2949.729126420258
 23
1507.050473750729
 33
0.0
  0
MTEXT
  5
106
330
FF
100
AcDbEntity
  8
cotas
100
AcDbMText
 10
2996.364266274104
 20
1517.25866716913
 30
0.0
 40
10.0
 41
0.0
 71
     5
 72
     1
  1
93
  7
SANINDUSA
 73
     1
 44
1.0
1001
ACAD
1000
MTEXTBEGIN
1070
    73
1070
     1
1070
    44
1040
1.0
1070
    74
1070
     0
1000
MTEXTEND
  0
POINT
  5
107
330
FF
100
AcDbEntity
  8
Defpoints
 62
     0
100
AcDbPoint
 10
3042.999406127951
 20
1532.050473750729
 30
0.0
  0
POINT
  5
108
330
FF
100
AcDbEntity
  8
Defpoints
 62
     0
100
AcDbPoint
 10
2949.729126420258
 20
1655.623981087585
 30
0.0
  0
POINT
  5
109
330
FF
100
AcDbEntity
  8
Defpoints
 62
     0
100
AcDbPoint
 10
2949.729126420258
 20
1507.050473750729
 30
0.0
  0
ENDBLK
  5
10A
330
FF
100
AcDbEntity
  8
0
100
AcDbBlockEnd
  0
BLOCK
  5
10C
330
10B
100
AcDbEntity
  8
0
100
AcDbBlockBegin
  2
*D21
 70
     1
 10
0.0
 20
0.0
 30
0.0
  3
*D21
  1

  0
LINE
  5
10D
330
10B
100
AcDbEntity
  8
cotas
100
AcDbLine
 10
3269.400183346247
 20
1527.050473750729
 30
0.0
 11
3269.400183346247
 21
1502.050473750729
 31
0.0
  0
LINE
  5
10E
330
10B
100
AcDbEntity
  8
cotas
100
AcDbLine
 10
3362.670534630845
 20
1650.623981087585
 30
0.0
 11
3362.670534630845
 21
1502.050473750729
 31
0.0
  0
LINE
  5
10F
330
10B
100
AcDbEntity
  8
cotas
100
AcDbLine
 10
3279.400183346246
 20
1507.050473750729
 30
0.0
 11
3352.670534630845
 21
1507.050473750729
 31
0.0
  0
SOLID
  5
110
330
10B
100
AcDbEntity
  8
cotas
100
AcDbTrace
 10
3279.400183346246
 20
1508.717140417395
 30
0.0
 11
3279.400183346246
 21
1505.383807084062
 31
0.0
 12
3269.400183346247
 22
1507.050473750729
 32
0.0
 13
3269.400183346247
 23
1507.050473750729
 33
0.0
  0
SOLID
  5
111
330
10B
100
AcDbEntity
  8
cotas
100
AcDbTrace
 10
3352.670534630845
 20
1508.717140417395
 30
0.0
 11
3352.670534630845
 21
1505.383807084062
 31
0.0
 12
3362.670534630845
 22
1507.050473750729
 32
0.0
 13
3362.670534630845
 23
1507.050473750729
 33
0.0
  0
MTEXT
  5
112
330
10B
100
AcDbEntity
  8
cotas
100
AcDbMText
 10
3316.035358988545
 20
1517.25866716913
 30
0.0
 40
10.0
 41
0.0
 71
     5
 72
     1
  1
93
  7
SANINDUSA
 73
     1
 44
1.0
1001
ACAD
1000
MTEXTBEGIN
1070
    73
1070
     1
1070
    44
1040
1.0
1070
    74
1070
     0
1000
MTEXTEND
  0
POINT
  5
113
330
10B
100
AcDbEntity
  8
Defpoints
 62
     0
100
AcDbPoint
 10
3269.400183346247
 20
1532.050473750729
 30
0.0
  0
POINT
  5
114
330
10B
100
AcDbEntity
  8
Defpoints
 62
     0
100
AcDbPoint
 10
3362.670534630845
 20
1655.623981087585
 30
0.0
  0
POINT
  5
115
330
10B
100
AcDbEntity
  8
Defpoints
 62
     0
100
AcDbPoint
 10
3362.670534630845
 20
1507.050473750729
 30
0.0
  0
ENDBLK
  5
116
330
10B
100
AcDbEntity
  8
0
100
AcDbBlockEnd
  0
BLOCK
  5
118
330
117
100
AcDbEntity
  8
0
100
AcDbBlockBegin
  2
*D22
 70
     1
 10
0.0
 20
0.0
 30
0.0
  3
*D22
  1

  0
LINE
  5
119
330
117
100
AcDbEntity
  8
cotas
100
AcDbLine
 10
2949.729126420258
 20
1660.623981087585
 30
0.0
 11
2949.729126420258
 21
1732.157980692543
 31
0.0
  0
LINE
  5
11A
330
117
100
AcDbEntity
  8
cotas
100
AcDbLine
 10
3362.670534630845
 20
1660.623981087585
 30
0.0
 11
3362.670534630845
 21
1732.157980692543
 31
0.0
  0
LINE
  5
11B
330
117
100
AcDbEntity
  8
cotas
100
AcDbLine
 10
2959.729126420258
 20
1727.157980692543
 30
0.0
 11
3352.670534630845
 21
1727.157980692543
 31
0.0
  0
SOLID
  5
11C
330
117
100
AcDbEntity
  8
cotas
100
AcDbTrace
 10
2959.729126420258
 20
1728.82464735921
 30
0.0
 11
2959.729126420258
 21
1725.491314025876
 31
0.0
 12
2949.729126420258
 22
1727.157980692543
 32
0.0
 13
2949.729126420258
 23
1727.157980692543
 33
0.0
  0
SOLID
  5
11D
330
117
100
AcDbEntity
  8
cotas
100
AcDbTrace
 10
3352.670534630845
 20
1728.82464735921
 30
0.0
 11
3352.670534630845
 21
1725.491314025876
 31
0.0
 12
3362.670534630845
 22
1727.157980692543
 32
0.0
 13
3362.670534630845
 23
1727.157980692543
 33
0.0
  0
MTEXT
  5
11E
330
117
100
AcDbEntity
  8
cotas
100
AcDbMText
 10
3156.199830525551
 20
1737.366174110945
 30
0.0
 40
10.0
 41
0.0
 71
     5
 72
     1
  1
413
  7
SANINDUSA
 73
     1
 44
1.0
1001
ACAD
1000
MTEXTBEGIN
1070
    73
1070
     1
1070
    44
1040
1.0
1070
    74
1070
     0
1000
MTEXTEND
  0
POINT
  5
11F
330
117
100
AcDbEntity
  8
Defpoints
 62
     0
100
AcDbPoint
 10
2949.729126420258
 20
1655.623981087585
 30
0.0
  0
POINT
  5
120
330
117
100
AcDbEntity
  8
Defpoints
 62
     0
100
AcDbPoint
 10
3362.670534630845
 20
1655.623981087585
 30
0.0
  0
POINT
  5
121
330
117
100
AcDbEntity
  8
Defpoints
 62
     0
100
AcDbPoint
 10
3362.670534630845
 20
1727.157980692543
 30
0.0
  0
ENDBLK
  5
122
330
117
100
AcDbEntity
  8
0
100
AcDbBlockEnd
  0
BLOCK
  5
124
330
123
100
AcDbEntity
  8
0
100
AcDbBlockBegin
  2
*D23
 70
     1
 10
0.0
 20
0.0
 30
0.0
  3
*D23
  1

  0
LINE
  5
125
330
123
100
AcDbEntity
  8
cotas
100
AcDbLine
 10
3697.682602104351
 20
1700.560026156232
 30
0.0
 11
3697.682602104351
 21
1732.146444431703
 31
0.0
  0
LINE
  5
126
330
123
100
AcDbEntity
  8
cotas
100
AcDbLine
 10
4302.856921515584
 20
1687.206374655496
 30
0.0
 11
4302.856921515584
 21
1732.146444431703
 31
0.0
  0
LINE
  5
127
330
123
100
AcDbEntity
  8
cotas
100
AcDbLine
 10
3707.682602104351
 20
1727.146444431702
 30
0.0
 11
4292.856921515585
 21
1727.146444431702
 31
0.0
  0
SOLID
  5
128
330
123
100
AcDbEntity
  8
cotas
100
AcDbTrace
 10
3707.682602104351
 20
1728.813111098369
 30
0.0
 11
3707.682602104351
 21
1725.479777765036
 31
0.0
 12
3697.682602104351
 22
1727.146444431702
 32
0.0
 13
3697.682602104351
 23
1727.146444431702
 33
0.0
  0
SOLID
  5
129
330
123
100
AcDbEntity
  8
cotas
100
AcDbTrace
 10
4292.856921515585
 20
1728.813111098369
 30
0.0
 11
4292.856921515585
 21
1725.479777765036
 31
0.0
 12
4302.856921515584
 22
1727.146444431702
 32
0.0
 13
4302.856921515584
 23
1727.146444431702
 33
0.0
  0
MTEXT
  5
12A
330
123
100
AcDbEntity
  8
cotas
100
AcDbMText
 10
4000.269761809968
 20
1737.351279891743
 30
0.0
 40
10.0
 41
0.0
 71
     5
 72
     1
  1
605
  7
SANINDUSA
 73
     1
 44
1.0
1001
ACAD
1000
MTEXTBEGIN
1070
    73
1070
     1
1070
    44
1040
1.0
1070
    74
1070
     0
1000
MTEXTEND
  0
POINT
  5
12B
330
123
100
AcDbEntity
  8
Defpoints
 62
     0
100
AcDbPoint
 10
3697.682602104351
 20
1695.560026156232
 30
0.0
  0
POINT
  5
12C
330
123
100
AcDbEntity
  8
Defpoints
 62
     0
100
AcDbPoint
 10
4302.856921515584
 20
1682.206374655496
 30
0.0
  0
POINT
  5
12D
330
123
100
AcDbEntity
  8
Defpoints
 62
     0
100
AcDbPoint
 10
4302.856921515584
 20
1727.146444431702
 30
0.0
  0
ENDBLK
  5
12E
330
123
100
AcDbEntity
  8
0
100
AcDbBlockEnd
  0
BLOCK
  5
130
330
12F
100
AcDbEntity
  8
0
100
AcDbBlockBegin
  2
*D24
 70
     1
 10
0.0
 20
0.0
 30
0.0
  3
*D24
  1

  0
LINE
  5
131
330
12F
100
AcDbEntity
  8
cotas
100
AcDbLine
 10
3776.126241629092
 20
930.6202342186104
 30
0.0
 11
3667.613835828261
 21
930.6202342186104
 31
0.0
  0
LINE
  5
132
330
12F
100
AcDbEntity
  8
cotas
100
AcDbLine
 10
3776.126241629092
 20
1096.397495821073
 30
0.0
 11
3667.613835828261
 21
1096.397495821073
 31
0.0
  0
LINE
  5
133
330
12F
100
AcDbEntity
  8
cotas
100
AcDbLine
 10
3672.613835828261
 20
940.6202342186103
 30
0.0
 11
3672.613835828262
 21
1086.397495821073
 31
0.0
  0
SOLID
  5
134
330
12F
100
AcDbEntity
  8
cotas
100
AcDbTrace
 10
3670.947169161595
 20
940.6202342186103
 30
0.0
 11
3674.280502494928
 21
940.6202342186103
 31
0.0
 12
3672.613835828261
 22
930.6202342186104
 32
0.0
 13
3672.613835828261
 23
930.6202342186104
 33
0.0
  0
SOLID
  5
135
330
12F
100
AcDbEntity
  8
cotas
100
AcDbTrace
 10
3670.947169161595
 20
1086.397495821073
 30
0.0
 11
3674.280502494929
 21
1086.397495821073
 31
0.0
 12
3672.613835828262
 22
1096.397495821073
 32
0.0
 13
3672.613835828262
 23
1096.397495821073
 33
0.0
  0
MTEXT
  5
136
330
12F
100
AcDbEntity
  8
cotas
100
AcDbMText
 10
3661.257220650289
 20
1038.302118309613
 30
0.0
 40
10.0
 41
0.0
 71
     5
 72
     1
  1
165,8
  7
SANINDUSA
 11
0.0000000000000001
 21
1.0
 31
0.0
 73
     1
 44
1.0
1001
ACAD
1000
MTEXTBEGIN
1070
    73
1070
     1
1070
    44
1040
1.0
1070
    74
1070
     0
1000
MTEXTEND
  0
POINT
  5
137
330
12F
100
AcDbEntity
  8
Defpoints
 62
     0
100
AcDbPoint
 10
3781.126241629092
 20
930.6202342186104
 30
0.0
  0
POINT
  5
138
330
12F
100
AcDbEntity
  8
Defpoints
 62
     0
100
AcDbPoint
 10
3781.126241629092
 20
1096.397495821073
 30
0.0
  0
POINT
  5
139
330
12F
100
AcDbEntity
  8
Defpoints
 62
     0
100
AcDbPoint
 10
3672.613835828262
 20
1096.397495821073
 30
0.0
  0
ENDBLK
  5
13A
330
12F
100
AcDbEntity
  8
0
100
AcDbBlockEnd
  0
BLOCK
  5
13C
330
13B
100
AcDbEntity
  8
0
100
AcDbBlockBegin
  2
*D25
 70
     1
 10
0.0
 20
0.0
 30
0.0
  3
*D25
  1

  0
LINE
  5
13D
330
13B
100
AcDbEntity
  8
cotas
100
AcDbLine
 10
2861.923039522448
 20
1075.141947454932
 30
0.0
 11
2871.45990612221
 21
1107.957895734909
 31
0.0
  0
LINE
  5
13E
330
13B
100
AcDbEntity
  8
cotas
100
AcDbLine
 10
2973.626089755681
 20
1042.679161989399
 30
0.0
 11
2983.162956355443
 21
1075.495110269376
 31
0.0
  0
LINE
  5
13F
330
13B
100
AcDbEntity
  8
cotas
100
AcDbLine
 10
2879.667257634227
 20
1100.365835332212
 30
0.0
 11
2972.164897126076
 21
1073.484465301381
 31
0.0
  0
SOLID
  5
140
330
13B
100
AcDbEntity
  8
cotas
100
AcDbTrace
 10
2880.132375587118
 20
1101.966286227328
 30
0.0
 11
2879.202139681335
 21
1098.765384437096
 31
0.0
 12
2870.064552263535
 22
1103.156543049563
 32
0.0
 13
2870.064552263535
 23
1103.156543049563
 33
0.0
  0
SOLID
  5
141
330
13B
100
AcDbEntity
  8
cotas
100
AcDbTrace
 10
2972.630015078968
 20
1075.084916196496
 30
0.0
 11
2971.699779173184
 21
1071.884014406265
 31
0.0
 12
2981.767602496768
 22
1070.69375758403
 32
0.0
 13
2981.767602496768
 23
1070.69375758403
 33
0.0
  0
MTEXT
  5
142
330
13B
100
AcDbEntity
  8
cotas
100
AcDbMText
 10
2928.762074471352
 20
1096.718104047754
 30
0.0
 40
10.0
 41
0.0
 71
     5
 72
     1
  1
116
  7
SANINDUSA
 11
0.960270537069212
 21
-0.2790707717350688
 31
0.0
 73
     1
 44
1.0
1001
ACAD
1000
MTEXTBEGIN
1070
    73
1070
     1
1070
    44
1040
1.0
1070
    74
1070
     0
1000
MTEXTEND
  0
POINT
  5
143
330
13B
100
AcDbEntity
  8
Defpoints
 62
     0
100
AcDbPoint
 10
2860.527685663772
 20
1070.340594769586
 30
0.0
  0
POINT
  5
144
330
13B
100
AcDbEntity
  8
Defpoints
 62
     0
100
AcDbPoint
 10
2972.230735897005
 20
1037.877809304053
 30
0.0
  0
POINT
  5
145
330
13B
100
AcDbEntity
  8
Defpoints
 62
     0
100
AcDbPoint
 10
2981.767602496768
 20
1070.69375758403
 30
0.0
  0
ENDBLK
  5
146
330
13B
100
AcDbEntity
  8
0
100
AcDbBlockEnd
  0
BLOCK
  5
148
330
147
100
AcDbEntity
  8
0
100
AcDbBlockBegin
  2
*D26
 70
     1
 10
0.0
 20
0.0
 30
0.0
  3
*D26
  1

  0
LINE
  5
149
330
147
100
AcDbEntity
  8
cotas
100
AcDbLine
 10
3090.485923946032
 20
885.5789830923422
 30
0.0
 11
3067.40623062284
 21
923.0659604026513
 31
0.0
  0
MTEXT
  5
14A
330
147
100
AcDbEntity
  8
cotas
100
AcDbMText
 10
3092.276945346067
 20
901.9424425392278
 30
0.0
 40
10.0
 41
0.0
 71
     5
 72
     1
  1
R5
  7
SANINDUSA
 11
0.5242750982415675
 21
-0.8515489541792618
 31
0.0
 73
     1
 44
1.0
1001
ACAD
1000
MTEXTBEGIN
1070
    73
1070
     1
1070
    44
1040
1.0
1070
    74
1070
     0
1000
MTEXTEND
  0
SOLID
  5
14B
330
147
100
AcDbEntity
  8
cotas
100
AcDbTrace
 10
3068.825478879806
 20
923.9397522330538
 30
0.0
 11
3065.986982365875
 21
922.1921685722488
 31
0.0
 12
3062.163479640425
 22
931.581449944444
 32
0.0
 13
3062.163479640425
 23
931.581449944444
 33
0.0
  0
POINT
  5
14C
330
147
100
AcDbEntity
  8
Defpoints
 62
     0
100
AcDbPoint
 10
3062.163479640425
 20
931.581449944444
 30
0.0
  0
POINT
  5
14D
330
147
100
AcDbEntity
  8
Defpoints
 62
     0
100
AcDbPoint
 10
3064.784855322025
 20
927.3237048643048
 30
0.0
  0
ENDBLK
  5
14E
330
147
100
AcDbEntity
  8
0
100
AcDbBlockEnd
  0
BLOCK
  5
150
330
14F
100
AcDbEntity
  8
0
100
AcDbBlockBegin
  2
*D27
 70
     1
 10
0.0
 20
0.0
 30
0.0
  3
*D27
  1

  0
LINE
  5
151
330
14F
100
AcDbEntity
  8
cotas
100
AcDbLine
 10
3311.280747690355
 20
883.9977057873291
 30
0.0
 11
3325.214224917487
 21
917.1817582275942
 31
0.0
  0
MTEXT
  5
152
330
14F
100
AcDbEntity
  8
cotas
100
AcDbMText
 10
3306.99559589676
 20
899.8913534753553
 30
0.0
 40
10.0
 41
0.0
 71
     5
 72
     1
  1
R5
  7
SANINDUSA
 11
0.3871421457585362
 21
0.9220200426115889
 31
0.0
 73
     1
 44
1.0
1001
ACAD
1000
MTEXTBEGIN
1070
    73
1070
     1
1070
    44
1040
1.0
1070
    74
1070
     0
1000
MTEXTEND
  0
SOLID
  5
153
330
14F
100
AcDbEntity
  8
cotas
100
AcDbTrace
 10
3323.677524846468
 20
917.8269951371916
 30
0.0
 11
3326.750924988506
 21
916.5365213179965
 31
0.0
 12
3329.085646375073
 22
926.40195865371
 32
0.0
 13
3329.085646375073
 23
926.40195865371
 33
0.0
  0
POINT
  5
154
330
14F
100
AcDbEntity
  8
Defpoints
 62
     0
100
AcDbPoint
 10
3329.085646375073
 20
926.40195865371
 30
0.0
  0
POINT
  5
155
330
14F
100
AcDbEntity
  8
Defpoints
 62
     0
100
AcDbPoint
 10
3327.149935641458
 20
921.7918584291663
 30
0.0
  0
ENDBLK
  5
156
330
14F
100
AcDbEntity
  8
0
100
AcDbBlockEnd
  0
BLOCK
  5
158
330
157
100
AcDbEntity
  8
0
100
AcDbBlockBegin
  2
*D28
 70
     1
 10
0.0
 20
0.0
 30
0.0
  3
*D28
  1

  0
LINE
  5
159
330
157
100
AcDbEntity
  8
cotas
100
AcDbLine
 10
3264.187445957643
 20
1617.921159158877
 30
0.0
 11
3305.638124182779
 21
1584.024023259085
 31
0.0
  0
MTEXT
  5
15A
330
157
100
AcDbEntity
  8
cotas
100
AcDbMText
 10
3287.504484133182
 20
1612.04012520868
 30
0.0
 40
10.0
 41
0.0
 71
     5
 72
     1
  1
R390
  7
SANINDUSA
 11
0.7741133811266347
 21
-0.6330469754770887
 31
0.0
 73
     1
 44
1.0
1001
ACAD
1000
MTEXTBEGIN
1070
    73
1070
     1
1070
    44
1040
1.0
1070
    74
1070
     0
1000
MTEXTEND
  0
SOLID
  5
15B
330
157
100
AcDbEntity
  8
cotas
100
AcDbTrace
 10
3306.693202475241
 20
1585.31421222763
 30
0.0
 11
3304.583045890317
 21
1582.733834290541
 31
0.0
 12
3313.379257994045
 22
1577.693553504315
 32
0.0
 13
3313.379257994045
 23
1577.693553504315
 33
0.0
  0
POINT
  5
15C
330
157
100
AcDbEntity
  8
Defpoints
 62
     0
100
AcDbPoint
 10
3313.379257994045
 20
1577.693553504315
 30
0.0
  0
POINT
  5
15D
330
157
100
AcDbEntity
  8
Defpoints
 62
     0
100
AcDbPoint
 10
3011.475039354658
 20
1824.581873940379
 30
0.0
  0
ENDBLK
  5
15E
330
157
100
AcDbEntity
  8
0
100
AcDbBlockEnd
  0
BLOCK
  5
160
330
15F
100
AcDbEntity
  8
0
100
AcDbBlockBegin
  2
*D29
 70
     1
 10
0.0
 20
0.0
 30
0.0
  3
*D29
  1

  0
LINE
  5
161
330
15F
100
AcDbEntity
  8
cotas
100
AcDbLine
 10
3038.495042203609
 20
1630.409457536065
 30
0.0
 11
2995.450522931534
 21
1598.560691340677
 31
0.0
  0
MTEXT
  5
162
330
15F
100
AcDbEntity
  8
cotas
100
AcDbMText
 10
3014.92042084439
 20
1625.665191800219
 30
0.0
 40
10.0
 41
0.0
 71
     5
 72
     1
  1
R390
  7
SANINDUSA
 11
0.8038792072760683
 21
0.5947925857886932
 31
0.0
 73
     1
 44
1.0
1001
ACAD
1000
MTEXTBEGIN
1070
    73
1070
     1
1070
    44
1040
1.0
1070
    74
1070
     0
1000
MTEXTEND
  0
SOLID
  5
163
330
15F
100
AcDbEntity
  8
cotas
100
AcDbTrace
 10
2994.459201955219
 20
1599.90049001947
 30
0.0
 11
2996.441843907848
 21
1597.220892661883
 31
0.0
 12
2987.411730858772
 22
1592.61276548279
 32
0.0
 13
2987.411730858772
 23
1592.61276548279
 33
0.0
  0
POINT
  5
164
330
15F
100
AcDbEntity
  8
Defpoints
 62
     0
100
AcDbPoint
 10
2987.411730858772
 20
1592.61276548279
 30
0.0
  0
POINT
  5
165
330
15F
100
AcDbEntity
  8
Defpoints
 62
     0
100
AcDbPoint
 10
3300.924621696438
 20
1824.58187394038
 30
0.0
  0
ENDBLK
  5
166
330
15F
100
AcDbEntity
  8
0
100
AcDbBlockEnd
  0
BLOCK
  5
168
330
167
100
AcDbEntity
  8
0
100
AcDbBlockBegin
  2
*D30
 70
     1
 10
0.0
 20
0.0
 30
0.0
  3
*D30
  1

  0
LINE
  5
169
330
167
100
AcDbEntity
  8
cotas
100
AcDbLine
 10
3209.979568477756
 20
906.8966397872054
 30
0.0
 11
3209.979568477756
 21
878.5580717521897
 31
0.0
  0
LINE
  5
16A
330
167
100
AcDbEntity
  8
cotas
100
AcDbLine
 10
3255.979568477756
 20
906.8966397872054
 30
0.0
 11
3255.979568477756
 21
878.5580717521897
 31
0.0
  0
LINE
  5
16B
330
167
100
AcDbEntity
  8
cotas
100
AcDbLine
 10
3219.979568477756
 20
883.5580717521898
 30
0.0
 11
3245.979568477757
 21
883.5580717521898
 31
0.0
  0
SOLID
  5
16C
330
167
100
AcDbEntity
  8
cotas
100
AcDbTrace
 10
3219.979568477756
 20
885.2247384188563
 30
0.0
 11
3219.979568477756
 21
881.8914050855232
 31
0.0
 12
3209.979568477756
 22
883.5580717521898
 32
0.0
 13
3209.979568477756
 23
883.5580717521898
 33
0.0
  0
SOLID
  5
16D
330
167
100
AcDbEntity
  8
cotas
100
AcDbTrace
 10
3245.979568477757
 20
885.2247384188563
 30
0.0
 11
3245.979568477757
 21
881.8914050855232
 31
0.0
 12
3255.979568477756
 22
883.5580717521898
 32
0.0
 13
3255.979568477756
 23
883.5580717521898
 33
0.0
  0
MTEXT
  5
16E
330
167
100
AcDbEntity
  8
cotas
100
AcDbMText
 10
3232.979568477757
 20
894.1490724237814
 30
0.0
 40
10.0
 41
0.0
 71
     5
 72
     1
  1
ø46
  7
SANINDUSA
 73
     1
 44
1.0
1001
ACAD
1000
MTEXTBEGIN
1070
    73
1070
     1
1070
    44
1040
1.0
1070
    74
1070
     0
1000
MTEXTEND
  0
POINT
  5
16F
330
167
100
AcDbEntity
  8
Defpoints
 62
     0
100
AcDbPoint
 10
3209.979568477756
 20
911.8966397872055
 30
0.0
  0
POINT
  5
170
330
167
100
AcDbEntity
  8
Defpoints
 62
     0
100
AcDbPoint
 10
3255.979568477756
 20
911.8966397872055
 30
0.0
  0
POINT
  5
171
330
167
100
AcDbEntity
  8
Defpoints
 62
     0
100
AcDbPoint
 10
3255.979568477756
 20
883.5580717521898
 30
0.0
  0
ENDBLK
  5
172
330
167
100
AcDbEntity
  8
0
100
AcDbBlockEnd
  0
BLOCK
  5
174
330
173
100
AcDbEntity
  8
0
100
AcDbBlockBegin
  2
*D31
 70
     1
 10
0.0
 20
0.0
 30
0.0
  3
*D31
  1

  0
LINE
  5
175
330
173
100
AcDbEntity
  8
cotas
100
AcDbLine
 10
2861.799266176907
 20
1075.168765700955
 30
0.0
 11
2871.497677781313
 21
1107.955383343576
 31
0.0
  0
LINE
  5
176
330
173
100
AcDbEntity
  8
cotas
100
AcDbLine
 10
2836.844938599928
 20
1082.550354823406
 30
0.0
 11
2846.543350204335
 21
1115.336972466027
 31
0.0
  0
LINE
  5
177
330
173
100
AcDbEntity
  8
cotas
100
AcDbLine
 10
2879.668672385339
 20
1100.324207341086
 30
0.0
 11
2889.257938469556
 21
1097.487664380704
 31
0.0
  0
LINE
  5
178
330
173
100
AcDbEntity
  8
cotas
100
AcDbLine
 10
2835.535812639927
 20
1113.378882384301
 30
0.0
 11
2825.946546555711
 21
1116.215425344683
 31
0.0
  0
LINE
  5
179
330
173
100
AcDbEntity
  8
cotas
100
AcDbLine
 10
2870.079406301123
 20
1103.160750301468
 30
0.0
 11
2845.125078724143
 21
1110.542339423919
 31
0.0
  0
SOLID
  5
17A
330
173
100
AcDbEntity
  8
cotas
100
AcDbTrace
 10
2880.141429545403
 20
1101.922418355122
 30
0.0
 11
2879.195915225276
 21
1098.72599632705
 31
0.0
 12
2870.079406301123
 22
1103.160750301468
 32
0.0
 13
2870.079406301123
 23
1103.160750301468
 33
0.0
  0
SOLID
  5
17B
330
173
100
AcDbEntity
  8
cotas
100
AcDbTrace
 10
2836.00856979999
 20
1114.977093398337
 30
0.0
 11
2835.063055479863
 21
1111.780671370265
 31
0.0
 12
2845.125078724143
 22
1110.542339423919
 32
0.0
 13
2845.125078724143
 23
1110.542339423919
 33
0.0
  0
MTEXT
  5
17C
330
173
100
AcDbEntity
  8
cotas
100
AcDbMText
 10
2860.497840430552
 20
1116.640453155514
 30
0.0
 40
10.0
 41
0.0
 71
     5
 72
     1
  1
26
  7
SANINDUSA
 11
0.9589266084216665
 21
-0.2836542960381872
 31
0.0
 73
     1
 44
1.0
1001
ACAD
1000
MTEXTBEGIN
1070
    73
1070
     1
1070
    44
1040
1.0
1070
    74
1070
     0
1000
MTEXTEND
  0
POINT
  5
17D
330
173
100
AcDbEntity
  8
Defpoints
 62
     0
100
AcDbPoint
 10
2860.380994696716
 20
1070.374132658847
 30
0.0
  0
POINT
  5
17E
330
173
100
AcDbEntity
  8
Defpoints
 62
     0
100
AcDbPoint
 10
2835.426667119737
 20
1077.755721781298
 30
0.0
  0
POINT
  5
17F
330
173
100
AcDbEntity
  8
Defpoints
 62
     0
100
AcDbPoint
 10
2845.125078724143
 20
1110.542339423919
 30
0.0
  0
ENDBLK
  5
180
330
173
100
AcDbEntity
  8
0
100
AcDbBlockEnd
  0
BLOCK
  5
182
330
181
100
AcDbEntity
  8
0
100
AcDbBlockBegin
  2
*D32
 70
     1
 10
0.0
 20
0.0
 30
0.0
  3
*D32
  1

  0
LINE
  5
183
330
181
100
AcDbEntity
  8
cotas
100
AcDbLine
 10
4100.65294724833
 20
1219.953045104088
 30
0.0
 11
4357.81148186396
 21
1219.953045104088
 31
0.0
  0
LINE
  5
184
330
181
100
AcDbEntity
  8
cotas
100
AcDbLine
 10
4100.652665121852
 20
807.0735103970529
 30
0.0
 11
4357.81148186396
 21
807.0735103970527
 31
0.0
  0
LINE
  5
185
330
181
100
AcDbEntity
  8
cotas
100
AcDbLine
 10
4352.81148186396
 20
1209.953045104088
 30
0.0
 11
4352.81148186396
 21
817.0735103970526
 31
0.0
  0
SOLID
  5
186
330
181
100
AcDbEntity
  8
cotas
100
AcDbTrace
 10
4351.144815197293
 20
1209.953045104088
 30
0.0
 11
4354.478148530627
 21
1209.953045104088
 31
0.0
 12
4352.81148186396
 22
1219.953045104088
 32
0.0
 13
4352.81148186396
 23
1219.953045104088
 33
0.0
  0
SOLID
  5
187
330
181
100
AcDbEntity
  8
cotas
100
AcDbTrace
 10
4351.144815197293
 20
817.0735103970528
 30
0.0
 11
4354.478148530627
 21
817.0735103970526
 31
0.0
 12
4352.81148186396
 22
807.0735103970527
 32
0.0
 13
4352.81148186396
 23
807.0735103970527
 33
0.0
  0
MTEXT
  5
188
330
181
100
AcDbEntity
  8
cotas
100
AcDbMText
 10
4342.603288445558
 20
1031.439083430041
 30
0.0
 40
10.0
 41
0.0
 71
     5
 72
     1
  1
413
  7
SANINDUSA
 11
0.0000000000000001
 21
1.0
 31
0.0
 73
     1
 44
1.0
1001
ACAD
1000
MTEXTBEGIN
1070
    73
1070
     1
1070
    44
1040
1.0
1070
    74
1070
     0
1000
MTEXTEND
  0
POINT
  5
189
330
181
100
AcDbEntity
  8
Defpoints
 62
     0
100
AcDbPoint
 10
4095.652947248331
 20
1219.953045104088
 30
0.0
  0
POINT
  5
18A
330
181
100
AcDbEntity
  8
Defpoints
 62
     0
100
AcDbPoint
 10
4095.652665121852
 20
807.0735103970529
 30
0.0
  0
POINT
  5
18B
330
181
100
AcDbEntity
  8
Defpoints
 62
     0
100
AcDbPoint
 10
4352.81148186396
 20
807.0735103970527
 30
0.0
  0
ENDBLK
  5
18C
330
181
100
AcDbEntity
  8
0
100
AcDbBlockEnd
  0
BLOCK
  5
18E
330
18D
100
AcDbEntity
  8
0
100
AcDbBlockBegin
  2
*D33
 70
     1
 10
0.0
 20
0.0
 30
0.0
  3
*D33
  1

  0
LINE
  5
18F
330
18D
100
AcDbEntity
  8
cotas
100
AcDbLine
 10
4101.011006777792
 20
1187.459394689288
 30
0.0
 11
4332.811481863959
 21
1187.459394689288
 31
0.0
  0
LINE
  5
190
330
18D
100
AcDbEntity
  8
cotas
100
AcDbLine
 10
4100.822024618108
 20
839.5584379837281
 30
0.0
 11
4332.811481863959
 21
839.5584379837281
 31
0.0
  0
LINE
  5
191
330
18D
100
AcDbEntity
  8
cotas
100
AcDbLine
 10
4327.811481863959
 20
1177.459394689288
 30
0.0
 11
4327.811481863959
 21
849.558437983728
 31
0.0
  0
SOLID
  5
192
330
18D
100
AcDbEntity
  8
cotas
100
AcDbTrace
 10
4326.144815197292
 20
1177.459394689288
 30
0.0
 11
4329.478148530626
 21
1177.459394689288
 31
0.0
 12
4327.811481863959
 22
1187.459394689288
 32
0.0
 13
4327.811481863959
 23
1187.459394689288
 33
0.0
  0
SOLID
  5
193
330
18D
100
AcDbEntity
  8
cotas
100
AcDbTrace
 10
4326.144815197292
 20
849.558437983728
 30
0.0
 11
4329.478148530626
 21
849.558437983728
 31
0.0
 12
4327.811481863959
 22
839.5584379837281
 32
0.0
 13
4327.811481863959
 23
839.5584379837281
 33
0.0
  0
MTEXT
  5
194
330
18D
100
AcDbEntity
  8
cotas
100
AcDbMText
 10
4317.58314069539
 20
1031.302253773558
 30
0.0
 40
10.0
 41
0.0
 71
     5
 72
     1
  1
348
  7
SANINDUSA
 11
0.0000000000000001
 21
1.0
 31
0.0
 73
     1
 44
1.0
1001
ACAD
1000
MTEXTBEGIN
1070
    73
1070
     1
1070
    44
1040
1.0
1070
    74
1070
     0
1000
MTEXTEND
  0
POINT
  5
195
330
18D
100
AcDbEntity
  8
Defpoints
 62
     0
100
AcDbPoint
 10
4096.011006777792
 20
1187.459394689288
 30
0.0
  0
POINT
  5
196
330
18D
100
AcDbEntity
  8
Defpoints
 62
     0
100
AcDbPoint
 10
4095.822024618108
 20
839.5584379837281
 30
0.0
  0
POINT
  5
197
330
18D
100
AcDbEntity
  8
Defpoints
 62
     0
100
AcDbPoint
 10
4327.811481863959
 20
839.5584379837281
 30
0.0
  0
ENDBLK
  5
198
330
18D
100
AcDbEntity
  8
0
100
AcDbBlockEnd
  0
BLOCK
  5
19A
330
199
100
AcDbEntity
  8
0
100
AcDbBlockBegin
  2
*D34
 70
     1
 10
0.0
 20
0.0
 30
0.0
  3
*D34
  1

  0
LINE
  5
19B
330
199
100
AcDbEntity
  8
cotas
100
AcDbLine
 10
4270.000610438795
 20
1008.508865019855
 30
0.0
 11
4270.000610438795
 21
777.0735167881525
 31
0.0
  0
LINE
  5
19C
330
199
100
AcDbEntity
  8
cotas
100
AcDbLine
 10
3922.021403116093
 20
1008.508865019158
 30
0.0
 11
3922.021403116093
 21
777.0735167881525
 31
0.0
  0
LINE
  5
19D
330
199
100
AcDbEntity
  8
cotas
100
AcDbLine
 10
4260.000610438795
 20
782.0735167881525
 30
0.0
 11
3932.021403116093
 21
782.0735167881525
 31
0.0
  0
SOLID
  5
19E
330
199
100
AcDbEntity
  8
cotas
100
AcDbTrace
 10
4260.000610438795
 20
783.7401834548192
 30
0.0
 11
4260.000610438795
 21
780.4068501214859
 31
0.0
 12
4270.000610438795
 22
782.0735167881525
 32
0.0
 13
4270.000610438795
 23
782.0735167881525
 33
0.0
  0
SOLID
  5
19F
330
199
100
AcDbEntity
  8
cotas
100
AcDbTrace
 10
3932.021403116093
 20
783.7401834548192
 30
0.0
 11
3932.021403116093
 21
780.4068501214859
 31
0.0
 12
3922.021403116093
 22
782.0735167881525
 32
0.0
 13
3922.021403116093
 23
782.0735167881525
 33
0.0
  0
MTEXT
  5
1A0
330
199
100
AcDbEntity
  8
cotas
100
AcDbMText
 10
4113.881950301204
 20
792.301857956722
 30
0.0
 40
10.0
 41
0.0
 71
     5
 72
     1
  1
348
  7
SANINDUSA
 73
     1
 44
1.0
1001
ACAD
1000
MTEXTBEGIN
1070
    73
1070
     1
1070
    44
1040
1.0
1070
    74
1070
     0
1000
MTEXTEND
  0
POINT
  5
1A1
330
199
100
AcDbEntity
  8
Defpoints
 62
     0
100
AcDbPoint
 10
4270.000610438795
 20
1013.508865019855
 30
0.0
  0
POINT
  5
1A2
330
199
100
AcDbEntity
  8
Defpoints
 62
     0
100
AcDbPoint
 10
3922.021403116093
 20
1013.508865019158
 30
0.0
  0
POINT
  5
1A3
330
199
100
AcDbEntity
  8
Defpoints
 62
     0
100
AcDbPoint
 10
3922.021403116093
 20
782.0735167881525
 30
0.0
  0
ENDBLK
  5
1A4
330
199
100
AcDbEntity
  8
0
100
AcDbBlockEnd
  0
BLOCK
  5
1A6
330
1A5
100
AcDbEntity
  8
0
100
AcDbBlockBegin
  2
*D35
 70
     1
 10
0.0
 20
0.0
 30
0.0
  3
*D35
  1

  0
LINE
  5
1A7
330
1A5
100
AcDbEntity
  8
cotas
100
AcDbLine
 10
4270.000610438795
 20
1008.508865019827
 30
0.0
 11
4270.000610438795
 21
777.0735167881524
 31
0.0
  0
LINE
  5
1A8
330
1A5
100
AcDbEntity
  8
cotas
100
AcDbLine
 10
4302.81148186396
 20
1008.508865019843
 30
0.0
 11
4302.81148186396
 21
777.0735167881524
 31
0.0
  0
LINE
  5
1A9
330
1A5
100
AcDbEntity
  8
cotas
100
AcDbLine
 10
4280.000610438794
 20
782.0735167881524
 30
0.0
 11
4292.811481863959
 21
782.0735167881524
 31
0.0
  0
SOLID
  5
1AA
330
1A5
100
AcDbEntity
  8
cotas
100
AcDbTrace
 10
4280.000610438794
 20
783.7401834548191
 30
0.0
 11
4280.000610438794
 21
780.4068501214858
 31
0.0
 12
4270.000610438795
 22
782.0735167881524
 32
0.0
 13
4270.000610438795
 23
782.0735167881524
 33
0.0
  0
SOLID
  5
1AB
330
1A5
100
AcDbEntity
  8
cotas
100
AcDbTrace
 10
4292.811481863959
 20
783.7401834548191
 30
0.0
 11
4292.811481863959
 21
780.4068501214858
 31
0.0
 12
4302.81148186396
 22
782.0735167881524
 32
0.0
 13
4302.81148186396
 23
782.0735167881524
 33
0.0
  0
MTEXT
  5
1AC
330
1A5
100
AcDbEntity
  8
cotas
100
AcDbMText
 10
4286.406046151377
 20
792.2817102065541
 30
0.0
 40
10.0
 41
0.0
 71
     5
 72
     1
  1
33
  7
SANINDUSA
 73
     1
 44
1.0
1001
ACAD
1000
MTEXTBEGIN
1070
    73
1070
     1
1070
    44
1040
1.0
1070
    74
1070
     0
1000
MTEXTEND
  0
POINT
  5
1AD
330
1A5
100
AcDbEntity
  8
Defpoints
 62
     0
100
AcDbPoint
 10
4270.000610438795
 20
1013.508865019827
 30
0.0
  0
POINT
  5
1AE
330
1A5
100
AcDbEntity
  8
Defpoints
 62
     0
100
AcDbPoint
 10
4302.81148186396
 20
1013.508865019843
 30
0.0
  0
POINT
  5
1AF
330
1A5
100
AcDbEntity
  8
Defpoints
 62
     0
100
AcDbPoint
 10
4302.81148186396
 20
782.0735167881524
 30
0.0
  0
ENDBLK
  5
1B0
330
1A5
100
AcDbEntity
  8
0
100
AcDbBlockEnd
  0
BLOCK
  5
1B2
330
1B1
100
AcDbEntity
  8
0
100
AcDbBlockBegin
  2
*D36
 70
     1
 10
0.0
 20
0.0
 30
0.0
  3
*D36
  1

  0
LINE
  5
1B3
330
1B1
100
AcDbEntity
  8
cotas
100
AcDbLine
 10
4302.829357963797
 20
1005.655114683344
 30
0.0
 11
4302.829357963797
 21
752.0735167881524
 31
0.0
  0
LINE
  5
1B4
330
1B1
100
AcDbEntity
  8
cotas
100
AcDbLine
 10
3697.613835712473
 20
1008.511271144083
 30
0.0
 11
3697.613835712473
 21
752.0735167881524
 31
0.0
  0
LINE
  5
1B5
330
1B1
100
AcDbEntity
  8
cotas
100
AcDbLine
 10
4292.829357963797
 20
757.0735167881524
 30
0.0
 11
3707.613835712473
 21
757.0735167881524
 31
0.0
  0
SOLID
  5
1B6
330
1B1
100
AcDbEntity
  8
cotas
100
AcDbTrace
 10
4292.829357963797
 20
758.7401834548191
 30
0.0
 11
4292.829357963797
 21
755.4068501214858
 31
0.0
 12
4302.829357963797
 22
757.0735167881524
 32
0.0
 13
4302.829357963797
 23
757.0735167881524
 33
0.0
  0
SOLID
  5
1B7
330
1B1
100
AcDbEntity
  8
cotas
100
AcDbTrace
 10
3707.613835712473
 20
758.7401834548191
 30
0.0
 11
3707.613835712473
 21
755.4068501214858
 31
0.0
 12
3697.613835712473
 22
757.0735167881524
 32
0.0
 13
3697.613835712473
 23
757.0735167881524
 33
0.0
  0
MTEXT
  5
1B8
330
1B1
100
AcDbEntity
  8
cotas
100
AcDbMText
 10
4000.221596838135
 20
767.2783522481927
 30
0.0
 40
10.0
 41
0.0
 71
     5
 72
     1
  1
605
  7
SANINDUSA
 73
     1
 44
1.0
1001
ACAD
1000
MTEXTBEGIN
1070
    73
1070
     1
1070
    44
1040
1.0
1070
    74
1070
     0
1000
MTEXTEND
  0
POINT
  5
1B9
330
1B1
100
AcDbEntity
  8
Defpoints
 62
     0
100
AcDbPoint
 10
4302.829357963797
 20
1010.655114683344
 30
0.0
  0
POINT
  5
1BA
330
1B1
100
AcDbEntity
  8
Defpoints
 62
     0
100
AcDbPoint
 10
3697.613835712473
 20
1013.511271144083
 30
0.0
  0
POINT
  5
1BB
330
1B1
100
AcDbEntity
  8
Defpoints
 62
     0
100
AcDbPoint
 10
3697.613835712473
 20
757.0735167881524
 30
0.0
  0
ENDBLK
  5
1BC
330
1B1
100
AcDbEntity
  8
0
100
AcDbBlockEnd
  0
BLOCK
  5
1BE
330
1BD
100
AcDbEntity
  8
0
100
AcDbBlockBegin
  2
*D37
 70
     1
 10
0.0
 20
0.0
 30
0.0
  3
*D37
  1

  0
LINE
  5
1BF
330
1BD
100
AcDbEntity
  8
cotas
100
AcDbLine
 10
3161.199806581237
 20
1687.187347938012
 30
0.0
 11
3392.670534630845
 21
1687.187347938012
 31
0.0
  0
LINE
  5
1C0
330
1BD
100
AcDbEntity
  8
cotas
100
AcDbLine
 10
3257.264830074899
 20
1702.157980692543
 30
0.0
 11
3392.670534630845
 21
1702.157980692543
 31
0.0
  0
LINE
  5
1C1
330
1BD
100
AcDbEntity
  8
cotas
100
AcDbLine
 10
3387.670534630845
 20
1677.187347938012
 30
0.0
 11
3387.670534630845
 21
1667.187347938012
 31
0.0
  0
LINE
  5
1C2
330
1BD
100
AcDbEntity
  8
cotas
100
AcDbLine
 10
3387.670534630845
 20
1712.157980692543
 30
0.0
 11
3387.670534630845
 21
1746.805395064605
 31
0.0
  0
LINE
  5
1C3
330
1BD
100
AcDbEntity
  8
cotas
100
AcDbLine
 10
3387.670534630845
 20
1687.187347938012
 30
0.0
 11
3387.670534630845
 21
1702.157980692543
 31
0.0
  0
SOLID
  5
1C4
330
1BD
100
AcDbEntity
  8
cotas
100
AcDbTrace
 10
3386.003867964178
 20
1677.187347938012
 30
0.0
 11
3389.337201297511
 21
1677.187347938012
 31
0.0
 12
3387.670534630845
 22
1687.187347938012
 32
0.0
 13
3387.670534630845
 23
1687.187347938012
 33
0.0
  0
SOLID
  5
1C5
330
1BD
100
AcDbEntity
  8
cotas
100
AcDbTrace
 10
3386.003867964178
 20
1712.157980692543
 30
0.0
 11
3389.337201297511
 21
1712.157980692543
 31
0.0
 12
3387.670534630845
 22
1702.157980692543
 32
0.0
 13
3387.670534630845
 23
1702.157980692543
 33
0.0
  0
MTEXT
  5
1C6
330
1BD
100
AcDbEntity
  8
cotas
100
AcDbMText
 10
3377.549648129836
 20
1734.481687878574
 30
0.0
 40
10.0
 41
0.0
 71
     5
 72
     1
  1
15
  7
SANINDUSA
 11
0.0000000000000001
 21
1.0
 31
0.0
 73
     1
 44
1.0
1001
ACAD
1000
MTEXTBEGIN
1070
    73
1070
     1
1070
    44
1040
1.0
1070
    74
1070
     0
1000
MTEXTEND
  0
POINT
  5
1C7
330
1BD
100
AcDbEntity
  8
Defpoints
 62
     0
100
AcDbPoint
 10
3156.199806581237
 20
1687.187347938012
 30
0.0
  0
POINT
  5
1C8
330
1BD
100
AcDbEntity
  8
Defpoints
 62
     0
100
AcDbPoint
 10
3252.264830074899
 20
1702.157980692543
 30
0.0
  0
POINT
  5
1C9
330
1BD
100
AcDbEntity
  8
Defpoints
 62
     0
100
AcDbPoint
 10
3387.670534630845
 20
1702.157980692543
 30
0.0
  0
ENDBLK
  5
1CA
330
1BD
100
AcDbEntity
  8
0
100
AcDbBlockEnd
  0
BLOCK
  5
1CC
330
1CB
100
AcDbEntity
  8
0
100
AcDbBlockBegin
  2
*D38
 70
     1
 10
0.0
 20
0.0
 30
0.0
  3
*D38
  1

  0
LINE
  5
1CD
330
1CB
100
AcDbEntity
  8
cotas
100
AcDbLine
 10
4303.089405056489
 20
1687.188881248857
 30
0.0
 11
4357.856921515585
 21
1687.188881248857
 31
0.0
  0
LINE
  5
1CE
330
1CB
100
AcDbEntity
  8
cotas
100
AcDbLine
 10
4213.820188540791
 20
1532.050473750729
 30
0.0
 11
4357.856921515585
 21
1532.050473750729
 31
0.0
  0
LINE
  5
1CF
330
1CB
100
AcDbEntity
  8
cotas
100
AcDbLine
 10
4352.856921515584
 20
1677.188881248858
 30
0.0
 11
4352.856921515584
 21
1542.050473750729
 31
0.0
  0
SOLID
  5
1D0
330
1CB
100
AcDbEntity
  8
cotas
100
AcDbTrace
 10
4351.190254848918
 20
1677.188881248858
 30
0.0
 11
4354.523588182252
 21
1677.188881248858
 31
0.0
 12
4352.856921515584
 22
1687.188881248857
 32
0.0
 13
4352.856921515584
 23
1687.188881248857
 33
0.0
  0
SOLID
  5
1D1
330
1CB
100
AcDbEntity
  8
cotas
100
AcDbTrace
 10
4351.190254848918
 20
1542.050473750729
 30
0.0
 11
4354.523588182252
 21
1542.050473750729
 31
0.0
 12
4352.856921515584
 22
1532.050473750729
 32
0.0
 13
4352.856921515584
 23
1532.050473750729
 33
0.0
  0
MTEXT
  5
1D2
330
1CB
100
AcDbEntity
  8
cotas
100
AcDbMText
 10
4342.736035014577
 20
1609.619677499794
 30
0.0
 40
10.0
 41
0.0
 71
     5
 72
     1
  1
155
  7
SANINDUSA
 11
0.0000000000000001
 21
1.0
 31
0.0
 73
     1
 44
1.0
1001
ACAD
1000
MTEXTBEGIN
1070
    73
1070
     1
1070
    44
1040
1.0
1070
    74
1070
     0
1000
MTEXTEND
  0
POINT
  5
1D3
330
1CB
100
AcDbEntity
  8
Defpoints
 62
     0
100
AcDbPoint
 10
4298.089405056489
 20
1687.188881248857
 30
0.0
  0
POINT
  5
1D4
330
1CB
100
AcDbEntity
  8
Defpoints
 62
     0
100
AcDbPoint
 10
4208.82018854079
 20
1532.050473750729
 30
0.0
  0
POINT
  5
1D5
330
1CB
100
AcDbEntity
  8
Defpoints
 62
     0
100
AcDbPoint
 10
4352.856921515584
 20
1532.050473750729
 30
0.0
  0
ENDBLK
  5
1D6
330
1CB
100
AcDbEntity
  8
0
100
AcDbBlockEnd
  0
BLOCK
  5
1D8
330
1D7
100
AcDbEntity
  8
0
100
AcDbBlockBegin
  2
*D39
 70
     1
 10
0.0
 20
0.0
 30
0.0
  3
*D39
  1

  0
LINE
  5
1D9
330
1D7
100
AcDbEntity
  8
cotas
100
AcDbLine
 10
2861.788704270975
 20
1059.299366296484
 30
0.0
 11
2869.970795004391
 21
994.9290267852628
 31
0.0
  0
ARC
  5
1DA
330
1D7
100
AcDbEntity
  8
cotas
100
AcDbCircle
 10
2909.918966320345
 20
680.6478199100716
 30
0.0
 40
321.8099325880036
100
AcDbArc
 50
81.74447165509318
 51
95.46350459751534
  0
SOLID
  5
1DB
330
1D7
100
AcDbEntity
  8
cotas
100
AcDbTrace
 10
2956.391958017102
 20
1000.768487509483
 30
0.0
 11
2955.862135027347
 21
997.4775303978459
 31
0.0
 12
2965.999917857137
 22
997.5335399843967
 32
0.0
 13
2965.999917857137
 23
997.5335399843967
 33
0.0
  0
SOLID
  5
1DC
330
1D7
100
AcDbEntity
  8
cotas
100
AcDbTrace
 10
2879.463339928993
 20
999.3393557558125
 30
0.0
 11
2879.094450779621
 21
1002.652214326078
 31
0.0
 12
2869.340319643508
 22
999.8891175928305
 32
0.0
 13
2869.340319643508
 23
999.8891175928305
 33
0.0
  0
MTEXT
  5
1DD
330
1D7
100
AcDbEntity
  8
cotas
100
AcDbMText
 10
2918.035521877945
 20
1013.705408956309
 30
0.0
 40
10.0
 41
0.0
 71
     5
 72
     1
  1
17,3°
  7
SANINDUSA
 11
0.9997031879840163
 21
-0.024362592936601
 31
0.0
 73
     1
 44
1.0
1001
ACAD
1000
MTEXTBEGIN
1070
    73
1070
     1
1070
    44
1040
1.0
1070
    74
1070
     0
1000
MTEXTEND
  0
POINT
  5
1DE
330
1D7
100
AcDbEntity
  8
Defpoints
 62
     0
100
AcDbPoint
 10
2933.913530436006
 20
1001.561972924853
 30
0.0
  0
POINT
  5
1DF
330
1D7
100
AcDbEntity
  8
Defpoints
 62
     0
100
AcDbPoint
 10
2861.158228910092
 20
1064.259457104053
 30
0.0
  0
POINT
  5
1E0
330
1D7
100
AcDbEntity
  8
Defpoints
 62
     0
100
AcDbPoint
 10
2972.944910476734
 20
1036.776258356039
 30
0.0
  0
POINT
  5
1E1
330
1D7
100
AcDbEntity
  8
Defpoints
 62
     0
100
AcDbPoint
 10
2965.437056977571
 20
994.3530915391574
 30
0.0
  0
POINT
  5
1E2
330
1D7
100
AcDbEntity
  8
Defpoints
 62
     0
100
AcDbPoint
 10
2860.380994696716
 20
1070.374132658847
 30
0.0
  0
ENDBLK
  5
1E3
330
1D7
100
AcDbEntity
  8
0
100
AcDbBlockEnd
  0
BLOCK
  5
450
330
446
100
AcDbEntity
  8
0
100
AcDbBlockBegin
  2
*D41
 70
     1
 10
0.0
 20
0.0
 30
0.0
  3
*D41
  1

  0
LINE
  5
568
330
446
100
AcDbEntity
  8
cotas
100
AcDbLine
 10
413.0692542723024
 20
1000.554544564782
 30
0.0
 11
413.0692542723024
 21
975.5545445647818
 31
0.0
  0
LINE
  5
569
330
446
100
AcDbEntity
  8
cotas
100
AcDbLine
 10
639.4700314905983
 20
1000.554544564782
 30
0.0
 11
639.4700314905983
 21
975.5545445647818
 31
0.0
  0
LINE
  5
56A
330
446
100
AcDbEntity
  8
cotas
100
AcDbLine
 10
423.0692542723025
 20
980.5545445647819
 30
0.0
 11
629.4700314905983
 21
980.5545445647819
 31
0.0
  0
SOLID
  5
56B
330
446
100
AcDbEntity
  8
cotas
100
AcDbTrace
 10
423.0692542723025
 20
982.2212112314485
 30
0.0
 11
423.0692542723025
 21
978.8878778981151
 31
0.0
 12
413.0692542723024
 22
980.5545445647819
 32
0.0
 13
413.0692542723024
 23
980.5545445647819
 33
0.0
  0
SOLID
  5
56C
330
446
100
AcDbEntity
  8
cotas
100
AcDbTrace
 10
629.4700314905983
 20
982.2212112314485
 30
0.0
 11
629.4700314905983
 21
978.8878778981151
 31
0.0
 12
639.4700314905983
 22
980.5545445647819
 32
0.0
 13
639.4700314905983
 23
980.5545445647819
 33
0.0
  0
MTEXT
  5
56D
330
446
100
AcDbEntity
  8
cotas
100
AcDbMText
 10
526.2696428814503
 20
990.6586412739827
 30
0.0
 40
10.0
 41
0.0
 71
     5
 72
     1
  1
227
  7
SANINDUSA
 73
     1
 44
1.0
1001
ACAD
1000
MTEXTBEGIN
1070
    73
1070
     1
1070
    44
1040
1.0
1070
    74
1070
     0
1000
MTEXTEND
  0
POINT
  5
56E
330
446
100
AcDbEntity
  8
Defpoints
 62
     0
100
AcDbPoint
 10
413.0692542723024
 20
1005.554544564782
 30
0.0
  0
POINT
  5
56F
330
446
100
AcDbEntity
  8
Defpoints
 62
     0
100
AcDbPoint
 10
639.4700314905983
 20
1005.554544564782
 30
0.0
  0
POINT
  5
570
330
446
100
AcDbEntity
  8
Defpoints
 62
     0
100
AcDbPoint
 10
639.4700314905983
 20
980.5545445647819
 30
0.0
  0
ENDBLK
  5
451
330
446
100
AcDbEntity
  8
0
100
AcDbBlockEnd
  0
BLOCK
  5
45C
330
452
100
AcDbEntity
  8
0
100
AcDbBlockBegin
  2
*D42
 70
     1
 10
0.0
 20
0.0
 30
0.0
  3
*D42
  1

  0
LINE
  5
571
330
452
100
AcDbEntity
  8
cotas
100
AcDbLine
 10
413.0692542723024
 20
1000.554544564782
 30
0.0
 11
413.0692542723024
 21
975.5545445647818
 31
0.0
  0
LINE
  5
572
330
452
100
AcDbEntity
  8
cotas
100
AcDbLine
 10
319.7989745646098
 20
1124.128051901638
 30
0.0
 11
319.7989745646098
 21
975.5545445647818
 31
0.0
  0
LINE
  5
573
330
452
100
AcDbEntity
  8
cotas
100
AcDbLine
 10
403.0692542723024
 20
980.5545445647819
 30
0.0
 11
329.7989745646098
 21
980.5545445647819
 31
0.0
  0
SOLID
  5
574
330
452
100
AcDbEntity
  8
cotas
100
AcDbTrace
 10
403.0692542723024
 20
982.2212112314485
 30
0.0
 11
403.0692542723024
 21
978.8878778981151
 31
0.0
 12
413.0692542723024
 22
980.5545445647819
 32
0.0
 13
413.0692542723024
 23
980.5545445647819
 33
0.0
  0
SOLID
  5
575
330
452
100
AcDbEntity
  8
cotas
100
AcDbTrace
 10
329.7989745646098
 20
982.2212112314485
 30
0.0
 11
329.7989745646098
 21
978.8878778981151
 31
0.0
 12
319.7989745646098
 22
980.5545445647819
 32
0.0
 13
319.7989745646098
 23
980.5545445647819
 33
0.0
  0
MTEXT
  5
576
330
452
100
AcDbEntity
  8
cotas
100
AcDbMText
 10
366.4341144184561
 20
990.7627379831835
 30
0.0
 40
10.0
 41
0.0
 71
     5
 72
     1
  1
93
  7
SANINDUSA
 73
     1
 44
1.0
1001
ACAD
1000
MTEXTBEGIN
1070
    73
1070
     1
1070
    44
1040
1.0
1070
    74
1070
     0
1000
MTEXTEND
  0
POINT
  5
577
330
452
100
AcDbEntity
  8
Defpoints
 62
     0
100
AcDbPoint
 10
413.0692542723024
 20
1005.554544564782
 30
0.0
  0
POINT
  5
578
330
452
100
AcDbEntity
  8
Defpoints
 62
     0
100
AcDbPoint
 10
319.7989745646098
 20
1129.128051901638
 30
0.0
  0
POINT
  5
579
330
452
100
AcDbEntity
  8
Defpoints
 62
     0
100
AcDbPoint
 10
319.7989745646098
 20
980.5545445647819
 30
0.0
  0
ENDBLK
  5
45D
330
452
100
AcDbEntity
  8
0
100
AcDbBlockEnd
  0
BLOCK
  5
468
330
45E
100
AcDbEntity
  8
0
100
AcDbBlockBegin
  2
*D43
 70
     1
 10
0.0
 20
0.0
 30
0.0
  3
*D43
  1

  0
LINE
  5
57A
330
45E
100
AcDbEntity
  8
cotas
100
AcDbLine
 10
639.4700314905983
 20
1000.554544564782
 30
0.0
 11
639.4700314905983
 21
975.5545445647818
 31
0.0
  0
LINE
  5
57B
330
45E
100
AcDbEntity
  8
cotas
100
AcDbLine
 10
732.7403827751965
 20
1124.128051901638
 30
0.0
 11
732.7403827751965
 21
975.5545445647818
 31
0.0
  0
LINE
  5
57C
330
45E
100
AcDbEntity
  8
cotas
100
AcDbLine
 10
649.4700314905983
 20
980.5545445647819
 30
0.0
 11
722.7403827751966
 21
980.5545445647819
 31
0.0
  0
SOLID
  5
57D
330
45E
100
AcDbEntity
  8
cotas
100
AcDbTrace
 10
649.4700314905983
 20
982.2212112314485
 30
0.0
 11
649.4700314905983
 21
978.8878778981151
 31
0.0
 12
639.4700314905983
 22
980.5545445647819
 32
0.0
 13
639.4700314905983
 23
980.5545445647819
 33
0.0
  0
SOLID
  5
57E
330
45E
100
AcDbEntity
  8
cotas
100
AcDbTrace
 10
722.7403827751966
 20
982.2212112314485
 30
0.0
 11
722.7403827751966
 21
978.8878778981151
 31
0.0
 12
732.7403827751965
 22
980.5545445647819
 32
0.0
 13
732.7403827751965
 23
980.5545445647819
 33
0.0
  0
MTEXT
  5
57F
330
45E
100
AcDbEntity
  8
cotas
100
AcDbMText
 10
686.1052071328974
 20
990.7627379831835
 30
0.0
 40
10.0
 41
0.0
 71
     5
 72
     1
  1
93
  7
SANINDUSA
 73
     1
 44
1.0
1001
ACAD
1000
MTEXTBEGIN
1070
    73
1070
     1
1070
    44
1040
1.0
1070
    74
1070
     0
1000
MTEXTEND
  0
POINT
  5
580
330
45E
100
AcDbEntity
  8
Defpoints
 62
     0
100
AcDbPoint
 10
639.4700314905983
 20
1005.554544564782
 30
0.0
  0
POINT
  5
581
330
45E
100
AcDbEntity
  8
Defpoints
 62
     0
100
AcDbPoint
 10
732.7403827751965
 20
1129.128051901638
 30
0.0
  0
POINT
  5
582
330
45E
100
AcDbEntity
  8
Defpoints
 62
     0
100
AcDbPoint
 10
732.7403827751965
 20
980.5545445647819
 30
0.0
  0
ENDBLK
  5
469
330
45E
100
AcDbEntity
  8
0
100
AcDbBlockEnd
  0
BLOCK
  5
474
330
46A
100
AcDbEntity
  8
0
100
AcDbBlockBegin
  2
*D44
 70
     1
 10
0.0
 20
0.0
 30
0.0
  3
*D44
  1

  0
LINE
  5
583
330
46A
100
AcDbEntity
  8
cotas
100
AcDbLine
 10
319.7989745646098
 20
1134.128051901638
 30
0.0
 11
319.7989745646098
 21
1205.662051506596
 31
0.0
  0
LINE
  5
584
330
46A
100
AcDbEntity
  8
cotas
100
AcDbLine
 10
732.7403827751965
 20
1134.128051901638
 30
0.0
 11
732.7403827751965
 21
1205.662051506596
 31
0.0
  0
LINE
  5
585
330
46A
100
AcDbEntity
  8
cotas
100
AcDbLine
 10
329.7989745646098
 20
1200.662051506596
 30
0.0
 11
722.7403827751966
 21
1200.662051506596
 31
0.0
  0
SOLID
  5
586
330
46A
100
AcDbEntity
  8
cotas
100
AcDbTrace
 10
329.7989745646098
 20
1202.328718173263
 30
0.0
 11
329.7989745646098
 21
1198.995384839929
 31
0.0
 12
319.7989745646098
 22
1200.662051506596
 32
0.0
 13
319.7989745646098
 23
1200.662051506596
 33
0.0
  0
SOLID
  5
587
330
46A
100
AcDbEntity
  8
cotas
100
AcDbTrace
 10
722.7403827751966
 20
1202.328718173263
 30
0.0
 11
722.7403827751966
 21
1198.995384839929
 31
0.0
 12
732.7403827751965
 22
1200.662051506596
 32
0.0
 13
732.7403827751965
 23
1200.662051506596
 33
0.0
  0
MTEXT
  5
588
330
46A
100
AcDbEntity
  8
cotas
100
AcDbMText
 10
526.2696786699032
 20
1210.870244924997
 30
0.0
 40
10.0
 41
0.0
 71
     5
 72
     1
  1
413
  7
SANINDUSA
 73
     1
 44
1.0
1001
ACAD
1000
MTEXTBEGIN
1070
    73
1070
     1
1070
    44
1040
1.0
1070
    74
1070
     0
1000
MTEXTEND
  0
POINT
  5
589
330
46A
100
AcDbEntity
  8
Defpoints
 62
     0
100
AcDbPoint
 10
319.7989745646098
 20
1129.128051901638
 30
0.0
  0
POINT
  5
58A
330
46A
100
AcDbEntity
  8
Defpoints
 62
     0
100
AcDbPoint
 10
732.7403827751965
 20
1129.128051901638
 30
0.0
  0
POINT
  5
58B
330
46A
100
AcDbEntity
  8
Defpoints
 62
     0
100
AcDbPoint
 10
732.7403827751965
 20
1200.662051506596
 30
0.0
  0
ENDBLK
  5
475
330
46A
100
AcDbEntity
  8
0
100
AcDbBlockEnd
  0
BLOCK
  5
480
330
476
100
AcDbEntity
  8
0
100
AcDbBlockBegin
  2
*D45
 70
     1
 10
0.0
 20
0.0
 30
0.0
  3
*D45
  1

  0
LINE
  5
58C
330
476
100
AcDbEntity
  8
cotas
100
AcDbLine
 10
1067.752450248703
 20
1174.064096970285
 30
0.0
 11
1067.752450248703
 21
1205.650515245755
 31
0.0
  0
LINE
  5
58D
330
476
100
AcDbEntity
  8
cotas
100
AcDbLine
 10
1672.926769659937
 20
1160.710445469549
 30
0.0
 11
1672.926769659937
 21
1205.650515245755
 31
0.0
  0
LINE
  5
58E
330
476
100
AcDbEntity
  8
cotas
100
AcDbLine
 10
1077.752450248703
 20
1200.650515245756
 30
0.0
 11
1662.926769659937
 21
1200.650515245756
 31
0.0
  0
SOLID
  5
58F
330
476
100
AcDbEntity
  8
cotas
100
AcDbTrace
 10
1077.752450248703
 20
1202.317181912422
 30
0.0
 11
1077.752450248703
 21
1198.983848579089
 31
0.0
 12
1067.752450248703
 22
1200.650515245756
 32
0.0
 13
1067.752450248703
 23
1200.650515245756
 33
0.0
  0
SOLID
  5
590
330
476
100
AcDbEntity
  8
cotas
100
AcDbTrace
 10
1662.926769659937
 20
1202.317181912422
 30
0.0
 11
1662.926769659937
 21
1198.983848579089
 31
0.0
 12
1672.926769659937
 22
1200.650515245756
 32
0.0
 13
1672.926769659937
 23
1200.650515245756
 33
0.0
  0
MTEXT
  5
591
330
476
100
AcDbEntity
  8
cotas
100
AcDbMText
 10
1370.33960995432
 20
1210.855350705796
 30
0.0
 40
10.0
 41
0.0
 71
     5
 72
     1
  1
605
  7
SANINDUSA
 73
     1
 44
1.0
1001
ACAD
1000
MTEXTBEGIN
1070
    73
1070
     1
1070
    44
1040
1.0
1070
    74
1070
     0
1000
MTEXTEND
  0
POINT
  5
592
330
476
100
AcDbEntity
  8
Defpoints
 62
     0
100
AcDbPoint
 10
1067.752450248703
 20
1169.064096970285
 30
0.0
  0
POINT
  5
593
330
476
100
AcDbEntity
  8
Defpoints
 62
     0
100
AcDbPoint
 10
1672.926769659937
 20
1155.710445469549
 30
0.0
  0
POINT
  5
594
330
476
100
AcDbEntity
  8
Defpoints
 62
     0
100
AcDbPoint
 10
1672.926769659937
 20
1200.650515245756
 30
0.0
  0
ENDBLK
  5
481
330
476
100
AcDbEntity
  8
0
100
AcDbBlockEnd
  0
BLOCK
  5
48C
330
482
100
AcDbEntity
  8
0
100
AcDbBlockBegin
  2
*D46
 70
     1
 10
0.0
 20
0.0
 30
0.0
  3
*D46
  1

  0
LINE
  5
595
330
482
100
AcDbEntity
  8
cotas
100
AcDbLine
 10
1146.196089773444
 20
404.1243050326635
 30
0.0
 11
1037.683683972613
 21
404.1243050326635
 31
0.0
  0
LINE
  5
596
330
482
100
AcDbEntity
  8
cotas
100
AcDbLine
 10
1146.196089773444
 20
569.9015666351266
 30
0.0
 11
1037.683683972613
 21
569.9015666351266
 31
0.0
  0
LINE
  5
597
330
482
100
AcDbEntity
  8
cotas
100
AcDbLine
 10
1042.683683972613
 20
414.1243050326635
 30
0.0
 11
1042.683683972613
 21
559.9015666351266
 31
0.0
  0
SOLID
  5
598
330
482
100
AcDbEntity
  8
cotas
100
AcDbTrace
 10
1041.017017305946
 20
414.1243050326635
 30
0.0
 11
1044.35035063928
 21
414.1243050326635
 31
0.0
 12
1042.683683972613
 22
404.1243050326635
 32
0.0
 13
1042.683683972613
 23
404.1243050326635
 33
0.0
  0
SOLID
  5
599
330
482
100
AcDbEntity
  8
cotas
100
AcDbTrace
 10
1041.017017305946
 20
559.9015666351266
 30
0.0
 11
1044.35035063928
 21
559.9015666351266
 31
0.0
 12
1042.683683972613
 22
569.9015666351266
 32
0.0
 13
1042.683683972613
 23
569.9015666351266
 33
0.0
  0
MTEXT
  5
59A
330
482
100
AcDbEntity
  8
cotas
100
AcDbMText
 10
1031.327068794641
 20
511.8061891236664
 30
0.0
 40
10.0
 41
0.0
 71
     5
 72
     1
  1
165,8
  7
SANINDUSA
 11
0.0000000000000001
 21
1.0
 31
0.0
 73
     1
 44
1.0
1001
ACAD
1000
MTEXTBEGIN
1070
    73
1070
     1
1070
    44
1040
1.0
1070
    74
1070
     0
1000
MTEXTEND
  0
POINT
  5
59B
330
482
100
AcDbEntity
  8
Defpoints
 62
     0
100
AcDbPoint
 10
1151.196089773444
 20
404.1243050326635
 30
0.0
  0
POINT
  5
59C
330
482
100
AcDbEntity
  8
Defpoints
 62
     0
100
AcDbPoint
 10
1151.196089773444
 20
569.9015666351266
 30
0.0
  0
POINT
  5
59D
330
482
100
AcDbEntity
  8
Defpoints
 62
     0
100
AcDbPoint
 10
1042.683683972613
 20
569.9015666351266
 30
0.0
  0
ENDBLK
  5
48D
330
482
100
AcDbEntity
  8
0
100
AcDbBlockEnd
  0
BLOCK
  5
498
330
48E
100
AcDbEntity
  8
0
100
AcDbBlockBegin
  2
*D47
 70
     1
 10
0.0
 20
0.0
 30
0.0
  3
*D47
  1

  0
LINE
  5
59E
330
48E
100
AcDbEntity
  8
cotas
100
AcDbLine
 10
231.9928876667995
 20
548.6460182689848
 30
0.0
 11
241.5297542665619
 21
581.461966548962
 31
0.0
  0
LINE
  5
59F
330
48E
100
AcDbEntity
  8
cotas
100
AcDbLine
 10
343.6959379000326
 20
516.1832328034521
 30
0.0
 11
353.2328044997952
 21
548.9991810834294
 31
0.0
  0
LINE
  5
5A0
330
48E
100
AcDbEntity
  8
cotas
100
AcDbLine
 10
249.7371057785787
 20
573.8699061462652
 30
0.0
 11
342.2347452704277
 21
546.988536115434
 31
0.0
  0
SOLID
  5
5A1
330
48E
100
AcDbEntity
  8
cotas
100
AcDbTrace
 10
250.2022237314705
 20
575.4703570413806
 30
0.0
 11
249.271987825687
 21
572.2694552511499
 31
0.0
 12
240.1344004078866
 22
576.6606138636159
 32
0.0
 13
240.1344004078866
 23
576.6606138636159
 33
0.0
  0
SOLID
  5
5A2
330
48E
100
AcDbEntity
  8
cotas
100
AcDbTrace
 10
342.6998632233194
 20
548.5889870105494
 30
0.0
 11
341.7696273175359
 21
545.3880852203187
 31
0.0
 12
351.8374506411199
 22
544.1978283980834
 32
0.0
 13
351.8374506411199
 23
544.1978283980834
 33
0.0
  0
MTEXT
  5
5A3
330
48E
100
AcDbEntity
  8
cotas
100
AcDbMText
 10
298.8319226157034
 20
570.2221748618073
 30
0.0
 40
10.0
 41
0.0
 71
     5
 72
     1
  1
116
  7
SANINDUSA
 11
0.960270537069212
 21
-0.2790707717350688
 31
0.0
 73
     1
 44
1.0
1001
ACAD
1000
MTEXTBEGIN
1070
    73
1070
     1
1070
    44
1040
1.0
1070
    74
1070
     0
1000
MTEXTEND
  0
POINT
  5
5A4
330
48E
100
AcDbEntity
  8
Defpoints
 62
     0
100
AcDbPoint
 10
230.5975338081241
 20
543.8446655836387
 30
0.0
  0
POINT
  5
5A5
330
48E
100
AcDbEntity
  8
Defpoints
 62
     0
100
AcDbPoint
 10
342.3005840413573
 20
511.3818801181061
 30
0.0
  0
POINT
  5
5A6
330
48E
100
AcDbEntity
  8
Defpoints
 62
     0
100
AcDbPoint
 10
351.8374506411199
 20
544.1978283980834
 30
0.0
  0
ENDBLK
  5
499
330
48E
100
AcDbEntity
  8
0
100
AcDbBlockEnd
  0
BLOCK
  5
4A0
330
49A
100
AcDbEntity
  8
0
100
AcDbBlockBegin
  2
*D48
 70
     1
 10
0.0
 20
0.0
 30
0.0
  3
*D48
  1

  0
LINE
  5
5A7
330
49A
100
AcDbEntity
  8
cotas
100
AcDbLine
 10
460.555772090384
 20
359.0830539063952
 30
0.0
 11
437.4760787671925
 21
396.5700312167045
 31
0.0
  0
MTEXT
  5
5A8
330
49A
100
AcDbEntity
  8
cotas
100
AcDbMText
 10
462.3467934904194
 20
375.446513353281
 30
0.0
 40
10.0
 41
0.0
 71
     5
 72
     1
  1
R5
  7
SANINDUSA
 11
0.5242750982415675
 21
-0.8515489541792618
 31
0.0
 73
     1
 44
1.0
1001
ACAD
1000
MTEXTBEGIN
1070
    73
1070
     1
1070
    44
1040
1.0
1070
    74
1070
     0
1000
MTEXTEND
  0
SOLID
  5
5A9
330
49A
100
AcDbEntity
  8
cotas
100
AcDbTrace
 10
438.8953270241579
 20
397.4438230471071
 30
0.0
 11
436.0568305102271
 21
395.6962393863019
 31
0.0
 12
432.2333277847768
 22
405.085520758497
 32
0.0
 13
432.2333277847768
 23
405.085520758497
 33
0.0
  0
POINT
  5
5AA
330
49A
100
AcDbEntity
  8
Defpoints
 62
     0
100
AcDbPoint
 10
432.2333277847768
 20
405.085520758497
 30
0.0
  0
POINT
  5
5AB
330
49A
100
AcDbEntity
  8
Defpoints
 62
     0
100
AcDbPoint
 10
434.8547034663769
 20
400.8277756783579
 30
0.0
  0
ENDBLK
  5
4A1
330
49A
100
AcDbEntity
  8
0
100
AcDbBlockEnd
  0
BLOCK
  5
4A8
330
4A2
100
AcDbEntity
  8
0
100
AcDbBlockBegin
  2
*D49
 70
     1
 10
0.0
 20
0.0
 30
0.0
  3
*D49
  1

  0
LINE
  5
5AC
330
4A2
100
AcDbEntity
  8
cotas
100
AcDbLine
 10
681.3505958347069
 20
357.501776601382
 30
0.0
 11
695.2840730618391
 21
390.6858290416473
 31
0.0
  0
MTEXT
  5
5AD
330
4A2
100
AcDbEntity
  8
cotas
100
AcDbMText
 10
677.0654440411115
 20
373.3954242894085
 30
0.0
 40
10.0
 41
0.0
 71
     5
 72
     1
  1
R5
  7
SANINDUSA
 11
0.3871421457585362
 21
0.9220200426115889
 31
0.0
 73
     1
 44
1.0
1001
ACAD
1000
MTEXTBEGIN
1070
    73
1070
     1
1070
    44
1040
1.0
1070
    74
1070
     0
1000
MTEXTEND
  0
SOLID
  5
5AE
330
4A2
100
AcDbEntity
  8
cotas
100
AcDbTrace
 10
693.7473729908198
 20
391.3310659512449
 30
0.0
 11
696.8207731328584
 21
390.0405921320497
 31
0.0
 12
699.1554945194245
 22
399.9060294677633
 32
0.0
 13
699.1554945194245
 23
399.9060294677633
 33
0.0
  0
POINT
  5
5AF
330
4A2
100
AcDbEntity
  8
Defpoints
 62
     0
100
AcDbPoint
 10
699.1554945194245
 20
399.9060294677633
 30
0.0
  0
POINT
  5
5B0
330
4A2
100
AcDbEntity
  8
Defpoints
 62
     0
100
AcDbPoint
 10
697.219783785809
 20
395.2959292432193
 30
0.0
  0
ENDBLK
  5
4A9
330
4A2
100
AcDbEntity
  8
0
100
AcDbBlockEnd
  0
BLOCK
  5
4B4
330
4AA
100
AcDbEntity
  8
0
100
AcDbBlockBegin
  2
*D50
 70
     1
 10
0.0
 20
0.0
 30
0.0
  3
*D50
  1

  0
LINE
  5
5C1
330
4AA
100
AcDbEntity
  8
cotas
100
AcDbLine
 10
580.0494166221085
 20
380.4007106012585
 30
0.0
 11
580.0494166221085
 21
352.0621425662429
 31
0.0
  0
LINE
  5
5C2
330
4AA
100
AcDbEntity
  8
cotas
100
AcDbLine
 10
626.0494166221085
 20
380.4007106012585
 30
0.0
 11
626.0494166221085
 21
352.0621425662429
 31
0.0
  0
LINE
  5
5C3
330
4AA
100
AcDbEntity
  8
cotas
100
AcDbLine
 10
590.0494166221085
 20
357.0621425662429
 30
0.0
 11
616.0494166221085
 21
357.0621425662429
 31
0.0
  0
SOLID
  5
5C4
330
4AA
100
AcDbEntity
  8
cotas
100
AcDbTrace
 10
590.0494166221085
 20
358.7288092329095
 30
0.0
 11
590.0494166221085
 21
355.3954758995762
 31
0.0
 12
580.0494166221085
 22
357.0621425662429
 32
0.0
 13
580.0494166221085
 23
357.0621425662429
 33
0.0
  0
SOLID
  5
5C5
330
4AA
100
AcDbEntity
  8
cotas
100
AcDbTrace
 10
616.0494166221085
 20
358.7288092329095
 30
0.0
 11
616.0494166221085
 21
355.3954758995762
 31
0.0
 12
626.0494166221085
 22
357.0621425662429
 32
0.0
 13
626.0494166221085
 23
357.0621425662429
 33
0.0
  0
MTEXT
  5
5C6
330
4AA
100
AcDbEntity
  8
cotas
100
AcDbMText
 10
603.0494166221085
 20
367.6531432378346
 30
0.0
 40
10.0
 41
0.0
 71
     5
 72
     1
  1
ø46
  7
SANINDUSA
 73
     1
 44
1.0
1001
ACAD
1000
MTEXTBEGIN
1070
    73
1070
     1
1070
    44
1040
1.0
1070
    74
1070
     0
1000
MTEXTEND
  0
POINT
  5
5C7
330
4AA
100
AcDbEntity
  8
Defpoints
 62
     0
100
AcDbPoint
 10
580.0494166221085
 20
385.4007106012586
 30
0.0
  0
POINT
  5
5C8
330
4AA
100
AcDbEntity
  8
Defpoints
 62
     0
100
AcDbPoint
 10
626.0494166221085
 20
385.4007106012586
 30
0.0
  0
POINT
  5
5C9
330
4AA
100
AcDbEntity
  8
Defpoints
 62
     0
100
AcDbPoint
 10
626.0494166221085
 20
357.0621425662429
 30
0.0
  0
ENDBLK
  5
4B5
330
4AA
100
AcDbEntity
  8
0
100
AcDbBlockEnd
  0
BLOCK
  5
4C2
330
4B6
100
AcDbEntity
  8
0
100
AcDbBlockBegin
  2
*D51
 70
     1
 10
0.0
 20
0.0
 30
0.0
  3
*D51
  1

  0
LINE
  5
5CA
330
4B6
100
AcDbEntity
  8
cotas
100
AcDbLine
 10
231.8691143212589
 20
548.6728365150083
 30
0.0
 11
241.5675259256654
 21
581.4594541576294
 31
0.0
  0
LINE
  5
5CB
330
4B6
100
AcDbEntity
  8
cotas
100
AcDbLine
 10
206.91478674428
 20
556.0544256374594
 30
0.0
 11
216.6131983486866
 21
588.8410432800805
 31
0.0
  0
LINE
  5
5CC
330
4B6
100
AcDbEntity
  8
cotas
100
AcDbLine
 10
249.7385205296911
 20
573.8282781551391
 30
0.0
 11
259.3277866139078
 21
570.9917351947573
 31
0.0
  0
LINE
  5
5CD
330
4B6
100
AcDbEntity
  8
cotas
100
AcDbLine
 10
205.6056607842789
 20
586.882953198354
 30
0.0
 11
196.0163947000623
 21
589.7194961587358
 31
0.0
  0
LINE
  5
5CE
330
4B6
100
AcDbEntity
  8
cotas
100
AcDbLine
 10
240.1492544454745
 20
576.6648211155211
 30
0.0
 11
215.1949268684956
 21
584.0464102379721
 31
0.0
  0
SOLID
  5
5CF
330
4B6
100
AcDbEntity
  8
cotas
100
AcDbTrace
 10
250.2112776897547
 20
575.4264891691751
 30
0.0
 11
249.2657633696275
 21
572.230067141103
 31
0.0
 12
240.1492544454745
 22
576.6648211155211
 32
0.0
 13
240.1492544454745
 23
576.6648211155211
 33
0.0
  0
SOLID
  5
5D0
330
4B6
100
AcDbEntity
  8
cotas
100
AcDbTrace
 10
206.0784179443426
 20
588.4811642123899
 30
0.0
 11
205.1329036242153
 21
585.2847421843178
 31
0.0
 12
215.1949268684956
 22
584.0464102379721
 32
0.0
 13
215.1949268684956
 23
584.0464102379721
 33
0.0
  0
MTEXT
  5
5D1
330
4B6
100
AcDbEntity
  8
cotas
100
AcDbMText
 10
230.5676885749034
 20
590.1445239695668
 30
0.0
 40
10.0
 41
0.0
 71
     5
 72
     1
  1
26
  7
SANINDUSA
 11
0.9589266084216665
 21
-0.2836542960381872
 31
0.0
 73
     1
 44
1.0
1001
ACAD
1000
MTEXTBEGIN
1070
    73
1070
     1
1070
    44
1040
1.0
1070
    74
1070
     0
1000
MTEXTEND
  0
POINT
  5
5D2
330
4B6
100
AcDbEntity
  8
Defpoints
 62
     0
100
AcDbPoint
 10
230.4508428410679
 20
543.8782034729
 30
0.0
  0
POINT
  5
5D3
330
4B6
100
AcDbEntity
  8
Defpoints
 62
     0
100
AcDbPoint
 10
205.4965152640891
 20
551.259792595351
 30
0.0
  0
POINT
  5
5D4
330
4B6
100
AcDbEntity
  8
Defpoints
 62
     0
100
AcDbPoint
 10
215.1949268684956
 20
584.0464102379721
 30
0.0
  0
ENDBLK
  5
4C3
330
4B6
100
AcDbEntity
  8
0
100
AcDbBlockEnd
  0
BLOCK
  5
4D0
330
4C4
100
AcDbEntity
  8
0
100
AcDbBlockBegin
  2
*D52
 70
     1
 10
0.0
 20
0.0
 30
0.0
  3
*D52
  1

  0
LINE
  5
638
330
4C4
100
AcDbEntity
  8
cotas
100
AcDbLine
 10
642.8229646003907
 20
410.6813489913328
 30
0.0
 11
655.4391554646175
 21
421.6484363913665
 31
0.0
  0
LINE
  5
639
330
4C4
100
AcDbEntity
  8
cotas
100
AcDbLine
 10
563.2758595058919
 20
410.6813569348093
 30
0.0
 11
550.6596777795997
 21
421.6484363913513
 31
0.0
  0
ARC
  5
63A
330
4C4
100
AcDbEntity
  8
cotas
100
AcDbCircle
 10
603.0494166221153
 20
376.106731217911
 30
0.0
 40
64.41708468447477
100
AcDbArc
 50
49.90345601700723
 51
130.0965439830095
  0
SOLID
  5
63B
330
4C4
100
AcDbEntity
  8
cotas
100
AcDbTrace
 10
645.7081940206824
 20
426.5710067004839
 30
0.0
 11
643.3698275784337
 21
424.1954744458352
 31
0.0
 12
651.6656075635041
 22
418.3681412464135
 32
0.0
 13
651.6656075635041
 23
418.3681412464135
 33
0.0
  0
SOLID
  5
63C
330
4C4
100
AcDbEntity
  8
cotas
100
AcDbTrace
 10
562.7290056657828
 20
424.1954744458234
 30
0.0
 11
560.3906392235335
 21
426.5710067004715
 31
0.0
 12
554.4332256807141
 22
418.3681412463993
 32
0.0
 13
554.4332256807141
 23
418.3681412463993
 33
0.0
  0
MTEXT
  5
63D
330
4C4
100
AcDbEntity
  8
cotas
100
AcDbMText
 10
603.0494166221059
 20
451.8804310803576
 30
0.0
 40
10.0
 41
0.0
 71
     5
 72
     1
  1
98,0°
  7
SANINDUSA
 73
     1
 44
1.0
1001
ACAD
1000
MTEXTBEGIN
1070
    73
1070
     1
1070
    44
1040
1.0
1070
    74
1070
     0
1000
MTEXTEND
  0
POINT
  5
63E
330
4C4
100
AcDbEntity
  8
Defpoints
 62
     0
100
AcDbPoint
 10
621.165114707242
 20
437.9240611678152
 30
0.0
  0
POINT
  5
63F
330
4C4
100
AcDbEntity
  8
Defpoints
 62
     0
100
AcDbPoint
 10
567.0494074070063
 20
407.4010617898574
 30
0.0
  0
POINT
  5
640
330
4C4
100
AcDbEntity
  8
Defpoints
 62
     0
100
AcDbPoint
 10
626.0494166221085
 20
396.1003261876839
 30
0.0
  0
POINT
  5
641
330
4C4
100
AcDbEntity
  8
Defpoints
 62
     0
100
AcDbPoint
 10
639.0494166992773
 20
407.4010538463798
 30
0.0
  0
POINT
  5
642
330
4C4
100
AcDbEntity
  8
Defpoints
 62
     0
100
AcDbPoint
 10
580.0494166221085
 20
396.1003261876839
 30
0.0
  0
ENDBLK
  5
4D1
330
4C4
100
AcDbEntity
  8
0
100
AcDbBlockEnd
  0
BLOCK
  5
4D8
330
4D2
100
AcDbEntity
  8
0
100
AcDbBlockBegin
  2
*D53
 70
     1
 10
0.0
 20
0.0
 30
0.0
  3
*D53
  1

  0
LINE
  5
643
330
4D2
100
AcDbEntity
  8
cotas
100
AcDbLine
 10
532.0300037204822
 20
352.4813387340845
 30
0.0
 11
559.8146725769898
 21
387.6270450008403
 31
0.0
  0
MTEXT
  5
644
330
4D2
100
AcDbEntity
  8
cotas
100
AcDbMText
 10
534.8161191956546
 20
372.4605516353928
 30
0.0
 40
10.0
 41
0.0
 71
     5
 72
     1
  1
R10
  7
SANINDUSA
 11
0.6201674700545603
 21
0.7844694443291762
 31
0.0
 73
     1
 44
1.0
1001
ACAD
1000
MTEXTBEGIN
1070
    73
1070
     1
1070
    44
1040
1.0
1070
    74
1070
     0
1000
MTEXTEND
  0
SOLID
  5
645
330
4D2
100
AcDbEntity
  8
cotas
100
AcDbTrace
 10
558.5072235031078
 20
388.6606574509313
 30
0.0
 11
561.1221216508718
 21
386.5934325507494
 31
0.0
 12
566.0163472775354
 22
395.4717394441321
 32
0.0
 13
566.0163472775354
 23
395.4717394441321
 33
0.0
  0
POINT
  5
646
330
4D2
100
AcDbEntity
  8
Defpoints
 62
     0
100
AcDbPoint
 10
566.0163472775354
 20
395.4717394441321
 30
0.0
  0
POINT
  5
647
330
4D2
100
AcDbEntity
  8
Defpoints
 62
     0
100
AcDbPoint
 10
559.8111942017991
 20
387.6226450940655
 30
0.0
  0
ENDBLK
  5
4D9
330
4D2
100
AcDbEntity
  8
0
100
AcDbBlockEnd
  0
BLOCK
  5
4E0
330
4DA
100
AcDbEntity
  8
0
100
AcDbBlockBegin
  2
*D54
 70
     1
 10
0.0
 20
0.0
 30
0.0
  3
*D54
  1

  0
LINE
  5
648
330
4DA
100
AcDbEntity
  8
cotas
100
AcDbLine
 10
678.8139685434966
 20
488.9045606685511
 30
0.0
 11
739.8161798655744
 21
460.114590371015
 31
0.0
  0
MTEXT
  5
649
330
4DA
100
AcDbEntity
  8
cotas
100
AcDbMText
 10
709.6318129075378
 20
486.8956632933973
 30
0.0
 40
10.0
 41
0.0
 71
     5
 72
     1
  1
R514,6
  7
SANINDUSA
 11
0.9043438138049932
 21
-0.4268047169756207
 31
0.0
 73
     1
 44
1.0
1001
ACAD
1000
MTEXTBEGIN
1070
    73
1070
     1
1070
    44
1040
1.0
1070
    74
1070
     0
1000
MTEXTEND
  0
SOLID
  5
64A
330
4DA
100
AcDbEntity
  8
cotas
100
AcDbTrace
 10
740.5275210605338
 20
461.6218300606899
 30
0.0
 11
739.1048386706152
 21
458.6073506813399
 31
0.0
 12
748.8596180036243
 22
455.8465432012587
 32
0.0
 13
748.8596180036243
 23
455.8465432012587
 33
0.0
  0
POINT
  5
64B
330
4DA
100
AcDbEntity
  8
Defpoints
 62
     0
100
AcDbPoint
 10
748.8596180036243
 20
455.8465432012587
 30
0.0
  0
POINT
  5
64C
330
4DA
100
AcDbEntity
  8
Defpoints
 62
     0
100
AcDbPoint
 10
283.4496035697937
 20
675.4966214743477
 30
0.0
  0
ENDBLK
  5
4E1
330
4DA
100
AcDbEntity
  8
0
100
AcDbBlockEnd
  0
BLOCK
  5
4E8
330
4E2
100
AcDbEntity
  8
0
100
AcDbBlockBegin
  2
*D55
 70
     1
 10
0.0
 20
0.0
 30
0.0
  3
*D55
  1

  0
LINE
  5
64D
330
4E2
100
AcDbEntity
  8
cotas
100
AcDbLine
 10
534.7206746186339
 20
486.8971692214609
 30
0.0
 11
469.8903012833905
 21
448.2412320238897
 31
0.0
  0
MTEXT
  5
64E
330
4E2
100
AcDbEntity
  8
cotas
100
AcDbMText
 10
500.7890725272909
 20
479.8754788496961
 30
0.0
 40
10.0
 41
0.0
 71
     5
 72
     1
  1
R1343,1
  7
SANINDUSA
 11
0.85890582699685
 21
0.5121335571419403
 31
0.0
 73
     1
 44
1.0
1001
ACAD
1000
MTEXTBEGIN
1070
    73
1070
     1
1070
    44
1040
1.0
1070
    74
1070
     0
1000
MTEXTEND
  0
SOLID
  5
64F
330
4E2
100
AcDbEntity
  8
cotas
100
AcDbTrace
 10
469.0367453548206
 20
449.6727417355511
 30
0.0
 11
470.7438572119603
 21
446.8097223122283
 31
0.0
 12
461.301243013422
 22
443.1198964524703
 32
0.0
 13
461.301243013422
 23
443.1198964524703
 33
0.0
  0
POINT
  5
650
330
4E2
100
AcDbEntity
  8
Defpoints
 62
     0
100
AcDbPoint
 10
461.301243013422
 20
443.1198964524703
 30
0.0
  0
POINT
  5
651
330
4E2
100
AcDbEntity
  8
Defpoints
 62
     0
100
AcDbPoint
 10
1614.930012888892
 20
1130.985768318039
 30
0.0
  0
ENDBLK
  5
4E9
330
4E2
100
AcDbEntity
  8
0
100
AcDbBlockEnd
  0
BLOCK
  5
4F1
330
4EA
100
AcDbEntity
  8
0
100
AcDbBlockBegin
  2
*D56
 70
     1
 10
0.0
 20
0.0
 30
0.0
  3
*D56
  1

  0
LINE
  5
652
330
4EA
100
AcDbEntity
  8
cotas
100
AcDbLine
 10
837.7309070052183
 20
574.7072250377958
 30
0.0
 11
814.6820335760471
 21
547.0653626250831
 31
0.0
  0
MTEXT
  5
653
330
4EA
100
AcDbEntity
  8
cotas
100
AcDbMText
 10
821.6482885903324
 20
571.1972467406488
 30
0.0
 40
10.0
 41
0.0
 71
     5
 72
     1
  1
R5
  7
SANINDUSA
 11
0.6404137439081128
 21
0.7680301013720713
 31
0.0
 73
     1
 44
1.0
1001
ACAD
1000
MTEXTBEGIN
1070
    73
1070
     1
1070
    44
1040
1.0
1070
    74
1070
     0
1000
MTEXTEND
  0
LINE
  5
654
330
4EA
100
AcDbEntity
  8
cotas
100
AcDbLine
 10
805.075827420643
 20
535.5449111083605
 30
0.0
 11
808.277896136966
 21
539.3850616113623
 31
0.0
  0
SOLID
  5
655
330
4EA
100
AcDbEntity
  8
cotas
100
AcDbTrace
 10
813.4019834070937
 20
548.13271886493
 30
0.0
 11
815.9620837450006
 21
545.9980063852363
 31
0.0
 12
808.277896136966
 22
539.3850616113623
 32
0.0
 13
808.277896136966
 23
539.3850616113623
 33
0.0
  0
POINT
  5
656
330
4EA
100
AcDbEntity
  8
Defpoints
 62
     0
100
AcDbPoint
 10
808.277896136966
 20
539.3850616113623
 30
0.0
  0
POINT
  5
657
330
4EA
100
AcDbEntity
  8
Defpoints
 62
     0
100
AcDbPoint
 10
805.075827420643
 20
535.5449111083605
 30
0.0
  0
ENDBLK
  5
4F2
330
4EA
100
AcDbEntity
  8
0
100
AcDbBlockEnd
  0
BLOCK
  5
4FA
330
4F3
100
AcDbEntity
  8
0
100
AcDbBlockBegin
  2
*D57
 70
     1
 10
0.0
 20
0.0
 30
0.0
  3
*D57
  1

  0
LINE
  5
658
330
4F3
100
AcDbEntity
  8
cotas
100
AcDbLine
 10
459.2585944940583
 20
535.2396919692942
 30
0.0
 11
434.9614909633199
 21
508.6883476716156
 31
0.0
  0
MTEXT
  5
659
330
4F3
100
AcDbEntity
  8
cotas
100
AcDbMText
 10
443.0314265844042
 20
532.4739037711205
 30
0.0
 40
10.0
 41
0.0
 71
     5
 72
     1
  1
R5
  7
SANINDUSA
 11
0.6750958603707687
 21
0.737730017899673
 31
0.0
 73
     1
 44
1.0
1001
ACAD
1000
MTEXTBEGIN
1070
    73
1070
     1
1070
    44
1040
1.0
1070
    74
1070
     0
1000
MTEXTEND
  0
LINE
  5
65A
330
4F3
100
AcDbEntity
  8
cotas
100
AcDbLine
 10
424.8350530584628
 20
497.6223974038902
 30
0.0
 11
428.2105323596121
 21
501.3110474926189
 31
0.0
  0
SOLID
  5
65B
330
4F3
100
AcDbEntity
  8
cotas
100
AcDbTrace
 10
433.7319409334871
 20
509.8135074389002
 30
0.0
 11
436.1910409931527
 21
507.563187904331
 31
0.0
 12
428.2105323596121
 22
501.3110474926189
 32
0.0
 13
428.2105323596121
 23
501.3110474926189
 33
0.0
  0
POINT
  5
65C
330
4F3
100
AcDbEntity
  8
Defpoints
 62
     0
100
AcDbPoint
 10
428.2105323596121
 20
501.3110474926189
 30
0.0
  0
POINT
  5
65D
330
4F3
100
AcDbEntity
  8
Defpoints
 62
     0
100
AcDbPoint
 10
424.8350530584628
 20
497.6223974038902
 30
0.0
  0
ENDBLK
  5
4FB
330
4F3
100
AcDbEntity
  8
0
100
AcDbBlockEnd
  0
BLOCK
  5
502
330
4FC
100
AcDbEntity
  8
0
100
AcDbBlockBegin
  2
*D58
 70
     1
 10
0.0
 20
0.0
 30
0.0
  3
*D58
  1

  0
LINE
  5
65E
330
4FC
100
AcDbEntity
  8
cotas
100
AcDbLine
 10
397.4611636850832
 20
584.2555055212496
 30
0.0
 11
387.1581946975044
 21
517.7146391155051
 31
0.0
  0
MTEXT
  5
65F
330
4FC
100
AcDbEntity
  8
cotas
100
AcDbMText
 10
381.8518650400011
 20
557.663906908151
 30
0.0
 40
10.0
 41
0.0
 71
     5
 72
     1
  1
R888,7
  7
SANINDUSA
 11
0.1530133734540676
 21
0.988224118074542
 31
0.0
 73
     1
 44
1.0
1001
ACAD
1000
MTEXTBEGIN
1070
    73
1070
     1
1070
    44
1040
1.0
1070
    74
1070
     0
1000
MTEXTEND
  0
SOLID
  5
660
330
4FC
100
AcDbEntity
  8
cotas
100
AcDbTrace
 10
385.5111545007135
 20
517.9696614045951
 30
0.0
 11
388.8052348942954
 21
517.4596168264149
 31
0.0
 12
385.6280609629638
 22
507.8323979347596
 32
0.0
 13
385.6280609629638
 23
507.8323979347596
 33
0.0
  0
POINT
  5
661
330
4FC
100
AcDbEntity
  8
Defpoints
 62
     0
100
AcDbPoint
 10
385.6280609629638
 20
507.8323979347596
 30
0.0
  0
POINT
  5
662
330
4FC
100
AcDbEntity
  8
Defpoints
 62
     0
100
AcDbPoint
 10
521.6128796098835
 20
1386.079014196831
 30
0.0
  0
ENDBLK
  5
503
330
4FC
100
AcDbEntity
  8
0
100
AcDbBlockEnd
  0
BLOCK
  5
50E
330
504
100
AcDbEntity
  8
0
100
AcDbBlockBegin
  2
*D59
 70
     1
 10
0.0
 20
0.0
 30
0.0
  3
*D59
  1

  0
LINE
  5
663
330
504
100
AcDbEntity
  8
cotas
100
AcDbLine
 10
810.0758274206434
 20
540.5449111033343
 30
0.0
 11
840.0758274156171
 21
540.5449111033343
 31
0.0
  0
LINE
  5
664
330
504
100
AcDbEntity
  8
cotas
100
AcDbLine
 10
730.7136589653412
 20
412.332901091467
 30
0.0
 11
840.0758274156171
 21
412.332901091467
 31
0.0
  0
LINE
  5
665
330
504
100
AcDbEntity
  8
cotas
100
AcDbLine
 10
835.0758274156172
 20
530.5449111033343
 30
0.0
 11
835.0758274156172
 21
422.332901091467
 31
0.0
  0
SOLID
  5
666
330
504
100
AcDbEntity
  8
cotas
100
AcDbTrace
 10
833.4091607489504
 20
530.5449111033343
 30
0.0
 11
836.7424940822838
 21
530.5449111033343
 31
0.0
 12
835.0758274156172
 22
540.5449111033343
 32
0.0
 13
835.0758274156172
 23
540.5449111033343
 33
0.0
  0
SOLID
  5
667
330
504
100
AcDbEntity
  8
cotas
100
AcDbTrace
 10
833.4091607489504
 20
422.332901091467
 30
0.0
 11
836.7424940822838
 21
422.332901091467
 31
0.0
 12
835.0758274156172
 22
412.332901091467
 32
0.0
 13
835.0758274156172
 23
412.332901091467
 33
0.0
  0
MTEXT
  5
668
330
504
100
AcDbEntity
  8
cotas
100
AcDbMText
 10
824.8474862470475
 20
476.4389060974009
 30
0.0
 40
10.0
 41
0.0
 71
     5
 72
     1
  1
128
  7
SANINDUSA
 11
0.0000000000000001
 21
1.0
 31
0.0
 73
     1
 44
1.0
1001
ACAD
1000
MTEXTBEGIN
1070
    73
1070
     1
1070
    44
1040
1.0
1070
    74
1070
     0
1000
MTEXTEND
  0
POINT
  5
669
330
504
100
AcDbEntity
  8
Defpoints
 62
     0
100
AcDbPoint
 10
805.0758274206435
 20
540.5449111033343
 30
0.0
  0
POINT
  5
66A
330
504
100
AcDbEntity
  8
Defpoints
 62
     0
100
AcDbPoint
 10
725.7136589653412
 20
412.332901091467
 30
0.0
  0
POINT
  5
66B
330
504
100
AcDbEntity
  8
Defpoints
 62
     0
100
AcDbPoint
 10
835.0758274156172
 20
412.332901091467
 30
0.0
  0
ENDBLK
  5
50F
330
504
100
AcDbEntity
  8
0
100
AcDbBlockEnd
  0
BLOCK
  5
51C
330
510
100
AcDbEntity
  8
0
100
AcDbBlockBegin
  2
*D60
 70
     1
 10
0.0
 20
0.0
 30
0.0
  3
*D60
  1

  0
LINE
  5
66C
330
510
100
AcDbEntity
  8
cotas
100
AcDbLine
 10
730.7136589653412
 20
412.332901091467
 30
0.0
 11
773.032116197053
 21
412.332901091467
 31
0.0
  0
LINE
  5
66D
330
510
100
AcDbEntity
  8
cotas
100
AcDbLine
 10
644.0494166992773
 20
407.4010538463797
 30
0.0
 11
773.032116197053
 21
407.4010538463797
 31
0.0
  0
LINE
  5
66E
330
510
100
AcDbEntity
  8
cotas
100
AcDbLine
 10
768.032116197053
 20
422.332901091467
 30
0.0
 11
768.032116197053
 21
432.3329010914671
 31
0.0
  0
LINE
  5
66F
330
510
100
AcDbEntity
  8
cotas
100
AcDbLine
 10
768.032116197053
 20
397.4010538463797
 30
0.0
 11
768.032116197053
 21
370.8866146254261
 31
0.0
  0
LINE
  5
670
330
510
100
AcDbEntity
  8
cotas
100
AcDbLine
 10
768.032116197053
 20
412.332901091467
 30
0.0
 11
768.032116197053
 21
407.4010538463797
 31
0.0
  0
SOLID
  5
671
330
510
100
AcDbEntity
  8
cotas
100
AcDbTrace
 10
766.3654495303863
 20
422.332901091467
 30
0.0
 11
769.6987828637197
 21
422.332901091467
 31
0.0
 12
768.032116197053
 22
412.332901091467
 32
0.0
 13
768.032116197053
 23
412.332901091467
 33
0.0
  0
SOLID
  5
672
330
510
100
AcDbEntity
  8
cotas
100
AcDbTrace
 10
766.3654495303863
 20
397.4010538463797
 30
0.0
 11
769.6987828637197
 21
397.4010538463797
 31
0.0
 12
768.032116197053
 22
407.4010538463797
 32
0.0
 13
768.032116197053
 23
407.4010538463797
 33
0.0
  0
MTEXT
  5
673
330
510
100
AcDbEntity
  8
cotas
100
AcDbMText
 10
757.9280194878521
 20
379.143834235903
 30
0.0
 40
10.0
 41
0.0
 71
     5
 72
     1
  1
5
  7
SANINDUSA
 11
0.0000000000000001
 21
1.0
 31
0.0
 73
     1
 44
1.0
1001
ACAD
1000
MTEXTBEGIN
1070
    73
1070
     1
1070
    44
1040
1.0
1070
    74
1070
     0
1000
MTEXTEND
  0
POINT
  5
674
330
510
100
AcDbEntity
  8
Defpoints
 62
     0
100
AcDbPoint
 10
725.7136589653412
 20
412.332901091467
 30
0.0
  0
POINT
  5
675
330
510
100
AcDbEntity
  8
Defpoints
 62
     0
100
AcDbPoint
 10
639.0494166992773
 20
407.4010538463798
 30
0.0
  0
POINT
  5
676
330
510
100
AcDbEntity
  8
Defpoints
 62
     0
100
AcDbPoint
 10
768.032116197053
 20
407.4010538463797
 30
0.0
  0
ENDBLK
  5
51D
330
510
100
AcDbEntity
  8
0
100
AcDbBlockEnd
  0
BLOCK
  5
528
330
51E
100
AcDbEntity
  8
0
100
AcDbBlockBegin
  2
*D61
 70
     1
 10
0.0
 20
0.0
 30
0.0
  3
*D61
  1

  0
LINE
  5
51F
330
51E
100
AcDbEntity
  8
cotas
100
AcDbLine
 10
1277.387108699776
 20
1000.554544564737
 30
0.0
 11
1277.387108699776
 21
975.5545445647937
 31
0.0
  0
LINE
  5
520
330
51E
100
AcDbEntity
  8
cotas
100
AcDbLine
 10
1067.752450248703
 20
1164.064096970285
 30
0.0
 11
1067.752450248703
 21
975.5545445647937
 31
0.0
  0
LINE
  5
521
330
51E
100
AcDbEntity
  8
cotas
100
AcDbLine
 10
1267.387108699776
 20
980.5545445647936
 30
0.0
 11
1077.752450248703
 21
980.5545445647936
 31
0.0
  0
SOLID
  5
522
330
51E
100
AcDbEntity
  8
cotas
100
AcDbTrace
 10
1267.387108699776
 20
982.2212112314602
 30
0.0
 11
1267.387108699776
 21
978.8878778981271
 31
0.0
 12
1277.387108699776
 22
980.5545445647936
 32
0.0
 13
1277.387108699776
 23
980.5545445647936
 33
0.0
  0
SOLID
  5
523
330
51E
100
AcDbEntity
  8
cotas
100
AcDbTrace
 10
1077.752450248703
 20
982.2212112314602
 30
0.0
 11
1077.752450248703
 21
978.8878778981271
 31
0.0
 12
1067.752450248703
 22
980.5545445647936
 32
0.0
 13
1067.752450248703
 23
980.5545445647936
 33
0.0
  0
MTEXT
  5
524
330
51E
100
AcDbEntity
  8
cotas
100
AcDbMText
 10
1172.569779474239
 20
991.9010858676815
 30
0.0
 40
10.0
 41
0.0
 71
     5
 72
     1
  1
209,5
  7
SANINDUSA
 73
     1
 44
1.0
1001
ACAD
1000
MTEXTBEGIN
1070
    73
1070
     1
1070
    44
1040
1.0
1070
    74
1070
     0
1000
MTEXTEND
  0
POINT
  5
525
330
51E
100
AcDbEntity
  8
Defpoints
 62
     0
100
AcDbPoint
 10
1277.387108699776
 20
1005.554544564737
 30
0.0
  0
POINT
  5
526
330
51E
100
AcDbEntity
  8
Defpoints
 62
     0
100
AcDbPoint
 10
1067.752450248703
 20
1169.064096970285
 30
0.0
  0
POINT
  5
527
330
51E
100
AcDbEntity
  8
Defpoints
 62
     0
100
AcDbPoint
 10
1067.752450248703
 20
980.5545445647936
 30
0.0
  0
ENDBLK
  5
529
330
51E
100
AcDbEntity
  8
0
100
AcDbBlockEnd
  0
BLOCK
  5
536
330
52A
100
AcDbEntity
  8
0
100
AcDbBlockBegin
  2
*D62
 70
     1
 10
0.0
 20
0.0
 30
0.0
  3
*D62
  1

  0
LINE
  5
52B
330
52A
100
AcDbEntity
  8
cotas
100
AcDbLine
 10
1392.067356652283
 20
1132.684238477923
 30
0.0
 11
1702.926769659937
 21
1132.684238477922
 31
0.0
  0
LINE
  5
52C
330
52A
100
AcDbEntity
  8
cotas
100
AcDbLine
 10
1672.916807538515
 20
1160.69286539264
 30
0.0
 11
1702.926769659937
 21
1160.69286539264
 31
0.0
  0
LINE
  5
52D
330
52A
100
AcDbEntity
  8
cotas
100
AcDbLine
 10
1697.926769659937
 20
1122.684238477922
 30
0.0
 11
1697.926769659937
 21
1112.684238477922
 31
0.0
  0
LINE
  5
52E
330
52A
100
AcDbEntity
  8
cotas
100
AcDbLine
 10
1697.926769659937
 20
1170.69286539264
 30
0.0
 11
1697.926769659937
 21
1180.69286539264
 31
0.0
  0
LINE
  5
52F
330
52A
100
AcDbEntity
  8
cotas
100
AcDbLine
 10
1697.926769659937
 20
1132.684238477922
 30
0.0
 11
1697.926769659937
 21
1160.69286539264
 31
0.0
  0
SOLID
  5
530
330
52A
100
AcDbEntity
  8
cotas
100
AcDbTrace
 10
1696.26010299327
 20
1122.684238477922
 30
0.0
 11
1699.593436326604
 21
1122.684238477922
 31
0.0
 12
1697.926769659937
 22
1132.684238477922
 32
0.0
 13
1697.926769659937
 23
1132.684238477922
 33
0.0
  0
SOLID
  5
531
330
52A
100
AcDbEntity
  8
cotas
100
AcDbTrace
 10
1696.26010299327
 20
1170.69286539264
 30
0.0
 11
1699.593436326604
 21
1170.69286539264
 31
0.0
 12
1697.926769659937
 22
1160.69286539264
 32
0.0
 13
1697.926769659937
 23
1160.69286539264
 33
0.0
  0
MTEXT
  5
532
330
52A
100
AcDbEntity
  8
cotas
100
AcDbMText
 10
1687.698428491367
 20
1146.688551935282
 30
0.0
 40
10.0
 41
0.0
 71
     5
 72
     1
  1
28
  7
SANINDUSA
 11
0.0000000000000001
 21
1.0
 31
0.0
 73
     1
 44
1.0
1001
ACAD
1000
MTEXTBEGIN
1070
    73
1070
     1
1070
    44
1040
1.0
1070
    74
1070
     0
1000
MTEXTEND
  0
POINT
  5
533
330
52A
100
AcDbEntity
  8
Defpoints
 62
     0
100
AcDbPoint
 10
1387.067356652283
 20
1132.684238477923
 30
0.0
  0
POINT
  5
534
330
52A
100
AcDbEntity
  8
Defpoints
 62
     0
100
AcDbPoint
 10
1667.916807538515
 20
1160.69286539264
 30
0.0
  0
POINT
  5
535
330
52A
100
AcDbEntity
  8
Defpoints
 62
     0
100
AcDbPoint
 10
1697.926769659937
 20
1160.69286539264
 30
0.0
  0
ENDBLK
  5
537
330
52A
100
AcDbEntity
  8
0
100
AcDbBlockEnd
  0
BLOCK
  5
542
330
538
100
AcDbEntity
  8
0
100
AcDbBlockBegin
  2
*D63
 70
     1
 10
0.0
 20
0.0
 30
0.0
  3
*D63
  1

  0
LINE
  5
539
330
538
100
AcDbEntity
  8
cotas
100
AcDbLine
 10
1382.067356652283
 20
1132.684238477923
 30
0.0
 11
1037.752450248703
 21
1132.684238477923
 31
0.0
  0
LINE
  5
53A
330
538
100
AcDbEntity
  8
cotas
100
AcDbLine
 10
1074.975657518324
 20
1175.650515245756
 30
0.0
 11
1037.752450248703
 21
1175.650515245756
 31
0.0
  0
LINE
  5
53B
330
538
100
AcDbEntity
  8
cotas
100
AcDbLine
 10
1042.752450248703
 20
1142.684238477923
 30
0.0
 11
1042.752450248703
 21
1165.650515245755
 31
0.0
  0
SOLID
  5
53C
330
538
100
AcDbEntity
  8
cotas
100
AcDbTrace
 10
1041.085783582036
 20
1142.684238477923
 30
0.0
 11
1044.419116915369
 21
1142.684238477923
 31
0.0
 12
1042.752450248703
 22
1132.684238477923
 32
0.0
 13
1042.752450248703
 23
1132.684238477923
 33
0.0
  0
SOLID
  5
53D
330
538
100
AcDbEntity
  8
cotas
100
AcDbTrace
 10
1041.085783582036
 20
1165.650515245755
 30
0.0
 11
1044.419116915369
 21
1165.650515245755
 31
0.0
 12
1042.752450248703
 22
1175.650515245756
 32
0.0
 13
1042.752450248703
 23
1175.650515245756
 33
0.0
  0
MTEXT
  5
53E
330
538
100
AcDbEntity
  8
cotas
100
AcDbMText
 10
1032.544256830301
 20
1154.167376861839
 30
0.0
 40
10.0
 41
0.0
 71
     5
 72
     1
  1
43
  7
SANINDUSA
 11
0.0000000000000001
 21
1.0
 31
0.0
 73
     1
 44
1.0
1001
ACAD
1000
MTEXTBEGIN
1070
    73
1070
     1
1070
    44
1040
1.0
1070
    74
1070
     0
1000
MTEXTEND
  0
POINT
  5
53F
330
538
100
AcDbEntity
  8
Defpoints
 62
     0
100
AcDbPoint
 10
1387.067356652283
 20
1132.684238477923
 30
0.0
  0
POINT
  5
540
330
538
100
AcDbEntity
  8
Defpoints
 62
     0
100
AcDbPoint
 10
1079.975657518324
 20
1175.650515245756
 30
0.0
  0
POINT
  5
541
330
538
100
AcDbEntity
  8
Defpoints
 62
     0
100
AcDbPoint
 10
1042.752450248703
 20
1175.650515245756
 30
0.0
  0
ENDBLK
  5
543
330
538
100
AcDbEntity
  8
0
100
AcDbBlockEnd
  0
BLOCK
  5
54E
330
544
100
AcDbEntity
  8
0
100
AcDbBlockBegin
  2
*D64
 70
     1
 10
0.0
 20
0.0
 30
0.0
  3
*D64
  1

  0
LINE
  5
545
330
544
100
AcDbEntity
  8
cotas
100
AcDbLine
 10
1387.067356652283
 20
1132.684238477923
 30
0.0
 11
1037.752450248703
 21
1132.684238477923
 31
0.0
  0
LINE
  5
546
330
544
100
AcDbEntity
  8
cotas
100
AcDbLine
 10
1272.387108699721
 20
1005.554544564782
 30
0.0
 11
1037.752450248703
 21
1005.554544564782
 31
0.0
  0
LINE
  5
547
330
544
100
AcDbEntity
  8
cotas
100
AcDbLine
 10
1042.752450248703
 20
1122.684238477923
 30
0.0
 11
1042.752450248703
 21
1015.554544564782
 31
0.0
  0
SOLID
  5
548
330
544
100
AcDbEntity
  8
cotas
100
AcDbTrace
 10
1041.085783582036
 20
1122.684238477923
 30
0.0
 11
1044.419116915369
 21
1122.684238477923
 31
0.0
 12
1042.752450248703
 22
1132.684238477923
 32
0.0
 13
1042.752450248703
 23
1132.684238477923
 33
0.0
  0
SOLID
  5
549
330
544
100
AcDbEntity
  8
cotas
100
AcDbTrace
 10
1041.085783582036
 20
1015.554544564782
 30
0.0
 11
1044.419116915369
 21
1015.554544564782
 31
0.0
 12
1042.752450248703
 22
1005.554544564782
 32
0.0
 13
1042.752450248703
 23
1005.554544564782
 33
0.0
  0
MTEXT
  5
54A
330
544
100
AcDbEntity
  8
cotas
100
AcDbMText
 10
1032.648353539502
 20
1069.119391521353
 30
0.0
 40
10.0
 41
0.0
 71
     5
 72
     1
  1
127
  7
SANINDUSA
 11
0.0000000000000001
 21
1.0
 31
0.0
 73
     1
 44
1.0
1001
ACAD
1000
MTEXTBEGIN
1070
    73
1070
     1
1070
    44
1040
1.0
1070
    74
1070
     0
1000
MTEXTEND
  0
POINT
  5
54B
330
544
100
AcDbEntity
  8
Defpoints
 62
     0
100
AcDbPoint
 10
1392.067356652283
 20
1132.684238477923
 30
0.0
  0
POINT
  5
54C
330
544
100
AcDbEntity
  8
Defpoints
 62
     0
100
AcDbPoint
 10
1277.387108699721
 20
1005.554544564782
 30
0.0
  0
POINT
  5
54D
330
544
100
AcDbEntity
  8
Defpoints
 62
     0
100
AcDbPoint
 10
1042.752450248703
 20
1005.554544564782
 30
0.0
  0
ENDBLK
  5
54F
330
544
100
AcDbEntity
  8
0
100
AcDbBlockEnd
  0
BLOCK
  5
55A
330
550
100
AcDbEntity
  8
0
100
AcDbBlockBegin
  2
*D65
 70
     1
 10
0.0
 20
0.0
 30
0.0
  3
*D65
  1

  0
LINE
  5
697
330
550
100
AcDbEntity
  8
cotas
100
AcDbLine
 10
627.3346782192509
 20
1175.662051506596
 30
0.0
 11
787.7403827751976
 21
1175.662051506596
 31
0.0
  0
LINE
  5
698
330
550
100
AcDbEntity
  8
cotas
100
AcDbLine
 10
644.4700314905983
 20
1005.554544564782
 30
0.0
 11
787.7403827751976
 21
1005.554544564782
 31
0.0
  0
LINE
  5
699
330
550
100
AcDbEntity
  8
cotas
100
AcDbLine
 10
782.7403827751976
 20
1165.662051506596
 30
0.0
 11
782.7403827751976
 21
1015.554544564782
 31
0.0
  0
SOLID
  5
69A
330
550
100
AcDbEntity
  8
cotas
100
AcDbTrace
 10
781.073716108531
 20
1165.662051506596
 30
0.0
 11
784.4070494418643
 21
1165.662051506596
 31
0.0
 12
782.7403827751976
 22
1175.662051506596
 32
0.0
 13
782.7403827751976
 23
1175.662051506596
 33
0.0
  0
SOLID
  5
69B
330
550
100
AcDbEntity
  8
cotas
100
AcDbTrace
 10
781.073716108531
 20
1015.554544564782
 30
0.0
 11
784.4070494418643
 21
1015.554544564782
 31
0.0
 12
782.7403827751976
 22
1005.554544564782
 32
0.0
 13
782.7403827751976
 23
1005.554544564782
 33
0.0
  0
MTEXT
  5
69C
330
550
100
AcDbEntity
  8
cotas
100
AcDbMText
 10
772.5355473151572
 20
1090.608298035689
 30
0.0
 40
10.0
 41
0.0
 71
     5
 72
     1
  1
170
  7
SANINDUSA
 11
0.0000000000000001
 21
1.0
 31
0.0
 73
     1
 44
1.0
1001
ACAD
1000
MTEXTBEGIN
1070
    73
1070
     1
1070
    44
1040
1.0
1070
    74
1070
     0
1000
MTEXTEND
  0
POINT
  5
69D
330
550
100
AcDbEntity
  8
Defpoints
 62
     0
100
AcDbPoint
 10
622.3346782192509
 20
1175.662051506596
 30
0.0
  0
POINT
  5
69E
330
550
100
AcDbEntity
  8
Defpoints
 62
     0
100
AcDbPoint
 10
639.4700314905983
 20
1005.554544564782
 30
0.0
  0
POINT
  5
69F
330
550
100
AcDbEntity
  8
Defpoints
 62
     0
100
AcDbPoint
 10
782.7403827751976
 20
1005.554544564782
 30
0.0
  0
ENDBLK
  5
55B
330
550
100
AcDbEntity
  8
0
100
AcDbBlockEnd
  0
BLOCK
  5
566
330
55C
100
AcDbEntity
  8
0
100
AcDbBlockBegin
  2
*D66
 70
     1
 10
0.0
 20
0.0
 30
0.0
  3
*D66
  1

  0
LINE
  5
55D
330
55C
100
AcDbEntity
  8
cotas
100
AcDbLine
 10
531.2696547255889
 20
1160.691418752065
 30
0.0
 11
762.7403827751966
 21
1160.691418752065
 31
0.0
  0
LINE
  5
55E
330
55C
100
AcDbEntity
  8
cotas
100
AcDbLine
 10
644.4700314905983
 20
1005.554544564782
 30
0.0
 11
762.7403827751966
 21
1005.554544564782
 31
0.0
  0
LINE
  5
55F
330
55C
100
AcDbEntity
  8
cotas
100
AcDbLine
 10
757.7403827751965
 20
1150.691418752065
 30
0.0
 11
757.7403827751965
 21
1015.554544564782
 31
0.0
  0
SOLID
  5
560
330
55C
100
AcDbEntity
  8
cotas
100
AcDbTrace
 10
756.07371610853
 20
1150.691418752065
 30
0.0
 11
759.4070494418632
 21
1150.691418752065
 31
0.0
 12
757.7403827751965
 22
1160.691418752065
 32
0.0
 13
757.7403827751965
 23
1160.691418752065
 33
0.0
  0
SOLID
  5
561
330
55C
100
AcDbEntity
  8
cotas
100
AcDbTrace
 10
756.07371610853
 20
1015.554544564782
 30
0.0
 11
759.4070494418632
 21
1015.554544564782
 31
0.0
 12
757.7403827751965
 22
1005.554544564782
 32
0.0
 13
757.7403827751965
 23
1005.554544564782
 33
0.0
  0
MTEXT
  5
562
330
55C
100
AcDbEntity
  8
cotas
100
AcDbMText
 10
747.6194962741891
 20
1083.122981658424
 30
0.0
 40
10.0
 41
0.0
 71
     5
 72
     1
  1
155
  7
SANINDUSA
 11
0.0000000000000001
 21
1.0
 31
0.0
 73
     1
 44
1.0
1001
ACAD
1000
MTEXTBEGIN
1070
    73
1070
     1
1070
    44
1040
1.0
1070
    74
1070
     0
1000
MTEXTEND
  0
POINT
  5
563
330
55C
100
AcDbEntity
  8
Defpoints
 62
     0
100
AcDbPoint
 10
526.2696547255889
 20
1160.691418752065
 30
0.0
  0
POINT
  5
564
330
55C
100
AcDbEntity
  8
Defpoints
 62
     0
100
AcDbPoint
 10
639.4700314905983
 20
1005.554544564782
 30
0.0
  0
POINT
  5
565
330
55C
100
AcDbEntity
  8
Defpoints
 62
     0
100
AcDbPoint
 10
757.7403827751965
 20
1005.554544564782
 30
0.0
  0
ENDBLK
  5
567
330
55C
100
AcDbEntity
  8
0
100
AcDbBlockEnd
  0
BLOCK
  5
5B7
330
5B1
100
AcDbEntity
  8
0
100
AcDbBlockBegin
  2
*D67
 70
     1
 10
0.0
 20
0.0
 30
0.0
  3
*D67
  1

  0
LINE
  5
6A0
330
5B1
100
AcDbEntity
  8
cotas
100
AcDbLine
 10
634.257294101995
 20
1091.42522997293
 30
0.0
 11
675.7079723271308
 21
1057.528094073139
 31
0.0
  0
MTEXT
  5
6A1
330
5B1
100
AcDbEntity
  8
cotas
100
AcDbMText
 10
657.5743322775338
 20
1085.544196022734
 30
0.0
 40
10.0
 41
0.0
 71
     5
 72
     1
  1
R390
  7
SANINDUSA
 11
0.7741133811266347
 21
-0.6330469754770887
 31
0.0
 73
     1
 44
1.0
1001
ACAD
1000
MTEXTBEGIN
1070
    73
1070
     1
1070
    44
1040
1.0
1070
    74
1070
     0
1000
MTEXTEND
  0
SOLID
  5
6A2
330
5B1
100
AcDbEntity
  8
cotas
100
AcDbTrace
 10
676.7630506195927
 20
1058.818283041684
 30
0.0
 11
674.6528940346689
 21
1056.237905104595
 31
0.0
 12
683.4491061383972
 22
1051.197624318368
 32
0.0
 13
683.4491061383972
 23
1051.197624318368
 33
0.0
  0
POINT
  5
6A3
330
5B1
100
AcDbEntity
  8
Defpoints
 62
     0
100
AcDbPoint
 10
683.4491061383972
 20
1051.197624318368
 30
0.0
  0
POINT
  5
6A4
330
5B1
100
AcDbEntity
  8
Defpoints
 62
     0
100
AcDbPoint
 10
381.54488749901
 20
1298.085944754432
 30
0.0
  0
ENDBLK
  5
5B8
330
5B1
100
AcDbEntity
  8
0
100
AcDbBlockEnd
  0
BLOCK
  5
5BF
330
5B9
100
AcDbEntity
  8
0
100
AcDbBlockBegin
  2
*D68
 70
     1
 10
0.0
 20
0.0
 30
0.0
  3
*D68
  1

  0
LINE
  5
6A5
330
5B9
100
AcDbEntity
  8
cotas
100
AcDbLine
 10
408.5648903479596
 20
1103.913528350117
 30
0.0
 11
365.5203710758839
 21
1072.064762154729
 31
0.0
  0
MTEXT
  5
6A6
330
5B9
100
AcDbEntity
  8
cotas
100
AcDbMText
 10
384.9902689887399
 20
1099.169262614272
 30
0.0
 40
10.0
 41
0.0
 71
     5
 72
     1
  1
R390
  7
SANINDUSA
 11
0.8038792072760683
 21
0.5947925857886932
 31
0.0
 73
     1
 44
1.0
1001
ACAD
1000
MTEXTBEGIN
1070
    73
1070
     1
1070
    44
1040
1.0
1070
    74
1070
     0
1000
MTEXTEND
  0
SOLID
  5
6A7
330
5B9
100
AcDbEntity
  8
cotas
100
AcDbTrace
 10
364.5290500995694
 20
1073.404560833523
 30
0.0
 11
366.5116920521983
 21
1070.724963475936
 31
0.0
 12
357.4815790031232
 22
1066.116836296842
 32
0.0
 13
357.4815790031232
 23
1066.116836296842
 33
0.0
  0
POINT
  5
6A8
330
5B9
100
AcDbEntity
  8
Defpoints
 62
     0
100
AcDbPoint
 10
357.4815790031232
 20
1066.116836296842
 30
0.0
  0
POINT
  5
6A9
330
5B9
100
AcDbEntity
  8
Defpoints
 62
     0
100
AcDbPoint
 10
670.9944698407893
 20
1298.085944754432
 30
0.0
  0
ENDBLK
  5
5C0
330
5B9
100
AcDbEntity
  8
0
100
AcDbBlockEnd
  0
BLOCK
  5
5DF
330
5D5
100
AcDbEntity
  8
0
100
AcDbBlockBegin
  2
*D69
 70
     1
 10
0.0
 20
0.0
 30
0.0
  3
*D69
  1

  0
LINE
  5
5D6
330
5D5
100
AcDbEntity
  8
cotas
100
AcDbLine
 10
1470.722795392683
 20
693.4571159181412
 30
0.0
 11
1727.881330008312
 21
693.4571159181412
 31
0.0
  0
LINE
  5
5D7
330
5D5
100
AcDbEntity
  8
cotas
100
AcDbLine
 10
1470.722513266204
 20
280.5775812111059
 30
0.0
 11
1727.881330008312
 21
280.5775812111058
 31
0.0
  0
LINE
  5
5D8
330
5D5
100
AcDbEntity
  8
cotas
100
AcDbLine
 10
1722.881330008312
 20
683.4571159181413
 30
0.0
 11
1722.881330008312
 21
290.5775812111059
 31
0.0
  0
SOLID
  5
5D9
330
5D5
100
AcDbEntity
  8
cotas
100
AcDbTrace
 10
1721.214663341645
 20
683.4571159181413
 30
0.0
 11
1724.547996674979
 21
683.4571159181413
 31
0.0
 12
1722.881330008312
 22
693.4571159181412
 32
0.0
 13
1722.881330008312
 23
693.4571159181412
 33
0.0
  0
SOLID
  5
5DA
330
5D5
100
AcDbEntity
  8
cotas
100
AcDbTrace
 10
1721.214663341645
 20
290.5775812111059
 30
0.0
 11
1724.547996674979
 21
290.5775812111059
 31
0.0
 12
1722.881330008312
 22
280.5775812111058
 32
0.0
 13
1722.881330008312
 23
280.5775812111058
 33
0.0
  0
MTEXT
  5
5DB
330
5D5
100
AcDbEntity
  8
cotas
100
AcDbMText
 10
1712.67313658991
 20
504.9431542440942
 30
0.0
 40
10.0
 41
0.0
 71
     5
 72
     1
  1
413
  7
SANINDUSA
 11
0.0000000000000001
 21
1.0
 31
0.0
 73
     1
 44
1.0
1001
ACAD
1000
MTEXTBEGIN
1070
    73
1070
     1
1070
    44
1040
1.0
1070
    74
1070
     0
1000
MTEXTEND
  0
POINT
  5
5DC
330
5D5
100
AcDbEntity
  8
Defpoints
 62
     0
100
AcDbPoint
 10
1465.722795392683
 20
693.4571159181412
 30
0.0
  0
POINT
  5
5DD
330
5D5
100
AcDbEntity
  8
Defpoints
 62
     0
100
AcDbPoint
 10
1465.722513266204
 20
280.5775812111059
 30
0.0
  0
POINT
  5
5DE
330
5D5
100
AcDbEntity
  8
Defpoints
 62
     0
100
AcDbPoint
 10
1722.881330008312
 20
280.5775812111058
 30
0.0
  0
ENDBLK
  5
5E0
330
5D5
100
AcDbEntity
  8
0
100
AcDbBlockEnd
  0
BLOCK
  5
5EB
330
5E1
100
AcDbEntity
  8
0
100
AcDbBlockBegin
  2
*D70
 70
     1
 10
0.0
 20
0.0
 30
0.0
  3
*D70
  1

  0
LINE
  5
6AA
330
5E1
100
AcDbEntity
  8
cotas
100
AcDbLine
 10
1471.080854922152
 20
660.9634655033414
 30
0.0
 11
1702.88133000832
 21
660.9634655033414
 31
0.0
  0
LINE
  5
6AB
330
5E1
100
AcDbEntity
  8
cotas
100
AcDbLine
 10
1470.891872762468
 20
313.0625087977813
 30
0.0
 11
1702.88133000832
 21
313.0625087977813
 31
0.0
  0
LINE
  5
6AC
330
5E1
100
AcDbEntity
  8
cotas
100
AcDbLine
 10
1697.881330008319
 20
650.9634655033415
 30
0.0
 11
1697.881330008319
 21
323.0625087977813
 31
0.0
  0
SOLID
  5
6AD
330
5E1
100
AcDbEntity
  8
cotas
100
AcDbTrace
 10
1696.214663341653
 20
650.9634655033415
 30
0.0
 11
1699.547996674986
 21
650.9634655033415
 31
0.0
 12
1697.881330008319
 22
660.9634655033414
 32
0.0
 13
1697.881330008319
 23
660.9634655033414
 33
0.0
  0
SOLID
  5
6AE
330
5E1
100
AcDbEntity
  8
cotas
100
AcDbTrace
 10
1696.214663341653
 20
323.0625087977813
 30
0.0
 11
1699.547996674986
 21
323.0625087977813
 31
0.0
 12
1697.881330008319
 22
313.0625087977813
 32
0.0
 13
1697.881330008319
 23
313.0625087977813
 33
0.0
  0
MTEXT
  5
6AF
330
5E1
100
AcDbEntity
  8
cotas
100
AcDbMText
 10
1687.65298883975
 20
504.806324587611
 30
0.0
 40
10.0
 41
0.0
 71
     5
 72
     1
  1
348
  7
SANINDUSA
 11
0.0000000000000001
 21
1.0
 31
0.0
 73
     1
 44
1.0
1001
ACAD
1000
MTEXTBEGIN
1070
    73
1070
     1
1070
    44
1040
1.0
1070
    74
1070
     0
1000
MTEXTEND
  0
POINT
  5
6B0
330
5E1
100
AcDbEntity
  8
Defpoints
 62
     0
100
AcDbPoint
 10
1466.080854922152
 20
660.9634655033414
 30
0.0
  0
POINT
  5
6B1
330
5E1
100
AcDbEntity
  8
Defpoints
 62
     0
100
AcDbPoint
 10
1465.891872762468
 20
313.0625087977813
 30
0.0
  0
POINT
  5
6B2
330
5E1
100
AcDbEntity
  8
Defpoints
 62
     0
100
AcDbPoint
 10
1697.881330008319
 20
313.0625087977813
 30
0.0
  0
ENDBLK
  5
5EC
330
5E1
100
AcDbEntity
  8
0
100
AcDbBlockEnd
  0
BLOCK
  5
5F7
330
5ED
100
AcDbEntity
  8
0
100
AcDbBlockBegin
  2
*D71
 70
     1
 10
0.0
 20
0.0
 30
0.0
  3
*D71
  1

  0
LINE
  5
6B3
330
5ED
100
AcDbEntity
  8
cotas
100
AcDbLine
 10
1640.070458583147
 20
482.0129358339158
 30
0.0
 11
1640.070458583147
 21
250.5775876022131
 31
0.0
  0
LINE
  5
6B4
330
5ED
100
AcDbEntity
  8
cotas
100
AcDbLine
 10
1292.091251260445
 20
482.0129358332186
 30
0.0
 11
1292.091251260445
 21
250.5775876022131
 31
0.0
  0
LINE
  5
6B5
330
5ED
100
AcDbEntity
  8
cotas
100
AcDbLine
 10
1630.070458583147
 20
255.577587602213
 30
0.0
 11
1302.091251260445
 21
255.577587602213
 31
0.0
  0
SOLID
  5
6B6
330
5ED
100
AcDbEntity
  8
cotas
100
AcDbTrace
 10
1630.070458583147
 20
257.2442542688797
 30
0.0
 11
1630.070458583147
 21
253.9109209355464
 31
0.0
 12
1640.070458583147
 22
255.577587602213
 32
0.0
 13
1640.070458583147
 23
255.577587602213
 33
0.0
  0
SOLID
  5
6B7
330
5ED
100
AcDbEntity
  8
cotas
100
AcDbTrace
 10
1302.091251260445
 20
257.2442542688797
 30
0.0
 11
1302.091251260445
 21
253.9109209355464
 31
0.0
 12
1292.091251260445
 22
255.577587602213
 32
0.0
 13
1292.091251260445
 23
255.577587602213
 33
0.0
  0
MTEXT
  5
6B8
330
5ED
100
AcDbEntity
  8
cotas
100
AcDbMText
 10
1483.951798445556
 20
265.8059287707825
 30
0.0
 40
10.0
 41
0.0
 71
     5
 72
     1
  1
348
  7
SANINDUSA
 73
     1
 44
1.0
1001
ACAD
1000
MTEXTBEGIN
1070
    73
1070
     1
1070
    44
1040
1.0
1070
    74
1070
     0
1000
MTEXTEND
  0
POINT
  5
6B9
330
5ED
100
AcDbEntity
  8
Defpoints
 62
     0
100
AcDbPoint
 10
1640.070458583147
 20
487.0129358339157
 30
0.0
  0
POINT
  5
6BA
330
5ED
100
AcDbEntity
  8
Defpoints
 62
     0
100
AcDbPoint
 10
1292.091251260445
 20
487.0129358332186
 30
0.0
  0
POINT
  5
6BB
330
5ED
100
AcDbEntity
  8
Defpoints
 62
     0
100
AcDbPoint
 10
1292.091251260445
 20
255.577587602213
 30
0.0
  0
ENDBLK
  5
5F8
330
5ED
100
AcDbEntity
  8
0
100
AcDbBlockEnd
  0
BLOCK
  5
603
330
5F9
100
AcDbEntity
  8
0
100
AcDbBlockBegin
  2
*D72
 70
     1
 10
0.0
 20
0.0
 30
0.0
  3
*D72
  1

  0
LINE
  5
6BC
330
5F9
100
AcDbEntity
  8
cotas
100
AcDbLine
 10
1640.070458583147
 20
482.012935833873
 30
0.0
 11
1640.070458583147
 21
250.5775876021982
 31
0.0
  0
LINE
  5
6BD
330
5F9
100
AcDbEntity
  8
cotas
100
AcDbLine
 10
1672.881330008312
 20
482.0129358338888
 30
0.0
 11
1672.881330008312
 21
250.5775876021982
 31
0.0
  0
LINE
  5
6BE
330
5F9
100
AcDbEntity
  8
cotas
100
AcDbLine
 10
1650.070458583147
 20
255.5775876021982
 30
0.0
 11
1662.881330008312
 21
255.5775876021982
 31
0.0
  0
SOLID
  5
6BF
330
5F9
100
AcDbEntity
  8
cotas
100
AcDbTrace
 10
1650.070458583147
 20
257.2442542688649
 30
0.0
 11
1650.070458583147
 21
253.9109209355316
 31
0.0
 12
1640.070458583147
 22
255.5775876021982
 32
0.0
 13
1640.070458583147
 23
255.5775876021982
 33
0.0
  0
SOLID
  5
6C0
330
5F9
100
AcDbEntity
  8
cotas
100
AcDbTrace
 10
1662.881330008312
 20
257.2442542688649
 30
0.0
 11
1662.881330008312
 21
253.9109209355316
 31
0.0
 12
1672.881330008312
 22
255.5775876021982
 32
0.0
 13
1672.881330008312
 23
255.5775876021982
 33
0.0
  0
MTEXT
  5
6C1
330
5F9
100
AcDbEntity
  8
cotas
100
AcDbMText
 10
1656.47589429573
 20
265.7857810205998
 30
0.0
 40
10.0
 41
0.0
 71
     5
 72
     1
  1
33
  7
SANINDUSA
 73
     1
 44
1.0
1001
ACAD
1000
MTEXTBEGIN
1070
    73
1070
     1
1070
    44
1040
1.0
1070
    74
1070
     0
1000
MTEXTEND
  0
POINT
  5
6C2
330
5F9
100
AcDbEntity
  8
Defpoints
 62
     0
100
AcDbPoint
 10
1640.070458583147
 20
487.012935833873
 30
0.0
  0
POINT
  5
6C3
330
5F9
100
AcDbEntity
  8
Defpoints
 62
     0
100
AcDbPoint
 10
1672.881330008312
 20
487.0129358338888
 30
0.0
  0
POINT
  5
6C4
330
5F9
100
AcDbEntity
  8
Defpoints
 62
     0
100
AcDbPoint
 10
1672.881330008312
 20
255.5775876021982
 30
0.0
  0
ENDBLK
  5
604
330
5F9
100
AcDbEntity
  8
0
100
AcDbBlockEnd
  0
BLOCK
  5
60F
330
605
100
AcDbEntity
  8
0
100
AcDbBlockBegin
  2
*D73
 70
     1
 10
0.0
 20
0.0
 30
0.0
  3
*D73
  1

  0
LINE
  5
606
330
605
100
AcDbEntity
  8
cotas
100
AcDbLine
 10
1672.899206108149
 20
479.1591854973975
 30
0.0
 11
1672.899206108149
 21
225.5775876022056
 31
0.0
  0
LINE
  5
607
330
605
100
AcDbEntity
  8
cotas
100
AcDbLine
 10
1067.683683856825
 20
482.0153419581364
 30
0.0
 11
1067.683683856825
 21
225.5775876022056
 31
0.0
  0
LINE
  5
608
330
605
100
AcDbEntity
  8
cotas
100
AcDbLine
 10
1662.89920610815
 20
230.5775876022055
 30
0.0
 11
1077.683683856825
 21
230.5775876022055
 31
0.0
  0
SOLID
  5
609
330
605
100
AcDbEntity
  8
cotas
100
AcDbTrace
 10
1662.89920610815
 20
232.2442542688722
 30
0.0
 11
1662.89920610815
 21
228.9109209355389
 31
0.0
 12
1672.899206108149
 22
230.5775876022055
 32
0.0
 13
1672.899206108149
 23
230.5775876022055
 33
0.0
  0
SOLID
  5
60A
330
605
100
AcDbEntity
  8
cotas
100
AcDbTrace
 10
1077.683683856825
 20
232.2442542688722
 30
0.0
 11
1077.683683856825
 21
228.9109209355389
 31
0.0
 12
1067.683683856825
 22
230.5775876022055
 32
0.0
 13
1067.683683856825
 23
230.5775876022055
 33
0.0
  0
MTEXT
  5
60B
330
605
100
AcDbEntity
  8
cotas
100
AcDbMText
 10
1370.291444982487
 20
240.7824230622459
 30
0.0
 40
10.0
 41
0.0
 71
     5
 72
     1
  1
605
  7
SANINDUSA
 73
     1
 44
1.0
1001
ACAD
1000
MTEXTBEGIN
1070
    73
1070
     1
1070
    44
1040
1.0
1070
    74
1070
     0
1000
MTEXTEND
  0
POINT
  5
60C
330
605
100
AcDbEntity
  8
Defpoints
 62
     0
100
AcDbPoint
 10
1672.899206108149
 20
484.1591854973975
 30
0.0
  0
POINT
  5
60D
330
605
100
AcDbEntity
  8
Defpoints
 62
     0
100
AcDbPoint
 10
1067.683683856825
 20
487.0153419581364
 30
0.0
  0
POINT
  5
60E
330
605
100
AcDbEntity
  8
Defpoints
 62
     0
100
AcDbPoint
 10
1067.683683856825
 20
230.5775876022055
 30
0.0
  0
ENDBLK
  5
610
330
605
100
AcDbEntity
  8
0
100
AcDbBlockEnd
  0
BLOCK
  5
61D
330
611
100
AcDbEntity
  8
0
100
AcDbBlockBegin
  2
*D74
 70
     1
 10
0.0
 20
0.0
 30
0.0
  3
*D74
  1

  0
LINE
  5
612
330
611
100
AcDbEntity
  8
cotas
100
AcDbLine
 10
531.2696547255889
 20
1160.691418752065
 30
0.0
 11
762.7403827751966
 21
1160.691418752065
 31
0.0
  0
LINE
  5
613
330
611
100
AcDbEntity
  8
cotas
100
AcDbLine
 10
627.3346782192509
 20
1175.662051506596
 30
0.0
 11
762.7403827751966
 21
1175.662051506596
 31
0.0
  0
LINE
  5
614
330
611
100
AcDbEntity
  8
cotas
100
AcDbLine
 10
757.7403827751965
 20
1150.691418752065
 30
0.0
 11
757.7403827751965
 21
1140.691418752065
 31
0.0
  0
LINE
  5
615
330
611
100
AcDbEntity
  8
cotas
100
AcDbLine
 10
757.7403827751965
 20
1185.662051506596
 30
0.0
 11
757.7403827751965
 21
1220.309465878658
 31
0.0
  0
LINE
  5
616
330
611
100
AcDbEntity
  8
cotas
100
AcDbLine
 10
757.7403827751965
 20
1160.691418752065
 30
0.0
 11
757.7403827751965
 21
1175.662051506596
 31
0.0
  0
SOLID
  5
617
330
611
100
AcDbEntity
  8
cotas
100
AcDbTrace
 10
756.07371610853
 20
1150.691418752065
 30
0.0
 11
759.4070494418632
 21
1150.691418752065
 31
0.0
 12
757.7403827751965
 22
1160.691418752065
 32
0.0
 13
757.7403827751965
 23
1160.691418752065
 33
0.0
  0
SOLID
  5
618
330
611
100
AcDbEntity
  8
cotas
100
AcDbTrace
 10
756.07371610853
 20
1185.662051506596
 30
0.0
 11
759.4070494418632
 21
1185.662051506596
 31
0.0
 12
757.7403827751965
 22
1175.662051506596
 32
0.0
 13
757.7403827751965
 23
1175.662051506596
 33
0.0
  0
MTEXT
  5
619
330
611
100
AcDbEntity
  8
cotas
100
AcDbMText
 10
747.6194962741891
 20
1207.985758692627
 30
0.0
 40
10.0
 41
0.0
 71
     5
 72
     1
  1
15
  7
SANINDUSA
 11
0.0000000000000001
 21
1.0
 31
0.0
 73
     1
 44
1.0
1001
ACAD
1000
MTEXTBEGIN
1070
    73
1070
     1
1070
    44
1040
1.0
1070
    74
1070
     0
1000
MTEXTEND
  0
POINT
  5
61A
330
611
100
AcDbEntity
  8
Defpoints
 62
     0
100
AcDbPoint
 10
526.2696547255889
 20
1160.691418752065
 30
0.0
  0
POINT
  5
61B
330
611
100
AcDbEntity
  8
Defpoints
 62
     0
100
AcDbPoint
 10
622.3346782192509
 20
1175.662051506596
 30
0.0
  0
POINT
  5
61C
330
611
100
AcDbEntity
  8
Defpoints
 62
     0
100
AcDbPoint
 10
757.7403827751965
 20
1175.662051506596
 30
0.0
  0
ENDBLK
  5
61E
330
611
100
AcDbEntity
  8
0
100
AcDbBlockEnd
  0
BLOCK
  5
629
330
61F
100
AcDbEntity
  8
0
100
AcDbBlockBegin
  2
*D75
 70
     1
 10
0.0
 20
0.0
 30
0.0
  3
*D75
  1

  0
LINE
  5
620
330
61F
100
AcDbEntity
  8
cotas
100
AcDbLine
 10
1673.159253200841
 20
1160.692952062911
 30
0.0
 11
1727.926769659937
 21
1160.692952062911
 31
0.0
  0
LINE
  5
621
330
61F
100
AcDbEntity
  8
cotas
100
AcDbLine
 10
1583.890036685143
 20
1005.554544564782
 30
0.0
 11
1727.926769659937
 21
1005.554544564782
 31
0.0
  0
LINE
  5
622
330
61F
100
AcDbEntity
  8
cotas
100
AcDbLine
 10
1722.926769659937
 20
1150.692952062911
 30
0.0
 11
1722.926769659937
 21
1015.554544564782
 31
0.0
  0
SOLID
  5
623
330
61F
100
AcDbEntity
  8
cotas
100
AcDbTrace
 10
1721.26010299327
 20
1150.692952062911
 30
0.0
 11
1724.593436326603
 21
1150.692952062911
 31
0.0
 12
1722.926769659937
 22
1160.692952062911
 32
0.0
 13
1722.926769659937
 23
1160.692952062911
 33
0.0
  0
SOLID
  5
624
330
61F
100
AcDbEntity
  8
cotas
100
AcDbTrace
 10
1721.26010299327
 20
1015.554544564782
 30
0.0
 11
1724.593436326603
 21
1015.554544564782
 31
0.0
 12
1722.926769659937
 22
1005.554544564782
 32
0.0
 13
1722.926769659937
 23
1005.554544564782
 33
0.0
  0
MTEXT
  5
625
330
61F
100
AcDbEntity
  8
cotas
100
AcDbMText
 10
1712.805883158929
 20
1083.123748313847
 30
0.0
 40
10.0
 41
0.0
 71
     5
 72
     1
  1
155
  7
SANINDUSA
 11
0.0000000000000001
 21
1.0
 31
0.0
 73
     1
 44
1.0
1001
ACAD
1000
MTEXTBEGIN
1070
    73
1070
     1
1070
    44
1040
1.0
1070
    74
1070
     0
1000
MTEXTEND
  0
POINT
  5
626
330
61F
100
AcDbEntity
  8
Defpoints
 62
     0
100
AcDbPoint
 10
1668.159253200841
 20
1160.692952062911
 30
0.0
  0
POINT
  5
627
330
61F
100
AcDbEntity
  8
Defpoints
 62
     0
100
AcDbPoint
 10
1578.890036685143
 20
1005.554544564782
 30
0.0
  0
POINT
  5
628
330
61F
100
AcDbEntity
  8
Defpoints
 62
     0
100
AcDbPoint
 10
1722.926769659937
 20
1005.554544564782
 30
0.0
  0
ENDBLK
  5
62A
330
61F
100
AcDbEntity
  8
0
100
AcDbBlockEnd
  0
BLOCK
  5
636
330
62B
100
AcDbEntity
  8
0
100
AcDbBlockBegin
  2
*D76
 70
     1
 10
0.0
 20
0.0
 30
0.0
  3
*D76
  1

  0
LINE
  5
62C
330
62B
100
AcDbEntity
  8
cotas
100
AcDbLine
 10
231.8585524153269
 20
532.8034371105379
 30
0.0
 11
240.0406431487443
 21
468.4330975993147
 31
0.0
  0
ARC
  5
62D
330
62B
100
AcDbEntity
  8
cotas
100
AcDbCircle
 10
279.9888144647019
 20
154.1518907241425
 30
0.0
 40
321.8099325879855
100
AcDbArc
 50
81.74447165509352
 51
95.46350459751627
  0
SOLID
  5
62E
330
62B
100
AcDbEntity
  8
cotas
100
AcDbTrace
 10
326.4618061614541
 20
474.2725583235364
 30
0.0
 11
325.9319831716982
 21
470.981601211899
 31
0.0
 12
336.0697660014886
 22
471.03761079845
 32
0.0
 13
336.0697660014886
 23
471.03761079845
 33
0.0
  0
SOLID
  5
62F
330
62B
100
AcDbEntity
  8
cotas
100
AcDbTrace
 10
249.5331880733459
 20
472.8434265698647
 30
0.0
 11
249.1642989239742
 21
476.156285140131
 31
0.0
 12
239.4101677878612
 22
473.3931884068827
 32
0.0
 13
239.4101677878612
 23
473.3931884068827
 33
0.0
  0
MTEXT
  5
630
330
62B
100
AcDbEntity
  8
cotas
100
AcDbMText
 10
288.1053700222982
 20
487.2094797703622
 30
0.0
 40
10.0
 41
0.0
 71
     5
 72
     1
  1
17,3°
  7
SANINDUSA
 11
0.9997031879840163
 21
-0.024362592936601
 31
0.0
 73
     1
 44
1.0
1001
ACAD
1000
MTEXTBEGIN
1070
    73
1070
     1
1070
    44
1040
1.0
1070
    74
1070
     0
1000
MTEXTEND
  0
POINT
  5
631
330
62B
100
AcDbEntity
  8
Defpoints
 62
     0
100
AcDbPoint
 10
303.9833785803581
 20
475.0660437389067
 30
0.0
  0
POINT
  5
632
330
62B
100
AcDbEntity
  8
Defpoints
 62
     0
100
AcDbPoint
 10
231.2280770544437
 20
537.7635279181058
 30
0.0
  0
POINT
  5
633
330
62B
100
AcDbEntity
  8
Defpoints
 62
     0
100
AcDbPoint
 10
343.0147586210858
 20
510.280329170092
 30
0.0
  0
POINT
  5
634
330
62B
100
AcDbEntity
  8
Defpoints
 62
     0
100
AcDbPoint
 10
335.5069051219232
 20
467.8571623532106
 30
0.0
  0
POINT
  5
635
330
62B
100
AcDbEntity
  8
Defpoints
 62
     0
100
AcDbPoint
 10
230.4508428410679
 20
543.8782034729
 30
0.0
  0
ENDBLK
  5
637
330
62B
100
AcDbEntity
  8
0
100
AcDbBlockEnd
  0
BLOCK
  5
67D
330
677
100
AcDbEntity
  8
0
100
AcDbBlockBegin
  2
*D77
 70
     1
 10
0.0
 20
0.0
 30
0.0
  3
*D77
  1

  0
LINE
  5
6CE
330
677
100
AcDbEntity
  8
cotas
100
AcDbLine
 10
1575.633180540059
 20
1101.793967323604
 30
0.0
 11
1620.224636857825
 21
1072.149801439011
 31
0.0
  0
MTEXT
  5
6CF
330
677
100
AcDbEntity
  8
cotas
100
AcDbMText
 10
1599.414669495764
 20
1098.238258315326
 30
0.0
 40
10.0
 41
0.0
 71
     5
 72
     1
  1
R410
  7
SANINDUSA
 11
0.832769076347108
 21
-0.5536205067372274
 31
0.0
 73
     1
 44
1.0
1001
ACAD
1000
MTEXTBEGIN
1070
    73
1070
     1
1070
    44
1040
1.0
1070
    74
1070
     0
1000
MTEXTEND
  0
SOLID
  5
6D0
330
677
100
AcDbEntity
  8
cotas
100
AcDbTrace
 10
1621.147337702387
 20
1073.537749899589
 30
0.0
 11
1619.301936013263
 21
1070.761852978432
 31
0.0
 12
1628.552327621297
 22
1066.613596371638
 32
0.0
 13
1628.552327621297
 23
1066.613596371638
 33
0.0
  0
POINT
  5
6D1
330
677
100
AcDbEntity
  8
Defpoints
 62
     0
100
AcDbPoint
 10
1628.552327621297
 20
1066.613596371638
 30
0.0
  0
POINT
  5
6D2
330
677
100
AcDbEntity
  8
Defpoints
 62
     0
100
AcDbPoint
 10
1287.087468454074
 20
1293.617640751306
 30
0.0
  0
ENDBLK
  5
67E
330
677
100
AcDbEntity
  8
0
100
AcDbBlockEnd
  0
BLOCK
  5
689
330
67F
100
AcDbEntity
  8
0
100
AcDbBlockBegin
  2
*D78
 70
     1
 10
0.0
 20
0.0
 30
0.0
  3
*D78
  1

  0
LINE
  5
6D3
330
67F
100
AcDbEntity
  8
cotas
100
AcDbLine
 10
1277.387108700001
 20
1000.554544564552
 30
0.0
 11
1277.387108700001
 21
975.5545445646086
 31
0.0
  0
LINE
  5
6D4
330
67F
100
AcDbEntity
  8
cotas
100
AcDbLine
 10
1578.89003668537
 20
1000.554544564597
 30
0.0
 11
1578.89003668537
 21
975.5545445646086
 31
0.0
  0
LINE
  5
6D5
330
67F
100
AcDbEntity
  8
cotas
100
AcDbLine
 10
1287.387108700001
 20
980.5545445646087
 30
0.0
 11
1568.890036685371
 21
980.5545445646087
 31
0.0
  0
SOLID
  5
6D6
330
67F
100
AcDbEntity
  8
cotas
100
AcDbTrace
 10
1287.387108700001
 20
982.2212112312753
 30
0.0
 11
1287.387108700001
 21
978.8878778979421
 31
0.0
 12
1277.387108700001
 22
980.5545445646087
 32
0.0
 13
1277.387108700001
 23
980.5545445646087
 33
0.0
  0
SOLID
  5
6D7
330
67F
100
AcDbEntity
  8
cotas
100
AcDbTrace
 10
1568.890036685371
 20
982.2212112312753
 30
0.0
 11
1568.890036685371
 21
978.8878778979421
 31
0.0
 12
1578.89003668537
 22
980.5545445646087
 32
0.0
 13
1578.89003668537
 23
980.5545445646087
 33
0.0
  0
MTEXT
  5
6D8
330
67F
100
AcDbEntity
  8
cotas
100
AcDbMText
 10
1428.138572692686
 20
991.9010858674965
 30
0.0
 40
10.0
 41
0.0
 71
     5
 72
     1
  1
301,5
  7
SANINDUSA
 73
     1
 44
1.0
1001
ACAD
1000
MTEXTBEGIN
1070
    73
1070
     1
1070
    44
1040
1.0
1070
    74
1070
     0
1000
MTEXTEND
  0
POINT
  5
6D9
330
67F
100
AcDbEntity
  8
Defpoints
 62
     0
100
AcDbPoint
 10
1277.387108700001
 20
1005.554544564552
 30
0.0
  0
POINT
  5
6DA
330
67F
100
AcDbEntity
  8
Defpoints
 62
     0
100
AcDbPoint
 10
1578.89003668537
 20
1005.554544564597
 30
0.0
  0
POINT
  5
6DB
330
67F
100
AcDbEntity
  8
Defpoints
 62
     0
100
AcDbPoint
 10
1578.89003668537
 20
980.5545445646087
 30
0.0
  0
ENDBLK
  5
68A
330
67F
100
AcDbEntity
  8
0
100
AcDbBlockEnd
  0
BLOCK
  5
695
330
68B
100
AcDbEntity
  8
0
100
AcDbBlockBegin
  2
*D79
 70
     1
 10
0.0
 20
0.0
 30
0.0
  3
*D79
  1

  0
LINE
  5
6C5
330
68B
100
AcDbEntity
  8
cotas
100
AcDbLine
 10
1578.89003668512
 20
1000.554544564756
 30
0.0
 11
1578.89003668512
 21
975.5545445647564
 31
0.0
  0
LINE
  5
6C6
330
68B
100
AcDbEntity
  8
cotas
100
AcDbLine
 10
1672.9267696599
 20
1150.710445469512
 30
0.0
 11
1672.9267696599
 21
975.5545445647564
 31
0.0
  0
LINE
  5
6C7
330
68B
100
AcDbEntity
  8
cotas
100
AcDbLine
 10
1588.89003668512
 20
980.5545445647565
 30
0.0
 11
1662.9267696599
 21
980.5545445647565
 31
0.0
  0
SOLID
  5
6C8
330
68B
100
AcDbEntity
  8
cotas
100
AcDbTrace
 10
1588.89003668512
 20
982.2212112314231
 30
0.0
 11
1588.89003668512
 21
978.8878778980899
 31
0.0
 12
1578.89003668512
 22
980.5545445647565
 32
0.0
 13
1578.89003668512
 23
980.5545445647565
 33
0.0
  0
SOLID
  5
6C9
330
68B
100
AcDbEntity
  8
cotas
100
AcDbTrace
 10
1662.9267696599
 20
982.2212112314231
 30
0.0
 11
1662.9267696599
 21
978.8878778980899
 31
0.0
 12
1672.9267696599
 22
980.5545445647565
 32
0.0
 13
1672.9267696599
 23
980.5545445647565
 33
0.0
  0
MTEXT
  5
6CA
330
68B
100
AcDbEntity
  8
cotas
100
AcDbMText
 10
1625.90840317251
 20
990.7526641080742
 30
0.0
 40
10.0
 41
0.0
 71
     5
 72
     1
  1
94
  7
SANINDUSA
 73
     1
 44
1.0
1001
ACAD
1000
MTEXTBEGIN
1070
    73
1070
     1
1070
    44
1040
1.0
1070
    74
1070
     0
1000
MTEXTEND
  0
POINT
  5
6CB
330
68B
100
AcDbEntity
  8
Defpoints
 62
     0
100
AcDbPoint
 10
1578.89003668512
 20
1005.554544564756
 30
0.0
  0
POINT
  5
6CC
330
68B
100
AcDbEntity
  8
Defpoints
 62
     0
100
AcDbPoint
 10
1672.9267696599
 20
1155.710445469511
 30
0.0
  0
POINT
  5
6CD
330
68B
100
AcDbEntity
  8
Defpoints
 62
     0
100
AcDbPoint
 10
1672.9267696599
 20
980.5545445647565
 30
0.0
  0
ENDBLK
  5
696
330
68B
100
AcDbEntity
  8
0
100
AcDbBlockEnd
  0
ENDSEC
  0
SECTION
  2
ENTITIES
  0
LWPOLYLINE
  5
31F
330
23
100
AcDbEntity
  8
SANINDUSA
100
AcDbPolyline
 90
       31
 70
   128
 43
0.0
 10
1168.839018651938
 20
1058.374609929489
 10
1168.827811185914
 20
1058.374006787676
 10
1168.813457225555
 20
1058.373416394585
 10
1168.798339083672
 20
1058.37295964582
 10
1168.783234727317
 20
1058.372669748922
 10
1168.768147003405
 20
1058.372543613751
 10
1168.753079888782
 20
1058.372578118993
 10
1168.738037642159
 20
1058.372770069528
 10
1168.723023967835
 20
1058.373116208315
 10
1168.708042651621
 20
1058.373613223038
 10
1168.693097556843
 20
1058.374257744304
 10
1168.678192620222
 20
1058.37504634421
 10
1168.66331850151
 20
1058.375979838017
 10
1168.6486012136
 20
1058.377061029516
 10
1168.634328166001
 20
1058.378274370527
 10
1168.620494491957
 20
1058.379620210539
 10
1168.607088836447
 20
1058.381098850266
 10
1168.594099835128
 20
1058.382710235251
 10
1168.58151629057
 20
1058.384454046307
 10
1168.569327243766
 20
1058.38632977745
 10
1168.557522016456
 20
1058.388336800758
 10
1168.546090236129
 20
1058.390474421034
 10
1168.535021850729
 20
1058.39274192243
 10
1168.524306087315
 20
1058.395138633728
 10
1168.51399513556
 20
1058.397636448249
 10
1168.503859571433
 20
1058.400270815779
 10
1168.493191993212
 20
1058.403231196254
 10
1168.4818699432
 20
1058.406577540722
 10
1168.469691054475
 20
1058.410402189955
 10
1168.456386097375
 20
1058.414831786508
 10
1168.455137010349
 20
1058.415268987533
  0
LWPOLYLINE
  5
320
330
23
100
AcDbEntity
  8
SANINDUSA
100
AcDbPolyline
 90
       54
 70
   128
 43
0.0
 10
1169.044057466505
 20
1058.399827905883
 10
1169.043749292113
 20
1058.400022914764
 10
1169.043003654698
 20
1058.400332642497
 10
1169.042310541591
 20
1058.400503309066
 10
1169.041705342642
 20
1058.400569579957
 10
1169.041220451317
 20
1058.400569406617
 10
1169.040903292062
 20
1058.400543761315
 10
1169.040784386872
 20
1058.400528883623
 10
1169.040722002881
 20
1058.400519918219
 10
1169.040673216914
 20
1058.400512348535
 10
1169.040627653091
 20
1058.400504836737
 10
1169.040582655359
 20
1058.40049700849
 10
1169.040544791009
 20
1058.400490151332
 10
1169.040445812557
 20
1058.400471809335
 10
1169.040059123635
 20
1058.400399587883
 10
1169.039348344319
 20
1058.400266739166
 10
1169.038334417881
 20
1058.400077479528
 10
1169.03701358986
 20
1058.399831414946
 10
1169.035385580566
 20
1058.399528803489
 10
1169.033449196658
 20
1058.399169737352
 10
1169.031202901521
 20
1058.398754250645
 10
1169.028643167168
 20
1058.398280608934
 10
1169.025858234216
 20
1058.397763240935
 10
1169.02272540636
 20
1058.397181527148
 10
1169.019308756557
 20
1058.396549769688
 10
1169.015610690065
 20
1058.395870869723
 10
1169.011634783396
 20
1058.395147990097
 10
1169.007385582724
 20
1058.394384513581
 10
1169.002868539265
 20
1058.393584022089
 10
1168.99808996619
 20
1058.392750277083
 10
1168.993057000156
 20
1058.391887198986
 10
1168.987777558459
 20
1058.390998844594
 10
1168.982260287122
 20
1058.390089382203
 10
1168.976514497792
 20
1058.389163064612
 10
1168.970550092984
 20
1058.388224200444
 10
1168.964377941797
 20
1058.387277194288
 10
1168.9580090836
 20
1058.386326403762
 10
1168.951457795842
 20
1058.38537691658
 10
1168.944732423331
 20
1058.38443853547
 10
1168.937866939677
 20
1058.383520541182
 10
1168.930862461059
 20
1058.382625269887
 10
1168.923726191617
 20
1058.381755886458
 10
1168.91646528452
 20
1058.380915509658
 10
1168.909086819718
 20
1058.380107209143
 10
1168.901597783029
 20
1058.379334003331
 10
1168.894004921554
 20
1058.378598841652
 10
1168.886332333102
 20
1058.377904242167
 10
1168.878645645823
 20
1058.3772540647
 10
1168.870875112857
 20
1058.376641722849
 10
1168.863098717688
 20
1058.376073410882
 10
1168.856404354091
 20
1058.375616817048
 10
1168.849338403477
 20
1058.375165050594
 10
1168.8416158567
 20
1058.374712474218
 10
1168.83902093237
 20
1058.374578692773
  0
ARC
  5
321
330
23
100
AcDbEntity
  8
SANINDUSA
100
AcDbCircle
 10
1168.45352174696
 20
1058.410344764649
 30
0.0
 40
0.0051823784909104
100
AcDbArc
 50
71.83926693892472
 51
96.99097078519773
  0
LWPOLYLINE
  5
322
330
23
100
AcDbEntity
  8
SANINDUSA
100
AcDbPolyline
 90
       11
 70
   128
 43
0.0
 10
1168.452890984507
 20
1058.415488613942
 10
1168.452454746739
 20
1058.415431488436
 10
1168.452011788257
 20
1058.415369266725
 10
1168.450179224701
 20
1058.4150617446
 10
1168.448605688781
 20
1058.414722857859
 10
1168.44727543083
 20
1058.414371678619
 10
1168.446671160931
 20
1058.414190524873
 10
1168.446231841813
 20
1058.414051195295
 10
1168.445998936282
 20
1058.413981389007
 10
1168.445820394021
 20
1058.413934711294
 10
1168.445725870444
 20
1058.413907785781
  0
LWPOLYLINE
  5
323
330
23
100
AcDbEntity
  8
SANINDUSA
100
AcDbPolyline
 90
       48
 70
   128
 43
0.0
 10
1168.46788268937
 20
1058.387466354904
 10
1168.468034762106
 20
1058.387399235941
 10
1168.468432556261
 20
1058.387214024856
 10
1168.46913339164
 20
1058.38687397959
 10
1168.47013766731
 20
1058.386371204861
 10
1168.471417998895
 20
1058.385714314028
 10
1168.472948968663
 20
1058.38491294019
 10
1168.474715750927
 20
1058.383972275167
 10
1168.476706059873
 20
1058.382896686103
 10
1168.478640734623
 20
1058.381834240946
 10
1168.480672829327
 20
1058.380696796484
 10
1168.482792414502
 20
1058.379485838661
 10
1168.485239676072
 20
1058.378056520032
 10
1168.487769202613
 20
1058.376544903879
 10
1168.490371407417
 20
1058.374954865997
 10
1168.492684728334
 20
1058.373509496549
 10
1168.495270894453
 20
1058.371857278318
 10
1168.497983311092
 20
1058.370086268697
 10
1168.50078262363
 20
1058.368219123593
 10
1168.503621495478
 20
1058.366284805235
 10
1168.506458177493
 20
1058.3643097386
 10
1168.509256196754
 20
1058.362317834579
 10
1168.511986750162
 20
1058.360328717383
 10
1168.514670135486
 20
1058.3583300773
 10
1168.517436616017
 20
1058.356226305373
 10
1168.520248620892
 20
1058.354044505054
 10
1168.523091515443
 20
1058.351795165184
 10
1168.525943782918
 20
1058.349494489642
 10
1168.52877670073
 20
1058.347164990868
 10
1168.531553756039
 20
1058.344836321154
 10
1168.53425500867
 20
1058.342528199474
 10
1168.537033759117
 20
1058.340111798254
 10
1168.539706793539
 20
1058.337746315492
 10
1168.542293869561
 20
1058.335418323482
 10
1168.544793869974
 20
1058.333133044518
 10
1168.547205114526
 20
1058.330897078475
 10
1168.549515854222
 20
1058.32872832213
 10
1168.551655044868
 20
1058.326697654299
 10
1168.553589198248
 20
1058.324840415428
 10
1168.555311904986
 20
1058.323166827489
 10
1168.556817450896
 20
1058.321686585517
 10
1168.558100827801
 20
1058.320408820233
 10
1168.559157504659
 20
1058.319342314279
 10
1168.559982682689
 20
1058.318496300756
 10
1168.560568897521
 20
1058.317883201842
 10
1168.560861382261
 20
1058.317568908518
 10
1168.560938770643
 20
1058.317482900322
 10
1168.560932346167
 20
1058.31749056038
  0
ARC
  5
327
330
23
100
AcDbEntity
  8
SANINDUSA
100
AcDbCircle
 10
1169.041537526262
 20
1058.395587073364
 30
0.0
 40
0.004935332838734
100
AcDbArc
 50
339.6755018231133
 51
59.28450769933942
  0
ARC
  5
328
330
23
100
AcDbEntity
  8
SANINDUSA
100
AcDbCircle
 10
1168.660633557895
 20
1058.533494268646
 30
0.0
 40
0.4100354694545534
100
AcDbArc
 50
315.3694872996672
 51
340.0920153487606
  0
LINE
  5
329
330
23
100
AcDbEntity
  8
SANINDUSA
100
AcDbLine
 10
1168.952436126126
 20
1058.245431172459
 30
0.0
 11
1168.839392616281
 21
1058.245431172459
 31
0.0
  0
LINE
  5
32B
330
23
100
AcDbEntity
  8
SANINDUSA
100
AcDbLine
 10
1168.839392616281
 20
1058.245431172459
 30
0.0
 11
1168.663266588664
 21
1058.245431172459
 31
0.0
  0
ARC
  5
32D
330
23
100
AcDbEntity
  8
SANINDUSA
100
AcDbCircle
 10
1166.489312494577
 20
1055.645202287317
 30
0.0
 40
3.38695344844651
100
AcDbArc
 50
50.1495063775598
 51
54.6134163709855
  0
LINE
  5
32E
330
23
100
AcDbEntity
  8
SANINDUSA
100
AcDbLine
 10
1168.659626620877
 20
1058.245431172459
 30
0.0
 11
1168.663266588664
 21
1058.245431172459
 31
0.0
  0
ARC
  5
32F
330
23
100
AcDbEntity
  8
SANINDUSA
100
AcDbCircle
 10
1166.1757190318
 20
1055.238543668985
 30
0.0
 40
3.894619060679021
100
AcDbArc
 50
50.53942030215073
 51
52.21865657797945
  0
LINE
  5
331
330
23
100
AcDbEntity
  8
SANINDUSA
100
AcDbLine
 10
1168.466607067325
 20
1058.388120309105
 30
0.0
 11
1168.443387809395
 21
1058.404875324362
 31
0.0
  0
LINE
  5
333
330
23
100
AcDbEntity
  8
SANINDUSA
100
AcDbLine
 10
1168.659626620877
 20
1058.245431172459
 30
0.0
 11
1168.650933198141
 21
1058.245431172459
 31
0.0
  0
ARC
  5
334
330
23
100
AcDbEntity
  8
SANINDUSA
100
AcDbCircle
 10
1168.446298499508
 20
1058.408940724865
 30
0.0
 40
0.004999959818766
100
AcDbArc
 50
96.57632850078663
 51
234.3986096370103
  0
LWPOLYLINE
  5
335
330
23
100
AcDbEntity
  8
SANINDUSA
100
AcDbPolyline
 90
        3
 70
   128
 43
0.0
 10
1168.46788268937
 20
1058.387466354904
 10
1168.467717804435
 20
1058.387511024304
 10
1168.466607067325
 20
1058.388120309105
  0
LINE
  5
336
330
23
100
AcDbEntity
  8
SANINDUSA
100
AcDbLine
 10
1168.561756354917
 20
1058.316673542869
 30
0.0
 11
1168.560938770643
 21
1058.317482900322
 31
0.0
  0
ARC
  5
338
330
23
100
AcDbEntity
  8
SANINDUSA
100
AcDbCircle
 10
1168.453577136815
 20
1058.410531208387
 30
0.0
 40
0.0050046653068306
100
AcDbArc
 50
97.88021705073056
 51
234.4074683359457
  0
LWPOLYLINE
  5
339
330
23
100
AcDbEntity
  8
SANINDUSA
100
AcDbPolyline
 90
       44
 70
   128
 43
0.0
 10
1168.233417251806
 20
1058.370620371061
 10
1168.233230126325
 20
1058.37116800373
 10
1168.232767398439
 20
1058.372296403002
 10
1168.231994931421
 20
1058.373459344472
 10
1168.231002237216
 20
1058.37445733523
 10
1168.229841782888
 20
1058.375282162294
 10
1168.229036249486
 20
1058.375735227871
 10
1168.228206459921
 20
1058.376148352987
 10
1168.226362215466
 20
1058.376945721022
 10
1168.224377001199
 20
1058.377691588141
 10
1168.221974664547
 20
1058.378501582254
 10
1168.219334145302
 20
1058.37931872159
 10
1168.216470127364
 20
1058.380145683829
 10
1168.213335080523
 20
1058.380997451731
 10
1168.209924557007
 20
1058.381874155212
 10
1168.206236732506
 20
1058.38277462763
 10
1168.202271287285
 20
1058.383696992142
 10
1168.198030624601
 20
1058.384638561494
 10
1168.19351611066
 20
1058.385596791636
 10
1168.188844521665
 20
1058.386541521394
 10
1168.183833801381
 20
1058.387502711756
 10
1168.178579162169
 20
1058.388458198533
 10
1168.173088657592
 20
1058.389403961106
 10
1168.167371224084
 20
1058.390335868326
 10
1168.161436527436
 20
1058.39124973497
 10
1168.155294872335
 20
1058.392141360931
 10
1168.148957104609
 20
1058.393006567411
 10
1168.142434506751
 20
1058.393841230169
 10
1168.135738688225
 20
1058.394641309584
 10
1168.128881472782
 20
1058.395402877138
 10
1168.121874785333
 20
1058.396122137932
 10
1168.114730541151
 20
1058.396795448884
 10
1168.107460540059
 20
1058.397419332376
 10
1168.100076368076
 20
1058.397990485248
 10
1168.092589308609
 20
1058.39850578319
 10
1168.08502205097
 20
1058.398962614937
 10
1168.077374741327
 20
1058.399364421223
 10
1168.069674935386
 20
1058.399709725355
 10
1168.061944173904
 20
1058.399997367705
 10
1168.054182042179
 20
1058.400227325432
 10
1168.0463879207
 20
1058.400399480994
 10
1168.038561030229
 20
1058.400513616812
 10
1168.030703707518
 20
1058.40056940045
 10
1168.027031523644
 20
1058.400568046646
  0
LWPOLYLINE
  5
33A
330
23
100
AcDbEntity
  8
SANINDUSA
100
AcDbPolyline
 90
       43
 70
   128
 43
0.0
 10
1168.027031444407
 20
1058.40056925026
 10
1168.02143220713
 20
1058.400561151532
 10
1168.013597858255
 20
1058.400491243735
 10
1168.005799546813
 20
1058.400363403243
 10
1167.998036371139
 20
1058.400177985128
 10
1167.990309861721
 20
1058.399935322962
 10
1167.982621334187
 20
1058.399635705811
 10
1167.974970148169
 20
1058.399279280821
 10
1167.967355849091
 20
1058.398866100439
 10
1167.959790234889
 20
1058.398395493163
 10
1167.952368769331
 20
1058.397870700505
 10
1167.945073426246
 20
1058.39729320209
 10
1167.937887837263
 20
1058.39666413374
 10
1167.930823086395
 20
1058.395986602979
 10
1167.9238905149
 20
1058.395263883717
 10
1167.917101712494
 20
1058.394499418748
 10
1167.910468427624
 20
1058.39369681267
 10
1167.904002468996
 20
1058.392859820329
 10
1167.897715600098
 20
1058.391992330766
 10
1167.891619428979
 20
1058.391098346712
 10
1167.885725295735
 20
1058.390181959816
 10
1167.880044160168
 20
1058.389247321841
 10
1167.874586491913
 20
1058.388298612059
 10
1167.869362164857
 20
1058.387340000937
 10
1167.864380356848
 20
1058.386375609944
 10
1167.859651660152
 20
1058.385410100205
 10
1167.855280626101
 20
1058.384474716014
 10
1167.85108858568
 20
1058.383536558308
 10
1167.847174393812
 20
1058.382618635996
 10
1167.843539587958
 20
1058.381723490358
 10
1167.840185261838
 20
1058.380853423466
 10
1167.837112540612
 20
1058.380010563024
 10
1167.834319931848
 20
1058.37919600498
 10
1167.831803629307
 20
1058.378409520303
 10
1167.829544835893
 20
1058.377641225895
 10
1167.827538556653
 20
1058.376880437777
 10
1167.825721112152
 20
1058.376083805757
 10
1167.824568717154
 20
1058.375485245471
 10
1167.823566942341
 20
1058.374850348897
 10
1167.822552682045
 20
1058.373992727102
 10
1167.821667904102
 20
1058.372921523239
 10
1167.820987519492
 20
1058.371616368398
 10
1167.820644779617
 20
1058.370600151046
  0
ARC
  5
33B
330
23
100
AcDbEntity
  8
SANINDUSA
100
AcDbCircle
 10
1168.457841515206
 20
1059.002110766209
 30
0.0
 40
0.6746354351431306
100
AcDbArc
 50
240.510379524327
 51
245.3929030905378
  0
ARC
  5
33C
330
23
100
AcDbEntity
  8
SANINDUSA
100
AcDbCircle
 10
1167.587607393689
 20
1059.019580937979
 30
0.0
 40
0.694112017700062
100
AcDbArc
 50
294.6546287162306
 51
299.39994196915
  0
LWPOLYLINE
  5
33D
330
23
100
AcDbEntity
  8
SANINDUSA
100
AcDbPolyline
 90
        9
 70
   128
 43
0.0
 10
1168.123096547138
 20
1058.415538679401
 10
1168.117799444656
 20
1058.415412744683
 10
1168.106653925381
 20
1058.415152084786
 10
1168.094909952707
 20
1058.414864157958
 10
1168.082536966859
 20
1058.414567931302
 10
1168.069420651864
 20
1058.414287836308
 10
1168.055408063798
 20
1058.414080092171
 10
1168.039547683981
 20
1058.4139810121
 10
1168.027030810496
 20
1058.414017430907
  0
ARC
  5
33E
330
23
100
AcDbEntity
  8
SANINDUSA
100
AcDbCircle
 10
1168.030288096433
 20
1061.667769977952
 30
0.0
 40
3.253754177456347
100
AcDbArc
 50
268.2507992413198
 51
269.9426420240278
  0
ARC
  5
33F
330
23
100
AcDbEntity
  8
SANINDUSA
100
AcDbCircle
 10
1168.123070308815
 20
1058.409810412615
 30
0.0
 40
0.0057283268776
100
AcDbArc
 50
62.20469903684608
 51
89.73755855270136
  0
ARC
  5
340
330
23
100
AcDbEntity
  8
SANINDUSA
100
AcDbCircle
 10
1167.930900125661
 20
1058.41035279039
 30
0.0
 40
0.0051796583765837
100
AcDbArc
 50
89.24200321936565
 51
119.5071652745334
  0
LWPOLYLINE
  5
341
330
23
100
AcDbEntity
  8
SANINDUSA
100
AcDbPolyline
 90
        3
 70
   128
 43
0.0
 10
1168.23303041897
 20
1058.367396126575
 10
1168.233502251694
 20
1058.369004679796
 10
1168.233417251806
 20
1058.370620371061
  0
LWPOLYLINE
  5
346
330
23
100
AcDbEntity
  8
SANINDUSA
100
AcDbPolyline
 90
        3
 70
   128
 43
0.0
 10
1167.821032676207
 20
1058.367396126575
 10
1167.820560843483
 20
1058.369004679796
 10
1167.820644779617
 20
1058.370600151046
  0
LINE
  5
349
330
23
100
AcDbEntity
  8
SANINDUSA
100
AcDbLine
 10
1168.027031547588
 20
1058.245431172459
 30
0.0
 11
1168.140231900409
 21
1058.245431172459
 31
0.0
  0
LINE
  5
34A
330
23
100
AcDbEntity
  8
SANINDUSA
100
AcDbLine
 10
1168.027031547588
 20
1058.245431172459
 30
0.0
 11
1167.913831123191
 21
1058.245431172459
 31
0.0
  0
LWPOLYLINE
  5
353
330
23
100
AcDbEntity
  8
SANINDUSA
100
AcDbPolyline
 90
       31
 70
   128
 43
0.0
 10
1167.60139376765
 20
1058.231944568666
 10
1167.601296613764
 20
1058.243006081099
 10
1167.600828265179
 20
1058.25889275496
 10
1167.600108294276
 20
1058.27411193257
 10
1167.59912125104
 20
1058.289317465625
 10
1167.597865433475
 20
1058.304505294112
 10
1167.596339168678
 20
1058.319671630445
 10
1167.594540916193
 20
1058.334811952086
 10
1167.592469114531
 20
1058.349922505961
 10
1167.590122249775
 20
1058.364999461266
 10
1167.587498861221
 20
1058.380038913788
 10
1167.58459754687
 20
1058.395036890211
 10
1167.581414830673
 20
1058.410007086262
 10
1167.577970926292
 20
1058.424837122356
 10
1167.574337206314
 20
1058.439227107093
 10
1167.570522374528
 20
1058.453183870528
 10
1167.56653342156
 20
1058.46671868481
 10
1167.562376641315
 20
1058.479842804718
 10
1167.558057700466
 20
1058.492567306346
 10
1167.553581687579
 20
1058.504903012166
 10
1167.548953153416
 20
1058.516860445201
 10
1167.54417614431
 20
1058.528449800649
 10
1167.539254230071
 20
1058.539680927944
 10
1167.534187819434
 20
1058.550566604953
 10
1167.529022837106
 20
1058.561000757525
 10
1167.523682301322
 20
1058.571225341671
 10
1167.517815630276
 20
1058.581959104358
 10
1167.511367280802
 20
1058.593314001641
 10
1167.504249395626
 20
1058.605474377328
 10
1167.496373745513
 20
1058.618663126703
 10
1167.495431442276
 20
1058.620273676093
  0
LWPOLYLINE
  5
354
330
23
100
AcDbEntity
  8
SANINDUSA
100
AcDbPolyline
 90
       31
 70
   128
 43
0.0
 10
1167.29447779342
 20
1058.620270528927
 10
1167.287932769892
 20
1058.60931698981
 10
1167.280522947439
 20
1058.596748335967
 10
1167.273771144835
 20
1058.58496971081
 10
1167.267701336724
 20
1058.573984963784
 10
1167.262213785505
 20
1058.563609140622
 10
1167.257234505383
 20
1058.553708768194
 10
1167.252188325209
 20
1058.543066691496
 10
1167.247475915892
 20
1058.532528056428
 10
1167.242818019894
 20
1058.521488043451
 10
1167.238304119488
 20
1058.510128877197
 10
1167.233936245563
 20
1058.4984413515
 10
1167.229717796783
 20
1058.486418435829
 10
1167.225652566444
 20
1058.474053037697
 10
1167.221744770556
 20
1058.461338082887
 10
1167.217999067241
 20
1058.448266580623
 10
1167.214420579734
 20
1058.434831707755
 10
1167.211014923509
 20
1058.421026919525
 10
1167.207788238191
 20
1058.406846098553
 10
1167.20474700753
 20
1058.392281297036
 10
1167.201900961589
 20
1058.377297788997
 10
1167.199322792622
 20
1058.3622181402
 10
1167.197021863009
 20
1058.347099924778
 10
1167.194996796763
 20
1058.331947176751
 10
1167.193246153409
 20
1058.316763843026
 10
1167.191768436981
 20
1058.30155379875
 10
1167.190562101616
 20
1058.286320843139
 10
1167.189625558905
 20
1058.271068725926
 10
1167.188957214202
 20
1058.255802088396
 10
1167.188555353554
 20
1058.24052451382
 10
1167.188514232943
 20
1058.231944850793
  0
LWPOLYLINE
  5
355
330
23
100
AcDbEntity
  8
SANINDUSA
100
AcDbPolyline
 90
        9
 70
   128
 43
0.0
 10
1167.491933054741
 20
1058.62263031738
 10
1167.486571439
 20
1058.623476834879
 10
1167.475403836497
 20
1058.625030316627
 10
1167.463633018515
 20
1058.626377403486
 10
1167.451233436925
 20
1058.627509207313
 10
1167.438090506939
 20
1058.628428071171
 10
1167.424067956297
 20
1058.629168029314
 10
1167.408110039868
 20
1058.629744697203
 10
1167.394951993689
 20
1058.629983680202
  0
LWPOLYLINE
  5
356
330
23
100
AcDbEntity
  8
SANINDUSA
100
AcDbPolyline
 90
        9
 70
   128
 43
0.0
 10
1167.394948309461
 20
1058.629970216836
 10
1167.388681229164
 20
1058.62990520228
 10
1167.372892542689
 20
1058.629458320593
 10
1167.357039345653
 20
1058.62872937747
 10
1167.343310070027
 20
1058.627864674948
 10
1167.330670290402
 20
1058.626811291183
 10
1167.318750660657
 20
1058.625550049269
 10
1167.307449906399
 20
1058.624083311836
 10
1167.297968575196
 20
1058.622615125754
  0
ARC
  5
357
330
23
100
AcDbEntity
  8
SANINDUSA
100
AcDbCircle
 10
1167.491119764501
 20
1058.61769387345
 30
0.0
 40
0.0050000000000099
100
AcDbArc
 50
30.98036464880145
 51
80.633549432599
  0
ARC
  5
358
330
23
100
AcDbEntity
  8
SANINDUSA
100
AcDbCircle
 10
1167.29877941063
 20
1058.61769387345
 30
0.0
 40
0.0050000000000099
100
AcDbArc
 50
99.36645056740099
 51
149.0196353511985
  0
LWPOLYLINE
  5
359
330
23
100
AcDbEntity
  8
SANINDUSA
100
AcDbPolyline
 90
       43
 70
   128
 43
0.0
 10
1167.394949467923
 20
1058.02478603357
 10
1167.39979686569
 20
1058.024805519817
 10
1167.407701402664
 20
1058.025147503049
 10
1167.415569677788
 20
1058.025797943768
 10
1167.423402202597
 20
1058.02675642207
 10
1167.431197750944
 20
1058.028022736055
 10
1167.438954112624
 20
1058.029596732982
 10
1167.446671586242
 20
1058.031479042017
 10
1167.454350312863
 20
1058.033670789505
 10
1167.461984856265
 20
1058.03617246575
 10
1167.469487925964
 20
1058.038958223001
 10
1167.476859770558
 20
1058.042025119645
 10
1167.484123823669
 20
1058.045382085408
 10
1167.491269047533
 20
1058.049025543735
 10
1167.49828415516
 20
1058.052951319738
 10
1167.50515759249
 20
1058.057154565702
 10
1167.511877618598
 20
1058.061629732563
 10
1167.518432394025
 20
1058.066370554099
 10
1167.524810075605
 20
1058.071370045164
 10
1167.530998915506
 20
1058.076620514851
 10
1167.536987361865
 20
1058.082113594902
 10
1167.542764158211
 20
1058.087840283152
 10
1167.548318438737
 20
1058.093791001182
 10
1167.553639816577
 20
1058.099955664796
 10
1167.558718169833
 20
1058.106323383528
 10
1167.563544177586
 20
1058.112883052845
 10
1167.568102978223
 20
1058.119612228235
 10
1167.572395135941
 20
1058.126508858315
 10
1167.576407149599
 20
1058.133551940877
 10
1167.580134032017
 20
1058.140731444368
 10
1167.583572882398
 20
1058.148040270284
 10
1167.586720993334
 20
1058.155471369506
 10
1167.589575842308
 20
1058.163017762738
 10
1167.592135080757
 20
1058.17067255989
 10
1167.594396455845
 20
1058.178431705359
 10
1167.596339000659
 20
1058.186225855488
 10
1167.597974516142
 20
1058.194080534227
 10
1167.599301897852
 20
1058.201990633304
 10
1167.600211179072
 20
1058.209004325301
 10
1167.600819029142
 20
1058.215819383566
 10
1167.60119419527
 20
1058.222945375019
 10
1167.601388345694
 20
1058.231002402521
 10
1167.60139376765
 20
1058.231944568666
  0
LWPOLYLINE
  5
35A
330
23
100
AcDbEntity
  8
SANINDUSA
100
AcDbPolyline
 90
       43
 70
   128
 43
0.0
 10
1167.188514232943
 20
1058.231944850793
 10
1167.188532017761
 20
1058.229563930346
 10
1167.188766956155
 20
1058.2214085483
 10
1167.189202609809
 20
1058.214167472118
 10
1167.189883984472
 20
1058.207310306226
 10
1167.190872623015
 20
1058.200182246215
 10
1167.192259596632
 20
1058.192340194894
 10
1167.193962005377
 20
1058.184502130851
 10
1167.195971998807
 20
1058.176724004632
 10
1167.198269445173
 20
1058.169079577124
 10
1167.200867555244
 20
1058.161508282306
 10
1167.203771613152
 20
1058.154006959063
 10
1167.206967088576
 20
1058.146620677441
 10
1167.210451652366
 20
1058.139356218879
 10
1167.214222801764
 20
1058.132220482404
 10
1167.21827785794
 20
1058.125220441605
 10
1167.222613956665
 20
1058.118363125367
 10
1167.227226912945
 20
1058.111657609047
 10
1167.232089904437
 20
1058.1051457777
 10
1167.23719359789
 20
1058.098837797479
 10
1167.242542757532
 20
1058.092726695563
 10
1167.248128563952
 20
1058.086823320908
 10
1167.253941187428
 20
1058.081138603589
 10
1167.259970222656
 20
1058.075683002922
 10
1167.266204962883
 20
1058.07046627694
 10
1167.272634254662
 20
1058.065497651537
 10
1167.279246588237
 20
1058.060785752231
 10
1167.286030194826
 20
1058.05633854895
 10
1167.292973147977
 20
1058.052163315243
 10
1167.300063466035
 20
1058.048266602834
 10
1167.307289212786
 20
1058.044654231818
 10
1167.314638593567
 20
1058.041331296206
 10
1167.322100044424
 20
1058.038302183961
 10
1167.329662312353
 20
1058.035570610236
 10
1167.33729519873
 20
1058.033144060063
 10
1167.345014733878
 20
1058.031014791102
 10
1167.352781692406
 20
1058.02919544597
 10
1167.360580617572
 20
1058.027688724269
 10
1167.368411560295
 20
1058.026493254251
 10
1167.376274759079
 20
1058.025608155006
 10
1167.384170602514
 20
1058.025033055264
 10
1167.392095837229
 20
1058.024768157951
 10
1167.394949426161
 20
1058.02478445255
  0
ARC
  5
363
330
23
100
AcDbEntity
  8
SANINDUSA
100
AcDbCircle
 10
1167.394910509185
 20
1058.231586509137
 30
0.0
 40
0.1739896080498885
100
AcDbArc
 50
270.0128687331978
 51
89.98713126680215
  0
ARC
  5
364
330
23
100
AcDbEntity
  8
SANINDUSA
100
AcDbCircle
 10
1167.394988665946
 20
1058.231586509137
 30
0.0
 40
0.1739896080498885
100
AcDbArc
 50
90.01286873319784
 51
269.9871312668022
  0
LWPOLYLINE
  5
365
330
23
100
AcDbEntity
  8
SANINDUSA
100
AcDbPolyline
 90
       40
 70
   128
 43
0.0
 10
1167.394949587565
 20
1058.358693354161
 10
1167.401809258416
 20
1058.358505480859
 10
1167.408668844466
 20
1058.357944339094
 10
1167.415549015289
 20
1058.357002258197
 10
1167.422387757402
 20
1058.355680675995
 10
1167.432504178506
 20
1058.352994776715
 10
1167.442432459435
 20
1058.34946101702
 10
1167.452235931182
 20
1058.345017030155
 10
1167.461696249785
 20
1058.339722144238
 10
1167.470487015246
 20
1058.333780385846
 10
1167.478809583595
 20
1058.327079673069
 10
1167.486705071961
 20
1058.31953668347
 10
1167.493976053106
 20
1058.311281277827
 10
1167.500297861905
 20
1058.302738707529
 10
1167.50591932734
 20
1058.293631091036
 10
1167.510851697571
 20
1058.283864592903
 10
1167.51494901431
 20
1058.273630067183
 10
1167.518618243891
 20
1058.261133796883
 10
1167.520996560335
 20
1058.248184913625
 10
1167.521906988846
 20
1058.237893473261
 10
1167.521965616729
 20
1058.227491292889
 10
1167.521135739482
 20
1058.216898348727
 10
1167.519399549084
 20
1058.206338079097
 10
1167.516882535467
 20
1058.19633314671
 10
1167.513533137714
 20
1058.186501819437
 10
1167.509293560792
 20
1058.176781581046
 10
1167.504219902205
 20
1058.167384210693
 10
1167.49848547398
 20
1058.158596651915
 10
1167.492001802938
 20
1058.150254971781
 10
1167.484692457917
 20
1058.142316647007
 10
1167.476680370605
 20
1058.134972461708
 10
1167.468188236095
 20
1058.128414014235
 10
1167.459110070968
 20
1058.122551923778
 10
1167.449350484407
 20
1058.117373471051
 10
1167.439100487863
 20
1058.113029967157
 10
1167.428918496142
 20
1058.10971351381
 10
1167.418417269193
 20
1058.107252953118
 10
1167.407500079805
 20
1058.105672199704
 10
1167.396401114555
 20
1058.105049549301
 10
1167.394949587565
 20
1058.105040731528
  0
LWPOLYLINE
  5
366
330
23
100
AcDbEntity
  8
SANINDUSA
100
AcDbPolyline
 90
       40
 70
   128
 43
0.0
 10
1167.394949587565
 20
1058.358693354161
 10
1167.388089916715
 20
1058.358505480859
 10
1167.381230330664
 20
1058.357944339094
 10
1167.374350159842
 20
1058.357002258197
 10
1167.367511417729
 20
1058.355680675995
 10
1167.357394996625
 20
1058.352994776715
 10
1167.347466715696
 20
1058.34946101702
 10
1167.337663243949
 20
1058.345017030155
 10
1167.328202925345
 20
1058.339722144238
 10
1167.319412159884
 20
1058.333780385846
 10
1167.311089591535
 20
1058.327079673069
 10
1167.30319410317
 20
1058.31953668347
 10
1167.295923122025
 20
1058.311281277827
 10
1167.289601313226
 20
1058.302738707529
 10
1167.283979847791
 20
1058.293631091036
 10
1167.279047477559
 20
1058.283864592903
 10
1167.27495016082
 20
1058.273630067183
 10
1167.27128093124
 20
1058.261133796883
 10
1167.268902614795
 20
1058.248184913625
 10
1167.267992186284
 20
1058.237893473261
 10
1167.267933558401
 20
1058.227491292889
 10
1167.268763435649
 20
1058.216898348727
 10
1167.270499626047
 20
1058.206338079097
 10
1167.273016639663
 20
1058.19633314671
 10
1167.276366037417
 20
1058.186501819437
 10
1167.280605614338
 20
1058.176781581046
 10
1167.285679272926
 20
1058.167384210693
 10
1167.291413701151
 20
1058.158596651915
 10
1167.297897372192
 20
1058.150254971781
 10
1167.305206717213
 20
1058.142316647007
 10
1167.313218804526
 20
1058.134972461708
 10
1167.321710939036
 20
1058.128414014235
 10
1167.330789104163
 20
1058.122551923778
 10
1167.340548690724
 20
1058.117373471051
 10
1167.350798687268
 20
1058.113029967157
 10
1167.360980678989
 20
1058.10971351381
 10
1167.371481905938
 20
1058.107252953118
 10
1167.382399095326
 20
1058.105672199704
 10
1167.393498060576
 20
1058.105049549301
 10
1167.394949587565
 20
1058.105040731528
  0
ARC
  5
369
330
23
100
AcDbEntity
  8
SANINDUSA
100
AcDbCircle
 10
1167.394949587565
 20
1058.231775491297
 30
0.0
 40
0.0360000000771737
100
AcDbArc
 50
270.0
 51
90.0
  0
ARC
  5
36A
330
23
100
AcDbEntity
  8
SANINDUSA
100
AcDbCircle
 10
1167.394949587565
 20
1058.231775491297
 30
0.0
 40
0.0360000000771734
100
AcDbArc
 50
90.0
 51
270.0
  0
CIRCLE
  5
36B
330
23
100
AcDbEntity
  8
SANINDUSA
100
AcDbCircle
 10
1167.394949587565
 20
1058.231775491297
 30
0.0
 40
0.0230000000000001
  0
ARC
  5
3A2
330
23
100
AcDbEntity
  8
SANINDUSA
100
AcDbCircle
 10
1167.882306756418
 20
1058.537962572649
 30
0.0
 40
0.39
100
AcDbArc
 50
311.4026473106082
 51
334.0650862527163
  0
ARC
  5
3A6
330
23
100
AcDbEntity
  8
SANINDUSA
100
AcDbCircle
 10
1168.171756338759
 20
1058.537962572649
 30
0.0
 40
0.39
100
AcDbArc
 50
205.9349137472837
 51
228.5973526893918
  0
LWPOLYLINE
  5
3D1
330
23
100
AcDbEntity
  8
SANINDUSA
100
AcDbPolyline
 90
       50
 70
   128
 43
0.0
 10
1169.308582425092
 20
1058.392513086118
 10
1169.308601390792
 20
1058.392504362082
 10
1169.308806077524
 20
1058.392406561623
 10
1169.309272994722
 20
1058.392173047828
 10
1169.310044060082
 20
1058.391773707723
 10
1169.311109388808
 20
1058.391206846022
 10
1169.312441743734
 20
1058.390482276038
 10
1169.314018929546
 20
1058.389608662234
 10
1169.31582672269
 20
1058.38859111799
 10
1169.317853389111
 20
1058.387433845298
 10
1169.32008909899
 20
1058.386140319286
 10
1169.322525744213
 20
1058.384713297226
 10
1169.324865864754
 20
1058.383324919835
 10
1169.3275275126
 20
1058.38172110953
 10
1169.330329924642
 20
1058.380004344656
 10
1169.333249455484
 20
1058.378185228969
 10
1169.3362623801
 20
1058.376275081885
 10
1169.339347555494
 20
1058.374284274799
 10
1169.342485400872
 20
1058.372222664583
 10
1169.345656283862
 20
1058.370100148035
 10
1169.348894320615
 20
1058.367893058207
 10
1169.352211412988
 20
1058.36559145615
 10
1169.355585995376
 20
1058.363207849032
 10
1169.358995292591
 20
1058.360755849951
 10
1169.362415638975
 20
1058.358250019973
 10
1169.365820381579
 20
1058.355707563379
 10
1169.369176710684
 20
1058.353152753599
 10
1169.372578143615
 20
1058.35051496908
 10
1169.375954496564
 20
1058.347848715675
 10
1169.379299046417
 20
1058.345160813466
 10
1169.382602474955
 20
1058.342460354351
 10
1169.385853346127
 20
1058.33975845219
 10
1169.389038041705
 20
1058.337068408182
 10
1169.392140803921
 20
1058.334405784016
 10
1169.39514390332
 20
1058.33178835834
 10
1169.39802795291
 20
1058.329235938409
 10
1169.40077237992
 20
1058.326770006216
 10
1169.403356049323
 20
1058.324413193814
 10
1169.405765381958
 20
1058.322183553977
 10
1169.408001557393
 20
1058.320087369266
 10
1169.410036471139
 20
1058.318155971635
 10
1169.411866517638
 20
1058.316398045572
 10
1169.413482121635
 20
1058.314828040087
 10
1169.414876765103
 20
1058.313457580188
 10
1169.416042067896
 20
1058.312299903877
 10
1169.416964743264
 20
1058.311371418769
 10
1169.417653034233
 20
1058.310666725112
 10
1169.418044235303
 20
1058.310256153805
 10
1169.418200567925
 20
1058.310086226385
 10
1169.418204579812
 20
1058.310081879956
  0
ARC
  5
3D3
330
23
100
AcDbEntity
  8
SANINDUSA
100
AcDbCircle
 10
1169.307935440797
 20
1058.363517037399
 30
0.0
 40
0.0524853779045026
100
AcDbArc
 50
98.04842632456306
 51
106.4965967550659
  0
ARC
  5
3D6
330
23
100
AcDbEntity
  8
SANINDUSA
100
AcDbCircle
 10
1169.664682673493
 20
1060.021752767775
 30
0.0
 40
1.755295595210208
100
AcDbArc
 50
271.9091434277087
 51
274.4869556694162
  0
SPLINE
  5
3D7
330
23
100
AcDbEntity
  8
SANINDUSA
100
AcDbSpline
210
0.0
220
0.0
230
1.0
 70
    12
 71
     3
 72
    51
 73
    47
 74
     0
 42
0.0000000001
 43
0.0000000001
 40
0.0
 40
0.0
 40
0.0
 40
0.0
 40
0.0052162486718403
 40
0.010430748965086
 40
0.0156438539132142
 40
0.0208559143107828
 40
0.0260672792712065
 40
0.0312782967862205
 40
0.0364893142864715
 40
0.0417006792026678
 40
0.0469127395267351
 40
0.0521258443724065
 40
0.0573403445346959
 40
0.0625565930476746
 40
0.0938226755788972
 40
0.1250887577695247
 40
0.1875455991129911
 40
0.2500024412900632
 40
0.2812685243350925
 40
0.3125346077707797
 40
0.3749914526883731
 40
0.4374482977376138
 40
0.4687143814240196
 40
0.499980464929888
 40
0.5624373088446455
 40
0.6248941529288878
 40
0.6561602365643099
 40
0.6874263203171305
 40
0.749883165069348
 40
0.8123400090398991
 40
0.827982464514187
 40
0.8436155115187366
 40
0.8592485584446619
 40
0.8748910136872794
 40
0.8853214120523714
 40
0.895746227396795
 40
0.9061682601972606
 40
0.9165902929897649
 40
0.9270151083106703
 40
0.9374455066377159
 40
0.9478759049764025
 40
0.9583007203322132
 40
0.9687227531826295
 40
0.9791447860636186
 40
0.9895696015107098
 40
1.0
 40
1.0
 40
1.0
 40
1.0
 10
1169.651159772429
 20
1058.267431589723
 30
0.0
 41
1.0
 10
1169.651160701002
 20
1058.267431591833
 30
0.0
 41
1.0
 10
1169.651162557836
 20
1058.267431596051
 30
0.0
 41
1.0
 10
1169.651177572063
 20
1058.267431600798
 30
0.0
 41
1.0
 10
1169.651201525001
 20
1058.267431604361
 30
0.0
 41
1.0
 10
1169.651235283013
 20
1058.267431606616
 30
0.0
 41
1.0
 10
1169.651278599341
 20
1058.267431607584
 30
0.0
 41
1.0
 10
1169.651331525382
 20
1058.267431607255
 30
0.0
 41
1.0
 10
1169.651394032688
 20
1058.267431605632
 30
0.0
 41
1.0
 10
1169.651466114112
 20
1058.267431602721
 30
0.0
 41
1.0
 10
1169.65154775714
 20
1058.267431598533
 30
0.0
 41
1.0
 10
1169.651638949448
 20
1058.267431593082
 30
0.0
 41
1.0
 10
1169.651739683331
 20
1058.267431586389
 30
0.0
 41
1.0
 10
1169.652033440594
 20
1058.267431565326
 30
0.0
 41
1.0
 10
1169.652654687667
 20
1058.267431512978
 30
0.0
 41
1.0
 10
1169.654242420943
 20
1058.267431372958
 30
0.0
 41
1.0
 10
1169.657033501667
 20
1058.267431152729
 30
0.0
 41
1.0
 10
1169.660791638815
 20
1058.267430992122
 30
0.0
 41
1.0
 10
1169.664284972155
 20
1058.267430949904
 30
0.0
 41
1.0
 10
1169.668071264222
 20
1058.267430968042
 30
0.0
 41
1.0
 10
1169.67329416917
 20
1058.267431100894
 30
0.0
 41
1.0
 10
1169.678962179418
 20
1058.267431302312
 30
0.0
 41
1.0
 10
1169.683625493906
 20
1058.267431434685
 30
0.0
 41
1.0
 10
1169.688334072485
 20
1058.267431529325
 30
0.0
 41
1.0
 10
1169.694228394424
 20
1058.267431547714
 30
0.0
 41
1.0
 10
1169.69989580959
 20
1058.267431424443
 30
0.0
 41
1.0
 10
1169.704157276382
 20
1058.2674312871
 30
0.0
 41
1.0
 10
1169.708201102507
 20
1058.267431146198
 30
0.0
 41
1.0
 10
1169.712779801969
 20
1058.267431005553
 30
0.0
 41
1.0
 10
1169.716161482283
 20
1058.26743099743
 30
0.0
 41
1.0
 10
1169.71805044051
 20
1058.267431042851
 30
0.0
 41
1.0
 10
1169.718921698865
 20
1058.267431074362
 30
0.0
 41
1.0
 10
1169.71971637576
 20
1058.267431113583
 30
0.0
 41
1.0
 10
1169.720353227797
 20
1058.267431153923
 30
0.0
 41
1.0
 10
1169.720858511249
 20
1058.267431192092
 30
0.0
 41
1.0
 10
1169.721255441224
 20
1058.267431226195
 30
0.0
 41
1.0
 10
1169.72161576937
 20
1058.267431261099
 30
0.0
 41
1.0
 10
1169.721939224796
 20
1058.267431296217
 30
0.0
 41
1.0
 10
1169.722225533182
 20
1058.267431330953
 30
0.0
 41
1.0
 10
1169.722474348312
 20
1058.267431364708
 30
0.0
 41
1.0
 10
1169.722685335159
 20
1058.267431396902
 30
0.0
 41
1.0
 10
1169.722858163743
 20
1058.26743142696
 30
0.0
 41
1.0
 10
1169.722992936748
 20
1058.267431454396
 30
0.0
 41
1.0
 10
1169.723088621274
 20
1058.267431478647
 30
0.0
 41
1.0
 10
1169.723148634632
 20
1058.267431499678
 30
0.0
 41
1.0
 10
1169.723156059156
 20
1058.267431510361
 30
0.0
 41
1.0
 10
1169.723159772413
 20
1058.267431515704
 30
0.0
 41
1.0
  0
LWPOLYLINE
  5
3D8
330
23
100
AcDbEntity
  8
SANINDUSA
100
AcDbPolyline
 90
        3
 70
   128
 43
0.0
 10
1169.651159772429
 20
1058.267431589723
 10
1169.611488217472
 20
1058.269194410918
 10
1169.571843673988
 20
1058.271861324083
  0
ARC
  5
3DA
330
23
100
AcDbEntity
  8
SANINDUSA
100
AcDbCircle
 10
1169.605937747583
 20
1059.247929677685
 30
0.0
 40
0.9005431264884013
100
AcDbArc
 50
259.1278809823537
 51
263.6140348774238
  0
LINE
  5
3DB
330
23
100
AcDbEntity
  8
SANINDUSA
100
AcDbLine
 10
1169.870137927575
 20
1058.384992050846
 30
0.0
 11
1169.881003048323
 21
1058.388022177171
 31
0.0
  0
ARC
  5
3DD
330
23
100
AcDbEntity
  8
SANINDUSA
100
AcDbCircle
 10
1169.367562662708
 20
1058.535526087341
 30
0.0
 40
0.5246354858369969
100
AcDbArc
 50
335.2389599153535
 51
343.3257085138834
  0
ARC
  5
3DE
330
23
100
AcDbEntity
  8
SANINDUSA
100
AcDbCircle
 10
1170.69878742382
 20
1058.990868006325
 30
0.0
 40
1.352844615557361
100
AcDbArc
 50
208.1330307507681
 51
212.0202180886191
  0
LWPOLYLINE
  5
3DF
330
23
100
AcDbEntity
  8
SANINDUSA
100
AcDbPolyline
 90
       30
 70
   128
 43
0.0
 10
1169.887788160636
 20
1058.400375949291
 10
1169.887135099844
 20
1058.40025566777
 10
1169.885148269358
 20
1058.399885639669
 10
1169.881827281336
 20
1058.399267968489
 10
1169.877163266952
 20
1058.398405912885
 10
1169.873543914052
 20
1058.397740865193
 10
1169.869413105836
 20
1058.396985803363
 10
1169.863752023999
 20
1058.395958676218
 10
1169.857372101452
 20
1058.394813482569
 10
1169.851482565744
 20
1058.393769974561
 10
1169.845118995428
 20
1058.39265934871
 10
1169.839865966571
 20
1058.391757629127
 10
1169.832889211189
 20
1058.390583419986
 10
1169.825503249828
 20
1058.389371641925
 10
1169.817654318603
 20
1058.388121971593
 10
1169.809420798308
 20
1058.38685705982
 10
1169.80251500441
 20
1058.385835160491
 10
1169.79538422989
 20
1058.384819223399
 10
1169.788187449662
 20
1058.38383630353
 10
1169.780794569291
 20
1058.382872544777
 10
1169.773165927772
 20
1058.381927588993
 10
1169.765361413536
 20
1058.38101353127
 10
1169.757303257613
 20
1058.380125811926
 10
1169.74909208966
 20
1058.379278501258
 10
1169.740685927123
 20
1058.378468442421
 10
1169.732153292185
 20
1058.377703246334
 10
1169.721021675442
 20
1058.376789133758
 10
1169.709713412019
 20
1058.375955008399
 10
1169.698283158661
 20
1058.375203722282
 10
1169.686749146562
 20
1058.374529457956
  0
ARC
  5
3E0
330
23
100
AcDbEntity
  8
SANINDUSA
100
AcDbCircle
 10
1169.889186183131
 20
1058.395575372963
 30
0.0
 40
0.0049999999968396
100
AcDbArc
 50
340.0923981641406
 51
106.2366014077352
  0
SPLINE
  5
3E1
330
23
100
AcDbEntity
  8
SANINDUSA
100
AcDbSpline
210
0.0
220
0.0
230
1.0
 70
    12
 71
     3
 72
     8
 73
     4
 74
     0
 42
0.0000000001
 43
0.0000000001
 40
0.0
 40
0.0
 40
0.0
 40
0.0
 40
1.0
 40
1.0
 40
1.0
 40
1.0
 10
1169.881003048323
 20
1058.388022177171
 30
0.0
 41
1.0
 10
1169.871119027801
 20
1058.362702490054
 30
0.0
 41
1.0
 10
1169.858699144163
 20
1058.338505407521
 30
0.0
 41
1.0
 10
1169.843964466832
 20
1058.315790532578
 30
0.0
 41
1.0
  0
ARC
  5
3E3
330
23
100
AcDbEntity
  8
SANINDUSA
100
AcDbCircle
 10
1169.508945408771
 20
1058.357652859261
 30
0.0
 40
0.0049999999997729
100
AcDbArc
 50
28.02429890205682
 51
83.74443496634233
  0
LWPOLYLINE
  5
3E4
330
23
100
AcDbEntity
  8
SANINDUSA
100
AcDbPolyline
 90
       41
 70
   128
 43
0.0
 10
1169.509490225897
 20
1058.362623088058
 10
1169.509671896094
 20
1058.362632045405
 10
1169.510221901285
 20
1058.362656829711
 10
1169.511140056623
 20
1058.362697487837
 10
1169.512431961821
 20
1058.36275468834
 10
1169.515688620636
 20
1058.362901033535
 10
1169.520205553082
 20
1058.363108073668
 10
1169.525899215584
 20
1058.363373610579
 10
1169.532866564808
 20
1058.363702263036
 10
1169.540689258844
 20
1058.364072137128
 10
1169.549681190699
 20
1058.364496625477
 10
1169.559646923665
 20
1058.364965100104
 10
1169.570722947205
 20
1058.365483935078
 10
1169.582312229867
 20
1058.366026809103
 10
1169.594861864518
 20
1058.366618655808
 10
1169.608075736998
 20
1058.367250726901
 10
1169.622120182981
 20
1058.36793703528
 10
1169.635959831871
 20
1058.368633598205
 10
1169.650401876645
 20
1058.369389608718
 10
1169.665101027661
 20
1058.370202268245
 10
1169.680223255666
 20
1058.371102117668
 10
1169.694836427243
 20
1058.372062142121
 10
1169.709649062056
 20
1058.3731589829
 10
1169.724292986314
 20
1058.374387265743
 10
1169.738922007504
 20
1058.375773744054
 10
1169.752727153427
 20
1058.377235852149
 10
1169.766305738414
 20
1058.37882386183
 10
1169.7793216494
 20
1058.380482997567
 10
1169.791899724681
 20
1058.382208258404
 10
1169.803504586771
 20
1058.383896811011
 10
1169.814371015152
 20
1058.38555162297
 10
1169.824553247952
 20
1058.387160627576
 10
1169.833788692591
 20
1058.388661146692
 10
1169.841652333174
 20
1058.389964593503
 10
1169.848488202729
 20
1058.391113492389
 10
1169.854300770765
 20
1058.392100459602
 10
1169.858904157763
 20
1058.39288872053
 10
1169.861458442435
 20
1058.39332851755
 10
1169.863317805996
 20
1058.393649197271
 10
1169.864441913441
 20
1058.393842443612
 10
1169.864822665622
 20
1058.393906188804
  0
ARC
  5
3E5
330
23
100
AcDbEntity
  8
SANINDUSA
100
AcDbCircle
 10
1169.866135694501
 20
1058.389081672695
 30
0.0
 40
0.0050000000531073
100
AcDbArc
 50
105.2247358486481
 51
163.631134851151
  0
LINE
  5
3E6
330
23
100
AcDbEntity
  8
SANINDUSA
100
AcDbLine
 10
1169.864822665622
 20
1058.393906188804
 30
0.0
 11
1169.887788160636
 21
1058.400375949291
 31
0.0
  0
ARC
  5
3E7
330
23
100
AcDbEntity
  8
SANINDUSA
100
AcDbCircle
 10
1169.605876062446
 20
1059.247154357126
 30
0.0
 40
0.8897672703837963
100
AcDbArc
 50
258.7980097371158
 51
263.7811154441191
  0
LWPOLYLINE
  5
3E8
330
23
100
AcDbEntity
  8
SANINDUSA
100
AcDbPolyline
 90
       26
 70
   128
 43
0.0
 10
1169.339804365858
 20
1058.400453787006
 10
1169.339970955286
 20
1058.400407282878
 10
1169.343828218913
 20
1058.399324522972
 10
1169.34796450653
 20
1058.398159388085
 10
1169.35510803318
 20
1058.396144088421
 10
1169.358959491768
 20
1058.395058472651
 10
1169.362942518791
 20
1058.393937718917
 10
1169.36685775414
 20
1058.392838568662
 10
1169.370843210405
 20
1058.391722636972
 10
1169.374936695477
 20
1058.390579677248
 10
1169.379038012435
 20
1058.389437726782
 10
1169.386279541898
 20
1058.387428254194
 10
1169.393324971681
 20
1058.385478972022
 10
1169.400178315466
 20
1058.383584247543
 10
1169.406501799325
 20
1058.381832778722
 10
1169.409065500335
 20
1058.38112068734
 10
1169.413184575373
 20
1058.379972946046
 10
1169.416912221811
 20
1058.378929349458
 10
1169.420287444765
 20
1058.37797942904
 10
1169.423257326444
 20
1058.377138977203
 10
1169.426508004205
 20
1058.376213425149
 10
1169.429098271747
 20
1058.375471244911
 10
1169.431057098788
 20
1058.374907036474
 10
1169.432345953934
 20
1058.374534386768
 10
1169.432853455103
 20
1058.374387397467
 10
1169.433022375164
 20
1058.37433857001
  0
LWPOLYLINE
  5
3E9
330
23
100
AcDbEntity
  8
SANINDUSA
100
AcDbPolyline
 90
        3
 70
   128
 43
0.0
 10
1169.295767779433
 20
1058.413625375066
 10
1169.303506519635
 20
1058.410775863996
 10
1169.311269433641
 20
1058.407991173818
  0
LWPOLYLINE
  5
3EB
330
23
100
AcDbEntity
  8
SANINDUSA
100
AcDbPolyline
 90
       21
 70
   128
 43
0.0
 10
1169.686749146562
 20
1058.374529457956
 10
1169.668027371943
 20
1058.37363035838
 10
1169.639873546792
 20
1058.372786643658
 10
1169.611683685552
 20
1058.372513977056
 10
1169.583542101977
 20
1058.37278721739
 10
1169.555226831133
 20
1058.373592296853
 10
1169.52704847077
 20
1058.374926833546
 10
1169.498833737001
 20
1058.376820753388
 10
1169.477748344888
 20
1058.37863414243
 10
1169.460298094758
 20
1058.380422155213
 10
1169.443009646368
 20
1058.382486548743
 10
1169.429243856492
 20
1058.384371046164
 10
1169.415620853979
 20
1058.38647850515
 10
1169.402093933704
 20
1058.388837647301
 10
1169.388745648798
 20
1058.39144155769
 10
1169.375499823241
 20
1058.39430925364
 10
1169.362469430832
 20
1058.397417455167
 10
1169.349595516813
 20
1058.400776108144
 10
1169.336938390155
 20
1058.404350685633
 10
1169.319900791035
 20
1058.409576210143
 10
1169.303073456823
 20
1058.415163396798
  0
ARC
  5
3EC
330
23
100
AcDbEntity
  8
SANINDUSA
100
AcDbCircle
 10
1169.309601169237
 20
1058.403277691852
 30
0.0
 40
0.0050000018359216
100
AcDbArc
 50
7.249750495720334
 51
70.50936632157889
  0
ARC
  5
3ED
330
23
100
AcDbEntity
  8
SANINDUSA
100
AcDbCircle
 10
1169.432047724084
 20
1058.369434484442
 30
0.0
 40
0.0049999999982551
100
AcDbArc
 50
78.75935297028026
 51
169.9061344880981
  0
ARC
  5
3EF
330
23
100
AcDbEntity
  8
SANINDUSA
100
AcDbCircle
 10
1169.572960021266
 20
1058.286819725571
 30
0.0
 40
0.0150000002113544
100
AcDbArc
 50
212.0188069922528
 51
265.7319213473435
  0
ARC
  5
3F1
330
23
100
AcDbEntity
  8
SANINDUSA
100
AcDbCircle
 10
1169.800885368859
 20
1058.286795147038
 30
0.0
 40
0.0150000009968107
100
AcDbArc
 50
274.2737041072804
 51
330.1437914122401
  0
LINE
  5
3F3
330
23
100
AcDbEntity
  8
SANINDUSA
100
AcDbLine
 10
1169.315338432768
 20
1058.397793989776
 30
0.0
 11
1169.314561198554
 21
1058.403908665331
 31
0.0
  0
LWPOLYLINE
  5
3F4
330
23
100
AcDbEntity
  8
SANINDUSA
100
AcDbPolyline
 90
        3
 70
   128
 43
0.0
 10
1169.427125114334
 20
1058.370310791028
 10
1169.419617260835
 20
1058.327887624211
 10
1169.417189601233
 20
1058.314041799392
  0
LINE
  5
3F5
330
23
100
AcDbEntity
  8
SANINDUSA
100
AcDbLine
 10
1169.801978566702
 20
1058.26180720651
 30
0.0
 11
1169.795255323463
 21
1058.261312446669
 31
0.0
  0
SPLINE
  5
3F6
330
23
100
AcDbEntity
  8
SANINDUSA
100
AcDbSpline
210
0.0
220
0.0
230
1.0
 70
    12
 71
     3
 72
     8
 73
     4
 74
     0
 42
0.0000000001
 43
0.0000000001
 40
0.0
 40
0.0
 40
0.0
 40
0.0
 40
1.0
 40
1.0
 40
1.0
 40
1.0
 10
1169.801978566702
 20
1058.26180720651
 30
0.0
 41
1.0
 10
1169.800218015734
 20
1058.259904528741
 30
0.0
 41
1.0
 10
1169.798438131174
 20
1058.258018059477
 30
0.0
 41
1.0
 10
1169.796639103533
 20
1058.256148109143
 30
0.0
 41
1.0
  0
SPLINE
  5
3F7
330
23
100
AcDbEntity
  8
SANINDUSA
100
AcDbSpline
210
0.0
220
0.0
230
1.0
 70
    12
 71
     3
 72
     8
 73
     4
 74
     0
 42
0.0000000001
 43
0.0000000001
 40
0.0
 40
0.0
 40
0.0
 40
0.0
 40
1.0
 40
1.0
 40
1.0
 40
1.0
 10
1169.551878712841
 20
1058.273381777838
 30
0.0
 41
1.0
 10
1169.541288958918
 20
1058.274193183998
 30
0.0
 41
1.0
 10
1169.530699204917
 20
1058.275004237714
 30
0.0
 41
1.0
 10
1169.520109450741
 20
1058.275814520635
 30
0.0
 41
1.0
  0
ARC
  5
3F9
330
23
100
AcDbEntity
  8
SANINDUSA
100
AcDbCircle
 10
1169.367561217838
 20
1058.535526546187
 30
0.0
 40
0.5146369980061506
100
AcDbArc
 50
330.1438426967929
 51
343.6310521072866
  0
ARC
  5
3FA
330
23
100
AcDbEntity
  8
SANINDUSA
100
AcDbCircle
 10
1169.508358784165
 20
1058.533492111618
 30
0.0
 40
0.4100315229723809
100
AcDbArc
 50
315.3693664374514
 51
340.0921361982235
  0
LINE
  5
3FB
330
23
100
AcDbEntity
  8
SANINDUSA
100
AcDbLine
 10
1169.789157936258
 20
1058.245431172459
 30
0.0
 11
1169.786159768644
 21
1058.256620486324
 31
0.0
  0
ARC
  5
3FC
330
23
100
AcDbEntity
  8
SANINDUSA
100
AcDbCircle
 10
1169.7813301395
 20
1058.255326391102
 30
0.0
 40
0.0050000000120482
100
AcDbArc
 50
14.99999992730393
 51
93.83279223008763
  0
ARC
  5
3FD
330
23
100
AcDbEntity
  8
SANINDUSA
100
AcDbCircle
 10
1169.672591527343
 20
1059.844407024649
 30
0.0
 40
1.587796710797448
100
AcDbArc
 50
272.065241910116
 51
273.9148269148712
  0
SPLINE
  5
3FE
330
23
100
AcDbEntity
  8
SANINDUSA
100
AcDbSpline
210
0.0
220
0.0
230
1.0
 70
    12
 71
     3
 72
    14
 73
    10
 74
     0
 42
0.0000000001
 43
0.0000000001
 40
0.0
 40
0.0
 40
0.0
 40
0.0
 40
0.25
 40
0.25
 40
0.5
 40
0.5
 40
0.75
 40
0.75
 40
1.0
 40
1.0
 40
1.0
 40
1.0
 10
1169.729811697743
 20
1058.257641683798
 30
0.0
 41
1.0
 10
1169.728532488504
 20
1058.257597130777
 30
0.0
 41
1.0
 10
1169.727262397214
 20
1058.257304014897
 30
0.0
 41
1.0
 10
1169.724923676587
 20
1058.256262942938
 30
0.0
 41
1.0
 10
1169.723855888802
 20
1058.255515361471
 30
0.0
 41
1.0
 10
1169.722077499612
 20
1058.253673955248
 30
0.0
 41
1.0
 10
1169.721367538132
 20
1058.252580793091
 30
0.0
 41
1.0
 10
1169.720408501947
 20
1058.250207252574
 30
0.0
 41
1.0
 10
1169.720159772335
 20
1058.248927728294
 30
0.0
 41
1.0
 10
1169.720159772335
 20
1058.247647743431
 30
0.0
 41
1.0
  0
LINE
  5
3FF
330
23
100
AcDbEntity
  8
SANINDUSA
100
AcDbLine
 10
1169.720159772335
 20
1058.247647743435
 30
0.0
 11
1169.720159772335
 21
1058.245431172459
 31
0.0
  0
LINE
  5
400
330
23
100
AcDbEntity
  8
SANINDUSA
100
AcDbLine
 10
1169.710159772336
 20
1058.245431172459
 30
0.0
 11
1169.720159772335
 21
1058.245431172459
 31
0.0
  0
LINE
  5
401
330
23
100
AcDbEntity
  8
SANINDUSA
100
AcDbLine
 10
1169.710159772336
 20
1058.256130788046
 30
0.0
 11
1169.710159772336
 21
1058.245431172459
 31
0.0
  0
LINE
  5
402
330
23
100
AcDbEntity
  8
SANINDUSA
100
AcDbLine
 10
1169.723159772413
 20
1058.267431515704
 30
0.0
 11
1169.710159772336
 21
1058.256130788046
 31
0.0
  0
SPLINE
  5
403
330
23
100
AcDbEntity
  8
SANINDUSA
100
AcDbSpline
210
0.0
220
0.0
230
1.0
 70
    28
 71
     3
 72
     8
 73
     4
 74
     0
 42
0.0000000001
 43
0.0000000001
 40
0.0
 40
0.0
 40
0.0
 40
0.0
 40
1.0
 40
1.0
 40
1.0
 40
1.0
 10
1169.795255323463
 20
1058.261312446669
 30
0.0
 41
1.0
 10
1169.795716583486
 20
1058.259591000827
 30
0.0
 41
1.0
 10
1169.796177843509
 20
1058.257869554985
 30
0.0
 41
1.0
 10
1169.796639103533
 20
1058.256148109143
 30
0.0
 41
1.0
  0
LINE
  5
404
330
23
100
AcDbEntity
  8
SANINDUSA
100
AcDbLine
 10
1169.789157936258
 20
1058.245431172459
 30
0.0
 11
1169.800157936258
 21
1058.245431172459
 31
0.0
  0
LWPOLYLINE
  5
405
330
23
100
AcDbEntity
  8
SANINDUSA
100
AcDbPolyline
 90
        5
 70
   128
 43
0.0
 10
1169.436079478091
 20
1058.363550748182
 10
1169.433937441326
 20
1058.351483845821
 10
1169.431802494787
 20
1058.33941568285
 10
1169.429675456492
 20
1058.327346108458
 10
1169.427557271731
 20
1058.315274970692
  0
ARC
  5
406
330
23
100
AcDbEntity
  8
SANINDUSA
100
AcDbCircle
 10
1167.01745764072
 20
1055.23110050082
 30
0.0
 40
3.914168160926235
100
AcDbArc
 50
50.59756626837047
 51
51.99448113935654
  0
SPLINE
  5
408
330
23
100
AcDbEntity
  8
SANINDUSA
100
AcDbSpline
210
0.0
220
0.0
230
1.0
 70
    28
 71
     3
 72
    20
 73
    16
 74
     0
 42
0.0000000001
 43
0.0000000001
 40
0.0
 40
0.0
 40
0.0
 40
0.0
 40
0.0479031952567939
 40
0.1269334280176211
 40
0.2059704538238559
 40
0.2854655259360115
 40
0.3649704313990836
 40
0.4440565943067673
 40
0.5231499301162615
 40
0.602527772000655
 40
0.6819160513278786
 40
0.7612667141025239
 40
0.8406206200431618
 40
0.9203025691534579
 40
1.0
 40
1.0
 40
1.0
 40
1.0
 10
1169.720334782335
 20
1058.245431172459
 30
0.0
 41
1.0
 10
1169.72224612475
 20
1058.245431172459
 30
0.0
 41
1.0
 10
1169.727310781577
 20
1058.245431172459
 30
0.0
 41
1.0
 10
1169.735138258207
 20
1058.245431172459
 30
0.0
 41
1.0
 10
1169.743752918217
 20
1058.245431172459
 30
0.0
 41
1.0
 10
1169.751829025746
 20
1058.245431172459
 30
0.0
 41
1.0
 10
1169.759279818554
 20
1058.245431172459
 30
0.0
 41
1.0
 10
1169.766026714567
 20
1058.245431172459
 30
0.0
 41
1.0
 10
1169.772006911992
 20
1058.245431172459
 30
0.0
 41
1.0
 10
1169.777183103052
 20
1058.245431172459
 30
0.0
 41
1.0
 10
1169.78148705124
 20
1058.245431172459
 30
0.0
 41
1.0
 10
1169.784890698979
 20
1058.245431172459
 30
0.0
 41
1.0
 10
1169.787327393782
 20
1058.245431172459
 30
0.0
 41
1.0
 10
1169.788872760728
 20
1058.245431172459
 30
0.0
 41
1.0
 10
1169.789062871592
 20
1058.245431172459
 30
0.0
 41
1.0
 10
1169.789157936258
 20
1058.245431172459
 30
0.0
 41
1.0
  0
ARC
  5
409
330
23
100
AcDbEntity
  8
SANINDUSA
100
AcDbCircle
 10
1169.713016023794
 20
1060.078112322507
 30
0.0
 40
1.821759388032979
100
AcDbArc
 50
265.5320840622733
 51
267.8448417532957
  0
ARC
  5
40A
330
23
100
AcDbEntity
  8
SANINDUSA
100
AcDbCircle
 10
1169.422114946805
 20
1058.313180547425
 30
0.0
 40
0.0050000783954783
100
AcDbArc
 50
170.0814695372931
 51
232.0397731955696
  0
ARC
  5
40B
330
23
100
AcDbEntity
  8
SANINDUSA
100
AcDbCircle
 10
1169.31037831561
 20
1058.397163927207
 30
0.0
 40
0.0049999741056269
100
AcDbArc
 50
234.1003681258115
 51
7.239268618654547
  0
SPLINE
  5
40C
330
23
100
AcDbEntity
  8
SANINDUSA
100
AcDbSpline
210
0.0
220
0.0
230
1.0
 70
    12
 71
     3
 72
    26
 73
    22
 74
     0
 42
0.0000000001
 43
0.0000000001
 40
0.0
 40
0.0
 40
0.0
 40
0.0
 40
0.0208678607022071
 40
0.0416930023890784
 40
0.0624967516731181
 40
0.08330050095714
 40
0.1041256426439249
 40
0.1249935033459952
 40
0.1878004053659655
 40
0.2506073073861421
 40
0.3130583821957698
 40
0.3755094570061055
 40
0.5005036082527992
 40
0.6249431811455155
 40
0.6875835287916052
 40
0.7502238764391933
 40
0.8124885066213103
 40
0.8747531368045493
 40
0.9165307886792202
 40
0.9582223481250714
 40
0.9999999999999998
 40
0.9999999999999998
 40
0.9999999999999998
 40
0.9999999999999998
 10
1169.644507417445
 20
1058.257641548574
 30
0.0
 41
1.0
 10
1169.644614104818
 20
1058.257636858143
 30
0.0
 41
1.0
 10
1169.644827261162
 20
1058.257627486883
 30
0.0
 41
1.0
 10
1169.645146002504
 20
1058.257600520669
 30
0.0
 41
1.0
 10
1169.645463434032
 20
1058.25756411517
 30
0.0
 41
1.0
 10
1169.645779520486
 20
1058.2575173493
 30
0.0
 41
1.0
 10
1169.646094277844
 20
1058.257460465544
 30
0.0
 41
1.0
 10
1169.646617227343
 20
1058.257348580958
 30
0.0
 41
1.0
 10
1169.647339974358
 20
1058.257145031254
 30
0.0
 41
1.0
 10
1169.648237934016
 20
1058.256795020603
 30
0.0
 41
1.0
 10
1169.649096878671
 20
1058.256361699297
 30
0.0
 41
1.0
 10
1169.650179219059
 20
1058.255677686876
 30
0.0
 41
1.0
 10
1169.651400433951
 20
1058.254634024298
 30
0.0
 41
1.0
 10
1169.652400159141
 20
1058.253375497056
 30
0.0
 41
1.0
 10
1169.653044779993
 20
1058.252270269447
 30
0.0
 41
1.0
 10
1169.653446682814
 20
1058.251397091523
 30
0.0
 41
1.0
 10
1169.653762899832
 20
1058.250491571142
 30
0.0
 41
1.0
 10
1169.653965580534
 20
1058.249663574185
 30
0.0
 41
1.0
 10
1169.654084125115
 20
1058.248926978429
 30
0.0
 41
1.0
 10
1169.654147997693
 20
1058.248288594295
 30
0.0
 41
1.0
 10
1169.654155844757
 20
1058.247861407142
 30
0.0
 41
1.0
 10
1169.654159772335
 20
1058.247647593259
 30
0.0
 41
1.0
  0
LINE
  5
40D
330
23
100
AcDbEntity
  8
SANINDUSA
100
AcDbLine
 10
1169.654159772335
 20
1058.245431172459
 30
0.0
 11
1169.654159772335
 21
1058.247647593259
 31
0.0
  0
SPLINE
  5
40E
330
23
100
AcDbEntity
  8
SANINDUSA
100
AcDbSpline
210
0.0
220
0.0
230
1.0
 70
    12
 71
     3
 72
    14
 73
    10
 74
     0
 42
0.0000000001
 43
0.0000000001
 40
0.0
 40
0.0
 40
0.0
 40
0.0
 40
0.25
 40
0.25
 40
0.5
 40
0.5
 40
0.75
 40
0.75
 40
1.0
 40
1.0
 40
1.0
 40
1.0
 10
1169.504476171968
 20
1058.264740525299
 30
0.0
 41
1.0
 10
1169.504924370128
 20
1058.266413223604
 30
0.0
 41
1.0
 10
1169.505664984286
 20
1058.268007141802
 30
0.0
 41
1.0
 10
1169.507643776442
 20
1058.270849603186
 30
0.0
 41
1.0
 10
1169.508881482615
 20
1058.27209746861
 30
0.0
 41
1.0
 10
1169.511707673575
 20
1058.274099430265
 30
0.0
 41
1.0
 10
1169.513295484482
 20
1058.274853049144
 30
0.0
 41
1.0
 10
1169.516633441985
 20
1058.27577676248
 30
0.0
 41
1.0
 10
1169.518382792672
 20
1058.275946636683
 30
0.0
 41
1.0
 10
1169.520109450425
 20
1058.275814520102
 30
0.0
 41
1.0
  0
ARC
  5
410
330
23
100
AcDbEntity
  8
SANINDUSA
100
AcDbCircle
 10
1170.698860198233
 20
1058.990912121594
 30
0.0
 40
1.342929708675076
100
AcDbArc
 50
208.0213948872087
 51
212.0201781386672
  0
LINE
  5
411
330
23
100
AcDbEntity
  8
SANINDUSA
100
AcDbLine
 10
1169.664159772335
 20
1058.256130788046
 30
0.0
 11
1169.651159772258
 21
1058.267431515704
 31
0.0
  0
LINE
  5
412
330
23
100
AcDbEntity
  8
SANINDUSA
100
AcDbLine
 10
1169.664159772335
 20
1058.245431172459
 30
0.0
 11
1169.664159772335
 21
1058.256130788046
 31
0.0
  0
LINE
  5
413
330
23
100
AcDbEntity
  8
SANINDUSA
100
AcDbLine
 10
1169.654159772335
 20
1058.245431172459
 30
0.0
 11
1169.664159772335
 21
1058.245431172459
 31
0.0
  0
SPLINE
  5
414
330
23
100
AcDbEntity
  8
SANINDUSA
100
AcDbSpline
210
0.0
220
0.0
230
1.0
 70
    12
 71
     3
 72
    13
 73
     9
 74
     0
 42
0.0000000001
 43
0.0000000001
 40
0.0
 40
0.0
 40
0.0
 40
0.0
 40
0.0768107726716424
 40
0.1856541955481421
 40
0.3265303024945788
 40
0.4532950985945142
 40
0.5714284014076201
 40
1.0
 40
1.0
 40
1.0
 40
1.0
 10
1169.571099442191
 20
1058.261889056564
 30
0.0
 41
1.0
 10
1169.569774256416
 20
1058.26198865887
 30
0.0
 41
1.0
 10
1169.566571238267
 20
1058.26222940096
 30
0.0
 41
1.0
 10
1169.56093819862
 20
1058.262658878063
 30
0.0
 41
1.0
 10
1169.554443524795
 20
1058.263155780199
 30
0.0
 41
1.0
 10
1169.547788664952
 20
1058.26366589136
 30
0.0
 41
1.0
 10
1169.536170823771
 20
1058.264555846415
 30
0.0
 41
1.0
 10
1169.526739726188
 20
1058.265277751283
 30
0.0
 41
1.0
 10
1169.51934652273
 20
1058.26584366522
 30
0.0
 41
1.0
  0
SPLINE
  5
415
330
23
100
AcDbEntity
  8
SANINDUSA
100
AcDbSpline
210
0.0
220
0.0
230
1.0
 70
    12
 71
     3
 72
    23
 73
    19
 74
     0
 42
0.0000000001
 43
0.0000000001
 40
0.0
 40
0.0
 40
0.0
 40
0.0
 40
0.0314787570816246
 40
0.0627805346413268
 40
0.0939637678197635
 40
0.125087559468478
 40
0.1562113510723111
 40
0.1873945841162425
 40
0.2186963614526505
 40
0.250175118223403
 40
0.3751110464724803
 40
0.500046972880543
 40
0.6249785017844991
 40
0.7499100285711588
 40
0.8126693677392287
 40
0.8749550149900626
 40
0.937240661886652
 40
1.0
 40
1.0
 40
1.0
 40
1.0
 10
1169.51413542965
 20
1058.262152332678
 30
0.0
 41
1.0
 10
1169.514155086951
 20
1058.26222226802
 30
0.0
 41
1.0
 10
1169.514194291036
 20
1058.262361745515
 30
0.0
 41
1.0
 10
1169.514264244145
 20
1058.262567070615
 30
0.0
 41
1.0
 10
1169.514342123628
 20
1058.262768592898
 30
0.0
 41
1.0
 10
1169.514428731621
 20
1058.262966094978
 30
0.0
 41
1.0
 10
1169.514523854431
 20
1058.263159632697
 30
0.0
 41
1.0
 10
1169.514627543592
 20
1058.263349185852
 30
0.0
 41
1.0
 10
1169.514739799306
 20
1058.263534767388
 30
0.0
 41
1.0
 10
1169.514979695958
 20
1058.263895459919
 30
0.0
 41
1.0
 10
1169.515396655279
 20
1058.264397930259
 30
0.0
 41
1.0
 10
1169.516060837163
 20
1058.26495832597
 30
0.0
 41
1.0
 10
1169.516809927353
 20
1058.265398996486
 30
0.0
 41
1.0
 10
1169.517490161202
 20
1058.265650647713
 30
0.0
 41
1.0
 10
1169.518052637564
 20
1058.265781097878
 30
0.0
 41
1.0
 10
1169.518481149117
 20
1058.26584125174
 30
0.0
 41
1.0
 10
1169.518913495876
 20
1058.26586619524
 30
0.0
 41
1.0
 10
1169.519201816389
 20
1058.265851194168
 30
0.0
 41
1.0
 10
1169.519346522749
 20
1058.265843665219
 30
0.0
 41
1.0
  0
LINE
  5
416
330
23
100
AcDbEntity
  8
SANINDUSA
100
AcDbLine
 10
1169.509655008273
 20
1058.245431172459
 30
0.0
 11
1169.51413542965
 21
1058.262152332678
 31
0.0
  0
SPLINE
  5
417
330
23
100
AcDbEntity
  8
SANINDUSA
100
AcDbSpline
210
0.0
220
0.0
230
1.0
 70
    28
 71
     3
 72
     8
 73
     4
 74
     0
 42
0.0000000001
 43
0.0000000001
 40
0.0
 40
0.0
 40
0.0
 40
0.0
 40
1.0
 40
1.0
 40
1.0
 40
1.0
 10
1169.504476171387
 20
1058.264740523129
 30
0.0
 41
1.0
 10
1169.503660140581
 20
1058.261695054701
 30
0.0
 41
1.0
 10
1169.502844109775
 20
1058.258649586272
 30
0.0
 41
1.0
 10
1169.502028078969
 20
1058.255604117844
 30
0.0
 41
1.0
  0
LWPOLYLINE
  5
419
330
23
100
AcDbEntity
  8
SANINDUSA
100
AcDbPolyline
 90
        3
 70
   128
 43
0.0
 10
1169.498655008273
 20
1058.245431172459
 10
1169.459059079337
 20
1058.277592194022
 10
1169.419039327028
 20
1058.309238295917
  0
LINE
  5
41A
330
23
100
AcDbEntity
  8
SANINDUSA
100
AcDbLine
 10
1169.498655008273
 20
1058.245431172459
 30
0.0
 11
1169.509655008273
 21
1058.245431172459
 31
0.0
  0
SPLINE
  5
41D
330
23
100
AcDbEntity
  8
SANINDUSA
100
AcDbSpline
210
0.0
220
0.0
230
1.0
 70
    28
 71
     3
 72
    12
 73
     8
 74
     0
 42
0.0000000001
 43
0.0000000001
 40
0.0
 40
0.0
 40
0.0
 40
0.0
 40
0.5
 40
0.5
 40
0.625
 40
0.625
 40
0.6576865140324406
 40
0.6576865140324406
 40
0.6576865140324406
 40
0.6576865140324406
 10
1169.509655008273
 20
1058.245431172459
 30
0.0
 41
1.0
 10
1169.509655008273
 20
1058.245431172459
 30
0.0
 41
1.0
 10
1169.510297838132
 20
1058.245431172459
 30
0.0
 41
1.0
 10
1169.511901100009
 20
1058.245431172459
 30
0.0
 41
1.0
 10
1169.512261856284
 20
1058.245431172459
 30
0.0
 41
1.0
 10
1169.512766892446
 20
1058.245431172459
 30
0.0
 41
1.0
 10
1169.512874292301
 20
1058.245431172459
 30
0.0
 41
1.0
 10
1169.512984403157
 20
1058.245431172459
 30
0.0
 41
1.0
  0
ARC
  5
41F
330
23
100
AcDbEntity
  8
SANINDUSA
100
AcDbCircle
 10
1169.294020397899
 20
1058.40894067788
 30
0.0
 40
0.0049999729957418
100
AcDbArc
 50
69.54459751391427
 51
234.3974738696552
  0
LINE
  5
420
330
23
100
AcDbEntity
  8
SANINDUSA
100
AcDbLine
 10
1169.710159772336
 20
1058.245431172459
 30
0.0
 11
1169.664159772335
 21
1058.245431172459
 31
0.0
  0
LINE
  5
421
330
23
100
AcDbEntity
  8
SANINDUSA
100
AcDbLine
 10
1169.307446495033
 20
1058.393113721143
 30
0.0
 11
1169.291109619527
 21
1058.404875324362
 31
0.0
  0
LINE
  5
424
330
23
100
AcDbEntity
  8
SANINDUSA
100
AcDbLine
 10
1169.518996361777
 20
1058.245431172459
 30
0.0
 11
1169.512984403158
 21
1058.245431172459
 31
0.0
  0
LINE
  5
425
330
23
100
AcDbEntity
  8
SANINDUSA
100
AcDbLine
 10
1169.540484649034
 20
1058.245431172459
 30
0.0
 11
1169.518996361777
 21
1058.245431172459
 31
0.0
  0
LINE
  5
427
330
23
100
AcDbEntity
  8
SANINDUSA
100
AcDbLine
 10
1169.542475750463
 20
1058.245431172459
 30
0.0
 11
1169.540484649034
 21
1058.245431172459
 31
0.0
  0
SPLINE
  5
429
330
23
100
AcDbEntity
  8
SANINDUSA
100
AcDbSpline
210
0.0
220
0.0
230
1.0
 70
    28
 71
     3
 72
    12
 73
     8
 74
     0
 42
0.0000000001
 43
0.0000000001
 40
0.0
 40
0.0
 40
0.0
 40
0.0
 40
0.2136148928339101
 40
0.4271474073052272
 40
0.640574595062572
 40
0.8535372412173439
 40
1.0
 40
1.0
 40
1.0
 40
1.0
 10
1169.542475754768
 20
1058.245431172459
 30
0.0
 41
1.0
 10
1169.550260599544
 20
1058.245431172459
 30
0.0
 41
1.0
 10
1169.565827286953
 20
1058.245431172459
 30
0.0
 41
1.0
 10
1169.589536406257
 20
1058.245431172459
 30
0.0
 41
1.0
 10
1169.613411548869
 20
1058.245431172459
 30
0.0
 41
1.0
 10
1169.634918242392
 20
1058.245431172459
 30
0.0
 41
1.0
 10
1169.648464698195
 20
1058.245431172459
 30
0.0
 41
1.0
 10
1169.653984762335
 20
1058.245431172459
 30
0.0
 41
1.0
  0
ARC
  5
42C
330
23
100
AcDbEntity
  8
SANINDUSA
100
AcDbCircle
 10
1169.139106815644
 20
1057.698438108982
 30
0.0
 40
0.7301407527689845
100
AcDbArc
 50
74.04542584047131
 51
76.36158442308375
  0
SPLINE
  5
432
330
23
100
AcDbEntity
  8
SANINDUSA
100
AcDbSpline
210
0.0
220
0.0
230
1.0
 70
    12
 71
     3
 72
    12
 73
     8
 74
     0
 42
0.0000000001
 43
0.0000000001
 40
0.0
 40
0.0
 40
0.0
 40
0.0
 40
0.1610163420003638
 40
0.5885527714162872
 40
0.8682175862005806
 40
0.9525947309710762
 40
1.0
 40
1.0
 40
1.0
 40
1.0
 10
1169.300586961747
 20
1058.41548543885
 30
0.0
 41
1.0
 10
1169.300727505267
 20
1058.415507007799
 30
0.0
 41
1.0
 10
1169.301213018732
 20
1058.41558654983
 30
0.0
 41
1.0
 10
1169.30195776087
 20
1058.415491315541
 30
0.0
 41
1.0
 10
1169.302605606051
 20
1058.415336360164
 30
0.0
 41
1.0
 10
1169.30293295945
 20
1058.415219657207
 30
0.0
 41
1.0
 10
1169.303036287328
 20
1058.415178280856
 30
0.0
 41
1.0
 10
1169.303073456823
 20
1058.415163396798
 30
0.0
 41
1.0
  0
LWPOLYLINE
  5
43F
330
23
100
AcDbEntity
  8
SANINDUSA
100
AcDbPolyline
 90
       31
 70
   128
 43
0.0
 10
1167.394949587565
 20
1058.491810149297
 10
1167.382467847229
 20
1058.492458879695
 10
1167.373995424018
 20
1058.49366062639
 10
1167.365619489663
 20
1058.49549669775
 10
1167.357434417072
 20
1058.497979409408
 10
1167.349534579152
 20
1058.501121076996
 10
1167.342150717783
 20
1058.504859424484
 10
1167.33518036407
 20
1058.509294542501
 10
1167.32879242393
 20
1058.514423939343
 10
1167.326312573696
 20
1058.516795397936
 10
1167.321332631334
 20
1058.522518859528
 10
1167.317226731332
 20
1058.528835399601
 10
1167.314404865761
 20
1058.535088852909
 10
1167.312620082352
 20
1058.541677106128
 10
1167.312060956764
 20
1058.546471274286
 10
1167.312101310062
 20
1058.55131426312
 10
1167.312742896942
 20
1058.556103401051
 10
1167.313992939478
 20
1058.56081723505
 10
1167.315802947069
 20
1058.565383932426
 10
1167.318111660007
 20
1058.569728331346
 10
1167.321559277955
 20
1058.574716361526
 10
1167.325590327776
 20
1058.579319233704
 10
1167.330083520292
 20
1058.583494349235
 10
1167.336510569974
 20
1058.588303157359
 10
1167.343464042311
 20
1058.592435748778
 10
1167.35078432877
 20
1058.595899556756
 10
1167.359923977414
 20
1058.59922442768
 10
1167.369389485928
 20
1058.601704262661
 10
1167.379053399015
 20
1058.603363699029
 10
1167.38878826138
 20
1058.60422737411
 10
1167.394949587565
 20
1058.604374065078
  0
LWPOLYLINE
  5
440
330
23
100
AcDbEntity
  8
SANINDUSA
100
AcDbPolyline
 90
       31
 70
   128
 43
0.0
 10
1167.394949587565
 20
1058.491810149297
 10
1167.407431327901
 20
1058.492458879695
 10
1167.415903751112
 20
1058.49366062639
 10
1167.424279685468
 20
1058.49549669775
 10
1167.432464758059
 20
1058.497979409408
 10
1167.440364595979
 20
1058.501121076996
 10
1167.447748457347
 20
1058.504859424484
 10
1167.45471881106
 20
1058.509294542501
 10
1167.461106751201
 20
1058.514423939343
 10
1167.463586601435
 20
1058.516795397936
 10
1167.468566543797
 20
1058.522518859528
 10
1167.472672443799
 20
1058.528835399601
 10
1167.475494309369
 20
1058.535088852909
 10
1167.477279092778
 20
1058.541677106128
 10
1167.477838218367
 20
1058.546471274286
 10
1167.477797865069
 20
1058.55131426312
 10
1167.477156278188
 20
1058.556103401051
 10
1167.475906235652
 20
1058.56081723505
 10
1167.474096228062
 20
1058.565383932426
 10
1167.471787515124
 20
1058.569728331346
 10
1167.468339897175
 20
1058.574716361526
 10
1167.464308847354
 20
1058.579319233704
 10
1167.459815654839
 20
1058.583494349235
 10
1167.453388605156
 20
1058.588303157359
 10
1167.446435132819
 20
1058.592435748778
 10
1167.43911484636
 20
1058.595899556756
 10
1167.429975197717
 20
1058.59922442768
 10
1167.420509689203
 20
1058.601704262661
 10
1167.410845776115
 20
1058.603363699029
 10
1167.401110913751
 20
1058.60422737411
 10
1167.394949587565
 20
1058.604374065078
  0
LWPOLYLINE
  5
441
330
23
100
AcDbEntity
  8
SANINDUSA
100
AcDbPolyline
 90
       39
 70
   128
 43
0.0
 10
1167.394949587565
 20
1058.603596830864
 10
1167.393002904235
 20
1058.603583703837
 10
1167.386278864182
 20
1058.60328694263
 10
1167.379591747033
 20
1058.602598484196
 10
1167.372845323649
 20
1058.601488650317
 10
1167.366208152189
 20
1058.59996069678
 10
1167.360016277553
 20
1058.598105177004
 10
1167.354005829966
 20
1058.595854173105
 10
1167.34807218639
 20
1058.593121140566
 10
1167.342449066243
 20
1058.589959514188
 10
1167.33551854094
 20
1058.585039389049
 10
1167.33231724911
 20
1058.582238272734
 10
1167.329386544034
 20
1058.579256084742
 10
1167.326857793424
 20
1058.576235577894
 10
1167.324634642594
 20
1058.573080114998
 10
1167.32269150891
 20
1058.569712177193
 10
1167.321118323227
 20
1058.566252606492
 10
1167.319848253127
 20
1058.562430340436
 10
1167.319036134645
 20
1058.558575500214
 10
1167.318676092421
 20
1058.554581234977
 10
1167.318789649116
 20
1058.550628442097
 10
1167.319330550296
 20
1058.546875034518
 10
1167.320269447863
 20
1058.543209208763
 10
1167.321621232591
 20
1058.539555773664
 10
1167.323339563562
 20
1058.536023840033
 10
1167.325899698095
 20
1058.531890590775
 10
1167.328929245078
 20
1058.527967307926
 10
1167.332498408651
 20
1058.524163831093
 10
1167.336490200839
 20
1058.520609153325
 10
1167.340049488442
 20
1058.517894054809
 10
1167.344787283632
 20
1058.514790310044
 10
1167.349865857346
 20
1058.511980815285
 10
1167.355406143997
 20
1058.509416814128
 10
1167.361236402876
 20
1058.50719528677
 10
1167.367038806431
 20
1058.505409737754
 10
1167.373035256383
 20
1058.503964385905
 10
1167.379368029625
 20
1058.502846304564
 10
1167.385820405935
 20
1058.502112162229
 10
1167.394949587565
 20
1058.501745662399
  0
LWPOLYLINE
  5
442
330
23
100
AcDbEntity
  8
SANINDUSA
100
AcDbPolyline
 90
       39
 70
   128
 43
0.0
 10
1167.394949587565
 20
1058.603596830864
 10
1167.396896270895
 20
1058.603583703837
 10
1167.403620310948
 20
1058.60328694263
 10
1167.410307428098
 20
1058.602598484196
 10
1167.417053851481
 20
1058.601488650317
 10
1167.423691022942
 20
1058.59996069678
 10
1167.429882897578
 20
1058.598105177004
 10
1167.435893345165
 20
1058.595854173105
 10
1167.441826988741
 20
1058.593121140566
 10
1167.447450108888
 20
1058.589959514188
 10
1167.454380634191
 20
1058.585039389049
 10
1167.457581926021
 20
1058.582238272734
 10
1167.460512631096
 20
1058.579256084742
 10
1167.463041381707
 20
1058.576235577894
 10
1167.465264532536
 20
1058.573080114998
 10
1167.467207666221
 20
1058.569712177193
 10
1167.468780851903
 20
1058.566252606492
 10
1167.470050922004
 20
1058.562430340436
 10
1167.470863040486
 20
1058.558575500214
 10
1167.47122308271
 20
1058.554581234977
 10
1167.471109526015
 20
1058.550628442097
 10
1167.470568624835
 20
1058.546875034518
 10
1167.469629727267
 20
1058.543209208763
 10
1167.46827794254
 20
1058.539555773664
 10
1167.466559611569
 20
1058.536023840033
 10
1167.463999477035
 20
1058.531890590775
 10
1167.460969930053
 20
1058.527967307926
 10
1167.45740076648
 20
1058.524163831093
 10
1167.453408974291
 20
1058.520609153325
 10
1167.449849686689
 20
1058.517894054809
 10
1167.445111891498
 20
1058.514790310044
 10
1167.440033317785
 20
1058.511980815285
 10
1167.434493031133
 20
1058.509416814128
 10
1167.428662772254
 20
1058.50719528677
 10
1167.4228603687
 20
1058.505409737754
 10
1167.416863918747
 20
1058.503964385905
 10
1167.410531145506
 20
1058.502846304564
 10
1167.404078769195
 20
1058.502112162229
 10
1167.394949587565
 20
1058.501745662399
  0
LINE
  5
D85
330
23
100
AcDbEntity
  8
SANINDUSA
100
AcDbLine
 10
1169.664159772335
 20
1058.256130788046
 30
0.0
 11
1169.710159772336
 21
1058.256130788046
 31
0.0
  0
ENDSEC
  0
SECTION
  2
OBJECTS
  0
DICTIONARY
  5
C
330
0
100
AcDbDictionary
281
     1
  3
ACAD_COLOR
350
1C
  3
ACAD_GROUP
350
D
  3
ACAD_LAYOUT
350
1A
  3
ACAD_MATERIAL
350
1B
  3
ACAD_MLINESTYLE
350
17
  3
ACAD_PLOTSETTINGS
350
19
  3
ACAD_PLOTSTYLENAME
350
E
  3
ACAD_TABLESTYLE
350
1D
  3
ACDBHEADERROUNDTRIPXREC
350
D96
  3
AcDbVariableDictionary
350
D7C
  0
DICTIONARY
  5
1C
102
{ACAD_REACTORS
330
C
102
}
330
C
100
AcDbDictionary
281
     1
  0
DICTIONARY
  5
D
102
{ACAD_REACTORS
330
C
102
}
330
C
100
AcDbDictionary
281
     1
  0
DICTIONARY
  5
1A
102
{ACAD_REACTORS
330
C
102
}
330
C
100
AcDbDictionary
281
     1
  3
Layout1
350
22
  3
Layout2
350
2A
  3
Model
350
26
  0
DICTIONARY
  5
1B
102
{ACAD_REACTORS
330
C
102
}
330
C
100
AcDbDictionary
281
     1
  0
DICTIONARY
  5
17
102
{ACAD_REACTORS
330
C
102
}
330
C
100
AcDbDictionary
281
     1
  3
Standard
350
18
  0
DICTIONARY
  5
19
102
{ACAD_REACTORS
330
C
102
}
330
C
100
AcDbDictionary
281
     1
  0
ACDBDICTIONARYWDFLT
  5
E
102
{ACAD_REACTORS
330
C
102
}
330
C
100
AcDbDictionary
281
     1
  3
Normal
350
F
100
AcDbDictionaryWithDefault
340
F
  0
DICTIONARY
  5
1D
102
{ACAD_REACTORS
330
C
102
}
330
C
100
AcDbDictionary
281
     1
  3
Standard
350
1E
  0
DICTIONARY
  5
D96
102
{ACAD_REACTORS
330
C
102
}
330
C
100
AcDbDictionary
281
     1
  0
DICTIONARY
  5
D7C
102
{ACAD_REACTORS
330
C
102
}
330
C
100
AcDbDictionary
281
     1
  3
CTABLESTYLE
350
D7D
  3
DIMASSOC
350
D93
  3
HIDETEXT
350
D92
  3
PROJECTNAME
350
D94
  0
LAYOUT
  5
22
102
{ACAD_XDICTIONARY
360
D97
102
}
102
{ACAD_REACTORS
330
1A
102
}
330
1A
100
AcDbPlotSettings
  1

  2
C:\Documents and Settings\Julio\Application Data\Autodesk\AutoCAD 2006\R16.2\enu\plotters\Default Windows System Printer.pc3
  4

  6

 40
0.0
 41
0.0
 42
0.0
 43
0.0
 44
0.0
 45
0.0
 46
0.0
 47
0.0
 48
0.0
 49
0.0
140
0.0
141
0.0
142
1.0
143
1.0
 70
   688
 72
     0
 73
     0
 74
     5
  7

 75
    16
147
1.0
148
0.0
149
0.0
100
AcDbLayout
  1
Layout1
 70
     1
 71
     1
 10
0.0
 20
0.0
 11
420.0
 21
297.0
 12
0.0
 22
0.0
 32
0.0
 14
1.000000000000000E+20
 24
1.000000000000000E+20
 34
1.000000000000000E+20
 15
-1.000000000000000E+20
 25
-1.000000000000000E+20
 35
-1.000000000000000E+20
146
0.0
 13
0.0
 23
0.0
 33
0.0
 16
1.0
 26
0.0
 36
0.0
 17
0.0
 27
1.0
 37
0.0
 76
     0
330
1F
  0
LAYOUT
  5
2A
102
{ACAD_XDICTIONARY
360
D9B
102
}
102
{ACAD_REACTORS
330
1A
102
}
330
1A
100
AcDbPlotSettings
  1

  2
C:\Documents and Settings\Julio\Application Data\Autodesk\AutoCAD 2006\R16.2\enu\plotters\Default Windows System Printer.pc3
  4

  6

 40
0.0
 41
0.0
 42
0.0
 43
0.0
 44
0.0
 45
0.0
 46
0.0
 47
0.0
 48
0.0
 49
0.0
140
0.0
141
0.0
142
1.0
143
1.0
 70
   688
 72
     0
 73
     0
 74
     5
  7

 75
    16
147
1.0
148
0.0
149
0.0
100
AcDbLayout
  1
Layout2
 70
     1
 71
     2
 10
0.0
 20
0.0
 11
12.0
 21
9.0
 12
0.0
 22
0.0
 32
0.0
 14
0.0
 24
0.0
 34
0.0
 15
0.0
 25
0.0
 35
0.0
146
0.0
 13
0.0
 23
0.0
 33
0.0
 16
1.0
 26
0.0
 36
0.0
 17
0.0
 27
1.0
 37
0.0
 76
     0
330
27
  0
LAYOUT
  5
26
102
{ACAD_XDICTIONARY
360
D99
102
}
102
{ACAD_REACTORS
330
1A
102
}
330
1A
100
AcDbPlotSettings
  1

  2
C:\Documents and Settings\Julio\Application Data\Autodesk\AutoCAD 2006\R16.2\enu\plotters\Default Windows System Printer.pc3
  4

  6

 40
0.0
 41
0.0
 42
0.0
 43
0.0
 44
0.0
 45
0.0
 46
0.0
 47
0.0
 48
0.0
 49
0.0
140
0.0
141
0.0
142
1.0
143
1.0
 70
  1712
 72
     0
 73
     0
 74
     0
  7

 75
     0
147
1.0
148
0.0
149
0.0
100
AcDbLayout
  1
Model
 70
     1
 71
     0
 10
0.0
 20
0.0
 11
12.0
 21
9.0
 12
0.0
 22
0.0
 32
0.0
 14
0.0
 24
0.0
 34
0.0
 15
0.0
 25
0.0
 35
0.0
146
0.0
 13
0.0
 23
0.0
 33
0.0
 16
1.0
 26
0.0
 36
0.0
 17
0.0
 27
1.0
 37
0.0
 76
     0
330
23
  0
MLINESTYLE
  5
18
102
{ACAD_REACTORS
330
17
102
}
330
17
100
AcDbMlineStyle
  2
STANDARD
 70
     0
  3

 62
   256
 51
90.0
 52
90.0
 71
     2
 49
0.5
 62
   256
  6
BYLAYER
 49
-0.5
 62
   256
  6
BYLAYER
  0
ACDBPLACEHOLDER
  5
F
102
{ACAD_REACTORS
330
E
102
}
330
E
  0
TABLESTYLE
  5
1E
102
{ACAD_REACTORS
330
1D
102
}
330
1D
100
AcDbTableStyle
  3
Standard
 70
     0
 71
     0
 40
1.5
 41
1.5
280
     0
281
     0
  7
Standard
140
4.5
170
     2
 62
     0
 63
     7
283
     0
274
    -2
284
     1
 64
     0
275
    -2
285
     1
 65
     0
276
    -2
286
     1
 66
     0
277
    -2
287
     1
 67
     0
278
    -2
288
     1
 68
     0
279
    -2
289
     1
 69
     0
  7
Standard
140
6.0
170
     5
 62
     0
 63
     7
283
     0
274
    -2
284
     1
 64
     0
275
    -2
285
     1
 65
     0
276
    -2
286
     1
 66
     0
277
    -2
287
     1
 67
     0
278
    -2
288
     1
 68
     0
279
    -2
289
     1
 69
     0
  7
Standard
140
4.5
170
     5
 62
     0
 63
     7
283
     0
274
    -2
284
     1
 64
     0
275
    -2
285
     1
 65
     0
276
    -2
286
     1
 66
     0
277
    -2
287
     1
 67
     0
278
    -2
288
     1
 68
     0
279
    -2
289
     1
 69
     0
  0
DICTIONARYVAR
  5
D7D
102
{ACAD_REACTORS
330
D7C
102
}
330
D7C
100
DictionaryVariables
280
     0
  1
STANDARD
  0
DICTIONARYVAR
  5
D93
102
{ACAD_REACTORS
330
D7C
102
}
330
D7C
100
DictionaryVariables
280
     0
  1
2
  0
DICTIONARYVAR
  5
D92
102
{ACAD_REACTORS
330
D7C
102
}
330
D7C
100
DictionaryVariables
280
     0
  1
1
  0
DICTIONARYVAR
  5
D94
102
{ACAD_REACTORS
330
D7C
102
}
330
D7C
100
DictionaryVariables
280
     0
  1

  0
DICTIONARY
  5
D97
330
22
100
AcDbDictionary
280
     1
281
     1
  3
ACAD_XREC_ROUNDTRIP
360
D98
  0
DICTIONARY
  5
D9B
330
2A
100
AcDbDictionary
280
     1
281
     1
  3
ACAD_XREC_ROUNDTRIP
360
D9C
  0
DICTIONARY
  5
D99
330
26
100
AcDbDictionary
280
     1
281
     1
  3
ACAD_XREC_ROUNDTRIP
360
D9A
  0
XRECORD
  5
D98
102
{ACAD_REACTORS
330
D97
102
}
330
D97
100
AcDbXrecord
280
     1
102
SHADEPLOT
 70
     0
102
SHADEPLOTRESLEVEL
 70
     2
102
SHADEPLOTCUSTOMDPI
 70
   300
  0
XRECORD
  5
D9C
102
{ACAD_REACTORS
330
D9B
102
}
330
D9B
100
AcDbXrecord
280
     1
102
SHADEPLOT
 70
     0
102
SHADEPLOTRESLEVEL
 70
     2
102
SHADEPLOTCUSTOMDPI
 70
   300
  0
XRECORD
  5
D9A
102
{ACAD_REACTORS
330
D99
102
}
330
D99
100
AcDbXrecord
280
     1
102
SHADEPLOT
 70
     0
102
SHADEPLOTRESLEVEL
 70
     2
102
SHADEPLOTCUSTOMDPI
 70
   300
  0
ENDSEC
  0
EOF
