  0
SECTION
  2
HEADER
  9
$ACADVER
  1
AC1015
  9
$ACADMAINTVER
 70
    20
  9
$DWGCODEPAGE
  3
ANSI_1252
  9
$INSBASE
 10
0.0
 20
0.0
 30
0.0
  9
$EXTMIN
 10
828.8158837078114
 20
1081.671171091428
 30
0.0
  9
$EXTMAX
 10
831.516926867094
 20
1081.971171091428
 30
0.0
  9
$LIMMIN
 10
0.0
 20
0.0
  9
$LIMMAX
 10
420.0
 20
297.0
  9
$ORTHOMODE
 70
     0
  9
$REGENMODE
 70
     1
  9
$FILLMODE
 70
     1
  9
$QTEXTMODE
 70
     0
  9
$MIRRTEXT
 70
     0
  9
$LTSCALE
 40
1.0
  9
$ATTMODE
 70
     1
  9
$TEXTSIZE
 40
2.5
  9
$TRACEWID
 40
1.0
  9
$TEXTSTYLE
  7
Standard
  9
$CLAYER
  8
0
  9
$CELTYPE
  6
ByLayer
  9
$CECOLOR
 62
   256
  9
$CELTSCALE
 40
1.0
  9
$DISPSILH
 70
     0
  9
$DIMSCALE
 40
1.0
  9
$DIMASZ
 40
2.5
  9
$DIMEXO
 40
0.625
  9
$DIMDLI
 40
3.75
  9
$DIMRND
 40
0.0
  9
$DIMDLE
 40
0.0
  9
$DIMEXE
 40
1.25
  9
$DIMTP
 40
0.0
  9
$DIMTM
 40
0.0
  9
$DIMTXT
 40
2.5
  9
$DIMCEN
 40
2.5
  9
$DIMTSZ
 40
0.0
  9
$DIMTOL
 70
     0
  9
$DIMLIM
 70
     0
  9
$DIMTIH
 70
     0
  9
$DIMTOH
 70
     0
  9
$DIMSE1
 70
     0
  9
$DIMSE2
 70
     0
  9
$DIMTAD
 70
     1
  9
$DIMZIN
 70
     8
  9
$DIMBLK
  1

  9
$DIMASO
 70
     1
  9
$DIMSHO
 70
     1
  9
$DIMPOST
  1

  9
$DIMAPOST
  1

  9
$DIMALT
 70
     0
  9
$DIMALTD
 70
     3
  9
$DIMALTF
 40
0.03937007874016
  9
$DIMLFAC
 40
1.0
  9
$DIMTOFL
 70
     1
  9
$DIMTVP
 40
0.0
  9
$DIMTIX
 70
     0
  9
$DIMSOXD
 70
     0
  9
$DIMSAH
 70
     0
  9
$DIMBLK1
  1

  9
$DIMBLK2
  1

  9
$DIMSTYLE
  2
ISO-25
  9
$DIMCLRD
 70
     0
  9
$DIMCLRE
 70
     0
  9
$DIMCLRT
 70
     0
  9
$DIMTFAC
 40
1.0
  9
$DIMGAP
 40
0.625
  9
$DIMJUST
 70
     0
  9
$DIMSD1
 70
     0
  9
$DIMSD2
 70
     0
  9
$DIMTOLJ
 70
     0
  9
$DIMTZIN
 70
     8
  9
$DIMALTZ
 70
     0
  9
$DIMALTTZ
 70
     0
  9
$DIMUPT
 70
     0
  9
$DIMDEC
 70
     2
  9
$DIMTDEC
 70
     2
  9
$DIMALTU
 70
     2
  9
$DIMALTTD
 70
     3
  9
$DIMTXSTY
  7
Standard
  9
$DIMAUNIT
 70
     0
  9
$DIMADEC
 70
     0
  9
$DIMALTRND
 40
0.0
  9
$DIMAZIN
 70
     0
  9
$DIMDSEP
 70
    44
  9
$DIMATFIT
 70
     3
  9
$DIMFRAC
 70
     0
  9
$DIMLDRBLK
  1

  9
$DIMLUNIT
 70
     2
  9
$DIMLWD
 70
    -2
  9
$DIMLWE
 70
    -2
  9
$DIMTMOVE
 70
     0
  9
$LUNITS
 70
     2
  9
$LUPREC
 70
     4
  9
$SKETCHINC
 40
1.0
  9
$FILLETRAD
 40
0.0
  9
$AUNITS
 70
     0
  9
$AUPREC
 70
     0
  9
$MENU
  1
.
  9
$ELEVATION
 40
0.0
  9
$PELEVATION
 40
0.0
  9
$THICKNESS
 40
0.0
  9
$LIMCHECK
 70
     0
  9
$CHAMFERA
 40
0.0
  9
$CHAMFERB
 40
0.0
  9
$CHAMFERC
 40
0.0
  9
$CHAMFERD
 40
0.0
  9
$SKPOLY
 70
     0
  9
$TDCREATE
 40
2454862.618540035
  9
$TDUCREATE
 40
2454862.618540035
  9
$TDUPDATE
 40
2454862.622200694
  9
$TDUUPDATE
 40
2454862.622200694
  9
$TDINDWG
 40
0.0034919329
  9
$TDUSRTIMER
 40
0.0034919329
  9
$USRTIMER
 70
     1
  9
$ANGBASE
 50
0.0
  9
$ANGDIR
 70
     0
  9
$PDMODE
 70
     0
  9
$PDSIZE
 40
0.0
  9
$PLINEWID
 40
0.0
  9
$SPLFRAME
 70
     0
  9
$SPLINETYPE
 70
     6
  9
$SPLINESEGS
 70
     8
  9
$HANDSEED
  5
9C3
  9
$SURFTAB1
 70
     6
  9
$SURFTAB2
 70
     6
  9
$SURFTYPE
 70
     6
  9
$SURFU
 70
     6
  9
$SURFV
 70
     6
  9
$UCSBASE
  2

  9
$UCSNAME
  2

  9
$UCSORG
 10
0.0
 20
0.0
 30
0.0
  9
$UCSXDIR
 10
1.0
 20
0.0
 30
0.0
  9
$UCSYDIR
 10
0.0
 20
1.0
 30
0.0
  9
$UCSORTHOREF
  2

  9
$UCSORTHOVIEW
 70
     0
  9
$UCSORGTOP
 10
0.0
 20
0.0
 30
0.0
  9
$UCSORGBOTTOM
 10
0.0
 20
0.0
 30
0.0
  9
$UCSORGLEFT
 10
0.0
 20
0.0
 30
0.0
  9
$UCSORGRIGHT
 10
0.0
 20
0.0
 30
0.0
  9
$UCSORGFRONT
 10
0.0
 20
0.0
 30
0.0
  9
$UCSORGBACK
 10
0.0
 20
0.0
 30
0.0
  9
$PUCSBASE
  2

  9
$PUCSNAME
  2

  9
$PUCSORG
 10
0.0
 20
0.0
 30
0.0
  9
$PUCSXDIR
 10
1.0
 20
0.0
 30
0.0
  9
$PUCSYDIR
 10
0.0
 20
1.0
 30
0.0
  9
$PUCSORTHOREF
  2

  9
$PUCSORTHOVIEW
 70
     0
  9
$PUCSORGTOP
 10
0.0
 20
0.0
 30
0.0
  9
$PUCSORGBOTTOM
 10
0.0
 20
0.0
 30
0.0
  9
$PUCSORGLEFT
 10
0.0
 20
0.0
 30
0.0
  9
$PUCSORGRIGHT
 10
0.0
 20
0.0
 30
0.0
  9
$PUCSORGFRONT
 10
0.0
 20
0.0
 30
0.0
  9
$PUCSORGBACK
 10
0.0
 20
0.0
 30
0.0
  9
$USERI1
 70
     0
  9
$USERI2
 70
     0
  9
$USERI3
 70
     0
  9
$USERI4
 70
     0
  9
$USERI5
 70
     0
  9
$USERR1
 40
0.0
  9
$USERR2
 40
0.0
  9
$USERR3
 40
0.0
  9
$USERR4
 40
0.0
  9
$USERR5
 40
0.0
  9
$WORLDVIEW
 70
     1
  9
$SHADEDGE
 70
     3
  9
$SHADEDIF
 70
    70
  9
$TILEMODE
 70
     1
  9
$MAXACTVP
 70
    64
  9
$PINSBASE
 10
0.0
 20
0.0
 30
0.0
  9
$PLIMCHECK
 70
     0
  9
$PEXTMIN
 10
1.000000000000000E+20
 20
1.000000000000000E+20
 30
1.000000000000000E+20
  9
$PEXTMAX
 10
-1.000000000000000E+20
 20
-1.000000000000000E+20
 30
-1.000000000000000E+20
  9
$PLIMMIN
 10
0.0
 20
0.0
  9
$PLIMMAX
 10
420.0
 20
297.0
  9
$UNITMODE
 70
     0
  9
$VISRETAIN
 70
     1
  9
$PLINEGEN
 70
     0
  9
$PSLTSCALE
 70
     1
  9
$TREEDEPTH
 70
  3020
  9
$CMLSTYLE
  2
Standard
  9
$CMLJUST
 70
     0
  9
$CMLSCALE
 40
20.0
  9
$PROXYGRAPHICS
 70
     1
  9
$MEASUREMENT
 70
     1
  9
$CELWEIGHT
370
    -1
  9
$ENDCAPS
280
     0
  9
$JOINSTYLE
280
     0
  9
$LWDISPLAY
290
     0
  9
$INSUNITS
 70
     4
  9
$HYPERLINKBASE
  1

  9
$STYLESHEET
  1

  9
$XEDIT
290
     1
  9
$CEPSNTYPE
380
     0
  9
$PSTYLEMODE
290
     1
  9
$FINGERPRINTGUID
  2
{D647E557-D2CE-4084-A894-7EFB3D004933}
  9
$VERSIONGUID
  2
{45F8F12D-ED71-40E0-B548-CBC8A9E92B0B}
  9
$EXTNAMES
290
     1
  9
$PSVPSCALE
 40
0.0
  9
$OLESTARTUP
290
     0
  0
ENDSEC
  0
SECTION
  2
CLASSES
  0
CLASS
  1
ACDBDICTIONARYWDFLT
  2
AcDbDictionaryWithDefault
  3
ObjectDBX Classes
 90
        0
280
     0
281
     0
  0
CLASS
  1
TABLESTYLE
  2
AcDbTableStyle
  3
ObjectDBX Classes
 90
     2047
280
     0
281
     0
  0
CLASS
  1
DIMASSOC
  2
AcDbDimAssoc
  3
"AcDbDimAssoc|Product Desc:     AcDim ARX App For Dimension|Company:          Autodesk, Inc.|WEB Address:      www.autodesk.com"
 90
    32768
280
     0
281
     0
  0
CLASS
  1
SORTENTSTABLE
  2
AcDbSortentsTable
  3
ObjectDBX Classes
 90
    32768
280
     0
281
     0
  0
CLASS
  1
DICTIONARYVAR
  2
AcDbDictionaryVar
  3
ObjectDBX Classes
 90
        0
280
     0
281
     0
  0
CLASS
  1
ACDBPLACEHOLDER
  2
AcDbPlaceHolder
  3
ObjectDBX Classes
 90
        0
280
     0
281
     0
  0
CLASS
  1
LAYOUT
  2
AcDbLayout
  3
ObjectDBX Classes
 90
        0
280
     0
281
     0
  0
ENDSEC
  0
SECTION
  2
TABLES
  0
TABLE
  2
VPORT
  5
8
330
0
100
AcDbSymbolTable
 70
     2
  0
VPORT
  5
9BB
330
8
100
AcDbSymbolTableRecord
100
AcDbViewportTableRecord
  2
*Active
 70
     0
 10
0.0
 20
0.0
 11
1.0
 21
1.0
 12
830.1664052874528
 22
1081.821171091428
 13
0.0
 23
0.0
 14
10.0
 24
10.0
 15
10.0
 25
10.0
 16
0.0
 26
0.0
 36
1.0
 17
0.0
 27
0.0
 37
0.0
 40
1.692416556636819
 41
1.602030456852791
 42
50.0
 43
0.0
 44
0.0
 50
0.0
 51
0.0
 71
     0
 72
  1000
 73
     1
 74
     3
 75
     0
 76
     0
 77
     0
 78
     0
281
     0
 65
     1
110
0.0
120
0.0
130
0.0
111
1.0
121
0.0
131
0.0
112
0.0
122
1.0
132
0.0
 79
     0
146
0.0
  0
ENDTAB
  0
TABLE
  2
LTYPE
  5
5
330
0
100
AcDbSymbolTable
 70
     3
  0
LTYPE
  5
14
330
5
100
AcDbSymbolTableRecord
100
AcDbLinetypeTableRecord
  2
ByBlock
 70
     0
  3

 72
    65
 73
     0
 40
0.0
  0
LTYPE
  5
15
330
5
100
AcDbSymbolTableRecord
100
AcDbLinetypeTableRecord
  2
ByLayer
 70
     0
  3

 72
    65
 73
     0
 40
0.0
  0
LTYPE
  5
16
330
5
100
AcDbSymbolTableRecord
100
AcDbLinetypeTableRecord
  2
Continuous
 70
     0
  3
Solid line
 72
    65
 73
     0
 40
0.0
  0
LTYPE
  5
261
330
5
100
AcDbSymbolTableRecord
100
AcDbLinetypeTableRecord
  2
DASHDOT
 70
     0
  3
Dash dot __ . __ . __ . __ . __ . __ . __ . __
 72
    65
 73
     4
 40
25.4
 49
12.7
 74
     0
 49
-6.349999999999999
 74
     0
 49
0.0
 74
     0
 49
-6.349999999999999
 74
     0
  0
LTYPE
  5
262
330
5
100
AcDbSymbolTableRecord
100
AcDbLinetypeTableRecord
  2
HIDDEN
 70
     0
  3
Hidden __ __ __ __ __ __ __ __ __ __ __ __ __ _
 72
    65
 73
     2
 40
9.524999999999998
 49
6.349999999999999
 74
     0
 49
-3.174999999999999
 74
     0
  0
ENDTAB
  0
TABLE
  2
LAYER
  5
2
330
0
100
AcDbSymbolTable
 70
     9
  0
LAYER
  5
10
330
2
100
AcDbSymbolTableRecord
100
AcDbLayerTableRecord
  2
0
 70
     0
 62
     7
  6
Continuous
370
    -3
390
F
  0
LAYER
  5
263
330
2
100
AcDbSymbolTableRecord
100
AcDbLayerTableRecord
  2
2
 70
     0
 62
     2
  6
Continuous
370
    -3
390
F
  0
LAYER
  5
264
330
2
100
AcDbSymbolTableRecord
100
AcDbLayerTableRecord
  2
cen
 70
     0
 62
     7
  6
DASHDOT
370
    -3
390
F
  0
LAYER
  5
265
330
2
100
AcDbSymbolTableRecord
100
AcDbLayerTableRecord
  2
hid
 70
     0
 62
     7
  6
HIDDEN
370
    -3
390
F
  0
LAYER
  5
266
330
2
100
AcDbSymbolTableRecord
100
AcDbLayerTableRecord
  2
hatch
 70
     0
 62
     9
  6
Continuous
370
    -3
390
F
  0
LAYER
  5
267
330
2
100
AcDbSymbolTableRecord
100
AcDbLayerTableRecord
  2
9
 70
     0
 62
     9
  6
Continuous
370
    -3
390
F
  0
LAYER
  5
268
330
2
100
AcDbSymbolTableRecord
100
AcDbLayerTableRecord
  2
cotas
 70
     0
 62
     1
  6
Continuous
370
    -3
390
F
  0
LAYER
  5
269
330
2
100
AcDbSymbolTableRecord
100
AcDbLayerTableRecord
  2
Defpoints
 70
     0
 62
     7
  6
Continuous
290
     0
370
    -3
390
F
  0
LAYER
  5
26A
330
2
100
AcDbSymbolTableRecord
100
AcDbLayerTableRecord
  2
SANINDUSA
 70
     0
 62
     3
  6
Continuous
370
    -3
390
F
  0
ENDTAB
  0
TABLE
  2
STYLE
  5
3
330
0
100
AcDbSymbolTable
 70
     2
  0
STYLE
  5
11
330
3
100
AcDbSymbolTableRecord
100
AcDbTextStyleTableRecord
  2
Standard
 70
     0
 40
0.0
 41
1.0
 50
0.0
 71
     0
 42
2.5
  3
txt
  4

  0
STYLE
  5
26B
330
3
100
AcDbSymbolTableRecord
100
AcDbTextStyleTableRecord
  2
SANINDUSA
 70
     0
 40
0.0
 41
1.0
 50
0.0
 71
     0
 42
2.5
  3
verdana.TTF
  4

1001
ACAD
1000
Verdana
1071
       34
  0
ENDTAB
  0
TABLE
  2
VIEW
  5
6
330
0
100
AcDbSymbolTable
 70
     0
  0
ENDTAB
  0
TABLE
  2
UCS
  5
7
330
0
100
AcDbSymbolTable
 70
     0
  0
ENDTAB
  0
TABLE
  2
APPID
  5
9
330
0
100
AcDbSymbolTable
 70
     1
  0
APPID
  5
12
330
9
100
AcDbSymbolTableRecord
100
AcDbRegAppTableRecord
  2
ACAD
 70
     0
  0
ENDTAB
  0
TABLE
  2
DIMSTYLE
  5
A
330
0
100
AcDbSymbolTable
 70
     2
100
AcDbDimStyleTable
 71
     0
  0
DIMSTYLE
105
2B
330
A
100
AcDbSymbolTableRecord
100
AcDbDimStyleTableRecord
  2
ISO-25
 70
     0
 41
2.5
 42
0.625
 43
3.75
 44
1.25
 73
     0
 74
     0
 77
     1
 78
     8
140
2.5
141
2.5
143
0.03937007874016
147
0.625
171
     3
172
     1
271
     2
272
     2
274
     3
278
    44
283
     0
284
     8
340
11
  0
DIMSTYLE
105
26C
330
A
100
AcDbSymbolTableRecord
100
AcDbDimStyleTableRecord
  2
SANINDUSA
 70
     0
 41
2.0
 42
1.0
 43
1.0
 44
1.0
 73
     0
 74
     0
 77
     1
 78
     8
140
2.0
141
0.0
143
0.03937007874016
147
1.0
171
     3
172
     1
176
   256
177
   256
178
   256
179
     1
271
     1
272
     1
274
     3
278
    44
283
     0
284
     8
340
26B
371
    -1
372
    -1
  0
ENDTAB
  0
TABLE
  2
BLOCK_RECORD
  5
1
330
0
100
AcDbSymbolTable
 70
   103
  0
BLOCK_RECORD
  5
23
330
1
100
AcDbSymbolTableRecord
100
AcDbBlockTableRecord
  2
*Model_Space
340
26
  0
BLOCK_RECORD
  5
1F
330
1
100
AcDbSymbolTableRecord
100
AcDbBlockTableRecord
  2
*Paper_Space
340
22
  0
BLOCK_RECORD
  5
27
330
1
100
AcDbSymbolTableRecord
100
AcDbBlockTableRecord
  2
*Paper_Space0
340
2A
  0
ENDTAB
  0
ENDSEC
  0
SECTION
  2
BLOCKS
  0
BLOCK
  5
24
330
23
100
AcDbEntity
  8
0
100
AcDbBlockBegin
  2
*Model_Space
 70
     0
 10
0.0
 20
0.0
 30
0.0
  3
*Model_Space
  1

  0
ENDBLK
  5
25
330
23
100
AcDbEntity
  8
0
100
AcDbBlockEnd
  0
BLOCK
  5
20
330
1F
100
AcDbEntity
 67
     1
  8
0
100
AcDbBlockBegin
  2
*Paper_Space
 70
     0
 10
0.0
 20
0.0
 30
0.0
  3
*Paper_Space
  1

  0
ENDBLK
  5
21
330
1F
100
AcDbEntity
 67
     1
  8
0
100
AcDbBlockEnd
  0
BLOCK
  5
28
330
27
100
AcDbEntity
 67
     1
  8
0
100
AcDbBlockBegin
  2
*Paper_Space0
 70
     0
 10
0.0
 20
0.0
 30
0.0
  3
*Paper_Space0
  1

  0
ENDBLK
  5
29
330
27
100
AcDbEntity
 67
     1
  8
0
100
AcDbBlockEnd
  0
ENDSEC
  0
SECTION
  2
ENTITIES
  0
LINE
  5
474
330
23
100
AcDbEntity
  8
SANINDUSA
100
AcDbLine
 10
829.5891131054428
 20
1081.929319002074
 30
0.0
 11
829.5641131054429
 21
1081.929319002074
 31
0.0
  0
ARC
  5
475
330
23
100
AcDbEntity
  8
SANINDUSA
100
AcDbCircle
 10
829.5641131054429
 20
1081.924319002074
 30
0.0
 40
0.005
100
AcDbArc
 50
90.0
 51
180.0
  0
ARC
  5
476
330
23
100
AcDbEntity
  8
SANINDUSA
100
AcDbCircle
 10
829.5641131054429
 20
1081.734319002074
 30
0.0
 40
0.005
100
AcDbArc
 50
180.0
 51
270.0
  0
LINE
  5
477
330
23
100
AcDbEntity
  8
SANINDUSA
100
AcDbLine
 10
829.5641131054429
 20
1081.729319002074
 30
0.0
 11
829.5891131054428
 21
1081.729319002074
 31
0.0
  0
LINE
  5
478
330
23
100
AcDbEntity
  8
SANINDUSA
100
AcDbLine
 10
829.5591131054429
 20
1081.924319002074
 30
0.0
 11
829.5591131054429
 21
1081.734319002074
 31
0.0
  0
LINE
  5
47E
330
23
100
AcDbEntity
  8
SANINDUSA
100
AcDbLine
 10
829.8291131054428
 20
1081.729319002074
 30
0.0
 11
829.5891131054428
 21
1081.729319002074
 31
0.0
  0
LINE
  5
47F
330
23
100
AcDbEntity
  8
SANINDUSA
100
AcDbLine
 10
829.5891131054428
 20
1081.929319002074
 30
0.0
 11
829.8291131054428
 21
1081.929319002074
 31
0.0
  0
LINE
  5
482
330
23
100
AcDbEntity
  8
SANINDUSA
100
AcDbLine
 10
829.8591131054429
 20
1081.924319002074
 30
0.0
 11
829.8591131054429
 21
1081.734319002074
 31
0.0
  0
ARC
  5
486
330
23
100
AcDbEntity
  8
SANINDUSA
100
AcDbCircle
 10
829.8541131054429
 20
1081.924319002074
 30
0.0
 40
0.0050000000000001
100
AcDbArc
 50
0.0
 51
90.0
  0
LINE
  5
487
330
23
100
AcDbEntity
  8
SANINDUSA
100
AcDbLine
 10
829.8291131054428
 20
1081.929319002074
 30
0.0
 11
829.8541131054429
 21
1081.929319002074
 31
0.0
  0
ARC
  5
488
330
23
100
AcDbEntity
  8
SANINDUSA
100
AcDbCircle
 10
829.8541131054429
 20
1081.734319002074
 30
0.0
 40
0.0050000000000001
100
AcDbArc
 50
270.0
 51
0.0
  0
LINE
  5
48B
330
23
100
AcDbEntity
  8
SANINDUSA
100
AcDbLine
 10
829.8541131054429
 20
1081.729319002074
 30
0.0
 11
829.8291131054428
 21
1081.729319002074
 31
0.0
  0
CIRCLE
  5
48C
330
23
100
AcDbEntity
  8
SANINDUSA
100
AcDbCircle
 10
829.0733837078116
 20
1081.821171091428
 30
0.0
 40
0.0235317339737763
  0
LWPOLYLINE
  5
48D
330
23
100
AcDbEntity
  8
SANINDUSA
100
AcDbPolyline
 90
       39
 70
     0
 43
0.0
 10
829.0379738129672
 20
1081.821171091428
 10
829.0383334887387
 20
1081.826265992484
 10
829.0393991129127
 20
1081.83126106666
 10
829.0415941368971
 20
1081.836988524142
 10
829.0447185193274
 20
1081.842266261264
 10
829.0486743684825
 20
1081.846906436416
 10
829.053356884683
 20
1081.850811358205
 10
829.058573035792
 20
1081.853816139171
 10
829.0642223571703
 20
1081.855894436742
 10
829.0700544758799
 20
1081.856956870435
 10
829.0759821690647
 20
1081.857023075957
 10
829.0817789148956
 20
1081.85609005318
 10
829.0873400124208
 20
1081.854206407433
 10
829.0925173308581
 20
1081.851409661147
 10
829.0971638385226
 20
1081.847798592699
 10
829.1011927817066
 20
1081.843410139587
 10
829.1044465296666
 20
1081.838419204671
 10
829.1068586359576
 20
1081.832873820621
 10
829.1083233550711
 20
1081.827006243556
 10
829.1087936026558
 20
1081.821171091428
 10
829.1084339268843
 20
1081.816076190371
 10
829.1073683027104
 20
1081.811081116195
 10
829.1051732787259
 20
1081.805353658713
 10
829.1020488962956
 20
1081.800075921591
 10
829.0980930471405
 20
1081.795435746439
 10
829.09341053094
 20
1081.791530824651
 10
829.0881943798311
 20
1081.788526043685
 10
829.0825450584526
 20
1081.786447746114
 10
829.0767129397432
 20
1081.78538531242
 10
829.0707852465583
 20
1081.785319106898
 10
829.0649885007274
 20
1081.786252129676
 10
829.0594274032024
 20
1081.788135775422
 10
829.0542500847648
 20
1081.790932521708
 10
829.0496035771006
 20
1081.794543590157
 10
829.0455746339164
 20
1081.798932043269
 10
829.0423208859564
 20
1081.803922978185
 10
829.0399087796654
 20
1081.809468362235
 10
829.0384440605519
 20
1081.8153359393
 10
829.0379738129672
 20
1081.821171091428
  0
LWPOLYLINE
  5
49A
330
23
100
AcDbEntity
  8
SANINDUSA
100
AcDbPolyline
 90
        3
 70
     0
 43
0.0
 10
828.8768881451693
 20
1081.727220612787
 10
829.0733849268606
 20
1081.727266194669
 10
829.2698792704538
 20
1081.727220612787
  0
LWPOLYLINE
  5
49B
330
23
100
AcDbEntity
  8
SANINDUSA
100
AcDbPolyline
 90
        4
 70
     0
 43
0.0
 10
828.8719332291707
 20
1081.732175528786
 10
828.8719539132317
 20
1081.81576758024
 10
828.8719494658394
 20
1081.86296718796
 10
828.8719332291707
 20
1081.91016665407
  0
LWPOLYLINE
  5
49C
330
23
100
AcDbEntity
  8
SANINDUSA
100
AcDbPolyline
 90
        4
 70
     0
 43
0.0
 10
829.2748341864522
 20
1081.91016665407
 10
829.2748135023911
 20
1081.826574602615
 10
829.2748179497834
 20
1081.779374994896
 10
829.2748341864522
 20
1081.732175528786
  0
LWPOLYLINE
  5
49D
330
23
100
AcDbEntity
  8
SANINDUSA
100
AcDbPolyline
 90
        3
 70
     0
 43
0.0
 10
828.8768881451693
 20
1081.915121570069
 10
829.0733849268606
 20
1081.915075988187
 10
829.2698792704538
 20
1081.915121570069
  0
LINE
  5
49E
330
23
100
AcDbEntity
  8
SANINDUSA
100
AcDbLine
 10
828.8719332291707
 20
1081.732175528786
 30
0.0
 11
828.8514691561196
 21
1081.711711455735
 31
0.0
  0
LINE
  5
49F
330
23
100
AcDbEntity
  8
SANINDUSA
100
AcDbLine
 10
828.8564240721182
 20
1081.706756539736
 30
0.0
 11
828.8768881451693
 21
1081.727220612787
 31
0.0
  0
ARC
  5
4A0
330
23
100
AcDbEntity
  8
SANINDUSA
100
AcDbCircle
 10
828.8769937662829
 20
1081.732281149899
 30
0.0
 40
0.0050616392288303
100
AcDbArc
 50
181.1956765433901
 51
268.8043234564739
  0
LINE
  5
4A1
330
23
100
AcDbEntity
  8
SANINDUSA
100
AcDbLine
 10
829.2698792704538
 20
1081.727220612787
 30
0.0
 11
829.2903433435048
 21
1081.706756539736
 31
0.0
  0
LINE
  5
4A2
330
23
100
AcDbEntity
  8
SANINDUSA
100
AcDbLine
 10
829.2952982595034
 20
1081.711711455735
 30
0.0
 11
829.2748341864522
 21
1081.732175528786
 31
0.0
  0
ARC
  5
4A3
330
23
100
AcDbEntity
  8
SANINDUSA
100
AcDbCircle
 10
829.2697736493401
 20
1081.732281149899
 30
0.0
 40
0.00506163922883
100
AcDbArc
 50
271.1956765435261
 51
358.8043234566098
  0
LINE
  5
4A4
330
23
100
AcDbEntity
  8
SANINDUSA
100
AcDbLine
 10
828.8719332291707
 20
1081.91016665407
 30
0.0
 11
828.8514691561196
 21
1081.930630727121
 31
0.0
  0
ARC
  5
4A5
330
23
100
AcDbEntity
  8
SANINDUSA
100
AcDbCircle
 10
828.8769937662829
 20
1081.910061032956
 30
0.0
 40
0.0050616392288302
100
AcDbArc
 50
91.19567654352605
 51
178.8043234566098
  0
LINE
  5
4A6
330
23
100
AcDbEntity
  8
SANINDUSA
100
AcDbLine
 10
828.8564240721182
 20
1081.93558564312
 30
0.0
 11
828.8768881451693
 21
1081.915121570069
 31
0.0
  0
LINE
  5
4A7
330
23
100
AcDbEntity
  8
SANINDUSA
100
AcDbLine
 10
829.2698792704538
 20
1081.915121570069
 30
0.0
 11
829.2903433435048
 21
1081.93558564312
 31
0.0
  0
ARC
  5
4A8
330
23
100
AcDbEntity
  8
SANINDUSA
100
AcDbCircle
 10
829.2697736493401
 20
1081.910061032956
 30
0.0
 40
0.00506163922883
100
AcDbArc
 50
1.195676543390144
 51
88.80432345647394
  0
LINE
  5
4A9
330
23
100
AcDbEntity
  8
SANINDUSA
100
AcDbLine
 10
829.2952982595034
 20
1081.930630727121
 30
0.0
 11
829.2748341864522
 21
1081.91016665407
 31
0.0
  0
LINE
  5
4AA
330
23
100
AcDbEntity
  8
SANINDUSA
100
AcDbLine
 10
828.8458837078115
 20
1081.671171091428
 30
0.0
 11
829.3858837078115
 21
1081.671171091428
 31
0.0
  0
ARC
  5
4AC
330
23
100
AcDbEntity
  8
SANINDUSA
100
AcDbCircle
 10
829.3858837078115
 20
1081.701171091428
 30
0.0
 40
0.0300000000000001
100
AcDbArc
 50
270.0
 51
0.0
  0
ARC
  5
4AD
330
23
100
AcDbEntity
  8
SANINDUSA
100
AcDbCircle
 10
828.8458837078115
 20
1081.701171091428
 30
0.0
 40
0.03
100
AcDbArc
 50
180.0
 51
270.0
  0
LINE
  5
4AF
330
23
100
AcDbEntity
  8
SANINDUSA
100
AcDbLine
 10
829.2903433435048
 20
1081.706756539736
 30
0.0
 11
828.8564240721182
 21
1081.706756539736
 31
0.0
  0
ARC
  5
4B1
330
23
100
AcDbEntity
  8
SANINDUSA
100
AcDbCircle
 10
829.2904718534545
 20
1081.711582945785
 30
0.0
 40
0.0048281166262021
100
AcDbArc
 50
268.4747784707765
 51
1.5252215290501
  0
ARC
  5
4B3
330
23
100
AcDbEntity
  8
SANINDUSA
100
AcDbCircle
 10
828.8562955621685
 20
1081.711582945785
 30
0.0
 40
0.0048281166262023
100
AcDbArc
 50
178.4747784709499
 51
271.5252215292235
  0
CIRCLE
  5
4B4
330
23
100
AcDbEntity
  8
SANINDUSA
100
AcDbCircle
 10
829.3558837078114
 20
1081.821171091428
 30
0.0
 40
0.0175
  0
LINE
  5
4B5
330
23
100
AcDbEntity
  8
SANINDUSA
100
AcDbLine
 10
829.2952982595034
 20
1081.711711455735
 30
0.0
 11
829.2952982595034
 21
1081.930630727121
 31
0.0
  0
LINE
  5
4B8
330
23
100
AcDbEntity
  8
SANINDUSA
100
AcDbLine
 10
828.8514691561196
 20
1081.930630727121
 30
0.0
 11
828.8514691561196
 21
1081.711711455735
 31
0.0
  0
ARC
  5
4BA
330
23
100
AcDbEntity
  8
SANINDUSA
100
AcDbCircle
 10
828.8562955621685
 20
1081.930759237071
 30
0.0
 40
0.0048281166262023
100
AcDbArc
 50
88.47477847077653
 51
181.5252215290501
  0
ARC
  5
4BB
330
23
100
AcDbEntity
  8
SANINDUSA
100
AcDbCircle
 10
829.2904718534545
 20
1081.930759237071
 30
0.0
 40
0.0048281166262021
100
AcDbArc
 50
358.4747784709499
 51
91.52522152922349
  0
LINE
  5
4BE
330
23
100
AcDbEntity
  8
SANINDUSA
100
AcDbLine
 10
829.2903433435048
 20
1081.93558564312
 30
0.0
 11
828.8564240721182
 21
1081.93558564312
 31
0.0
  0
LINE
  5
4C0
330
23
100
AcDbEntity
  8
SANINDUSA
100
AcDbLine
 10
828.8158837078114
 20
1081.701171091428
 30
0.0
 11
828.8158837078114
 21
1081.941171091428
 31
0.0
  0
LINE
  5
4C3
330
23
100
AcDbEntity
  8
SANINDUSA
100
AcDbLine
 10
829.4158837078114
 20
1081.941171091428
 30
0.0
 11
829.4158837078114
 21
1081.701171091428
 31
0.0
  0
ARC
  5
4D4
330
23
100
AcDbEntity
  8
SANINDUSA
100
AcDbCircle
 10
828.8458837078115
 20
1081.941171091428
 30
0.0
 40
0.03
100
AcDbArc
 50
90.0
 51
180.0
  0
ARC
  5
4D6
330
23
100
AcDbEntity
  8
SANINDUSA
100
AcDbCircle
 10
829.3858837078115
 20
1081.941171091428
 30
0.0
 40
0.03
100
AcDbArc
 50
0.0
 51
90.0
  0
LINE
  5
4DB
330
23
100
AcDbEntity
  8
SANINDUSA
100
AcDbLine
 10
828.8458837078115
 20
1081.971171091428
 30
0.0
 11
829.3858837078115
 21
1081.971171091428
 31
0.0
  0
LINE
  5
4DC
330
23
100
AcDbEntity
  8
SANINDUSA
100
AcDbLine
 10
830.1368701125179
 20
1081.924319002074
 30
0.0
 11
830.1368701125179
 21
1081.734319002074
 31
0.0
  0
ARC
  5
4DD
330
23
100
AcDbEntity
  8
SANINDUSA
100
AcDbCircle
 10
830.1418701125179
 20
1081.924319002074
 30
0.0
 40
0.005
100
AcDbArc
 50
90.0
 51
180.0
  0
LINE
  5
4DF
330
23
100
AcDbEntity
  8
SANINDUSA
100
AcDbLine
 10
830.1668701125178
 20
1081.929319002074
 30
0.0
 11
830.1418701125179
 21
1081.929319002074
 31
0.0
  0
ARC
  5
4E1
330
23
100
AcDbEntity
  8
SANINDUSA
100
AcDbCircle
 10
830.1418701125179
 20
1081.734319002074
 30
0.0
 40
0.005
100
AcDbArc
 50
180.0
 51
270.0
  0
LINE
  5
4E2
330
23
100
AcDbEntity
  8
SANINDUSA
100
AcDbLine
 10
830.1418701125179
 20
1081.729319002074
 30
0.0
 11
830.1668701125178
 21
1081.729319002074
 31
0.0
  0
LINE
  5
4E6
330
23
100
AcDbEntity
  8
SANINDUSA
100
AcDbLine
 10
830.1668701125178
 20
1081.729319002074
 30
0.0
 11
830.7068701125178
 21
1081.729319002074
 31
0.0
  0
LINE
  5
4E8
330
23
100
AcDbEntity
  8
SANINDUSA
100
AcDbLine
 10
830.7068701125178
 20
1081.729319002074
 30
0.0
 11
830.7318701125179
 21
1081.729319002074
 31
0.0
  0
ARC
  5
4E9
330
23
100
AcDbEntity
  8
SANINDUSA
100
AcDbCircle
 10
830.7318701125179
 20
1081.734319002074
 30
0.0
 40
0.005
100
AcDbArc
 50
270.0
 51
0.0
  0
LINE
  5
4EC
330
23
100
AcDbEntity
  8
SANINDUSA
100
AcDbLine
 10
830.7068701125178
 20
1081.929319002074
 30
0.0
 11
830.1668701125178
 21
1081.929319002074
 31
0.0
  0
ARC
  5
4ED
330
23
100
AcDbEntity
  8
SANINDUSA
100
AcDbCircle
 10
830.7318701125179
 20
1081.924319002074
 30
0.0
 40
0.005
100
AcDbArc
 50
0.0
 51
90.0
  0
LINE
  5
4EE
330
23
100
AcDbEntity
  8
SANINDUSA
100
AcDbLine
 10
830.7318701125179
 20
1081.929319002074
 30
0.0
 11
830.7068701125178
 21
1081.929319002074
 31
0.0
  0
LINE
  5
4F2
330
23
100
AcDbEntity
  8
SANINDUSA
100
AcDbLine
 10
830.7368701125179
 20
1081.734319002074
 30
0.0
 11
830.7368701125179
 21
1081.924319002074
 31
0.0
  0
LWPOLYLINE
  5
583
330
23
100
AcDbEntity
  8
SANINDUSA
100
AcDbPolyline
 90
        3
 70
   128
 43
0.0
 10
831.1316977799913
 20
1081.755499648403
 10
831.0518930546665
 20
1081.756804574795
 10
830.9720989810667
 20
1081.759369251289
  0
LWPOLYLINE
  5
584
330
23
100
AcDbEntity
  8
SANINDUSA
100
AcDbPolyline
 90
        4
 70
   128
 43
0.0
 10
831.3714861518326
 20
1081.759161167221
 10
831.3200238830894
 20
1081.757416429894
 10
831.2685411929718
 20
1081.756195384063
 10
831.2171559541969
 20
1081.755499648403
  0
ARC
  5
585
330
23
100
AcDbEntity
  8
SANINDUSA
100
AcDbCircle
 10
831.2171982298201
 20
1081.75049982713
 30
0.0
 40
0.0049999999999999
100
AcDbArc
 50
90.48444873037711
 51
175.0000000042766
  0
ARC
  5
586
330
23
100
AcDbEntity
  8
SANINDUSA
100
AcDbCircle
 10
831.1316555043681
 20
1081.75049982713
 30
0.0
 40
0.0050000000000002
100
AcDbArc
 50
4.999999995723404
 51
89.51555126962288
  0
LINE
  5
587
330
23
100
AcDbEntity
  8
SANINDUSA
100
AcDbLine
 10
831.2114742765952
 20
1081.742443308622
 30
0.0
 11
831.2122172563295
 21
1081.750935605843
 31
0.0
  0
LINE
  5
588
330
23
100
AcDbEntity
  8
SANINDUSA
100
AcDbLine
 10
831.1366364778585
 20
1081.750935605843
 30
0.0
 11
831.1373794575928
 21
1081.742443308622
 31
0.0
  0
ARC
  5
589
330
23
100
AcDbEntity
  8
SANINDUSA
100
AcDbCircle
 10
831.174426867094
 20
1080.407127401845
 30
0.0
 40
1.358777377368414
100
AcDbArc
 50
88.50669633158942
 51
91.49330366841059
  0
LINE
  5
58A
330
23
100
AcDbEntity
  8
SANINDUSA
100
AcDbLine
 10
831.2098367619384
 20
1081.765443307883
 30
0.0
 11
831.1979586010679
 21
1081.755117689495
 31
0.0
  0
LINE
  5
58C
330
23
100
AcDbEntity
  8
SANINDUSA
100
AcDbLine
 10
831.1508951331203
 20
1081.755117689495
 30
0.0
 11
831.1390169722498
 21
1081.765443307883
 31
0.0
  0
LWPOLYLINE
  5
58D
330
23
100
AcDbEntity
  8
SANINDUSA
100
AcDbPolyline
 90
        3
 70
   128
 43
0.0
 10
831.1390169722498
 20
1081.765443307883
 10
831.0583825800687
 20
1081.766654027939
 10
830.9777572366812
 20
1081.769153572813
  0
LWPOLYLINE
  5
591
330
23
100
AcDbEntity
  8
SANINDUSA
100
AcDbPolyline
 90
        3
 70
   128
 43
0.0
 10
831.3710964975069
 20
1081.769153572813
 10
831.2904917401427
 20
1081.766654501643
 10
831.2098367619384
 20
1081.765443307883
  0
ARC
  5
592
330
23
100
AcDbEntity
  8
SANINDUSA
100
AcDbCircle
 10
831.3709016703443
 20
1081.774149775609
 30
0.0
 40
0.0150000000000002
100
AcDbArc
 50
272.2331201658298
 51
352.3000000039478
  0
LINE
  5
593
330
23
100
AcDbEntity
  8
SANINDUSA
100
AcDbLine
 10
831.2114742765952
 20
1081.742443308622
 30
0.0
 11
831.1979586010679
 21
1081.742443308622
 31
0.0
  0
LINE
  5
594
330
23
100
AcDbEntity
  8
SANINDUSA
100
AcDbLine
 10
831.1979586010679
 20
1081.755117689495
 30
0.0
 11
831.1979586010679
 21
1081.742443308622
 31
0.0
  0
ARC
  5
595
330
23
100
AcDbEntity
  8
SANINDUSA
100
AcDbCircle
 10
831.3709016703443
 20
1081.774149775609
 30
0.0
 40
0.0050000000000005
100
AcDbArc
 50
272.2331201658298
 51
352.3000000039478
  0
LINE
  5
596
330
23
100
AcDbEntity
  8
SANINDUSA
100
AcDbLine
 10
831.3758565863428
 20
1081.773479844682
 30
0.0
 11
831.396341418786
 21
1081.924988933001
 31
0.0
  0
ARC
  5
597
330
23
100
AcDbEntity
  8
SANINDUSA
100
AcDbCircle
 10
831.4012963347845
 20
1081.924319002074
 30
0.0
 40
0.005
100
AcDbArc
 50
90.0
 51
172.3000000039478
  0
LINE
  5
598
330
23
100
AcDbEntity
  8
SANINDUSA
100
AcDbLine
 10
831.4012963347845
 20
1081.929319002074
 30
0.0
 11
831.4384268670941
 21
1081.929319002074
 31
0.0
  0
ARC
  5
599
330
23
100
AcDbEntity
  8
SANINDUSA
100
AcDbCircle
 10
831.4384268670941
 20
1081.928319002074
 30
0.0
 40
0.0010000000000002
100
AcDbArc
 50
0.0
 51
90.0
  0
LINE
  5
59A
330
23
100
AcDbEntity
  8
SANINDUSA
100
AcDbLine
 10
831.4394268670941
 20
1081.928319002074
 30
0.0
 11
831.4394268670941
 21
1081.918319002074
 31
0.0
  0
ARC
  5
59B
330
23
100
AcDbEntity
  8
SANINDUSA
100
AcDbCircle
 10
831.4384268670941
 20
1081.918319002074
 30
0.0
 40
0.0009999999999999
100
AcDbArc
 50
270.0
 51
0.0
  0
LINE
  5
59C
330
23
100
AcDbEntity
  8
SANINDUSA
100
AcDbLine
 10
831.4384268670941
 20
1081.917319002074
 30
0.0
 11
831.4097648595559
 21
1081.917319002074
 31
0.0
  0
ARC
  5
59D
330
23
100
AcDbEntity
  8
SANINDUSA
100
AcDbCircle
 10
831.4097648595559
 20
1081.912319002074
 30
0.0
 40
0.005
100
AcDbArc
 50
90.0
 51
172.3000000039478
  0
LINE
  5
59E
330
23
100
AcDbEntity
  8
SANINDUSA
100
AcDbLine
 10
831.4048099435575
 20
1081.912988933001
 30
0.0
 11
831.38576641834
 21
1081.772139982828
 31
0.0
  0
ARC
  5
5A0
330
23
100
AcDbEntity
  8
SANINDUSA
100
AcDbCircle
 10
830.9534904623012
 20
1081.734319002074
 30
0.0
 40
0.005
100
AcDbArc
 50
270.0
 51
339.0000000018762
  0
LINE
  5
5A1
330
23
100
AcDbEntity
  8
SANINDUSA
100
AcDbLine
 10
830.94981361844
 20
1081.729319002074
 30
0.0
 11
830.9534904623012
 21
1081.729319002074
 31
0.0
  0
ARC
  5
5A2
330
23
100
AcDbEntity
  8
SANINDUSA
100
AcDbCircle
 10
830.94981361844
 20
1081.734319002074
 30
0.0
 40
0.005
100
AcDbArc
 50
210.0000000059766
 51
270.0
  0
ARC
  5
5A4
330
23
100
AcDbEntity
  8
SANINDUSA
100
AcDbCircle
 10
830.9412110994291
 20
1081.729419002074
 30
0.0
 40
0.0049
100
AcDbArc
 50
30.00000000597667
 51
90.0
  0
ARC
  5
5A5
330
23
100
AcDbEntity
  8
SANINDUSA
100
AcDbCircle
 10
830.9412110994291
 20
1081.729419002074
 30
0.0
 40
0.0149
100
AcDbArc
 50
50.58136047348589
 51
90.0
  0
LINE
  5
5A6
330
23
100
AcDbEntity
  8
SANINDUSA
100
AcDbLine
 10
830.9327003697861
 20
1081.734319002074
 30
0.0
 11
830.9412110994291
 21
1081.734319002074
 31
0.0
  0
ARC
  5
5A7
330
23
100
AcDbEntity
  8
SANINDUSA
100
AcDbCircle
 10
830.9327003697861
 20
1081.729319002074
 30
0.0
 40
0.0050000000000002
100
AcDbArc
 50
90.0
 51
149.9999999940233
  0
ARC
  5
5A8
330
23
100
AcDbEntity
  8
SANINDUSA
100
AcDbCircle
 10
830.9327003697861
 20
1081.729319002074
 30
0.0
 40
0.0150000000000002
100
AcDbArc
 50
90.0
 51
112.6375434245383
  0
ARC
  5
5A9
330
23
100
AcDbEntity
  8
SANINDUSA
100
AcDbCircle
 10
830.9240401157481
 20
1081.734319002074
 30
0.0
 40
0.005
100
AcDbArc
 50
270.0
 51
329.9999999940233
  0
LINE
  5
5AA
330
23
100
AcDbEntity
  8
SANINDUSA
100
AcDbLine
 10
830.9219268670942
 20
1081.729319002074
 30
0.0
 11
830.9240401157481
 21
1081.729319002074
 31
0.0
  0
ARC
  5
5AB
330
23
100
AcDbEntity
  8
SANINDUSA
100
AcDbCircle
 10
830.9219268670942
 20
1081.734319002074
 30
0.0
 40
0.005
100
AcDbArc
 50
180.0
 51
270.0
  0
LINE
  5
5AC
330
23
100
AcDbEntity
  8
SANINDUSA
100
AcDbLine
 10
830.9169268670942
 20
1081.924319002074
 30
0.0
 11
830.9169268670942
 21
1081.734319002074
 31
0.0
  0
ARC
  5
5AD
330
23
100
AcDbEntity
  8
SANINDUSA
100
AcDbCircle
 10
830.9219268670942
 20
1081.924319002074
 30
0.0
 40
0.005
100
AcDbArc
 50
90.0
 51
180.0
  0
LINE
  5
5AE
330
23
100
AcDbEntity
  8
SANINDUSA
100
AcDbLine
 10
830.9219268670942
 20
1081.929319002074
 30
0.0
 11
830.9475573994037
 21
1081.929319002074
 31
0.0
  0
ARC
  5
5AF
330
23
100
AcDbEntity
  8
SANINDUSA
100
AcDbCircle
 10
830.9475573994037
 20
1081.924319002074
 30
0.0
 40
0.005
100
AcDbArc
 50
7.699999996052231
 51
90.0
  0
LINE
  5
5B0
330
23
100
AcDbEntity
  8
SANINDUSA
100
AcDbLine
 10
830.9525123154022
 20
1081.924988933001
 30
0.0
 11
830.9729971478454
 21
1081.773479844682
 31
0.0
  0
ARC
  5
5B1
330
23
100
AcDbEntity
  8
SANINDUSA
100
AcDbCircle
 10
830.9779520638439
 20
1081.774149775609
 30
0.0
 40
0.0049999999999998
100
AcDbArc
 50
187.6999999960522
 51
267.7668798341702
  0
LINE
  5
5B2
330
23
100
AcDbEntity
  8
SANINDUSA
100
AcDbLine
 10
831.1508951331203
 20
1081.742443308622
 30
0.0
 11
831.1508951331203
 21
1081.755117689495
 31
0.0
  0
LINE
  5
5B3
330
23
100
AcDbEntity
  8
SANINDUSA
100
AcDbLine
 10
831.1508951331203
 20
1081.742443308622
 30
0.0
 11
831.1373794575928
 21
1081.742443308622
 31
0.0
  0
ARC
  5
5B4
330
23
100
AcDbEntity
  8
SANINDUSA
100
AcDbCircle
 10
830.9719000022235
 20
1081.754373212116
 30
0.0
 40
0.0050000000000001
100
AcDbArc
 50
87.71926814272541
 51
159.0000000018762
  0
ARC
  5
5B5
330
23
100
AcDbEntity
  8
SANINDUSA
100
AcDbCircle
 10
830.9719000022235
 20
1081.754373212116
 30
0.0
 40
0.0150000000000001
100
AcDbArc
 50
122.7566925407076
 51
159.0000000018762
  0
LINE
  5
5B6
330
23
100
AcDbEntity
  8
SANINDUSA
100
AcDbLine
 10
830.9269268670941
 20
1081.919319002074
 30
0.0
 11
830.9431879317132
 21
1081.919319002074
 31
0.0
  0
LINE
  5
5B7
330
23
100
AcDbEntity
  8
SANINDUSA
100
AcDbLine
 10
830.9269268670941
 20
1081.919319002074
 30
0.0
 11
830.9269268670941
 21
1081.743163375179
 31
0.0
  0
LINE
  5
5B8
330
23
100
AcDbEntity
  8
SANINDUSA
100
AcDbLine
 10
830.9327003697861
 20
1081.744319002074
 30
0.0
 11
830.9412110994291
 21
1081.744319002074
 31
0.0
  0
LINE
  5
5B9
330
23
100
AcDbEntity
  8
SANINDUSA
100
AcDbLine
 10
830.957896295826
 20
1081.759748731359
 30
0.0
 11
830.9506723292354
 21
1081.74092965499
 31
0.0
  0
LINE
  5
5BA
330
23
100
AcDbEntity
  8
SANINDUSA
100
AcDbLine
 10
830.9431879317132
 20
1081.919319002074
 30
0.0
 11
830.9637839116206
 21
1081.766987849381
 31
0.0
  0
LINE
  5
5BB
330
23
100
AcDbEntity
  8
SANINDUSA
100
AcDbLine
 10
830.9672321000912
 20
1081.756165051864
 30
0.0
 11
830.9581583644336
 21
1081.732527162326
 31
0.0
  0
LINE
  5
5BC
330
23
100
AcDbEntity
  8
SANINDUSA
100
AcDbLine
 10
831.506926867094
 20
1081.744319002074
 30
0.0
 11
831.506926867094
 21
1081.824183101683
 31
0.0
  0
LINE
  5
5BD
330
23
100
AcDbEntity
  8
SANINDUSA
100
AcDbLine
 10
831.4985120620692
 20
1081.811451669004
 30
0.0
 11
831.506926867094
 21
1081.824183101683
 31
0.0
  0
LINE
  5
5BE
330
23
100
AcDbEntity
  8
SANINDUSA
100
AcDbLine
 10
831.5005514228158
 20
1081.744319002074
 30
0.0
 11
831.4985120620692
 21
1081.811451669004
 31
0.0
  0
LINE
  5
5BF
330
23
100
AcDbEntity
  8
SANINDUSA
100
AcDbLine
 10
831.5005514228158
 20
1081.744319002074
 30
0.0
 11
831.506926867094
 21
1081.744319002074
 31
0.0
  0
LINE
  5
5C0
330
23
100
AcDbEntity
  8
SANINDUSA
100
AcDbLine
 10
831.506926867094
 20
1081.843822051692
 30
0.0
 11
831.506926867094
 21
1081.912319002074
 31
0.0
  0
ARC
  5
5C1
330
23
100
AcDbEntity
  8
SANINDUSA
100
AcDbCircle
 10
831.501926867094
 20
1081.912319002074
 30
0.0
 40
0.005
100
AcDbArc
 50
0.0
 51
90.0
  0
LINE
  5
5C2
330
23
100
AcDbEntity
  8
SANINDUSA
100
AcDbLine
 10
831.501926867094
 20
1081.917319002074
 30
0.0
 11
831.4754268670942
 21
1081.917319002074
 31
0.0
  0
ARC
  5
5C3
330
23
100
AcDbEntity
  8
SANINDUSA
100
AcDbCircle
 10
831.4754268670942
 20
1081.918319002074
 30
0.0
 40
0.0009999999999999
100
AcDbArc
 50
180.0
 51
270.0
  0
LINE
  5
5C4
330
23
100
AcDbEntity
  8
SANINDUSA
100
AcDbLine
 10
831.4744268670942
 20
1081.918319002074
 30
0.0
 11
831.4744268670942
 21
1081.928319002074
 31
0.0
  0
ARC
  5
5C5
330
23
100
AcDbEntity
  8
SANINDUSA
100
AcDbCircle
 10
831.4754268670942
 20
1081.928319002074
 30
0.0
 40
0.0010000000000002
100
AcDbArc
 50
90.0
 51
180.0
  0
LINE
  5
5C6
330
23
100
AcDbEntity
  8
SANINDUSA
100
AcDbLine
 10
831.4754268670942
 20
1081.929319002074
 30
0.0
 11
831.511926867094
 21
1081.929319002074
 31
0.0
  0
ARC
  5
5C7
330
23
100
AcDbEntity
  8
SANINDUSA
100
AcDbCircle
 10
831.511926867094
 20
1081.924319002074
 30
0.0
 40
0.005
100
AcDbArc
 50
0.0
 51
90.0
  0
LINE
  5
5C8
330
23
100
AcDbEntity
  8
SANINDUSA
100
AcDbLine
 10
831.516926867094
 20
1081.734319002074
 30
0.0
 11
831.516926867094
 21
1081.924319002074
 31
0.0
  0
ARC
  5
5C9
330
23
100
AcDbEntity
  8
SANINDUSA
100
AcDbCircle
 10
831.511926867094
 20
1081.734319002074
 30
0.0
 40
0.005
100
AcDbArc
 50
270.0
 51
0.0
  0
LINE
  5
5CA
330
23
100
AcDbEntity
  8
SANINDUSA
100
AcDbLine
 10
831.5098136184399
 20
1081.729319002074
 30
0.0
 11
831.511926867094
 21
1081.729319002074
 31
0.0
  0
ARC
  5
5CB
330
23
100
AcDbEntity
  8
SANINDUSA
100
AcDbCircle
 10
831.5098136184399
 20
1081.734319002074
 30
0.0
 40
0.0050000000000002
100
AcDbArc
 50
210.0000000059766
 51
270.0
  0
ARC
  5
5CC
330
23
100
AcDbEntity
  8
SANINDUSA
100
AcDbCircle
 10
831.5011533644021
 20
1081.729319002074
 30
0.0
 40
0.005
100
AcDbArc
 50
30.00000000597667
 51
90.0
  0
LINE
  5
5CD
330
23
100
AcDbEntity
  8
SANINDUSA
100
AcDbLine
 10
831.4957010066221
 20
1081.734319002074
 30
0.0
 11
831.5011533644021
 21
1081.734319002074
 31
0.0
  0
ARC
  5
5CE
330
23
100
AcDbEntity
  8
SANINDUSA
100
AcDbCircle
 10
831.4957010066221
 20
1081.739319002074
 30
0.0
 40
0.005
100
AcDbArc
 50
181.7400000060988
 51
270.0
  0
LINE
  5
5CF
330
23
100
AcDbEntity
  8
SANINDUSA
100
AcDbLine
 10
831.4907033120942
 20
1081.739167181768
 30
0.0
 11
831.4884685089856
 21
1081.812733515233
 31
0.0
  0
ARC
  5
5D0
330
23
100
AcDbEntity
  8
SANINDUSA
100
AcDbCircle
 10
831.4934662035136
 20
1081.812885335539
 30
0.0
 40
0.0050000000000001
100
AcDbArc
 50
146.5374011087595
 51
181.7400000060988
  0
LINE
  5
5D1
330
23
100
AcDbEntity
  8
SANINDUSA
100
AcDbLine
 10
831.5060980967626
 20
1081.841065089042
 30
0.0
 11
831.4892949738451
 21
1081.815642298189
 31
0.0
  0
ARC
  5
5D2
330
23
100
AcDbEntity
  8
SANINDUSA
100
AcDbCircle
 10
831.501926867094
 20
1081.843822051692
 30
0.0
 40
0.005
100
AcDbArc
 50
326.5374011087595
 51
0.0
  0
LINE
  5
5D3
330
23
100
AcDbEntity
  8
SANINDUSA
100
AcDbLine
 10
831.1508951331203
 20
1081.742443308622
 30
0.0
 11
831.1979586010679
 21
1081.742443308622
 31
0.0
  0
LINE
  5
5D6
330
23
100
AcDbEntity
  8
SANINDUSA
100
AcDbLine
 10
831.4754268670942
 20
1081.917319002074
 30
0.0
 11
831.4384268670941
 21
1081.917319002074
 31
0.0
  0
LINE
  5
5D8
330
23
100
AcDbEntity
  8
SANINDUSA
100
AcDbLine
 10
831.4384268670941
 20
1081.929319002074
 30
0.0
 11
831.4754268670942
 21
1081.929319002074
 31
0.0
  0
LINE
  5
613
330
23
100
AcDbEntity
  8
SANINDUSA
100
AcDbLine
 10
831.4871903363906
 20
1081.729319002074
 30
0.0
 11
831.0507755551439
 21
1081.729319002074
 31
0.0
  0
LINE
  5
616
330
23
100
AcDbEntity
  8
SANINDUSA
100
AcDbLine
 10
831.3913865027874
 20
1081.929319002074
 30
0.0
 11
831.4012963347845
 21
1081.929319002074
 31
0.0
  0
LINE
  5
618
330
23
100
AcDbEntity
  8
SANINDUSA
100
AcDbLine
 10
830.9475573994037
 20
1081.929319002074
 30
0.0
 11
830.9574672314008
 21
1081.929319002074
 31
0.0
  0
ELLIPSE
  5
61F
330
23
100
AcDbEntity
  8
SANINDUSA
100
AcDbEllipse
 10
831.3942671770567
 20
1081.797695670247
 30
0.0
 11
0.0049741950862742
 21
-0.000525446515536
 31
0.0
210
0.0
220
0.0
230
0.9999999999999998
 40
0.3455179739303516
 41
2.075199246902712
 42
3.131519614620153
  0
LINE
  5
623
330
23
100
AcDbEntity
  8
SANINDUSA
100
AcDbLine
 10
830.9574672314008
 20
1081.929319002074
 30
0.0
 11
831.3913865027874
 21
1081.929319002074
 31
0.0
  0
ELLIPSE
  5
62A
330
23
100
AcDbEntity
  8
SANINDUSA
100
AcDbEllipse
 10
831.4839230231333
 20
1081.797695670247
 30
0.0
 11
0.0049986745680357
 21
0.0001191442124824
 31
0.0
210
0.0
220
0.0
230
1.0
 40
0.3432412311925491
 41
0.0022441669332997
 42
1.169678610613676
  0
ARC
  5
634
330
23
100
AcDbEntity
  8
SANINDUSA
100
AcDbCircle
 10
831.4300406828946
 20
1081.871319002074
 30
0.0
 40
0.02
100
AcDbArc
 50
90.0
 51
168.2124899241539
  0
ARC
  5
637
330
23
100
AcDbEntity
  8
SANINDUSA
100
AcDbCircle
 10
831.4542643124985
 20
1081.871319002074
 30
0.0
 40
0.02
100
AcDbArc
 50
6.642917444755334
 51
90.0
  0
LINE
  5
639
330
23
100
AcDbEntity
  8
SANINDUSA
100
AcDbLine
 10
831.4542643124985
 20
1081.891319002074
 30
0.0
 11
831.4300406828946
 21
1081.891319002074
 31
0.0
  0
ARC
  5
63A
330
23
100
AcDbEntity
  8
SANINDUSA
100
AcDbCircle
 10
831.3617963139572
 20
1081.819404958642
 30
0.0
 40
0.0362164745845607
100
AcDbArc
 50
326.5730097001221
 51
349.9360833057108
  0
LINE
  5
63C
330
23
100
AcDbEntity
  8
SANINDUSA
100
AcDbLine
 10
831.4104624440217
 20
1081.875404655342
 30
0.0
 11
831.4084770361926
 21
1081.865890683847
 31
0.0
  0
LINE
  5
63F
330
23
100
AcDbEntity
  8
SANINDUSA
100
AcDbLine
 10
831.4805276464424
 20
1081.818700149667
 30
0.0
 11
831.4741300403618
 21
1081.873632626171
 31
0.0
  0
LINE
  5
640
330
23
100
AcDbEntity
  8
SANINDUSA
100
AcDbLine
 10
831.4084770361926
 20
1081.865890683847
 30
0.0
 11
831.3974555410711
 21
1081.813076250008
 31
0.0
  0
LWPOLYLINE
  5
642
330
23
100
AcDbEntity
  8
SANINDUSA
100
AcDbPolyline
 90
        5
 70
   128
 43
0.0
 10
831.4812740553579
 20
1081.812392510505
 10
831.482000868789
 20
1081.808471623013
 10
831.4836382892384
 20
1081.803228108832
 10
831.4845832220205
 20
1081.801218868705
 10
831.4858370943841
 20
1081.799321753551
  0
LINE
  5
643
330
23
100
AcDbEntity
  8
SANINDUSA
100
AcDbLine
 10
830.9468090368824
 20
1081.729319002074
 30
0.0
 11
830.9240401157481
 21
1081.729319002074
 31
0.0
  0
LINE
  5
644
330
23
100
AcDbEntity
  8
SANINDUSA
100
AcDbLine
 10
831.5098136184399
 20
1081.729319002074
 30
0.0
 11
831.4871903363906
 21
1081.729319002074
 31
0.0
  0
LWPOLYLINE
  5
647
330
23
100
AcDbEntity
  8
SANINDUSA
100
AcDbPolyline
 90
        3
 70
   128
 43
0.0
 10
831.4811400094294
 20
1081.813442149257
 10
831.4812039492609
 20
1081.812917431201
 10
831.4812740553579
 20
1081.812392510505
  0
LINE
  5
648
330
23
100
AcDbEntity
  8
SANINDUSA
100
AcDbLine
 10
831.4811400094294
 20
1081.813442149257
 30
0.0
 11
831.480629252227
 21
1081.81782772062
 31
0.0
  0
LINE
  5
649
330
23
100
AcDbEntity
  8
SANINDUSA
100
AcDbLine
 10
831.480629252227
 20
1081.81782772062
 30
0.0
 11
831.4805276464424
 21
1081.818700149667
 31
0.0
  0
LINE
  5
661
330
23
100
AcDbEntity
  8
SANINDUSA
100
AcDbLine
 10
831.0507755551439
 20
1081.729319002074
 30
0.0
 11
831.04641336151
 21
1081.729319002074
 31
0.0
  0
LINE
  5
663
330
23
100
AcDbEntity
  8
SANINDUSA
100
AcDbLine
 10
831.04641336151
 20
1081.729319002074
 30
0.0
 11
831.0403202008377
 21
1081.729319002074
 31
0.0
  0
LINE
  5
664
330
23
100
AcDbEntity
  8
SANINDUSA
100
AcDbLine
 10
831.0403202008377
 20
1081.729319002074
 30
0.0
 11
830.9534904623012
 21
1081.729319002074
 31
0.0
  0
LINE
  5
673
330
23
100
AcDbEntity
  8
SANINDUSA
100
AcDbLine
 10
830.9468090368824
 20
1081.729319002074
 30
0.0
 11
830.94981361844
 21
1081.729319002074
 31
0.0
  0
ENDSEC
  0
SECTION
  2
OBJECTS
  0
DICTIONARY
  5
C
330
0
100
AcDbDictionary
281
     1
  3
ACAD_COLOR
350
1C
  3
ACAD_GROUP
350
D
  3
ACAD_LAYOUT
350
1A
  3
ACAD_MATERIAL
350
1B
  3
ACAD_MLINESTYLE
350
17
  3
ACAD_PLOTSETTINGS
350
19
  3
ACAD_PLOTSTYLENAME
350
E
  3
ACAD_TABLESTYLE
350
1D
  3
ACDBHEADERROUNDTRIPXREC
350
9BC
  3
AcDbVariableDictionary
350
9AA
  0
DICTIONARY
  5
1C
102
{ACAD_REACTORS
330
C
102
}
330
C
100
AcDbDictionary
281
     1
  0
DICTIONARY
  5
D
102
{ACAD_REACTORS
330
C
102
}
330
C
100
AcDbDictionary
281
     1
  0
DICTIONARY
  5
1A
102
{ACAD_REACTORS
330
C
102
}
330
C
100
AcDbDictionary
281
     1
  3
Layout1
350
22
  3
Layout2
350
2A
  3
Model
350
26
  0
DICTIONARY
  5
1B
102
{ACAD_REACTORS
330
C
102
}
330
C
100
AcDbDictionary
281
     1
  0
DICTIONARY
  5
17
102
{ACAD_REACTORS
330
C
102
}
330
C
100
AcDbDictionary
281
     1
  3
Standard
350
18
  0
DICTIONARY
  5
19
102
{ACAD_REACTORS
330
C
102
}
330
C
100
AcDbDictionary
281
     1
  0
ACDBDICTIONARYWDFLT
  5
E
102
{ACAD_REACTORS
330
C
102
}
330
C
100
AcDbDictionary
281
     1
  3
Normal
350
F
100
AcDbDictionaryWithDefault
340
F
  0
DICTIONARY
  5
1D
102
{ACAD_REACTORS
330
C
102
}
330
C
100
AcDbDictionary
281
     1
  3
Standard
350
1E
  0
DICTIONARY
  5
9BC
102
{ACAD_REACTORS
330
C
102
}
330
C
100
AcDbDictionary
281
     1
  0
DICTIONARY
  5
9AA
102
{ACAD_REACTORS
330
C
102
}
330
C
100
AcDbDictionary
281
     1
  3
CTABLESTYLE
350
9AB
  3
DIMASSOC
350
9B5
  3
HIDETEXT
350
9B4
  3
PROJECTNAME
350
9B6
  0
LAYOUT
  5
22
102
{ACAD_XDICTIONARY
360
9BD
102
}
102
{ACAD_REACTORS
330
1A
102
}
330
1A
100
AcDbPlotSettings
  1

  2
C:\Documents and Settings\Julio\Application Data\Autodesk\AutoCAD 2006\R16.2\enu\plotters\Default Windows System Printer.pc3
  4

  6

 40
0.0
 41
0.0
 42
0.0
 43
0.0
 44
0.0
 45
0.0
 46
0.0
 47
0.0
 48
0.0
 49
0.0
140
0.0
141
0.0
142
1.0
143
1.0
 70
   688
 72
     0
 73
     0
 74
     5
  7

 75
    16
147
1.0
148
0.0
149
0.0
100
AcDbLayout
  1
Layout1
 70
     1
 71
     1
 10
0.0
 20
0.0
 11
420.0
 21
297.0
 12
0.0
 22
0.0
 32
0.0
 14
1.000000000000000E+20
 24
1.000000000000000E+20
 34
1.000000000000000E+20
 15
-1.000000000000000E+20
 25
-1.000000000000000E+20
 35
-1.000000000000000E+20
146
0.0
 13
0.0
 23
0.0
 33
0.0
 16
1.0
 26
0.0
 36
0.0
 17
0.0
 27
1.0
 37
0.0
 76
     0
330
1F
  0
LAYOUT
  5
2A
102
{ACAD_XDICTIONARY
360
9C1
102
}
102
{ACAD_REACTORS
330
1A
102
}
330
1A
100
AcDbPlotSettings
  1

  2
C:\Documents and Settings\Julio\Application Data\Autodesk\AutoCAD 2006\R16.2\enu\plotters\Default Windows System Printer.pc3
  4

  6

 40
0.0
 41
0.0
 42
0.0
 43
0.0
 44
0.0
 45
0.0
 46
0.0
 47
0.0
 48
0.0
 49
0.0
140
0.0
141
0.0
142
1.0
143
1.0
 70
   688
 72
     0
 73
     0
 74
     5
  7

 75
    16
147
1.0
148
0.0
149
0.0
100
AcDbLayout
  1
Layout2
 70
     1
 71
     2
 10
0.0
 20
0.0
 11
12.0
 21
9.0
 12
0.0
 22
0.0
 32
0.0
 14
0.0
 24
0.0
 34
0.0
 15
0.0
 25
0.0
 35
0.0
146
0.0
 13
0.0
 23
0.0
 33
0.0
 16
1.0
 26
0.0
 36
0.0
 17
0.0
 27
1.0
 37
0.0
 76
     0
330
27
  0
LAYOUT
  5
26
102
{ACAD_XDICTIONARY
360
9BF
102
}
102
{ACAD_REACTORS
330
1A
102
}
330
1A
100
AcDbPlotSettings
  1

  2
C:\Documents and Settings\Julio\Application Data\Autodesk\AutoCAD 2006\R16.2\enu\plotters\Default Windows System Printer.pc3
  4

  6

 40
0.0
 41
0.0
 42
0.0
 43
0.0
 44
0.0
 45
0.0
 46
0.0
 47
0.0
 48
0.0
 49
0.0
140
0.0
141
0.0
142
1.0
143
1.0
 70
  1712
 72
     0
 73
     0
 74
     0
  7

 75
     0
147
1.0
148
0.0
149
0.0
100
AcDbLayout
  1
Model
 70
     1
 71
     0
 10
0.0
 20
0.0
 11
12.0
 21
9.0
 12
0.0
 22
0.0
 32
0.0
 14
0.0
 24
0.0
 34
0.0
 15
0.0
 25
0.0
 35
0.0
146
0.0
 13
0.0
 23
0.0
 33
0.0
 16
1.0
 26
0.0
 36
0.0
 17
0.0
 27
1.0
 37
0.0
 76
     0
330
23
  0
MLINESTYLE
  5
18
102
{ACAD_REACTORS
330
17
102
}
330
17
100
AcDbMlineStyle
  2
STANDARD
 70
     0
  3

 62
   256
 51
90.0
 52
90.0
 71
     2
 49
0.5
 62
   256
  6
BYLAYER
 49
-0.5
 62
   256
  6
BYLAYER
  0
ACDBPLACEHOLDER
  5
F
102
{ACAD_REACTORS
330
E
102
}
330
E
  0
TABLESTYLE
  5
1E
102
{ACAD_REACTORS
330
1D
102
}
330
1D
100
AcDbTableStyle
  3
Standard
 70
     0
 71
     0
 40
1.5
 41
1.5
280
     0
281
     0
  7
Standard
140
4.5
170
     2
 62
     0
 63
     7
283
     0
274
    -2
284
     1
 64
     0
275
    -2
285
     1
 65
     0
276
    -2
286
     1
 66
     0
277
    -2
287
     1
 67
     0
278
    -2
288
     1
 68
     0
279
    -2
289
     1
 69
     0
  7
Standard
140
6.0
170
     5
 62
     0
 63
     7
283
     0
274
    -2
284
     1
 64
     0
275
    -2
285
     1
 65
     0
276
    -2
286
     1
 66
     0
277
    -2
287
     1
 67
     0
278
    -2
288
     1
 68
     0
279
    -2
289
     1
 69
     0
  7
Standard
140
4.5
170
     5
 62
     0
 63
     7
283
     0
274
    -2
284
     1
 64
     0
275
    -2
285
     1
 65
     0
276
    -2
286
     1
 66
     0
277
    -2
287
     1
 67
     0
278
    -2
288
     1
 68
     0
279
    -2
289
     1
 69
     0
  0
DICTIONARYVAR
  5
9AB
102
{ACAD_REACTORS
330
9AA
102
}
330
9AA
100
DictionaryVariables
280
     0
  1
STANDARD
  0
DICTIONARYVAR
  5
9B5
102
{ACAD_REACTORS
330
9AA
102
}
330
9AA
100
DictionaryVariables
280
     0
  1
2
  0
DICTIONARYVAR
  5
9B4
102
{ACAD_REACTORS
330
9AA
102
}
330
9AA
100
DictionaryVariables
280
     0
  1
1
  0
DICTIONARYVAR
  5
9B6
102
{ACAD_REACTORS
330
9AA
102
}
330
9AA
100
DictionaryVariables
280
     0
  1

  0
DICTIONARY
  5
9BD
330
22
100
AcDbDictionary
280
     1
281
     1
  3
ACAD_XREC_ROUNDTRIP
360
9BE
  0
DICTIONARY
  5
9C1
330
2A
100
AcDbDictionary
280
     1
281
     1
  3
ACAD_XREC_ROUNDTRIP
360
9C2
  0
DICTIONARY
  5
9BF
330
26
100
AcDbDictionary
280
     1
281
     1
  3
ACAD_XREC_ROUNDTRIP
360
9C0
  0
XRECORD
  5
9BE
102
{ACAD_REACTORS
330
9BD
102
}
330
9BD
100
AcDbXrecord
280
     1
102
SHADEPLOT
 70
     0
102
SHADEPLOTRESLEVEL
 70
     2
102
SHADEPLOTCUSTOMDPI
 70
   300
  0
XRECORD
  5
9C2
102
{ACAD_REACTORS
330
9C1
102
}
330
9C1
100
AcDbXrecord
280
     1
102
SHADEPLOT
 70
     0
102
SHADEPLOTRESLEVEL
 70
     2
102
SHADEPLOTCUSTOMDPI
 70
   300
  0
XRECORD
  5
9C0
102
{ACAD_REACTORS
330
9BF
102
}
330
9BF
100
AcDbXrecord
280
     1
102
SHADEPLOT
 70
     0
102
SHADEPLOTRESLEVEL
 70
     2
102
SHADEPLOTCUSTOMDPI
 70
   300
  0
ENDSEC
  0
EOF
