  0
SECTION
  2
HEADER
  9
$ACADVER
  1
AC1015
  9
$ACADMAINTVER
 70
    20
  9
$DWGCODEPAGE
  3
ANSI_1252
  9
$INSBASE
 10
0.0
 20
0.0
 30
0.0
  9
$EXTMIN
 10
794.957113948461
 20
661.0037930816822
 30
0.0
  9
$EXTMAX
 10
797.7983829353645
 20
661.4192183490508
 30
0.0
  9
$LIMMIN
 10
0.0
 20
0.0
  9
$LIMMAX
 10
420.0
 20
297.0
  9
$ORTHOMODE
 70
     1
  9
$REGENMODE
 70
     1
  9
$FILLMODE
 70
     1
  9
$QTEXTMODE
 70
     0
  9
$MIRRTEXT
 70
     1
  9
$LTSCALE
 40
1.0
  9
$ATTMODE
 70
     1
  9
$TEXTSIZE
 40
2.5
  9
$TRACEWID
 40
1.0
  9
$TEXTSTYLE
  7
SANINDUSA
  9
$CLAYER
  8
0
  9
$CELTYPE
  6
ByLayer
  9
$CECOLOR
 62
   256
  9
$CELTSCALE
 40
1.0
  9
$DISPSILH
 70
     0
  9
$DIMSCALE
 40
1.0
  9
$DIMASZ
 40
2.0
  9
$DIMEXO
 40
1.0
  9
$DIMDLI
 40
1.0
  9
$DIMRND
 40
0.0
  9
$DIMDLE
 40
0.0
  9
$DIMEXE
 40
1.0
  9
$DIMTP
 40
0.0
  9
$DIMTM
 40
0.0
  9
$DIMTXT
 40
2.0
  9
$DIMCEN
 40
0.0
  9
$DIMTSZ
 40
0.0
  9
$DIMTOL
 70
     0
  9
$DIMLIM
 70
     0
  9
$DIMTIH
 70
     0
  9
$DIMTOH
 70
     0
  9
$DIMSE1
 70
     0
  9
$DIMSE2
 70
     0
  9
$DIMTAD
 70
     1
  9
$DIMZIN
 70
     8
  9
$DIMBLK
  1

  9
$DIMASO
 70
     1
  9
$DIMSHO
 70
     1
  9
$DIMPOST
  1

  9
$DIMAPOST
  1

  9
$DIMALT
 70
     0
  9
$DIMALTD
 70
     3
  9
$DIMALTF
 40
0.03937007874016
  9
$DIMLFAC
 40
1.0
  9
$DIMTOFL
 70
     1
  9
$DIMTVP
 40
0.0
  9
$DIMTIX
 70
     0
  9
$DIMSOXD
 70
     0
  9
$DIMSAH
 70
     0
  9
$DIMBLK1
  1

  9
$DIMBLK2
  1

  9
$DIMSTYLE
  2
SANINDUSA
  9
$DIMCLRD
 70
   256
  9
$DIMCLRE
 70
   256
  9
$DIMCLRT
 70
   256
  9
$DIMTFAC
 40
1.0
  9
$DIMGAP
 40
1.0
  9
$DIMJUST
 70
     0
  9
$DIMSD1
 70
     0
  9
$DIMSD2
 70
     0
  9
$DIMTOLJ
 70
     0
  9
$DIMTZIN
 70
     8
  9
$DIMALTZ
 70
     0
  9
$DIMALTTZ
 70
     0
  9
$DIMUPT
 70
     0
  9
$DIMDEC
 70
     1
  9
$DIMTDEC
 70
     1
  9
$DIMALTU
 70
     2
  9
$DIMALTTD
 70
     3
  9
$DIMTXSTY
  7
SANINDUSA
  9
$DIMAUNIT
 70
     0
  9
$DIMADEC
 70
     1
  9
$DIMALTRND
 40
0.0
  9
$DIMAZIN
 70
     0
  9
$DIMDSEP
 70
    44
  9
$DIMATFIT
 70
     3
  9
$DIMFRAC
 70
     0
  9
$DIMLDRBLK
  1

  9
$DIMLUNIT
 70
     2
  9
$DIMLWD
 70
    -1
  9
$DIMLWE
 70
    -1
  9
$DIMTMOVE
 70
     0
  9
$LUNITS
 70
     2
  9
$LUPREC
 70
     4
  9
$SKETCHINC
 40
1.0
  9
$FILLETRAD
 40
0.0
  9
$AUNITS
 70
     0
  9
$AUPREC
 70
     0
  9
$MENU
  1
.
  9
$ELEVATION
 40
0.0
  9
$PELEVATION
 40
0.0
  9
$THICKNESS
 40
0.0
  9
$LIMCHECK
 70
     0
  9
$CHAMFERA
 40
10.0
  9
$CHAMFERB
 40
10.0
  9
$CHAMFERC
 40
20.0
  9
$CHAMFERD
 40
0.0
  9
$SKPOLY
 70
     0
  9
$TDCREATE
 40
2453913.434983542
  9
$TDUCREATE
 40
2453913.393316875
  9
$TDUPDATE
 40
2456146.731728507
  9
$TDUUPDATE
 40
2456146.690061840
  9
$TDINDWG
 40
0.0052537153
  9
$TDUSRTIMER
 40
0.0052537153
  9
$USRTIMER
 70
     1
  9
$ANGBASE
 50
0.0
  9
$ANGDIR
 70
     0
  9
$PDMODE
 70
     0
  9
$PDSIZE
 40
0.0
  9
$PLINEWID
 40
0.0
  9
$SPLFRAME
 70
     0
  9
$SPLINETYPE
 70
     6
  9
$SPLINESEGS
 70
     8
  9
$HANDSEED
  5
149A
  9
$SURFTAB1
 70
     6
  9
$SURFTAB2
 70
     6
  9
$SURFTYPE
 70
     6
  9
$SURFU
 70
     6
  9
$SURFV
 70
     6
  9
$UCSBASE
  2

  9
$UCSNAME
  2

  9
$UCSORG
 10
0.0
 20
0.0
 30
0.0
  9
$UCSXDIR
 10
1.0
 20
0.0
 30
0.0
  9
$UCSYDIR
 10
0.0
 20
1.0
 30
0.0
  9
$UCSORTHOREF
  2

  9
$UCSORTHOVIEW
 70
     0
  9
$UCSORGTOP
 10
0.0
 20
0.0
 30
0.0
  9
$UCSORGBOTTOM
 10
0.0
 20
0.0
 30
0.0
  9
$UCSORGLEFT
 10
0.0
 20
0.0
 30
0.0
  9
$UCSORGRIGHT
 10
0.0
 20
0.0
 30
0.0
  9
$UCSORGFRONT
 10
0.0
 20
0.0
 30
0.0
  9
$UCSORGBACK
 10
0.0
 20
0.0
 30
0.0
  9
$PUCSBASE
  2

  9
$PUCSNAME
  2

  9
$PUCSORG
 10
0.0
 20
0.0
 30
0.0
  9
$PUCSXDIR
 10
1.0
 20
0.0
 30
0.0
  9
$PUCSYDIR
 10
0.0
 20
1.0
 30
0.0
  9
$PUCSORTHOREF
  2

  9
$PUCSORTHOVIEW
 70
     0
  9
$PUCSORGTOP
 10
0.0
 20
0.0
 30
0.0
  9
$PUCSORGBOTTOM
 10
0.0
 20
0.0
 30
0.0
  9
$PUCSORGLEFT
 10
0.0
 20
0.0
 30
0.0
  9
$PUCSORGRIGHT
 10
0.0
 20
0.0
 30
0.0
  9
$PUCSORGFRONT
 10
0.0
 20
0.0
 30
0.0
  9
$PUCSORGBACK
 10
0.0
 20
0.0
 30
0.0
  9
$USERI1
 70
     0
  9
$USERI2
 70
     0
  9
$USERI3
 70
     0
  9
$USERI4
 70
     0
  9
$USERI5
 70
     0
  9
$USERR1
 40
0.0
  9
$USERR2
 40
0.0
  9
$USERR3
 40
0.0
  9
$USERR4
 40
0.0
  9
$USERR5
 40
0.0
  9
$WORLDVIEW
 70
     1
  9
$SHADEDGE
 70
     3
  9
$SHADEDIF
 70
    70
  9
$TILEMODE
 70
     1
  9
$MAXACTVP
 70
    64
  9
$PINSBASE
 10
0.0
 20
0.0
 30
0.0
  9
$PLIMCHECK
 70
     0
  9
$PEXTMIN
 10
1.000000000000000E+20
 20
1.000000000000000E+20
 30
1.000000000000000E+20
  9
$PEXTMAX
 10
-1.000000000000000E+20
 20
-1.000000000000000E+20
 30
-1.000000000000000E+20
  9
$PLIMMIN
 10
0.0
 20
0.0
  9
$PLIMMAX
 10
420.0
 20
297.0
  9
$UNITMODE
 70
     0
  9
$VISRETAIN
 70
     1
  9
$PLINEGEN
 70
     0
  9
$PSLTSCALE
 70
     1
  9
$TREEDEPTH
 70
  3020
  9
$CMLSTYLE
  2
Standard
  9
$CMLJUST
 70
     0
  9
$CMLSCALE
 40
20.0
  9
$PROXYGRAPHICS
 70
     1
  9
$MEASUREMENT
 70
     1
  9
$CELWEIGHT
370
    -1
  9
$ENDCAPS
280
     0
  9
$JOINSTYLE
280
     0
  9
$LWDISPLAY
290
     0
  9
$INSUNITS
 70
     4
  9
$HYPERLINKBASE
  1

  9
$STYLESHEET
  1
monochrome.ctb
  9
$XEDIT
290
     1
  9
$CEPSNTYPE
380
     0
  9
$PSTYLEMODE
290
     1
  9
$FINGERPRINTGUID
  2
{45CE1AAB-A065-4631-98F0-4CC114B4327E}
  9
$VERSIONGUID
  2
{EC1E9801-F118-41E4-AB72-5CCCA67AB99D}
  9
$EXTNAMES
290
     1
  9
$PSVPSCALE
 40
0.0
  9
$OLESTARTUP
290
     0
  0
ENDSEC
  0
SECTION
  2
CLASSES
  0
CLASS
  1
ACDBDICTIONARYWDFLT
  2
AcDbDictionaryWithDefault
  3
ObjectDBX Classes
 90
        0
280
     0
281
     0
  0
CLASS
  1
ACDBPLACEHOLDER
  2
AcDbPlaceHolder
  3
ObjectDBX Classes
 90
        0
280
     0
281
     0
  0
CLASS
  1
LAYOUT
  2
AcDbLayout
  3
ObjectDBX Classes
 90
        0
280
     0
281
     0
  0
CLASS
  1
DICTIONARYVAR
  2
AcDbDictionaryVar
  3
ObjectDBX Classes
 90
        0
280
     0
281
     0
  0
CLASS
  1
DIMASSOC
  2
AcDbDimAssoc
  3
"AcDbDimAssoc|Product Desc:     AcDim ARX App For Dimension|Company:          Autodesk, Inc.|WEB Address:      www.autodesk.com"
 90
    32768
280
     0
281
     0
  0
CLASS
  1
TABLESTYLE
  2
AcDbTableStyle
  3
ObjectDBX Classes
 90
     4095
280
     0
281
     0
  0
CLASS
  1
SORTENTSTABLE
  2
AcDbSortentsTable
  3
ObjectDBX Classes
 90
        0
280
     0
281
     0
  0
CLASS
  1
MATERIAL
  2
AcDbMaterial
  3
ObjectDBX Classes
 90
     1153
280
     0
281
     0
  0
CLASS
  1
VISUALSTYLE
  2
AcDbVisualStyle
  3
ObjectDBX Classes
 90
     4095
280
     0
281
     0
  0
CLASS
  1
SCALE
  2
AcDbScale
  3
ObjectDBX Classes
 90
     1153
280
     0
281
     0
  0
CLASS
  1
MLEADERSTYLE
  2
AcDbMLeaderStyle
  3
ACDB_MLEADERSTYLE_CLASS
 90
     4095
280
     0
281
     0
  0
CLASS
  1
CELLSTYLEMAP
  2
AcDbCellStyleMap
  3
ObjectDBX Classes
 90
     1152
280
     0
281
     0
  0
ENDSEC
  0
SECTION
  2
TABLES
  0
TABLE
  2
VPORT
  5
8
330
0
100
AcDbSymbolTable
 70
     1
  0
VPORT
  5
13D5
330
8
100
AcDbSymbolTableRecord
100
AcDbViewportTableRecord
  2
*Active
 70
     0
 10
0.0
 20
0.0
 11
1.0
 21
1.0
 12
796.4238302010901
 22
661.2115874368141
 13
0.0
 23
0.0
 14
10.0
 24
10.0
 15
10.0
 25
10.0
 16
0.0
 26
0.0
 36
1.0
 17
0.0
 27
0.0
 37
0.0
 40
1.789297579041184
 41
1.645464025026068
 42
50.0
 43
0.0
 44
0.0
 50
0.0
 51
0.0
 71
     0
 72
   100
 73
     1
 74
     2
 75
     0
 76
     0
 77
     0
 78
     0
281
     0
 65
     1
110
0.0
120
0.0
130
0.0
111
1.0
121
0.0
131
0.0
112
0.0
122
1.0
132
0.0
 79
     0
146
0.0
  0
ENDTAB
  0
TABLE
  2
LTYPE
  5
5
330
0
100
AcDbSymbolTable
 70
     3
  0
LTYPE
  5
14
330
5
100
AcDbSymbolTableRecord
100
AcDbLinetypeTableRecord
  2
ByBlock
 70
     0
  3

 72
    65
 73
     0
 40
0.0
  0
LTYPE
  5
15
330
5
100
AcDbSymbolTableRecord
100
AcDbLinetypeTableRecord
  2
ByLayer
 70
     0
  3

 72
    65
 73
     0
 40
0.0
  0
LTYPE
  5
16
330
5
100
AcDbSymbolTableRecord
100
AcDbLinetypeTableRecord
  2
Continuous
 70
     0
  3
Solid line
 72
    65
 73
     0
 40
0.0
  0
LTYPE
  5
2D
330
5
100
AcDbSymbolTableRecord
100
AcDbLinetypeTableRecord
  2
DASHDOT
 70
     0
  3
Dash dot __ . __ . __ . __ . __ . __ . __ . __
 72
    65
 73
     4
 40
25.4
 49
12.7
 74
     0
 49
-6.349999999999999
 74
     0
 49
0.0
 74
     0
 49
-6.349999999999999
 74
     0
  0
LTYPE
  5
2E
330
5
100
AcDbSymbolTableRecord
100
AcDbLinetypeTableRecord
  2
HIDDEN
 70
     0
  3
Hidden __ __ __ __ __ __ __ __ __ __ __ __ __ _
 72
    65
 73
     2
 40
9.524999999999998
 49
6.349999999999999
 74
     0
 49
-3.174999999999999
 74
     0
  0
ENDTAB
  0
TABLE
  2
LAYER
  5
2
330
0
100
AcDbSymbolTable
 70
    16
  0
LAYER
  5
10
102
{ACAD_XDICTIONARY
360
1424
102
}
330
2
100
AcDbSymbolTableRecord
100
AcDbLayerTableRecord
  2
0
 70
     0
 62
     7
  6
Continuous
370
    -3
390
F
  0
LAYER
  5
2F
102
{ACAD_XDICTIONARY
360
1426
102
}
330
2
100
AcDbSymbolTableRecord
100
AcDbLayerTableRecord
  2
1
 70
     0
 62
     1
  6
Continuous
370
    -3
390
F
  0
LAYER
  5
30
102
{ACAD_XDICTIONARY
360
1428
102
}
330
2
100
AcDbSymbolTableRecord
100
AcDbLayerTableRecord
  2
2
 70
     0
 62
     2
  6
Continuous
370
    -3
390
F
  0
LAYER
  5
31
102
{ACAD_XDICTIONARY
360
142A
102
}
330
2
100
AcDbSymbolTableRecord
100
AcDbLayerTableRecord
  2
3
 70
     0
 62
     3
  6
Continuous
370
    -3
390
F
  0
LAYER
  5
32
102
{ACAD_XDICTIONARY
360
142C
102
}
330
2
100
AcDbSymbolTableRecord
100
AcDbLayerTableRecord
  2
4
 70
     0
 62
     4
  6
Continuous
370
    -3
390
F
  0
LAYER
  5
33
102
{ACAD_XDICTIONARY
360
142E
102
}
330
2
100
AcDbSymbolTableRecord
100
AcDbLayerTableRecord
  2
5
 70
     0
 62
     5
  6
Continuous
370
    -3
390
F
  0
LAYER
  5
34
102
{ACAD_XDICTIONARY
360
1430
102
}
330
2
100
AcDbSymbolTableRecord
100
AcDbLayerTableRecord
  2
6
 70
     0
 62
     6
  6
Continuous
370
    -3
390
F
  0
LAYER
  5
35
102
{ACAD_XDICTIONARY
360
1432
102
}
330
2
100
AcDbSymbolTableRecord
100
AcDbLayerTableRecord
  2
7
 70
     0
 62
     7
  6
Continuous
370
    -3
390
F
  0
LAYER
  5
36
102
{ACAD_XDICTIONARY
360
1434
102
}
330
2
100
AcDbSymbolTableRecord
100
AcDbLayerTableRecord
  2
cen
 70
     0
 62
     7
  6
DASHDOT
370
    -3
390
F
  0
LAYER
  5
37
102
{ACAD_XDICTIONARY
360
1436
102
}
330
2
100
AcDbSymbolTableRecord
100
AcDbLayerTableRecord
  2
hid
 70
     0
 62
     7
  6
HIDDEN
370
    -3
390
F
  0
LAYER
  5
5D6
102
{ACAD_XDICTIONARY
360
1438
102
}
330
2
100
AcDbSymbolTableRecord
100
AcDbLayerTableRecord
  2
hatch
 70
     0
 62
     9
  6
Continuous
370
    -3
390
F
  0
LAYER
  5
8AF
102
{ACAD_XDICTIONARY
360
143A
102
}
330
2
100
AcDbSymbolTableRecord
100
AcDbLayerTableRecord
  2
9
 70
     0
 62
     9
  6
Continuous
370
    -3
390
F
  0
LAYER
  5
8F8
102
{ACAD_XDICTIONARY
360
143C
102
}
330
2
100
AcDbSymbolTableRecord
100
AcDbLayerTableRecord
  2
leg fin
 70
     0
 62
     9
  6
Continuous
370
    -3
390
F
  0
LAYER
  5
91D
102
{ACAD_XDICTIONARY
360
143E
102
}
330
2
100
AcDbSymbolTableRecord
100
AcDbLayerTableRecord
  2
cotas
 70
     0
 62
     1
  6
Continuous
370
    -3
390
F
  0
LAYER
  5
92F
330
2
100
AcDbSymbolTableRecord
100
AcDbLayerTableRecord
  2
Defpoints
 70
     0
 62
     7
  6
Continuous
290
     0
370
    -3
390
F
  0
LAYER
  5
BA5
102
{ACAD_XDICTIONARY
360
1440
102
}
330
2
100
AcDbSymbolTableRecord
100
AcDbLayerTableRecord
  2
SANINDUSA
 70
     0
 62
     3
  6
Continuous
370
    -3
390
F
  0
ENDTAB
  0
TABLE
  2
STYLE
  5
3
330
0
100
AcDbSymbolTable
 70
     3
  0
STYLE
  5
11
330
3
100
AcDbSymbolTableRecord
100
AcDbTextStyleTableRecord
  2
Standard
 70
     0
 40
0.0
 41
1.0
 50
0.0
 71
     0
 42
2.5
  3
Avgardn.ttf
  4

1001
ACAD
1000
AvantGarde Bk BT
1071
       34
  0
STYLE
  5
2C
330
3
100
AcDbSymbolTableRecord
100
AcDbTextStyleTableRecord
  2

 70
     1
 40
0.0
 41
1.0
 50
0.0
 71
     0
 42
2.5
  3
ltypeshp.shx
  4

  0
STYLE
  5
91F
330
3
100
AcDbSymbolTableRecord
100
AcDbTextStyleTableRecord
  2
SANINDUSA
 70
     0
 40
0.0
 41
1.0
 50
0.0
 71
     0
 42
2.5
  3
verdana.TTF
  4

1001
ACAD
1000
Verdana
1071
       34
  0
ENDTAB
  0
TABLE
  2
VIEW
  5
6
330
0
100
AcDbSymbolTable
 70
     0
  0
ENDTAB
  0
TABLE
  2
UCS
  5
7
330
0
100
AcDbSymbolTable
 70
     0
  0
ENDTAB
  0
TABLE
  2
APPID
  5
9
330
0
100
AcDbSymbolTable
 70
     9
  0
APPID
  5
12
330
9
100
AcDbSymbolTableRecord
100
AcDbRegAppTableRecord
  2
ACAD
 70
     0
  0
APPID
  5
3A
330
9
100
AcDbSymbolTableRecord
100
AcDbRegAppTableRecord
  2
DCO15
 70
     0
  0
APPID
  5
D46
330
9
100
AcDbSymbolTableRecord
100
AcDbRegAppTableRecord
  2
ACAD_DSTYLE_DIMEXT_LENGTH
 70
     0
  0
APPID
  5
D47
330
9
100
AcDbSymbolTableRecord
100
AcDbRegAppTableRecord
  2
ACAD_DSTYLE_DIMEXT_ENABLED
 70
     0
  0
APPID
  5
D48
330
9
100
AcDbSymbolTableRecord
100
AcDbRegAppTableRecord
  2
ACAD_DSTYLE_DIMJOGGED_JOGANGLE_SYMBOL
 70
     0
  0
APPID
  5
D49
330
9
100
AcDbSymbolTableRecord
100
AcDbRegAppTableRecord
  2
ACAD_DSTYLE_DIMARC_LENGTH_SYMBOL
 70
     0
  0
APPID
  5
D4A
330
9
100
AcDbSymbolTableRecord
100
AcDbRegAppTableRecord
  2
ACAD_PSEXT
 70
     0
  0
APPID
  5
13CB
330
9
100
AcDbSymbolTableRecord
100
AcDbRegAppTableRecord
  2
ACAD_EXEMPT_FROM_CAD_STANDARDS
 70
     0
  0
APPID
  5
1499
330
9
100
AcDbSymbolTableRecord
100
AcDbRegAppTableRecord
  2
ACAD_MLEADERVER
 70
     0
  0
ENDTAB
  0
TABLE
  2
DIMSTYLE
  5
A
330
0
100
AcDbSymbolTable
 70
     2
100
AcDbDimStyleTable
 71
     1
340
921
  0
DIMSTYLE
105
45
330
A
100
AcDbSymbolTableRecord
100
AcDbDimStyleTableRecord
  2
STANDARD
 70
     0
289
     0
340
11
  0
DIMSTYLE
105
921
330
A
100
AcDbSymbolTableRecord
100
AcDbDimStyleTableRecord
  2
SANINDUSA
 70
     0
 41
2.0
 42
1.0
 43
1.0
 44
1.0
 73
     0
 74
     0
 77
     1
 78
     8
140
2.0
141
0.0
143
0.03937007874016
147
1.0
171
     3
172
     1
176
   256
177
   256
178
   256
179
     1
271
     1
272
     1
274
     3
278
    44
283
     0
284
     8
340
91F
371
    -1
372
    -1
  0
ENDTAB
  0
TABLE
  2
BLOCK_RECORD
  5
1
330
0
100
AcDbSymbolTable
 70
    74
  0
BLOCK_RECORD
  5
1F
102
{ACAD_XDICTIONARY
360
13D3
102
}
330
1
100
AcDbSymbolTableRecord
100
AcDbBlockTableRecord
  2
*Model_Space
340
22
  0
BLOCK_RECORD
  5
1B
330
1
100
AcDbSymbolTableRecord
100
AcDbBlockTableRecord
  2
*Paper_Space
340
1E
  0
BLOCK_RECORD
  5
23
330
1
100
AcDbSymbolTableRecord
100
AcDbBlockTableRecord
  2
*Paper_Space0
340
26
  0
BLOCK_RECORD
  5
919
330
1
100
AcDbSymbolTableRecord
100
AcDbBlockTableRecord
  2
_DotSmall
340
0
  0
BLOCK_RECORD
  5
922
330
1
100
AcDbSymbolTableRecord
100
AcDbBlockTableRecord
  2
base para cotas
340
0
310
2800000020000000200000000100080000000000000400000000000000000000000000000000000000000000000080000080000000808000800000008000800080800000C0C0C000C0DCC000F0CAA6000020400000206000002080000020A0000020C0000020E00000400000004020000040400000406000004080000040A0
310
000040C0000040E00000600000006020000060400000606000006080000060A0000060C0000060E00000800000008020000080400000806000008080000080A0000080C0000080E00000A0000000A0200000A0400000A0600000A0800000A0A00000A0C00000A0E00000C0000000C0200000C0400000C0600000C0800000C0
310
A00000C0C00000C0E00000E0000000E0200000E0400000E0600000E0800000E0A00000E0C00000E0E00040000000400020004000400040006000400080004000A0004000C0004000E00040200000402020004020400040206000402080004020A0004020C0004020E000404000004040200040404000404060004040800040
310
40A0004040C0004040E00040600000406020004060400040606000406080004060A0004060C0004060E00040800000408020004080400040806000408080004080A0004080C0004080E00040A0000040A0200040A0400040A0600040A0800040A0A00040A0C00040A0E00040C0000040C0200040C0400040C0600040C08000
310
40C0A00040C0C00040C0E00040E0000040E0200040E0400040E0600040E0800040E0A00040E0C00040E0E00080000000800020008000400080006000800080008000A0008000C0008000E00080200000802020008020400080206000802080008020A0008020C0008020E00080400000804020008040400080406000804080
310
008040A0008040C0008040E00080600000806020008060400080606000806080008060A0008060C0008060E00080800000808020008080400080806000808080008080A0008080C0008080E00080A0000080A0200080A0400080A0600080A0800080A0A00080A0C00080A0E00080C0000080C0200080C0400080C0600080C0
310
800080C0A00080C0C00080C0E00080E0000080E0200080E0400080E0600080E0800080E0A00080E0C00080E0E000C0000000C0002000C0004000C0006000C0008000C000A000C000C000C000E000C0200000C0202000C0204000C0206000C0208000C020A000C020C000C020E000C0400000C0402000C0404000C0406000C0
310
408000C040A000C040C000C040E000C0600000C0602000C0604000C0606000C0608000C060A000C060C000C060E000C0800000C0802000C0804000C0806000C0808000C080A000C080C000C080E000C0A00000C0A02000C0A04000C0A06000C0A08000C0A0A000C0A0C000C0A0E000C0C00000C0C02000C0C04000C0C06000
310
C0C08000C0C0A000F0FBFF00A4A0A000808080000000FF0000FF000000FFFF00FF000000FF00FF00FFFF0000FFFFFF00A4A4A4A4A4A4A4A4A4A4A4A4A4A4A4A4A4A4A4A4A4A4A4A4A4A4A4A4A4A4A4A4A4A4A4A4A4A4A4A4A4A4A4A4A4A4A4A4A4A4A4A4A4A4A4A4A4A4A4A4A4A4A4A4A4A4A4A4A4A4A4A4A4A4A4A4A4A4A4
310
A4A4A4A4A4A4A4A4A4A4A4A4A4A4A4A4A4A4A4A4A4A4A4A4A4A4A4A4A4A4A4A4A4A4A4A4A4A4A4A4A4A4A4A4A4A4A4A4A4A4A4A4A4A4A4A4A4A4A4A4A4A4A4A4A4A4A4A4A4A4A4A4A4A4A4A4A4A4A4A4A4A4A4A4A4A4A4A4A4A4A4A4A4A4A4A4A4A4A4A4A4A4A4A4A4A4A4A4A4A4A4A4A4A4A4A4A4A4A4A4A4A4A4A4A4A4A4
310
A4A4A4A4A4A4A4A4A4A4A4A4A4A4A4A4A4A4A4A4A4A4A4A4A4A4A4A4A4A4A4A4A4A4A4A4A4A4A4A4A4A4A4A4A4A4A4A4A4A4A4A4A4A4A4A4A4A4A4A4A4A4A4A4A4A4A4A4A4A4A4A4A4A4A4A4A4A4A4A4A4A4A4A4A4A4A4A4A4A4A4A4A4A4A4A4A4A4A4A4A4A4A4A4A4A4A4A4A4A4A4A4A4A4A4A4A4A4A4A4A4A4A4A4A4A4A4
310
A4A4A4A4A4A4A4A4A4A4A4A4A4A4A4A4A4A4A4A4A4A4A4A4A4A4A4A4A4A4A4A4A4A4A4A4A4A4A4A4A4A4A4A4A4A4A4A4A4A4A4A4A4A4A4A4A4A4A4A4A4A4A4A4A4A4A4A4A4A4A4A4A4A4A4A4A4A4A4A4A4A4A4A4A4A4A4A4A4A4A4A4A4A4A4A4A4A4A4A4A4A4A4A4A4A4A4A4A4A4A4A4A4A4A4A4F9F9F9F9F9F9F9F9F9F9F9
310
F9F9F9F9F9F9F9F9F9F9F9F9F9F9F9F9F9F9F9A4A4F9F9F9F9F9F9F9F9F9F9F9F9F9F9F9F9F9F9F9F9F9F9F9F9F9F9F9F9F9F9A4A4F9F9F9F9F9F9F9F9F9F9F9F9F9F9F9F9F9F9F9F9F9F9F9F9F9F9F9F9F9F9A4A4F9A4A4A4A4A4A4A4A4A4A4A4A4A4A4A4A4A4A4A4A4A4A4A4A4A4A4A4A4F9A4A4A4A4A4A4A4A4A4A4A4A4
310
A4A4A4A4A4A4A4A4A4A4A4A4A4A4A4A4A4A4A4A4A4A4A4A4A4A4A4A4A4A4A4A4A4A4A4A4A4A4A4A4A4A4A4A4A4A4A4A4A4A4A4A4A4A4A4A4A4A4A4A4A4A4A4A4A4A4A4A4A4A4A4A4A4A4A4A4A4A4A4A4A4A4A4A4A4A4A4A4A4A4A4A4A4A4A4A4A4A4A4A4A4A4A4A4A4A4A4A4A4A4A4A4A4A4A4A4A4A4A4A4A4A4A4A4A4A4A4
310
A4A4A4A4A4A4A4A4A4A4A4A4A4A4A4A4A4A4A4A4A4A4A4A4A4A4A4A4A4A4A4A4A4A4A4A4A4A4A4A4A4A4A4A4A4A4A4A4A4A4A4A4A4A4A4A4A4A4A4A4A4A4A4A4A4A4A4A4A4A4A4A4A4A4A4A4A4A4A4A4A4A4A4A4A4A4A4A4A4A4A4A4A4A4A4A4A4A4A4A4A4A4A4A4A4A4A4A4A4A4A4A4A4A4A4A4A4A4A4A4A4A4A4A4A4A4A4
310
A4A4A4A4A4A4A4A4A4A4A4A4A4A4A4A4A4A4A4A4A4A4A4A4A4A4A4A4A4A4A4A4A4A4A4A4A4A4A4A4A4A4A4A4A4A4A4A4A4A4A4A4A4A4A4A4A4A4A4A4A4A4A4A4A4A4A4A4A4A4A4A4A4A4A4A4A4A4A4A4A4A4A4A4A4A4A4A4A4A4A4A4A4A4A4A4A4A4A4A4A4A4A4A4A4A4A4A4A4A4A4A4A4A4A4A4A4A4A4A4A4A4A4A4A4A4A4
310
A4A4A4A4A4A4A4A4A4A4A4A4A4A4A4A4A4A4A4A4A4A4A4A4A4A4A4A4A4A4A4A4A4A4A4A4A4A4A4A4A4A4A4A4A4A4A4A4A4A4A4A4A4A4A4A4
1001
ACAD
1000
DesignCenter Data
1002
{
1070
     1
1070
     4
1002
}
  0
BLOCK_RECORD
  5
AA8
330
1
100
AcDbSymbolTableRecord
100
AcDbBlockTableRecord
  2
_CLOSED
340
0
  0
ENDTAB
  0
ENDSEC
  0
SECTION
  2
BLOCKS
  0
BLOCK
  5
20
330
1F
100
AcDbEntity
  8
0
100
AcDbBlockBegin
  2
*Model_Space
 70
     0
 10
0.0
 20
0.0
 30
0.0
  3
*Model_Space
  1

  0
ENDBLK
  5
21
330
1F
100
AcDbEntity
  8
0
100
AcDbBlockEnd
  0
BLOCK
  5
1C
330
1B
100
AcDbEntity
 67
     1
  8
0
100
AcDbBlockBegin
  2
*Paper_Space
 70
     0
 10
0.0
 20
0.0
 30
0.0
  3
*Paper_Space
  1

  0
ENDBLK
  5
1D
330
1B
100
AcDbEntity
 67
     1
  8
0
100
AcDbBlockEnd
  0
BLOCK
  5
24
330
23
100
AcDbEntity
 67
     1
  8
0
100
AcDbBlockBegin
  2
*Paper_Space0
 70
     0
 10
0.0
 20
0.0
 30
0.0
  3
*Paper_Space0
  1

  0
ENDBLK
  5
25
330
23
100
AcDbEntity
 67
     1
  8
0
100
AcDbBlockEnd
  0
BLOCK
  5
91B
330
919
100
AcDbEntity
  8
0
100
AcDbBlockBegin
  2
_DotSmall
 70
     0
 10
0.0
 20
0.0
 30
0.0
  3
_DotSmall
  1

  0
LWPOLYLINE
  5
91A
330
919
100
AcDbEntity
  8
0
  6
ByBlock
 62
     0
100
AcDbPolyline
 90
        2
 70
     1
 43
0.5
 10
-0.0625
 20
0.0
 42
1.0
 10
0.0625
 20
0.0
 42
1.0
  0
ENDBLK
  5
91C
330
919
100
AcDbEntity
  8
0
100
AcDbBlockEnd
  0
BLOCK
  5
92A
330
922
100
AcDbEntity
  8
0
100
AcDbBlockBegin
  2
base para cotas
 70
     0
 10
0.0
 20
0.0
 30
0.0
  3
base para cotas
  1

  0
LINE
  5
B36
330
922
100
AcDbEntity
  8
cotas
100
AcDbLine
 10
0.0
 20
-30.0
 30
0.0
 11
327.1260136525398
 21
-30.0
 31
0.0
  0
LINE
  5
B37
330
922
100
AcDbEntity
  8
cotas
100
AcDbLine
 10
0.0
 20
-25.0
 30
0.0
 11
327.1260136525398
 21
-25.0
 31
0.0
  0
LINE
  5
B38
330
922
100
AcDbEntity
  8
cotas
100
AcDbLine
 10
0.0
 20
-20.0
 30
0.0
 11
327.1260136525398
 21
-20.0
 31
0.0
  0
LINE
  5
B39
330
922
100
AcDbEntity
  8
cotas
100
AcDbLine
 10
0.0
 20
-15.0
 30
0.0
 11
327.1260136525398
 21
-15.0
 31
0.0
  0
LINE
  5
B3A
330
922
100
AcDbEntity
  8
cotas
100
AcDbLine
 10
0.0
 20
-10.0
 30
0.0
 11
327.1260136525398
 21
-10.0
 31
0.0
  0
LINE
  5
B3B
330
922
100
AcDbEntity
  8
cotas
100
AcDbLine
 10
0.0
 20
0.0
 30
0.0
 11
0.0
 21
-30.0
 31
0.0
  0
LINE
  5
B3C
330
922
100
AcDbEntity
  8
cotas
100
AcDbLine
 10
327.1260136525398
 20
-30.0
 30
0.0
 11
327.1260136525398
 21
0.0
 31
0.0
  0
ENDBLK
  5
92B
330
922
100
AcDbEntity
  8
0
100
AcDbBlockEnd
  0
BLOCK
  5
AAD
330
AA8
100
AcDbEntity
  8
0
100
AcDbBlockBegin
  2
_CLOSED
 70
     0
 10
0.0
 20
0.0
 30
0.0
  3
_CLOSED
  1

  0
LINE
  5
AA9
330
AA8
100
AcDbEntity
  8
0
100
AcDbLine
 10
-1.0
 20
0.166667
 30
0.0
 11
0.0
 21
0.0
 31
0.0
  0
LINE
  5
AAA
330
AA8
100
AcDbEntity
  8
0
100
AcDbLine
 10
0.0
 20
0.0
 30
0.0
 11
-1.0
 21
-0.166667
 31
0.0
  0
LINE
  5
AAB
330
AA8
100
AcDbEntity
  8
0
100
AcDbLine
 10
-1.0
 20
0.166667
 30
0.0
 11
-1.0
 21
-0.166667
 31
0.0
  0
LINE
  5
AAC
330
AA8
100
AcDbEntity
  8
0
100
AcDbLine
 10
0.0
 20
0.0
 30
0.0
 11
-1.0
 21
0.0
 31
0.0
  0
ENDBLK
  5
AAE
330
AA8
100
AcDbEntity
  8
0
100
AcDbBlockEnd
  0
ENDSEC
  0
SECTION
  2
ENTITIES
  0
ARC
  5
F7A
330
1F
100
AcDbEntity
  8
SANINDUSA
100
AcDbCircle
 10
796.7668234457119
 20
660.6432600532543
 30
0.0
 40
0.6709574182353383
100
AcDbArc
 50
81.24353889363989
 51
94.66219123932638
  0
LWPOLYLINE
  5
F7B
330
1F
100
AcDbEntity
  8
SANINDUSA
100
AcDbPolyline
 90
       37
 70
   128
 43
0.0
 10
796.6741304402343
 20
661.3071794441239
 10
796.671783312261
 20
661.3067742104504
 10
796.6657518490159
 20
661.3056165168785
 10
796.6598789862188
 20
661.3043676221359
 10
796.6540918769002
 20
661.3030026153292
 10
796.6484198831318
 20
661.3015156235642
 10
796.6428756849238
 20
661.2998968356249
 10
796.6374740139618
 20
661.2981365292637
 10
796.6322315198845
 20
661.29622537931
 10
796.6271667040026
 20
661.294154920672
 10
796.6222996702054
 20
661.2919181183691
 10
796.6176516003782
 20
661.2895099943564
 10
796.6132258710372
 20
661.2869070441693
 10
796.6091487390461
 20
661.2841854518235
 10
796.605262557915
 20
661.2812689002407
 10
796.6015166387312
 20
661.278123688487
 10
796.5979182722774
 20
661.2747534869956
 10
796.594475131938
 20
661.2711632975758
 10
796.5911964817236
 20
661.2673610872153
 10
796.5880934118569
 20
661.2633590640832
 10
796.5851825667908
 20
661.2591840773927
 10
796.5824852087674
 20
661.2549130474251
 10
796.5799336097746
 20
661.2504504789237
 10
796.5777094101707
 20
661.2461402613583
 10
796.5758150429945
 20
661.2420644166425
 10
796.5742346881223
 20
661.2382715032034
 10
796.5729430150696
 20
661.234782021372
 10
796.5719123677743
 20
661.2315967358109
 10
796.5711184581768
 20
661.2286394686918
 10
796.570557246475
 20
661.2257716719247
 10
796.5702664874509
 20
661.2230253447681
 10
796.570277619704
 20
661.2203997354371
 10
796.5705564822082
 20
661.2182325807784
 10
796.5710790786939
 20
661.2162527843548
 10
796.5719277082448
 20
661.2142689677297
 10
796.5730261539826
 20
661.2125230721892
 10
796.5738569603018
 20
661.2114994317528
  0
LWPOLYLINE
  5
F7C
330
1F
100
AcDbEntity
  8
SANINDUSA
100
AcDbPolyline
 90
       31
 70
   128
 43
0.0
 10
796.776601842596
 20
661.2208762232005
 10
796.7683784009278
 20
661.2208346495826
 10
796.7618415724559
 20
661.2207997893217
 10
796.7557387247384
 20
661.2207491727035
 10
796.7495262730612
 20
661.2206776294661
 10
796.7425813036773
 20
661.2205799758986
 10
796.7356343641362
 20
661.2204633728939
 10
796.7287144673774
 20
661.2203279016982
 10
796.7218622174129
 20
661.2201739602403
 10
796.7150922276947
 20
661.2200016599504
 10
796.7083588771992
 20
661.2198103937605
 10
796.7016653113659
 20
661.2196008565823
 10
796.6950226806635
 20
661.2193740594955
 10
796.6884438394679
 20
661.2191312020546
 10
796.6819435074906
 20
661.2188737012637
 10
796.6755383352189
 20
661.218603217847
 10
796.6692469368974
 20
661.2183216805618
 10
796.6630895932624
 20
661.2180313592168
 10
796.6570690038677
 20
661.2177348979636
 10
796.6511131540332
 20
661.2174312423615
 10
796.6453372940976
 20
661.2171289905165
 10
796.6397363450091
 20
661.2168311202426
 10
796.6343065205482
 20
661.2165409050386
 10
796.629044568837
 20
661.2162619208942
 10
796.6239477754355
 20
661.2159980950912
 10
796.6190151241712
 20
661.2157526409658
 10
796.6143106717494
 20
661.215532450651
 10
796.6098914255823
 20
661.2153495298095
 10
796.6057287212024
 20
661.2152122826134
 10
796.6018432028598
 20
661.2151311818338
 10
796.5995311518411
 20
661.2151212511001
  0
LWPOLYLINE
  5
F7D
330
1F
100
AcDbEntity
  8
SANINDUSA
100
AcDbPolyline
 90
       25
 70
   128
 43
0.0
 10
796.9207793700551
 20
661.2202900621514
 10
796.9185431055169
 20
661.2202549770098
 10
796.913169657563
 20
661.220206247964
 10
796.9076251298529
 20
661.220184941387
 10
796.9019294319688
 20
661.2201860282797
 10
796.896100866149
 20
661.2202046851283
 10
796.8901559900106
 20
661.2202363593701
 10
796.8841086939135
 20
661.2202771880492
 10
796.8779665195183
 20
661.2203249802425
 10
796.8716991139006
 20
661.2203781483089
 10
796.8653255066104
 20
661.220434842813
 10
796.8588660305075
 20
661.2204932642499
 10
796.8523398859661
 20
661.2205516967382
 10
796.8457649348176
 20
661.2206085207867
 10
796.8391575573162
 20
661.2206622210925
 10
796.8325312370047
 20
661.2207114331803
 10
796.8258513097388
 20
661.2207560713515
 10
796.8190772172005
 20
661.2207961438484
 10
796.812246237895
 20
661.2208308787984
 10
796.8054433448032
 20
661.220859321702
 10
796.7987167093179
 20
661.2208782732746
 10
796.792174931028
 20
661.2208850278566
 10
796.7853354742504
 20
661.2208846032549
 10
796.777950800615
 20
661.2208815671437
 10
796.7765993901053
 20
661.2208828311702
  0
ARC
  5
F7E
330
1F
100
AcDbEntity
  8
SANINDUSA
100
AcDbCircle
 10
795.3629260642206
 20
660.089196066195
 30
0.0
 40
1.65103557788023
100
AcDbArc
 50
39.31382151919274
 51
42.82467478917434
  0
LWPOLYLINE
  5
F7F
330
1F
100
AcDbEntity
  8
SANINDUSA
100
AcDbPolyline
 90
       11
 70
   128
 43
0.0
 10
796.9564914669021
 20
661.2221845061493
 10
796.9554544912828
 20
661.2220003620885
 10
796.952311328766
 20
661.2215854564818
 10
796.9489099796215
 20
661.2212553811381
 10
796.9452509023743
 20
661.2209968716505
 10
796.9413393769593
 20
661.220796376287
 10
796.9371834683717
 20
661.2206400561769
 10
796.9327928981973
 20
661.2205138052681
 10
796.9282224864931
 20
661.2204064933941
 10
796.9234140522268
 20
661.2203125396582
 10
796.9207722662034
 20
661.2202689016385
  0
ARC
  5
F80
330
1F
100
AcDbEntity
  8
SANINDUSA
100
AcDbCircle
 10
796.9586541911676
 20
661.240329170924
 30
0.0
 40
0.0270295717036182
100
AcDbArc
 50
320.6236574620215
 51
352.6720040723331
  0
LWPOLYLINE
  5
F81
330
1F
100
AcDbEntity
  8
SANINDUSA
100
AcDbPolyline
 90
        9
 70
   128
 43
0.0
 10
796.6418403192278
 20
661.1345140966525
 10
796.6416224744109
 20
661.134527276301
 10
796.6414073626311
 20
661.134564113641
 10
796.6411975453357
 20
661.1346241700315
 10
796.6409955209276
 20
661.1347067303499
 10
796.640803695016
 20
661.1348108115077
 10
796.6406243517714
 20
661.1349351741568
 10
796.6404596267265
 20
661.1350783374468
 10
796.6403114813474
 20
661.1352385966584
  0
ARC
  5
F82
330
1F
100
AcDbEntity
  8
SANINDUSA
100
AcDbCircle
 10
796.8425201166533
 20
661.1245140625631
 30
0.0
 40
0.0100000000000001
100
AcDbArc
 50
90.0
 51
174.9999999977876
  0
ARC
  5
F83
330
1F
100
AcDbEntity
  8
SANINDUSA
100
AcDbCircle
 10
796.7537950798664
 20
661.1245140625631
 30
0.0
 40
0.0100000000000001
100
AcDbArc
 50
5.000000002212392
 51
90.0
  0
LINE
  5
F84
330
1F
100
AcDbEntity
  8
SANINDUSA
100
AcDbLine
 10
796.7637570268473
 20
661.1253856199907
 30
0.0
 11
796.7640027574088
 21
661.1225769068204
 31
0.0
  0
ARC
  5
F85
330
1F
100
AcDbEntity
  8
SANINDUSA
100
AcDbCircle
 10
796.7649989521069
 20
661.1226640625631
 30
0.0
 40
0.001
100
AcDbArc
 50
185.0000000022123
 51
270.0
  0
LINE
  5
F86
330
1F
100
AcDbEntity
  8
SANINDUSA
100
AcDbLine
 10
796.8323124391111
 20
661.1225769068204
 30
0.0
 11
796.8325581696725
 21
661.1253856199907
 31
0.0
  0
ARC
  5
F87
330
1F
100
AcDbEntity
  8
SANINDUSA
100
AcDbCircle
 10
796.8313162444129
 20
661.1226640625631
 30
0.0
 40
0.001
100
AcDbArc
 50
270.0
 51
354.9999999977876
  0
LINE
  5
F88
330
1F
100
AcDbEntity
  8
9
100
AcDbLine
 10
796.652349795048
 20
661.1345140721653
 30
0.0
 11
796.6523564429771
 21
661.1345140626139
 31
0.0
  0
LWPOLYLINE
  5
F89
330
1F
100
AcDbEntity
  8
SANINDUSA
100
AcDbPolyline
 90
        9
 70
   128
 43
0.0
 10
796.9114674693336
 20
661.135321549893
 10
796.9113187047569
 20
661.1351437832706
 10
796.9111503707209
 20
661.1349844235823
 10
796.9109647284533
 20
661.1348456115033
 10
796.910764271683
 20
661.1347292116936
 10
796.9105516931416
 20
661.1346367877494
 10
796.9103298483925
 20
661.1345695811999
 10
796.9101017174716
 20
661.134528494829
 10
796.909870364857
 20
661.1345140805493
  0
ARC
  5
F8A
330
1F
100
AcDbEntity
  8
SANINDUSA
100
AcDbCircle
 10
796.9502978803314
 20
661.2404282414703
 30
0.0
 40
0.0353435134859403
100
AcDbArc
 50
354.240754984834
 51
21.35844410989937
  0
LWPOLYLINE
  5
F8B
330
1F
100
AcDbEntity
  8
SANINDUSA
100
AcDbPolyline
 90
       21
 70
   128
 43
0.0
 10
796.9832140087815
 20
661.2533003987636
 10
796.9829695457847
 20
661.2539696999849
 10
796.9814887914846
 20
661.2571402062732
 10
796.9797064513072
 20
661.2602426750647
 10
796.9776122245282
 20
661.2632817526258
 10
796.9752111630945
 20
661.2662433790752
 10
796.9725025393621
 20
661.2691247972832
 10
796.9694873157505
 20
661.2719220488567
 10
796.9661683459719
 20
661.2746306864148
 10
796.9625501050557
 20
661.2772464619382
 10
796.9586380929918
 20
661.2797658431983
 10
796.9544526651596
 20
661.2821814970697
 10
796.9498790285146
 20
661.2845676319417
 10
796.9451755407572
 20
661.2867902210616
 10
796.9402753374987
 20
661.2888930706004
 10
796.9351777891085
 20
661.2908827624071
 10
796.9298816533339
 20
661.2927653339473
 10
796.9243847475008
 20
661.294546406116
 10
796.9186839995763
 20
661.2962311517526
 10
796.9127755084536
 20
661.2978242813176
 10
796.9079171140751
 20
661.2990180368601
  0
LWPOLYLINE
  5
F8C
330
1F
100
AcDbEntity
  8
SANINDUSA
100
AcDbPolyline
 90
        3
 70
   128
 43
0.0
 10
796.9079171140751
 20
661.2990180368601
 10
796.904023504527
 20
661.2999407148203
 10
796.9001006569244
 20
661.300798105764
  0
LWPOLYLINE
  5
F96
330
1F
100
AcDbEntity
  8
SANINDUSA
100
AcDbPolyline
 90
        5
 70
   128
 43
0.0
 10
796.7122887565649
 20
661.3119818081575
 10
796.7101169519229
 20
661.3118159858587
 10
796.6978362338389
 20
661.3105730122266
 10
796.6857532642927
 20
661.3090239744598
 10
796.6741304402343
 20
661.3071794441239
  0
LWPOLYLINE
  5
F97
330
1F
100
AcDbEntity
  8
SANINDUSA
100
AcDbPolyline
 90
       31
 70
   128
 43
0.0
 10
796.6741211026007
 20
661.3071776371212
 10
796.6632825181144
 20
661.3050801729776
 10
796.6530045820562
 20
661.3026726580728
 10
796.6432294023911
 20
661.2999082271685
 10
796.6341172925082
 20
661.296779940741
 10
796.6249034646883
 20
661.2928779434038
 10
796.61652458346
 20
661.2884332047075
 10
796.6089099891667
 20
661.2833282670636
 10
796.6021324032311
 20
661.2776300684252
 10
796.59712049079
 20
661.2725408650653
 10
796.5926548799621
 20
661.2672306329279
 10
796.5886812897729
 20
661.2617462175229
 10
796.585209533917
 20
661.2562269382621
 10
796.5821659253827
 20
661.2506754434551
 10
796.5796098390155
 20
661.2453155818171
 10
796.5775226972684
 20
661.2402315316512
 10
796.5759563272931
 20
661.2356010089119
 10
796.5751212977401
 20
661.2323637056788
 10
796.5746422950719
 20
661.2294688429847
 10
796.5745192618888
 20
661.2268842941725
 10
796.5747509206942
 20
661.224618666512
 10
796.5753515486719
 20
661.2226090377074
 10
796.5763119546732
 20
661.2208938062874
 10
796.5776323526886
 20
661.219442704789
 10
796.5792979826921
 20
661.2182462169239
 10
796.5818181237962
 20
661.217083794485
 10
796.5848374958972
 20
661.2162286680427
 10
796.5883686206836
 20
661.2156416555933
 10
796.5923858386867
 20
661.2152894302454
 10
796.5969863257819
 20
661.2151274060202
 10
796.5998567264482
 20
661.2151264070019
  0
ARC
  5
F98
330
1F
100
AcDbEntity
  8
SANINDUSA
100
AcDbCircle
 10
796.7993553558113
 20
660.8299438990333
 30
0.0
 40
0.4815114741025054
100
AcDbArc
 50
77.92293151547837
 51
81.68773201425215
  0
LINE
  5
F9A
330
1F
100
AcDbEntity
  8
9
100
AcDbLine
 10
796.7761575982599
 20
661.2121216654742
 30
0.0
 11
796.7761575982599
 21
661.2121216123632
 31
0.0
  0
LWPOLYLINE
  5
F9B
330
1F
100
AcDbEntity
  8
SANINDUSA
100
AcDbPolyline
 90
       25
 70
   128
 43
0.0
 10
796.7761575982599
 20
661.2121216123632
 10
796.7761575388172
 20
661.2121216124178
 10
796.7658559640822
 20
661.21211437711
 10
796.7556824555637
 20
661.2120735719262
 10
796.7455207309507
 20
661.2119977367966
 10
796.7355574499633
 20
661.2118876018014
 10
796.7256130697178
 20
661.2117400665463
 10
796.7159209654064
 20
661.2115588655647
 10
796.7065152830665
 20
661.2113466614202
 10
796.6926103254681
 20
661.2109646252559
 10
796.6794428924925
 20
661.2105268891038
 10
796.6670123246166
 20
661.2100461368408
 10
796.6553438067336
 20
661.20953983862
 10
796.6444653204131
 20
661.2090266535205
 10
796.6340197090329
 20
661.2085066146367
 10
796.6243931149404
 20
661.2080197818309
 10
796.6155896752586
 20
661.2075893605387
 10
796.6100221477951
 20
661.2073386207192
 10
796.6021160522272
 20
661.2070447092382
 10
796.5950999863882
 20
661.206922165141
 10
796.5889850417148
 20
661.2070431097545
 10
796.5836359321087
 20
661.2075123670614
 10
796.5792409661779
 20
661.2084386802713
 10
796.5758270345191
 20
661.2099221765904
 10
796.5738569603018
 20
661.2114994317528
  0
LWPOLYLINE
  5
F9C
330
1F
100
AcDbEntity
  8
SANINDUSA
100
AcDbPolyline
 90
       16
 70
   128
 43
0.0
 10
796.9233161028621
 20
661.2114285438309
 10
796.9133186729334
 20
661.2113111365988
 10
796.9024909189678
 20
661.2112822795237
 10
796.8906868794231
 20
661.2113198234343
 10
796.8780504237811
 20
661.2114035049263
 10
796.8651152364436
 20
661.211511753568
 10
796.8514970438755
 20
661.2116364912479
 10
796.8443056839653
 20
661.2117028496889
 10
796.8370012745193
 20
661.2117677459121
 10
796.8295257663221
 20
661.2118302524215
 10
796.8219717961091
 20
661.21188960199
 10
796.8107152595434
 20
661.2119700580939
 10
796.7993260307411
 20
661.2120403970594
 10
796.7877428726165
 20
661.2120946442088
 10
796.7761576576999
 20
661.2121216654252
 10
796.7761575982599
 20
661.2121216654742
  0
LWPOLYLINE
  5
F9F
330
1F
100
AcDbEntity
  8
SANINDUSA
100
AcDbPolyline
 90
       15
 70
   128
 43
0.0
 10
796.9795479308459
 20
661.2231813025803
 10
796.9772613460591
 20
661.2207553899329
 10
796.9745557229932
 20
661.2186565730342
 10
796.9720205858548
 20
661.2171676570015
 10
796.9691913184604
 20
661.2158995868746
 10
796.9660660749513
 20
661.2148515073494
 10
796.9626578157882
 20
661.2140078831474
 10
796.9589282686163
 20
661.2133367166706
 10
796.9547354510961
 20
661.2127988970548
 10
796.9501647522203
 20
661.2123882274556
 10
796.9450543201319
 20
661.2120697791351
 10
796.9401703773672
 20
661.2118542317678
 10
796.9349209122701
 20
661.2116839069759
 10
796.9293085097993
 20
661.2115458314417
 10
796.9233161028621
 20
661.2114285438309
  0
ARC
  5
FA1
330
1F
100
AcDbEntity
  8
SANINDUSA
100
AcDbCircle
 10
796.9517587089791
 20
661.2462720666996
 30
0.0
 40
0.0279173356902264
100
AcDbArc
 50
351.5379547757925
 51
20.81793225676103
  0
LWPOLYLINE
  5
FA2
330
1F
100
AcDbEntity
  8
SANINDUSA
100
AcDbPolyline
 90
       10
 70
   128
 43
0.0
 10
796.9561705129237
 20
661.2221479666209
 10
796.9578047199825
 20
661.2224031687408
 10
796.962213237776
 20
661.2234878808911
 10
796.9661335739796
 20
661.224958006826
 10
796.9695615602774
 20
661.2268501479042
 10
796.9732793549622
 20
661.2299032208621
 10
796.9757408910031
 20
661.2329070504204
 10
796.9776077197274
 20
661.2362463760864
 10
796.9786805056433
 20
661.2391351873981
 10
796.9793721242862
 20
661.2421639129628
  0
LINE
  5
FA3
330
1F
100
AcDbEntity
  8
SANINDUSA
100
AcDbLine
 10
796.7759060166843
 20
661.1345140625631
 30
0.0
 11
796.6418403192278
 21
661.1345140966525
 31
0.0
  0
LINE
  5
FA4
330
1F
100
AcDbEntity
  8
SANINDUSA
100
AcDbLine
 10
796.9098700761731
 20
661.1345140625631
 30
0.0
 11
796.7759060166843
 21
661.1345140625631
 31
0.0
  0
ARC
  5
FA6
330
1F
100
AcDbEntity
  8
SANINDUSA
100
AcDbCircle
 10
796.7185907390561
 20
661.2103356051726
 30
0.0
 40
0.0712558042915647
100
AcDbArc
 50
157.6379573401786
 51
174.430558041585
  0
LWPOLYLINE
  5
FA7
330
1F
100
AcDbEntity
  8
SANINDUSA
100
AcDbPolyline
 90
        3
 70
   128
 43
0.0
 10
796.6589549379603
 20
661.2494947941549
 10
796.6554637045007
 20
661.2434903596597
 10
796.6526934936356
 20
661.2374454316425
  0
LWPOLYLINE
  5
FA8
330
1F
100
AcDbEntity
  8
SANINDUSA
100
AcDbPolyline
 90
       10
 70
   128
 43
0.0
 10
796.7125170891375
 20
661.2819945200629
 10
796.7040753358163
 20
661.2797683368782
 10
796.6961117153277
 20
661.277152970808
 10
796.6885619308681
 20
661.2740912084563
 10
796.6816529050685
 20
661.2706168159613
 10
796.6787277879773
 20
661.2688862867396
 10
796.6726409470732
 20
661.2645984574612
 10
796.6673760975135
 20
661.2598940606025
 10
796.6628096470358
 20
661.2548044088177
 10
796.6589549379603
 20
661.2494947941549
  0
LWPOLYLINE
  5
FA9
330
1F
100
AcDbEntity
  8
SANINDUSA
100
AcDbPolyline
 90
        3
 70
   128
 43
0.0
 10
796.7271106922547
 20
661.284758292848
 10
796.7196971740333
 20
661.2835121479352
 10
796.7125170891375
 20
661.2819945200629
  0
LWPOLYLINE
  5
FAA
330
1F
100
AcDbEntity
  8
SANINDUSA
100
AcDbPolyline
 90
        3
 70
   128
 43
0.0
 10
796.7405407789341
 20
661.2862641768761
 10
796.7337711472197
 20
661.2856215853426
 10
796.7271106922547
 20
661.284758292848
  0
LWPOLYLINE
  5
FAB
330
1F
100
AcDbEntity
  8
SANINDUSA
100
AcDbPolyline
 90
       12
 70
   128
 43
0.0
 10
796.7919555984775
 20
661.2842923510222
 10
796.7805350068837
 20
661.2856778721865
 10
796.7766239404897
 20
661.2860367379944
 10
796.7726812447904
 20
661.2863364205261
 10
796.7726868266782
 20
661.2863360406803
 10
796.7687288777417
 20
661.2865734032226
 10
796.760608974138
 20
661.2868535085432
 10
796.7565192646075
 20
661.2868863274971
 10
796.7524350645284
 20
661.2868443222278
 10
796.7482876813131
 20
661.2867209405594
 10
796.7444039100166
 20
661.2865288860606
 10
796.7405407789341
 20
661.2862641768761
  0
ARC
  5
FAC
330
1F
100
AcDbEntity
  8
SANINDUSA
100
AcDbCircle
 10
796.7526912252342
 20
661.012715812511
 30
0.0
 40
0.2744002683598105
100
AcDbArc
 50
68.3235682576194
 51
81.77321649296834
  0
LWPOLYLINE
  5
FAD
330
1F
100
AcDbEntity
  8
SANINDUSA
100
AcDbPolyline
 90
       13
 70
   128
 43
0.0
 10
796.9193623695868
 20
661.2202678305857
 10
796.9170386094864
 20
661.2249296858267
 10
796.9137117461414
 20
661.2298571866983
 10
796.909564245668
 20
661.2346248291023
 10
796.905863049791
 20
661.2381577941722
 10
796.9017262448249
 20
661.2416164443495
 10
796.8955805381066
 20
661.2461172301269
 10
796.8887611868967
 20
661.2505327323986
 10
796.8821442897226
 20
661.2544137248513
 10
796.8750280361311
 20
661.2582265655486
 10
796.8684626098275
 20
661.261450488437
 10
796.8615210873779
 20
661.2645967309687
 10
796.8540449522611
 20
661.2677117522703
  0
LINE
  5
FB0
330
1F
100
AcDbEntity
  8
SANINDUSA
100
AcDbLine
 10
796.8313162444129
 20
661.1216640625631
 30
0.0
 11
796.7649989521069
 21
661.1216640625631
 31
0.0
  0
LWPOLYLINE
  5
FB1
330
1F
100
AcDbEntity
  8
9
100
AcDbPolyline
 90
        3
 70
   128
 43
0.0
 10
796.9105511329021
 20
661.1353189261203
 10
796.9105511385695
 20
661.1353189262888
 10
796.9114775715947
 20
661.1353627360593
  0
LWPOLYLINE
  5
FB2
330
1F
100
AcDbEntity
  8
SANINDUSA
100
AcDbPolyline
 90
       13
 70
   128
 43
0.0
 10
796.9778534471798
 20
661.2561938745127
 10
796.9760033394416
 20
661.2604094907201
 10
796.973527566322
 20
661.2645426765575
 10
796.9704286951418
 20
661.2685402660316
 10
796.9666440037912
 20
661.2724334069217
 10
796.9622228430107
 20
661.2761590652077
 10
796.9571650198477
 20
661.279718854662
 10
796.950969297556
 20
661.2833928754224
 10
796.9440163368333
 20
661.2868860224317
 10
796.9363073393686
 20
661.2901918299682
 10
796.9275848443283
 20
661.2933829691631
 10
796.9180190507743
 20
661.2963533797101
 10
796.907612461557
 20
661.2990826216766
  0
ARC
  5
FB3
330
1F
100
AcDbEntity
  8
SANINDUSA
100
AcDbCircle
 10
796.2965466842282
 20
660.9314183515717
 30
0.0
 40
0.382837460702274
100
AcDbArc
 50
87.71133614173434
 51
91.93900997746327
  0
ARC
  5
FB4
330
1F
100
AcDbEntity
  8
SANINDUSA
100
AcDbCircle
 10
796.7475396413234
 20
658.9352819233859
 30
0.0
 40
2.419589617363538
100
AcDbArc
 50
105.3822436636601
 51
106.4134628420942
  0
LWPOLYLINE
  5
FB5
330
1F
100
AcDbEntity
  8
SANINDUSA
100
AcDbPolyline
 90
       22
 70
   128
 43
0.0
 10
796.0149669142955
 20
661.2422848736655
 10
796.0071541473309
 20
661.2401703928684
 10
795.9969794504631
 20
661.2375251364824
 10
795.9871160522133
 20
661.2350868149997
 10
795.9774648627536
 20
661.2328400959212
 10
795.9680284123243
 20
661.2307945731085
 10
795.9588063039298
 20
661.228957340348
 10
795.949795447009
 20
661.2273334283773
 10
795.940990827224
 20
661.2259263320619
 10
795.9323911684821
 20
661.2247398509563
 10
795.9239019144308
 20
661.2237546233643
 10
795.9154031203305
 20
661.2229366617973
 10
795.9070433784808
 20
661.2222795162843
 10
795.8988690341896
 20
661.2217624253792
 10
795.89091761399
 20
661.2213635274174
 10
795.8832171006527
 20
661.2210609090064
 10
795.8757863202245
 20
661.2208334420018
 10
795.8686361586257
 20
661.2206613459383
 10
795.8617727110127
 20
661.2205262826345
 10
795.8552746085211
 20
661.2204137471632
 10
795.8491443149611
 20
661.2203179541983
 10
795.845735975906
 20
661.2202690787437
  0
ARC
  5
FB6
330
1F
100
AcDbEntity
  8
SANINDUSA
100
AcDbCircle
 10
795.3814718516305
 20
663.5605913321206
 30
0.0
 40
2.403303521328406
100
AcDbArc
 50
285.2834118868771
 51
286.4953142171584
  0
ARC
  5
FB7
330
1F
100
AcDbEntity
  8
SANINDUSA
100
AcDbCircle
 10
795.4943620029618
 20
663.8601472588829
 30
0.0
 40
2.662311192668037
100
AcDbArc
 50
284.0430651298543
 51
285.7081391871009
  0
ARC
  5
FB8
330
1F
100
AcDbEntity
  8
SANINDUSA
100
AcDbCircle
 10
795.828383609777
 20
662.3277939185673
 30
0.0
 40
1.107639470004629
100
AcDbArc
 50
267.9208895749909
 51
270.8976412394603
  0
LWPOLYLINE
  5
FB9
330
1F
100
AcDbEntity
  8
SANINDUSA
100
AcDbPolyline
 90
       20
 70
   128
 43
0.0
 10
795.7881991594464
 20
661.2208836216308
 10
795.7878575461253
 20
661.2208821146541
 10
795.7869660337648
 20
661.2208854690499
 10
795.7866381603159
 20
661.2208838606091
 10
795.7864227285329
 20
661.2208781365291
 10
795.7861986359453
 20
661.2208646530537
 10
795.7858976325918
 20
661.2208317451538
 10
795.7855449528616
 20
661.2207699730203
 10
795.7850488666049
 20
661.2206380905933
 10
795.7843764788367
 20
661.2203668926001
 10
795.7836385377101
 20
661.219922538609
 10
795.7829080382439
 20
661.2192740625881
 10
795.7822588654367
 20
661.2183981154275
 10
795.7817947960629
 20
661.217337903385
 10
795.7815850375473
 20
661.2161696378802
 10
795.7816714420199
 20
661.2149061249172
 10
795.7820126511125
 20
661.2138336276674
 10
795.7825203006922
 20
661.212952407318
 10
795.7831277477154
 20
661.2122556636785
 10
795.7834013218249
 20
661.2120353287406
  0
ARC
  5
FBA
330
1F
100
AcDbEntity
  8
SANINDUSA
100
AcDbCircle
 10
795.6611525652618
 20
663.2365923689889
 30
0.0
 40
2.016906968109078
100
AcDbArc
 50
285.9431499598104
 51
287.0930121900445
  0
ARC
  5
FBB
330
1F
100
AcDbEntity
  8
SANINDUSA
100
AcDbCircle
 10
796.0323045260998
 20
661.1245140625631
 30
0.0
 40
0.01
100
AcDbArc
 50
94.05263148298152
 51
174.9999999977876
  0
ARC
  5
FBC
330
1F
100
AcDbEntity
  8
SANINDUSA
100
AcDbCircle
 10
795.9435794893127
 20
661.1245140625631
 30
0.0
 40
0.01
100
AcDbArc
 50
5.000000002212392
 51
85.76585188956689
  0
LINE
  5
FBD
330
1F
100
AcDbEntity
  8
SANINDUSA
100
AcDbLine
 10
795.9535414362935
 20
661.1253856199907
 30
0.0
 11
795.9537871668551
 21
661.1225769068204
 31
0.0
  0
LINE
  5
FBE
330
1F
100
AcDbEntity
  8
SANINDUSA
100
AcDbLine
 10
796.0220968485573
 20
661.1225769068204
 30
0.0
 11
796.0223425791188
 21
661.1253856199907
 31
0.0
  0
ARC
  5
FBF
330
1F
100
AcDbEntity
  8
SANINDUSA
100
AcDbCircle
 10
796.0211006538593
 20
661.1226640625631
 30
0.0
 40
0.001
100
AcDbArc
 50
270.0
 51
354.9999999977876
  0
ARC
  5
FC0
330
1F
100
AcDbEntity
  8
SANINDUSA
100
AcDbCircle
 10
796.2877872132178
 20
661.2045781404661
 30
0.0
 40
0.1095409217201271
100
AcDbArc
 50
92.22126643077855
 51
107.914474872054
  0
ARC
  5
FC1
330
1F
100
AcDbEntity
  8
SANINDUSA
100
AcDbCircle
 10
796.3117350264209
 20
661.3089674509143
 30
0.0
 40
0.0049839797892712
100
AcDbArc
 50
323.8900261269188
 51
88.85116837979213
  0
ARC
  5
FC2
330
1F
100
AcDbEntity
  8
SANINDUSA
100
AcDbCircle
 10
795.8679776186929
 20
661.1365140625631
 30
0.0
 40
0.002
100
AcDbArc
 50
224.2372934002698
 51
270.0
  0
ARC
  5
FCA
330
1F
100
AcDbEntity
  8
SANINDUSA
100
AcDbCircle
 10
796.7119372868406
 20
659.0488525638152
 30
0.0
 40
2.300678234282886
100
AcDbArc
 50
104.3847549789961
 51
105.2793893876943
  0
LINE
  5
FD3
330
1F
100
AcDbEntity
  8
SANINDUSA
100
AcDbLine
 10
796.2059499350938
 20
661.1345140625631
 30
0.0
 11
796.0170905436369
 21
661.1345140625631
 31
0.0
  0
LWPOLYLINE
  5
FD4
330
1F
100
AcDbEntity
  8
SANINDUSA
100
AcDbPolyline
 90
        9
 70
   128
 43
0.0
 10
796.2059499350938
 20
661.1345140625631
 10
796.2062161056231
 20
661.1345318535418
 10
796.2064775407183
 20
661.1345849099588
 10
796.206729589193
 20
661.1346722878886
 10
796.2069677668583
 20
661.1347924327924
 10
796.2071878363005
 20
661.1349432071746
 10
796.2073858822686
 20
661.1351219286115
 10
796.2075583813314
 20
661.1353254174738
 10
796.2077022645614
 20
661.1355500534956
  0
LINE
  5
FD5
330
1F
100
AcDbEntity
  8
SANINDUSA
100
AcDbLine
 10
796.0170905436369
 20
661.1345140625631
 30
0.0
 11
795.8679776852822
 21
661.1345140625631
 31
0.0
  0
LINE
  5
FD8
330
1F
100
AcDbEntity
  8
SANINDUSA
100
AcDbLine
 10
795.9547833615531
 20
661.1216640625631
 30
0.0
 11
796.0211006538593
 21
661.1216640625631
 31
0.0
  0
ARC
  5
FD9
330
1F
100
AcDbEntity
  8
SANINDUSA
100
AcDbCircle
 10
795.9547833615531
 20
661.1226640625631
 30
0.0
 40
0.001
100
AcDbArc
 50
185.0000000022123
 51
270.0
  0
LWPOLYLINE
  5
FDB
330
1F
100
AcDbEntity
  8
SANINDUSA
100
AcDbPolyline
 90
       22
 70
   128
 43
0.0
 10
795.4143488072847
 20
661.0788765286121
 10
795.4174207519323
 20
661.0815328513714
 10
795.4243120742037
 20
661.0878009079527
 10
795.4308899458295
 20
661.0942131579292
 10
795.437133383995
 20
661.100743330022
 10
795.4430246903317
 20
661.1073633934442
 10
795.4486210591542
 20
661.1141263831211
 10
795.453871562365
 20
661.1209703592908
 10
795.4587687746222
 20
661.1278769715357
 10
795.4633271031272
 20
661.1348556511453
 10
795.4675590066939
 20
661.1419158151398
 10
795.471474193293
 20
661.1490655621618
 10
795.4750420655651
 20
661.1562437049306
 10
795.4782495550688
 20
661.1634079070442
 10
795.4811194931354
 20
661.1705904565965
 10
795.48365510353
 20
661.1777866094132
 10
795.4858596570889
 20
661.1849924109718
 10
795.4877363970027
 20
661.1922047861725
 10
795.4891212959165
 20
661.1985752374179
 10
795.4903051738305
 20
661.2054638077625
 10
795.4912192625301
 20
661.2122854812346
 10
795.4913114392486
 20
661.2131401645377
  0
LWPOLYLINE
  5
FDC
330
1F
100
AcDbEntity
  8
SANINDUSA
100
AcDbPolyline
 90
       21
 70
   128
 43
0.0
 10
795.2413435055151
 20
661.0059043911809
 10
795.2509567752074
 20
661.0071435447342
 10
795.2611308361172
 20
661.0087689834356
 10
795.2712647698897
 20
661.0107020216652
 10
795.2813117998226
 20
661.0129342388692
 10
795.2912664984608
 20
661.0154632192225
 10
795.3011234602522
 20
661.0182864739849
 10
795.3108775491341
 20
661.0214015087665
 10
795.3205238918927
 20
661.0248058460077
 10
795.3300578691664
 20
661.0284970465009
 10
795.3394681619491
 20
661.0324686972636
 10
795.3487682465557
 20
661.0367237869887
 10
795.357894572577
 20
661.0412427457778
 10
795.3667178005368
 20
661.0459624407915
 10
795.3752529522912
 20
661.0508842666746
 10
795.3835143265294
 20
661.0560104914164
 10
795.3915148438791
 20
661.0613438789617
 10
795.3992661820279
 20
661.0668877008509
 10
795.4067788886335
 20
661.0726457480701
 10
795.4140542580347
 20
661.0786173938471
 10
795.4143488072847
 20
661.0788765286121
  0
LWPOLYLINE
  5
FDD
330
1F
100
AcDbEntity
  8
SANINDUSA
100
AcDbPolyline
 90
       90
 70
   128
 43
0.0
 10
795.4913114392486
 20
661.2131401645377
 10
795.4917808639344
 20
661.2178120880928
 10
795.4921538378891
 20
661.224582578244
 10
795.4922435481688
 20
661.2318080646613
 10
795.4920151171604
 20
661.2387996318857
 10
795.4914778587636
 20
661.245708228308
 10
795.4906347562046
 20
661.2525423636998
 10
795.4894885206031
 20
661.2593062677799
 10
795.4880510761071
 20
661.2659870497875
 10
795.4863017643117
 20
661.2726912938708
 10
795.4842471917109
 20
661.2793746360202
 10
795.481889012733
 20
661.286022081418
 10
795.4792301015467
 20
661.2926171458057
 10
795.4762746701365
 20
661.2991421473833
 10
795.4730284119485
 20
661.3055783424865
 10
795.4694986133781
 20
661.3119061093633
 10
795.4656942248383
 20
661.3181051770429
 10
795.4616258838463
 20
661.3241548945288
 10
795.4573123126459
 20
661.3300313717596
 10
795.4527311815994
 20
661.3357738966556
 10
795.4478737004381
 20
661.3413929258958
 10
795.4427531166776
 20
661.3468712272627
 10
795.4373812373334
 20
661.3521955446027
 10
795.4317727264789
 20
661.3573515396661
 10
795.4259452965896
 20
661.3623240587383
 10
795.4199198294049
 20
661.3670974367473
 10
795.4137203524382
 20
661.3716558815133
 10
795.4073766189435
 20
661.3759834894497
 10
795.4009787953014
 20
661.3800401788305
 10
795.3944094476801
 20
661.3839110132403
 10
795.3875701179766
 20
661.3876475588166
 10
795.3804504569029
 20
661.3912424764564
 10
795.3730388522552
 20
661.3946880038355
 10
795.3653248529527
 20
661.3979747334704
 10
795.357300371808
 20
661.401091383612
 10
795.3489621980431
 20
661.4040243953215
 10
795.34028400313
 20
661.4067740661229
 10
795.3310319144909
 20
661.4093809396938
 10
795.3218177529102
 20
661.411651203055
 10
795.3127406270311
 20
661.4135785505748
 10
795.303853797044
 20
661.4151781659776
 10
795.2951723876872
 20
661.4164766896261
 10
795.2866873852912
 20
661.4175040359547
 10
795.2783847195406
 20
661.4182809612763
 10
795.2703270992907
 20
661.4188083772627
 10
795.2621302666675
 20
661.4191223830322
 10
795.2537719706892
 20
661.4192183490508
 10
795.2452520174477
 20
661.4190893250127
 10
795.2365709405332
 20
661.4187277538091
 10
795.2277304433976
 20
661.4181255184308
 10
795.2187336842611
 20
661.417274027424
 10
795.2095856076241
 20
661.4161643373489
 10
795.2002933230856
 20
661.4147873224494
 10
795.1908665302921
 20
661.4131339030674
 10
795.1813179821227
 20
661.4111953447814
 10
795.1716639676265
 20
661.4089636387499
 10
795.1619247809953
 20
661.4064319689533
 10
795.1521251231447
 20
661.4035952623325
 10
795.1422939077641
 20
661.4004506311186
 10
795.1324316213224
 20
661.3969839189563
 10
795.1226294644369
 20
661.393215958706
 10
795.1129274919447
 20
661.3891562458932
 10
795.1033746364545
 20
661.3848212006537
 10
795.0940095347101
 20
661.3802263698061
 10
795.0848664350121
 20
661.3753882021987
 10
795.0759764107041
 20
661.3703244732936
 10
795.0673413995238
 20
661.3650424148968
 10
795.0589661809116
 20
661.3595445323362
 10
795.0509321402027
 20
661.3538859833368
 10
795.0432239299449
 20
661.3480636231023
 10
795.0358271549104
 20
661.3420735898594
 10
795.0287288153134
 20
661.3359116320769
 10
795.0219172096461
 20
661.3295730872356
 10
795.0153811985065
 20
661.3230473685522
 10
795.0092547563741
 20
661.3164701284654
 10
795.0034602175256
 20
661.3097755157585
 10
794.9979982038854
 20
661.3029722005003
 10
794.9928784973184
 20
661.2960800205733
 10
794.9881077662047
 20
661.2891167652261
 10
794.9836899658933
 20
661.282098107128
 10
794.9796268014351
 20
661.2750376677541
 10
794.9759178651413
 20
661.2679464425972
 10
794.9725569688423
 20
661.2608236182775
 10
794.9695245683934
 20
661.253645696303
 10
794.9668173473416
 20
661.2464148820087
 10
794.9644484455975
 20
661.2391733847642
 10
794.962694952781
 20
661.2329826935568
 10
794.961110828366
 20
661.2262375665592
 10
794.9598392604281
 20
661.2196861583596
 10
794.9587745156224
 20
661.2135347754176
  0
ARC
  5
FDE
330
1F
100
AcDbEntity
  8
SANINDUSA
100
AcDbCircle
 10
795.2024560579871
 20
661.3629756657346
 30
0.0
 40
0.3591825840524134
100
AcDbArc
 50
268.2714597834133
 51
276.2153975269257
  0
LWPOLYLINE
  5
FDF
330
1F
100
AcDbEntity
  8
SANINDUSA
100
AcDbPolyline
 90
       23
 70
   128
 43
0.0
 10
795.0180433083633
 20
661.0648082608803
 10
795.0197853786751
 20
661.0632811715126
 10
795.0257830601287
 20
661.0584161549171
 10
795.0320493880028
 20
661.0537303865868
 10
795.0385583641435
 20
661.0492492000211
 10
795.0452891762824
 20
661.0449854377797
 10
795.0523108283277
 20
661.040891924604
 10
795.0596376397702
 20
661.0369642611966
 10
795.067249309511
 20
661.0332177612034
 10
795.07511635068
 20
661.0296691644307
 10
795.0832216904569
 20
661.0263227462467
 10
795.091586316448
 20
661.0231696245043
 10
795.1001022606001
 20
661.0202472012186
 10
795.1087460684979
 20
661.0175531690038
 10
795.1174931955034
 20
661.0150858906377
 10
795.1262835934289
 20
661.012865323898
 10
795.1351854328605
 20
661.0108729783432
 10
795.1442729636693
 20
661.0090980717933
 10
795.1535125812056
 20
661.0075572244743
 10
795.162895692735
 20
661.0062645355611
 10
795.1724121229817
 20
661.0052289486052
 10
795.1821408662976
 20
661.0044488109775
 10
795.1916181411307
 20
661.0039576823315
  0
LWPOLYLINE
  5
FE0
330
1F
100
AcDbEntity
  8
SANINDUSA
100
AcDbPolyline
 90
       25
 70
   128
 43
0.0
 10
794.9587750052252
 20
661.2135391574969
 10
794.9578846637312
 20
661.2055703571119
 10
794.9573495017863
 20
661.1984663188664
 10
794.957113948461
 20
661.1918568350639
 10
794.9571597471572
 20
661.1855806360022
 10
794.9575078024985
 20
661.1789642294565
 10
794.9581698426026
 20
661.1721724502514
 10
794.959150963141
 20
661.1653074443267
 10
794.9604458182973
 20
661.158463323014
 10
794.9620431948617
 20
661.151714822852
 10
794.9639342814939
 20
661.1450840166904
 10
794.9661315123671
 20
661.138514463607
 10
794.9686375291276
 20
661.1320008601997
 10
794.9714569955236
 20
661.1255356167292
 10
794.9746050109211
 20
661.1191019922975
 10
794.9780385076693
 20
661.1127954522928
 10
794.981782272815
 20
661.1065646952758
 10
794.9858274789749
 20
661.1004343610231
 10
794.9901401361803
 20
661.0944626770515
 10
794.9947200613943
 20
661.0886391862025
 10
794.9996381219841
 20
661.0828823842789
 10
795.0048463146275
 20
661.0772602222032
 10
795.0103563897465
 20
661.0717652136421
 10
795.0161665229644
 20
661.0664096182391
 10
795.0180433083633
 20
661.0648082608803
  0
LWPOLYLINE
  5
FE1
330
1F
100
AcDbEntity
  8
SANINDUSA
100
AcDbPolyline
 90
       14
 70
   128
 43
0.0
 10
795.4108182227218
 20
661.0818384788285
 10
795.4218165760687
 20
661.0916814717268
 10
795.4322811149404
 20
661.1021881593016
 10
795.4399905155087
 20
661.1108050151671
 10
795.447293430931
 20
661.1198200009456
 10
795.4563828039172
 20
661.1325370892881
 10
795.4646083927927
 20
661.1460441611669
 10
795.4683379898649
 20
661.1530605171902
 10
795.4746242948814
 20
661.1668026067983
 10
795.4798028233732
 20
661.1811261566957
 10
795.4821435644747
 20
661.1892703688212
 10
795.4840822309686
 20
661.1975454865964
 10
795.4855335257892
 20
661.2055047376298
 10
795.48659041905
 20
661.2135487873522
  0
LWPOLYLINE
  5
FE2
330
1F
100
AcDbEntity
  8
SANINDUSA
100
AcDbPolyline
 90
       15
 70
   128
 43
0.0
 10
795.2393066486281
 20
661.0115974932058
 10
795.2554988218178
 20
661.0137191614598
 10
795.2716372211821
 20
661.0166339240172
 10
795.2824158024254
 20
661.0190356344791
 10
795.293147603615
 20
661.0217939437619
 10
795.3092275201092
 20
661.026626915901
 10
795.3251350291508
 20
661.0322859205378
 10
795.3363878243772
 20
661.0368475123013
 10
795.3475166807998
 20
661.0418430293369
 10
795.3584851547914
 20
661.0472697011211
 10
795.3693739389056
 20
661.0531938330092
 10
795.3800506177461
 20
661.0595757018168
 10
795.3905911938594
 20
661.0664983552148
 10
795.4008528686039
 20
661.0739106270606
 10
795.4108182227218
 20
661.0818384788285
  0
LWPOLYLINE
  5
FE3
330
1F
100
AcDbEntity
  8
SANINDUSA
100
AcDbPolyline
 90
       59
 70
   128
 43
0.0
 10
795.4865904190492
 20
661.2135487873523
 10
795.4874005131295
 20
661.2263088509966
 10
795.4871444246459
 20
661.2391856883247
 10
795.4857948922932
 20
661.2520991698594
 10
795.4832946233709
 20
661.2649373126297
 10
795.4828432258302
 20
661.2667729024102
 10
795.4790943196734
 20
661.279417255968
 10
795.474292771504
 20
661.2917774658216
 10
795.4684729899682
 20
661.3037765557964
 10
795.4616861435721
 20
661.3153205001513
 10
795.454075825985
 20
661.3262254128568
 10
795.4456537143352
 20
661.3365542642167
 10
795.4364998181666
 20
661.346272184921
 10
795.4267035927474
 20
661.3553336478774
 10
795.4152014826184
 20
661.3645864820427
 10
795.403150563404
 20
661.372997107447
 10
795.3906792767541
 20
661.3805600923842
 10
795.377852025224
 20
661.3873185371544
 10
795.3669564218928
 20
661.3923430949925
 10
795.3558774824411
 20
661.3968379025855
 10
795.3446412536878
 20
661.4008114358552
 10
795.3331724040845
 20
661.4043066473807
 10
795.321511613132
 20
661.4073162224354
 10
795.3095625116657
 20
661.4098643693175
 10
795.2973591702937
 20
661.4119322681871
 10
795.2848394643349
 20
661.4134946130924
 10
795.2748167905666
 20
661.4143334787127
 10
795.2646099619962
 20
661.4148123354347
 10
795.2542788837054
 20
661.414930866661
 10
795.2437792249344
 20
661.4146894334322
 10
795.2332107244231
 20
661.4140887182408
 10
795.2225249846616
 20
661.4131261827218
 10
795.2118183745997
 20
661.4118133657614
 10
795.201081311668
 20
661.4101529576934
 10
795.1877993004911
 20
661.4076252072893
 10
795.1745415354654
 20
661.404580164492
 10
795.1613674938531
 20
661.401037163839
 10
795.148227891989
 20
661.3969741871815
 10
795.1352266238593
 20
661.3924086269799
 10
795.1223138582856
 20
661.3873103453174
 10
795.1095876501333
 20
661.3817096558145
 10
795.0970439062566
 20
661.3755869160587
 10
795.0849310526884
 20
661.3690477444077
 10
795.0730459831317
 20
661.361970495663
 10
795.0614622850471
 20
661.3543638734753
 10
795.0501316819797
 20
661.3461482047021
 10
795.0391902586586
 20
661.337369430916
 10
795.0286039413399
 20
661.327941015068
 10
795.0185175895984
 20
661.3179206194518
 10
795.0089639157761
 20
661.3072639615173
 10
795.0004168965003
 20
661.2964921946609
 10
794.9925293449715
 20
661.2851627625822
 10
794.9860143515855
 20
661.2744155895029
 10
794.9801707908602
 20
661.2632314464603
 10
794.9753702050153
 20
661.2523844843758
 10
794.9718063517933
 20
661.2427862294948
 10
794.9688004923731
 20
661.2329617712223
 10
794.9663858395369
 20
661.2229316612203
 10
794.9645997292932
 20
661.2127292865276
  0
LWPOLYLINE
  5
FEE
330
1F
100
AcDbEntity
  8
SANINDUSA
100
AcDbPolyline
 90
       17
 70
   128
 43
0.0
 10
794.9645997292932
 20
661.2127292865276
 10
794.9634115433355
 20
661.2016638740294
 10
794.9629794754646
 20
661.1905430263599
 10
794.9633752975835
 20
661.1792570788496
 10
794.9646500500419
 20
661.1680356771117
 10
794.9664635837398
 20
661.1583335689086
 10
794.9689210136374
 20
661.1487743699101
 10
794.9714512700815
 20
661.1409562176776
 10
794.9744031193676
 20
661.1332870656487
 10
794.9774200244367
 20
661.1264941483382
 10
794.9807530437308
 20
661.1198504984149
 10
794.984417414197
 20
661.1133206575244
 10
794.9881814699526
 20
661.1072616836728
 10
794.9964970384485
 20
661.0955951183866
 10
795.0058595120025
 20
661.0844942614663
 10
795.0161936856101
 20
661.0740242694322
 10
795.021669831411
 20
661.0690711679869
  0
LWPOLYLINE
  5
FF0
330
1F
100
AcDbEntity
  8
SANINDUSA
100
AcDbPolyline
 90
       12
 70
   128
 43
0.0
 10
795.3889682850213
 20
661.1974953419079
 10
795.3917195934608
 20
661.2089159335019
 10
795.3923927277878
 20
661.2128269998958
 10
795.3929302495475
 20
661.2167696955951
 10
795.3929295889492
 20
661.2167641137073
 10
795.3933261537303
 20
661.2207220626438
 10
795.3936819187791
 20
661.2288419662476
 10
795.3936243885578
 20
661.232931675778
 10
795.3934051891654
 20
661.2370158758571
 10
795.3930114942102
 20
661.2411632590724
 10
795.3924822588142
 20
661.2450470303689
 10
795.3918002254703
 20
661.2489101614515
  0
LWPOLYLINE
  5
FF1
330
1F
100
AcDbEntity
  8
SANINDUSA
100
AcDbPolyline
 90
        9
 70
   128
 43
0.0
 10
795.3521335254373
 20
661.1354059881245
 10
795.3578056885772
 20
661.1417759684242
 10
795.3632113613116
 20
661.1484280865444
 10
795.3710620260007
 20
661.1594191160507
 10
795.3780671939683
 20
661.1711716808732
 10
795.3812591162026
 20
661.1774551670109
 10
795.384153967901
 20
661.1839279224231
 10
795.3867410650077
 20
661.1906219136592
 10
795.3889682850213
 20
661.1974953419079
  0
LWPOLYLINE
  5
FF2
330
1F
100
AcDbEntity
  8
SANINDUSA
100
AcDbPolyline
 90
       10
 70
   128
 43
0.0
 10
795.3818546150154
 20
661.2769338512481
 10
795.3769033476041
 20
661.2853756045693
 10
795.3712173634806
 20
661.2933392250578
 10
795.3647408821944
 20
661.3008890095175
 10
795.3576379407294
 20
661.307798035317
 10
795.354199724265
 20
661.3107231524082
 10
795.3459491196648
 20
661.3168099933123
 10
795.3372405787935
 20
661.322074842872
 10
795.3280590837225
 20
661.3266412933498
 10
795.3186091276464
 20
661.3304960024253
  0
ARC
  5
FF3
330
1F
100
AcDbEntity
  8
SANINDUSA
100
AcDbCircle
 10
795.2927862867138
 20
661.2294134350461
 30
0.0
 40
0.1009152238693218
100
AcDbArc
 50
11.13953686657329
 51
19.04325787025075
  0
LWPOLYLINE
  5
FF4
330
1F
100
AcDbEntity
  8
SANINDUSA
100
AcDbPolyline
 90
        3
 70
   128
 43
0.0
 10
795.3881786731431
 20
661.2623402481308
 10
795.3852970780214
 20
661.2697537663523
 10
795.3818546150154
 20
661.2769338512481
  0
LWPOLYLINE
  5
FF5
330
1F
100
AcDbEntity
  8
SANINDUSA
100
AcDbPolyline
 90
       12
 70
   128
 43
0.0
 10
795.2327167710913
 20
661.069903450265
 10
795.2420269092826
 20
661.0717018217355
 10
795.2512597342449
 20
661.0739499966596
 10
795.2650978925366
 20
661.0782491382598
 10
795.2786516660907
 20
661.0835841212709
 10
795.287579046481
 20
661.0877246955606
 10
795.2991674183246
 20
661.093870402279
 10
795.3104058574415
 20
661.1006897534888
 10
795.3200975938074
 20
661.1073011767589
 10
795.3294810626398
 20
661.1144229042545
 10
795.3411676936249
 20
661.1244813904058
 10
795.3521335254373
 20
661.1354059881245
  0
LWPOLYLINE
  5
FF6
330
1F
100
AcDbEntity
  8
SANINDUSA
100
AcDbPolyline
 90
       10
 70
   128
 43
0.0
 10
795.1914738968322
 20
661.3363204079201
 10
795.1824269142663
 20
661.3341620464947
 10
795.1734242346588
 20
661.3316420499605
 10
795.164450199763
 20
661.3287655780274
 10
795.1555667395406
 20
661.3255114649223
 10
795.1448113679391
 20
661.3209766082611
 10
795.1342742668513
 20
661.3158204284693
 10
795.1239429991077
 20
661.309957966201
 10
795.1139708810017
 20
661.3033793704683
 10
795.1076961357726
 20
661.2986984809364
  0
ARC
  5
FF7
330
1F
100
AcDbEntity
  8
SANINDUSA
100
AcDbCircle
 10
795.2448768479036
 20
661.0897805939688
 30
0.0
 40
0.2522573191133986
100
AcDbArc
 50
92.4877207163078
 51
102.222013017926
  0
ARC
  5
FF8
330
1F
100
AcDbEntity
  8
SANINDUSA
100
AcDbCircle
 10
795.2454896674465
 20
661.0894198541623
 30
0.0
 40
0.2526450229147725
100
AcDbArc
 50
78.235116305985
 51
92.62301637797213
  0
ARC
  5
FF9
330
1F
100
AcDbEntity
  8
SANINDUSA
100
AcDbCircle
 10
795.2615128489931
 20
661.17388446051
 30
0.0
 40
0.1666948112483979
100
AcDbArc
 50
69.96952961932949
 51
77.70735734248045
  0
ARC
  5
FFA
330
1F
100
AcDbEntity
  8
SANINDUSA
100
AcDbCircle
 10
795.1981039362033
 20
661.2817733916219
 30
0.0
 40
0.2146786444653723
100
AcDbArc
 50
254.1259590396715
 51
279.2783503055745
  0
LWPOLYLINE
  5
FFB
330
1F
100
AcDbEntity
  8
SANINDUSA
100
AcDbPolyline
 90
       51
 70
   128
 43
0.0
 10
795.1076961357726
 20
661.2986984809364
 10
795.1149221754359
 20
661.3020259294686
 10
795.1224344282427
 20
661.3047731512367
 10
795.1302858827074
 20
661.3069574285535
 10
795.1383326670387
 20
661.3085315804108
 10
795.1461908248707
 20
661.3094685214456
 10
795.1541427662531
 20
661.3098442230596
 10
795.1622316207179
 20
661.3096581697098
 10
795.170336880894
 20
661.3089047848974
 10
795.1782745454831
 20
661.3076149037418
 10
795.1861583068837
 20
661.3058127655293
 10
795.1940236706559
 20
661.3034976484911
 10
795.2017727280256
 20
661.3007026781501
 10
795.2089105358358
 20
661.297658412161
 10
795.2158933993502
 20
661.2942155396296
 10
795.2227418354583
 20
661.2903521733387
 10
795.2293763461252
 20
661.2860897413384
 10
795.2375910698594
 20
661.2799684825059
 10
795.2453126294833
 20
661.2731361299739
 10
795.2525494540646
 20
661.2654501973639
 10
795.2590890048882
 20
661.257038388783
 10
795.2638285292855
 20
661.2497129048371
 10
795.2680119159141
 20
661.2419918318754
 10
795.2716551041169
 20
661.2338227794173
 10
795.2746809532523
 20
661.2253483122501
 10
795.2770731404665
 20
661.2166266390026
 10
795.2788147817285
 20
661.207701394668
 10
795.2798900174215
 20
661.1985110828689
 10
795.2802452784967
 20
661.1892096348793
 10
795.2799537323507
 20
661.1808262023497
 10
795.2790840178699
 20
661.1724461687867
 10
795.2776091890714
 20
661.1640271097709
 10
795.2755191754532
 20
661.1556975515232
 10
795.2721120750325
 20
661.1456705849034
 10
795.2677733904859
 20
661.1359207266838
 10
795.2623846106022
 20
661.1263783591773
 10
795.2560279397125
 20
661.1173237431491
 10
795.2496886390061
 20
661.109881978612
 10
795.2426484353751
 20
661.1029783171144
 10
795.2348124915022
 20
661.0965762317122
 10
795.2263388495865
 20
661.0908691774559
 10
795.2227310466931
 20
661.0887636299562
 10
795.217243610701
 20
661.0858861692851
 10
795.2115866396168
 20
661.0833040904309
 10
795.2057444627577
 20
661.0810062826202
 10
795.1997696133504
 20
661.0790164042703
 10
795.1881279735474
 20
661.0760740297428
 10
795.176150505914
 20
661.0742346020169
 10
795.1637308326722
 20
661.0734760474721
 10
795.1511916988319
 20
661.0738500196482
 10
795.1393842919108
 20
661.0752814456199
  0
ARC
  5
FFC
330
1F
100
AcDbEntity
  8
SANINDUSA
100
AcDbCircle
 10
795.2049149013701
 20
661.3324471258964
 30
0.0
 40
0.3226875874234906
100
AcDbArc
 50
267.4510192300651
 51
276.1181519396973
  0
LWPOLYLINE
  5
FFD
330
1F
100
AcDbEntity
  8
SANINDUSA
100
AcDbPolyline
 90
        3
 70
   128
 43
0.0
 10
795.0509389979242
 20
661.2262537215035
 10
795.0529072405521
 20
661.2315860823414
 10
795.0550654458333
 20
661.2368520618294
  0
ARC
  5
FFE
330
1F
100
AcDbEntity
  8
SANINDUSA
100
AcDbCircle
 10
795.164090519967
 20
661.2026905636472
 30
0.0
 40
0.1297824374144975
100
AcDbArc
 50
229.3744318199244
 51
259.025826655559
  0
LWPOLYLINE
  5
FFF
330
1F
100
AcDbEntity
  8
SANINDUSA
100
AcDbPolyline
 90
       16
 70
   128
 43
0.0
 10
795.021669831411
 20
661.0690711679869
 10
795.0287432188331
 20
661.0633235584197
 10
795.0360839218725
 20
661.0579214116087
 10
795.0437032237231
 20
661.0528399422823
 10
795.0515394274169
 20
661.0481007096892
 10
795.0628086108133
 20
661.0420323463241
 10
795.0744185612315
 20
661.0365635110861
 10
795.0863818821122
 20
661.0316313278008
 10
795.0985657042648
 20
661.0272377026095
 10
795.1110362755311
 20
661.023317366406
 10
795.1236294069661
 20
661.0198893801081
 10
795.13329417683
 20
661.0176131262816
 10
795.1429847933801
 20
661.0156299479201
 10
795.1607999310827
 20
661.0127437866309
 10
795.1786292499462
 20
661.0108256995354
 10
795.1905638764658
 20
661.0100788160994
  0
ARC
  5
1000
330
1F
100
AcDbEntity
  8
SANINDUSA
100
AcDbCircle
 10
795.1788480172776
 20
661.1848316272739
 30
0.0
 40
0.1342693211597774
100
AcDbArc
 50
121.9999907567228
 51
157.2051010532982
  0
LWPOLYLINE
  5
1002
330
1F
100
AcDbEntity
  8
SANINDUSA
100
AcDbPolyline
 90
        3
 70
   128
 43
0.0
 10
795.0487425700437
 20
661.2177682384762
 10
795.0487425831632
 20
661.2177682969019
 10
795.0509389979242
 20
661.2262537215035
  0
ARC
  5
1003
330
1F
100
AcDbEntity
  8
SANINDUSA
100
AcDbCircle
 10
795.1772846249144
 20
661.18675357976
 30
0.0
 40
0.132230741227905
100
AcDbArc
 50
166.4349291675304
 51
178.0325260067358
  0
LWPOLYLINE
  5
1004
330
1F
100
AcDbEntity
  8
SANINDUSA
100
AcDbPolyline
 90
       12
 70
   128
 43
0.0
 10
795.0795874908499
 20
661.1041881822989
 10
795.07130253903
 20
661.1128708579589
 10
795.0674948036246
 20
661.1176133972905
 10
795.063963730015
 20
661.1225667042706
 10
795.0590611839057
 20
661.1306208434405
 10
795.0548814225413
 20
661.1390774147517
 10
795.0513417092028
 20
661.1481478236202
 10
795.0485904185312
 20
661.1574919901561
 10
795.0468600406223
 20
661.1657468234089
 10
795.0457144638593
 20
661.1741042447418
 10
795.0451310818513
 20
661.1826896263648
 10
795.0451318366264
 20
661.1912933455429
  0
CIRCLE
  5
100A
330
1F
100
AcDbEntity
  8
SANINDUSA
100
AcDbCircle
 10
795.1634845508618
 20
661.1912933396731
 30
0.0
 40
0.0477818441100243
  0
CIRCLE
  5
100E
330
1F
100
AcDbEntity
  8
SANINDUSA
100
AcDbCircle
 10
795.163463975951
 20
661.1912933421256
 30
0.0
 40
0.0351170654113875
  0
CIRCLE
  5
1010
330
1F
100
AcDbEntity
  8
SANINDUSA
100
AcDbCircle
 10
795.163463975951
 20
661.1912933421256
 30
0.0
 40
0.0235
  0
LINE
  5
1130
330
1F
100
AcDbEntity
  8
hid
 62
     9
 48
0.1
100
AcDbLine
 10
796.6418403192278
 20
661.1345140966525
 30
0.0
 11
796.6409044265675
 21
661.1345140966525
 31
0.0
  0
LINE
  5
1131
330
1F
100
AcDbEntity
  8
hid
 62
     9
 48
0.1
100
AcDbLine
 10
796.9098700761731
 20
661.1345140625631
 30
0.0
 11
796.9109069198832
 21
661.1345140625631
 31
0.0
  0
LINE
  5
1132
330
1F
100
AcDbEntity
  8
hid
 62
     9
 48
0.1
100
AcDbLine
 10
796.9109069198832
 20
661.1345140625631
 30
0.0
 11
796.9114674693336
 21
661.135321549893
 31
0.0
  0
LINE
  5
1133
330
1F
100
AcDbEntity
  8
hid
 62
     9
 48
0.1
100
AcDbLine
 10
796.6409044265675
 20
661.1345140966525
 30
0.0
 11
796.6403114813474
 21
661.1352385966584
 31
0.0
  0
ARC
  5
1143
330
1F
100
AcDbEntity
  8
SANINDUSA
100
AcDbCircle
 10
794.9246495403016
 20
660.2003662238794
 30
0.0
 40
1.326999999999999
100
AcDbArc
 50
44.7819181293127
 51
49.67385423027448
  0
ARC
  5
1146
330
1F
100
AcDbEntity
  8
SANINDUSA
100
AcDbCircle
 10
797.7065830221722
 20
660.304967763358
 30
0.0
 40
1.713624949110606
100
AcDbArc
 50
144.2550408440864
 51
151.0076290127065
  0
ARC
  5
118D
330
1F
100
AcDbEntity
  8
SANINDUSA
100
AcDbCircle
 10
822.0292094060891
 20
641.742479339465
 30
0.0
 40
31.733
100
AcDbArc
 50
142.1283913768284
 51
142.3290789769504
  0
ARC
  5
136E
330
1F
100
AcDbEntity
  8
SANINDUSA
100
AcDbCircle
 10
797.4130988526567
 20
661.1419301854116
 30
0.0
 40
0.0048826921378257
100
AcDbArc
 50
44.85797044075977
 51
86.54126927334569
  0
ARC
  5
136F
330
1F
100
AcDbEntity
  8
SANINDUSA
100
AcDbCircle
 10
797.4140365725918
 20
661.1424856200565
 30
0.0
 40
0.0038355588277923
100
AcDbArc
 50
18.81151549128557
 51
48.86011749871305
  0
ARC
  5
1370
330
1F
100
AcDbEntity
  8
SANINDUSA
100
AcDbCircle
 10
797.0946941705443
 20
663.4160618168577
 30
0.0
 40
2.20399652345186
100
AcDbArc
 50
285.9836804611982
 51
287.0619893234414
  0
ARC
  5
1371
330
1F
100
AcDbEntity
  8
SANINDUSA
100
AcDbCircle
 10
797.3148968956897
 20
662.5234209410368
 30
0.0
 40
1.303247189350414
100
AcDbArc
 50
268.2010546559571
 51
270.75756889233
  0
ARC
  5
1372
330
1F
100
AcDbEntity
  8
SANINDUSA
100
AcDbCircle
 10
797.0189630401173
 20
663.7162538225736
 30
0.0
 40
2.513452486582718
100
AcDbArc
 50
283.9912715611976
 51
285.7581568127334
  0
LWPOLYLINE
  5
1373
330
1F
100
AcDbEntity
  8
SANINDUSA
100
AcDbPolyline
 90
       23
 70
   128
 43
0.0
 10
797.3321280211125
 20
661.220287668932
 10
797.3346800876031
 20
661.220305036411
 10
797.340637444297
 20
661.2203967648897
 10
797.3468568183732
 20
661.2205023479218
 10
797.353325515336
 20
661.2206253199667
 10
797.3600524199301
 20
661.2207776978815
 10
797.3671226863177
 20
661.2209779260418
 10
797.3744529545045
 20
661.2212417890301
 10
797.3820393429823
 20
661.221588481454
 10
797.3898716366755
 20
661.222038760244
 10
797.3979329353037
 20
661.2226146743315
 10
797.4061983887314
 20
661.2233390101302
 10
797.4146343984057
 20
661.2242344538847
 10
797.4231986862005
 20
661.2253225124253
 10
797.431847031402
 20
661.2266140938855
 10
797.4404116797838
 20
661.2280697892223
 10
797.4491649394134
 20
661.2297237925887
 10
797.4581048298058
 20
661.23157096698
 10
797.4672356619203
 20
661.2336062479235
 10
797.4765602009774
 20
661.2358230966814
 10
797.4860792242061
 20
661.2382131033144
 10
797.4957908370521
 20
661.2407655046041
 10
797.5013723929009
 20
661.2422919500862
  0
ARC
  5
1374
330
1F
100
AcDbEntity
  8
SANINDUSA
100
AcDbCircle
 10
796.8994645031811
 20
663.4486998474837
 30
0.0
 40
2.287034961998959
100
AcDbArc
 50
285.2589926500201
 51
286.5306935884477
  0
ARC
  5
1375
330
1F
100
AcDbEntity
  8
SANINDUSA
100
AcDbCircle
 10
797.7711505808845
 20
661.2093417648866
 30
0.0
 40
0.0940618779327255
100
AcDbArc
 50
91.27829418987293
 51
134.5024974970852
  0
ARC
  5
1376
330
1F
100
AcDbEntity
  8
SANINDUSA
100
AcDbCircle
 10
797.6900009244294
 20
661.1365595433851
 30
0.0
 40
0.0020455167750846
100
AcDbArc
 50
269.6602926391574
 51
331.1104671508811
  0
ARC
  5
1377
330
1F
100
AcDbEntity
  8
SANINDUSA
100
AcDbCircle
 10
796.1484622940397
 20
659.8786403038117
 30
0.0
 40
1.752249411549163
100
AcDbArc
 50
46.24599661499682
 51
49.22448734998759
  0
ARC
  5
1378
330
1F
100
AcDbEntity
  8
SANINDUSA
100
AcDbCircle
 10
797.2935042531114
 20
661.2063309345923
 30
0.0
 40
0.001
100
AcDbArc
 50
79.32895692104735
 51
229.2244873499876
  0
ARC
  5
1379
330
1F
100
AcDbEntity
  8
SANINDUSA
100
AcDbCircle
 10
797.3609456413465
 20
661.1450397793332
 30
0.0
 40
0.001
100
AcDbArc
 50
226.2459966149968
 51
349.7268572386779
  0
ARC
  5
137A
330
1F
100
AcDbEntity
  8
SANINDUSA
100
AcDbCircle
 10
796.2141327059327
 20
659.9533321117114
 30
0.0
 40
1.642785795741423
100
AcDbArc
 50
46.00178438974288
 51
50.01451524285631
  0
LWPOLYLINE
  5
137B
330
1F
100
AcDbEntity
  8
9
100
AcDbPolyline
 90
        3
 70
   128
 43
0.0
 10
797.2697847804421
 20
661.2120391951235
 10
797.2697744758216
 20
661.2120407375549
 10
797.2697762134605
 20
661.2120465176448
  0
ARC
  5
137C
330
1F
100
AcDbEntity
  8
SANINDUSA
100
AcDbCircle
 10
797.5424633939558
 20
661.2300002977077
 30
0.0
 40
0.0701548507746213
100
AcDbArc
 50
276.3954059707444
 51
313.9051358565068
  0
LWPOLYLINE
  5
137D
330
1F
100
AcDbEntity
  8
SANINDUSA
100
AcDbPolyline
 90
        3
 70
   128
 43
0.0
 10
797.5911134267465
 20
661.1794545026633
 10
797.6468936386322
 20
661.2335149411461
 10
797.6978634613122
 20
661.2833262510977
  0
ARC
  5
137E
330
1F
100
AcDbEntity
  8
SANINDUSA
100
AcDbCircle
 10
797.3567038281935
 20
661.1365877934076
 30
0.0
 40
0.0020737309718707
100
AcDbArc
 50
226.2878621578995
 51
270.020078109112
  0
LINE
  5
137F
330
1F
100
AcDbEntity
  8
SANINDUSA
100
AcDbLine
 10
797.2924898022471
 20
661.217667005575
 30
0.0
 11
797.2738703953124
 21
661.2208023723895
 31
0.0
  0
LINE
  5
1380
330
1F
100
AcDbEntity
  8
SANINDUSA
100
AcDbLine
 10
797.5357502965215
 20
661.1487490179645
 30
0.0
 11
797.5513950183851
 21
661.1503446255088
 31
0.0
  0
LINE
  5
1381
330
1F
100
AcDbEntity
  8
SANINDUSA
100
AcDbLine
 10
797.4090925962081
 20
661.1468032702148
 30
0.0
 11
797.4133934234349
 21
661.1468039837835
 31
0.0
  0
LINE
  5
1382
330
1F
100
AcDbEntity
  8
9
100
AcDbLine
 10
797.4090925962081
 20
661.1468032702148
 30
0.0
 11
797.4090544303662
 21
661.1468032898963
 31
0.0
  0
ARC
  5
1383
330
1F
100
AcDbEntity
  8
SANINDUSA
100
AcDbCircle
 10
797.2769766393249
 20
661.1186180498337
 30
0.0
 40
0.0902564404967946
100
AcDbArc
 50
42.24690763427464
 51
79.32895692104735
  0
ARC
  5
1384
330
1F
100
AcDbEntity
  8
SANINDUSA
100
AcDbCircle
 10
797.5362020858788
 20
661.1437694711595
 30
0.0
 40
0.0050000000005712
100
AcDbArc
 50
95.18419550326751
 51
163.4775987498399
  0
ARC
  5
1385
330
1F
100
AcDbEntity
  8
SANINDUSA
100
AcDbCircle
 10
797.4315266165908
 20
661.1494666068709
 30
0.0
 40
0.0150000000000001
100
AcDbArc
 50
202.500176967008
 51
266.4691399428441
  0
ARC
  5
1386
330
1F
100
AcDbEntity
  8
SANINDUSA
100
AcDbCircle
 10
797.5170279135078
 20
661.1494572751215
 30
0.0
 40
0.0150000000000015
100
AcDbArc
 50
273.862566950073
 51
343.4775987498399
  0
ARC
  5
1387
330
1F
100
AcDbEntity
  8
SANINDUSA
100
AcDbCircle
 10
797.5271503569563
 20
661.1530427303413
 30
0.0
 40
0.0050000000003755
100
AcDbArc
 50
94.42653454049084
 51
178.0000000027562
  0
LWPOLYLINE
  5
1388
330
1F
100
AcDbEntity
  8
SANINDUSA
100
AcDbPolyline
 90
       33
 70
   128
 43
0.0
 10
797.5267644531066
 20
661.1580278159196
 10
797.526753541071
 20
661.1580276586554
 10
797.526276602199
 20
661.1580203258944
 10
797.5251736222501
 20
661.1580034927164
 10
797.5234510348823
 20
661.1579777832741
 10
797.5209952738048
 20
661.1579423679682
 10
797.5180746910006
 20
661.1579020611917
 10
797.5146204191064
 20
661.1578567380146
 10
797.5104598420585
 20
661.1578051456124
 10
797.5060453678334
 20
661.1577534068831
 10
797.5012428517885
 20
661.1576997926252
 10
797.4958395983289
 20
661.1576415034043
 10
797.4907163676451
 20
661.157586661877
 10
797.4853525192228
 20
661.1575284935359
 10
797.4796153116321
 20
661.1574654434032
 10
797.4738118760472
 20
661.1574012160884
 10
797.4677162967545
 20
661.1573338155277
 10
797.4619949280337
 20
661.1572710121488
 10
797.4564227070746
 20
661.1572104277943
 10
797.4507988991165
 20
661.1571496103181
 10
797.4457384857193
 20
661.1570944302944
 10
797.4433169635128
 20
661.1570676254053
 10
797.4410265204494
 20
661.1570419360718
 10
797.436510549175
 20
661.1569900922911
 10
797.4326873302771
 20
661.1569446996711
 10
797.4309509016318
 20
661.1569235575352
 10
797.4293727357138
 20
661.156904031828
 10
797.4264802241245
 20
661.1568674246505
 10
797.4243289664748
 20
661.1568394663304
 10
797.4234752684699
 20
661.1568281894343
 10
797.4227890985812
 20
661.1568190484006
 10
797.421849930697
 20
661.1568064239929
 10
797.4216092703211
 20
661.1568031689404
  0
ARC
  5
1389
330
1F
100
AcDbEntity
  8
SANINDUSA
100
AcDbCircle
 10
797.4215918916131
 20
661.1518031991424
 30
0.0
 40
0.0050000000000001
100
AcDbArc
 50
1.999999997243794
 51
89.80085427098124
  0
ARC
  5
138A
330
1F
100
AcDbEntity
  8
SANINDUSA
100
AcDbCircle
 10
797.4299869631994
 20
661.1245140625631
 30
0.0
 40
0.01
100
AcDbArc
 50
5.000000002212392
 51
86.46913994284412
  0
ARC
  5
138B
330
1F
100
AcDbEntity
  8
SANINDUSA
100
AcDbCircle
 10
797.5187119999864
 20
661.1245140625631
 30
0.0
 40
0.01
100
AcDbArc
 50
93.86256695007295
 51
174.9999999977876
  0
LINE
  5
138C
330
1F
100
AcDbEntity
  8
SANINDUSA
100
AcDbLine
 10
797.5220179918539
 20
661.1493395650795
 30
0.0
 11
797.5221534028208
 21
661.1532172278248
 31
0.0
  0
LINE
  5
138D
330
1F
100
AcDbEntity
  8
SANINDUSA
100
AcDbLine
 10
797.4265888457482
 20
661.1519776966259
 30
0.0
 11
797.4266809713318
 21
661.1493395650795
 31
0.0
  0
LINE
  5
138E
330
1F
100
AcDbEntity
  8
SANINDUSA
100
AcDbLine
 10
797.5267644531066
 20
661.1580278159196
 30
0.0
 11
797.5502778902106
 21
661.1602820308368
 31
0.0
  0
LINE
  5
138F
330
1F
100
AcDbEntity
  8
SANINDUSA
100
AcDbLine
 10
797.4090566931257
 20
661.156803205763
 30
0.0
 11
797.4216092703207
 21
661.1568031689404
 31
0.0
  0
LINE
  5
1390
330
1F
100
AcDbEntity
  8
SANINDUSA
100
AcDbLine
 10
797.3437893679184
 20
661.1792998786545
 30
0.0
 11
797.3484994103603
 21
661.1740334909325
 31
0.0
  0
ARC
  5
1391
330
1F
100
AcDbEntity
  8
SANINDUSA
100
AcDbCircle
 10
797.4316779254669
 20
661.1495140625631
 30
0.0
 40
0.0050000000000001
100
AcDbArc
 50
181.9999999972438
 51
270.0
  0
ARC
  5
1392
330
1F
100
AcDbEntity
  8
SANINDUSA
100
AcDbCircle
 10
797.4087359641537
 20
661.2270143922712
 30
0.0
 40
0.0702119190591739
100
AcDbArc
 50
221.3359355722486
 51
270.2617287871373
  0
ARC
  5
1393
330
1F
100
AcDbEntity
  8
SANINDUSA
100
AcDbCircle
 10
797.4087359641537
 20
661.2270143922712
 30
0.0
 40
0.0802210589836551
100
AcDbArc
 50
221.3359355722486
 51
239.7029658462148
  0
LINE
  5
1394
330
1F
100
AcDbEntity
  8
SANINDUSA
100
AcDbLine
 10
797.3512261471535
 20
661.1859996326308
 30
0.0
 11
797.356017342155
 21
661.1806413346567
 31
0.0
  0
ARC
  5
1395
330
1F
100
AcDbEntity
  8
SANINDUSA
100
AcDbCircle
 10
797.2769649208652
 20
661.1185661059176
 30
0.0
 40
0.1003095720997723
100
AcDbArc
 50
42.24128092742772
 51
81.09656071845407
  0
ARC
  5
1396
330
1F
100
AcDbEntity
  8
SANINDUSA
100
AcDbCircle
 10
797.2729847468838
 20
661.2158813619108
 30
0.0
 40
0.0050000717266807
100
AcDbArc
 50
79.79753138010841
 51
230.081486976593
  0
ARC
  5
1397
330
1F
100
AcDbEntity
  8
SANINDUSA
100
AcDbCircle
 10
797.3687979520132
 20
661.1365613759613
 30
0.0
 40
0.0020474446467953
100
AcDbArc
 50
269.3512442013271
 51
348.8876913092274
  0
LINE
  5
1398
330
1F
100
AcDbEntity
  8
SANINDUSA
100
AcDbLine
 10
797.4401946407417
 20
661.1225769068204
 30
0.0
 11
797.4399489101803
 21
661.1253856199907
 31
0.0
  0
ARC
  5
1399
330
1F
100
AcDbEntity
  8
SANINDUSA
100
AcDbCircle
 10
797.4411908354398
 20
661.1226640625631
 30
0.0
 40
0.001
100
AcDbArc
 50
185.0000000022123
 51
270.0
  0
LINE
  5
139A
330
1F
100
AcDbEntity
  8
SANINDUSA
100
AcDbLine
 10
797.4498494815929
 20
661.1216640625631
 30
0.0
 11
797.4411908354398
 21
661.1216640625631
 31
0.0
  0
ARC
  5
139B
330
1F
100
AcDbEntity
  8
SANINDUSA
100
AcDbCircle
 10
797.4498494815929
 20
661.1226640625631
 30
0.0
 40
0.0010000000000002
100
AcDbArc
 50
270.0
 51
0.0
  0
LINE
  5
139C
330
1F
100
AcDbEntity
  8
SANINDUSA
100
AcDbLine
 10
797.4508494815929
 20
661.1309104182922
 30
0.0
 11
797.4508494815929
 21
661.1226640625631
 31
0.0
  0
ARC
  5
139D
330
1F
100
AcDbEntity
  8
SANINDUSA
100
AcDbCircle
 10
797.4458494815929
 20
661.1309104182922
 30
0.0
 40
0.005
100
AcDbArc
 50
0.0
 51
48.99999999862362
  0
LINE
  5
139E
330
1F
100
AcDbEntity
  8
SANINDUSA
100
AcDbLine
 10
797.4392324161815
 20
661.1432876104641
 30
0.0
 11
797.4491297767379
 21
661.1346839661933
 31
0.0
  0
ARC
  5
139F
330
1F
100
AcDbEntity
  8
SANINDUSA
100
AcDbCircle
 10
797.4359521210366
 20
661.1395140625631
 30
0.0
 40
0.005
100
AcDbArc
 50
48.99999999862362
 51
90.0
  0
LINE
  5
13A0
330
1F
100
AcDbEntity
  8
SANINDUSA
100
AcDbLine
 10
797.4359521210366
 20
661.1445140625631
 30
0.0
 11
797.4316779254669
 21
661.1445140625631
 31
0.0
  0
LINE
  5
13A1
330
1F
100
AcDbEntity
  8
SANINDUSA
100
AcDbLine
 10
797.3567045548892
 20
661.1345140625631
 30
0.0
 11
797.368774769451
 21
661.1345140625631
 31
0.0
  0
LINE
  5
13A2
330
1F
100
AcDbEntity
  8
SANINDUSA
100
AcDbLine
 10
797.7818317384938
 20
661.3033717176133
 30
0.0
 11
797.7690521928618
 21
661.3033802338658
 31
0.0
  0
ARC
  5
13A3
330
1F
100
AcDbEntity
  8
SANINDUSA
100
AcDbCircle
 10
797.7721147032009
 20
661.2076037182553
 30
0.0
 40
0.106052576121785
100
AcDbArc
 50
116.9635735765921
 51
134.4379280110254
  0
ARC
  5
13A4
330
1F
100
AcDbEntity
  8
SANINDUSA
100
AcDbCircle
 10
799.2260109095335
 20
660.297558597594
 30
0.0
 40
1.758347836406264
100
AcDbArc
 50
145.1710656002469
 51
150.9548848218611
  0
ARC
  5
13A5
330
1F
100
AcDbEntity
  8
SANINDUSA
100
AcDbCircle
 10
797.781831072097
 20
661.3023717178354
 30
0.0
 40
0.001
100
AcDbArc
 50
325.1710656002469
 51
89.96181826160459
  0
ARC
  5
13A6
330
1F
100
AcDbEntity
  8
SANINDUSA
100
AcDbCircle
 10
797.5127468421492
 20
661.1395140625631
 30
0.0
 40
0.005
100
AcDbArc
 50
90.0
 51
131.0000000013763
  0
LINE
  5
13A7
330
1F
100
AcDbEntity
  8
SANINDUSA
100
AcDbLine
 10
797.4995691864479
 20
661.1346839661933
 30
0.0
 11
797.5094665470042
 21
661.1432876104641
 31
0.0
  0
ARC
  5
13A8
330
1F
100
AcDbEntity
  8
SANINDUSA
100
AcDbCircle
 10
797.5028494815928
 20
661.1309104182922
 30
0.0
 40
0.005
100
AcDbArc
 50
131.0000000013763
 51
180.0
  0
LINE
  5
13A9
330
1F
100
AcDbEntity
  8
SANINDUSA
100
AcDbLine
 10
797.4978494815928
 20
661.1226640625631
 30
0.0
 11
797.4978494815928
 21
661.1309104182922
 31
0.0
  0
ARC
  5
13AA
330
1F
100
AcDbEntity
  8
SANINDUSA
100
AcDbCircle
 10
797.498849481593
 20
661.1226640625631
 30
0.0
 40
0.0009999999999999
100
AcDbArc
 50
180.0
 51
270.0
  0
LINE
  5
13AB
330
1F
100
AcDbEntity
  8
SANINDUSA
100
AcDbLine
 10
797.5075081277459
 20
661.1216640625631
 30
0.0
 11
797.498849481593
 21
661.1216640625631
 31
0.0
  0
ARC
  5
13AC
330
1F
100
AcDbEntity
  8
SANINDUSA
100
AcDbCircle
 10
797.5075081277459
 20
661.1226640625631
 30
0.0
 40
0.001
100
AcDbArc
 50
270.0
 51
354.9999999977876
  0
LINE
  5
13AD
330
1F
100
AcDbEntity
  8
SANINDUSA
100
AcDbLine
 10
797.5087500530055
 20
661.1253856199907
 30
0.0
 11
797.508504322444
 21
661.1225769068204
 31
0.0
  0
ARC
  5
13AE
330
1F
100
AcDbEntity
  8
SANINDUSA
100
AcDbCircle
 10
797.6813229541179
 20
661.1365640481606
 30
0.0
 40
0.0020500100893654
100
AcDbArc
 50
191.1743466595392
 51
270.28007325757
  0
ARC
  5
13AF
330
1F
100
AcDbEntity
  8
SANINDUSA
100
AcDbCircle
 10
797.7934210941884
 20
661.308113324955
 30
0.0
 40
0.0049618411760427
100
AcDbArc
 50
325.0651145375325
 51
88.584035749875
  0
ARC
  5
13B0
330
1F
100
AcDbEntity
  8
SANINDUSA
100
AcDbCircle
 10
797.7710420423985
 20
661.2098254249024
 30
0.0
 40
0.1035860227781589
100
AcDbArc
 50
91.17855259982389
 51
106.6510045172788
  0
ARC
  5
13B1
330
1F
100
AcDbEntity
  8
SANINDUSA
100
AcDbCircle
 10
797.5170210377188
 20
661.1495140625631
 30
0.0
 40
0.005
100
AcDbArc
 50
270.0
 51
358.0000000027562
  0
LINE
  5
13B2
330
1F
100
AcDbEntity
  8
SANINDUSA
100
AcDbLine
 10
797.5170210377188
 20
661.1445140625631
 30
0.0
 11
797.5127468421492
 21
661.1445140625631
 31
0.0
  0
ARC
  5
13B3
330
1F
100
AcDbEntity
  8
SANINDUSA
100
AcDbCircle
 10
797.5424660194841
 20
661.2300078367308
 30
0.0
 40
0.0801620498961973
100
AcDbArc
 50
276.3952680492254
 51
313.8900715865146
  0
LWPOLYLINE
  5
13B4
330
1F
100
AcDbEntity
  8
SANINDUSA
100
AcDbPolyline
 90
        2
 70
   128
 43
0.0
 10
797.7935437048683
 20
661.3130736510004
 10
797.7689114671853
 20
661.3133895343431
  0
ARC
  5
13B5
330
1F
100
AcDbEntity
  8
SANINDUSA
100
AcDbCircle
 10
799.2183073858067
 20
660.3025576653379
 30
0.0
 40
1.739011590426183
100
AcDbArc
 50
144.7882334969881
 51
151.3788723810685
  0
LINE
  5
13B6
330
1F
100
AcDbEntity
  8
SANINDUSA
100
AcDbLine
 10
797.6813329749384
 20
661.1345140625631
 30
0.0
 11
797.6899887966072
 21
661.1345140625631
 31
0.0
  0
LINE
  5
13B7
330
1F
100
AcDbEntity
  8
SANINDUSA
100
AcDbLine
 10
797.5127468421492
 20
661.1445140625631
 30
0.0
 11
797.4359521210366
 21
661.1445140625631
 31
0.0
  0
LINE
  5
13B8
330
1F
100
AcDbEntity
  8
SANINDUSA
100
AcDbLine
 10
797.4498494815929
 20
661.1216640625631
 30
0.0
 11
797.498849481593
 21
661.1216640625631
 31
0.0
  0
LINE
  5
13B9
330
1F
100
AcDbEntity
  8
SANINDUSA
100
AcDbLine
 10
797.3688211345796
 20
661.1345140625631
 30
0.0
 11
797.4303343839279
 21
661.1345140625631
 31
0.0
  0
ARC
  5
13BA
330
1F
100
AcDbEntity
  8
SANINDUSA
100
AcDbCircle
 10
798.090737516393
 20
659.4524865836465
 30
0.0
 40
1.88296289916626
100
AcDbArc
 50
104.268455159692
 51
106.6827239809845
  0
LINE
  5
13BB
330
1F
100
AcDbEntity
  8
SANINDUSA
100
AcDbLine
 10
797.6129671200525
 20
661.1345140625631
 30
0.0
 11
797.6813329749384
 21
661.1345140625631
 31
0.0
  0
LINE
  5
13BC
330
1F
100
AcDbEntity
  8
SANINDUSA
100
AcDbLine
 10
797.5181397936475
 20
661.1345140625631
 30
0.0
 11
797.60530568717
 21
661.1345140625631
 31
0.0
  0
LINE
  5
13BD
330
1F
100
AcDbEntity
  8
SANINDUSA
100
AcDbLine
 10
797.6101036342994
 20
661.1345140625631
 30
0.0
 11
797.6129397281431
 21
661.1345140625631
 31
0.0
  0
LINE
  5
13BE
330
1F
100
AcDbEntity
  8
9
100
AcDbLine
 10
797.6129397313486
 20
661.1345140625631
 30
0.0
 11
797.6129671200525
 21
661.1345140625631
 31
0.0
  0
LINE
  5
13BF
330
1F
100
AcDbEntity
  8
SANINDUSA
100
AcDbLine
 10
797.60530568717
 20
661.1345140625631
 30
0.0
 11
797.6101036342994
 21
661.1345140625631
 31
0.0
  0
ARC
  5
13C0
330
1F
100
AcDbEntity
  8
SANINDUSA
100
AcDbCircle
 10
797.6879227160874
 20
661.1517187223066
 30
0.0
 40
0.001
100
AcDbArc
 50
190.242384381635
 51
330.9548848218612
  0
LINE
  5
13C1
330
1F
100
AcDbEntity
  8
SANINDUSA
100
AcDbLine
 10
797.3708062828911
 20
661.1361667660804
 30
0.0
 11
797.3720146221697
 21
661.1428015782226
 31
0.0
  0
ARC
  5
13C2
330
1F
100
AcDbEntity
  8
SANINDUSA
100
AcDbCircle
 10
797.3818396612154
 20
661.1409025262793
 30
0.0
 40
0.0100068871550571
100
AcDbArc
 50
71.20417498156115
 51
169.0603757940375
  0
ARC
  5
13C3
330
1F
100
AcDbEntity
  8
SANINDUSA
100
AcDbCircle
 10
797.3818396612154
 20
661.1409025262793
 30
0.0
 40
0.0202998305528052
100
AcDbArc
 50
131.3731251167463
 51
168.7539955526809
  0
ARC
  5
13C4
330
1F
100
AcDbEntity
  8
SANINDUSA
100
AcDbCircle
 10
797.367761326298
 20
661.1568863702329
 30
0.0
 40
0.001
100
AcDbArc
 50
311.3731251167463
 51
59.7029658462148
  0
ARC
  5
13C5
330
1F
100
AcDbEntity
  8
SANINDUSA
100
AcDbCircle
 10
797.408786163007
 20
661.2273374931106
 30
0.0
 40
0.0805348032489739
100
AcDbArc
 50
252.868856998055
 51
270.2174926625501
  0
LINE
  5
13C6
330
1F
100
AcDbEntity
  8
SANINDUSA
100
AcDbLine
 10
797.598039794808
 20
661.1722373514237
 30
0.0
 11
797.6335679991544
 21
661.2065726339152
 31
0.0
  0
LWPOLYLINE
  5
13C7
330
1F
100
AcDbEntity
  8
SANINDUSA
100
AcDbPolyline
 90
       14
 70
   128
 43
0.0
 10
797.6682705925378
 20
661.1969499081712
 10
797.667418017395
 20
661.2000962920602
 10
797.6660542062036
 20
661.2030568842645
 10
797.6642071733512
 20
661.2057440623081
 10
797.6619364957833
 20
661.2080843242494
 10
797.6593145638134
 20
661.2099996666289
 10
797.6564129176328
 20
661.2114576350418
 10
797.653271731842
 20
661.2124264398822
 10
797.6500147308625
 20
661.2128751110271
 10
797.6466270643749
 20
661.2127850150224
 10
797.6432962186696
 20
661.2121566379116
 10
797.639962813476
 20
661.2109479550412
 10
797.6368619085795
 20
661.209226840149
 10
797.6335679991544
 20
661.2065726339152
  0
LWPOLYLINE
  5
13C8
330
1F
100
AcDbEntity
  8
SANINDUSA
100
AcDbPolyline
 90
       12
 70
   128
 43
0.0
 10
797.6869389788333
 20
661.1515391087908
 10
797.6783654748346
 20
661.1987403264188
 42
0.0212374695867316
 10
797.678346766744
 20
661.1988231514384
 10
797.6770541372895
 20
661.2035935327053
 10
797.6749672073412
 20
661.2081238874747
 10
797.6721380966206
 20
661.212239853361
 10
797.6686634296838
 20
661.2158210006388
 10
797.6646571068071
 20
661.218747651704
 10
797.6602379091404
 20
661.2209681328401
 10
797.6528985681515
 20
661.223231733133
 42
-0.5687590849579433
 10
797.6524943570794
 20
661.2249025044053
 10
797.7049045273662
 20
661.2761214237483
  0
LINE
  5
13C9
330
1F
100
AcDbEntity
  8
SANINDUSA
100
AcDbLine
 10
797.6682705925378
 20
661.1969499081712
 30
0.0
 11
797.6793110812815
 21
661.136166766064
 31
0.0
  0
ARC
  5
13D2
330
1F
100
AcDbEntity
  8
SANINDUSA
100
AcDbCircle
 10
797.7710420423985
 20
661.2098254249024
 30
0.0
 40
0.1035860227781589
100
AcDbArc
 50
107.4360766755475
 51
116.9919586188026
  0
ENDSEC
  0
SECTION
  2
OBJECTS
  0
DICTIONARY
  5
C
330
0
100
AcDbDictionary
281
     1
  3
ACAD_COLOR
350
BA9
  3
ACAD_GROUP
350
D
  3
ACAD_LAYOUT
350
1A
  3
ACAD_MATERIAL
350
BA8
  3
ACAD_MLEADERSTYLE
350
141D
  3
ACAD_MLINESTYLE
350
17
  3
ACAD_PLOTSETTINGS
350
19
  3
ACAD_PLOTSTYLENAME
350
E
  3
ACAD_SCALELIST
350
140B
  3
ACAD_TABLESTYLE
350
BAA
  3
ACAD_VISUALSTYLE
350
13F7
  3
ACDB_RECOMPOSE_DATA
350
144B
  3
AcDbVariableDictionary
350
3D
  3
ASE_INDEX_DICTIONARY
350
1442
  3
DWGPROPS
350
144C
  0
DICTIONARY
  5
1424
330
10
100
AcDbDictionary
280
     1
281
     1
  3
ADSK_XREC_LAYER_RECONCILED
360
1425
  0
DICTIONARY
  5
1426
330
2F
100
AcDbDictionary
280
     1
281
     1
  3
ADSK_XREC_LAYER_RECONCILED
360
1427
  0
DICTIONARY
  5
1428
330
30
100
AcDbDictionary
280
     1
281
     1
  3
ADSK_XREC_LAYER_RECONCILED
360
1429
  0
DICTIONARY
  5
142A
330
31
100
AcDbDictionary
280
     1
281
     1
  3
ADSK_XREC_LAYER_RECONCILED
360
142B
  0
DICTIONARY
  5
142C
330
32
100
AcDbDictionary
280
     1
281
     1
  3
ADSK_XREC_LAYER_RECONCILED
360
142D
  0
DICTIONARY
  5
142E
330
33
100
AcDbDictionary
280
     1
281
     1
  3
ADSK_XREC_LAYER_RECONCILED
360
142F
  0
DICTIONARY
  5
1430
330
34
100
AcDbDictionary
280
     1
281
     1
  3
ADSK_XREC_LAYER_RECONCILED
360
1431
  0
DICTIONARY
  5
1432
330
35
100
AcDbDictionary
280
     1
281
     1
  3
ADSK_XREC_LAYER_RECONCILED
360
1433
  0
DICTIONARY
  5
1434
330
36
100
AcDbDictionary
280
     1
281
     1
  3
ADSK_XREC_LAYER_RECONCILED
360
1435
  0
DICTIONARY
  5
1436
330
37
100
AcDbDictionary
280
     1
281
     1
  3
ADSK_XREC_LAYER_RECONCILED
360
1437
  0
DICTIONARY
  5
1438
330
5D6
100
AcDbDictionary
280
     1
281
     1
  3
ADSK_XREC_LAYER_RECONCILED
360
1439
  0
DICTIONARY
  5
143A
330
8AF
100
AcDbDictionary
280
     1
281
     1
  3
ADSK_XREC_LAYER_RECONCILED
360
143B
  0
DICTIONARY
  5
143C
330
8F8
100
AcDbDictionary
280
     1
281
     1
  3
ADSK_XREC_LAYER_RECONCILED
360
143D
  0
DICTIONARY
  5
143E
330
91D
100
AcDbDictionary
280
     1
281
     1
  3
ADSK_XREC_LAYER_RECONCILED
360
143F
  0
DICTIONARY
  5
1440
330
BA5
100
AcDbDictionary
280
     1
281
     1
  3
ADSK_XREC_LAYER_RECONCILED
360
1441
  0
DICTIONARY
  5
13D3
330
1F
100
AcDbDictionary
280
     1
281
     1
  3
ACAD_SORTENTS
360
13D4
  0
DICTIONARY
  5
BA9
102
{ACAD_REACTORS
330
C
102
}
330
C
100
AcDbDictionary
281
     1
  0
DICTIONARY
  5
D
102
{ACAD_REACTORS
330
C
102
}
330
C
100
AcDbDictionary
281
     1
  0
DICTIONARY
  5
1A
102
{ACAD_REACTORS
330
C
102
}
330
C
100
AcDbDictionary
281
     1
  3
Layout1
350
1E
  3
Layout2
350
26
  3
Model
350
22
  0
DICTIONARY
  5
BA8
102
{ACAD_REACTORS
330
C
102
}
330
C
100
AcDbDictionary
281
     1
  3
ByBlock
350
13E7
  3
ByLayer
350
13DF
  3
Global
350
13EF
  0
DICTIONARY
  5
141D
102
{ACAD_REACTORS
330
C
102
}
330
C
100
AcDbDictionary
281
     1
  3
Standard
350
141E
  0
DICTIONARY
  5
17
102
{ACAD_REACTORS
330
C
102
}
330
C
100
AcDbDictionary
281
     1
  3
Standard
350
18
  0
DICTIONARY
  5
19
102
{ACAD_REACTORS
330
C
102
}
330
C
100
AcDbDictionary
281
     1
  0
ACDBDICTIONARYWDFLT
  5
E
102
{ACAD_REACTORS
330
C
102
}
330
C
100
AcDbDictionary
281
     1
  3
Normal
350
F
100
AcDbDictionaryWithDefault
340
F
  0
DICTIONARY
  5
140B
102
{ACAD_REACTORS
330
C
102
}
330
C
100
AcDbDictionary
281
     1
  3
A0
350
140C
  3
A1
350
140D
  3
A2
350
140E
  3
A3
350
140F
  3
A4
350
1410
  3
A5
350
1411
  3
A6
350
1412
  3
A7
350
1413
  3
A8
350
1414
  3
A9
350
1415
  3
B0
350
1416
  3
B1
350
1417
  3
B2
350
1418
  3
B3
350
1419
  3
B4
350
141A
  3
B5
350
141B
  3
B6
350
141C
  0
DICTIONARY
  5
BAA
102
{ACAD_REACTORS
330
C
102
}
330
C
100
AcDbDictionary
281
     1
  3
Standard
350
BAB
  0
DICTIONARY
  5
13F7
102
{ACAD_REACTORS
330
C
102
}
330
C
100
AcDbDictionary
281
     1
  3
2dWireframe
350
13FD
  3
3D Hidden
350
13FF
  3
3dWireframe
350
13FE
  3
Basic
350
13FC
  3
Brighten
350
1403
  3
ColorChange
350
1407
  3
Conceptual
350
1400
  3
Dim
350
1402
  3
EdgeColorOff
350
140A
  3
Facepattern
350
1406
  3
Flat
350
13F8
  3
FlatWithEdges
350
13F9
  3
Gouraud
350
13FA
  3
GouraudWithEdges
350
13FB
  3
JitterOff
350
1408
  3
Linepattern
350
1405
  3
OverhangOff
350
1409
  3
Realistic
350
1401
  3
Thicken
350
1404
  0
XRECORD
  5
144B
102
{ACAD_REACTORS
330
C
102
}
330
C
100
AcDbXrecord
280
     1
 90
        1
330
BAB
  0
DICTIONARY
  5
3D
102
{ACAD_REACTORS
330
C
102
}
330
C
100
AcDbDictionary
281
     1
  3
CANNOSCALE
350
1445
  3
CMLEADERSTYLE
350
1444
  3
CTABLESTYLE
350
BB1
  3
DIMASSOC
350
3F
  3
HIDETEXT
350
3E
  3
INDEXCTL
350
1447
  3
PROJECTNAME
350
13DD
  3
SORTENTS
350
1446
  3
XCLIPFRAME
350
1448
  0
DICTIONARY
  5
1442
102
{ACAD_REACTORS
330
C
102
}
330
C
100
AcDbDictionary
281
     1
  3
ASEBlockHierarchyIndexRecord
350
1443
1001
DCO15
1040
1757680117.343
  0
XRECORD
  5
144C
102
{ACAD_REACTORS
330
C
102
}
330
C
100
AcDbXrecord
280
     1
  1
DWGPROPS COOKIE
  2

  3

  4

  6

  7

  8
Julio
  9

300
=
301
=
302
=
303
=
304
=
305
=
306
=
307
=
308
=
309
=
 40
0.0052535416666667
 41
2453913.434983542
 42
2456146.731728507
  1

 90
        0
  0
XRECORD
  5
1425
102
{ACAD_REACTORS
330
1424
102
}
330
1424
100
AcDbXrecord
280
     1
290
     1
  0
XRECORD
  5
1427
102
{ACAD_REACTORS
330
1426
102
}
330
1426
100
AcDbXrecord
280
     1
290
     1
  0
XRECORD
  5
1429
102
{ACAD_REACTORS
330
1428
102
}
330
1428
100
AcDbXrecord
280
     1
290
     1
  0
XRECORD
  5
142B
102
{ACAD_REACTORS
330
142A
102
}
330
142A
100
AcDbXrecord
280
     1
290
     1
  0
XRECORD
  5
142D
102
{ACAD_REACTORS
330
142C
102
}
330
142C
100
AcDbXrecord
280
     1
290
     1
  0
XRECORD
  5
142F
102
{ACAD_REACTORS
330
142E
102
}
330
142E
100
AcDbXrecord
280
     1
290
     1
  0
XRECORD
  5
1431
102
{ACAD_REACTORS
330
1430
102
}
330
1430
100
AcDbXrecord
280
     1
290
     1
  0
XRECORD
  5
1433
102
{ACAD_REACTORS
330
1432
102
}
330
1432
100
AcDbXrecord
280
     1
290
     1
  0
XRECORD
  5
1435
102
{ACAD_REACTORS
330
1434
102
}
330
1434
100
AcDbXrecord
280
     1
290
     1
  0
XRECORD
  5
1437
102
{ACAD_REACTORS
330
1436
102
}
330
1436
100
AcDbXrecord
280
     1
290
     1
  0
XRECORD
  5
1439
102
{ACAD_REACTORS
330
1438
102
}
330
1438
100
AcDbXrecord
280
     1
290
     1
  0
XRECORD
  5
143B
102
{ACAD_REACTORS
330
143A
102
}
330
143A
100
AcDbXrecord
280
     1
290
     1
  0
XRECORD
  5
143D
102
{ACAD_REACTORS
330
143C
102
}
330
143C
100
AcDbXrecord
280
     1
290
     1
  0
XRECORD
  5
143F
102
{ACAD_REACTORS
330
143E
102
}
330
143E
100
AcDbXrecord
280
     1
290
     1
  0
XRECORD
  5
1441
102
{ACAD_REACTORS
330
1440
102
}
330
1440
100
AcDbXrecord
280
     1
290
     1
  0
SORTENTSTABLE
  5
13D4
102
{ACAD_REACTORS
330
13D3
102
}
330
13D3
100
AcDbSortentsTable
330
1F
331
FBF
  5
FBF
331
FFE
  5
FFE
331
FFA
  5
FFA
331
F85
  5
F85
331
FBB
  5
FBB
331
F81
  5
F81
331
1394
  5
1394
331
1390
  5
1390
331
138C
  5
138C
331
1388
  5
1388
331
FF6
  5
FF6
331
FB7
  5
FB7
331
FF2
  5
FF2
331
118D
  5
118D
331
FB3
  5
FB3
331
F7D
  5
F7D
331
FEE
  5
FEE
331
FAB
  5
FAB
331
13C7
  5
13C8
331
13C3
  5
13C4
331
1384
  5
1384
331
13BF
  5
13C0
331
1380
  5
1380
331
137C
  5
137C
331
13BB
  5
13BC
331
1378
  5
1378
331
FA7
  5
FA7
331
FA3
  5
FA3
331
FE2
  5
FE2
331
FDE
  5
FDE
331
1131
  5
1131
331
F9F
  5
F9F
331
F9B
  5
F9B
331
13B7
  5
13B8
331
1374
  5
1374
331
13B3
  5
13B4
331
13AF
  5
13AF
331
1370
  5
1370
331
13AB
  5
13AB
331
F97
  5
F97
331
F8B
  5
F8B
331
FCA
  5
FCA
331
13A7
  5
13A7
331
13A3
  5
13A3
331
139F
  5
139F
331
139B
  5
139B
331
FC2
  5
FC2
331
FBE
  5
FBE
331
FFD
  5
FFD
331
FBA
  5
FBA
331
F84
  5
F84
331
FF9
  5
FF9
331
F80
  5
F80
331
1397
  5
1397
331
1393
  5
1393
331
138F
  5
138F
331
138B
  5
138B
331
FB6
  5
FB6
331
FF5
  5
FF5
331
FF1
  5
FF1
331
F7C
  5
F7C
331
FB2
  5
FB2
331
FAA
  5
FAA
331
1387
  5
1387
331
13C6
  5
13C7
331
1383
  5
1383
331
13C2
  5
13C3
331
137F
  5
137F
331
13BE
  5
13BF
331
137B
  5
137B
331
13BA
  5
13BB
331
FA6
  5
FA6
331
FE1
  5
FE1
331
FA2
  5
FA2
331
1130
  5
1130
331
FDD
  5
FDD
331
F9A
  5
F9A
331
FD9
  5
FD9
331
1010
  5
1010
331
13B6
  5
13B7
331
1377
  5
1377
331
13B2
  5
13B3
331
1373
  5
1373
331
13AE
  5
13AE
331
136F
  5
136F
331
13AA
  5
13AA
331
F96
  5
F96
331
FD5
  5
FD5
331
1004
  5
1004
331
F8A
  5
F8A
331
1000
  5
1000
331
13A6
  5
13A6
331
13A2
  5
13A2
331
139E
  5
139E
331
139A
  5
139A
331
13D2
  5
13B1
331
FC1
  5
FC1
331
FBD
  5
FBD
331
F87
  5
F87
331
FFC
  5
FFC
331
FF8
  5
FF8
331
F83
  5
F83
331
FB9
  5
FB9
331
1396
  5
1396
331
1392
  5
1392
331
138E
  5
138E
331
13C9
  5
13D2
331
138A
  5
138A
331
FF4
  5
FF4
331
FB5
  5
FB5
331
F7F
  5
F7F
331
FF0
  5
FF0
331
FB1
  5
FB1
331
F7B
  5
F7B
331
FAD
  5
FAD
331
FA9
  5
FA9
331
1143
  5
1143
331
13C5
  5
13C6
331
1386
  5
1386
331
13C1
  5
13C2
331
1382
  5
1382
331
137E
  5
137E
331
13BD
  5
13BE
331
137A
  5
137A
331
13B9
  5
13BA
331
FE0
  5
FE0
331
1133
  5
1133
331
FA1
  5
FA1
331
FDC
  5
FDC
331
FD8
  5
FD8
331
1376
  5
1376
331
13B5
  5
13B6
331
1372
  5
1372
331
13B1
  5
13B2
331
13AD
  5
13AD
331
136E
  5
136E
331
13A9
  5
13A9
331
FD4
  5
FD4
331
1003
  5
1003
331
F89
  5
F89
331
13A5
  5
13A5
331
13A1
  5
13A1
331
139D
  5
139D
331
1399
  5
1399
331
FC0
  5
FC0
331
FFF
  5
FFF
331
FBC
  5
FBC
331
F86
  5
F86
331
FFB
  5
FFB
331
FB8
  5
FB8
331
F82
  5
F82
331
1395
  5
1395
331
1391
  5
1391
331
138D
  5
138D
331
1389
  5
1389
331
13C8
  5
13C9
331
FF7
  5
FF7
331
FB4
  5
FB4
331
F7E
  5
F7E
331
FF3
  5
FF3
331
F7A
  5
F7A
331
FB0
  5
FB0
331
1146
  5
1146
331
FAC
  5
FAC
331
FA8
  5
FA8
331
1385
  5
1385
331
13C4
  5
13C5
331
1381
  5
1381
331
13C0
  5
13C1
331
137D
  5
137D
331
13BC
  5
13BD
331
13B8
  5
13B9
331
1379
  5
1379
331
FE3
  5
FE3
331
FA4
  5
FA4
331
FDF
  5
FDF
331
1132
  5
1132
331
F9C
  5
F9C
331
FDB
  5
FDB
331
F98
  5
F98
331
13B4
  5
13B5
331
1375
  5
1375
331
13B0
  5
13B0
331
1371
  5
1371
331
13AC
  5
13AC
331
13A8
  5
13A8
331
FD3
  5
FD3
331
100E
  5
100E
331
100A
  5
100A
331
F8C
  5
F8C
331
1002
  5
1002
331
F88
  5
F88
331
13A4
  5
13A4
331
13A0
  5
13A0
331
139C
  5
139C
331
1398
  5
1398
  0
LAYOUT
  5
1E
102
{ACAD_XDICTIONARY
360
144D
102
}
102
{ACAD_REACTORS
330
1A
102
}
330
1A
100
AcDbPlotSettings
  1

  2
Ploter HP500
  4

  6

 40
0.0
 41
0.0
 42
0.0
 43
0.0
 44
0.0
 45
0.0
 46
0.0
 47
0.0
 48
0.0
 49
0.0
140
0.0
141
0.0
142
1.0
143
1.0
 70
   688
 72
     0
 73
     0
 74
     5
  7
monochrome.ctb
 75
    16
147
1.0
148
0.0
149
0.0
100
AcDbLayout
  1
Layout1
 70
     1
 71
     1
 10
0.0
 20
0.0
 11
420.0
 21
297.0
 12
0.0
 22
0.0
 32
0.0
 14
1.000000000000000E+20
 24
1.000000000000000E+20
 34
1.000000000000000E+20
 15
-1.000000000000000E+20
 25
-1.000000000000000E+20
 35
-1.000000000000000E+20
146
0.0
 13
0.0
 23
0.0
 33
0.0
 16
1.0
 26
0.0
 36
0.0
 17
0.0
 27
1.0
 37
0.0
 76
     0
330
1B
  0
LAYOUT
  5
26
102
{ACAD_XDICTIONARY
360
1451
102
}
102
{ACAD_REACTORS
330
1A
102
}
330
1A
100
AcDbPlotSettings
  1

  2
Ploter HP500
  4

  6

 40
0.0
 41
0.0
 42
0.0
 43
0.0
 44
0.0
 45
0.0
 46
0.0
 47
0.0
 48
0.0
 49
0.0
140
0.0
141
0.0
142
1.0
143
1.0
 70
   688
 72
     0
 73
     0
 74
     5
  7
monochrome.ctb
 75
    16
147
1.0
148
0.0
149
0.0
100
AcDbLayout
  1
Layout2
 70
     1
 71
     2
 10
0.0
 20
0.0
 11
12.0
 21
9.0
 12
0.0
 22
0.0
 32
0.0
 14
0.0
 24
0.0
 34
0.0
 15
0.0
 25
0.0
 35
0.0
146
0.0
 13
0.0
 23
0.0
 33
0.0
 16
1.0
 26
0.0
 36
0.0
 17
0.0
 27
1.0
 37
0.0
 76
     0
330
23
  0
LAYOUT
  5
22
102
{ACAD_XDICTIONARY
360
144F
102
}
102
{ACAD_REACTORS
330
1A
102
}
330
1A
100
AcDbPlotSettings
  1

  2
Ploter HP500
  4
User268
  6

 40
4.995333194732666
 41
16.97565841674804
 42
4.995330810546875
 43
16.97567749023437
 44
209.9733276367187
 45
296.9259948730469
 46
0.0
 47
0.0
 48
0.0
 49
0.0
140
0.0
141
0.0
142
1.0
143
1.0
 70
 11952
 72
     1
 73
     1
 74
     0
  7
sanindusa.ctb
 75
     0
147
1.0
148
-427.5957866592534
149
7.362384574453926
100
AcDbLayout
  1
Model
 70
     1
 71
     0
 10
0.0
 20
0.0
 11
12.0
 21
9.0
 12
0.0
 22
0.0
 32
0.0
 14
0.0
 24
0.0
 34
0.0
 15
0.0
 25
0.0
 35
0.0
146
0.0
 13
0.0
 23
0.0
 33
0.0
 16
1.0
 26
0.0
 36
0.0
 17
0.0
 27
1.0
 37
0.0
 76
     0
330
1F
331
13D5
  0
MATERIAL
  5
13E7
102
{ACAD_XDICTIONARY
360
13E8
102
}
102
{ACAD_REACTORS
330
BA8
102
}
330
BA8
100
AcDbMaterial
  1
ByBlock
 72
     0
 43
0.0008202099737533
 43
0.0
 43
0.0
 43
0.0
 43
0.0
 43
0.0008202099737533
 43
0.0
 43
0.0
 43
0.0
 43
0.0
 43
1.0
 43
0.0
 43
0.0
 43
0.0
 43
0.0
 43
1.0
 77
     0
 47
0.0008202099737533
 47
0.0
 47
0.0
 47
0.0
 47
0.0
 47
0.0008202099737533
 47
0.0
 47
0.0
 47
0.0
 47
0.0
 47
1.0
 47
0.0
 47
0.0
 47
0.0
 47
0.0
 47
1.0
171
     0
 49
0.0008202099737533
 49
0.0
 49
0.0
 49
0.0
 49
0.0
 49
0.0008202099737533
 49
0.0
 49
0.0
 49
0.0
 49
0.0
 49
1.0
 49
0.0
 49
0.0
 49
0.0
 49
0.0
 49
1.0
175
     0
142
0.0008202099737533
142
0.0
142
0.0
142
0.0
142
0.0
142
0.0008202099737533
142
0.0
142
0.0
142
0.0
142
0.0
142
1.0
142
0.0
142
0.0
142
0.0
142
0.0
142
1.0
179
     0
144
0.0008202099737533
144
0.0
144
0.0
144
0.0
144
0.0
144
0.0008202099737533
144
0.0
144
0.0
144
0.0
144
0.0
144
1.0
144
0.0
144
0.0
144
0.0
144
0.0
144
1.0
147
0.0008202099737533
147
0.0
147
0.0
147
0.0
147
0.0
147
0.0008202099737533
147
0.0
147
0.0
147
0.0
147
0.0
147
1.0
147
0.0
147
0.0
147
0.0
147
0.0
147
1.0
  0
MATERIAL
  5
13DF
102
{ACAD_XDICTIONARY
360
13E0
102
}
102
{ACAD_REACTORS
330
BA8
102
}
330
BA8
100
AcDbMaterial
  1
ByLayer
 72
     0
 43
0.0008202099737533
 43
0.0
 43
0.0
 43
0.0
 43
0.0
 43
0.0008202099737533
 43
0.0
 43
0.0
 43
0.0
 43
0.0
 43
1.0
 43
0.0
 43
0.0
 43
0.0
 43
0.0
 43
1.0
 77
     0
 47
0.0008202099737533
 47
0.0
 47
0.0
 47
0.0
 47
0.0
 47
0.0008202099737533
 47
0.0
 47
0.0
 47
0.0
 47
0.0
 47
1.0
 47
0.0
 47
0.0
 47
0.0
 47
0.0
 47
1.0
171
     0
 49
0.0008202099737533
 49
0.0
 49
0.0
 49
0.0
 49
0.0
 49
0.0008202099737533
 49
0.0
 49
0.0
 49
0.0
 49
0.0
 49
1.0
 49
0.0
 49
0.0
 49
0.0
 49
0.0
 49
1.0
175
     0
142
0.0008202099737533
142
0.0
142
0.0
142
0.0
142
0.0
142
0.0008202099737533
142
0.0
142
0.0
142
0.0
142
0.0
142
1.0
142
0.0
142
0.0
142
0.0
142
0.0
142
1.0
179
     0
144
0.0008202099737533
144
0.0
144
0.0
144
0.0
144
0.0
144
0.0008202099737533
144
0.0
144
0.0
144
0.0
144
0.0
144
1.0
144
0.0
144
0.0
144
0.0
144
0.0
144
1.0
147
0.0008202099737533
147
0.0
147
0.0
147
0.0
147
0.0
147
0.0008202099737533
147
0.0
147
0.0
147
0.0
147
0.0
147
1.0
147
0.0
147
0.0
147
0.0
147
0.0
147
1.0
  0
MATERIAL
  5
13EF
102
{ACAD_XDICTIONARY
360
13F0
102
}
102
{ACAD_REACTORS
330
BA8
102
}
330
BA8
100
AcDbMaterial
  1
Global
 72
     0
 43
0.0008202099737533
 43
0.0
 43
0.0
 43
0.0
 43
0.0
 43
0.0008202099737533
 43
0.0
 43
0.0
 43
0.0
 43
0.0
 43
1.0
 43
0.0
 43
0.0
 43
0.0
 43
0.0
 43
1.0
 77
     0
 47
0.0008202099737533
 47
0.0
 47
0.0
 47
0.0
 47
0.0
 47
0.0008202099737533
 47
0.0
 47
0.0
 47
0.0
 47
0.0
 47
1.0
 47
0.0
 47
0.0
 47
0.0
 47
0.0
 47
1.0
171
     0
 49
0.0008202099737533
 49
0.0
 49
0.0
 49
0.0
 49
0.0
 49
0.0008202099737533
 49
0.0
 49
0.0
 49
0.0
 49
0.0
 49
1.0
 49
0.0
 49
0.0
 49
0.0
 49
0.0
 49
1.0
175
     0
142
0.0008202099737533
142
0.0
142
0.0
142
0.0
142
0.0
142
0.0008202099737533
142
0.0
142
0.0
142
0.0
142
0.0
142
1.0
142
0.0
142
0.0
142
0.0
142
0.0
142
1.0
179
     0
144
0.0008202099737533
144
0.0
144
0.0
144
0.0
144
0.0
144
0.0008202099737533
144
0.0
144
0.0
144
0.0
144
0.0
144
1.0
144
0.0
144
0.0
144
0.0
144
0.0
144
1.0
147
0.0008202099737533
147
0.0
147
0.0
147
0.0
147
0.0
147
0.0008202099737533
147
0.0
147
0.0
147
0.0
147
0.0
147
1.0
147
0.0
147
0.0
147
0.0
147
0.0
147
1.0
  0
MLEADERSTYLE
  5
141E
102
{ACAD_REACTORS
330
141D
102
}
330
141D
100
AcDbMLeaderStyle
170
     2
171
     1
172
     0
 90
        2
 40
0.0
 41
0.0
173
     1
 91
-1056964608
340
14
 92
       -2
290
     1
 42
2.0
291
     1
 43
0.36
  3
Standard
 44
4.0
300

342
11
174
     1
178
     6
175
     1
176
     0
 93
-1056964608
 45
4.0
292
     0
297
     0
 46
4.0
 94
-1056964608
 47
1.0
 49
1.0
140
1.0
293
     1
141
0.0
294
     1
177
     0
142
1.0
295
     0
296
     0
143
0.125
1001
ACAD_MLEADERVER
1070
     2
  0
MLINESTYLE
  5
18
102
{ACAD_REACTORS
330
17
102
}
330
17
100
AcDbMlineStyle
  2
STANDARD
 70
     0
  3

 62
   256
 51
90.0
 52
90.0
 71
     2
 49
0.5
 62
   256
  6
BYLAYER
 49
-0.5
 62
   256
  6
BYLAYER
  0
ACDBPLACEHOLDER
  5
F
102
{ACAD_REACTORS
330
E
102
}
330
E
  0
SCALE
  5
140C
102
{ACAD_REACTORS
330
140B
102
}
330
140B
100
AcDbScale
 70
     0
300
1:1
140
1.0
141
1.0
290
     1
  0
SCALE
  5
140D
102
{ACAD_REACTORS
330
140B
102
}
330
140B
100
AcDbScale
 70
     0
300
1:2
140
1.0
141
2.0
290
     0
  0
SCALE
  5
140E
102
{ACAD_REACTORS
330
140B
102
}
330
140B
100
AcDbScale
 70
     0
300
1:4
140
1.0
141
4.0
290
     0
  0
SCALE
  5
140F
102
{ACAD_REACTORS
330
140B
102
}
330
140B
100
AcDbScale
 70
     0
300
1:5
140
1.0
141
5.0
290
     0
  0
SCALE
  5
1410
102
{ACAD_REACTORS
330
140B
102
}
330
140B
100
AcDbScale
 70
     0
300
1:8
140
1.0
141
8.0
290
     0
  0
SCALE
  5
1411
102
{ACAD_REACTORS
330
140B
102
}
330
140B
100
AcDbScale
 70
     0
300
1:10
140
1.0
141
10.0
290
     0
  0
SCALE
  5
1412
102
{ACAD_REACTORS
330
140B
102
}
330
140B
100
AcDbScale
 70
     0
300
1:16
140
1.0
141
16.0
290
     0
  0
SCALE
  5
1413
102
{ACAD_REACTORS
330
140B
102
}
330
140B
100
AcDbScale
 70
     0
300
1:20
140
1.0
141
20.0
290
     0
  0
SCALE
  5
1414
102
{ACAD_REACTORS
330
140B
102
}
330
140B
100
AcDbScale
 70
     0
300
1:30
140
1.0
141
30.0
290
     0
  0
SCALE
  5
1415
102
{ACAD_REACTORS
330
140B
102
}
330
140B
100
AcDbScale
 70
     0
300
1:40
140
1.0
141
40.0
290
     0
  0
SCALE
  5
1416
102
{ACAD_REACTORS
330
140B
102
}
330
140B
100
AcDbScale
 70
     0
300
1:50
140
1.0
141
50.0
290
     0
  0
SCALE
  5
1417
102
{ACAD_REACTORS
330
140B
102
}
330
140B
100
AcDbScale
 70
     0
300
1:100
140
1.0
141
100.0
290
     0
  0
SCALE
  5
1418
102
{ACAD_REACTORS
330
140B
102
}
330
140B
100
AcDbScale
 70
     0
300
2:1
140
2.0
141
1.0
290
     0
  0
SCALE
  5
1419
102
{ACAD_REACTORS
330
140B
102
}
330
140B
100
AcDbScale
 70
     0
300
4:1
140
4.0
141
1.0
290
     0
  0
SCALE
  5
141A
102
{ACAD_REACTORS
330
140B
102
}
330
140B
100
AcDbScale
 70
     0
300
8:1
140
8.0
141
1.0
290
     0
  0
SCALE
  5
141B
102
{ACAD_REACTORS
330
140B
102
}
330
140B
100
AcDbScale
 70
     0
300
10:1
140
10.0
141
1.0
290
     0
  0
SCALE
  5
141C
102
{ACAD_REACTORS
330
140B
102
}
330
140B
100
AcDbScale
 70
     0
300
100:1
140
100.0
141
1.0
290
     0
  0
TABLESTYLE
  5
BAB
102
{ACAD_XDICTIONARY
360
1449
102
}
102
{ACAD_REACTORS
330
BAA
102
}
330
BAA
100
AcDbTableStyle
  3
Standard
 70
     0
 71
     0
 40
1.5
 41
1.5
280
     0
281
     0
  7
Standard
140
4.5
170
     2
 62
     0
 63
     7
283
     0
274
    -2
284
     1
 64
     0
275
    -2
285
     1
 65
     0
276
    -2
286
     1
 66
     0
277
    -2
287
     1
 67
     0
278
    -2
288
     1
 68
     0
279
    -2
289
     1
 69
     0
  7
Standard
140
6.0
170
     5
 62
     0
 63
     7
283
     0
274
    -2
284
     1
 64
     0
275
    -2
285
     1
 65
     0
276
    -2
286
     1
 66
     0
277
    -2
287
     1
 67
     0
278
    -2
288
     1
 68
     0
279
    -2
289
     1
 69
     0
  7
Standard
140
4.5
170
     5
 62
     0
 63
     7
283
     0
274
    -2
284
     1
 64
     0
275
    -2
285
     1
 65
     0
276
    -2
286
     1
 66
     0
277
    -2
287
     1
 67
     0
278
    -2
288
     1
 68
     0
279
    -2
289
     1
 69
     0
  0
VISUALSTYLE
  5
13FD
102
{ACAD_XDICTIONARY
360
147D
102
}
102
{ACAD_REACTORS
330
13F7
102
}
330
13F7
100
AcDbVisualStyle
  2
2dWireframe
 70
     4
 71
     0
 72
     2
 73
     0
 90
        0
 40
-0.6
 41
-30.0
 62
     5
 63
     7
 74
     1
 91
        4
 64
     7
 65
   257
 75
     1
175
     1
 42
1.0
 92
        0
 66
   257
 43
1.0
 76
     1
 77
     6
 78
     2
 67
     7
 79
     5
170
     0
171
     0
290
     0
174
     0
 93
        1
 44
0.0
173
     0
291
     0
 45
0.0
1001
ACAD
1000
AcDbSavedByObjectVersion
1070
     0
  0
VISUALSTYLE
  5
13FF
102
{ACAD_XDICTIONARY
360
1481
102
}
102
{ACAD_REACTORS
330
13F7
102
}
330
13F7
100
AcDbVisualStyle
  2
3D Hidden
 70
     6
 71
     1
 72
     2
 73
     2
 90
        0
 40
-0.6
 41
-30.0
 62
     5
 63
     7
 74
     2
 91
        2
 64
     7
 65
   257
 75
     2
175
     1
 42
179.0
 92
        0
 66
   257
 43
1.0
 76
     1
 77
     6
 78
     2
 67
     7
 79
     3
170
     0
171
     0
290
     0
174
     0
 93
        1
 44
0.0
173
     0
291
     0
 45
0.0
1001
ACAD
1000
AcDbSavedByObjectVersion
1070
     0
  0
VISUALSTYLE
  5
13FE
102
{ACAD_XDICTIONARY
360
147F
102
}
102
{ACAD_REACTORS
330
13F7
102
}
330
13F7
100
AcDbVisualStyle
  2
3dWireframe
 70
     5
 71
     0
 72
     2
 73
     0
 90
        0
 40
-0.6
 41
-30.0
 62
     5
 63
     7
 74
     1
 91
        4
 64
     7
 65
   257
 75
     1
175
     1
 42
1.0
 92
        0
 66
   257
 43
1.0
 76
     1
 77
     6
 78
     2
 67
     7
 79
     5
170
     0
171
     0
290
     0
174
     0
 93
        1
 44
0.0
173
     0
291
     0
 45
0.0
1001
ACAD
1000
AcDbSavedByObjectVersion
1070
     0
  0
VISUALSTYLE
  5
13FC
102
{ACAD_XDICTIONARY
360
147B
102
}
102
{ACAD_REACTORS
330
13F7
102
}
330
13F7
100
AcDbVisualStyle
  2
Basic
 70
     7
 71
     1
 72
     0
 73
     1
 90
        0
 40
-0.6
 41
-30.0
 62
     5
 63
     7
 74
     0
 91
        4
 64
     7
 65
   257
 75
     1
175
     1
 42
1.0
 92
        8
 66
     7
 43
1.0
 76
     1
 77
     6
 78
     2
 67
     7
 79
     5
170
     0
171
     0
290
     0
174
     0
 93
        1
 44
0.0
173
     0
291
     1
 45
0.0
1001
ACAD
1000
AcDbSavedByObjectVersion
1070
     0
  0
VISUALSTYLE
  5
1403
102
{ACAD_XDICTIONARY
360
1489
102
}
102
{ACAD_REACTORS
330
13F7
102
}
330
13F7
100
AcDbVisualStyle
  2
Brighten
 70
    12
 71
     2
 72
     2
 73
     0
 90
        0
 40
-0.6
 41
-30.0
 62
     5
 63
     7
 74
     1
 91
        4
 64
     7
 65
   257
 75
     1
175
     1
 42
1.0
 92
        8
 66
     7
 43
1.0
 76
     1
 77
     6
 78
     2
 67
     7
 79
     5
170
     0
171
     0
290
     0
174
     0
 93
        1
 44
50.0
173
     0
291
     1
 45
0.0
1001
ACAD
1000
AcDbSavedByObjectVersion
1070
     0
  0
VISUALSTYLE
  5
1407
102
{ACAD_XDICTIONARY
360
1491
102
}
102
{ACAD_REACTORS
330
13F7
102
}
330
13F7
100
AcDbVisualStyle
  2
ColorChange
 70
    16
 71
     2
 72
     2
 73
     3
 90
        0
 40
-0.6
 41
-30.0
 62
     5
 63
     8
 74
     1
 91
        4
 64
     7
 65
   257
 75
     1
175
     1
 42
1.0
 92
        8
 66
     8
 43
1.0
 76
     1
 77
     6
 78
     2
 67
     7
 79
     5
170
     0
171
     0
290
     0
174
     0
 93
        1
 44
0.0
173
     0
291
     1
 45
0.0
1001
ACAD
1000
AcDbSavedByObjectVersion
1070
     0
  0
VISUALSTYLE
  5
1400
102
{ACAD_XDICTIONARY
360
1483
102
}
102
{ACAD_REACTORS
330
13F7
102
}
330
13F7
100
AcDbVisualStyle
  2
Conceptual
 70
     9
 71
     3
 72
     2
 73
     0
 90
        0
 40
-0.6
 41
-30.0
 62
     5
 63
     7
 74
     2
 91
        2
 64
     7
 65
   257
 75
     1
175
     1
 42
179.0
 92
        8
 66
     7
 43
1.0
 76
     1
 77
     6
 78
     2
 67
     7
 79
     3
170
     0
171
     0
290
     0
174
     0
 93
        1
 44
0.0
173
     0
291
     0
 45
0.0
1001
ACAD
1000
AcDbSavedByObjectVersion
1070
     0
  0
VISUALSTYLE
  5
1402
102
{ACAD_XDICTIONARY
360
1487
102
}
102
{ACAD_REACTORS
330
13F7
102
}
330
13F7
100
AcDbVisualStyle
  2
Dim
 70
    11
 71
     2
 72
     2
 73
     0
 90
        0
 40
-0.6
 41
-30.0
 62
     5
 63
     7
 74
     1
 91
        4
 64
     7
 65
   257
 75
     1
175
     1
 42
1.0
 92
        8
 66
     7
 43
1.0
 76
     1
 77
     6
 78
     2
 67
     7
 79
     5
170
     0
171
     0
290
     0
174
     0
 93
        1
 44
-50.0
173
     0
291
     1
 45
0.0
1001
ACAD
1000
AcDbSavedByObjectVersion
1070
     0
  0
VISUALSTYLE
  5
140A
102
{ACAD_XDICTIONARY
360
1497
102
}
102
{ACAD_REACTORS
330
13F7
102
}
330
13F7
100
AcDbVisualStyle
  2
EdgeColorOff
 70
    22
 71
     2
 72
     2
 73
     0
 90
        0
 40
-0.6
 41
-30.0
 62
     5
 63
     7
 74
     1
 91
        4
 64
     7
 65
   257
 75
     1
175
     1
 42
1.0
 92
        8
 66
     7
 43
1.0
 76
     1
 77
     6
 78
     2
 67
     7
 79
     5
170
     0
171
     0
290
     0
174
     0
 93
        1
 44
0.0
173
     0
291
     1
 45
0.0
1001
ACAD
1000
AcDbSavedByObjectVersion
1070
     0
  0
VISUALSTYLE
  5
1406
102
{ACAD_XDICTIONARY
360
148F
102
}
102
{ACAD_REACTORS
330
13F7
102
}
330
13F7
100
AcDbVisualStyle
  2
Facepattern
 70
    15
 71
     2
 72
     2
 73
     0
 90
        0
 40
-0.6
 41
-30.0
 62
     5
 63
     7
 74
     1
 91
        4
 64
     7
 65
   257
 75
     1
175
     1
 42
1.0
 92
        8
 66
     7
 43
1.0
 76
     1
 77
     6
 78
     2
 67
     7
 79
     5
170
     0
171
     0
290
     0
174
     0
 93
        1
 44
0.0
173
     0
291
     1
 45
0.0
1001
ACAD
1000
AcDbSavedByObjectVersion
1070
     0
  0
VISUALSTYLE
  5
13F8
102
{ACAD_XDICTIONARY
360
1473
102
}
102
{ACAD_REACTORS
330
13F7
102
}
330
13F7
100
AcDbVisualStyle
  2
Flat
 70
     0
 71
     2
 72
     1
 73
     1
 90
        2
 40
-0.6
 41
30.0
 62
     5
 63
     7
 74
     0
 91
        4
 64
     7
 65
   257
 75
     1
175
     1
 42
1.0
 92
        8
 66
     7
 43
1.0
 76
     1
 77
     6
 78
     2
 67
     7
 79
     5
170
     0
171
     0
290
     0
174
     0
 93
       13
 44
0.0
173
     0
291
     1
 45
0.0
1001
ACAD
1000
AcDbSavedByObjectVersion
1070
     0
  0
VISUALSTYLE
  5
13F9
102
{ACAD_XDICTIONARY
360
1475
102
}
102
{ACAD_REACTORS
330
13F7
102
}
330
13F7
100
AcDbVisualStyle
  2
FlatWithEdges
 70
     1
 71
     2
 72
     1
 73
     1
 90
        2
 40
-0.6
 41
30.0
 62
     5
 63
     7
 74
     1
 91
        4
 64
     7
 65
   257
 75
     1
175
     1
 42
1.0
 92
        0
 66
   257
 43
1.0
 76
     1
 77
     6
 78
     2
 67
     7
 79
     5
170
     0
171
     0
290
     0
174
     0
 93
       13
 44
0.0
173
     0
291
     1
 45
0.0
1001
ACAD
1000
AcDbSavedByObjectVersion
1070
     0
  0
VISUALSTYLE
  5
13FA
102
{ACAD_XDICTIONARY
360
1477
102
}
102
{ACAD_REACTORS
330
13F7
102
}
330
13F7
100
AcDbVisualStyle
  2
Gouraud
 70
     2
 71
     2
 72
     2
 73
     1
 90
        2
 40
-0.6
 41
30.0
 62
     5
 63
     7
 74
     0
 91
        4
 64
     7
 65
   257
 75
     1
175
     1
 42
1.0
 92
        0
 66
     7
 43
1.0
 76
     1
 77
     6
 78
     2
 67
     7
 79
     5
170
     0
171
     0
290
     0
174
     0
 93
       13
 44
0.0
173
     0
291
     1
 45
0.0
1001
ACAD
1000
AcDbSavedByObjectVersion
1070
     0
  0
VISUALSTYLE
  5
13FB
102
{ACAD_XDICTIONARY
360
1479
102
}
102
{ACAD_REACTORS
330
13F7
102
}
330
13F7
100
AcDbVisualStyle
  2
GouraudWithEdges
 70
     3
 71
     2
 72
     2
 73
     1
 90
        2
 40
-0.6
 41
30.0
 62
     5
 63
     7
 74
     1
 91
        4
 64
     7
 65
   257
 75
     1
175
     1
 42
1.0
 92
        0
 66
   257
 43
1.0
 76
     1
 77
     6
 78
     2
 67
     7
 79
     5
170
     0
171
     0
290
     0
174
     0
 93
       13
 44
0.0
173
     0
291
     1
 45
0.0
1001
ACAD
1000
AcDbSavedByObjectVersion
1070
     0
  0
VISUALSTYLE
  5
1408
102
{ACAD_XDICTIONARY
360
1493
102
}
102
{ACAD_REACTORS
330
13F7
102
}
330
13F7
100
AcDbVisualStyle
  2
JitterOff
 70
    20
 71
     2
 72
     2
 73
     0
 90
        0
 40
-0.6
 41
-30.0
 62
     5
 63
     7
 74
     1
 91
        4
 64
     7
 65
   257
 75
     1
175
     1
 42
1.0
 92
       10
 66
     7
 43
1.0
 76
     1
 77
     6
 78
     2
 67
     7
 79
     5
170
     0
171
     0
290
     0
174
     0
 93
        1
 44
0.0
173
     0
291
     1
 45
0.0
1001
ACAD
1000
AcDbSavedByObjectVersion
1070
     0
  0
VISUALSTYLE
  5
1405
102
{ACAD_XDICTIONARY
360
148D
102
}
102
{ACAD_REACTORS
330
13F7
102
}
330
13F7
100
AcDbVisualStyle
  2
Linepattern
 70
    14
 71
     2
 72
     2
 73
     0
 90
        0
 40
-0.6
 41
-30.0
 62
     5
 63
     7
 74
     1
 91
        4
 64
     7
 65
   257
 75
     7
175
     7
 42
1.0
 92
        8
 66
     7
 43
1.0
 76
     1
 77
     6
 78
     2
 67
     7
 79
     5
170
     0
171
     0
290
     0
174
     0
 93
        1
 44
0.0
173
     0
291
     1
 45
0.0
1001
ACAD
1000
AcDbSavedByObjectVersion
1070
     0
  0
VISUALSTYLE
  5
1409
102
{ACAD_XDICTIONARY
360
1495
102
}
102
{ACAD_REACTORS
330
13F7
102
}
330
13F7
100
AcDbVisualStyle
  2
OverhangOff
 70
    21
 71
     2
 72
     2
 73
     0
 90
        0
 40
-0.6
 41
-30.0
 62
     5
 63
     7
 74
     1
 91
        4
 64
     7
 65
   257
 75
     1
175
     1
 42
1.0
 92
        9
 66
     7
 43
1.0
 76
     1
 77
     6
 78
     2
 67
     7
 79
     5
170
     0
171
     0
290
     0
174
     0
 93
        1
 44
0.0
173
     0
291
     1
 45
0.0
1001
ACAD
1000
AcDbSavedByObjectVersion
1070
     0
  0
VISUALSTYLE
  5
1401
102
{ACAD_XDICTIONARY
360
1485
102
}
102
{ACAD_REACTORS
330
13F7
102
}
330
13F7
100
AcDbVisualStyle
  2
Realistic
 70
     8
 71
     2
 72
     2
 73
     0
 90
        0
 40
-0.6
 41
-30.0
 62
     5
 63
     7
 74
     1
 91
        0
 64
     7
 65
   257
 75
     1
175
     1
 42
1.0
 92
        8
 66
     8
 43
1.0
 76
     1
 77
     6
 78
     2
 67
     7
 79
     5
170
     0
171
     0
290
     0
174
     0
 93
       13
 44
0.0
173
     0
291
     0
 45
0.0
1001
ACAD
1000
AcDbSavedByObjectVersion
1070
     0
  0
VISUALSTYLE
  5
1404
102
{ACAD_XDICTIONARY
360
148B
102
}
102
{ACAD_REACTORS
330
13F7
102
}
330
13F7
100
AcDbVisualStyle
  2
Thicken
 70
    13
 71
     2
 72
     2
 73
     0
 90
        0
 40
-0.6
 41
-30.0
 62
     5
 63
     7
 74
     1
 91
        4
 64
     7
 65
   257
 75
     1
175
     1
 42
1.0
 92
       12
 66
     7
 43
1.0
 76
     1
 77
     6
 78
     2
 67
     7
 79
     5
170
     0
171
     0
290
     0
174
     0
 93
        1
 44
0.0
173
     0
291
     1
 45
0.0
1001
ACAD
1000
AcDbSavedByObjectVersion
1070
     0
  0
DICTIONARYVAR
  5
1445
102
{ACAD_REACTORS
330
3D
102
}
330
3D
100
DictionaryVariables
280
     0
  1
1:1
  0
DICTIONARYVAR
  5
1444
102
{ACAD_REACTORS
330
3D
102
}
330
3D
100
DictionaryVariables
280
     0
  1
STANDARD
  0
DICTIONARYVAR
  5
BB1
102
{ACAD_REACTORS
330
3D
102
}
330
3D
100
DictionaryVariables
280
     0
  1
STANDARD
  0
DICTIONARYVAR
  5
3F
102
{ACAD_REACTORS
330
3D
102
}
330
3D
100
DictionaryVariables
280
     0
  1
2
  0
DICTIONARYVAR
  5
3E
102
{ACAD_REACTORS
330
3D
102
}
330
3D
100
DictionaryVariables
280
     0
  1
1
  0
DICTIONARYVAR
  5
1447
102
{ACAD_REACTORS
330
3D
102
}
330
3D
100
DictionaryVariables
280
     0
  1
0
  0
DICTIONARYVAR
  5
13DD
102
{ACAD_REACTORS
330
3D
102
}
330
3D
100
DictionaryVariables
280
     0
  1

  0
DICTIONARYVAR
  5
1446
102
{ACAD_REACTORS
330
3D
102
}
330
3D
100
DictionaryVariables
280
     0
  1
127
  0
DICTIONARYVAR
  5
1448
102
{ACAD_REACTORS
330
3D
102
}
330
3D
100
DictionaryVariables
280
     0
  1
2
  0
XRECORD
  5
1443
102
{ACAD_REACTORS
330
1442
102
}
330
1442
100
AcDbXrecord
280
     1
  0
DICTIONARY
  5
144D
330
1E
100
AcDbDictionary
280
     1
281
     1
  3
ACAD_XREC_ROUNDTRIP
360
144E
  0
DICTIONARY
  5
1451
330
26
100
AcDbDictionary
280
     1
281
     1
  3
ACAD_XREC_ROUNDTRIP
360
1452
  0
DICTIONARY
  5
144F
330
22
100
AcDbDictionary
280
     1
281
     1
  3
ACAD_XREC_ROUNDTRIP
360
1450
  0
DICTIONARY
  5
13E8
330
13E7
100
AcDbDictionary
280
     1
281
     1
  3
ACAD_XREC_ROUNDTRIP
360
1471
  3
BUMPTILE
360
13EA
  3
DIFFUSETILE
360
13E9
  3
OPACITYTILE
360
13ED
  3
REFLECTIONTILE
360
13EC
  3
REFRACTIONTILE
360
13EE
  3
SPECULARTILE
360
13EB
  0
DICTIONARY
  5
13E0
330
13DF
100
AcDbDictionary
280
     1
281
     1
  3
ACAD_XREC_ROUNDTRIP
360
1470
  3
BUMPTILE
360
13E2
  3
DIFFUSETILE
360
13E1
  3
OPACITYTILE
360
13E5
  3
REFLECTIONTILE
360
13E4
  3
REFRACTIONTILE
360
13E6
  3
SPECULARTILE
360
13E3
  0
DICTIONARY
  5
13F0
330
13EF
100
AcDbDictionary
280
     1
281
     1
  3
ACAD_XREC_ROUNDTRIP
360
1472
  3
BUMPTILE
360
13F2
  3
DIFFUSETILE
360
13F1
  3
OPACITYTILE
360
13F5
  3
REFLECTIONTILE
360
13F4
  3
REFRACTIONTILE
360
13F6
  3
SPECULARTILE
360
13F3
  0
DICTIONARY
  5
1449
330
BAB
100
AcDbDictionary
280
     1
281
     1
  3
ACAD_ROUNDTRIP_2008_TABLESTYLE_CELLSTYLEMAP
360
144A
  3
ACAD_XREC_ROUNDTRIP
360
1453
  0
DICTIONARY
  5
147D
330
13FD
100
AcDbDictionary
280
     1
281
     1
  3
ACAD_XREC_ROUNDTRIP
360
147E
  0
DICTIONARY
  5
1481
330
13FF
100
AcDbDictionary
280
     1
281
     1
  3
ACAD_XREC_ROUNDTRIP
360
1482
  0
DICTIONARY
  5
147F
330
13FE
100
AcDbDictionary
280
     1
281
     1
  3
ACAD_XREC_ROUNDTRIP
360
1480
  0
DICTIONARY
  5
147B
330
13FC
100
AcDbDictionary
280
     1
281
     1
  3
ACAD_XREC_ROUNDTRIP
360
147C
  0
DICTIONARY
  5
1489
330
1403
100
AcDbDictionary
280
     1
281
     1
  3
ACAD_XREC_ROUNDTRIP
360
148A
  0
DICTIONARY
  5
1491
330
1407
100
AcDbDictionary
280
     1
281
     1
  3
ACAD_XREC_ROUNDTRIP
360
1492
  0
DICTIONARY
  5
1483
330
1400
100
AcDbDictionary
280
     1
281
     1
  3
ACAD_XREC_ROUNDTRIP
360
1484
  0
DICTIONARY
  5
1487
330
1402
100
AcDbDictionary
280
     1
281
     1
  3
ACAD_XREC_ROUNDTRIP
360
1488
  0
DICTIONARY
  5
1497
330
140A
100
AcDbDictionary
280
     1
281
     1
  3
ACAD_XREC_ROUNDTRIP
360
1498
  0
DICTIONARY
  5
148F
330
1406
100
AcDbDictionary
280
     1
281
     1
  3
ACAD_XREC_ROUNDTRIP
360
1490
  0
DICTIONARY
  5
1473
330
13F8
100
AcDbDictionary
280
     1
281
     1
  3
ACAD_XREC_ROUNDTRIP
360
1474
  0
DICTIONARY
  5
1475
330
13F9
100
AcDbDictionary
280
     1
281
     1
  3
ACAD_XREC_ROUNDTRIP
360
1476
  0
DICTIONARY
  5
1477
330
13FA
100
AcDbDictionary
280
     1
281
     1
  3
ACAD_XREC_ROUNDTRIP
360
1478
  0
DICTIONARY
  5
1479
330
13FB
100
AcDbDictionary
280
     1
281
     1
  3
ACAD_XREC_ROUNDTRIP
360
147A
  0
DICTIONARY
  5
1493
330
1408
100
AcDbDictionary
280
     1
281
     1
  3
ACAD_XREC_ROUNDTRIP
360
1494
  0
DICTIONARY
  5
148D
330
1405
100
AcDbDictionary
280
     1
281
     1
  3
ACAD_XREC_ROUNDTRIP
360
148E
  0
DICTIONARY
  5
1495
330
1409
100
AcDbDictionary
280
     1
281
     1
  3
ACAD_XREC_ROUNDTRIP
360
1496
  0
DICTIONARY
  5
1485
330
1401
100
AcDbDictionary
280
     1
281
     1
  3
ACAD_XREC_ROUNDTRIP
360
1486
  0
DICTIONARY
  5
148B
330
1404
100
AcDbDictionary
280
     1
281
     1
  3
ACAD_XREC_ROUNDTRIP
360
148C
  0
XRECORD
  5
144E
102
{ACAD_REACTORS
330
144D
102
}
330
144D
100
AcDbXrecord
280
     1
102
SHADEPLOT
 70
     0
102
SHADEPLOTRESLEVEL
 70
     2
102
SHADEPLOTCUSTOMDPI
 70
   300
  0
XRECORD
  5
1452
102
{ACAD_REACTORS
330
1451
102
}
330
1451
100
AcDbXrecord
280
     1
102
SHADEPLOT
 70
     0
102
SHADEPLOTRESLEVEL
 70
     2
102
SHADEPLOTCUSTOMDPI
 70
   300
  0
XRECORD
  5
1450
102
{ACAD_REACTORS
330
144F
102
}
330
144F
100
AcDbXrecord
280
     1
102
SHADEPLOT
 70
     0
102
SHADEPLOTRESLEVEL
 70
     2
102
SHADEPLOTCUSTOMDPI
 70
   300
  0
XRECORD
  5
1471
102
{ACAD_REACTORS
330
13E8
102
}
330
13E8
100
AcDbXrecord
280
     1
102
MATERIAL
148
0.0
149
0.0
149
0.0
 93
        0
 94
      127
282
     0
 72
     0
 77
     0
171
     0
175
     0
179
     0
273
     0
  0
XRECORD
  5
13EA
102
{ACAD_REACTORS
330
13E8
102
}
330
13E8
100
AcDbXrecord
280
     1
270
     1
271
     1
  0
XRECORD
  5
13E9
102
{ACAD_REACTORS
330
13E8
102
}
330
13E8
100
AcDbXrecord
280
     1
270
     1
271
     1
  0
XRECORD
  5
13ED
102
{ACAD_REACTORS
330
13E8
102
}
330
13E8
100
AcDbXrecord
280
     1
270
     1
271
     1
  0
XRECORD
  5
13EC
102
{ACAD_REACTORS
330
13E8
102
}
330
13E8
100
AcDbXrecord
280
     1
270
     1
271
     1
  0
XRECORD
  5
13EE
102
{ACAD_REACTORS
330
13E8
102
}
330
13E8
100
AcDbXrecord
280
     1
270
     1
271
     1
  0
XRECORD
  5
13EB
102
{ACAD_REACTORS
330
13E8
102
}
330
13E8
100
AcDbXrecord
280
     1
270
     1
271
     1
  0
XRECORD
  5
1470
102
{ACAD_REACTORS
330
13E0
102
}
330
13E0
100
AcDbXrecord
280
     1
102
MATERIAL
148
0.0
149
0.0
149
0.0
 93
        0
 94
      127
282
     0
 72
     0
 77
     0
171
     0
175
     0
179
     0
273
     0
  0
XRECORD
  5
13E2
102
{ACAD_REACTORS
330
13E0
102
}
330
13E0
100
AcDbXrecord
280
     1
270
     1
271
     1
  0
XRECORD
  5
13E1
102
{ACAD_REACTORS
330
13E0
102
}
330
13E0
100
AcDbXrecord
280
     1
270
     1
271
     1
  0
XRECORD
  5
13E5
102
{ACAD_REACTORS
330
13E0
102
}
330
13E0
100
AcDbXrecord
280
     1
270
     1
271
     1
  0
XRECORD
  5
13E4
102
{ACAD_REACTORS
330
13E0
102
}
330
13E0
100
AcDbXrecord
280
     1
270
     1
271
     1
  0
XRECORD
  5
13E6
102
{ACAD_REACTORS
330
13E0
102
}
330
13E0
100
AcDbXrecord
280
     1
270
     1
271
     1
  0
XRECORD
  5
13E3
102
{ACAD_REACTORS
330
13E0
102
}
330
13E0
100
AcDbXrecord
280
     1
270
     1
271
     1
  0
XRECORD
  5
1472
102
{ACAD_REACTORS
330
13F0
102
}
330
13F0
100
AcDbXrecord
280
     1
102
MATERIAL
148
0.0
149
0.0
149
0.0
 93
        0
 94
      127
282
     0
 72
     0
 77
     0
171
     0
175
     0
179
     0
273
     0
  0
XRECORD
  5
13F2
102
{ACAD_REACTORS
330
13F0
102
}
330
13F0
100
AcDbXrecord
280
     1
270
     1
271
     1
  0
XRECORD
  5
13F1
102
{ACAD_REACTORS
330
13F0
102
}
330
13F0
100
AcDbXrecord
280
     1
270
     1
271
     1
  0
XRECORD
  5
13F5
102
{ACAD_REACTORS
330
13F0
102
}
330
13F0
100
AcDbXrecord
280
     1
270
     1
271
     1
  0
XRECORD
  5
13F4
102
{ACAD_REACTORS
330
13F0
102
}
330
13F0
100
AcDbXrecord
280
     1
270
     1
271
     1
  0
XRECORD
  5
13F6
102
{ACAD_REACTORS
330
13F0
102
}
330
13F0
100
AcDbXrecord
280
     1
270
     1
271
     1
  0
XRECORD
  5
13F3
102
{ACAD_REACTORS
330
13F0
102
}
330
13F0
100
AcDbXrecord
280
     1
270
     1
271
     1
  0
CELLSTYLEMAP
  5
144A
102
{ACAD_REACTORS
330
1449
102
}
330
1449
100
AcDbCellStyleMap
 90
        3
300
CELLSTYLE
  1
TABLEFORMAT_BEGIN
 90
        5
170
     1
 91
        0
 92
    32768
 62
   257
 93
        1
300
CONTENTFORMAT
  1
CONTENTFORMAT_BEGIN
 90
        0
 91
        0
 92
        4
 93
        0
300

 40
0.0
140
1.0
 94
        5
 62
     0
340
11
144
6.0
309
CONTENTFORMAT_END
171
     1
301
MARGIN
  1
CELLMARGIN_BEGIN
 40
1.5
 40
1.5
 40
1.5
 40
1.5
 40
0.18
 40
0.18
309
CELLMARGIN_END
 94
        6
 95
        1
302
GRIDFORMAT
  1
GRIDFORMAT_BEGIN
 90
        0
 91
        1
 62
     0
 92
       -2
340
0
 93
        0
 40
0.045
309
GRIDFORMAT_END
 95
        2
302
GRIDFORMAT
  1
GRIDFORMAT_BEGIN
 90
        0
 91
        1
 62
     0
 92
       -2
340
0
 93
        0
 40
0.045
309
GRIDFORMAT_END
 95
        4
302
GRIDFORMAT
  1
GRIDFORMAT_BEGIN
 90
        0
 91
        1
 62
     0
 92
       -2
340
0
 93
        0
 40
0.045
309
GRIDFORMAT_END
 95
        8
302
GRIDFORMAT
  1
GRIDFORMAT_BEGIN
 90
        0
 91
        1
 62
     0
 92
       -2
340
0
 93
        0
 40
0.045
309
GRIDFORMAT_END
 95
       16
302
GRIDFORMAT
  1
GRIDFORMAT_BEGIN
 90
        0
 91
        1
 62
     0
 92
       -2
340
0
 93
        0
 40
0.045
309
GRIDFORMAT_END
 95
       32
302
GRIDFORMAT
  1
GRIDFORMAT_BEGIN
 90
        0
 91
        1
 62
     0
 92
       -2
340
0
 93
        0
 40
0.045
309
GRIDFORMAT_END
309
TABLEFORMAT_END
  1
CELLSTYLE_BEGIN
 90
        1
 91
        1
300
_TITLE
309
CELLSTYLE_END
300
CELLSTYLE
  1
TABLEFORMAT_BEGIN
 90
        5
170
     1
 91
        0
 92
        0
 62
   257
 93
        1
300
CONTENTFORMAT
  1
CONTENTFORMAT_BEGIN
 90
        0
 91
        0
 92
        4
 93
        0
300

 40
0.0
140
1.0
 94
        5
 62
     0
340
11
144
4.5
309
CONTENTFORMAT_END
171
     1
301
MARGIN
  1
CELLMARGIN_BEGIN
 40
1.5
 40
1.5
 40
1.5
 40
1.5
 40
0.18
 40
0.18
309
CELLMARGIN_END
 94
        6
 95
        1
302
GRIDFORMAT
  1
GRIDFORMAT_BEGIN
 90
        0
 91
        1
 62
     0
 92
       -2
340
0
 93
        0
 40
0.045
309
GRIDFORMAT_END
 95
        2
302
GRIDFORMAT
  1
GRIDFORMAT_BEGIN
 90
        0
 91
        1
 62
     0
 92
       -2
340
0
 93
        0
 40
0.045
309
GRIDFORMAT_END
 95
        4
302
GRIDFORMAT
  1
GRIDFORMAT_BEGIN
 90
        0
 91
        1
 62
     0
 92
       -2
340
0
 93
        0
 40
0.045
309
GRIDFORMAT_END
 95
        8
302
GRIDFORMAT
  1
GRIDFORMAT_BEGIN
 90
        0
 91
        1
 62
     0
 92
       -2
340
0
 93
        0
 40
0.045
309
GRIDFORMAT_END
 95
       16
302
GRIDFORMAT
  1
GRIDFORMAT_BEGIN
 90
        0
 91
        1
 62
     0
 92
       -2
340
0
 93
        0
 40
0.045
309
GRIDFORMAT_END
 95
       32
302
GRIDFORMAT
  1
GRIDFORMAT_BEGIN
 90
        0
 91
        1
 62
     0
 92
       -2
340
0
 93
        0
 40
0.045
309
GRIDFORMAT_END
309
TABLEFORMAT_END
  1
CELLSTYLE_BEGIN
 90
        2
 91
        1
300
_HEADER
309
CELLSTYLE_END
300
CELLSTYLE
  1
TABLEFORMAT_BEGIN
 90
        5
170
     1
 91
        0
 92
        0
 62
   257
 93
        1
300
CONTENTFORMAT
  1
CONTENTFORMAT_BEGIN
 90
        0
 91
        0
 92
        4
 93
        0
300

 40
0.0
140
1.0
 94
        2
 62
     0
340
11
144
4.5
309
CONTENTFORMAT_END
171
     1
301
MARGIN
  1
CELLMARGIN_BEGIN
 40
1.5
 40
1.5
 40
1.5
 40
1.5
 40
0.18
 40
0.18
309
CELLMARGIN_END
 94
        6
 95
        1
302
GRIDFORMAT
  1
GRIDFORMAT_BEGIN
 90
        0
 91
        1
 62
     0
 92
       -2
340
0
 93
        0
 40
0.045
309
GRIDFORMAT_END
 95
        2
302
GRIDFORMAT
  1
GRIDFORMAT_BEGIN
 90
        0
 91
        1
 62
     0
 92
       -2
340
0
 93
        0
 40
0.045
309
GRIDFORMAT_END
 95
        4
302
GRIDFORMAT
  1
GRIDFORMAT_BEGIN
 90
        0
 91
        1
 62
     0
 92
       -2
340
0
 93
        0
 40
0.045
309
GRIDFORMAT_END
 95
        8
302
GRIDFORMAT
  1
GRIDFORMAT_BEGIN
 90
        0
 91
        1
 62
     0
 92
       -2
340
0
 93
        0
 40
0.045
309
GRIDFORMAT_END
 95
       16
302
GRIDFORMAT
  1
GRIDFORMAT_BEGIN
 90
        0
 91
        1
 62
     0
 92
       -2
340
0
 93
        0
 40
0.045
309
GRIDFORMAT_END
 95
       32
302
GRIDFORMAT
  1
GRIDFORMAT_BEGIN
 90
        0
 91
        1
 62
     0
 92
       -2
340
0
 93
        0
 40
0.045
309
GRIDFORMAT_END
309
TABLEFORMAT_END
  1
CELLSTYLE_BEGIN
 90
        3
 91
        2
300
_DATA
309
CELLSTYLE_END
  0
XRECORD
  5
1453
102
{ACAD_REACTORS
330
1449
102
}
330
1449
100
AcDbXrecord
280
     1
102
ACAD_ROUNDTRIP_PRE2007_TABLESTYLE
 90
        4
 91
        0
  1

 92
        4
 93
        0
  2

 94
        4
 95
        0
  3

  0
XRECORD
  5
147E
102
{ACAD_REACTORS
330
147D
102
}
330
147D
100
AcDbXrecord
280
     1
102
RTVSPropertyOp0
 70
     1
102
RTVSPropertyOp1
 70
     1
102
RTVSPropertyOp2
 70
     1
102
RTVSPropertyOp3
 70
     1
102
RTVSPropertyOp4
 70
     1
102
RTVSPropertyOp5
 70
     1
102
RTVSPropertyOp6
 70
     1
102
RTVSPropertyOp7
 70
     1
102
RTVSPropertyOp8
 70
     1
102
RTVSPropertyOp9
 70
     1
102
RTVSPropertyOp10
 70
     1
102
RTVSPropertyOp11
 70
     1
102
RTVSPropertyOp12
 70
     1
102
RTVSPropertyOp13
 70
     1
102
RTVSPropertyOp14
 70
     1
102
RTVSPropertyOp15
 70
     1
102
RTVSPropertyOp16
 70
     1
102
RTVSPropertyOp17
 70
     1
102
RTVSPropertyOp18
 70
     1
102
RTVSPropertyOp19
 70
     1
102
RTVSPropertyOp20
 70
     1
102
RTVSPropertyOp21
 70
     1
102
RTVSPropertyOp22
 70
     1
102
RTVSPropertyOp23
 70
     1
102
RTVSPropertyOp24
 70
     1
102
RTVSPropertyOp25
 70
     1
102
RTVSPropertyOp26
 70
     1
102
RTVSPropertyOp27
 70
     1
  0
XRECORD
  5
1482
102
{ACAD_REACTORS
330
1481
102
}
330
1481
100
AcDbXrecord
280
     1
102
RTVSPropertyOp0
 70
     1
102
RTVSPropertyOp1
 70
     1
102
RTVSPropertyOp2
 70
     1
102
RTVSPropertyOp3
 70
     1
102
RTVSPropertyOp4
 70
     1
102
RTVSPropertyOp5
 70
     1
102
RTVSPropertyOp6
 70
     1
102
RTVSPropertyOp7
 70
     1
102
RTVSPropertyOp8
 70
     1
102
RTVSPropertyOp9
 70
     1
102
RTVSPropertyOp10
 70
     1
102
RTVSPropertyOp11
 70
     1
102
RTVSPropertyOp12
 70
     1
102
RTVSPropertyOp13
 70
     1
102
RTVSPropertyOp14
 70
     1
102
RTVSPropertyOp15
 70
     1
102
RTVSPropertyOp16
 70
     1
102
RTVSPropertyOp17
 70
     1
102
RTVSPropertyOp18
 70
     1
102
RTVSPropertyOp19
 70
     1
102
RTVSPropertyOp20
 70
     1
102
RTVSPropertyOp21
 70
     1
102
RTVSPropertyOp22
 70
     1
102
RTVSPropertyOp23
 70
     1
102
RTVSPropertyOp24
 70
     1
102
RTVSPropertyOp25
 70
     1
102
RTVSPropertyOp26
 70
     1
102
RTVSPropertyOp27
 70
     1
  0
XRECORD
  5
1480
102
{ACAD_REACTORS
330
147F
102
}
330
147F
100
AcDbXrecord
280
     1
102
RTVSPropertyOp0
 70
     1
102
RTVSPropertyOp1
 70
     1
102
RTVSPropertyOp2
 70
     1
102
RTVSPropertyOp3
 70
     1
102
RTVSPropertyOp4
 70
     1
102
RTVSPropertyOp5
 70
     1
102
RTVSPropertyOp6
 70
     1
102
RTVSPropertyOp7
 70
     1
102
RTVSPropertyOp8
 70
     1
102
RTVSPropertyOp9
 70
     1
102
RTVSPropertyOp10
 70
     1
102
RTVSPropertyOp11
 70
     1
102
RTVSPropertyOp12
 70
     1
102
RTVSPropertyOp13
 70
     1
102
RTVSPropertyOp14
 70
     1
102
RTVSPropertyOp15
 70
     1
102
RTVSPropertyOp16
 70
     1
102
RTVSPropertyOp17
 70
     1
102
RTVSPropertyOp18
 70
     1
102
RTVSPropertyOp19
 70
     1
102
RTVSPropertyOp20
 70
     1
102
RTVSPropertyOp21
 70
     1
102
RTVSPropertyOp22
 70
     1
102
RTVSPropertyOp23
 70
     1
102
RTVSPropertyOp24
 70
     1
102
RTVSPropertyOp25
 70
     1
102
RTVSPropertyOp26
 70
     1
102
RTVSPropertyOp27
 70
     1
  0
XRECORD
  5
147C
102
{ACAD_REACTORS
330
147B
102
}
330
147B
100
AcDbXrecord
280
     1
102
RTVSPropertyOp0
 70
     1
102
RTVSPropertyOp1
 70
     1
102
RTVSPropertyOp2
 70
     1
102
RTVSPropertyOp3
 70
     1
102
RTVSPropertyOp4
 70
     1
102
RTVSPropertyOp5
 70
     1
102
RTVSPropertyOp6
 70
     1
102
RTVSPropertyOp7
 70
     1
102
RTVSPropertyOp8
 70
     1
102
RTVSPropertyOp9
 70
     1
102
RTVSPropertyOp10
 70
     1
102
RTVSPropertyOp11
 70
     1
102
RTVSPropertyOp12
 70
     1
102
RTVSPropertyOp13
 70
     1
102
RTVSPropertyOp14
 70
     1
102
RTVSPropertyOp15
 70
     1
102
RTVSPropertyOp16
 70
     1
102
RTVSPropertyOp17
 70
     1
102
RTVSPropertyOp18
 70
     1
102
RTVSPropertyOp19
 70
     1
102
RTVSPropertyOp20
 70
     1
102
RTVSPropertyOp21
 70
     1
102
RTVSPropertyOp22
 70
     1
102
RTVSPropertyOp23
 70
     1
102
RTVSPropertyOp24
 70
     1
102
RTVSPropertyOp25
 70
     1
102
RTVSPropertyOp26
 70
     1
102
RTVSPropertyOp27
 70
     1
  0
XRECORD
  5
148A
102
{ACAD_REACTORS
330
1489
102
}
330
1489
100
AcDbXrecord
280
     1
102
RTVSPropertyOp0
 70
     1
102
RTVSPropertyOp1
 70
     1
102
RTVSPropertyOp2
 70
     1
102
RTVSPropertyOp3
 70
     1
102
RTVSPropertyOp4
 70
     1
102
RTVSPropertyOp5
 70
     1
102
RTVSPropertyOp6
 70
     1
102
RTVSPropertyOp7
 70
     1
102
RTVSPropertyOp8
 70
     1
102
RTVSPropertyOp9
 70
     1
102
RTVSPropertyOp10
 70
     1
102
RTVSPropertyOp11
 70
     1
102
RTVSPropertyOp12
 70
     1
102
RTVSPropertyOp13
 70
     1
102
RTVSPropertyOp14
 70
     1
102
RTVSPropertyOp15
 70
     1
102
RTVSPropertyOp16
 70
     1
102
RTVSPropertyOp17
 70
     1
102
RTVSPropertyOp18
 70
     1
102
RTVSPropertyOp19
 70
     1
102
RTVSPropertyOp20
 70
     1
102
RTVSPropertyOp21
 70
     1
102
RTVSPropertyOp22
 70
     1
102
RTVSPropertyOp23
 70
     1
102
RTVSPropertyOp24
 70
     1
102
RTVSPropertyOp25
 70
     1
102
RTVSPropertyOp26
 70
     1
102
RTVSPropertyOp27
 70
     1
  0
XRECORD
  5
1492
102
{ACAD_REACTORS
330
1491
102
}
330
1491
100
AcDbXrecord
280
     1
102
RTVSPropertyOp0
 70
     1
102
RTVSPropertyOp1
 70
     1
102
RTVSPropertyOp2
 70
     1
102
RTVSPropertyOp3
 70
     1
102
RTVSPropertyOp4
 70
     1
102
RTVSPropertyOp5
 70
     1
102
RTVSPropertyOp6
 70
     1
102
RTVSPropertyOp7
 70
     1
102
RTVSPropertyOp8
 70
     1
102
RTVSPropertyOp9
 70
     1
102
RTVSPropertyOp10
 70
     1
102
RTVSPropertyOp11
 70
     1
102
RTVSPropertyOp12
 70
     1
102
RTVSPropertyOp13
 70
     1
102
RTVSPropertyOp14
 70
     1
102
RTVSPropertyOp15
 70
     1
102
RTVSPropertyOp16
 70
     1
102
RTVSPropertyOp17
 70
     1
102
RTVSPropertyOp18
 70
     1
102
RTVSPropertyOp19
 70
     1
102
RTVSPropertyOp20
 70
     1
102
RTVSPropertyOp21
 70
     1
102
RTVSPropertyOp22
 70
     1
102
RTVSPropertyOp23
 70
     1
102
RTVSPropertyOp24
 70
     1
102
RTVSPropertyOp25
 70
     1
102
RTVSPropertyOp26
 70
     1
102
RTVSPropertyOp27
 70
     1
  0
XRECORD
  5
1484
102
{ACAD_REACTORS
330
1483
102
}
330
1483
100
AcDbXrecord
280
     1
102
RTVSPropertyOp0
 70
     1
102
RTVSPropertyOp1
 70
     1
102
RTVSPropertyOp2
 70
     1
102
RTVSPropertyOp3
 70
     1
102
RTVSPropertyOp4
 70
     1
102
RTVSPropertyOp5
 70
     1
102
RTVSPropertyOp6
 70
     1
102
RTVSPropertyOp7
 70
     1
102
RTVSPropertyOp8
 70
     1
102
RTVSPropertyOp9
 70
     1
102
RTVSPropertyOp10
 70
     1
102
RTVSPropertyOp11
 70
     1
102
RTVSPropertyOp12
 70
     1
102
RTVSPropertyOp13
 70
     1
102
RTVSPropertyOp14
 70
     1
102
RTVSPropertyOp15
 70
     1
102
RTVSPropertyOp16
 70
     1
102
RTVSPropertyOp17
 70
     1
102
RTVSPropertyOp18
 70
     1
102
RTVSPropertyOp19
 70
     1
102
RTVSPropertyOp20
 70
     1
102
RTVSPropertyOp21
 70
     1
102
RTVSPropertyOp22
 70
     1
102
RTVSPropertyOp23
 70
     1
102
RTVSPropertyOp24
 70
     1
102
RTVSPropertyOp25
 70
     1
102
RTVSPropertyOp26
 70
     1
102
RTVSPropertyOp27
 70
     1
  0
XRECORD
  5
1488
102
{ACAD_REACTORS
330
1487
102
}
330
1487
100
AcDbXrecord
280
     1
102
RTVSPropertyOp0
 70
     1
102
RTVSPropertyOp1
 70
     1
102
RTVSPropertyOp2
 70
     1
102
RTVSPropertyOp3
 70
     1
102
RTVSPropertyOp4
 70
     1
102
RTVSPropertyOp5
 70
     1
102
RTVSPropertyOp6
 70
     1
102
RTVSPropertyOp7
 70
     1
102
RTVSPropertyOp8
 70
     1
102
RTVSPropertyOp9
 70
     1
102
RTVSPropertyOp10
 70
     1
102
RTVSPropertyOp11
 70
     1
102
RTVSPropertyOp12
 70
     1
102
RTVSPropertyOp13
 70
     1
102
RTVSPropertyOp14
 70
     1
102
RTVSPropertyOp15
 70
     1
102
RTVSPropertyOp16
 70
     1
102
RTVSPropertyOp17
 70
     1
102
RTVSPropertyOp18
 70
     1
102
RTVSPropertyOp19
 70
     1
102
RTVSPropertyOp20
 70
     1
102
RTVSPropertyOp21
 70
     1
102
RTVSPropertyOp22
 70
     1
102
RTVSPropertyOp23
 70
     1
102
RTVSPropertyOp24
 70
     1
102
RTVSPropertyOp25
 70
     1
102
RTVSPropertyOp26
 70
     1
102
RTVSPropertyOp27
 70
     1
  0
XRECORD
  5
1498
102
{ACAD_REACTORS
330
1497
102
}
330
1497
100
AcDbXrecord
280
     1
102
RTVSPropertyOp0
 70
     0
102
RTVSPropertyOp1
 70
     0
102
RTVSPropertyOp2
 70
     0
102
RTVSPropertyOp3
 70
     0
102
RTVSPropertyOp4
 70
     0
102
RTVSPropertyOp5
 70
     0
102
RTVSPropertyOp6
 70
     0
102
RTVSPropertyOp7
 70
     0
102
RTVSPropertyOp8
 70
     0
102
RTVSPropertyOp9
 70
     0
102
RTVSPropertyOp10
 70
     0
102
RTVSPropertyOp11
 70
     0
102
RTVSPropertyOp12
 70
     0
102
RTVSPropertyOp13
 70
     0
102
RTVSPropertyOp14
 70
     2
102
RTVSPropertyOp15
 70
     0
102
RTVSPropertyOp16
 70
     0
102
RTVSPropertyOp17
 70
     0
102
RTVSPropertyOp18
 70
     0
102
RTVSPropertyOp19
 70
     0
102
RTVSPropertyOp20
 70
     0
102
RTVSPropertyOp21
 70
     0
102
RTVSPropertyOp22
 70
     0
102
RTVSPropertyOp23
 70
     0
102
RTVSPropertyOp24
 70
     0
102
RTVSPropertyOp25
 70
     0
102
RTVSPropertyOp26
 70
     0
102
RTVSPropertyOp27
 70
     0
  0
XRECORD
  5
1490
102
{ACAD_REACTORS
330
148F
102
}
330
148F
100
AcDbXrecord
280
     1
102
RTVSPropertyOp0
 70
     1
102
RTVSPropertyOp1
 70
     1
102
RTVSPropertyOp2
 70
     1
102
RTVSPropertyOp3
 70
     1
102
RTVSPropertyOp4
 70
     1
102
RTVSPropertyOp5
 70
     1
102
RTVSPropertyOp6
 70
     1
102
RTVSPropertyOp7
 70
     1
102
RTVSPropertyOp8
 70
     1
102
RTVSPropertyOp9
 70
     1
102
RTVSPropertyOp10
 70
     1
102
RTVSPropertyOp11
 70
     1
102
RTVSPropertyOp12
 70
     1
102
RTVSPropertyOp13
 70
     1
102
RTVSPropertyOp14
 70
     1
102
RTVSPropertyOp15
 70
     1
102
RTVSPropertyOp16
 70
     1
102
RTVSPropertyOp17
 70
     1
102
RTVSPropertyOp18
 70
     1
102
RTVSPropertyOp19
 70
     1
102
RTVSPropertyOp20
 70
     1
102
RTVSPropertyOp21
 70
     1
102
RTVSPropertyOp22
 70
     1
102
RTVSPropertyOp23
 70
     1
102
RTVSPropertyOp24
 70
     1
102
RTVSPropertyOp25
 70
     1
102
RTVSPropertyOp26
 70
     1
102
RTVSPropertyOp27
 70
     1
  0
XRECORD
  5
1474
102
{ACAD_REACTORS
330
1473
102
}
330
1473
100
AcDbXrecord
280
     1
102
RTVSPropertyOp0
 70
     1
102
RTVSPropertyOp1
 70
     1
102
RTVSPropertyOp2
 70
     1
102
RTVSPropertyOp3
 70
     1
102
RTVSPropertyOp4
 70
     1
102
RTVSPropertyOp5
 70
     1
102
RTVSPropertyOp6
 70
     1
102
RTVSPropertyOp7
 70
     1
102
RTVSPropertyOp8
 70
     1
102
RTVSPropertyOp9
 70
     1
102
RTVSPropertyOp10
 70
     1
102
RTVSPropertyOp11
 70
     1
102
RTVSPropertyOp12
 70
     1
102
RTVSPropertyOp13
 70
     1
102
RTVSPropertyOp14
 70
     1
102
RTVSPropertyOp15
 70
     1
102
RTVSPropertyOp16
 70
     1
102
RTVSPropertyOp17
 70
     1
102
RTVSPropertyOp18
 70
     1
102
RTVSPropertyOp19
 70
     1
102
RTVSPropertyOp20
 70
     1
102
RTVSPropertyOp21
 70
     1
102
RTVSPropertyOp22
 70
     1
102
RTVSPropertyOp23
 70
     1
102
RTVSPropertyOp24
 70
     1
102
RTVSPropertyOp25
 70
     1
102
RTVSPropertyOp26
 70
     1
102
RTVSPropertyOp27
 70
     1
  0
XRECORD
  5
1476
102
{ACAD_REACTORS
330
1475
102
}
330
1475
100
AcDbXrecord
280
     1
102
RTVSPropertyOp0
 70
     1
102
RTVSPropertyOp1
 70
     1
102
RTVSPropertyOp2
 70
     1
102
RTVSPropertyOp3
 70
     1
102
RTVSPropertyOp4
 70
     1
102
RTVSPropertyOp5
 70
     1
102
RTVSPropertyOp6
 70
     1
102
RTVSPropertyOp7
 70
     1
102
RTVSPropertyOp8
 70
     1
102
RTVSPropertyOp9
 70
     1
102
RTVSPropertyOp10
 70
     1
102
RTVSPropertyOp11
 70
     1
102
RTVSPropertyOp12
 70
     1
102
RTVSPropertyOp13
 70
     1
102
RTVSPropertyOp14
 70
     1
102
RTVSPropertyOp15
 70
     1
102
RTVSPropertyOp16
 70
     1
102
RTVSPropertyOp17
 70
     1
102
RTVSPropertyOp18
 70
     1
102
RTVSPropertyOp19
 70
     1
102
RTVSPropertyOp20
 70
     1
102
RTVSPropertyOp21
 70
     1
102
RTVSPropertyOp22
 70
     1
102
RTVSPropertyOp23
 70
     1
102
RTVSPropertyOp24
 70
     1
102
RTVSPropertyOp25
 70
     1
102
RTVSPropertyOp26
 70
     1
102
RTVSPropertyOp27
 70
     1
  0
XRECORD
  5
1478
102
{ACAD_REACTORS
330
1477
102
}
330
1477
100
AcDbXrecord
280
     1
102
RTVSPropertyOp0
 70
     1
102
RTVSPropertyOp1
 70
     1
102
RTVSPropertyOp2
 70
     1
102
RTVSPropertyOp3
 70
     1
102
RTVSPropertyOp4
 70
     1
102
RTVSPropertyOp5
 70
     1
102
RTVSPropertyOp6
 70
     1
102
RTVSPropertyOp7
 70
     1
102
RTVSPropertyOp8
 70
     1
102
RTVSPropertyOp9
 70
     1
102
RTVSPropertyOp10
 70
     1
102
RTVSPropertyOp11
 70
     1
102
RTVSPropertyOp12
 70
     1
102
RTVSPropertyOp13
 70
     1
102
RTVSPropertyOp14
 70
     1
102
RTVSPropertyOp15
 70
     1
102
RTVSPropertyOp16
 70
     1
102
RTVSPropertyOp17
 70
     1
102
RTVSPropertyOp18
 70
     1
102
RTVSPropertyOp19
 70
     1
102
RTVSPropertyOp20
 70
     1
102
RTVSPropertyOp21
 70
     1
102
RTVSPropertyOp22
 70
     1
102
RTVSPropertyOp23
 70
     1
102
RTVSPropertyOp24
 70
     1
102
RTVSPropertyOp25
 70
     1
102
RTVSPropertyOp26
 70
     1
102
RTVSPropertyOp27
 70
     1
  0
XRECORD
  5
147A
102
{ACAD_REACTORS
330
1479
102
}
330
1479
100
AcDbXrecord
280
     1
102
RTVSPropertyOp0
 70
     1
102
RTVSPropertyOp1
 70
     1
102
RTVSPropertyOp2
 70
     1
102
RTVSPropertyOp3
 70
     1
102
RTVSPropertyOp4
 70
     1
102
RTVSPropertyOp5
 70
     1
102
RTVSPropertyOp6
 70
     1
102
RTVSPropertyOp7
 70
     1
102
RTVSPropertyOp8
 70
     1
102
RTVSPropertyOp9
 70
     1
102
RTVSPropertyOp10
 70
     1
102
RTVSPropertyOp11
 70
     1
102
RTVSPropertyOp12
 70
     1
102
RTVSPropertyOp13
 70
     1
102
RTVSPropertyOp14
 70
     1
102
RTVSPropertyOp15
 70
     1
102
RTVSPropertyOp16
 70
     1
102
RTVSPropertyOp17
 70
     1
102
RTVSPropertyOp18
 70
     1
102
RTVSPropertyOp19
 70
     1
102
RTVSPropertyOp20
 70
     1
102
RTVSPropertyOp21
 70
     1
102
RTVSPropertyOp22
 70
     1
102
RTVSPropertyOp23
 70
     1
102
RTVSPropertyOp24
 70
     1
102
RTVSPropertyOp25
 70
     1
102
RTVSPropertyOp26
 70
     1
102
RTVSPropertyOp27
 70
     1
  0
XRECORD
  5
1494
102
{ACAD_REACTORS
330
1493
102
}
330
1493
100
AcDbXrecord
280
     1
102
RTVSPropertyOp0
 70
     0
102
RTVSPropertyOp1
 70
     0
102
RTVSPropertyOp2
 70
     0
102
RTVSPropertyOp3
 70
     0
102
RTVSPropertyOp4
 70
     0
102
RTVSPropertyOp5
 70
     0
102
RTVSPropertyOp6
 70
     0
102
RTVSPropertyOp7
 70
     0
102
RTVSPropertyOp8
 70
     0
102
RTVSPropertyOp9
 70
     0
102
RTVSPropertyOp10
 70
     0
102
RTVSPropertyOp11
 70
     0
102
RTVSPropertyOp12
 70
     0
102
RTVSPropertyOp13
 70
     0
102
RTVSPropertyOp14
 70
     2
102
RTVSPropertyOp15
 70
     0
102
RTVSPropertyOp16
 70
     0
102
RTVSPropertyOp17
 70
     0
102
RTVSPropertyOp18
 70
     0
102
RTVSPropertyOp19
 70
     0
102
RTVSPropertyOp20
 70
     0
102
RTVSPropertyOp21
 70
     0
102
RTVSPropertyOp22
 70
     0
102
RTVSPropertyOp23
 70
     0
102
RTVSPropertyOp24
 70
     0
102
RTVSPropertyOp25
 70
     0
102
RTVSPropertyOp26
 70
     0
102
RTVSPropertyOp27
 70
     0
  0
XRECORD
  5
148E
102
{ACAD_REACTORS
330
148D
102
}
330
148D
100
AcDbXrecord
280
     1
102
RTVSPropertyOp0
 70
     1
102
RTVSPropertyOp1
 70
     1
102
RTVSPropertyOp2
 70
     1
102
RTVSPropertyOp3
 70
     1
102
RTVSPropertyOp4
 70
     1
102
RTVSPropertyOp5
 70
     1
102
RTVSPropertyOp6
 70
     1
102
RTVSPropertyOp7
 70
     1
102
RTVSPropertyOp8
 70
     1
102
RTVSPropertyOp9
 70
     1
102
RTVSPropertyOp10
 70
     1
102
RTVSPropertyOp11
 70
     1
102
RTVSPropertyOp12
 70
     1
102
RTVSPropertyOp13
 70
     1
102
RTVSPropertyOp14
 70
     1
102
RTVSPropertyOp15
 70
     1
102
RTVSPropertyOp16
 70
     1
102
RTVSPropertyOp17
 70
     1
102
RTVSPropertyOp18
 70
     1
102
RTVSPropertyOp19
 70
     1
102
RTVSPropertyOp20
 70
     1
102
RTVSPropertyOp21
 70
     1
102
RTVSPropertyOp22
 70
     1
102
RTVSPropertyOp23
 70
     1
102
RTVSPropertyOp24
 70
     1
102
RTVSPropertyOp25
 70
     1
102
RTVSPropertyOp26
 70
     1
102
RTVSPropertyOp27
 70
     1
  0
XRECORD
  5
1496
102
{ACAD_REACTORS
330
1495
102
}
330
1495
100
AcDbXrecord
280
     1
102
RTVSPropertyOp0
 70
     0
102
RTVSPropertyOp1
 70
     0
102
RTVSPropertyOp2
 70
     0
102
RTVSPropertyOp3
 70
     0
102
RTVSPropertyOp4
 70
     0
102
RTVSPropertyOp5
 70
     0
102
RTVSPropertyOp6
 70
     0
102
RTVSPropertyOp7
 70
     0
102
RTVSPropertyOp8
 70
     0
102
RTVSPropertyOp9
 70
     0
102
RTVSPropertyOp10
 70
     0
102
RTVSPropertyOp11
 70
     0
102
RTVSPropertyOp12
 70
     0
102
RTVSPropertyOp13
 70
     0
102
RTVSPropertyOp14
 70
     2
102
RTVSPropertyOp15
 70
     0
102
RTVSPropertyOp16
 70
     0
102
RTVSPropertyOp17
 70
     0
102
RTVSPropertyOp18
 70
     0
102
RTVSPropertyOp19
 70
     0
102
RTVSPropertyOp20
 70
     0
102
RTVSPropertyOp21
 70
     0
102
RTVSPropertyOp22
 70
     0
102
RTVSPropertyOp23
 70
     0
102
RTVSPropertyOp24
 70
     0
102
RTVSPropertyOp25
 70
     0
102
RTVSPropertyOp26
 70
     0
102
RTVSPropertyOp27
 70
     0
  0
XRECORD
  5
1486
102
{ACAD_REACTORS
330
1485
102
}
330
1485
100
AcDbXrecord
280
     1
102
RTVSPropertyOp0
 70
     1
102
RTVSPropertyOp1
 70
     1
102
RTVSPropertyOp2
 70
     1
102
RTVSPropertyOp3
 70
     1
102
RTVSPropertyOp4
 70
     1
102
RTVSPropertyOp5
 70
     1
102
RTVSPropertyOp6
 70
     1
102
RTVSPropertyOp7
 70
     1
102
RTVSPropertyOp8
 70
     1
102
RTVSPropertyOp9
 70
     1
102
RTVSPropertyOp10
 70
     1
102
RTVSPropertyOp11
 70
     1
102
RTVSPropertyOp12
 70
     1
102
RTVSPropertyOp13
 70
     1
102
RTVSPropertyOp14
 70
     1
102
RTVSPropertyOp15
 70
     1
102
RTVSPropertyOp16
 70
     1
102
RTVSPropertyOp17
 70
     1
102
RTVSPropertyOp18
 70
     1
102
RTVSPropertyOp19
 70
     1
102
RTVSPropertyOp20
 70
     1
102
RTVSPropertyOp21
 70
     1
102
RTVSPropertyOp22
 70
     1
102
RTVSPropertyOp23
 70
     1
102
RTVSPropertyOp24
 70
     1
102
RTVSPropertyOp25
 70
     1
102
RTVSPropertyOp26
 70
     1
102
RTVSPropertyOp27
 70
     1
  0
XRECORD
  5
148C
102
{ACAD_REACTORS
330
148B
102
}
330
148B
100
AcDbXrecord
280
     1
102
RTVSPropertyOp0
 70
     1
102
RTVSPropertyOp1
 70
     1
102
RTVSPropertyOp2
 70
     1
102
RTVSPropertyOp3
 70
     1
102
RTVSPropertyOp4
 70
     1
102
RTVSPropertyOp5
 70
     1
102
RTVSPropertyOp6
 70
     1
102
RTVSPropertyOp7
 70
     1
102
RTVSPropertyOp8
 70
     1
102
RTVSPropertyOp9
 70
     1
102
RTVSPropertyOp10
 70
     1
102
RTVSPropertyOp11
 70
     1
102
RTVSPropertyOp12
 70
     1
102
RTVSPropertyOp13
 70
     1
102
RTVSPropertyOp14
 70
     1
102
RTVSPropertyOp15
 70
     1
102
RTVSPropertyOp16
 70
     1
102
RTVSPropertyOp17
 70
     1
102
RTVSPropertyOp18
 70
     1
102
RTVSPropertyOp19
 70
     1
102
RTVSPropertyOp20
 70
     1
102
RTVSPropertyOp21
 70
     1
102
RTVSPropertyOp22
 70
     1
102
RTVSPropertyOp23
 70
     1
102
RTVSPropertyOp24
 70
     1
102
RTVSPropertyOp25
 70
     1
102
RTVSPropertyOp26
 70
     1
102
RTVSPropertyOp27
 70
     1
  0
ENDSEC
  0
EOF
