  0
SECTION
  2
HEADER
  9
$ACADVER
  1
AC1015
  9
$ACADMAINTVER
 70
    20
  9
$DWGCODEPAGE
  3
ANSI_1252
  9
$INSBASE
 10
0.0
 20
0.0
 30
0.0
  9
$EXTMIN
 10
58.77456948755714
 20
1015.728840804145
 30
0.0
  9
$EXTMAX
 10
61.84749196086324
 20
1016.178840804145
 30
0.0
  9
$LIMMIN
 10
0.0
 20
0.0
  9
$LIMMAX
 10
420.0
 20
297.0
  9
$ORTHOMODE
 70
     1
  9
$REGENMODE
 70
     1
  9
$FILLMODE
 70
     1
  9
$QTEXTMODE
 70
     0
  9
$MIRRTEXT
 70
     1
  9
$LTSCALE
 40
1.0
  9
$ATTMODE
 70
     1
  9
$TEXTSIZE
 40
2.5
  9
$TRACEWID
 40
1.0
  9
$TEXTSTYLE
  7
SANINDUSA
  9
$CLAYER
  8
0
  9
$CELTYPE
  6
ByLayer
  9
$CECOLOR
 62
   256
  9
$CELTSCALE
 40
1.0
  9
$DISPSILH
 70
     0
  9
$DIMSCALE
 40
1.0
  9
$DIMASZ
 40
2.0
  9
$DIMEXO
 40
1.0
  9
$DIMDLI
 40
1.0
  9
$DIMRND
 40
0.0
  9
$DIMDLE
 40
0.0
  9
$DIMEXE
 40
1.0
  9
$DIMTP
 40
0.0
  9
$DIMTM
 40
0.0
  9
$DIMTXT
 40
2.0
  9
$DIMCEN
 40
0.0
  9
$DIMTSZ
 40
0.0
  9
$DIMTOL
 70
     0
  9
$DIMLIM
 70
     0
  9
$DIMTIH
 70
     0
  9
$DIMTOH
 70
     0
  9
$DIMSE1
 70
     0
  9
$DIMSE2
 70
     0
  9
$DIMTAD
 70
     1
  9
$DIMZIN
 70
     8
  9
$DIMBLK
  1

  9
$DIMASO
 70
     1
  9
$DIMSHO
 70
     1
  9
$DIMPOST
  1

  9
$DIMAPOST
  1

  9
$DIMALT
 70
     0
  9
$DIMALTD
 70
     3
  9
$DIMALTF
 40
0.03937007874016
  9
$DIMLFAC
 40
1.0
  9
$DIMTOFL
 70
     1
  9
$DIMTVP
 40
0.0
  9
$DIMTIX
 70
     0
  9
$DIMSOXD
 70
     0
  9
$DIMSAH
 70
     0
  9
$DIMBLK1
  1

  9
$DIMBLK2
  1

  9
$DIMSTYLE
  2
SANINDUSA
  9
$DIMCLRD
 70
   256
  9
$DIMCLRE
 70
   256
  9
$DIMCLRT
 70
   256
  9
$DIMTFAC
 40
1.0
  9
$DIMGAP
 40
1.0
  9
$DIMJUST
 70
     0
  9
$DIMSD1
 70
     0
  9
$DIMSD2
 70
     0
  9
$DIMTOLJ
 70
     0
  9
$DIMTZIN
 70
     8
  9
$DIMALTZ
 70
     0
  9
$DIMALTTZ
 70
     0
  9
$DIMUPT
 70
     0
  9
$DIMDEC
 70
     1
  9
$DIMTDEC
 70
     1
  9
$DIMALTU
 70
     2
  9
$DIMALTTD
 70
     3
  9
$DIMTXSTY
  7
SANINDUSA
  9
$DIMAUNIT
 70
     0
  9
$DIMADEC
 70
     1
  9
$DIMALTRND
 40
0.0
  9
$DIMAZIN
 70
     0
  9
$DIMDSEP
 70
    44
  9
$DIMATFIT
 70
     3
  9
$DIMFRAC
 70
     0
  9
$DIMLDRBLK
  1

  9
$DIMLUNIT
 70
     2
  9
$DIMLWD
 70
    -1
  9
$DIMLWE
 70
    -1
  9
$DIMTMOVE
 70
     0
  9
$LUNITS
 70
     2
  9
$LUPREC
 70
     4
  9
$SKETCHINC
 40
1.0
  9
$FILLETRAD
 40
0.0
  9
$AUNITS
 70
     0
  9
$AUPREC
 70
     0
  9
$MENU
  1
.
  9
$ELEVATION
 40
0.0
  9
$PELEVATION
 40
0.0
  9
$THICKNESS
 40
0.0
  9
$LIMCHECK
 70
     0
  9
$CHAMFERA
 40
10.0
  9
$CHAMFERB
 40
10.0
  9
$CHAMFERC
 40
20.0
  9
$CHAMFERD
 40
0.0
  9
$SKPOLY
 70
     0
  9
$TDCREATE
 40
2453497.712232882
  9
$TDUCREATE
 40
2453497.670566215
  9
$TDUPDATE
 40
2456146.483160255
  9
$TDUUPDATE
 40
2456146.441493588
  9
$TDINDWG
 40
0.0018261806
  9
$TDUSRTIMER
 40
0.0018261806
  9
$USRTIMER
 70
     1
  9
$ANGBASE
 50
0.0
  9
$ANGDIR
 70
     0
  9
$PDMODE
 70
     0
  9
$PDSIZE
 40
0.0
  9
$PLINEWID
 40
0.0
  9
$SPLFRAME
 70
     0
  9
$SPLINETYPE
 70
     6
  9
$SPLINESEGS
 70
     8
  9
$HANDSEED
  5
1988
  9
$SURFTAB1
 70
     6
  9
$SURFTAB2
 70
     6
  9
$SURFTYPE
 70
     6
  9
$SURFU
 70
     6
  9
$SURFV
 70
     6
  9
$UCSBASE
  2

  9
$UCSNAME
  2

  9
$UCSORG
 10
0.0
 20
0.0
 30
0.0
  9
$UCSXDIR
 10
1.0
 20
0.0
 30
0.0
  9
$UCSYDIR
 10
0.0
 20
1.0
 30
0.0
  9
$UCSORTHOREF
  2

  9
$UCSORTHOVIEW
 70
     0
  9
$UCSORGTOP
 10
0.0
 20
0.0
 30
0.0
  9
$UCSORGBOTTOM
 10
0.0
 20
0.0
 30
0.0
  9
$UCSORGLEFT
 10
0.0
 20
0.0
 30
0.0
  9
$UCSORGRIGHT
 10
0.0
 20
0.0
 30
0.0
  9
$UCSORGFRONT
 10
0.0
 20
0.0
 30
0.0
  9
$UCSORGBACK
 10
0.0
 20
0.0
 30
0.0
  9
$PUCSBASE
  2

  9
$PUCSNAME
  2

  9
$PUCSORG
 10
0.0
 20
0.0
 30
0.0
  9
$PUCSXDIR
 10
1.0
 20
0.0
 30
0.0
  9
$PUCSYDIR
 10
0.0
 20
1.0
 30
0.0
  9
$PUCSORTHOREF
  2

  9
$PUCSORTHOVIEW
 70
     0
  9
$PUCSORGTOP
 10
0.0
 20
0.0
 30
0.0
  9
$PUCSORGBOTTOM
 10
0.0
 20
0.0
 30
0.0
  9
$PUCSORGLEFT
 10
0.0
 20
0.0
 30
0.0
  9
$PUCSORGRIGHT
 10
0.0
 20
0.0
 30
0.0
  9
$PUCSORGFRONT
 10
0.0
 20
0.0
 30
0.0
  9
$PUCSORGBACK
 10
0.0
 20
0.0
 30
0.0
  9
$USERI1
 70
     0
  9
$USERI2
 70
     0
  9
$USERI3
 70
     0
  9
$USERI4
 70
     0
  9
$USERI5
 70
     0
  9
$USERR1
 40
0.0
  9
$USERR2
 40
0.0
  9
$USERR3
 40
0.0
  9
$USERR4
 40
0.0
  9
$USERR5
 40
0.0
  9
$WORLDVIEW
 70
     1
  9
$SHADEDGE
 70
     3
  9
$SHADEDIF
 70
    70
  9
$TILEMODE
 70
     1
  9
$MAXACTVP
 70
    64
  9
$PINSBASE
 10
0.0
 20
0.0
 30
0.0
  9
$PLIMCHECK
 70
     0
  9
$PEXTMIN
 10
1.000000000000000E+20
 20
1.000000000000000E+20
 30
1.000000000000000E+20
  9
$PEXTMAX
 10
-1.000000000000000E+20
 20
-1.000000000000000E+20
 30
-1.000000000000000E+20
  9
$PLIMMIN
 10
0.0
 20
0.0
  9
$PLIMMAX
 10
420.0
 20
297.0
  9
$UNITMODE
 70
     0
  9
$VISRETAIN
 70
     1
  9
$PLINEGEN
 70
     0
  9
$PSLTSCALE
 70
     1
  9
$TREEDEPTH
 70
  3020
  9
$CMLSTYLE
  2
Standard
  9
$CMLJUST
 70
     0
  9
$CMLSCALE
 40
20.0
  9
$PROXYGRAPHICS
 70
     1
  9
$MEASUREMENT
 70
     1
  9
$CELWEIGHT
370
    -1
  9
$ENDCAPS
280
     0
  9
$JOINSTYLE
280
     0
  9
$LWDISPLAY
290
     0
  9
$INSUNITS
 70
     4
  9
$HYPERLINKBASE
  1

  9
$STYLESHEET
  1
monochrome.ctb
  9
$XEDIT
290
     1
  9
$CEPSNTYPE
380
     0
  9
$PSTYLEMODE
290
     1
  9
$FINGERPRINTGUID
  2
{B98A73AA-52AA-4C10-B469-C0E7150AC31F}
  9
$VERSIONGUID
  2
{F5C33015-6560-4462-9195-99780FA77F98}
  9
$EXTNAMES
290
     1
  9
$PSVPSCALE
 40
0.0
  9
$OLESTARTUP
290
     0
  0
ENDSEC
  0
SECTION
  2
CLASSES
  0
CLASS
  1
ACDBDICTIONARYWDFLT
  2
AcDbDictionaryWithDefault
  3
ObjectDBX Classes
 90
        0
280
     0
281
     0
  0
CLASS
  1
ACDBPLACEHOLDER
  2
AcDbPlaceHolder
  3
ObjectDBX Classes
 90
        0
280
     0
281
     0
  0
CLASS
  1
LAYOUT
  2
AcDbLayout
  3
ObjectDBX Classes
 90
        0
280
     0
281
     0
  0
CLASS
  1
DICTIONARYVAR
  2
AcDbDictionaryVar
  3
ObjectDBX Classes
 90
        0
280
     0
281
     0
  0
CLASS
  1
DIMASSOC
  2
AcDbDimAssoc
  3
"AcDbDimAssoc|Product Desc:     AcDim ARX App For Dimension|Company:          Autodesk, Inc.|WEB Address:      www.autodesk.com"
 90
    32768
280
     0
281
     0
  0
CLASS
  1
MATERIAL
  2
AcDbMaterial
  3
ObjectDBX Classes
 90
     1153
280
     0
281
     0
  0
CLASS
  1
VISUALSTYLE
  2
AcDbVisualStyle
  3
ObjectDBX Classes
 90
     4095
280
     0
281
     0
  0
CLASS
  1
TABLESTYLE
  2
AcDbTableStyle
  3
ObjectDBX Classes
 90
     4095
280
     0
281
     0
  0
CLASS
  1
SCALE
  2
AcDbScale
  3
ObjectDBX Classes
 90
     1153
280
     0
281
     0
  0
CLASS
  1
MLEADERSTYLE
  2
AcDbMLeaderStyle
  3
ACDB_MLEADERSTYLE_CLASS
 90
     4095
280
     0
281
     0
  0
CLASS
  1
CELLSTYLEMAP
  2
AcDbCellStyleMap
  3
ObjectDBX Classes
 90
     1152
280
     0
281
     0
  0
ENDSEC
  0
SECTION
  2
TABLES
  0
TABLE
  2
VPORT
  5
8
330
0
100
AcDbSymbolTable
 70
     1
  0
VPORT
  5
18C8
330
8
100
AcDbSymbolTableRecord
100
AcDbViewportTableRecord
  2
*Active
 70
     0
 10
0.0
 20
0.0
 11
1.0
 21
1.0
 12
60.40104532943379
 22
1015.92533646421
 13
0.0
 23
0.0
 14
10.0
 24
10.0
 15
10.0
 25
10.0
 16
0.0
 26
0.0
 36
1.0
 17
0.0
 27
0.0
 37
0.0
 40
2.732419589879562
 41
1.645464025026068
 42
50.0
 43
0.0
 44
0.0
 50
0.0
 51
0.0
 71
     0
 72
   100
 73
     1
 74
     2
 75
     0
 76
     0
 77
     0
 78
     0
281
     0
 65
     1
110
0.0
120
0.0
130
0.0
111
1.0
121
0.0
131
0.0
112
0.0
122
1.0
132
0.0
 79
     0
146
0.0
  0
ENDTAB
  0
TABLE
  2
LTYPE
  5
5
330
0
100
AcDbSymbolTable
 70
     3
  0
LTYPE
  5
14
330
5
100
AcDbSymbolTableRecord
100
AcDbLinetypeTableRecord
  2
ByBlock
 70
     0
  3

 72
    65
 73
     0
 40
0.0
  0
LTYPE
  5
15
330
5
100
AcDbSymbolTableRecord
100
AcDbLinetypeTableRecord
  2
ByLayer
 70
     0
  3

 72
    65
 73
     0
 40
0.0
  0
LTYPE
  5
16
330
5
100
AcDbSymbolTableRecord
100
AcDbLinetypeTableRecord
  2
Continuous
 70
     0
  3
Solid line
 72
    65
 73
     0
 40
0.0
  0
LTYPE
  5
2D
330
5
100
AcDbSymbolTableRecord
100
AcDbLinetypeTableRecord
  2
DASHDOT
 70
     0
  3
Dash dot __ . __ . __ . __ . __ . __ . __ . __
 72
    65
 73
     4
 40
25.4
 49
12.7
 74
     0
 49
-6.349999999999999
 74
     0
 49
0.0
 74
     0
 49
-6.349999999999999
 74
     0
  0
LTYPE
  5
2E
330
5
100
AcDbSymbolTableRecord
100
AcDbLinetypeTableRecord
  2
HIDDEN
 70
     0
  3
Hidden __ __ __ __ __ __ __ __ __ __ __ __ __ _
 72
    65
 73
     2
 40
9.524999999999998
 49
6.349999999999999
 74
     0
 49
-3.174999999999999
 74
     0
  0
ENDTAB
  0
TABLE
  2
LAYER
  5
2
330
0
100
AcDbSymbolTable
 70
    16
  0
LAYER
  5
10
102
{ACAD_XDICTIONARY
360
1913
102
}
330
2
100
AcDbSymbolTableRecord
100
AcDbLayerTableRecord
  2
0
 70
     0
 62
     7
  6
Continuous
370
    -3
390
F
  0
LAYER
  5
2F
102
{ACAD_XDICTIONARY
360
1915
102
}
330
2
100
AcDbSymbolTableRecord
100
AcDbLayerTableRecord
  2
1
 70
     0
 62
     1
  6
Continuous
370
    -3
390
F
  0
LAYER
  5
30
102
{ACAD_XDICTIONARY
360
1917
102
}
330
2
100
AcDbSymbolTableRecord
100
AcDbLayerTableRecord
  2
2
 70
     0
 62
     2
  6
Continuous
370
    -3
390
F
  0
LAYER
  5
31
102
{ACAD_XDICTIONARY
360
1919
102
}
330
2
100
AcDbSymbolTableRecord
100
AcDbLayerTableRecord
  2
3
 70
     0
 62
     3
  6
Continuous
370
    -3
390
F
  0
LAYER
  5
32
102
{ACAD_XDICTIONARY
360
191B
102
}
330
2
100
AcDbSymbolTableRecord
100
AcDbLayerTableRecord
  2
4
 70
     0
 62
     4
  6
Continuous
370
    -3
390
F
  0
LAYER
  5
33
102
{ACAD_XDICTIONARY
360
191D
102
}
330
2
100
AcDbSymbolTableRecord
100
AcDbLayerTableRecord
  2
5
 70
     0
 62
     5
  6
Continuous
370
    -3
390
F
  0
LAYER
  5
34
102
{ACAD_XDICTIONARY
360
191F
102
}
330
2
100
AcDbSymbolTableRecord
100
AcDbLayerTableRecord
  2
6
 70
     0
 62
     6
  6
Continuous
370
    -3
390
F
  0
LAYER
  5
35
102
{ACAD_XDICTIONARY
360
1921
102
}
330
2
100
AcDbSymbolTableRecord
100
AcDbLayerTableRecord
  2
7
 70
     0
 62
     7
  6
Continuous
370
    -3
390
F
  0
LAYER
  5
36
102
{ACAD_XDICTIONARY
360
1923
102
}
330
2
100
AcDbSymbolTableRecord
100
AcDbLayerTableRecord
  2
cen
 70
     0
 62
     7
  6
DASHDOT
370
    -3
390
F
  0
LAYER
  5
37
102
{ACAD_XDICTIONARY
360
1925
102
}
330
2
100
AcDbSymbolTableRecord
100
AcDbLayerTableRecord
  2
hid
 70
     0
 62
     7
  6
HIDDEN
370
    -3
390
F
  0
LAYER
  5
5D6
102
{ACAD_XDICTIONARY
360
1927
102
}
330
2
100
AcDbSymbolTableRecord
100
AcDbLayerTableRecord
  2
hatch
 70
     0
 62
     9
  6
Continuous
370
    -3
390
F
  0
LAYER
  5
8AF
102
{ACAD_XDICTIONARY
360
1929
102
}
330
2
100
AcDbSymbolTableRecord
100
AcDbLayerTableRecord
  2
9
 70
     0
 62
     9
  6
Continuous
370
    -3
390
F
  0
LAYER
  5
8F8
102
{ACAD_XDICTIONARY
360
192B
102
}
330
2
100
AcDbSymbolTableRecord
100
AcDbLayerTableRecord
  2
leg fin
 70
     0
 62
     9
  6
Continuous
370
    -3
390
F
  0
LAYER
  5
91D
102
{ACAD_XDICTIONARY
360
192D
102
}
330
2
100
AcDbSymbolTableRecord
100
AcDbLayerTableRecord
  2
cotas
 70
     0
 62
     1
  6
Continuous
370
    -3
390
F
  0
LAYER
  5
92F
330
2
100
AcDbSymbolTableRecord
100
AcDbLayerTableRecord
  2
Defpoints
 70
     0
 62
     7
  6
Continuous
290
     0
370
    -3
390
F
  0
LAYER
  5
BA5
102
{ACAD_XDICTIONARY
360
192F
102
}
330
2
100
AcDbSymbolTableRecord
100
AcDbLayerTableRecord
  2
SANINDUSA
 70
     0
 62
     3
  6
Continuous
370
    -3
390
F
  0
ENDTAB
  0
TABLE
  2
STYLE
  5
3
330
0
100
AcDbSymbolTable
 70
     3
  0
STYLE
  5
11
330
3
100
AcDbSymbolTableRecord
100
AcDbTextStyleTableRecord
  2
Standard
 70
     0
 40
0.0
 41
1.0
 50
0.0
 71
     0
 42
2.5
  3
Avgardn.ttf
  4

1001
ACAD
1000
AvantGarde Bk BT
1071
       34
  0
STYLE
  5
2C
330
3
100
AcDbSymbolTableRecord
100
AcDbTextStyleTableRecord
  2

 70
     1
 40
0.0
 41
1.0
 50
0.0
 71
     0
 42
2.5
  3
ltypeshp.shx
  4

  0
STYLE
  5
91F
330
3
100
AcDbSymbolTableRecord
100
AcDbTextStyleTableRecord
  2
SANINDUSA
 70
     0
 40
0.0
 41
1.0
 50
0.0
 71
     0
 42
2.5
  3
verdana.TTF
  4

1001
ACAD
1000
Verdana
1071
       34
  0
ENDTAB
  0
TABLE
  2
VIEW
  5
6
330
0
100
AcDbSymbolTable
 70
     0
  0
ENDTAB
  0
TABLE
  2
UCS
  5
7
330
0
100
AcDbSymbolTable
 70
     0
  0
ENDTAB
  0
TABLE
  2
APPID
  5
9
330
0
100
AcDbSymbolTable
 70
     3
  0
APPID
  5
12
330
9
100
AcDbSymbolTableRecord
100
AcDbRegAppTableRecord
  2
ACAD
 70
     0
  0
APPID
  5
3A
330
9
100
AcDbSymbolTableRecord
100
AcDbRegAppTableRecord
  2
DCO15
 70
     0
  0
APPID
  5
1987
330
9
100
AcDbSymbolTableRecord
100
AcDbRegAppTableRecord
  2
ACAD_MLEADERVER
 70
     0
  0
ENDTAB
  0
TABLE
  2
DIMSTYLE
  5
A
330
0
100
AcDbSymbolTable
 70
     2
100
AcDbDimStyleTable
 71
     1
340
921
  0
DIMSTYLE
105
45
330
A
100
AcDbSymbolTableRecord
100
AcDbDimStyleTableRecord
  2
STANDARD
 70
     0
289
     0
340
11
  0
DIMSTYLE
105
921
330
A
100
AcDbSymbolTableRecord
100
AcDbDimStyleTableRecord
  2
SANINDUSA
 70
     0
 41
2.0
 42
1.0
 43
1.0
 44
1.0
 73
     0
 74
     0
 77
     1
 78
     8
140
2.0
141
0.0
143
0.03937007874016
147
1.0
171
     3
172
     1
176
   256
177
   256
178
   256
179
     1
271
     1
272
     1
274
     3
278
    44
283
     0
284
     8
340
91F
371
    -1
372
    -1
  0
ENDTAB
  0
TABLE
  2
BLOCK_RECORD
  5
1
330
0
100
AcDbSymbolTable
 70
   112
  0
BLOCK_RECORD
  5
1F
330
1
100
AcDbSymbolTableRecord
100
AcDbBlockTableRecord
  2
*Model_Space
340
22
  0
BLOCK_RECORD
  5
1B
330
1
100
AcDbSymbolTableRecord
100
AcDbBlockTableRecord
  2
*Paper_Space
340
1E
  0
BLOCK_RECORD
  5
23
330
1
100
AcDbSymbolTableRecord
100
AcDbBlockTableRecord
  2
*Paper_Space0
340
26
  0
BLOCK_RECORD
  5
919
330
1
100
AcDbSymbolTableRecord
100
AcDbBlockTableRecord
  2
_DotSmall
340
0
  0
BLOCK_RECORD
  5
922
330
1
100
AcDbSymbolTableRecord
100
AcDbBlockTableRecord
  2
base para cotas
340
0
310
2800000020000000200000000100080000000000000400000000000000000000000000000000000000000000000080000080000000808000800000008000800080800000C0C0C000C0DCC000F0CAA6000020400000206000002080000020A0000020C0000020E00000400000004020000040400000406000004080000040A0
310
000040C0000040E00000600000006020000060400000606000006080000060A0000060C0000060E00000800000008020000080400000806000008080000080A0000080C0000080E00000A0000000A0200000A0400000A0600000A0800000A0A00000A0C00000A0E00000C0000000C0200000C0400000C0600000C0800000C0
310
A00000C0C00000C0E00000E0000000E0200000E0400000E0600000E0800000E0A00000E0C00000E0E00040000000400020004000400040006000400080004000A0004000C0004000E00040200000402020004020400040206000402080004020A0004020C0004020E000404000004040200040404000404060004040800040
310
40A0004040C0004040E00040600000406020004060400040606000406080004060A0004060C0004060E00040800000408020004080400040806000408080004080A0004080C0004080E00040A0000040A0200040A0400040A0600040A0800040A0A00040A0C00040A0E00040C0000040C0200040C0400040C0600040C08000
310
40C0A00040C0C00040C0E00040E0000040E0200040E0400040E0600040E0800040E0A00040E0C00040E0E00080000000800020008000400080006000800080008000A0008000C0008000E00080200000802020008020400080206000802080008020A0008020C0008020E00080400000804020008040400080406000804080
310
008040A0008040C0008040E00080600000806020008060400080606000806080008060A0008060C0008060E00080800000808020008080400080806000808080008080A0008080C0008080E00080A0000080A0200080A0400080A0600080A0800080A0A00080A0C00080A0E00080C0000080C0200080C0400080C0600080C0
310
800080C0A00080C0C00080C0E00080E0000080E0200080E0400080E0600080E0800080E0A00080E0C00080E0E000C0000000C0002000C0004000C0006000C0008000C000A000C000C000C000E000C0200000C0202000C0204000C0206000C0208000C020A000C020C000C020E000C0400000C0402000C0404000C0406000C0
310
408000C040A000C040C000C040E000C0600000C0602000C0604000C0606000C0608000C060A000C060C000C060E000C0800000C0802000C0804000C0806000C0808000C080A000C080C000C080E000C0A00000C0A02000C0A04000C0A06000C0A08000C0A0A000C0A0C000C0A0E000C0C00000C0C02000C0C04000C0C06000
310
C0C08000C0C0A000F0FBFF00A4A0A000808080000000FF0000FF000000FFFF00FF000000FF00FF00FFFF0000FFFFFF00A4A4A4A4A4A4A4A4A4A4A4A4A4A4A4A4A4A4A4A4A4A4A4A4A4A4A4A4A4A4A4A4A4A4A4A4A4A4A4A4A4A4A4A4A4A4A4A4A4A4A4A4A4A4A4A4A4A4A4A4A4A4A4A4A4A4A4A4A4A4A4A4A4A4A4A4A4A4A4
310
A4A4A4A4A4A4A4A4A4A4A4A4A4A4A4A4A4A4A4A4A4A4A4A4A4A4A4A4A4A4A4A4A4A4A4A4A4A4A4A4A4A4A4A4A4A4A4A4A4A4A4A4A4A4A4A4A4A4A4A4A4A4A4A4A4A4A4A4A4A4A4A4A4A4A4A4A4A4A4A4A4A4A4A4A4A4A4A4A4A4A4A4A4A4A4A4A4A4A4A4A4A4A4A4A4A4A4A4A4A4A4A4A4A4A4A4A4A4A4A4A4A4A4A4A4A4A4
310
A4A4A4A4A4A4A4A4A4A4A4A4A4A4A4A4A4A4A4A4A4A4A4A4A4A4A4A4A4A4A4A4A4A4A4A4A4A4A4A4A4A4A4A4A4A4A4A4A4A4A4A4A4A4A4A4A4A4A4A4A4A4A4A4A4A4A4A4A4A4A4A4A4A4A4A4A4A4A4A4A4A4A4A4A4A4A4A4A4A4A4A4A4A4A4A4A4A4A4A4A4A4A4A4A4A4A4A4A4A4A4A4A4A4A4A4A4A4A4A4A4A4A4A4A4A4A4
310
A4A4A4A4A4A4A4A4A4A4A4A4A4A4A4A4A4A4A4A4A4A4A4A4A4A4A4A4A4A4A4A4A4A4A4A4A4A4A4A4A4A4A4A4A4A4A4A4A4A4A4A4A4A4A4A4A4A4A4A4A4A4A4A4A4A4A4A4A4A4A4A4A4A4A4A4A4A4A4A4A4A4A4A4A4A4A4A4A4A4A4A4A4A4A4A4A4A4A4A4A4A4A4A4A4A4A4A4A4A4A4A4A4A4A4A4F9F9F9F9F9F9F9F9F9F9F9
310
F9F9F9F9F9F9F9F9F9F9F9F9F9F9F9F9F9F9F9A4A4F9F9F9F9F9F9F9F9F9F9F9F9F9F9F9F9F9F9F9F9F9F9F9F9F9F9F9F9F9F9A4A4F9F9F9F9F9F9F9F9F9F9F9F9F9F9F9F9F9F9F9F9F9F9F9F9F9F9F9F9F9F9A4A4F9A4A4A4A4A4A4A4A4A4A4A4A4A4A4A4A4A4A4A4A4A4A4A4A4A4A4A4A4F9A4A4A4A4A4A4A4A4A4A4A4A4
310
A4A4A4A4A4A4A4A4A4A4A4A4A4A4A4A4A4A4A4A4A4A4A4A4A4A4A4A4A4A4A4A4A4A4A4A4A4A4A4A4A4A4A4A4A4A4A4A4A4A4A4A4A4A4A4A4A4A4A4A4A4A4A4A4A4A4A4A4A4A4A4A4A4A4A4A4A4A4A4A4A4A4A4A4A4A4A4A4A4A4A4A4A4A4A4A4A4A4A4A4A4A4A4A4A4A4A4A4A4A4A4A4A4A4A4A4A4A4A4A4A4A4A4A4A4A4A4
310
A4A4A4A4A4A4A4A4A4A4A4A4A4A4A4A4A4A4A4A4A4A4A4A4A4A4A4A4A4A4A4A4A4A4A4A4A4A4A4A4A4A4A4A4A4A4A4A4A4A4A4A4A4A4A4A4A4A4A4A4A4A4A4A4A4A4A4A4A4A4A4A4A4A4A4A4A4A4A4A4A4A4A4A4A4A4A4A4A4A4A4A4A4A4A4A4A4A4A4A4A4A4A4A4A4A4A4A4A4A4A4A4A4A4A4A4A4A4A4A4A4A4A4A4A4A4A4
310
A4A4A4A4A4A4A4A4A4A4A4A4A4A4A4A4A4A4A4A4A4A4A4A4A4A4A4A4A4A4A4A4A4A4A4A4A4A4A4A4A4A4A4A4A4A4A4A4A4A4A4A4A4A4A4A4A4A4A4A4A4A4A4A4A4A4A4A4A4A4A4A4A4A4A4A4A4A4A4A4A4A4A4A4A4A4A4A4A4A4A4A4A4A4A4A4A4A4A4A4A4A4A4A4A4A4A4A4A4A4A4A4A4A4A4A4A4A4A4A4A4A4A4A4A4A4A4
310
A4A4A4A4A4A4A4A4A4A4A4A4A4A4A4A4A4A4A4A4A4A4A4A4A4A4A4A4A4A4A4A4A4A4A4A4A4A4A4A4A4A4A4A4A4A4A4A4A4A4A4A4A4A4A4A4
1001
ACAD
1000
DesignCenter Data
1002
{
1070
     1
1070
     4
1002
}
  0
BLOCK_RECORD
  5
AA8
330
1
100
AcDbSymbolTableRecord
100
AcDbBlockTableRecord
  2
_CLOSED
340
0
  0
ENDTAB
  0
ENDSEC
  0
SECTION
  2
BLOCKS
  0
BLOCK
  5
20
330
1F
100
AcDbEntity
  8
0
100
AcDbBlockBegin
  2
*Model_Space
 70
     0
 10
0.0
 20
0.0
 30
0.0
  3
*Model_Space
  1

  0
ENDBLK
  5
21
330
1F
100
AcDbEntity
  8
0
100
AcDbBlockEnd
  0
BLOCK
  5
1C
330
1B
100
AcDbEntity
 67
     1
  8
0
100
AcDbBlockBegin
  2
*Paper_Space
 70
     0
 10
0.0
 20
0.0
 30
0.0
  3
*Paper_Space
  1

  0
ENDBLK
  5
1D
330
1B
100
AcDbEntity
 67
     1
  8
0
100
AcDbBlockEnd
  0
BLOCK
  5
24
330
23
100
AcDbEntity
 67
     1
  8
0
100
AcDbBlockBegin
  2
*Paper_Space0
 70
     0
 10
0.0
 20
0.0
 30
0.0
  3
*Paper_Space0
  1

  0
ENDBLK
  5
25
330
23
100
AcDbEntity
 67
     1
  8
0
100
AcDbBlockEnd
  0
BLOCK
  5
91B
330
919
100
AcDbEntity
  8
0
100
AcDbBlockBegin
  2
_DotSmall
 70
     0
 10
0.0
 20
0.0
 30
0.0
  3
_DotSmall
  1

  0
LWPOLYLINE
  5
91A
330
919
100
AcDbEntity
  8
0
  6
ByBlock
 62
     0
100
AcDbPolyline
 90
        2
 70
     1
 43
0.5
 10
-0.0625
 20
0.0
 42
1.0
 10
0.0625
 20
0.0
 42
1.0
  0
ENDBLK
  5
91C
330
919
100
AcDbEntity
  8
0
100
AcDbBlockEnd
  0
BLOCK
  5
92A
330
922
100
AcDbEntity
  8
0
100
AcDbBlockBegin
  2
base para cotas
 70
     0
 10
0.0
 20
0.0
 30
0.0
  3
base para cotas
  1

  0
LINE
  5
B36
330
922
100
AcDbEntity
  8
cotas
100
AcDbLine
 10
0.0
 20
-30.0
 30
0.0
 11
327.1260136525398
 21
-30.0
 31
0.0
  0
LINE
  5
B37
330
922
100
AcDbEntity
  8
cotas
100
AcDbLine
 10
0.0
 20
-25.0
 30
0.0
 11
327.1260136525398
 21
-25.0
 31
0.0
  0
LINE
  5
B38
330
922
100
AcDbEntity
  8
cotas
100
AcDbLine
 10
0.0
 20
-20.0
 30
0.0
 11
327.1260136525398
 21
-20.0
 31
0.0
  0
LINE
  5
B39
330
922
100
AcDbEntity
  8
cotas
100
AcDbLine
 10
0.0
 20
-15.0
 30
0.0
 11
327.1260136525398
 21
-15.0
 31
0.0
  0
LINE
  5
B3A
330
922
100
AcDbEntity
  8
cotas
100
AcDbLine
 10
0.0
 20
-10.0
 30
0.0
 11
327.1260136525398
 21
-10.0
 31
0.0
  0
LINE
  5
B3B
330
922
100
AcDbEntity
  8
cotas
100
AcDbLine
 10
0.0
 20
0.0
 30
0.0
 11
0.0
 21
-30.0
 31
0.0
  0
LINE
  5
B3C
330
922
100
AcDbEntity
  8
cotas
100
AcDbLine
 10
327.1260136525398
 20
-30.0
 30
0.0
 11
327.1260136525398
 21
0.0
 31
0.0
  0
ENDBLK
  5
92B
330
922
100
AcDbEntity
  8
0
100
AcDbBlockEnd
  0
BLOCK
  5
AAD
330
AA8
100
AcDbEntity
  8
0
100
AcDbBlockBegin
  2
_CLOSED
 70
     0
 10
0.0
 20
0.0
 30
0.0
  3
_CLOSED
  1

  0
LINE
  5
AA9
330
AA8
100
AcDbEntity
  8
0
100
AcDbLine
 10
-1.0
 20
0.166667
 30
0.0
 11
0.0
 21
0.0
 31
0.0
  0
LINE
  5
AAA
330
AA8
100
AcDbEntity
  8
0
100
AcDbLine
 10
0.0
 20
0.0
 30
0.0
 11
-1.0
 21
-0.166667
 31
0.0
  0
LINE
  5
AAB
330
AA8
100
AcDbEntity
  8
0
100
AcDbLine
 10
-1.0
 20
0.166667
 30
0.0
 11
-1.0
 21
-0.166667
 31
0.0
  0
LINE
  5
AAC
330
AA8
100
AcDbEntity
  8
0
100
AcDbLine
 10
0.0
 20
0.0
 30
0.0
 11
-1.0
 21
0.0
 31
0.0
  0
ENDBLK
  5
AAE
330
AA8
100
AcDbEntity
  8
0
100
AcDbBlockEnd
  0
ENDSEC
  0
SECTION
  2
ENTITIES
  0
LINE
  5
101F
330
1F
100
AcDbEntity
  8
SANINDUSA
100
AcDbLine
 10
59.44456948755714
 20
1015.748998138045
 30
0.0
 11
58.90456948755714
 21
1015.748998138045
 31
0.0
  0
LINE
  5
1020
330
1F
100
AcDbEntity
  8
SANINDUSA
100
AcDbLine
 10
59.25588239130309
 20
1016.048840804145
 30
0.0
 11
59.25257829830082
 21
1016.048840804145
 31
0.0
  0
LINE
  5
1022
330
1F
100
AcDbEntity
  8
SANINDUSA
100
AcDbLine
 10
60.38423404142714
 20
1016.020283684611
 30
0.0
 11
61.17223404142714
 21
1016.020283684611
 31
0.0
  0
LINE
  5
1024
330
1F
100
AcDbEntity
  8
SANINDUSA
100
AcDbLine
 10
61.17223404142714
 20
1015.940283684611
 30
0.0
 11
60.38423404142712
 21
1015.940283684611
 31
0.0
  0
LINE
  5
1026
330
1F
100
AcDbEntity
  8
SANINDUSA
100
AcDbLine
 10
61.06023404142714
 20
1015.880283684611
 30
0.0
 11
60.49623404142714
 21
1015.880283684611
 31
0.0
  0
LINE
  5
1029
330
1F
100
AcDbEntity
  8
SANINDUSA
100
AcDbLine
 10
58.78056948755714
 20
1016.178840804145
 30
0.0
 11
59.56856948755714
 21
1016.178840804145
 31
0.0
  0
LINE
  5
102A
330
1F
100
AcDbEntity
  8
SANINDUSA
100
AcDbLine
 10
59.56856948755714
 20
1015.728840804145
 30
0.0
 11
58.78056948755714
 21
1015.728840804145
 31
0.0
  0
LINE
  5
102D
330
1F
100
AcDbEntity
  8
SANINDUSA
100
AcDbLine
 10
60.48823404142686
 20
1015.940283684611
 30
0.0
 11
60.48823404142715
 21
1015.895700603664
 31
0.0
  0
LINE
  5
1036
330
1F
100
AcDbEntity
  8
SANINDUSA
100
AcDbLine
 10
58.89456948755714
 20
1016.038840804145
 30
0.0
 11
58.89456948755714
 21
1015.80556668054
 31
0.0
  0
LINE
  5
1037
330
1F
100
AcDbEntity
  8
SANINDUSA
100
AcDbLine
 10
58.77456948755714
 20
1016.172840804145
 30
0.0
 11
58.77456948755714
 21
1015.734840804145
 31
0.0
  0
ARC
  5
1038
330
1F
100
AcDbEntity
  8
SANINDUSA
100
AcDbCircle
 10
59.17456948755714
 20
1015.998840804146
 30
0.0
 40
0.0385078105935837
100
AcDbArc
 50
269.9999999999935
 51
90.00000000000651
  0
ARC
  5
1039
330
1F
100
AcDbEntity
  8
SANINDUSA
100
AcDbCircle
 10
59.17456948755714
 20
1015.998840804146
 30
0.0
 40
0.0385078105935826
100
AcDbArc
 50
89.99999999999349
 51
270.0000000000065
  0
ARC
  5
1040
330
1F
100
AcDbEntity
  8
SANINDUSA
100
AcDbCircle
 10
58.78056948755714
 20
1015.734840804145
 30
0.0
 40
0.0059999999999998
100
AcDbArc
 50
180.0
 51
270.0000000000065
  0
LWPOLYLINE
  5
1044
330
1F
100
AcDbEntity
  8
SANINDUSA
100
AcDbPolyline
 90
        8
 70
   128
 43
0.0
 10
58.89456948755714
 20
1015.80556668054
 10
58.89503007600358
 20
1015.797089393537
 10
58.89615734129359
 20
1015.788545059109
 10
58.89791200433609
 20
1015.778815212684
 10
58.89997148196706
 20
1015.76904021951
 10
58.9022258797134
 20
1015.759061663457
 10
58.90455652784885
 20
1015.749053556096
 10
58.90456948755714
 20
1015.748998138045
  0
ARC
  5
1056
330
1F
100
AcDbEntity
  8
SANINDUSA
100
AcDbCircle
 10
58.78056948755714
 20
1016.172840804145
 30
0.0
 40
0.0060000000000002
100
AcDbArc
 50
89.99999999999349
 51
180.0
  0
LINE
  5
1059
330
1F
100
AcDbEntity
  8
SANINDUSA
100
AcDbLine
 10
59.25257829830082
 20
1016.048840804145
 30
0.0
 11
58.90456948755714
 21
1016.048840804145
 31
0.0
  0
ARC
  5
105C
330
1F
100
AcDbEntity
  8
SANINDUSA
100
AcDbCircle
 10
58.90456948755714
 20
1016.038840804145
 30
0.0
 40
0.01
100
AcDbArc
 50
90.0
 51
180.0
  0
CIRCLE
  5
1063
330
1F
100
AcDbEntity
  8
SANINDUSA
100
AcDbCircle
 10
59.17456948755714
 20
1015.998840804146
 30
0.0
 40
0.0225
  0
CIRCLE
  5
1066
330
1F
100
AcDbEntity
  8
SANINDUSA
100
AcDbCircle
 10
59.17456948755714
 20
1016.103840804145
 30
0.0
 40
0.0149999999999998
  0
ARC
  5
1069
330
1F
100
AcDbEntity
  8
SANINDUSA
100
AcDbCircle
 10
60.49623404142714
 20
1015.888283684611
 30
0.0
 40
0.0080000000000001
100
AcDbArc
 50
180.0
 51
270.0
  0
LINE
  5
106B
330
1F
100
AcDbEntity
  8
SANINDUSA
100
AcDbLine
 10
60.48823404142715
 20
1015.895700603664
 30
0.0
 11
60.48823404142715
 21
1015.888283684611
 31
0.0
  0
ARC
  5
106F
330
1F
100
AcDbEntity
  8
SANINDUSA
100
AcDbCircle
 10
60.73654854897794
 20
1015.875283684611
 30
0.0
 40
0.005
100
AcDbArc
 50
6.934348901272658
 51
90.0
  0
ARC
  5
1070
330
1F
100
AcDbEntity
  8
SANINDUSA
100
AcDbCircle
 10
60.81034829428865
 20
1015.846283684611
 30
0.0
 40
0.0010000000000001
100
AcDbArc
 50
270.0
 51
353.0656510986748
  0
ARC
  5
1071
330
1F
100
AcDbEntity
  8
SANINDUSA
100
AcDbCircle
 10
60.74611978856563
 20
1015.846283684611
 30
0.0
 40
0.0010000000000001
100
AcDbArc
 50
186.9343489013251
 51
270.0
  0
LINE
  5
1076
330
1F
100
AcDbEntity
  8
SANINDUSA
100
AcDbLine
 10
60.81034829428865
 20
1015.845283684611
 30
0.0
 11
60.77823404142715
 21
1015.845283684611
 31
0.0
  0
LINE
  5
1078
330
1F
100
AcDbEntity
  8
SANINDUSA
100
AcDbLine
 10
60.77823404142715
 20
1015.845283684611
 30
0.0
 11
60.74611978856563
 21
1015.845283684611
 31
0.0
  0
LINE
  5
107C
330
1F
100
AcDbEntity
  8
SANINDUSA
100
AcDbLine
 10
60.74151197468459
 20
1015.875887344495
 30
0.0
 11
60.7451271034243
 21
1015.846162952635
 31
0.0
  0
ARC
  5
107D
330
1F
100
AcDbEntity
  8
SANINDUSA
100
AcDbCircle
 10
60.81991953387634
 20
1015.875283684611
 30
0.0
 40
0.005
100
AcDbArc
 50
90.0
 51
173.0656510987273
  0
LINE
  5
107E
330
1F
100
AcDbEntity
  8
SANINDUSA
100
AcDbLine
 10
60.81134097942999
 20
1015.846162952635
 30
0.0
 11
60.8149561081697
 21
1015.875887344495
 31
0.0
  0
LINE
  5
1080
330
1F
100
AcDbEntity
  8
SANINDUSA
100
AcDbLine
 10
60.37823404142714
 20
1016.014283684611
 30
0.0
 11
60.37823404142714
 21
1015.941283684611
 31
0.0
  0
LINE
  5
1083
330
1F
100
AcDbEntity
  8
SANINDUSA
100
AcDbLine
 10
60.38423404142712
 20
1015.940283684611
 30
0.0
 11
60.37923404142715
 21
1015.940283684611
 31
0.0
  0
ARC
  5
1084
330
1F
100
AcDbEntity
  8
SANINDUSA
100
AcDbCircle
 10
60.37923404142715
 20
1015.941283684611
 30
0.0
 40
0.0009999999999999
100
AcDbArc
 50
180.0
 51
270.0
  0
ARC
  5
1087
330
1F
100
AcDbEntity
  8
SANINDUSA
100
AcDbCircle
 10
60.38423404142714
 20
1016.014283684611
 30
0.0
 40
0.0060000000000002
100
AcDbArc
 50
89.99999999999349
 51
180.0
  0
LINE
  5
108F
330
1F
100
AcDbEntity
  8
SANINDUSA
100
AcDbLine
 10
61.06823404142715
 20
1015.940283684611
 30
0.0
 11
61.06823404142715
 21
1015.895700603664
 31
0.0
  0
LINE
  5
1096
330
1F
100
AcDbEntity
  8
SANINDUSA
100
AcDbLine
 10
59.45456948755714
 20
1015.80556668054
 30
0.0
 11
59.45456948755714
 21
1016.038840804145
 31
0.0
  0
LINE
  5
1097
330
1F
100
AcDbEntity
  8
SANINDUSA
100
AcDbLine
 10
59.57456948755714
 20
1016.172840804145
 30
0.0
 11
59.57456948755714
 21
1015.734840804145
 31
0.0
  0
LWPOLYLINE
  5
109A
330
1F
100
AcDbEntity
  8
SANINDUSA
100
AcDbPolyline
 90
        8
 70
   128
 43
0.0
 10
59.44456948755714
 20
1015.748998138045
 10
59.44458244726543
 20
1015.749053556096
 10
59.44687661984789
 20
1015.758903845873
 10
59.44909828183807
 20
1015.768725843635
 10
59.45119609570294
 20
1015.778658789499
 10
59.45298163382069
 20
1015.788545059109
 10
59.45410345442347
 20
1015.797034900741
 10
59.45456948755714
 20
1015.80556668054
  0
ARC
  5
10A0
330
1F
100
AcDbEntity
  8
SANINDUSA
100
AcDbCircle
 10
59.56856948755714
 20
1015.734840804145
 30
0.0
 40
0.0060000000000006
100
AcDbArc
 50
270.0
 51
0.0
  0
LINE
  5
10AB
330
1F
100
AcDbEntity
  8
SANINDUSA
100
AcDbLine
 10
59.44456948755714
 20
1016.118523262511
 30
0.0
 11
59.34459799788438
 21
1016.118523262511
 31
0.0
  0
LINE
  5
10AC
330
1F
100
AcDbEntity
  8
SANINDUSA
100
AcDbLine
 10
59.44456948755714
 20
1016.048840804145
 30
0.0
 11
59.33089694706137
 21
1016.048840804145
 31
0.0
  0
LINE
  5
10AE
330
1F
100
AcDbEntity
  8
SANINDUSA
100
AcDbLine
 10
59.28575313852172
 20
1016.048840804145
 30
0.0
 11
59.28575313852172
 21
1016.058840804145
 31
0.0
  0
LINE
  5
10B1
330
1F
100
AcDbEntity
  8
SANINDUSA
100
AcDbLine
 10
59.32759285405912
 20
1016.048840804145
 30
0.0
 11
59.25588239130309
 21
1016.048840804145
 31
0.0
  0
LINE
  5
10B2
330
1F
100
AcDbEntity
  8
SANINDUSA
100
AcDbLine
 10
59.33089694706137
 20
1016.048840804145
 30
0.0
 11
59.32759285405912
 21
1016.048840804145
 31
0.0
  0
LWPOLYLINE
  5
10B4
330
1F
100
AcDbEntity
  8
SANINDUSA
100
AcDbPolyline
 90
        9
 70
   128
 43
0.0
 10
59.32956826474688
 20
1016.11803019286
 10
59.32551468539494
 20
1016.117677947832
 10
59.32163276081162
 20
1016.117266832881
 10
59.31794835100482
 20
1016.116799586707
 10
59.31448600020891
 20
1016.116279321941
 10
59.31126877337966
 20
1016.115709504401
 10
59.30831810254378
 20
1016.115093930011
 10
59.30565364402624
 20
1016.114436699509
 10
59.30329314750681
 20
1016.113742191133
  0
LINE
  5
10B8
330
1F
100
AcDbEntity
  8
SANINDUSA
100
AcDbLine
 10
59.28575313852172
 20
1016.058840804145
 30
0.0
 11
59.28575313852172
 21
1016.108840804145
 31
0.0
  0
LWPOLYLINE
  5
10BD
330
1F
100
AcDbEntity
  8
SANINDUSA
100
AcDbPolyline
 90
        7
 70
   128
 43
0.0
 10
59.30329314750681
 20
1016.113742191133
 10
59.29613221286
 20
1016.111767132505
 10
59.28891760087495
 20
1016.109735577854
 10
59.28647246413532
 20
1016.109044256993
 10
59.28591566803829
 20
1016.108886774398
 10
59.28579662736499
 20
1016.108853104647
 10
59.28575313852172
 20
1016.108840804145
  0
LWPOLYLINE
  5
10C4
330
1F
100
AcDbEntity
  8
SANINDUSA
100
AcDbPolyline
 90
        4
 70
   128
 43
0.0
 10
59.34459799788438
 20
1016.118523262511
 10
59.33799930282861
 20
1016.118448744539
 10
59.33140060777282
 20
1016.118167592102
 10
59.32956826474688
 20
1016.11803019286
  0
LWPOLYLINE
  5
10C9
330
1F
100
AcDbEntity
  8
SANINDUSA
100
AcDbPolyline
 90
        4
 70
   128
 43
0.0
 10
59.45456948755714
 20
1016.04561204759
 10
59.45446445090519
 20
1016.049916774157
 10
59.45431480990151
 20
1016.054303359803
 10
59.45425194592266
 20
1016.058840804145
  0
ARC
  5
10CC
330
1F
100
AcDbEntity
  8
SANINDUSA
100
AcDbCircle
 10
59.44456948755714
 20
1016.038840804145
 30
0.0
 40
0.01
100
AcDbArc
 50
0.0
 51
90.0
  0
LINE
  5
10CE
330
1F
100
AcDbEntity
  8
SANINDUSA
100
AcDbLine
 10
59.45456948755714
 20
1016.038840804145
 30
0.0
 11
59.45456948755714
 21
1016.04561204759
 31
0.0
  0
LINE
  5
10D1
330
1F
100
AcDbEntity
  8
SANINDUSA
100
AcDbLine
 10
59.45425194592266
 20
1016.058840804145
 30
0.0
 11
59.45425194592266
 21
1016.108840804145
 31
0.0
  0
ARC
  5
10D8
330
1F
100
AcDbEntity
  8
SANINDUSA
100
AcDbCircle
 10
59.44456948755714
 20
1016.108840804145
 30
0.0
 40
0.0096824583655186
100
AcDbArc
 50
0.0
 51
90.0
  0
ARC
  5
10DD
330
1F
100
AcDbEntity
  8
SANINDUSA
100
AcDbCircle
 10
59.56856948755714
 20
1016.172840804145
 30
0.0
 40
0.0060000000000004
100
AcDbArc
 50
0.0
 51
90.00000000011725
  0
ARC
  5
10DF
330
1F
100
AcDbEntity
  8
SANINDUSA
100
AcDbCircle
 10
61.06023404142714
 20
1015.888283684611
 30
0.0
 40
0.0080000000000001
100
AcDbArc
 50
270.0
 51
0.0
  0
LINE
  5
10E2
330
1F
100
AcDbEntity
  8
SANINDUSA
100
AcDbLine
 10
61.06823404142715
 20
1015.895700603664
 30
0.0
 11
61.06823404142715
 21
1015.888283684611
 31
0.0
  0
ARC
  5
10E3
330
1F
100
AcDbEntity
  8
SANINDUSA
100
AcDbCircle
 10
61.06923404142714
 20
1015.939283684611
 30
0.0
 40
0.0009999999999997
100
AcDbArc
 50
90.0
 51
180.0
  0
LINE
  5
10E8
330
1F
100
AcDbEntity
  8
SANINDUSA
100
AcDbLine
 10
61.17823404142715
 20
1016.014283684611
 30
0.0
 11
61.17823404142714
 21
1015.941283684611
 31
0.0
  0
LINE
  5
10EA
330
1F
100
AcDbEntity
  8
SANINDUSA
100
AcDbLine
 10
61.17723404142713
 20
1015.940283684611
 30
0.0
 11
61.17223404142714
 21
1015.940283684611
 31
0.0
  0
ARC
  5
10EC
330
1F
100
AcDbEntity
  8
SANINDUSA
100
AcDbCircle
 10
61.17723404142713
 20
1015.941283684611
 30
0.0
 40
0.0010000000000002
100
AcDbArc
 50
270.0
 51
0.0
  0
ARC
  5
10EE
330
1F
100
AcDbEntity
  8
SANINDUSA
100
AcDbCircle
 10
61.17223404142714
 20
1016.014283684611
 30
0.0
 40
0.0060000000000002
100
AcDbArc
 50
0.0
 51
90.0
  0
LINE
  5
16A1
330
1F
100
AcDbEntity
  8
SANINDUSA
100
AcDbLine
 10
61.67095509897735
 20
1015.897385448816
 30
0.0
 11
61.74324808922129
 21
1015.960039373694
 31
0.0
  0
LINE
  5
16A2
330
1F
100
AcDbEntity
  8
SANINDUSA
100
AcDbLine
 10
61.77494018388999
 20
1016.000738811234
 30
0.0
 11
61.66440579359317
 21
1015.904942339644
 31
0.0
  0
LINE
  5
16A6
330
1F
100
AcDbEntity
  8
SANINDUSA
100
AcDbLine
 10
61.53072071741856
 20
1016.020283684611
 30
0.0
 11
61.77076608446849
 21
1016.020283684611
 31
0.0
  0
LINE
  5
16AD
330
1F
100
AcDbEntity
  8
SANINDUSA
100
AcDbLine
 10
61.62559889886608
 20
1015.846162952635
 30
0.0
 11
61.62928194729314
 21
1015.876445795257
 31
0.0
  0
ARC
  5
16B1
330
1F
100
AcDbEntity
  8
SANINDUSA
100
AcDbCircle
 10
61.51749196086324
 20
1015.870283684611
 30
0.0
 40
0.02
100
AcDbArc
 50
180.0
 51
270.0
  0
ARC
  5
16B2
330
1F
100
AcDbEntity
  8
SANINDUSA
100
AcDbCircle
 10
61.51749196086324
 20
1015.870283684611
 30
0.0
 40
0.01
100
AcDbArc
 50
180.0
 51
270.0
  0
LINE
  5
16B3
330
1F
100
AcDbEntity
  8
SANINDUSA
100
AcDbLine
 10
61.61499196086325
 20
1015.8793722321
 30
0.0
 11
61.61499196086325
 21
1015.846283684611
 31
0.0
  0
LINE
  5
16BA
330
1F
100
AcDbEntity
  8
SANINDUSA
100
AcDbLine
 10
61.51749196086324
 20
1015.860283684611
 30
0.0
 11
61.56899196086324
 21
1015.860283684611
 31
0.0
  0
LINE
  5
16BB
330
1F
100
AcDbEntity
  8
SANINDUSA
100
AcDbLine
 10
61.55799810561664
 20
1015.850283684611
 30
0.0
 11
61.51749196086324
 21
1015.850283684611
 31
0.0
  0
LINE
  5
16BD
330
1F
100
AcDbEntity
  8
SANINDUSA
100
AcDbLine
 10
61.61599196086324
 20
1015.845283684611
 30
0.0
 11
61.56899196086324
 21
1015.845283684611
 31
0.0
  0
ARC
  5
16BE
330
1F
100
AcDbEntity
  8
SANINDUSA
100
AcDbCircle
 10
61.61599196086324
 20
1015.846283684611
 30
0.0
 40
0.0010000000000002
100
AcDbArc
 50
180.0
 51
270.0
  0
ARC
  5
16C7
330
1F
100
AcDbEntity
  8
SANINDUSA
100
AcDbCircle
 10
61.56899196086324
 20
1015.859283684611
 30
0.0
 40
0.0009999999999999
100
AcDbArc
 50
0.0
 51
90.0
  0
ARC
  5
16CA
330
1F
100
AcDbEntity
  8
SANINDUSA
100
AcDbCircle
 10
61.55799810561664
 20
1015.849283684611
 30
0.0
 40
0.0009999999999999
100
AcDbArc
 50
6.93434890126318
 51
90.0
  0
ARC
  5
16CB
330
1F
100
AcDbEntity
  8
SANINDUSA
100
AcDbCircle
 10
61.56037770800173
 20
1015.846283684611
 30
0.0
 40
0.0010000000000001
100
AcDbArc
 50
186.9343489013278
 51
270.0
  0
LINE
  5
16CC
330
1F
100
AcDbEntity
  8
SANINDUSA
100
AcDbLine
 10
61.56037770800173
 20
1015.845283684611
 30
0.0
 11
61.56899196086324
 21
1015.845283684611
 31
0.0
  0
ARC
  5
16CD
330
1F
100
AcDbEntity
  8
SANINDUSA
100
AcDbCircle
 10
61.56899196086324
 20
1015.846283684611
 30
0.0
 40
0.0010000000000001
100
AcDbArc
 50
270.0
 51
0.0
  0
LINE
  5
16CE
330
1F
100
AcDbEntity
  8
SANINDUSA
100
AcDbLine
 10
61.55899079075798
 20
1015.849404416588
 30
0.0
 11
61.5593850228604
 21
1015.846162952635
 31
0.0
  0
LINE
  5
16CF
330
1F
100
AcDbEntity
  8
SANINDUSA
100
AcDbLine
 10
61.56999196086324
 20
1015.846283684611
 30
0.0
 11
61.56999196086324
 21
1015.859283684611
 31
0.0
  0
LINE
  5
16D0
330
1F
100
AcDbEntity
  8
SANINDUSA
100
AcDbLine
 10
61.61599196086324
 20
1015.845283684611
 30
0.0
 11
61.62460621372475
 21
1015.845283684611
 31
0.0
  0
ARC
  5
16D1
330
1F
100
AcDbEntity
  8
SANINDUSA
100
AcDbCircle
 10
61.62460621372475
 20
1015.846283684611
 30
0.0
 40
0.0010000000000001
100
AcDbArc
 50
270.0
 51
353.0656510986722
  0
ARC
  5
16D2
330
1F
100
AcDbEntity
  8
SANINDUSA
100
AcDbCircle
 10
61.44608342689705
 20
1016.005283684611
 30
0.0
 40
0.005
100
AcDbArc
 50
90.0
 51
169.9999999999954
  0
LINE
  5
16D7
330
1F
100
AcDbEntity
  8
SANINDUSA
100
AcDbLine
 10
61.44899196086324
 20
1016.020283684611
 30
0.0
 11
61.40749196086324
 21
1016.020283684611
 31
0.0
  0
LINE
  5
16D8
330
1F
100
AcDbEntity
  8
SANINDUSA
100
AcDbLine
 10
61.49749196086324
 20
1015.900283684611
 30
0.0
 11
61.42774542090338
 21
1015.900283684611
 31
0.0
  0
LINE
  5
16DB
330
1F
100
AcDbEntity
  8
SANINDUSA
100
AcDbLine
 10
61.42263766898508
 20
1015.901110036434
 30
0.0
 11
61.44115938813199
 21
1016.0061519255
 31
0.0
  0
LINE
  5
16E6
330
1F
100
AcDbEntity
  8
SANINDUSA
100
AcDbLine
 10
61.41425523067032
 20
1015.910283684611
 30
0.0
 11
61.43188792874116
 21
1016.010283684611
 31
0.0
  0
LINE
  5
16E7
330
1F
100
AcDbEntity
  8
SANINDUSA
100
AcDbLine
 10
61.40749196086324
 20
1015.910283684611
 30
0.0
 11
61.40749196086324
 21
1016.010283684611
 31
0.0
  0
LINE
  5
16E8
330
1F
100
AcDbEntity
  8
SANINDUSA
100
AcDbLine
 10
61.39749196086324
 20
1016.010283684611
 30
0.0
 11
61.39749196086324
 21
1015.900283684611
 31
0.0
  0
LINE
  5
16E9
330
1F
100
AcDbEntity
  8
SANINDUSA
100
AcDbLine
 10
61.42165286123206
 20
1015.900283684611
 30
0.0
 11
61.39749196086324
 21
1015.900283684611
 31
0.0
  0
LINE
  5
16EA
330
1F
100
AcDbEntity
  8
SANINDUSA
100
AcDbLine
 10
61.42774542090338
 20
1015.900283684611
 30
0.0
 11
61.42165286123206
 21
1015.900283684611
 31
0.0
  0
ARC
  5
16ED
330
1F
100
AcDbEntity
  8
SANINDUSA
100
AcDbCircle
 10
61.42165286123206
 20
1015.901283684611
 30
0.0
 40
0.0010000000000001
100
AcDbArc
 50
270.0
 51
350.0000000000042
  0
LINE
  5
16F0
330
1F
100
AcDbEntity
  8
SANINDUSA
100
AcDbLine
 10
61.40749196086324
 20
1015.910283684611
 30
0.0
 11
61.41425523067032
 21
1015.910283684611
 31
0.0
  0
LINE
  5
16F2
330
1F
100
AcDbEntity
  8
SANINDUSA
100
AcDbLine
 10
61.40749196086324
 20
1016.010283684611
 30
0.0
 11
61.43188792874116
 21
1016.010283684611
 31
0.0
  0
ARC
  5
16F3
330
1F
100
AcDbEntity
  8
SANINDUSA
100
AcDbCircle
 10
61.40749196086324
 20
1016.010283684611
 30
0.0
 40
0.0100000000000003
100
AcDbArc
 50
90.0
 51
180.0
  0
ARC
  5
16FB
330
1F
100
AcDbEntity
  8
SANINDUSA
100
AcDbCircle
 10
61.55474942999617
 20
1015.880283684611
 30
0.0
 40
0.01
100
AcDbArc
 50
48.99999999999955
 51
90.0
  0
LINE
  5
16FC
330
1F
100
AcDbEntity
  8
SANINDUSA
100
AcDbLine
 10
61.55964801989223
 20
1015.876025405381
 30
0.0
 11
61.55503160434569
 21
1015.880038394191
 31
0.0
  0
LINE
  5
1702
330
1F
100
AcDbEntity
  8
SANINDUSA
100
AcDbLine
 10
61.55474942999617
 20
1015.890283684611
 30
0.0
 11
61.6251099612881
 21
1015.890283684611
 31
0.0
  0
LINE
  5
1706
330
1F
100
AcDbEntity
  8
SANINDUSA
100
AcDbLine
 10
61.51749196086324
 20
1015.976783684611
 30
0.0
 11
61.51749196086324
 21
1015.900283684611
 31
0.0
  0
LINE
  5
1707
330
1F
100
AcDbEntity
  8
SANINDUSA
100
AcDbLine
 10
61.52749196086324
 20
1015.900283684611
 30
0.0
 11
61.52749196086324
 21
1015.976783684611
 31
0.0
  0
LINE
  5
1708
330
1F
100
AcDbEntity
  8
SANINDUSA
100
AcDbLine
 10
61.50749196086324
 20
1016.010283684611
 30
0.0
 11
61.50749196086324
 21
1015.870283684611
 31
0.0
  0
LINE
  5
1709
330
1F
100
AcDbEntity
  8
SANINDUSA
100
AcDbLine
 10
61.49749196086324
 20
1015.870283684611
 30
0.0
 11
61.49749196086324
 21
1016.005297671314
 31
0.0
  0
ARC
  5
170B
330
1F
100
AcDbEntity
  8
SANINDUSA
100
AcDbCircle
 10
61.53749196086324
 20
1015.900283684611
 30
0.0
 40
0.0200000000000002
100
AcDbArc
 50
180.0
 51
270.0
  0
ARC
  5
170C
330
1F
100
AcDbEntity
  8
SANINDUSA
100
AcDbCircle
 10
61.53749196086324
 20
1015.900283684611
 30
0.0
 40
0.0100000000000002
100
AcDbArc
 50
180.0
 51
270.0
  0
LINE
  5
170E
330
1F
100
AcDbEntity
  8
SANINDUSA
100
AcDbLine
 10
61.53749196086324
 20
1015.880283684611
 30
0.0
 11
61.55437554531669
 21
1015.880283684611
 31
0.0
  0
LINE
  5
170F
330
1F
100
AcDbEntity
  8
SANINDUSA
100
AcDbLine
 10
61.55474942999617
 20
1015.890283684611
 30
0.0
 11
61.53749196086324
 21
1015.890283684611
 31
0.0
  0
ARC
  5
1710
330
1F
100
AcDbEntity
  8
SANINDUSA
100
AcDbCircle
 10
61.55437554531669
 20
1015.879283684611
 30
0.0
 40
0.001
100
AcDbArc
 50
48.99999999999955
 51
90.0
  0
LINE
  5
1712
330
1F
100
AcDbEntity
  8
SANINDUSA
100
AcDbLine
 10
61.51749196086324
 20
1016.020283684611
 30
0.0
 11
61.48599196086323
 21
1016.020283684611
 31
0.0
  0
LINE
  5
1717
330
1F
100
AcDbEntity
  8
SANINDUSA
100
AcDbLine
 10
61.48582529419657
 20
1016.010297671314
 30
0.0
 11
61.44899196086324
 21
1016.010283684611
 31
0.0
  0
LINE
  5
1719
330
1F
100
AcDbEntity
  8
SANINDUSA
100
AcDbLine
 10
61.44899196086324
 20
1016.020283684611
 30
0.0
 11
61.48599196086323
 21
1016.020283684611
 31
0.0
  0
ARC
  5
171B
330
1F
100
AcDbEntity
  8
SANINDUSA
100
AcDbCircle
 10
61.44899196086324
 20
1016.011283684611
 30
0.0
 40
0.0010000000000002
100
AcDbArc
 50
270.0
 51
0.0
  0
LINE
  5
1720
330
1F
100
AcDbEntity
  8
SANINDUSA
100
AcDbLine
 10
61.44608342689705
 20
1016.010283684611
 30
0.0
 11
61.44899196086324
 21
1016.010283684611
 31
0.0
  0
LINE
  5
1721
330
1F
100
AcDbEntity
  8
SANINDUSA
100
AcDbLine
 10
61.44999196086324
 20
1016.011283684611
 30
0.0
 11
61.44999196086324
 21
1016.019283684611
 31
0.0
  0
ARC
  5
1722
330
1F
100
AcDbEntity
  8
SANINDUSA
100
AcDbCircle
 10
61.44899196086324
 20
1016.019283684611
 30
0.0
 40
0.0010000000000002
100
AcDbArc
 50
0.0
 51
90.0
  0
ARC
  5
1723
330
1F
100
AcDbEntity
  8
SANINDUSA
100
AcDbCircle
 10
61.48599196086323
 20
1016.011283684611
 30
0.0
 40
0.0010000000000001
100
AcDbArc
 50
180.0
 51
260.4059317731352
  0
LINE
  5
1724
330
1F
100
AcDbEntity
  8
SANINDUSA
100
AcDbLine
 10
61.48499196086324
 20
1016.019283684611
 30
0.0
 11
61.48499196086324
 21
1016.011283684611
 31
0.0
  0
ARC
  5
1725
330
1F
100
AcDbEntity
  8
SANINDUSA
100
AcDbCircle
 10
61.48599196086323
 20
1016.019283684611
 30
0.0
 40
0.0009999999999999
100
AcDbArc
 50
90.0
 51
180.0
  0
LINE
  5
1726
330
1F
100
AcDbEntity
  8
SANINDUSA
100
AcDbLine
 10
61.48582529419657
 20
1016.010297671314
 30
0.0
 11
61.49249196086324
 21
1016.010297671314
 31
0.0
  0
ARC
  5
1727
330
1F
100
AcDbEntity
  8
SANINDUSA
100
AcDbCircle
 10
61.49249196086324
 20
1016.005297671314
 30
0.0
 40
0.005
100
AcDbArc
 50
0.0
 51
90.0
  0
LINE
  5
1728
330
1F
100
AcDbEntity
  8
SANINDUSA
100
AcDbLine
 10
61.51749196086324
 20
1015.976783684611
 30
0.0
 11
61.51749196086324
 21
1016.003783684611
 31
0.0
  0
LINE
  5
172A
330
1F
100
AcDbEntity
  8
SANINDUSA
100
AcDbLine
 10
61.52749196086324
 20
1016.003783684611
 30
0.0
 11
61.52749196086324
 21
1015.976783684611
 31
0.0
  0
LINE
  5
172C
330
1F
100
AcDbEntity
  8
SANINDUSA
100
AcDbLine
 10
61.52649196086324
 20
1015.977783684611
 30
0.0
 11
61.51849196086324
 21
1015.977783684611
 31
0.0
  0
ARC
  5
172D
330
1F
100
AcDbEntity
  8
SANINDUSA
100
AcDbCircle
 10
61.51849196086324
 20
1015.976783684611
 30
0.0
 40
0.0010000000000002
100
AcDbArc
 50
90.0
 51
180.0
  0
ARC
  5
172E
330
1F
100
AcDbEntity
  8
SANINDUSA
100
AcDbCircle
 10
61.52649196086324
 20
1015.976783684611
 30
0.0
 40
0.0010000000000001
100
AcDbArc
 50
0.0
 51
90.0
  0
LINE
  5
1731
330
1F
100
AcDbEntity
  8
SANINDUSA
100
AcDbLine
 10
61.51749196086324
 20
1016.020283684611
 30
0.0
 11
61.53072071741856
 21
1016.020283684611
 31
0.0
  0
ARC
  5
1733
330
1F
100
AcDbEntity
  8
SANINDUSA
100
AcDbCircle
 10
61.51749196086324
 20
1016.010283684611
 30
0.0
 40
0.01
100
AcDbArc
 50
0.0
 51
90.0
  0
LINE
  5
1734
330
1F
100
AcDbEntity
  8
SANINDUSA
100
AcDbLine
 10
61.51849196086324
 20
1016.002783684611
 30
0.0
 11
61.52649196086324
 21
1016.002783684611
 31
0.0
  0
LINE
  5
1735
330
1F
100
AcDbEntity
  8
SANINDUSA
100
AcDbLine
 10
61.50749196086324
 20
1016.010283684611
 30
0.0
 11
61.51749196086324
 21
1016.010283684611
 31
0.0
  0
LINE
  5
1736
330
1F
100
AcDbEntity
  8
SANINDUSA
100
AcDbLine
 10
61.51749196086324
 20
1016.010283684611
 30
0.0
 11
61.51749196086324
 21
1016.003783684611
 31
0.0
  0
ARC
  5
1737
330
1F
100
AcDbEntity
  8
SANINDUSA
100
AcDbCircle
 10
61.51849196086324
 20
1016.003783684611
 30
0.0
 40
0.0010000000000002
100
AcDbArc
 50
180.0
 51
270.0
  0
ARC
  5
1738
330
1F
100
AcDbEntity
  8
SANINDUSA
100
AcDbCircle
 10
61.52649196086324
 20
1016.003783684611
 30
0.0
 40
0.0010000000000001
100
AcDbArc
 50
270.0
 51
0.0
  0
LINE
  5
1739
330
1F
100
AcDbEntity
  8
SANINDUSA
100
AcDbLine
 10
61.52749196086324
 20
1016.003783684611
 30
0.0
 11
61.52749196086324
 21
1016.010283684611
 31
0.0
  0
ARC
  5
1740
330
1F
100
AcDbEntity
  8
SANINDUSA
100
AcDbCircle
 10
61.61699196086324
 20
1015.8793722321
 30
0.0
 40
0.002
100
AcDbArc
 50
131.0000000000004
 51
180.0
  0
LINE
  5
1748
330
1F
100
AcDbEntity
  8
SANINDUSA
100
AcDbLine
 10
61.56899196086324
 20
1015.872202716819
 30
0.0
 11
61.55999196086324
 21
1015.872202716819
 31
0.0
  0
LINE
  5
174D
330
1F
100
AcDbEntity
  8
SANINDUSA
100
AcDbLine
 10
61.55999196086324
 20
1015.872202716819
 30
0.0
 11
61.55999196086324
 21
1015.8752706958
 31
0.0
  0
LINE
  5
174F
330
1F
100
AcDbEntity
  8
SANINDUSA
100
AcDbLine
 10
61.56999196086324
 20
1015.8793722321
 30
0.0
 11
61.56999196086324
 21
1015.87320271682
 31
0.0
  0
ARC
  5
1750
330
1F
100
AcDbEntity
  8
SANINDUSA
100
AcDbCircle
 10
61.56899196086324
 20
1015.87320271682
 30
0.0
 40
0.001
100
AcDbArc
 50
270.0
 51
359.9999999999968
  0
ARC
  5
1752
330
1F
100
AcDbEntity
  8
SANINDUSA
100
AcDbCircle
 10
61.56799196086324
 20
1015.8793722321
 30
0.0
 40
0.002
100
AcDbArc
 50
359.9999999999968
 51
48.99999999999955
  0
LINE
  5
1753
330
1F
100
AcDbEntity
  8
SANINDUSA
100
AcDbLine
 10
61.56930407892122
 20
1015.880881651261
 30
0.0
 11
61.56131002028608
 21
1015.887830780414
 31
0.0
  0
ARC
  5
1754
330
1F
100
AcDbEntity
  8
SANINDUSA
100
AcDbCircle
 10
61.55899196086323
 20
1015.8752706958
 30
0.0
 40
0.001
100
AcDbArc
 50
0.0
 51
48.99999999999955
  0
ARC
  5
1756
330
1F
100
AcDbEntity
  8
SANINDUSA
100
AcDbCircle
 10
61.6251099612881
 20
1015.950283684611
 30
0.0
 40
0.06
100
AcDbArc
 50
274.3923702849203
 51
310.9143832200236
  0
ARC
  5
1758
330
1F
100
AcDbEntity
  8
SANINDUSA
100
AcDbCircle
 10
61.6251099612881
 20
1015.950283684611
 30
0.0
 40
0.0700000000000001
100
AcDbArc
 50
276.9963139795164
 51
310.9143832200236
  0
LINE
  5
1759
330
1F
100
AcDbEntity
  8
SANINDUSA
100
AcDbLine
 10
61.6251099612881
 20
1015.890283684611
 30
0.0
 11
61.62555684065313
 21
1015.890285348811
 31
0.0
  0
LWPOLYLINE
  5
175A
330
1F
100
AcDbEntity
  8
SANINDUSA
100
AcDbPolyline
 90
        4
 70
   128
 43
0.0
 10
61.62555577576058
 20
1015.890285340889
 10
61.62756280896196
 20
1015.890333842758
 10
61.62925897348396
 20
1015.890427309029
 10
61.62984581206518
 20
1015.89047087898
  0
LINE
  5
175D
330
1F
100
AcDbEntity
  8
SANINDUSA
100
AcDbLine
 10
61.61567984280526
 20
1015.880881651261
 30
0.0
 11
61.6239104089367
 21
1015.888036373243
 31
0.0
  0
ARC
  5
175E
330
1F
100
AcDbEntity
  8
SANINDUSA
100
AcDbCircle
 10
61.6304709992266
 20
1015.880489277441
 30
0.0
 40
0.01
100
AcDbArc
 50
94.39237028492028
 51
131.0000000000004
  0
ARC
  5
175F
330
1F
100
AcDbEntity
  8
SANINDUSA
100
AcDbCircle
 10
61.63424537299978
 20
1015.875842135374
 30
0.0
 40
0.005
100
AcDbArc
 50
96.99631397951648
 51
173.0656510987303
  0
LINE
  5
176E
330
1F
100
AcDbEntity
  8
SANINDUSA
100
AcDbLine
 10
61.77076608446849
 20
1016.020283684611
 30
0.0
 11
61.82733462696342
 21
1016.020283684611
 31
0.0
  0
ARC
  5
176F
330
1F
100
AcDbEntity
  8
SANINDUSA
100
AcDbCircle
 10
61.82733462696342
 20
1015.940283684611
 30
0.0
 40
0.0699999999999999
100
AcDbArc
 50
90.0
 51
130.9143832200236
  0
LINE
  5
1772
330
1F
100
AcDbEntity
  8
SANINDUSA
100
AcDbLine
 10
61.75506844797191
 20
1015.970283684611
 30
0.0
 11
61.79633462696342
 21
1015.970283684611
 31
0.0
  0
LINE
  5
1773
330
1F
100
AcDbEntity
  8
SANINDUSA
100
AcDbLine
 10
61.79633462696342
 20
1015.960283684611
 30
0.0
 11
61.74390301975971
 21
1015.960283684611
 31
0.0
  0
LINE
  5
1775
330
1F
100
AcDbEntity
  8
SANINDUSA
100
AcDbLine
 10
61.79633462696342
 20
1015.940283684611
 30
0.0
 11
61.72045306335653
 21
1015.940283684611
 31
0.0
  0
ARC
  5
1777
330
1F
100
AcDbEntity
  8
SANINDUSA
100
AcDbCircle
 10
61.82733462696342
 20
1015.940283684611
 30
0.0
 40
0.0799999999999999
100
AcDbArc
 50
90.0
 51
130.9143832200236
  0
LINE
  5
1778
330
1F
100
AcDbEntity
  8
SANINDUSA
100
AcDbLine
 10
61.75506844797191
 20
1015.970283684611
 30
0.0
 11
61.78148948927417
 21
1015.993181920407
 31
0.0
  0
ARC
  5
1779
330
1F
100
AcDbEntity
  8
SANINDUSA
100
AcDbCircle
 10
61.74390301975971
 20
1015.959283684611
 30
0.0
 40
0.0010000000000001
100
AcDbArc
 50
90.0
 51
130.9143832199901
  0
LINE
  5
177D
330
1F
100
AcDbEntity
  8
SANINDUSA
100
AcDbLine
 10
61.84749196086324
 20
1015.940283684611
 30
0.0
 11
61.84749196086324
 21
1016.010283684611
 31
0.0
  0
LINE
  5
177F
330
1F
100
AcDbEntity
  8
SANINDUSA
100
AcDbLine
 10
61.79733462696342
 20
1015.941283684611
 30
0.0
 11
61.79733462696342
 21
1015.959283684611
 31
0.0
  0
LINE
  5
1786
330
1F
100
AcDbEntity
  8
SANINDUSA
100
AcDbLine
 10
61.79833462696342
 20
1015.940283684611
 30
0.0
 11
61.84749196086324
 21
1015.940283684611
 31
0.0
  0
LINE
  5
1787
330
1F
100
AcDbEntity
  8
SANINDUSA
100
AcDbLine
 10
61.79833462696342
 20
1015.940283684611
 30
0.0
 11
61.79633462696342
 21
1015.940283684611
 31
0.0
  0
ARC
  5
178A
330
1F
100
AcDbEntity
  8
SANINDUSA
100
AcDbCircle
 10
61.79833462696342
 20
1015.941283684611
 30
0.0
 40
0.0009999999999999
100
AcDbArc
 50
180.0
 51
270.0
  0
ARC
  5
178B
330
1F
100
AcDbEntity
  8
SANINDUSA
100
AcDbCircle
 10
61.83749196086324
 20
1016.010283684611
 30
0.0
 40
0.01
100
AcDbArc
 50
0.0
 51
90.0
  0
LINE
  5
178D
330
1F
100
AcDbEntity
  8
SANINDUSA
100
AcDbLine
 10
61.83749196086324
 20
1016.005283684611
 30
0.0
 11
61.83749196086324
 21
1015.950283684611
 31
0.0
  0
LINE
  5
178E
330
1F
100
AcDbEntity
  8
SANINDUSA
100
AcDbLine
 10
61.83749196086324
 20
1015.950283684611
 30
0.0
 11
61.80733462696341
 21
1015.950283684611
 31
0.0
  0
LINE
  5
178F
330
1F
100
AcDbEntity
  8
SANINDUSA
100
AcDbLine
 10
61.80733462696341
 20
1015.959283684611
 30
0.0
 11
61.80733462696341
 21
1015.950283684611
 31
0.0
  0
ARC
  5
1791
330
1F
100
AcDbEntity
  8
SANINDUSA
100
AcDbCircle
 10
61.79633462696342
 20
1015.959283684611
 30
0.0
 40
0.0010000000000002
100
AcDbArc
 50
0.0
 51
90.0
  0
ARC
  5
1793
330
1F
100
AcDbEntity
  8
SANINDUSA
100
AcDbCircle
 10
61.79633462696342
 20
1015.959283684611
 30
0.0
 40
0.0110000000000002
100
AcDbArc
 50
0.0
 51
90.0
  0
ARC
  5
1795
330
1F
100
AcDbEntity
  8
SANINDUSA
100
AcDbCircle
 10
61.83249196086324
 20
1016.005283684611
 30
0.0
 40
0.0050000000000003
100
AcDbArc
 50
0.0
 51
89.99999999998697
  0
LINE
  5
1798
330
1F
100
AcDbEntity
  8
SANINDUSA
100
AcDbLine
 10
61.82733462696342
 20
1016.010283684611
 30
0.0
 11
61.83249196086324
 21
1016.010283684611
 31
0.0
  0
LINE
  5
1799
330
1F
100
AcDbEntity
  8
SANINDUSA
100
AcDbLine
 10
61.83749196086324
 20
1016.020283684611
 30
0.0
 11
61.82733462696342
 21
1016.020283684611
 31
0.0
  0
LINE
  5
18A7
330
1F
100
AcDbEntity
  8
SANINDUSA
100
AcDbLine
 10
59.93114369903772
 20
1015.879374767838
 30
0.0
 11
59.93114369903772
 21
1015.880283684611
 31
0.0
  0
LINE
  5
18A8
330
1F
100
AcDbEntity
  8
SANINDUSA
100
AcDbLine
 10
59.93355598897622
 20
1015.851192601384
 30
0.0
 11
59.93114369903772
 21
1015.879374767838
 31
0.0
  0
LWPOLYLINE
  5
18A9
330
1F
100
AcDbEntity
  8
SANINDUSA
100
AcDbPolyline
 90
        7
 70
   128
 43
0.0
 10
59.93263706747786
 20
1015.850283684611
 10
59.93296445732646
 20
1015.850330763265
 10
59.93324991185457
 20
1015.850468811603
 10
59.93344429167803
 20
1015.850664688095
 10
59.93355126312451
 20
1015.850910861805
 10
59.93356566716492
 20
1015.851111804922
 10
59.93355598897622
 20
1015.851192601384
  0
LINE
  5
18AA
330
1F
100
AcDbEntity
  8
SANINDUSA
100
AcDbLine
 10
59.99499512767014
 20
1015.845283684611
 30
0.0
 11
59.93076662194711
 21
1015.845283684611
 31
0.0
  0
LINE
  5
18AB
330
1F
100
AcDbEntity
  8
SANINDUSA
100
AcDbLine
 10
59.99549887523349
 20
1015.880283684611
 30
0.0
 11
59.90788087480863
 21
1015.880283684611
 31
0.0
  0
LINE
  5
18AC
330
1F
100
AcDbEntity
  8
SANINDUSA
100
AcDbLine
 10
59.76788087480863
 20
1015.905283684611
 30
0.0
 11
59.76788087480863
 21
1015.935283684611
 31
0.0
  0
LINE
  5
18AD
330
1F
100
AcDbEntity
  8
SANINDUSA
100
AcDbLine
 10
60.09084197730192
 20
1015.940283684611
 30
0.0
 11
60.04134401292274
 21
1015.897385448816
 31
0.0
  0
LWPOLYLINE
  5
18AE
330
1F
100
AcDbEntity
  8
SANINDUSA
100
AcDbPolyline
 90
        9
 70
   128
 43
0.0
 10
59.77788087480863
 20
1016.020283684611
 10
59.77613861820029
 20
1016.020123955066
 10
59.77437241267935
 20
1016.019629045399
 10
59.77264316626667
 20
1016.018775001069
 10
59.77104454688247
 20
1016.017554597611
 10
59.76969026720755
 20
1016.016001022177
 10
59.76868315648154
 20
1016.014199205917
 10
59.76807917440977
 20
1016.012263707788
 10
59.76803968873487
 20
1016.011869442994
  0
LINE
  5
18AF
330
1F
100
AcDbEntity
  8
SANINDUSA
100
AcDbLine
 10
59.76800809607702
 20
1016.011873728673
 30
0.0
 11
59.76788087480863
 21
1016.010283684611
 31
0.0
  0
LINE
  5
18B0
330
1F
100
AcDbEntity
  8
SANINDUSA
100
AcDbLine
 10
59.76788087480863
 20
1015.935283684611
 30
0.0
 11
59.76788087480863
 21
1015.940283684611
 31
0.0
  0
LINE
  5
18B1
330
1F
100
AcDbEntity
  8
SANINDUSA
100
AcDbLine
 10
59.77288087480863
 20
1015.940283684611
 30
0.0
 11
59.76788087480863
 21
1015.940283684611
 31
0.0
  0
LINE
  5
18B2
330
1F
100
AcDbEntity
  8
SANINDUSA
100
AcDbLine
 10
59.76788087480863
 20
1015.940283684611
 30
0.0
 11
59.76788087480863
 21
1016.010283684611
 31
0.0
  0
ARC
  5
18B3
330
1F
100
AcDbEntity
  8
SANINDUSA
100
AcDbCircle
 10
60.20788087480863
 20
1016.010283684611
 30
0.0
 40
0.01
100
AcDbArc
 50
0.000000000000007
 51
90.0
  0
LINE
  5
18B4
330
1F
100
AcDbEntity
  8
SANINDUSA
100
AcDbLine
 10
60.21788087480863
 20
1015.940283684611
 30
0.0
 11
60.20788087480863
 21
1015.940283684611
 31
0.0
  0
LINE
  5
18B5
330
1F
100
AcDbEntity
  8
SANINDUSA
100
AcDbLine
 10
60.21788087480863
 20
1016.010283684611
 30
0.0
 11
60.21788087480863
 21
1015.940283684611
 31
0.0
  0
LINE
  5
18B6
330
1F
100
AcDbEntity
  8
SANINDUSA
100
AcDbLine
 10
59.77288087480863
 20
1015.940283684611
 30
0.0
 11
60.20788087480863
 21
1015.940283684611
 31
0.0
  0
LINE
  5
18B7
330
1F
100
AcDbEntity
  8
SANINDUSA
100
AcDbLine
 10
59.77788087480863
 20
1016.020283684611
 30
0.0
 11
60.20788087480863
 21
1016.020283684611
 31
0.0
  0
LINE
  5
18B8
330
1F
100
AcDbEntity
  8
SANINDUSA
100
AcDbLine
 10
59.76788087480863
 20
1015.900283684611
 30
0.0
 11
59.76788087480863
 21
1015.905283684611
 31
0.0
  0
ARC
  5
18B9
330
1F
100
AcDbEntity
  8
SANINDUSA
100
AcDbCircle
 10
59.8833859773808
 20
1015.895283684611
 30
0.0
 40
0.005
100
AcDbArc
 50
11.53695903281814
 51
90.0
  0
ARC
  5
18BA
330
1F
100
AcDbEntity
  8
SANINDUSA
100
AcDbCircle
 10
59.88788087480862
 20
1015.870283684611
 30
0.0
 40
0.0200000000000004
100
AcDbArc
 50
180.0
 51
270.0
  0
LINE
  5
18BB
330
1F
100
AcDbEntity
  8
SANINDUSA
100
AcDbLine
 10
59.86788087480863
 20
1015.870283684611
 30
0.0
 11
59.86788087480863
 21
1015.900283684611
 31
0.0
  0
ARC
  5
18BC
330
1F
100
AcDbEntity
  8
SANINDUSA
100
AcDbCircle
 10
59.92838701956203
 20
1015.849283684611
 30
0.0
 40
0.0010000000000002
100
AcDbArc
 50
6.934348901266426
 51
90.0
  0
LINE
  5
18BD
330
1F
100
AcDbEntity
  8
SANINDUSA
100
AcDbLine
 10
59.92937970470336
 20
1015.849404416588
 30
0.0
 11
59.92977393680579
 21
1015.846162952635
 31
0.0
  0
ARC
  5
18BE
330
1F
100
AcDbEntity
  8
SANINDUSA
100
AcDbCircle
 10
59.90788087480863
 20
1015.900283684611
 30
0.0
 40
0.0199999999999999
100
AcDbArc
 50
191.5369590328181
 51
270.0
  0
LINE
  5
18BF
330
1F
100
AcDbEntity
  8
SANINDUSA
100
AcDbLine
 10
59.93263706747786
 20
1015.850283684611
 30
0.0
 11
59.88788087480862
 21
1015.850283684611
 31
0.0
  0
ARC
  5
18C0
330
1F
100
AcDbEntity
  8
SANINDUSA
100
AcDbCircle
 10
59.93076662194712
 20
1015.846283684611
 30
0.0
 40
0.0010000000000001
100
AcDbArc
 50
186.9343489013278
 51
270.0
  0
LINE
  5
18C1
330
1F
100
AcDbEntity
  8
SANINDUSA
100
AcDbLine
 10
59.8833859773808
 20
1015.900283684611
 30
0.0
 11
59.76788087480863
 21
1015.900283684611
 31
0.0
  0
LINE
  5
18C2
330
1F
100
AcDbEntity
  8
SANINDUSA
100
AcDbLine
 10
59.99598781281147
 20
1015.846162952635
 30
0.0
 11
60.00005460527568
 21
1015.879601024007
 31
0.0
  0
LWPOLYLINE
  5
18C3
330
1F
100
AcDbEntity
  8
SANINDUSA
100
AcDbPolyline
 90
        6
 70
   128
 43
0.0
 10
60.00006978533829
 20
1015.879611205474
 10
60.00007090166413
 20
1015.879705310252
 10
60.00017502698334
 20
1015.879985524308
 10
60.0003211232237
 20
1015.880185856318
 10
60.00047972338797
 20
1015.880322593671
 10
60.00054718975789
 20
1015.88036126977
  0
ARC
  5
18C4
330
1F
100
AcDbEntity
  8
SANINDUSA
100
AcDbCircle
 10
59.99549887523349
 20
1015.950283684611
 30
0.0
 40
0.0700000000000001
100
AcDbArc
 50
270.0
 51
310.9143832200236
  0
ARC
  5
18C5
330
1F
100
AcDbEntity
  8
SANINDUSA
100
AcDbCircle
 10
59.99499512767014
 20
1015.846283684611
 30
0.0
 40
0.0010000000000001
100
AcDbArc
 50
270.0
 51
353.0656510986722
  0
ENDSEC
  0
SECTION
  2
OBJECTS
  0
DICTIONARY
  5
C
330
0
100
AcDbDictionary
281
     1
  3
ACAD_COLOR
350
18F7
  3
ACAD_GROUP
350
D
  3
ACAD_LAYOUT
350
1A
  3
ACAD_MATERIAL
350
18CA
  3
ACAD_MLEADERSTYLE
350
190C
  3
ACAD_MLINESTYLE
350
17
  3
ACAD_PLOTSETTINGS
350
19
  3
ACAD_PLOTSTYLENAME
350
E
  3
ACAD_SCALELIST
350
18FA
  3
ACAD_TABLESTYLE
350
18F8
  3
ACAD_VISUALSTYLE
350
18E3
  3
ACDB_RECOMPOSE_DATA
350
1939
  3
AcDbVariableDictionary
350
3D
  3
ASE_INDEX_DICTIONARY
350
18C6
  3
DWGPROPS
350
193A
  0
DICTIONARY
  5
1913
330
10
100
AcDbDictionary
280
     1
281
     1
  3
ADSK_XREC_LAYER_RECONCILED
360
1914
  0
DICTIONARY
  5
1915
330
2F
100
AcDbDictionary
280
     1
281
     1
  3
ADSK_XREC_LAYER_RECONCILED
360
1916
  0
DICTIONARY
  5
1917
330
30
100
AcDbDictionary
280
     1
281
     1
  3
ADSK_XREC_LAYER_RECONCILED
360
1918
  0
DICTIONARY
  5
1919
330
31
100
AcDbDictionary
280
     1
281
     1
  3
ADSK_XREC_LAYER_RECONCILED
360
191A
  0
DICTIONARY
  5
191B
330
32
100
AcDbDictionary
280
     1
281
     1
  3
ADSK_XREC_LAYER_RECONCILED
360
191C
  0
DICTIONARY
  5
191D
330
33
100
AcDbDictionary
280
     1
281
     1
  3
ADSK_XREC_LAYER_RECONCILED
360
191E
  0
DICTIONARY
  5
191F
330
34
100
AcDbDictionary
280
     1
281
     1
  3
ADSK_XREC_LAYER_RECONCILED
360
1920
  0
DICTIONARY
  5
1921
330
35
100
AcDbDictionary
280
     1
281
     1
  3
ADSK_XREC_LAYER_RECONCILED
360
1922
  0
DICTIONARY
  5
1923
330
36
100
AcDbDictionary
280
     1
281
     1
  3
ADSK_XREC_LAYER_RECONCILED
360
1924
  0
DICTIONARY
  5
1925
330
37
100
AcDbDictionary
280
     1
281
     1
  3
ADSK_XREC_LAYER_RECONCILED
360
1926
  0
DICTIONARY
  5
1927
330
5D6
100
AcDbDictionary
280
     1
281
     1
  3
ADSK_XREC_LAYER_RECONCILED
360
1928
  0
DICTIONARY
  5
1929
330
8AF
100
AcDbDictionary
280
     1
281
     1
  3
ADSK_XREC_LAYER_RECONCILED
360
192A
  0
DICTIONARY
  5
192B
330
8F8
100
AcDbDictionary
280
     1
281
     1
  3
ADSK_XREC_LAYER_RECONCILED
360
192C
  0
DICTIONARY
  5
192D
330
91D
100
AcDbDictionary
280
     1
281
     1
  3
ADSK_XREC_LAYER_RECONCILED
360
192E
  0
DICTIONARY
  5
192F
330
BA5
100
AcDbDictionary
280
     1
281
     1
  3
ADSK_XREC_LAYER_RECONCILED
360
1930
  0
DICTIONARY
  5
18F7
102
{ACAD_REACTORS
330
C
102
}
330
C
100
AcDbDictionary
281
     1
  0
DICTIONARY
  5
D
102
{ACAD_REACTORS
330
C
102
}
330
C
100
AcDbDictionary
281
     1
  0
DICTIONARY
  5
1A
102
{ACAD_REACTORS
330
C
102
}
330
C
100
AcDbDictionary
281
     1
  3
Layout1
350
1E
  3
Layout2
350
26
  3
Model
350
22
  0
DICTIONARY
  5
18CA
102
{ACAD_REACTORS
330
C
102
}
330
C
100
AcDbDictionary
281
     1
  3
ByBlock
350
18D3
  3
ByLayer
350
18CB
  3
Global
350
18DB
  0
DICTIONARY
  5
190C
102
{ACAD_REACTORS
330
C
102
}
330
C
100
AcDbDictionary
281
     1
  3
Standard
350
190D
  0
DICTIONARY
  5
17
102
{ACAD_REACTORS
330
C
102
}
330
C
100
AcDbDictionary
281
     1
  3
Standard
350
18
  0
DICTIONARY
  5
19
102
{ACAD_REACTORS
330
C
102
}
330
C
100
AcDbDictionary
281
     1
  0
ACDBDICTIONARYWDFLT
  5
E
102
{ACAD_REACTORS
330
C
102
}
330
C
100
AcDbDictionary
281
     1
  3
Normal
350
F
100
AcDbDictionaryWithDefault
340
F
  0
DICTIONARY
  5
18FA
102
{ACAD_REACTORS
330
C
102
}
330
C
100
AcDbDictionary
281
     1
  3
A0
350
18FB
  3
A1
350
18FC
  3
A2
350
18FD
  3
A3
350
18FE
  3
A4
350
18FF
  3
A5
350
1900
  3
A6
350
1901
  3
A7
350
1902
  3
A8
350
1903
  3
A9
350
1904
  3
B0
350
1905
  3
B1
350
1906
  3
B2
350
1907
  3
B3
350
1908
  3
B4
350
1909
  3
B5
350
190A
  3
B6
350
190B
  0
DICTIONARY
  5
18F8
102
{ACAD_REACTORS
330
C
102
}
330
C
100
AcDbDictionary
281
     1
  3
Standard
350
18F9
  0
DICTIONARY
  5
18E3
102
{ACAD_REACTORS
330
C
102
}
330
C
100
AcDbDictionary
281
     1
  3
2dWireframe
350
18E9
  3
3D Hidden
350
18EB
  3
3dWireframe
350
18EA
  3
Basic
350
18E8
  3
Brighten
350
18EF
  3
ColorChange
350
18F3
  3
Conceptual
350
18EC
  3
Dim
350
18EE
  3
EdgeColorOff
350
18F6
  3
Facepattern
350
18F2
  3
Flat
350
18E4
  3
FlatWithEdges
350
18E5
  3
Gouraud
350
18E6
  3
GouraudWithEdges
350
18E7
  3
JitterOff
350
18F4
  3
Linepattern
350
18F1
  3
OverhangOff
350
18F5
  3
Realistic
350
18ED
  3
Thicken
350
18F0
  0
XRECORD
  5
1939
102
{ACAD_REACTORS
330
C
102
}
330
C
100
AcDbXrecord
280
     1
 90
        1
330
18F9
  0
DICTIONARY
  5
3D
102
{ACAD_REACTORS
330
C
102
}
330
C
100
AcDbDictionary
281
     1
  3
CANNOSCALE
350
1933
  3
CMLEADERSTYLE
350
1932
  3
CTABLESTYLE
350
1931
  3
DIMASSOC
350
3F
  3
HIDETEXT
350
3E
  3
INDEXCTL
350
1935
  3
SORTENTS
350
1934
  3
XCLIPFRAME
350
1936
  0
DICTIONARY
  5
18C6
102
{ACAD_REACTORS
330
C
102
}
330
C
100
AcDbDictionary
281
     1
  3
ASEBlockHierarchyIndexRecord
350
18C7
1001
DCO15
1040
1528804978.828
  0
XRECORD
  5
193A
102
{ACAD_REACTORS
330
C
102
}
330
C
100
AcDbXrecord
280
     1
  1
DWGPROPS COOKIE
  2

  3

  4

  6

  7

  8
Julio
  9

300
=
301
=
302
=
303
=
304
=
305
=
306
=
307
=
308
=
309
=
 40
0.0018258217592593
 41
2453497.712232882
 42
2456146.483160255
  1

 90
        0
  0
XRECORD
  5
1914
102
{ACAD_REACTORS
330
1913
102
}
330
1913
100
AcDbXrecord
280
     1
290
     1
  0
XRECORD
  5
1916
102
{ACAD_REACTORS
330
1915
102
}
330
1915
100
AcDbXrecord
280
     1
290
     1
  0
XRECORD
  5
1918
102
{ACAD_REACTORS
330
1917
102
}
330
1917
100
AcDbXrecord
280
     1
290
     1
  0
XRECORD
  5
191A
102
{ACAD_REACTORS
330
1919
102
}
330
1919
100
AcDbXrecord
280
     1
290
     1
  0
XRECORD
  5
191C
102
{ACAD_REACTORS
330
191B
102
}
330
191B
100
AcDbXrecord
280
     1
290
     1
  0
XRECORD
  5
191E
102
{ACAD_REACTORS
330
191D
102
}
330
191D
100
AcDbXrecord
280
     1
290
     1
  0
XRECORD
  5
1920
102
{ACAD_REACTORS
330
191F
102
}
330
191F
100
AcDbXrecord
280
     1
290
     1
  0
XRECORD
  5
1922
102
{ACAD_REACTORS
330
1921
102
}
330
1921
100
AcDbXrecord
280
     1
290
     1
  0
XRECORD
  5
1924
102
{ACAD_REACTORS
330
1923
102
}
330
1923
100
AcDbXrecord
280
     1
290
     1
  0
XRECORD
  5
1926
102
{ACAD_REACTORS
330
1925
102
}
330
1925
100
AcDbXrecord
280
     1
290
     1
  0
XRECORD
  5
1928
102
{ACAD_REACTORS
330
1927
102
}
330
1927
100
AcDbXrecord
280
     1
290
     1
  0
XRECORD
  5
192A
102
{ACAD_REACTORS
330
1929
102
}
330
1929
100
AcDbXrecord
280
     1
290
     1
  0
XRECORD
  5
192C
102
{ACAD_REACTORS
330
192B
102
}
330
192B
100
AcDbXrecord
280
     1
290
     1
  0
XRECORD
  5
192E
102
{ACAD_REACTORS
330
192D
102
}
330
192D
100
AcDbXrecord
280
     1
290
     1
  0
XRECORD
  5
1930
102
{ACAD_REACTORS
330
192F
102
}
330
192F
100
AcDbXrecord
280
     1
290
     1
  0
LAYOUT
  5
1E
102
{ACAD_XDICTIONARY
360
193B
102
}
102
{ACAD_REACTORS
330
1A
102
}
330
1A
100
AcDbPlotSettings
  1

  2
Ploter HP500
  4

  6

 40
0.0
 41
0.0
 42
0.0
 43
0.0
 44
0.0
 45
0.0
 46
0.0
 47
0.0
 48
0.0
 49
0.0
140
0.0
141
0.0
142
1.0
143
1.0
 70
   688
 72
     0
 73
     0
 74
     5
  7
monochrome.ctb
 75
    16
147
1.0
148
0.0
149
0.0
100
AcDbLayout
  1
Layout1
 70
     1
 71
     1
 10
0.0
 20
0.0
 11
420.0
 21
297.0
 12
0.0
 22
0.0
 32
0.0
 14
1.000000000000000E+20
 24
1.000000000000000E+20
 34
1.000000000000000E+20
 15
-1.000000000000000E+20
 25
-1.000000000000000E+20
 35
-1.000000000000000E+20
146
0.0
 13
0.0
 23
0.0
 33
0.0
 16
1.0
 26
0.0
 36
0.0
 17
0.0
 27
1.0
 37
0.0
 76
     0
330
1B
  0
LAYOUT
  5
26
102
{ACAD_XDICTIONARY
360
193F
102
}
102
{ACAD_REACTORS
330
1A
102
}
330
1A
100
AcDbPlotSettings
  1

  2
Ploter HP500
  4

  6

 40
0.0
 41
0.0
 42
0.0
 43
0.0
 44
0.0
 45
0.0
 46
0.0
 47
0.0
 48
0.0
 49
0.0
140
0.0
141
0.0
142
1.0
143
1.0
 70
   688
 72
     0
 73
     0
 74
     5
  7
monochrome.ctb
 75
    16
147
1.0
148
0.0
149
0.0
100
AcDbLayout
  1
Layout2
 70
     1
 71
     2
 10
0.0
 20
0.0
 11
12.0
 21
9.0
 12
0.0
 22
0.0
 32
0.0
 14
0.0
 24
0.0
 34
0.0
 15
0.0
 25
0.0
 35
0.0
146
0.0
 13
0.0
 23
0.0
 33
0.0
 16
1.0
 26
0.0
 36
0.0
 17
0.0
 27
1.0
 37
0.0
 76
     0
330
23
  0
LAYOUT
  5
22
102
{ACAD_XDICTIONARY
360
193D
102
}
102
{ACAD_REACTORS
330
1A
102
}
330
1A
100
AcDbPlotSettings
  1

  2
Ploter HP500
  4
User268
  6

 40
4.995333194732666
 41
16.97565841674804
 42
4.995330810546875
 43
16.97567749023437
 44
209.9733276367187
 45
296.9259948730469
 46
0.0
 47
0.0
 48
0.0
 49
0.0
140
0.0
141
0.0
142
1.0
143
1.0
 70
 11952
 72
     1
 73
     1
 74
     0
  7

 75
     0
147
1.0
148
-427.5957866592534
149
7.362384574453926
100
AcDbLayout
  1
Model
 70
     1
 71
     0
 10
0.0
 20
0.0
 11
12.0
 21
9.0
 12
0.0
 22
0.0
 32
0.0
 14
0.0
 24
0.0
 34
0.0
 15
0.0
 25
0.0
 35
0.0
146
0.0
 13
0.0
 23
0.0
 33
0.0
 16
1.0
 26
0.0
 36
0.0
 17
0.0
 27
1.0
 37
0.0
 76
     0
330
1F
331
18C8
  0
MATERIAL
  5
18D3
102
{ACAD_XDICTIONARY
360
18D4
102
}
102
{ACAD_REACTORS
330
18CA
102
}
330
18CA
100
AcDbMaterial
  1
ByBlock
 72
     0
 43
0.0008202099737533
 43
0.0
 43
0.0
 43
0.0
 43
0.0
 43
0.0008202099737533
 43
0.0
 43
0.0
 43
0.0
 43
0.0
 43
1.0
 43
0.0
 43
0.0
 43
0.0
 43
0.0
 43
1.0
 77
     0
 47
0.0008202099737533
 47
0.0
 47
0.0
 47
0.0
 47
0.0
 47
0.0008202099737533
 47
0.0
 47
0.0
 47
0.0
 47
0.0
 47
1.0
 47
0.0
 47
0.0
 47
0.0
 47
0.0
 47
1.0
171
     0
 49
0.0008202099737533
 49
0.0
 49
0.0
 49
0.0
 49
0.0
 49
0.0008202099737533
 49
0.0
 49
0.0
 49
0.0
 49
0.0
 49
1.0
 49
0.0
 49
0.0
 49
0.0
 49
0.0
 49
1.0
175
     0
142
0.0008202099737533
142
0.0
142
0.0
142
0.0
142
0.0
142
0.0008202099737533
142
0.0
142
0.0
142
0.0
142
0.0
142
1.0
142
0.0
142
0.0
142
0.0
142
0.0
142
1.0
179
     0
144
0.0008202099737533
144
0.0
144
0.0
144
0.0
144
0.0
144
0.0008202099737533
144
0.0
144
0.0
144
0.0
144
0.0
144
1.0
144
0.0
144
0.0
144
0.0
144
0.0
144
1.0
147
0.0008202099737533
147
0.0
147
0.0
147
0.0
147
0.0
147
0.0008202099737533
147
0.0
147
0.0
147
0.0
147
0.0
147
1.0
147
0.0
147
0.0
147
0.0
147
0.0
147
1.0
  0
MATERIAL
  5
18CB
102
{ACAD_XDICTIONARY
360
18CC
102
}
102
{ACAD_REACTORS
330
18CA
102
}
330
18CA
100
AcDbMaterial
  1
ByLayer
 72
     0
 43
0.0008202099737533
 43
0.0
 43
0.0
 43
0.0
 43
0.0
 43
0.0008202099737533
 43
0.0
 43
0.0
 43
0.0
 43
0.0
 43
1.0
 43
0.0
 43
0.0
 43
0.0
 43
0.0
 43
1.0
 77
     0
 47
0.0008202099737533
 47
0.0
 47
0.0
 47
0.0
 47
0.0
 47
0.0008202099737533
 47
0.0
 47
0.0
 47
0.0
 47
0.0
 47
1.0
 47
0.0
 47
0.0
 47
0.0
 47
0.0
 47
1.0
171
     0
 49
0.0008202099737533
 49
0.0
 49
0.0
 49
0.0
 49
0.0
 49
0.0008202099737533
 49
0.0
 49
0.0
 49
0.0
 49
0.0
 49
1.0
 49
0.0
 49
0.0
 49
0.0
 49
0.0
 49
1.0
175
     0
142
0.0008202099737533
142
0.0
142
0.0
142
0.0
142
0.0
142
0.0008202099737533
142
0.0
142
0.0
142
0.0
142
0.0
142
1.0
142
0.0
142
0.0
142
0.0
142
0.0
142
1.0
179
     0
144
0.0008202099737533
144
0.0
144
0.0
144
0.0
144
0.0
144
0.0008202099737533
144
0.0
144
0.0
144
0.0
144
0.0
144
1.0
144
0.0
144
0.0
144
0.0
144
0.0
144
1.0
147
0.0008202099737533
147
0.0
147
0.0
147
0.0
147
0.0
147
0.0008202099737533
147
0.0
147
0.0
147
0.0
147
0.0
147
1.0
147
0.0
147
0.0
147
0.0
147
0.0
147
1.0
  0
MATERIAL
  5
18DB
102
{ACAD_XDICTIONARY
360
18DC
102
}
102
{ACAD_REACTORS
330
18CA
102
}
330
18CA
100
AcDbMaterial
  1
Global
 72
     0
 43
0.0008202099737533
 43
0.0
 43
0.0
 43
0.0
 43
0.0
 43
0.0008202099737533
 43
0.0
 43
0.0
 43
0.0
 43
0.0
 43
1.0
 43
0.0
 43
0.0
 43
0.0
 43
0.0
 43
1.0
 77
     0
 47
0.0008202099737533
 47
0.0
 47
0.0
 47
0.0
 47
0.0
 47
0.0008202099737533
 47
0.0
 47
0.0
 47
0.0
 47
0.0
 47
1.0
 47
0.0
 47
0.0
 47
0.0
 47
0.0
 47
1.0
171
     0
 49
0.0008202099737533
 49
0.0
 49
0.0
 49
0.0
 49
0.0
 49
0.0008202099737533
 49
0.0
 49
0.0
 49
0.0
 49
0.0
 49
1.0
 49
0.0
 49
0.0
 49
0.0
 49
0.0
 49
1.0
175
     0
142
0.0008202099737533
142
0.0
142
0.0
142
0.0
142
0.0
142
0.0008202099737533
142
0.0
142
0.0
142
0.0
142
0.0
142
1.0
142
0.0
142
0.0
142
0.0
142
0.0
142
1.0
179
     0
144
0.0008202099737533
144
0.0
144
0.0
144
0.0
144
0.0
144
0.0008202099737533
144
0.0
144
0.0
144
0.0
144
0.0
144
1.0
144
0.0
144
0.0
144
0.0
144
0.0
144
1.0
147
0.0008202099737533
147
0.0
147
0.0
147
0.0
147
0.0
147
0.0008202099737533
147
0.0
147
0.0
147
0.0
147
0.0
147
1.0
147
0.0
147
0.0
147
0.0
147
0.0
147
1.0
  0
MLEADERSTYLE
  5
190D
102
{ACAD_REACTORS
330
190C
102
}
330
190C
100
AcDbMLeaderStyle
170
     2
171
     1
172
     0
 90
        2
 40
0.0
 41
0.0
173
     1
 91
-1056964608
340
14
 92
       -2
290
     1
 42
2.0
291
     1
 43
0.36
  3
Standard
 44
4.0
300

342
11
174
     1
178
     6
175
     1
176
     0
 93
-1056964608
 45
4.0
292
     0
297
     0
 46
4.0
 94
-1056964608
 47
1.0
 49
1.0
140
1.0
293
     1
141
0.0
294
     1
177
     0
142
1.0
295
     0
296
     0
143
0.125
1001
ACAD_MLEADERVER
1070
     2
  0
MLINESTYLE
  5
18
102
{ACAD_REACTORS
330
17
102
}
330
17
100
AcDbMlineStyle
  2
STANDARD
 70
     0
  3

 62
   256
 51
90.0
 52
90.0
 71
     2
 49
0.5
 62
   256
  6
BYLAYER
 49
-0.5
 62
   256
  6
BYLAYER
  0
ACDBPLACEHOLDER
  5
F
102
{ACAD_REACTORS
330
E
102
}
330
E
  0
SCALE
  5
18FB
102
{ACAD_REACTORS
330
18FA
102
}
330
18FA
100
AcDbScale
 70
     0
300
1:1
140
1.0
141
1.0
290
     1
  0
SCALE
  5
18FC
102
{ACAD_REACTORS
330
18FA
102
}
330
18FA
100
AcDbScale
 70
     0
300
1:2
140
1.0
141
2.0
290
     0
  0
SCALE
  5
18FD
102
{ACAD_REACTORS
330
18FA
102
}
330
18FA
100
AcDbScale
 70
     0
300
1:4
140
1.0
141
4.0
290
     0
  0
SCALE
  5
18FE
102
{ACAD_REACTORS
330
18FA
102
}
330
18FA
100
AcDbScale
 70
     0
300
1:5
140
1.0
141
5.0
290
     0
  0
SCALE
  5
18FF
102
{ACAD_REACTORS
330
18FA
102
}
330
18FA
100
AcDbScale
 70
     0
300
1:8
140
1.0
141
8.0
290
     0
  0
SCALE
  5
1900
102
{ACAD_REACTORS
330
18FA
102
}
330
18FA
100
AcDbScale
 70
     0
300
1:10
140
1.0
141
10.0
290
     0
  0
SCALE
  5
1901
102
{ACAD_REACTORS
330
18FA
102
}
330
18FA
100
AcDbScale
 70
     0
300
1:16
140
1.0
141
16.0
290
     0
  0
SCALE
  5
1902
102
{ACAD_REACTORS
330
18FA
102
}
330
18FA
100
AcDbScale
 70
     0
300
1:20
140
1.0
141
20.0
290
     0
  0
SCALE
  5
1903
102
{ACAD_REACTORS
330
18FA
102
}
330
18FA
100
AcDbScale
 70
     0
300
1:30
140
1.0
141
30.0
290
     0
  0
SCALE
  5
1904
102
{ACAD_REACTORS
330
18FA
102
}
330
18FA
100
AcDbScale
 70
     0
300
1:40
140
1.0
141
40.0
290
     0
  0
SCALE
  5
1905
102
{ACAD_REACTORS
330
18FA
102
}
330
18FA
100
AcDbScale
 70
     0
300
1:50
140
1.0
141
50.0
290
     0
  0
SCALE
  5
1906
102
{ACAD_REACTORS
330
18FA
102
}
330
18FA
100
AcDbScale
 70
     0
300
1:100
140
1.0
141
100.0
290
     0
  0
SCALE
  5
1907
102
{ACAD_REACTORS
330
18FA
102
}
330
18FA
100
AcDbScale
 70
     0
300
2:1
140
2.0
141
1.0
290
     0
  0
SCALE
  5
1908
102
{ACAD_REACTORS
330
18FA
102
}
330
18FA
100
AcDbScale
 70
     0
300
4:1
140
4.0
141
1.0
290
     0
  0
SCALE
  5
1909
102
{ACAD_REACTORS
330
18FA
102
}
330
18FA
100
AcDbScale
 70
     0
300
8:1
140
8.0
141
1.0
290
     0
  0
SCALE
  5
190A
102
{ACAD_REACTORS
330
18FA
102
}
330
18FA
100
AcDbScale
 70
     0
300
10:1
140
10.0
141
1.0
290
     0
  0
SCALE
  5
190B
102
{ACAD_REACTORS
330
18FA
102
}
330
18FA
100
AcDbScale
 70
     0
300
100:1
140
100.0
141
1.0
290
     0
  0
TABLESTYLE
  5
18F9
102
{ACAD_XDICTIONARY
360
1937
102
}
102
{ACAD_REACTORS
330
18F8
102
}
330
18F8
100
AcDbTableStyle
  3
Standard
 70
     0
 71
     0
 40
1.5
 41
1.5
280
     0
281
     0
  7
Standard
140
4.5
170
     2
 62
     0
 63
     7
283
     0
274
    -2
284
     1
 64
     0
275
    -2
285
     1
 65
     0
276
    -2
286
     1
 66
     0
277
    -2
287
     1
 67
     0
278
    -2
288
     1
 68
     0
279
    -2
289
     1
 69
     0
  7
Standard
140
6.0
170
     5
 62
     0
 63
     7
283
     0
274
    -2
284
     1
 64
     0
275
    -2
285
     1
 65
     0
276
    -2
286
     1
 66
     0
277
    -2
287
     1
 67
     0
278
    -2
288
     1
 68
     0
279
    -2
289
     1
 69
     0
  7
Standard
140
4.5
170
     5
 62
     0
 63
     7
283
     0
274
    -2
284
     1
 64
     0
275
    -2
285
     1
 65
     0
276
    -2
286
     1
 66
     0
277
    -2
287
     1
 67
     0
278
    -2
288
     1
 68
     0
279
    -2
289
     1
 69
     0
  0
VISUALSTYLE
  5
18E9
102
{ACAD_XDICTIONARY
360
196A
102
}
102
{ACAD_REACTORS
330
18E3
102
}
330
18E3
100
AcDbVisualStyle
  2
2dWireframe
 70
     4
 71
     0
 72
     2
 73
     0
 90
        0
 40
-0.6
 41
-30.0
 62
     5
 63
     7
 74
     1
 91
        4
 64
     7
 65
   257
 75
     1
175
     1
 42
1.0
 92
        0
 66
   257
 43
1.0
 76
     1
 77
     6
 78
     2
 67
     7
 79
     5
170
     0
171
     0
290
     0
174
     0
 93
        1
 44
0.0
173
     0
291
     0
 45
0.0
1001
ACAD
1000
AcDbSavedByObjectVersion
1070
     0
  0
VISUALSTYLE
  5
18EB
102
{ACAD_XDICTIONARY
360
196E
102
}
102
{ACAD_REACTORS
330
18E3
102
}
330
18E3
100
AcDbVisualStyle
  2
3D Hidden
 70
     6
 71
     1
 72
     2
 73
     2
 90
        0
 40
-0.6
 41
-30.0
 62
     5
 63
     7
 74
     2
 91
        2
 64
     7
 65
   257
 75
     2
175
     1
 42
179.0
 92
        0
 66
   257
 43
1.0
 76
     1
 77
     6
 78
     2
 67
     7
 79
     3
170
     0
171
     0
290
     0
174
     0
 93
        1
 44
0.0
173
     0
291
     0
 45
0.0
1001
ACAD
1000
AcDbSavedByObjectVersion
1070
     0
  0
VISUALSTYLE
  5
18EA
102
{ACAD_XDICTIONARY
360
196C
102
}
102
{ACAD_REACTORS
330
18E3
102
}
330
18E3
100
AcDbVisualStyle
  2
3dWireframe
 70
     5
 71
     0
 72
     2
 73
     0
 90
        0
 40
-0.6
 41
-30.0
 62
     5
 63
     7
 74
     1
 91
        4
 64
     7
 65
   257
 75
     1
175
     1
 42
1.0
 92
        0
 66
   257
 43
1.0
 76
     1
 77
     6
 78
     2
 67
     7
 79
     5
170
     0
171
     0
290
     0
174
     0
 93
        1
 44
0.0
173
     0
291
     0
 45
0.0
1001
ACAD
1000
AcDbSavedByObjectVersion
1070
     0
  0
VISUALSTYLE
  5
18E8
102
{ACAD_XDICTIONARY
360
1968
102
}
102
{ACAD_REACTORS
330
18E3
102
}
330
18E3
100
AcDbVisualStyle
  2
Basic
 70
     7
 71
     1
 72
     0
 73
     1
 90
        0
 40
-0.6
 41
-30.0
 62
     5
 63
     7
 74
     0
 91
        4
 64
     7
 65
   257
 75
     1
175
     1
 42
1.0
 92
        8
 66
     7
 43
1.0
 76
     1
 77
     6
 78
     2
 67
     7
 79
     5
170
     0
171
     0
290
     0
174
     0
 93
        1
 44
0.0
173
     0
291
     1
 45
0.0
1001
ACAD
1000
AcDbSavedByObjectVersion
1070
     0
  0
VISUALSTYLE
  5
18EF
102
{ACAD_XDICTIONARY
360
1976
102
}
102
{ACAD_REACTORS
330
18E3
102
}
330
18E3
100
AcDbVisualStyle
  2
Brighten
 70
    12
 71
     2
 72
     2
 73
     0
 90
        0
 40
-0.6
 41
-30.0
 62
     5
 63
     7
 74
     1
 91
        4
 64
     7
 65
   257
 75
     1
175
     1
 42
1.0
 92
        8
 66
     7
 43
1.0
 76
     1
 77
     6
 78
     2
 67
     7
 79
     5
170
     0
171
     0
290
     0
174
     0
 93
        1
 44
50.0
173
     0
291
     1
 45
0.0
1001
ACAD
1000
AcDbSavedByObjectVersion
1070
     0
  0
VISUALSTYLE
  5
18F3
102
{ACAD_XDICTIONARY
360
197E
102
}
102
{ACAD_REACTORS
330
18E3
102
}
330
18E3
100
AcDbVisualStyle
  2
ColorChange
 70
    16
 71
     2
 72
     2
 73
     3
 90
        0
 40
-0.6
 41
-30.0
 62
     5
 63
     8
 74
     1
 91
        4
 64
     7
 65
   257
 75
     1
175
     1
 42
1.0
 92
        8
 66
     8
 43
1.0
 76
     1
 77
     6
 78
     2
 67
     7
 79
     5
170
     0
171
     0
290
     0
174
     0
 93
        1
 44
0.0
173
     0
291
     1
 45
0.0
1001
ACAD
1000
AcDbSavedByObjectVersion
1070
     0
  0
VISUALSTYLE
  5
18EC
102
{ACAD_XDICTIONARY
360
1970
102
}
102
{ACAD_REACTORS
330
18E3
102
}
330
18E3
100
AcDbVisualStyle
  2
Conceptual
 70
     9
 71
     3
 72
     2
 73
     0
 90
        0
 40
-0.6
 41
-30.0
 62
     5
 63
     7
 74
     2
 91
        2
 64
     7
 65
   257
 75
     1
175
     1
 42
179.0
 92
        8
 66
     7
 43
1.0
 76
     1
 77
     6
 78
     2
 67
     7
 79
     3
170
     0
171
     0
290
     0
174
     0
 93
        1
 44
0.0
173
     0
291
     0
 45
0.0
1001
ACAD
1000
AcDbSavedByObjectVersion
1070
     0
  0
VISUALSTYLE
  5
18EE
102
{ACAD_XDICTIONARY
360
1974
102
}
102
{ACAD_REACTORS
330
18E3
102
}
330
18E3
100
AcDbVisualStyle
  2
Dim
 70
    11
 71
     2
 72
     2
 73
     0
 90
        0
 40
-0.6
 41
-30.0
 62
     5
 63
     7
 74
     1
 91
        4
 64
     7
 65
   257
 75
     1
175
     1
 42
1.0
 92
        8
 66
     7
 43
1.0
 76
     1
 77
     6
 78
     2
 67
     7
 79
     5
170
     0
171
     0
290
     0
174
     0
 93
        1
 44
-50.0
173
     0
291
     1
 45
0.0
1001
ACAD
1000
AcDbSavedByObjectVersion
1070
     0
  0
VISUALSTYLE
  5
18F6
102
{ACAD_XDICTIONARY
360
1984
102
}
102
{ACAD_REACTORS
330
18E3
102
}
330
18E3
100
AcDbVisualStyle
  2
EdgeColorOff
 70
    22
 71
     2
 72
     2
 73
     0
 90
        0
 40
-0.6
 41
-30.0
 62
     5
 63
     7
 74
     1
 91
        4
 64
     7
 65
   257
 75
     1
175
     1
 42
1.0
 92
        8
 66
     7
 43
1.0
 76
     1
 77
     6
 78
     2
 67
     7
 79
     5
170
     0
171
     0
290
     0
174
     0
 93
        1
 44
0.0
173
     0
291
     1
 45
0.0
1001
ACAD
1000
AcDbSavedByObjectVersion
1070
     0
  0
VISUALSTYLE
  5
18F2
102
{ACAD_XDICTIONARY
360
197C
102
}
102
{ACAD_REACTORS
330
18E3
102
}
330
18E3
100
AcDbVisualStyle
  2
Facepattern
 70
    15
 71
     2
 72
     2
 73
     0
 90
        0
 40
-0.6
 41
-30.0
 62
     5
 63
     7
 74
     1
 91
        4
 64
     7
 65
   257
 75
     1
175
     1
 42
1.0
 92
        8
 66
     7
 43
1.0
 76
     1
 77
     6
 78
     2
 67
     7
 79
     5
170
     0
171
     0
290
     0
174
     0
 93
        1
 44
0.0
173
     0
291
     1
 45
0.0
1001
ACAD
1000
AcDbSavedByObjectVersion
1070
     0
  0
VISUALSTYLE
  5
18E4
102
{ACAD_XDICTIONARY
360
1960
102
}
102
{ACAD_REACTORS
330
18E3
102
}
330
18E3
100
AcDbVisualStyle
  2
Flat
 70
     0
 71
     2
 72
     1
 73
     1
 90
        2
 40
-0.6
 41
30.0
 62
     5
 63
     7
 74
     0
 91
        4
 64
     7
 65
   257
 75
     1
175
     1
 42
1.0
 92
        8
 66
     7
 43
1.0
 76
     1
 77
     6
 78
     2
 67
     7
 79
     5
170
     0
171
     0
290
     0
174
     0
 93
       13
 44
0.0
173
     0
291
     1
 45
0.0
1001
ACAD
1000
AcDbSavedByObjectVersion
1070
     0
  0
VISUALSTYLE
  5
18E5
102
{ACAD_XDICTIONARY
360
1962
102
}
102
{ACAD_REACTORS
330
18E3
102
}
330
18E3
100
AcDbVisualStyle
  2
FlatWithEdges
 70
     1
 71
     2
 72
     1
 73
     1
 90
        2
 40
-0.6
 41
30.0
 62
     5
 63
     7
 74
     1
 91
        4
 64
     7
 65
   257
 75
     1
175
     1
 42
1.0
 92
        0
 66
   257
 43
1.0
 76
     1
 77
     6
 78
     2
 67
     7
 79
     5
170
     0
171
     0
290
     0
174
     0
 93
       13
 44
0.0
173
     0
291
     1
 45
0.0
1001
ACAD
1000
AcDbSavedByObjectVersion
1070
     0
  0
VISUALSTYLE
  5
18E6
102
{ACAD_XDICTIONARY
360
1964
102
}
102
{ACAD_REACTORS
330
18E3
102
}
330
18E3
100
AcDbVisualStyle
  2
Gouraud
 70
     2
 71
     2
 72
     2
 73
     1
 90
        2
 40
-0.6
 41
30.0
 62
     5
 63
     7
 74
     0
 91
        4
 64
     7
 65
   257
 75
     1
175
     1
 42
1.0
 92
        0
 66
     7
 43
1.0
 76
     1
 77
     6
 78
     2
 67
     7
 79
     5
170
     0
171
     0
290
     0
174
     0
 93
       13
 44
0.0
173
     0
291
     1
 45
0.0
1001
ACAD
1000
AcDbSavedByObjectVersion
1070
     0
  0
VISUALSTYLE
  5
18E7
102
{ACAD_XDICTIONARY
360
1966
102
}
102
{ACAD_REACTORS
330
18E3
102
}
330
18E3
100
AcDbVisualStyle
  2
GouraudWithEdges
 70
     3
 71
     2
 72
     2
 73
     1
 90
        2
 40
-0.6
 41
30.0
 62
     5
 63
     7
 74
     1
 91
        4
 64
     7
 65
   257
 75
     1
175
     1
 42
1.0
 92
        0
 66
   257
 43
1.0
 76
     1
 77
     6
 78
     2
 67
     7
 79
     5
170
     0
171
     0
290
     0
174
     0
 93
       13
 44
0.0
173
     0
291
     1
 45
0.0
1001
ACAD
1000
AcDbSavedByObjectVersion
1070
     0
  0
VISUALSTYLE
  5
18F4
102
{ACAD_XDICTIONARY
360
1980
102
}
102
{ACAD_REACTORS
330
18E3
102
}
330
18E3
100
AcDbVisualStyle
  2
JitterOff
 70
    20
 71
     2
 72
     2
 73
     0
 90
        0
 40
-0.6
 41
-30.0
 62
     5
 63
     7
 74
     1
 91
        4
 64
     7
 65
   257
 75
     1
175
     1
 42
1.0
 92
       10
 66
     7
 43
1.0
 76
     1
 77
     6
 78
     2
 67
     7
 79
     5
170
     0
171
     0
290
     0
174
     0
 93
        1
 44
0.0
173
     0
291
     1
 45
0.0
1001
ACAD
1000
AcDbSavedByObjectVersion
1070
     0
  0
VISUALSTYLE
  5
18F1
102
{ACAD_XDICTIONARY
360
197A
102
}
102
{ACAD_REACTORS
330
18E3
102
}
330
18E3
100
AcDbVisualStyle
  2
Linepattern
 70
    14
 71
     2
 72
     2
 73
     0
 90
        0
 40
-0.6
 41
-30.0
 62
     5
 63
     7
 74
     1
 91
        4
 64
     7
 65
   257
 75
     7
175
     7
 42
1.0
 92
        8
 66
     7
 43
1.0
 76
     1
 77
     6
 78
     2
 67
     7
 79
     5
170
     0
171
     0
290
     0
174
     0
 93
        1
 44
0.0
173
     0
291
     1
 45
0.0
1001
ACAD
1000
AcDbSavedByObjectVersion
1070
     0
  0
VISUALSTYLE
  5
18F5
102
{ACAD_XDICTIONARY
360
1982
102
}
102
{ACAD_REACTORS
330
18E3
102
}
330
18E3
100
AcDbVisualStyle
  2
OverhangOff
 70
    21
 71
     2
 72
     2
 73
     0
 90
        0
 40
-0.6
 41
-30.0
 62
     5
 63
     7
 74
     1
 91
        4
 64
     7
 65
   257
 75
     1
175
     1
 42
1.0
 92
        9
 66
     7
 43
1.0
 76
     1
 77
     6
 78
     2
 67
     7
 79
     5
170
     0
171
     0
290
     0
174
     0
 93
        1
 44
0.0
173
     0
291
     1
 45
0.0
1001
ACAD
1000
AcDbSavedByObjectVersion
1070
     0
  0
VISUALSTYLE
  5
18ED
102
{ACAD_XDICTIONARY
360
1972
102
}
102
{ACAD_REACTORS
330
18E3
102
}
330
18E3
100
AcDbVisualStyle
  2
Realistic
 70
     8
 71
     2
 72
     2
 73
     0
 90
        0
 40
-0.6
 41
-30.0
 62
     5
 63
     7
 74
     1
 91
        0
 64
     7
 65
   257
 75
     1
175
     1
 42
1.0
 92
        8
 66
     8
 43
1.0
 76
     1
 77
     6
 78
     2
 67
     7
 79
     5
170
     0
171
     0
290
     0
174
     0
 93
       13
 44
0.0
173
     0
291
     0
 45
0.0
1001
ACAD
1000
AcDbSavedByObjectVersion
1070
     0
  0
VISUALSTYLE
  5
18F0
102
{ACAD_XDICTIONARY
360
1978
102
}
102
{ACAD_REACTORS
330
18E3
102
}
330
18E3
100
AcDbVisualStyle
  2
Thicken
 70
    13
 71
     2
 72
     2
 73
     0
 90
        0
 40
-0.6
 41
-30.0
 62
     5
 63
     7
 74
     1
 91
        4
 64
     7
 65
   257
 75
     1
175
     1
 42
1.0
 92
       12
 66
     7
 43
1.0
 76
     1
 77
     6
 78
     2
 67
     7
 79
     5
170
     0
171
     0
290
     0
174
     0
 93
        1
 44
0.0
173
     0
291
     1
 45
0.0
1001
ACAD
1000
AcDbSavedByObjectVersion
1070
     0
  0
DICTIONARYVAR
  5
1933
102
{ACAD_REACTORS
330
3D
102
}
330
3D
100
DictionaryVariables
280
     0
  1
1:1
  0
DICTIONARYVAR
  5
1932
102
{ACAD_REACTORS
330
3D
102
}
330
3D
100
DictionaryVariables
280
     0
  1
STANDARD
  0
DICTIONARYVAR
  5
1931
102
{ACAD_REACTORS
330
3D
102
}
330
3D
100
DictionaryVariables
280
     0
  1
STANDARD
  0
DICTIONARYVAR
  5
3F
102
{ACAD_REACTORS
330
3D
102
}
330
3D
100
DictionaryVariables
280
     0
  1
2
  0
DICTIONARYVAR
  5
3E
102
{ACAD_REACTORS
330
3D
102
}
330
3D
100
DictionaryVariables
280
     0
  1
1
  0
DICTIONARYVAR
  5
1935
102
{ACAD_REACTORS
330
3D
102
}
330
3D
100
DictionaryVariables
280
     0
  1
0
  0
DICTIONARYVAR
  5
1934
102
{ACAD_REACTORS
330
3D
102
}
330
3D
100
DictionaryVariables
280
     0
  1
127
  0
DICTIONARYVAR
  5
1936
102
{ACAD_REACTORS
330
3D
102
}
330
3D
100
DictionaryVariables
280
     0
  1
2
  0
XRECORD
  5
18C7
102
{ACAD_REACTORS
330
18C6
102
}
330
18C6
100
AcDbXrecord
280
     1
  0
DICTIONARY
  5
193B
330
1E
100
AcDbDictionary
280
     1
281
     1
  3
ACAD_XREC_ROUNDTRIP
360
193C
  0
DICTIONARY
  5
193F
330
26
100
AcDbDictionary
280
     1
281
     1
  3
ACAD_XREC_ROUNDTRIP
360
1940
  0
DICTIONARY
  5
193D
330
22
100
AcDbDictionary
280
     1
281
     1
  3
ACAD_XREC_ROUNDTRIP
360
193E
  0
DICTIONARY
  5
18D4
330
18D3
100
AcDbDictionary
280
     1
281
     1
  3
ACAD_XREC_ROUNDTRIP
360
195E
  3
BUMPTILE
360
18D6
  3
DIFFUSETILE
360
18D5
  3
OPACITYTILE
360
18D9
  3
REFLECTIONTILE
360
18D8
  3
REFRACTIONTILE
360
18DA
  3
SPECULARTILE
360
18D7
  0
DICTIONARY
  5
18CC
330
18CB
100
AcDbDictionary
280
     1
281
     1
  3
ACAD_XREC_ROUNDTRIP
360
195D
  3
BUMPTILE
360
18CE
  3
DIFFUSETILE
360
18CD
  3
OPACITYTILE
360
18D1
  3
REFLECTIONTILE
360
18D0
  3
REFRACTIONTILE
360
18D2
  3
SPECULARTILE
360
18CF
  0
DICTIONARY
  5
18DC
330
18DB
100
AcDbDictionary
280
     1
281
     1
  3
ACAD_XREC_ROUNDTRIP
360
195F
  3
BUMPTILE
360
18DE
  3
DIFFUSETILE
360
18DD
  3
OPACITYTILE
360
18E1
  3
REFLECTIONTILE
360
18E0
  3
REFRACTIONTILE
360
18E2
  3
SPECULARTILE
360
18DF
  0
DICTIONARY
  5
1937
330
18F9
100
AcDbDictionary
280
     1
281
     1
  3
ACAD_ROUNDTRIP_2008_TABLESTYLE_CELLSTYLEMAP
360
1938
  3
ACAD_XREC_ROUNDTRIP
360
1986
  0
DICTIONARY
  5
196A
330
18E9
100
AcDbDictionary
280
     1
281
     1
  3
ACAD_XREC_ROUNDTRIP
360
196B
  0
DICTIONARY
  5
196E
330
18EB
100
AcDbDictionary
280
     1
281
     1
  3
ACAD_XREC_ROUNDTRIP
360
196F
  0
DICTIONARY
  5
196C
330
18EA
100
AcDbDictionary
280
     1
281
     1
  3
ACAD_XREC_ROUNDTRIP
360
196D
  0
DICTIONARY
  5
1968
330
18E8
100
AcDbDictionary
280
     1
281
     1
  3
ACAD_XREC_ROUNDTRIP
360
1969
  0
DICTIONARY
  5
1976
330
18EF
100
AcDbDictionary
280
     1
281
     1
  3
ACAD_XREC_ROUNDTRIP
360
1977
  0
DICTIONARY
  5
197E
330
18F3
100
AcDbDictionary
280
     1
281
     1
  3
ACAD_XREC_ROUNDTRIP
360
197F
  0
DICTIONARY
  5
1970
330
18EC
100
AcDbDictionary
280
     1
281
     1
  3
ACAD_XREC_ROUNDTRIP
360
1971
  0
DICTIONARY
  5
1974
330
18EE
100
AcDbDictionary
280
     1
281
     1
  3
ACAD_XREC_ROUNDTRIP
360
1975
  0
DICTIONARY
  5
1984
330
18F6
100
AcDbDictionary
280
     1
281
     1
  3
ACAD_XREC_ROUNDTRIP
360
1985
  0
DICTIONARY
  5
197C
330
18F2
100
AcDbDictionary
280
     1
281
     1
  3
ACAD_XREC_ROUNDTRIP
360
197D
  0
DICTIONARY
  5
1960
330
18E4
100
AcDbDictionary
280
     1
281
     1
  3
ACAD_XREC_ROUNDTRIP
360
1961
  0
DICTIONARY
  5
1962
330
18E5
100
AcDbDictionary
280
     1
281
     1
  3
ACAD_XREC_ROUNDTRIP
360
1963
  0
DICTIONARY
  5
1964
330
18E6
100
AcDbDictionary
280
     1
281
     1
  3
ACAD_XREC_ROUNDTRIP
360
1965
  0
DICTIONARY
  5
1966
330
18E7
100
AcDbDictionary
280
     1
281
     1
  3
ACAD_XREC_ROUNDTRIP
360
1967
  0
DICTIONARY
  5
1980
330
18F4
100
AcDbDictionary
280
     1
281
     1
  3
ACAD_XREC_ROUNDTRIP
360
1981
  0
DICTIONARY
  5
197A
330
18F1
100
AcDbDictionary
280
     1
281
     1
  3
ACAD_XREC_ROUNDTRIP
360
197B
  0
DICTIONARY
  5
1982
330
18F5
100
AcDbDictionary
280
     1
281
     1
  3
ACAD_XREC_ROUNDTRIP
360
1983
  0
DICTIONARY
  5
1972
330
18ED
100
AcDbDictionary
280
     1
281
     1
  3
ACAD_XREC_ROUNDTRIP
360
1973
  0
DICTIONARY
  5
1978
330
18F0
100
AcDbDictionary
280
     1
281
     1
  3
ACAD_XREC_ROUNDTRIP
360
1979
  0
XRECORD
  5
193C
102
{ACAD_REACTORS
330
193B
102
}
330
193B
100
AcDbXrecord
280
     1
102
SHADEPLOT
 70
     0
102
SHADEPLOTRESLEVEL
 70
     2
102
SHADEPLOTCUSTOMDPI
 70
   300
  0
XRECORD
  5
1940
102
{ACAD_REACTORS
330
193F
102
}
330
193F
100
AcDbXrecord
280
     1
102
SHADEPLOT
 70
     0
102
SHADEPLOTRESLEVEL
 70
     2
102
SHADEPLOTCUSTOMDPI
 70
   300
  0
XRECORD
  5
193E
102
{ACAD_REACTORS
330
193D
102
}
330
193D
100
AcDbXrecord
280
     1
102
SHADEPLOT
 70
     0
102
SHADEPLOTRESLEVEL
 70
     2
102
SHADEPLOTCUSTOMDPI
 70
   300
  0
XRECORD
  5
195E
102
{ACAD_REACTORS
330
18D4
102
}
330
18D4
100
AcDbXrecord
280
     1
102
MATERIAL
148
0.0
149
0.0
149
0.0
 93
        0
 94
      127
282
     0
 72
     0
 77
     0
171
     0
175
     0
179
     0
273
     0
  0
XRECORD
  5
18D6
102
{ACAD_REACTORS
330
18D4
102
}
330
18D4
100
AcDbXrecord
280
     1
270
     1
271
     1
  0
XRECORD
  5
18D5
102
{ACAD_REACTORS
330
18D4
102
}
330
18D4
100
AcDbXrecord
280
     1
270
     1
271
     1
  0
XRECORD
  5
18D9
102
{ACAD_REACTORS
330
18D4
102
}
330
18D4
100
AcDbXrecord
280
     1
270
     1
271
     1
  0
XRECORD
  5
18D8
102
{ACAD_REACTORS
330
18D4
102
}
330
18D4
100
AcDbXrecord
280
     1
270
     1
271
     1
  0
XRECORD
  5
18DA
102
{ACAD_REACTORS
330
18D4
102
}
330
18D4
100
AcDbXrecord
280
     1
270
     1
271
     1
  0
XRECORD
  5
18D7
102
{ACAD_REACTORS
330
18D4
102
}
330
18D4
100
AcDbXrecord
280
     1
270
     1
271
     1
  0
XRECORD
  5
195D
102
{ACAD_REACTORS
330
18CC
102
}
330
18CC
100
AcDbXrecord
280
     1
102
MATERIAL
148
0.0
149
0.0
149
0.0
 93
        0
 94
      127
282
     0
 72
     0
 77
     0
171
     0
175
     0
179
     0
273
     0
  0
XRECORD
  5
18CE
102
{ACAD_REACTORS
330
18CC
102
}
330
18CC
100
AcDbXrecord
280
     1
270
     1
271
     1
  0
XRECORD
  5
18CD
102
{ACAD_REACTORS
330
18CC
102
}
330
18CC
100
AcDbXrecord
280
     1
270
     1
271
     1
  0
XRECORD
  5
18D1
102
{ACAD_REACTORS
330
18CC
102
}
330
18CC
100
AcDbXrecord
280
     1
270
     1
271
     1
  0
XRECORD
  5
18D0
102
{ACAD_REACTORS
330
18CC
102
}
330
18CC
100
AcDbXrecord
280
     1
270
     1
271
     1
  0
XRECORD
  5
18D2
102
{ACAD_REACTORS
330
18CC
102
}
330
18CC
100
AcDbXrecord
280
     1
270
     1
271
     1
  0
XRECORD
  5
18CF
102
{ACAD_REACTORS
330
18CC
102
}
330
18CC
100
AcDbXrecord
280
     1
270
     1
271
     1
  0
XRECORD
  5
195F
102
{ACAD_REACTORS
330
18DC
102
}
330
18DC
100
AcDbXrecord
280
     1
102
MATERIAL
148
0.0
149
0.0
149
0.0
 93
        0
 94
      127
282
     0
 72
     0
 77
     0
171
     0
175
     0
179
     0
273
     0
  0
XRECORD
  5
18DE
102
{ACAD_REACTORS
330
18DC
102
}
330
18DC
100
AcDbXrecord
280
     1
270
     1
271
     1
  0
XRECORD
  5
18DD
102
{ACAD_REACTORS
330
18DC
102
}
330
18DC
100
AcDbXrecord
280
     1
270
     1
271
     1
  0
XRECORD
  5
18E1
102
{ACAD_REACTORS
330
18DC
102
}
330
18DC
100
AcDbXrecord
280
     1
270
     1
271
     1
  0
XRECORD
  5
18E0
102
{ACAD_REACTORS
330
18DC
102
}
330
18DC
100
AcDbXrecord
280
     1
270
     1
271
     1
  0
XRECORD
  5
18E2
102
{ACAD_REACTORS
330
18DC
102
}
330
18DC
100
AcDbXrecord
280
     1
270
     1
271
     1
  0
XRECORD
  5
18DF
102
{ACAD_REACTORS
330
18DC
102
}
330
18DC
100
AcDbXrecord
280
     1
270
     1
271
     1
  0
CELLSTYLEMAP
  5
1938
102
{ACAD_REACTORS
330
1937
102
}
330
1937
100
AcDbCellStyleMap
 90
        3
300
CELLSTYLE
  1
TABLEFORMAT_BEGIN
 90
        5
170
     1
 91
        0
 92
    32768
 62
   257
 93
        1
300
CONTENTFORMAT
  1
CONTENTFORMAT_BEGIN
 90
        0
 91
        0
 92
      512
 93
        0
300

 40
0.0
140
1.0
 94
        5
 62
     0
340
11
144
6.0
309
CONTENTFORMAT_END
171
     1
301
MARGIN
  1
CELLMARGIN_BEGIN
 40
1.5
 40
1.5
 40
1.5
 40
1.5
 40
4.5
 40
4.5
309
CELLMARGIN_END
 94
        6
 95
        1
302
GRIDFORMAT
  1
GRIDFORMAT_BEGIN
 90
        0
 91
        1
 62
     0
 92
       -2
340
0
 93
        0
 40
1.125
309
GRIDFORMAT_END
 95
        2
302
GRIDFORMAT
  1
GRIDFORMAT_BEGIN
 90
        0
 91
        1
 62
     0
 92
       -2
340
0
 93
        0
 40
1.125
309
GRIDFORMAT_END
 95
        4
302
GRIDFORMAT
  1
GRIDFORMAT_BEGIN
 90
        0
 91
        1
 62
     0
 92
       -2
340
0
 93
        0
 40
1.125
309
GRIDFORMAT_END
 95
        8
302
GRIDFORMAT
  1
GRIDFORMAT_BEGIN
 90
        0
 91
        1
 62
     0
 92
       -2
340
0
 93
        0
 40
1.125
309
GRIDFORMAT_END
 95
       16
302
GRIDFORMAT
  1
GRIDFORMAT_BEGIN
 90
        0
 91
        1
 62
     0
 92
       -2
340
0
 93
        0
 40
1.125
309
GRIDFORMAT_END
 95
       32
302
GRIDFORMAT
  1
GRIDFORMAT_BEGIN
 90
        0
 91
        1
 62
     0
 92
       -2
340
0
 93
        0
 40
1.125
309
GRIDFORMAT_END
309
TABLEFORMAT_END
  1
CELLSTYLE_BEGIN
 90
        1
 91
        1
300
_TITLE
309
CELLSTYLE_END
300
CELLSTYLE
  1
TABLEFORMAT_BEGIN
 90
        5
170
     1
 91
        0
 92
        0
 62
   257
 93
        1
300
CONTENTFORMAT
  1
CONTENTFORMAT_BEGIN
 90
        0
 91
        0
 92
      512
 93
        0
300

 40
0.0
140
1.0
 94
        5
 62
     0
340
11
144
4.5
309
CONTENTFORMAT_END
171
     1
301
MARGIN
  1
CELLMARGIN_BEGIN
 40
1.5
 40
1.5
 40
1.5
 40
1.5
 40
4.5
 40
4.5
309
CELLMARGIN_END
 94
        6
 95
        1
302
GRIDFORMAT
  1
GRIDFORMAT_BEGIN
 90
        0
 91
        1
 62
     0
 92
       -2
340
0
 93
        0
 40
1.125
309
GRIDFORMAT_END
 95
        2
302
GRIDFORMAT
  1
GRIDFORMAT_BEGIN
 90
        0
 91
        1
 62
     0
 92
       -2
340
0
 93
        0
 40
1.125
309
GRIDFORMAT_END
 95
        4
302
GRIDFORMAT
  1
GRIDFORMAT_BEGIN
 90
        0
 91
        1
 62
     0
 92
       -2
340
0
 93
        0
 40
1.125
309
GRIDFORMAT_END
 95
        8
302
GRIDFORMAT
  1
GRIDFORMAT_BEGIN
 90
        0
 91
        1
 62
     0
 92
       -2
340
0
 93
        0
 40
1.125
309
GRIDFORMAT_END
 95
       16
302
GRIDFORMAT
  1
GRIDFORMAT_BEGIN
 90
        0
 91
        1
 62
     0
 92
       -2
340
0
 93
        0
 40
1.125
309
GRIDFORMAT_END
 95
       32
302
GRIDFORMAT
  1
GRIDFORMAT_BEGIN
 90
        0
 91
        1
 62
     0
 92
       -2
340
0
 93
        0
 40
1.125
309
GRIDFORMAT_END
309
TABLEFORMAT_END
  1
CELLSTYLE_BEGIN
 90
        2
 91
        1
300
_HEADER
309
CELLSTYLE_END
300
CELLSTYLE
  1
TABLEFORMAT_BEGIN
 90
        5
170
     1
 91
        0
 92
        0
 62
   257
 93
        1
300
CONTENTFORMAT
  1
CONTENTFORMAT_BEGIN
 90
        0
 91
        0
 92
      512
 93
        0
300

 40
0.0
140
1.0
 94
        2
 62
     0
340
11
144
4.5
309
CONTENTFORMAT_END
171
     1
301
MARGIN
  1
CELLMARGIN_BEGIN
 40
1.5
 40
1.5
 40
1.5
 40
1.5
 40
4.5
 40
4.5
309
CELLMARGIN_END
 94
        6
 95
        1
302
GRIDFORMAT
  1
GRIDFORMAT_BEGIN
 90
        0
 91
        1
 62
     0
 92
       -2
340
0
 93
        0
 40
1.125
309
GRIDFORMAT_END
 95
        2
302
GRIDFORMAT
  1
GRIDFORMAT_BEGIN
 90
        0
 91
        1
 62
     0
 92
       -2
340
0
 93
        0
 40
1.125
309
GRIDFORMAT_END
 95
        4
302
GRIDFORMAT
  1
GRIDFORMAT_BEGIN
 90
        0
 91
        1
 62
     0
 92
       -2
340
0
 93
        0
 40
1.125
309
GRIDFORMAT_END
 95
        8
302
GRIDFORMAT
  1
GRIDFORMAT_BEGIN
 90
        0
 91
        1
 62
     0
 92
       -2
340
0
 93
        0
 40
1.125
309
GRIDFORMAT_END
 95
       16
302
GRIDFORMAT
  1
GRIDFORMAT_BEGIN
 90
        0
 91
        1
 62
     0
 92
       -2
340
0
 93
        0
 40
1.125
309
GRIDFORMAT_END
 95
       32
302
GRIDFORMAT
  1
GRIDFORMAT_BEGIN
 90
        0
 91
        1
 62
     0
 92
       -2
340
0
 93
        0
 40
1.125
309
GRIDFORMAT_END
309
TABLEFORMAT_END
  1
CELLSTYLE_BEGIN
 90
        3
 91
        2
300
_DATA
309
CELLSTYLE_END
  0
XRECORD
  5
1986
102
{ACAD_REACTORS
330
1937
102
}
330
1937
100
AcDbXrecord
280
     1
102
ACAD_ROUNDTRIP_PRE2007_TABLESTYLE
 90
      512
 91
        0
  1

 92
      512
 93
        0
  2

 94
      512
 95
        0
  3

  0
XRECORD
  5
196B
102
{ACAD_REACTORS
330
196A
102
}
330
196A
100
AcDbXrecord
280
     1
102
RTVSPropertyOp0
 70
     1
102
RTVSPropertyOp1
 70
     1
102
RTVSPropertyOp2
 70
     1
102
RTVSPropertyOp3
 70
     1
102
RTVSPropertyOp4
 70
     1
102
RTVSPropertyOp5
 70
     1
102
RTVSPropertyOp6
 70
     1
102
RTVSPropertyOp7
 70
     1
102
RTVSPropertyOp8
 70
     1
102
RTVSPropertyOp9
 70
     1
102
RTVSPropertyOp10
 70
     1
102
RTVSPropertyOp11
 70
     1
102
RTVSPropertyOp12
 70
     1
102
RTVSPropertyOp13
 70
     1
102
RTVSPropertyOp14
 70
     1
102
RTVSPropertyOp15
 70
     1
102
RTVSPropertyOp16
 70
     1
102
RTVSPropertyOp17
 70
     1
102
RTVSPropertyOp18
 70
     1
102
RTVSPropertyOp19
 70
     1
102
RTVSPropertyOp20
 70
     1
102
RTVSPropertyOp21
 70
     1
102
RTVSPropertyOp22
 70
     1
102
RTVSPropertyOp23
 70
     1
102
RTVSPropertyOp24
 70
     1
102
RTVSPropertyOp25
 70
     1
102
RTVSPropertyOp26
 70
     1
102
RTVSPropertyOp27
 70
     1
  0
XRECORD
  5
196F
102
{ACAD_REACTORS
330
196E
102
}
330
196E
100
AcDbXrecord
280
     1
102
RTVSPropertyOp0
 70
     1
102
RTVSPropertyOp1
 70
     1
102
RTVSPropertyOp2
 70
     1
102
RTVSPropertyOp3
 70
     1
102
RTVSPropertyOp4
 70
     1
102
RTVSPropertyOp5
 70
     1
102
RTVSPropertyOp6
 70
     1
102
RTVSPropertyOp7
 70
     1
102
RTVSPropertyOp8
 70
     1
102
RTVSPropertyOp9
 70
     1
102
RTVSPropertyOp10
 70
     1
102
RTVSPropertyOp11
 70
     1
102
RTVSPropertyOp12
 70
     1
102
RTVSPropertyOp13
 70
     1
102
RTVSPropertyOp14
 70
     1
102
RTVSPropertyOp15
 70
     1
102
RTVSPropertyOp16
 70
     1
102
RTVSPropertyOp17
 70
     1
102
RTVSPropertyOp18
 70
     1
102
RTVSPropertyOp19
 70
     1
102
RTVSPropertyOp20
 70
     1
102
RTVSPropertyOp21
 70
     1
102
RTVSPropertyOp22
 70
     1
102
RTVSPropertyOp23
 70
     1
102
RTVSPropertyOp24
 70
     1
102
RTVSPropertyOp25
 70
     1
102
RTVSPropertyOp26
 70
     1
102
RTVSPropertyOp27
 70
     1
  0
XRECORD
  5
196D
102
{ACAD_REACTORS
330
196C
102
}
330
196C
100
AcDbXrecord
280
     1
102
RTVSPropertyOp0
 70
     1
102
RTVSPropertyOp1
 70
     1
102
RTVSPropertyOp2
 70
     1
102
RTVSPropertyOp3
 70
     1
102
RTVSPropertyOp4
 70
     1
102
RTVSPropertyOp5
 70
     1
102
RTVSPropertyOp6
 70
     1
102
RTVSPropertyOp7
 70
     1
102
RTVSPropertyOp8
 70
     1
102
RTVSPropertyOp9
 70
     1
102
RTVSPropertyOp10
 70
     1
102
RTVSPropertyOp11
 70
     1
102
RTVSPropertyOp12
 70
     1
102
RTVSPropertyOp13
 70
     1
102
RTVSPropertyOp14
 70
     1
102
RTVSPropertyOp15
 70
     1
102
RTVSPropertyOp16
 70
     1
102
RTVSPropertyOp17
 70
     1
102
RTVSPropertyOp18
 70
     1
102
RTVSPropertyOp19
 70
     1
102
RTVSPropertyOp20
 70
     1
102
RTVSPropertyOp21
 70
     1
102
RTVSPropertyOp22
 70
     1
102
RTVSPropertyOp23
 70
     1
102
RTVSPropertyOp24
 70
     1
102
RTVSPropertyOp25
 70
     1
102
RTVSPropertyOp26
 70
     1
102
RTVSPropertyOp27
 70
     1
  0
XRECORD
  5
1969
102
{ACAD_REACTORS
330
1968
102
}
330
1968
100
AcDbXrecord
280
     1
102
RTVSPropertyOp0
 70
     1
102
RTVSPropertyOp1
 70
     1
102
RTVSPropertyOp2
 70
     1
102
RTVSPropertyOp3
 70
     1
102
RTVSPropertyOp4
 70
     1
102
RTVSPropertyOp5
 70
     1
102
RTVSPropertyOp6
 70
     1
102
RTVSPropertyOp7
 70
     1
102
RTVSPropertyOp8
 70
     1
102
RTVSPropertyOp9
 70
     1
102
RTVSPropertyOp10
 70
     1
102
RTVSPropertyOp11
 70
     1
102
RTVSPropertyOp12
 70
     1
102
RTVSPropertyOp13
 70
     1
102
RTVSPropertyOp14
 70
     1
102
RTVSPropertyOp15
 70
     1
102
RTVSPropertyOp16
 70
     1
102
RTVSPropertyOp17
 70
     1
102
RTVSPropertyOp18
 70
     1
102
RTVSPropertyOp19
 70
     1
102
RTVSPropertyOp20
 70
     1
102
RTVSPropertyOp21
 70
     1
102
RTVSPropertyOp22
 70
     1
102
RTVSPropertyOp23
 70
     1
102
RTVSPropertyOp24
 70
     1
102
RTVSPropertyOp25
 70
     1
102
RTVSPropertyOp26
 70
     1
102
RTVSPropertyOp27
 70
     1
  0
XRECORD
  5
1977
102
{ACAD_REACTORS
330
1976
102
}
330
1976
100
AcDbXrecord
280
     1
102
RTVSPropertyOp0
 70
     1
102
RTVSPropertyOp1
 70
     1
102
RTVSPropertyOp2
 70
     1
102
RTVSPropertyOp3
 70
     1
102
RTVSPropertyOp4
 70
     1
102
RTVSPropertyOp5
 70
     1
102
RTVSPropertyOp6
 70
     1
102
RTVSPropertyOp7
 70
     1
102
RTVSPropertyOp8
 70
     1
102
RTVSPropertyOp9
 70
     1
102
RTVSPropertyOp10
 70
     1
102
RTVSPropertyOp11
 70
     1
102
RTVSPropertyOp12
 70
     1
102
RTVSPropertyOp13
 70
     1
102
RTVSPropertyOp14
 70
     1
102
RTVSPropertyOp15
 70
     1
102
RTVSPropertyOp16
 70
     1
102
RTVSPropertyOp17
 70
     1
102
RTVSPropertyOp18
 70
     1
102
RTVSPropertyOp19
 70
     1
102
RTVSPropertyOp20
 70
     1
102
RTVSPropertyOp21
 70
     1
102
RTVSPropertyOp22
 70
     1
102
RTVSPropertyOp23
 70
     1
102
RTVSPropertyOp24
 70
     1
102
RTVSPropertyOp25
 70
     1
102
RTVSPropertyOp26
 70
     1
102
RTVSPropertyOp27
 70
     1
  0
XRECORD
  5
197F
102
{ACAD_REACTORS
330
197E
102
}
330
197E
100
AcDbXrecord
280
     1
102
RTVSPropertyOp0
 70
     1
102
RTVSPropertyOp1
 70
     1
102
RTVSPropertyOp2
 70
     1
102
RTVSPropertyOp3
 70
     1
102
RTVSPropertyOp4
 70
     1
102
RTVSPropertyOp5
 70
     1
102
RTVSPropertyOp6
 70
     1
102
RTVSPropertyOp7
 70
     1
102
RTVSPropertyOp8
 70
     1
102
RTVSPropertyOp9
 70
     1
102
RTVSPropertyOp10
 70
     1
102
RTVSPropertyOp11
 70
     1
102
RTVSPropertyOp12
 70
     1
102
RTVSPropertyOp13
 70
     1
102
RTVSPropertyOp14
 70
     1
102
RTVSPropertyOp15
 70
     1
102
RTVSPropertyOp16
 70
     1
102
RTVSPropertyOp17
 70
     1
102
RTVSPropertyOp18
 70
     1
102
RTVSPropertyOp19
 70
     1
102
RTVSPropertyOp20
 70
     1
102
RTVSPropertyOp21
 70
     1
102
RTVSPropertyOp22
 70
     1
102
RTVSPropertyOp23
 70
     1
102
RTVSPropertyOp24
 70
     1
102
RTVSPropertyOp25
 70
     1
102
RTVSPropertyOp26
 70
     1
102
RTVSPropertyOp27
 70
     1
  0
XRECORD
  5
1971
102
{ACAD_REACTORS
330
1970
102
}
330
1970
100
AcDbXrecord
280
     1
102
RTVSPropertyOp0
 70
     1
102
RTVSPropertyOp1
 70
     1
102
RTVSPropertyOp2
 70
     1
102
RTVSPropertyOp3
 70
     1
102
RTVSPropertyOp4
 70
     1
102
RTVSPropertyOp5
 70
     1
102
RTVSPropertyOp6
 70
     1
102
RTVSPropertyOp7
 70
     1
102
RTVSPropertyOp8
 70
     1
102
RTVSPropertyOp9
 70
     1
102
RTVSPropertyOp10
 70
     1
102
RTVSPropertyOp11
 70
     1
102
RTVSPropertyOp12
 70
     1
102
RTVSPropertyOp13
 70
     1
102
RTVSPropertyOp14
 70
     1
102
RTVSPropertyOp15
 70
     1
102
RTVSPropertyOp16
 70
     1
102
RTVSPropertyOp17
 70
     1
102
RTVSPropertyOp18
 70
     1
102
RTVSPropertyOp19
 70
     1
102
RTVSPropertyOp20
 70
     1
102
RTVSPropertyOp21
 70
     1
102
RTVSPropertyOp22
 70
     1
102
RTVSPropertyOp23
 70
     1
102
RTVSPropertyOp24
 70
     1
102
RTVSPropertyOp25
 70
     1
102
RTVSPropertyOp26
 70
     1
102
RTVSPropertyOp27
 70
     1
  0
XRECORD
  5
1975
102
{ACAD_REACTORS
330
1974
102
}
330
1974
100
AcDbXrecord
280
     1
102
RTVSPropertyOp0
 70
     1
102
RTVSPropertyOp1
 70
     1
102
RTVSPropertyOp2
 70
     1
102
RTVSPropertyOp3
 70
     1
102
RTVSPropertyOp4
 70
     1
102
RTVSPropertyOp5
 70
     1
102
RTVSPropertyOp6
 70
     1
102
RTVSPropertyOp7
 70
     1
102
RTVSPropertyOp8
 70
     1
102
RTVSPropertyOp9
 70
     1
102
RTVSPropertyOp10
 70
     1
102
RTVSPropertyOp11
 70
     1
102
RTVSPropertyOp12
 70
     1
102
RTVSPropertyOp13
 70
     1
102
RTVSPropertyOp14
 70
     1
102
RTVSPropertyOp15
 70
     1
102
RTVSPropertyOp16
 70
     1
102
RTVSPropertyOp17
 70
     1
102
RTVSPropertyOp18
 70
     1
102
RTVSPropertyOp19
 70
     1
102
RTVSPropertyOp20
 70
     1
102
RTVSPropertyOp21
 70
     1
102
RTVSPropertyOp22
 70
     1
102
RTVSPropertyOp23
 70
     1
102
RTVSPropertyOp24
 70
     1
102
RTVSPropertyOp25
 70
     1
102
RTVSPropertyOp26
 70
     1
102
RTVSPropertyOp27
 70
     1
  0
XRECORD
  5
1985
102
{ACAD_REACTORS
330
1984
102
}
330
1984
100
AcDbXrecord
280
     1
102
RTVSPropertyOp0
 70
     0
102
RTVSPropertyOp1
 70
     0
102
RTVSPropertyOp2
 70
     0
102
RTVSPropertyOp3
 70
     0
102
RTVSPropertyOp4
 70
     0
102
RTVSPropertyOp5
 70
     0
102
RTVSPropertyOp6
 70
     0
102
RTVSPropertyOp7
 70
     0
102
RTVSPropertyOp8
 70
     0
102
RTVSPropertyOp9
 70
     0
102
RTVSPropertyOp10
 70
     0
102
RTVSPropertyOp11
 70
     0
102
RTVSPropertyOp12
 70
     0
102
RTVSPropertyOp13
 70
     0
102
RTVSPropertyOp14
 70
     2
102
RTVSPropertyOp15
 70
     0
102
RTVSPropertyOp16
 70
     0
102
RTVSPropertyOp17
 70
     0
102
RTVSPropertyOp18
 70
     0
102
RTVSPropertyOp19
 70
     0
102
RTVSPropertyOp20
 70
     0
102
RTVSPropertyOp21
 70
     0
102
RTVSPropertyOp22
 70
     0
102
RTVSPropertyOp23
 70
     0
102
RTVSPropertyOp24
 70
     0
102
RTVSPropertyOp25
 70
     0
102
RTVSPropertyOp26
 70
     0
102
RTVSPropertyOp27
 70
     0
  0
XRECORD
  5
197D
102
{ACAD_REACTORS
330
197C
102
}
330
197C
100
AcDbXrecord
280
     1
102
RTVSPropertyOp0
 70
     1
102
RTVSPropertyOp1
 70
     1
102
RTVSPropertyOp2
 70
     1
102
RTVSPropertyOp3
 70
     1
102
RTVSPropertyOp4
 70
     1
102
RTVSPropertyOp5
 70
     1
102
RTVSPropertyOp6
 70
     1
102
RTVSPropertyOp7
 70
     1
102
RTVSPropertyOp8
 70
     1
102
RTVSPropertyOp9
 70
     1
102
RTVSPropertyOp10
 70
     1
102
RTVSPropertyOp11
 70
     1
102
RTVSPropertyOp12
 70
     1
102
RTVSPropertyOp13
 70
     1
102
RTVSPropertyOp14
 70
     1
102
RTVSPropertyOp15
 70
     1
102
RTVSPropertyOp16
 70
     1
102
RTVSPropertyOp17
 70
     1
102
RTVSPropertyOp18
 70
     1
102
RTVSPropertyOp19
 70
     1
102
RTVSPropertyOp20
 70
     1
102
RTVSPropertyOp21
 70
     1
102
RTVSPropertyOp22
 70
     1
102
RTVSPropertyOp23
 70
     1
102
RTVSPropertyOp24
 70
     1
102
RTVSPropertyOp25
 70
     1
102
RTVSPropertyOp26
 70
     1
102
RTVSPropertyOp27
 70
     1
  0
XRECORD
  5
1961
102
{ACAD_REACTORS
330
1960
102
}
330
1960
100
AcDbXrecord
280
     1
102
RTVSPropertyOp0
 70
     1
102
RTVSPropertyOp1
 70
     1
102
RTVSPropertyOp2
 70
     1
102
RTVSPropertyOp3
 70
     1
102
RTVSPropertyOp4
 70
     1
102
RTVSPropertyOp5
 70
     1
102
RTVSPropertyOp6
 70
     1
102
RTVSPropertyOp7
 70
     1
102
RTVSPropertyOp8
 70
     1
102
RTVSPropertyOp9
 70
     1
102
RTVSPropertyOp10
 70
     1
102
RTVSPropertyOp11
 70
     1
102
RTVSPropertyOp12
 70
     1
102
RTVSPropertyOp13
 70
     1
102
RTVSPropertyOp14
 70
     1
102
RTVSPropertyOp15
 70
     1
102
RTVSPropertyOp16
 70
     1
102
RTVSPropertyOp17
 70
     1
102
RTVSPropertyOp18
 70
     1
102
RTVSPropertyOp19
 70
     1
102
RTVSPropertyOp20
 70
     1
102
RTVSPropertyOp21
 70
     1
102
RTVSPropertyOp22
 70
     1
102
RTVSPropertyOp23
 70
     1
102
RTVSPropertyOp24
 70
     1
102
RTVSPropertyOp25
 70
     1
102
RTVSPropertyOp26
 70
     1
102
RTVSPropertyOp27
 70
     1
  0
XRECORD
  5
1963
102
{ACAD_REACTORS
330
1962
102
}
330
1962
100
AcDbXrecord
280
     1
102
RTVSPropertyOp0
 70
     1
102
RTVSPropertyOp1
 70
     1
102
RTVSPropertyOp2
 70
     1
102
RTVSPropertyOp3
 70
     1
102
RTVSPropertyOp4
 70
     1
102
RTVSPropertyOp5
 70
     1
102
RTVSPropertyOp6
 70
     1
102
RTVSPropertyOp7
 70
     1
102
RTVSPropertyOp8
 70
     1
102
RTVSPropertyOp9
 70
     1
102
RTVSPropertyOp10
 70
     1
102
RTVSPropertyOp11
 70
     1
102
RTVSPropertyOp12
 70
     1
102
RTVSPropertyOp13
 70
     1
102
RTVSPropertyOp14
 70
     1
102
RTVSPropertyOp15
 70
     1
102
RTVSPropertyOp16
 70
     1
102
RTVSPropertyOp17
 70
     1
102
RTVSPropertyOp18
 70
     1
102
RTVSPropertyOp19
 70
     1
102
RTVSPropertyOp20
 70
     1
102
RTVSPropertyOp21
 70
     1
102
RTVSPropertyOp22
 70
     1
102
RTVSPropertyOp23
 70
     1
102
RTVSPropertyOp24
 70
     1
102
RTVSPropertyOp25
 70
     1
102
RTVSPropertyOp26
 70
     1
102
RTVSPropertyOp27
 70
     1
  0
XRECORD
  5
1965
102
{ACAD_REACTORS
330
1964
102
}
330
1964
100
AcDbXrecord
280
     1
102
RTVSPropertyOp0
 70
     1
102
RTVSPropertyOp1
 70
     1
102
RTVSPropertyOp2
 70
     1
102
RTVSPropertyOp3
 70
     1
102
RTVSPropertyOp4
 70
     1
102
RTVSPropertyOp5
 70
     1
102
RTVSPropertyOp6
 70
     1
102
RTVSPropertyOp7
 70
     1
102
RTVSPropertyOp8
 70
     1
102
RTVSPropertyOp9
 70
     1
102
RTVSPropertyOp10
 70
     1
102
RTVSPropertyOp11
 70
     1
102
RTVSPropertyOp12
 70
     1
102
RTVSPropertyOp13
 70
     1
102
RTVSPropertyOp14
 70
     1
102
RTVSPropertyOp15
 70
     1
102
RTVSPropertyOp16
 70
     1
102
RTVSPropertyOp17
 70
     1
102
RTVSPropertyOp18
 70
     1
102
RTVSPropertyOp19
 70
     1
102
RTVSPropertyOp20
 70
     1
102
RTVSPropertyOp21
 70
     1
102
RTVSPropertyOp22
 70
     1
102
RTVSPropertyOp23
 70
     1
102
RTVSPropertyOp24
 70
     1
102
RTVSPropertyOp25
 70
     1
102
RTVSPropertyOp26
 70
     1
102
RTVSPropertyOp27
 70
     1
  0
XRECORD
  5
1967
102
{ACAD_REACTORS
330
1966
102
}
330
1966
100
AcDbXrecord
280
     1
102
RTVSPropertyOp0
 70
     1
102
RTVSPropertyOp1
 70
     1
102
RTVSPropertyOp2
 70
     1
102
RTVSPropertyOp3
 70
     1
102
RTVSPropertyOp4
 70
     1
102
RTVSPropertyOp5
 70
     1
102
RTVSPropertyOp6
 70
     1
102
RTVSPropertyOp7
 70
     1
102
RTVSPropertyOp8
 70
     1
102
RTVSPropertyOp9
 70
     1
102
RTVSPropertyOp10
 70
     1
102
RTVSPropertyOp11
 70
     1
102
RTVSPropertyOp12
 70
     1
102
RTVSPropertyOp13
 70
     1
102
RTVSPropertyOp14
 70
     1
102
RTVSPropertyOp15
 70
     1
102
RTVSPropertyOp16
 70
     1
102
RTVSPropertyOp17
 70
     1
102
RTVSPropertyOp18
 70
     1
102
RTVSPropertyOp19
 70
     1
102
RTVSPropertyOp20
 70
     1
102
RTVSPropertyOp21
 70
     1
102
RTVSPropertyOp22
 70
     1
102
RTVSPropertyOp23
 70
     1
102
RTVSPropertyOp24
 70
     1
102
RTVSPropertyOp25
 70
     1
102
RTVSPropertyOp26
 70
     1
102
RTVSPropertyOp27
 70
     1
  0
XRECORD
  5
1981
102
{ACAD_REACTORS
330
1980
102
}
330
1980
100
AcDbXrecord
280
     1
102
RTVSPropertyOp0
 70
     0
102
RTVSPropertyOp1
 70
     0
102
RTVSPropertyOp2
 70
     0
102
RTVSPropertyOp3
 70
     0
102
RTVSPropertyOp4
 70
     0
102
RTVSPropertyOp5
 70
     0
102
RTVSPropertyOp6
 70
     0
102
RTVSPropertyOp7
 70
     0
102
RTVSPropertyOp8
 70
     0
102
RTVSPropertyOp9
 70
     0
102
RTVSPropertyOp10
 70
     0
102
RTVSPropertyOp11
 70
     0
102
RTVSPropertyOp12
 70
     0
102
RTVSPropertyOp13
 70
     0
102
RTVSPropertyOp14
 70
     2
102
RTVSPropertyOp15
 70
     0
102
RTVSPropertyOp16
 70
     0
102
RTVSPropertyOp17
 70
     0
102
RTVSPropertyOp18
 70
     0
102
RTVSPropertyOp19
 70
     0
102
RTVSPropertyOp20
 70
     0
102
RTVSPropertyOp21
 70
     0
102
RTVSPropertyOp22
 70
     0
102
RTVSPropertyOp23
 70
     0
102
RTVSPropertyOp24
 70
     0
102
RTVSPropertyOp25
 70
     0
102
RTVSPropertyOp26
 70
     0
102
RTVSPropertyOp27
 70
     0
  0
XRECORD
  5
197B
102
{ACAD_REACTORS
330
197A
102
}
330
197A
100
AcDbXrecord
280
     1
102
RTVSPropertyOp0
 70
     1
102
RTVSPropertyOp1
 70
     1
102
RTVSPropertyOp2
 70
     1
102
RTVSPropertyOp3
 70
     1
102
RTVSPropertyOp4
 70
     1
102
RTVSPropertyOp5
 70
     1
102
RTVSPropertyOp6
 70
     1
102
RTVSPropertyOp7
 70
     1
102
RTVSPropertyOp8
 70
     1
102
RTVSPropertyOp9
 70
     1
102
RTVSPropertyOp10
 70
     1
102
RTVSPropertyOp11
 70
     1
102
RTVSPropertyOp12
 70
     1
102
RTVSPropertyOp13
 70
     1
102
RTVSPropertyOp14
 70
     1
102
RTVSPropertyOp15
 70
     1
102
RTVSPropertyOp16
 70
     1
102
RTVSPropertyOp17
 70
     1
102
RTVSPropertyOp18
 70
     1
102
RTVSPropertyOp19
 70
     1
102
RTVSPropertyOp20
 70
     1
102
RTVSPropertyOp21
 70
     1
102
RTVSPropertyOp22
 70
     1
102
RTVSPropertyOp23
 70
     1
102
RTVSPropertyOp24
 70
     1
102
RTVSPropertyOp25
 70
     1
102
RTVSPropertyOp26
 70
     1
102
RTVSPropertyOp27
 70
     1
  0
XRECORD
  5
1983
102
{ACAD_REACTORS
330
1982
102
}
330
1982
100
AcDbXrecord
280
     1
102
RTVSPropertyOp0
 70
     0
102
RTVSPropertyOp1
 70
     0
102
RTVSPropertyOp2
 70
     0
102
RTVSPropertyOp3
 70
     0
102
RTVSPropertyOp4
 70
     0
102
RTVSPropertyOp5
 70
     0
102
RTVSPropertyOp6
 70
     0
102
RTVSPropertyOp7
 70
     0
102
RTVSPropertyOp8
 70
     0
102
RTVSPropertyOp9
 70
     0
102
RTVSPropertyOp10
 70
     0
102
RTVSPropertyOp11
 70
     0
102
RTVSPropertyOp12
 70
     0
102
RTVSPropertyOp13
 70
     0
102
RTVSPropertyOp14
 70
     2
102
RTVSPropertyOp15
 70
     0
102
RTVSPropertyOp16
 70
     0
102
RTVSPropertyOp17
 70
     0
102
RTVSPropertyOp18
 70
     0
102
RTVSPropertyOp19
 70
     0
102
RTVSPropertyOp20
 70
     0
102
RTVSPropertyOp21
 70
     0
102
RTVSPropertyOp22
 70
     0
102
RTVSPropertyOp23
 70
     0
102
RTVSPropertyOp24
 70
     0
102
RTVSPropertyOp25
 70
     0
102
RTVSPropertyOp26
 70
     0
102
RTVSPropertyOp27
 70
     0
  0
XRECORD
  5
1973
102
{ACAD_REACTORS
330
1972
102
}
330
1972
100
AcDbXrecord
280
     1
102
RTVSPropertyOp0
 70
     1
102
RTVSPropertyOp1
 70
     1
102
RTVSPropertyOp2
 70
     1
102
RTVSPropertyOp3
 70
     1
102
RTVSPropertyOp4
 70
     1
102
RTVSPropertyOp5
 70
     1
102
RTVSPropertyOp6
 70
     1
102
RTVSPropertyOp7
 70
     1
102
RTVSPropertyOp8
 70
     1
102
RTVSPropertyOp9
 70
     1
102
RTVSPropertyOp10
 70
     1
102
RTVSPropertyOp11
 70
     1
102
RTVSPropertyOp12
 70
     1
102
RTVSPropertyOp13
 70
     1
102
RTVSPropertyOp14
 70
     1
102
RTVSPropertyOp15
 70
     1
102
RTVSPropertyOp16
 70
     1
102
RTVSPropertyOp17
 70
     1
102
RTVSPropertyOp18
 70
     1
102
RTVSPropertyOp19
 70
     1
102
RTVSPropertyOp20
 70
     1
102
RTVSPropertyOp21
 70
     1
102
RTVSPropertyOp22
 70
     1
102
RTVSPropertyOp23
 70
     1
102
RTVSPropertyOp24
 70
     1
102
RTVSPropertyOp25
 70
     1
102
RTVSPropertyOp26
 70
     1
102
RTVSPropertyOp27
 70
     1
  0
XRECORD
  5
1979
102
{ACAD_REACTORS
330
1978
102
}
330
1978
100
AcDbXrecord
280
     1
102
RTVSPropertyOp0
 70
     1
102
RTVSPropertyOp1
 70
     1
102
RTVSPropertyOp2
 70
     1
102
RTVSPropertyOp3
 70
     1
102
RTVSPropertyOp4
 70
     1
102
RTVSPropertyOp5
 70
     1
102
RTVSPropertyOp6
 70
     1
102
RTVSPropertyOp7
 70
     1
102
RTVSPropertyOp8
 70
     1
102
RTVSPropertyOp9
 70
     1
102
RTVSPropertyOp10
 70
     1
102
RTVSPropertyOp11
 70
     1
102
RTVSPropertyOp12
 70
     1
102
RTVSPropertyOp13
 70
     1
102
RTVSPropertyOp14
 70
     1
102
RTVSPropertyOp15
 70
     1
102
RTVSPropertyOp16
 70
     1
102
RTVSPropertyOp17
 70
     1
102
RTVSPropertyOp18
 70
     1
102
RTVSPropertyOp19
 70
     1
102
RTVSPropertyOp20
 70
     1
102
RTVSPropertyOp21
 70
     1
102
RTVSPropertyOp22
 70
     1
102
RTVSPropertyOp23
 70
     1
102
RTVSPropertyOp24
 70
     1
102
RTVSPropertyOp25
 70
     1
102
RTVSPropertyOp26
 70
     1
102
RTVSPropertyOp27
 70
     1
  0
ENDSEC
  0
EOF
