  0
SECTION
  2
HEADER
  9
$ACADVER
  1
AC1015
  9
$ACADMAINTVER
 70
    20
  9
$DWGCODEPAGE
  3
ANSI_1252
  9
$INSBASE
 10
0.0
 20
0.0
 30
0.0
  9
$EXTMIN
 10
90.90469639348917
 20
1437.624807770316
 30
0.0
  9
$EXTMAX
 10
95.29750103137645
 20
1438.154807770316
 30
0.0
  9
$LIMMIN
 10
0.0
 20
0.0
  9
$LIMMAX
 10
420.0
 20
297.0
  9
$ORTHOMODE
 70
     1
  9
$REGENMODE
 70
     1
  9
$FILLMODE
 70
     1
  9
$QTEXTMODE
 70
     0
  9
$MIRRTEXT
 70
     1
  9
$LTSCALE
 40
1.0
  9
$ATTMODE
 70
     1
  9
$TEXTSIZE
 40
2.5
  9
$TRACEWID
 40
1.0
  9
$TEXTSTYLE
  7
SANINDUSA
  9
$CLAYER
  8
0
  9
$CELTYPE
  6
ByLayer
  9
$CECOLOR
 62
   256
  9
$CELTSCALE
 40
1.0
  9
$DISPSILH
 70
     0
  9
$DIMSCALE
 40
1.0
  9
$DIMASZ
 40
2.0
  9
$DIMEXO
 40
1.0
  9
$DIMDLI
 40
1.0
  9
$DIMRND
 40
0.0
  9
$DIMDLE
 40
0.0
  9
$DIMEXE
 40
1.0
  9
$DIMTP
 40
0.0
  9
$DIMTM
 40
0.0
  9
$DIMTXT
 40
2.0
  9
$DIMCEN
 40
0.0
  9
$DIMTSZ
 40
0.0
  9
$DIMTOL
 70
     0
  9
$DIMLIM
 70
     0
  9
$DIMTIH
 70
     0
  9
$DIMTOH
 70
     0
  9
$DIMSE1
 70
     0
  9
$DIMSE2
 70
     0
  9
$DIMTAD
 70
     1
  9
$DIMZIN
 70
     8
  9
$DIMBLK
  1

  9
$DIMASO
 70
     1
  9
$DIMSHO
 70
     1
  9
$DIMPOST
  1

  9
$DIMAPOST
  1

  9
$DIMALT
 70
     0
  9
$DIMALTD
 70
     3
  9
$DIMALTF
 40
0.03937007874016
  9
$DIMLFAC
 40
1.0
  9
$DIMTOFL
 70
     1
  9
$DIMTVP
 40
0.0
  9
$DIMTIX
 70
     0
  9
$DIMSOXD
 70
     0
  9
$DIMSAH
 70
     0
  9
$DIMBLK1
  1

  9
$DIMBLK2
  1

  9
$DIMSTYLE
  2
SANINDUSA
  9
$DIMCLRD
 70
   256
  9
$DIMCLRE
 70
   256
  9
$DIMCLRT
 70
   256
  9
$DIMTFAC
 40
1.0
  9
$DIMGAP
 40
1.0
  9
$DIMJUST
 70
     0
  9
$DIMSD1
 70
     0
  9
$DIMSD2
 70
     0
  9
$DIMTOLJ
 70
     0
  9
$DIMTZIN
 70
     8
  9
$DIMALTZ
 70
     0
  9
$DIMALTTZ
 70
     0
  9
$DIMUPT
 70
     0
  9
$DIMDEC
 70
     1
  9
$DIMTDEC
 70
     1
  9
$DIMALTU
 70
     2
  9
$DIMALTTD
 70
     3
  9
$DIMTXSTY
  7
SANINDUSA
  9
$DIMAUNIT
 70
     0
  9
$DIMADEC
 70
     1
  9
$DIMALTRND
 40
0.0
  9
$DIMAZIN
 70
     0
  9
$DIMDSEP
 70
    44
  9
$DIMATFIT
 70
     3
  9
$DIMFRAC
 70
     0
  9
$DIMLDRBLK
  1

  9
$DIMLUNIT
 70
     2
  9
$DIMLWD
 70
    -1
  9
$DIMLWE
 70
    -1
  9
$DIMTMOVE
 70
     0
  9
$LUNITS
 70
     2
  9
$LUPREC
 70
     4
  9
$SKETCHINC
 40
1.0
  9
$FILLETRAD
 40
3.0
  9
$AUNITS
 70
     0
  9
$AUPREC
 70
     0
  9
$MENU
  1
.
  9
$ELEVATION
 40
0.0
  9
$PELEVATION
 40
0.0
  9
$THICKNESS
 40
0.0
  9
$LIMCHECK
 70
     0
  9
$CHAMFERA
 40
10.0
  9
$CHAMFERB
 40
10.0
  9
$CHAMFERC
 40
20.0
  9
$CHAMFERD
 40
0.0
  9
$SKPOLY
 70
     0
  9
$TDCREATE
 40
2453501.450970231
  9
$TDUCREATE
 40
2453501.409303565
  9
$TDUPDATE
 40
2456149.572405776
  9
$TDUUPDATE
 40
2456149.530739109
  9
$TDINDWG
 40
0.0036183449
  9
$TDUSRTIMER
 40
0.0036183449
  9
$USRTIMER
 70
     1
  9
$ANGBASE
 50
0.0
  9
$ANGDIR
 70
     0
  9
$PDMODE
 70
     0
  9
$PDSIZE
 40
0.0
  9
$PLINEWID
 40
0.0
  9
$SPLFRAME
 70
     0
  9
$SPLINETYPE
 70
     6
  9
$SPLINESEGS
 70
     8
  9
$HANDSEED
  5
1CD1
  9
$SURFTAB1
 70
     6
  9
$SURFTAB2
 70
     6
  9
$SURFTYPE
 70
     6
  9
$SURFU
 70
     6
  9
$SURFV
 70
     6
  9
$UCSBASE
  2

  9
$UCSNAME
  2

  9
$UCSORG
 10
0.0
 20
0.0
 30
0.0
  9
$UCSXDIR
 10
1.0
 20
0.0
 30
0.0
  9
$UCSYDIR
 10
0.0
 20
1.0
 30
0.0
  9
$UCSORTHOREF
  2

  9
$UCSORTHOVIEW
 70
     0
  9
$UCSORGTOP
 10
0.0
 20
0.0
 30
0.0
  9
$UCSORGBOTTOM
 10
0.0
 20
0.0
 30
0.0
  9
$UCSORGLEFT
 10
0.0
 20
0.0
 30
0.0
  9
$UCSORGRIGHT
 10
0.0
 20
0.0
 30
0.0
  9
$UCSORGFRONT
 10
0.0
 20
0.0
 30
0.0
  9
$UCSORGBACK
 10
0.0
 20
0.0
 30
0.0
  9
$PUCSBASE
  2

  9
$PUCSNAME
  2

  9
$PUCSORG
 10
0.0
 20
0.0
 30
0.0
  9
$PUCSXDIR
 10
1.0
 20
0.0
 30
0.0
  9
$PUCSYDIR
 10
0.0
 20
1.0
 30
0.0
  9
$PUCSORTHOREF
  2

  9
$PUCSORTHOVIEW
 70
     0
  9
$PUCSORGTOP
 10
0.0
 20
0.0
 30
0.0
  9
$PUCSORGBOTTOM
 10
0.0
 20
0.0
 30
0.0
  9
$PUCSORGLEFT
 10
0.0
 20
0.0
 30
0.0
  9
$PUCSORGRIGHT
 10
0.0
 20
0.0
 30
0.0
  9
$PUCSORGFRONT
 10
0.0
 20
0.0
 30
0.0
  9
$PUCSORGBACK
 10
0.0
 20
0.0
 30
0.0
  9
$USERI1
 70
     0
  9
$USERI2
 70
     0
  9
$USERI3
 70
     0
  9
$USERI4
 70
     0
  9
$USERI5
 70
     0
  9
$USERR1
 40
0.0
  9
$USERR2
 40
0.0
  9
$USERR3
 40
0.0
  9
$USERR4
 40
0.0
  9
$USERR5
 40
0.0
  9
$WORLDVIEW
 70
     1
  9
$SHADEDGE
 70
     3
  9
$SHADEDIF
 70
    70
  9
$TILEMODE
 70
     1
  9
$MAXACTVP
 70
    64
  9
$PINSBASE
 10
0.0
 20
0.0
 30
0.0
  9
$PLIMCHECK
 70
     0
  9
$PEXTMIN
 10
1.000000000000000E+20
 20
1.000000000000000E+20
 30
1.000000000000000E+20
  9
$PEXTMAX
 10
-1.000000000000000E+20
 20
-1.000000000000000E+20
 30
-1.000000000000000E+20
  9
$PLIMMIN
 10
0.0
 20
0.0
  9
$PLIMMAX
 10
420.0
 20
297.0
  9
$UNITMODE
 70
     0
  9
$VISRETAIN
 70
     1
  9
$PLINEGEN
 70
     0
  9
$PSLTSCALE
 70
     1
  9
$TREEDEPTH
 70
  3020
  9
$CMLSTYLE
  2
Standard
  9
$CMLJUST
 70
     0
  9
$CMLSCALE
 40
20.0
  9
$PROXYGRAPHICS
 70
     1
  9
$MEASUREMENT
 70
     1
  9
$CELWEIGHT
370
    -1
  9
$ENDCAPS
280
     0
  9
$JOINSTYLE
280
     0
  9
$LWDISPLAY
290
     0
  9
$INSUNITS
 70
     4
  9
$HYPERLINKBASE
  1

  9
$STYLESHEET
  1
monochrome.ctb
  9
$XEDIT
290
     1
  9
$CEPSNTYPE
380
     0
  9
$PSTYLEMODE
290
     1
  9
$FINGERPRINTGUID
  2
{B98A73AA-52AA-4C10-B469-C0E7150AC31F}
  9
$VERSIONGUID
  2
{121924AD-1BBF-4F4D-B2B4-43E20DBC600F}
  9
$EXTNAMES
290
     1
  9
$PSVPSCALE
 40
0.0
  9
$OLESTARTUP
290
     0
  0
ENDSEC
  0
SECTION
  2
CLASSES
  0
CLASS
  1
ACDBDICTIONARYWDFLT
  2
AcDbDictionaryWithDefault
  3
ObjectDBX Classes
 90
        0
280
     0
281
     0
  0
CLASS
  1
ACDBPLACEHOLDER
  2
AcDbPlaceHolder
  3
ObjectDBX Classes
 90
        0
280
     0
281
     0
  0
CLASS
  1
LAYOUT
  2
AcDbLayout
  3
ObjectDBX Classes
 90
        0
280
     0
281
     0
  0
CLASS
  1
DICTIONARYVAR
  2
AcDbDictionaryVar
  3
ObjectDBX Classes
 90
        0
280
     0
281
     0
  0
CLASS
  1
DIMASSOC
  2
AcDbDimAssoc
  3
"AcDbDimAssoc|Product Desc:     AcDim ARX App For Dimension|Company:          Autodesk, Inc.|WEB Address:      www.autodesk.com"
 90
    32768
280
     0
281
     0
  0
CLASS
  1
MATERIAL
  2
AcDbMaterial
  3
ObjectDBX Classes
 90
     1153
280
     0
281
     0
  0
CLASS
  1
VISUALSTYLE
  2
AcDbVisualStyle
  3
ObjectDBX Classes
 90
     4095
280
     0
281
     0
  0
CLASS
  1
TABLESTYLE
  2
AcDbTableStyle
  3
ObjectDBX Classes
 90
     4095
280
     0
281
     0
  0
CLASS
  1
SCALE
  2
AcDbScale
  3
ObjectDBX Classes
 90
     1153
280
     0
281
     0
  0
CLASS
  1
MLEADERSTYLE
  2
AcDbMLeaderStyle
  3
ACDB_MLEADERSTYLE_CLASS
 90
     4095
280
     0
281
     0
  0
CLASS
  1
CELLSTYLEMAP
  2
AcDbCellStyleMap
  3
ObjectDBX Classes
 90
     1152
280
     0
281
     0
  0
ENDSEC
  0
SECTION
  2
TABLES
  0
TABLE
  2
VPORT
  5
8
330
0
100
AcDbSymbolTable
 70
     1
  0
VPORT
  5
1C15
330
8
100
AcDbSymbolTableRecord
100
AcDbViewportTableRecord
  2
*Active
 70
     0
 10
0.0
 20
0.0
 11
1.0
 21
1.0
 12
93.32588811867021
 22
1437.559958734353
 13
0.0
 23
0.0
 14
10.0
 24
10.0
 15
10.0
 25
10.0
 16
0.0
 26
0.0
 36
1.0
 17
0.0
 27
0.0
 37
0.0
 40
3.546100703168824
 41
1.645464025026068
 42
50.0
 43
0.0
 44
0.0
 50
0.0
 51
0.0
 71
     0
 72
   100
 73
     1
 74
     2
 75
     0
 76
     0
 77
     0
 78
     0
281
     0
 65
     1
110
0.0
120
0.0
130
0.0
111
1.0
121
0.0
131
0.0
112
0.0
122
1.0
132
0.0
 79
     0
146
0.0
  0
ENDTAB
  0
TABLE
  2
LTYPE
  5
5
330
0
100
AcDbSymbolTable
 70
     3
  0
LTYPE
  5
14
330
5
100
AcDbSymbolTableRecord
100
AcDbLinetypeTableRecord
  2
ByBlock
 70
     0
  3

 72
    65
 73
     0
 40
0.0
  0
LTYPE
  5
15
330
5
100
AcDbSymbolTableRecord
100
AcDbLinetypeTableRecord
  2
ByLayer
 70
     0
  3

 72
    65
 73
     0
 40
0.0
  0
LTYPE
  5
16
330
5
100
AcDbSymbolTableRecord
100
AcDbLinetypeTableRecord
  2
Continuous
 70
     0
  3
Solid line
 72
    65
 73
     0
 40
0.0
  0
LTYPE
  5
2D
330
5
100
AcDbSymbolTableRecord
100
AcDbLinetypeTableRecord
  2
DASHDOT
 70
     0
  3
Dash dot __ . __ . __ . __ . __ . __ . __ . __
 72
    65
 73
     4
 40
25.4
 49
12.7
 74
     0
 49
-6.349999999999999
 74
     0
 49
0.0
 74
     0
 49
-6.349999999999999
 74
     0
  0
LTYPE
  5
2E
330
5
100
AcDbSymbolTableRecord
100
AcDbLinetypeTableRecord
  2
HIDDEN
 70
     0
  3
Hidden __ __ __ __ __ __ __ __ __ __ __ __ __ _
 72
    65
 73
     2
 40
9.524999999999998
 49
6.349999999999999
 74
     0
 49
-3.174999999999999
 74
     0
  0
ENDTAB
  0
TABLE
  2
LAYER
  5
2
330
0
100
AcDbSymbolTable
 70
    16
  0
LAYER
  5
10
102
{ACAD_XDICTIONARY
360
1C60
102
}
330
2
100
AcDbSymbolTableRecord
100
AcDbLayerTableRecord
  2
0
 70
     0
 62
     7
  6
Continuous
370
    -3
390
F
  0
LAYER
  5
2F
102
{ACAD_XDICTIONARY
360
1C62
102
}
330
2
100
AcDbSymbolTableRecord
100
AcDbLayerTableRecord
  2
1
 70
     0
 62
     1
  6
Continuous
370
    -3
390
F
  0
LAYER
  5
30
102
{ACAD_XDICTIONARY
360
1C64
102
}
330
2
100
AcDbSymbolTableRecord
100
AcDbLayerTableRecord
  2
2
 70
     0
 62
     2
  6
Continuous
370
    -3
390
F
  0
LAYER
  5
31
102
{ACAD_XDICTIONARY
360
1C66
102
}
330
2
100
AcDbSymbolTableRecord
100
AcDbLayerTableRecord
  2
3
 70
     0
 62
     3
  6
Continuous
370
    -3
390
F
  0
LAYER
  5
32
102
{ACAD_XDICTIONARY
360
1C68
102
}
330
2
100
AcDbSymbolTableRecord
100
AcDbLayerTableRecord
  2
4
 70
     0
 62
     4
  6
Continuous
370
    -3
390
F
  0
LAYER
  5
33
102
{ACAD_XDICTIONARY
360
1C6A
102
}
330
2
100
AcDbSymbolTableRecord
100
AcDbLayerTableRecord
  2
5
 70
     0
 62
     5
  6
Continuous
370
    -3
390
F
  0
LAYER
  5
34
102
{ACAD_XDICTIONARY
360
1C6C
102
}
330
2
100
AcDbSymbolTableRecord
100
AcDbLayerTableRecord
  2
6
 70
     0
 62
     6
  6
Continuous
370
    -3
390
F
  0
LAYER
  5
35
102
{ACAD_XDICTIONARY
360
1C6E
102
}
330
2
100
AcDbSymbolTableRecord
100
AcDbLayerTableRecord
  2
7
 70
     0
 62
     7
  6
Continuous
370
    -3
390
F
  0
LAYER
  5
36
102
{ACAD_XDICTIONARY
360
1C70
102
}
330
2
100
AcDbSymbolTableRecord
100
AcDbLayerTableRecord
  2
cen
 70
     0
 62
     7
  6
DASHDOT
370
    -3
390
F
  0
LAYER
  5
37
102
{ACAD_XDICTIONARY
360
1C72
102
}
330
2
100
AcDbSymbolTableRecord
100
AcDbLayerTableRecord
  2
hid
 70
     0
 62
     7
  6
HIDDEN
370
    -3
390
F
  0
LAYER
  5
5D6
102
{ACAD_XDICTIONARY
360
1C74
102
}
330
2
100
AcDbSymbolTableRecord
100
AcDbLayerTableRecord
  2
hatch
 70
     0
 62
     9
  6
Continuous
370
    -3
390
F
  0
LAYER
  5
8AF
102
{ACAD_XDICTIONARY
360
1C76
102
}
330
2
100
AcDbSymbolTableRecord
100
AcDbLayerTableRecord
  2
9
 70
     0
 62
     9
  6
Continuous
370
    -3
390
F
  0
LAYER
  5
8F8
102
{ACAD_XDICTIONARY
360
1C78
102
}
330
2
100
AcDbSymbolTableRecord
100
AcDbLayerTableRecord
  2
leg fin
 70
     0
 62
     9
  6
Continuous
370
    -3
390
F
  0
LAYER
  5
91D
102
{ACAD_XDICTIONARY
360
1C7A
102
}
330
2
100
AcDbSymbolTableRecord
100
AcDbLayerTableRecord
  2
cotas
 70
     0
 62
     1
  6
Continuous
370
    -3
390
F
  0
LAYER
  5
92F
330
2
100
AcDbSymbolTableRecord
100
AcDbLayerTableRecord
  2
Defpoints
 70
     0
 62
     7
  6
Continuous
290
     0
370
    -3
390
F
  0
LAYER
  5
BA5
102
{ACAD_XDICTIONARY
360
1C7C
102
}
330
2
100
AcDbSymbolTableRecord
100
AcDbLayerTableRecord
  2
SANINDUSA
 70
     0
 62
     3
  6
Continuous
370
    -3
390
F
  0
ENDTAB
  0
TABLE
  2
STYLE
  5
3
330
0
100
AcDbSymbolTable
 70
     3
  0
STYLE
  5
11
330
3
100
AcDbSymbolTableRecord
100
AcDbTextStyleTableRecord
  2
Standard
 70
     0
 40
0.0
 41
1.0
 50
0.0
 71
     0
 42
2.5
  3
Avgardn.ttf
  4

1001
ACAD
1000
AvantGarde Bk BT
1071
       34
  0
STYLE
  5
2C
330
3
100
AcDbSymbolTableRecord
100
AcDbTextStyleTableRecord
  2

 70
     1
 40
0.0
 41
1.0
 50
0.0
 71
     0
 42
2.5
  3
ltypeshp.shx
  4

  0
STYLE
  5
91F
330
3
100
AcDbSymbolTableRecord
100
AcDbTextStyleTableRecord
  2
SANINDUSA
 70
     0
 40
0.0
 41
1.0
 50
0.0
 71
     0
 42
2.5
  3
verdana.TTF
  4

1001
ACAD
1000
Verdana
1071
       34
  0
ENDTAB
  0
TABLE
  2
VIEW
  5
6
330
0
100
AcDbSymbolTable
 70
     0
  0
ENDTAB
  0
TABLE
  2
UCS
  5
7
330
0
100
AcDbSymbolTable
 70
     0
  0
ENDTAB
  0
TABLE
  2
APPID
  5
9
330
0
100
AcDbSymbolTable
 70
     3
  0
APPID
  5
12
330
9
100
AcDbSymbolTableRecord
100
AcDbRegAppTableRecord
  2
ACAD
 70
     0
  0
APPID
  5
3A
330
9
100
AcDbSymbolTableRecord
100
AcDbRegAppTableRecord
  2
DCO15
 70
     0
  0
APPID
  5
1CD0
330
9
100
AcDbSymbolTableRecord
100
AcDbRegAppTableRecord
  2
ACAD_MLEADERVER
 70
     0
  0
ENDTAB
  0
TABLE
  2
DIMSTYLE
  5
A
330
0
100
AcDbSymbolTable
 70
     2
100
AcDbDimStyleTable
 71
     1
340
921
  0
DIMSTYLE
105
45
330
A
100
AcDbSymbolTableRecord
100
AcDbDimStyleTableRecord
  2
STANDARD
 70
     0
289
     0
340
11
  0
DIMSTYLE
105
921
330
A
100
AcDbSymbolTableRecord
100
AcDbDimStyleTableRecord
  2
SANINDUSA
 70
     0
 41
2.0
 42
1.0
 43
1.0
 44
1.0
 73
     0
 74
     0
 77
     1
 78
     8
140
2.0
141
0.0
143
0.03937007874016
147
1.0
171
     3
172
     1
176
   256
177
   256
178
   256
179
     1
271
     1
272
     1
274
     3
278
    44
283
     0
284
     8
340
91F
371
    -1
372
    -1
  0
ENDTAB
  0
TABLE
  2
BLOCK_RECORD
  5
1
330
0
100
AcDbSymbolTable
 70
   114
  0
BLOCK_RECORD
  5
1F
330
1
100
AcDbSymbolTableRecord
100
AcDbBlockTableRecord
  2
*Model_Space
340
22
  0
BLOCK_RECORD
  5
1B
330
1
100
AcDbSymbolTableRecord
100
AcDbBlockTableRecord
  2
*Paper_Space
340
1E
  0
BLOCK_RECORD
  5
23
330
1
100
AcDbSymbolTableRecord
100
AcDbBlockTableRecord
  2
*Paper_Space0
340
26
  0
BLOCK_RECORD
  5
919
330
1
100
AcDbSymbolTableRecord
100
AcDbBlockTableRecord
  2
_DotSmall
340
0
  0
BLOCK_RECORD
  5
922
330
1
100
AcDbSymbolTableRecord
100
AcDbBlockTableRecord
  2
base para cotas
340
0
310
2800000020000000200000000100080000000000000400000000000000000000000000000000000000000000000080000080000000808000800000008000800080800000C0C0C000C0DCC000F0CAA6000020400000206000002080000020A0000020C0000020E00000400000004020000040400000406000004080000040A0
310
000040C0000040E00000600000006020000060400000606000006080000060A0000060C0000060E00000800000008020000080400000806000008080000080A0000080C0000080E00000A0000000A0200000A0400000A0600000A0800000A0A00000A0C00000A0E00000C0000000C0200000C0400000C0600000C0800000C0
310
A00000C0C00000C0E00000E0000000E0200000E0400000E0600000E0800000E0A00000E0C00000E0E00040000000400020004000400040006000400080004000A0004000C0004000E00040200000402020004020400040206000402080004020A0004020C0004020E000404000004040200040404000404060004040800040
310
40A0004040C0004040E00040600000406020004060400040606000406080004060A0004060C0004060E00040800000408020004080400040806000408080004080A0004080C0004080E00040A0000040A0200040A0400040A0600040A0800040A0A00040A0C00040A0E00040C0000040C0200040C0400040C0600040C08000
310
40C0A00040C0C00040C0E00040E0000040E0200040E0400040E0600040E0800040E0A00040E0C00040E0E00080000000800020008000400080006000800080008000A0008000C0008000E00080200000802020008020400080206000802080008020A0008020C0008020E00080400000804020008040400080406000804080
310
008040A0008040C0008040E00080600000806020008060400080606000806080008060A0008060C0008060E00080800000808020008080400080806000808080008080A0008080C0008080E00080A0000080A0200080A0400080A0600080A0800080A0A00080A0C00080A0E00080C0000080C0200080C0400080C0600080C0
310
800080C0A00080C0C00080C0E00080E0000080E0200080E0400080E0600080E0800080E0A00080E0C00080E0E000C0000000C0002000C0004000C0006000C0008000C000A000C000C000C000E000C0200000C0202000C0204000C0206000C0208000C020A000C020C000C020E000C0400000C0402000C0404000C0406000C0
310
408000C040A000C040C000C040E000C0600000C0602000C0604000C0606000C0608000C060A000C060C000C060E000C0800000C0802000C0804000C0806000C0808000C080A000C080C000C080E000C0A00000C0A02000C0A04000C0A06000C0A08000C0A0A000C0A0C000C0A0E000C0C00000C0C02000C0C04000C0C06000
310
C0C08000C0C0A000F0FBFF00A4A0A000808080000000FF0000FF000000FFFF00FF000000FF00FF00FFFF0000FFFFFF00A4A4A4A4A4A4A4A4A4A4A4A4A4A4A4A4A4A4A4A4A4A4A4A4A4A4A4A4A4A4A4A4A4A4A4A4A4A4A4A4A4A4A4A4A4A4A4A4A4A4A4A4A4A4A4A4A4A4A4A4A4A4A4A4A4A4A4A4A4A4A4A4A4A4A4A4A4A4A4
310
A4A4A4A4A4A4A4A4A4A4A4A4A4A4A4A4A4A4A4A4A4A4A4A4A4A4A4A4A4A4A4A4A4A4A4A4A4A4A4A4A4A4A4A4A4A4A4A4A4A4A4A4A4A4A4A4A4A4A4A4A4A4A4A4A4A4A4A4A4A4A4A4A4A4A4A4A4A4A4A4A4A4A4A4A4A4A4A4A4A4A4A4A4A4A4A4A4A4A4A4A4A4A4A4A4A4A4A4A4A4A4A4A4A4A4A4A4A4A4A4A4A4A4A4A4A4A4
310
A4A4A4A4A4A4A4A4A4A4A4A4A4A4A4A4A4A4A4A4A4A4A4A4A4A4A4A4A4A4A4A4A4A4A4A4A4A4A4A4A4A4A4A4A4A4A4A4A4A4A4A4A4A4A4A4A4A4A4A4A4A4A4A4A4A4A4A4A4A4A4A4A4A4A4A4A4A4A4A4A4A4A4A4A4A4A4A4A4A4A4A4A4A4A4A4A4A4A4A4A4A4A4A4A4A4A4A4A4A4A4A4A4A4A4A4A4A4A4A4A4A4A4A4A4A4A4
310
A4A4A4A4A4A4A4A4A4A4A4A4A4A4A4A4A4A4A4A4A4A4A4A4A4A4A4A4A4A4A4A4A4A4A4A4A4A4A4A4A4A4A4A4A4A4A4A4A4A4A4A4A4A4A4A4A4A4A4A4A4A4A4A4A4A4A4A4A4A4A4A4A4A4A4A4A4A4A4A4A4A4A4A4A4A4A4A4A4A4A4A4A4A4A4A4A4A4A4A4A4A4A4A4A4A4A4A4A4A4A4A4A4A4A4A4F9F9F9F9F9F9F9F9F9F9F9
310
F9F9F9F9F9F9F9F9F9F9F9F9F9F9F9F9F9F9F9A4A4F9F9F9F9F9F9F9F9F9F9F9F9F9F9F9F9F9F9F9F9F9F9F9F9F9F9F9F9F9F9A4A4F9F9F9F9F9F9F9F9F9F9F9F9F9F9F9F9F9F9F9F9F9F9F9F9F9F9F9F9F9F9A4A4F9A4A4A4A4A4A4A4A4A4A4A4A4A4A4A4A4A4A4A4A4A4A4A4A4A4A4A4A4F9A4A4A4A4A4A4A4A4A4A4A4A4
310
A4A4A4A4A4A4A4A4A4A4A4A4A4A4A4A4A4A4A4A4A4A4A4A4A4A4A4A4A4A4A4A4A4A4A4A4A4A4A4A4A4A4A4A4A4A4A4A4A4A4A4A4A4A4A4A4A4A4A4A4A4A4A4A4A4A4A4A4A4A4A4A4A4A4A4A4A4A4A4A4A4A4A4A4A4A4A4A4A4A4A4A4A4A4A4A4A4A4A4A4A4A4A4A4A4A4A4A4A4A4A4A4A4A4A4A4A4A4A4A4A4A4A4A4A4A4A4
310
A4A4A4A4A4A4A4A4A4A4A4A4A4A4A4A4A4A4A4A4A4A4A4A4A4A4A4A4A4A4A4A4A4A4A4A4A4A4A4A4A4A4A4A4A4A4A4A4A4A4A4A4A4A4A4A4A4A4A4A4A4A4A4A4A4A4A4A4A4A4A4A4A4A4A4A4A4A4A4A4A4A4A4A4A4A4A4A4A4A4A4A4A4A4A4A4A4A4A4A4A4A4A4A4A4A4A4A4A4A4A4A4A4A4A4A4A4A4A4A4A4A4A4A4A4A4A4
310
A4A4A4A4A4A4A4A4A4A4A4A4A4A4A4A4A4A4A4A4A4A4A4A4A4A4A4A4A4A4A4A4A4A4A4A4A4A4A4A4A4A4A4A4A4A4A4A4A4A4A4A4A4A4A4A4A4A4A4A4A4A4A4A4A4A4A4A4A4A4A4A4A4A4A4A4A4A4A4A4A4A4A4A4A4A4A4A4A4A4A4A4A4A4A4A4A4A4A4A4A4A4A4A4A4A4A4A4A4A4A4A4A4A4A4A4A4A4A4A4A4A4A4A4A4A4A4
310
A4A4A4A4A4A4A4A4A4A4A4A4A4A4A4A4A4A4A4A4A4A4A4A4A4A4A4A4A4A4A4A4A4A4A4A4A4A4A4A4A4A4A4A4A4A4A4A4A4A4A4A4A4A4A4A4
1001
ACAD
1000
DesignCenter Data
1002
{
1070
     1
1070
     4
1002
}
  0
BLOCK_RECORD
  5
AA8
330
1
100
AcDbSymbolTableRecord
100
AcDbBlockTableRecord
  2
_CLOSED
340
0
  0
ENDTAB
  0
ENDSEC
  0
SECTION
  2
BLOCKS
  0
BLOCK
  5
20
330
1F
100
AcDbEntity
  8
0
100
AcDbBlockBegin
  2
*Model_Space
 70
     0
 10
0.0
 20
0.0
 30
0.0
  3
*Model_Space
  1

  0
ENDBLK
  5
21
330
1F
100
AcDbEntity
  8
0
100
AcDbBlockEnd
  0
BLOCK
  5
1C
330
1B
100
AcDbEntity
 67
     1
  8
0
100
AcDbBlockBegin
  2
*Paper_Space
 70
     0
 10
0.0
 20
0.0
 30
0.0
  3
*Paper_Space
  1

  0
ENDBLK
  5
1D
330
1B
100
AcDbEntity
 67
     1
  8
0
100
AcDbBlockEnd
  0
BLOCK
  5
24
330
23
100
AcDbEntity
 67
     1
  8
0
100
AcDbBlockBegin
  2
*Paper_Space0
 70
     0
 10
0.0
 20
0.0
 30
0.0
  3
*Paper_Space0
  1

  0
ENDBLK
  5
25
330
23
100
AcDbEntity
 67
     1
  8
0
100
AcDbBlockEnd
  0
BLOCK
  5
91B
330
919
100
AcDbEntity
  8
0
100
AcDbBlockBegin
  2
_DotSmall
 70
     0
 10
0.0
 20
0.0
 30
0.0
  3
_DotSmall
  1

  0
LWPOLYLINE
  5
91A
330
919
100
AcDbEntity
  8
0
  6
ByBlock
 62
     0
100
AcDbPolyline
 90
        2
 70
     1
 43
0.5
 10
-0.0625
 20
0.0
 42
1.0
 10
0.0625
 20
0.0
 42
1.0
  0
ENDBLK
  5
91C
330
919
100
AcDbEntity
  8
0
100
AcDbBlockEnd
  0
BLOCK
  5
92A
330
922
100
AcDbEntity
  8
0
100
AcDbBlockBegin
  2
base para cotas
 70
     0
 10
0.0
 20
0.0
 30
0.0
  3
base para cotas
  1

  0
LINE
  5
B36
330
922
100
AcDbEntity
  8
cotas
100
AcDbLine
 10
0.0
 20
-30.0
 30
0.0
 11
327.1260136525398
 21
-30.0
 31
0.0
  0
LINE
  5
B37
330
922
100
AcDbEntity
  8
cotas
100
AcDbLine
 10
0.0
 20
-25.0
 30
0.0
 11
327.1260136525398
 21
-25.0
 31
0.0
  0
LINE
  5
B38
330
922
100
AcDbEntity
  8
cotas
100
AcDbLine
 10
0.0
 20
-20.0
 30
0.0
 11
327.1260136525398
 21
-20.0
 31
0.0
  0
LINE
  5
B39
330
922
100
AcDbEntity
  8
cotas
100
AcDbLine
 10
0.0
 20
-15.0
 30
0.0
 11
327.1260136525398
 21
-15.0
 31
0.0
  0
LINE
  5
B3A
330
922
100
AcDbEntity
  8
cotas
100
AcDbLine
 10
0.0
 20
-10.0
 30
0.0
 11
327.1260136525398
 21
-10.0
 31
0.0
  0
LINE
  5
B3B
330
922
100
AcDbEntity
  8
cotas
100
AcDbLine
 10
0.0
 20
0.0
 30
0.0
 11
0.0
 21
-30.0
 31
0.0
  0
LINE
  5
B3C
330
922
100
AcDbEntity
  8
cotas
100
AcDbLine
 10
327.1260136525398
 20
-30.0
 30
0.0
 11
327.1260136525398
 21
0.0
 31
0.0
  0
ENDBLK
  5
92B
330
922
100
AcDbEntity
  8
0
100
AcDbBlockEnd
  0
BLOCK
  5
AAD
330
AA8
100
AcDbEntity
  8
0
100
AcDbBlockBegin
  2
_CLOSED
 70
     0
 10
0.0
 20
0.0
 30
0.0
  3
_CLOSED
  1

  0
LINE
  5
AA9
330
AA8
100
AcDbEntity
  8
0
100
AcDbLine
 10
-1.0
 20
0.166667
 30
0.0
 11
0.0
 21
0.0
 31
0.0
  0
LINE
  5
AAA
330
AA8
100
AcDbEntity
  8
0
100
AcDbLine
 10
0.0
 20
0.0
 30
0.0
 11
-1.0
 21
-0.166667
 31
0.0
  0
LINE
  5
AAB
330
AA8
100
AcDbEntity
  8
0
100
AcDbLine
 10
-1.0
 20
0.166667
 30
0.0
 11
-1.0
 21
-0.166667
 31
0.0
  0
LINE
  5
AAC
330
AA8
100
AcDbEntity
  8
0
100
AcDbLine
 10
0.0
 20
0.0
 30
0.0
 11
-1.0
 21
0.0
 31
0.0
  0
ENDBLK
  5
AAE
330
AA8
100
AcDbEntity
  8
0
100
AcDbBlockEnd
  0
ENDSEC
  0
SECTION
  2
ENTITIES
  0
LWPOLYLINE
  5
139C
330
1F
100
AcDbEntity
  8
SANINDUSA
100
AcDbPolyline
 90
       14
 70
   128
 43
0.0
 10
94.13460840210102
 20
1437.838922877793
 10
94.13747704438312
 20
1437.839155671837
 10
94.14598704743116
 20
1437.84012208063
 10
94.15366190773438
 20
1437.84122206754
 10
94.1605944300643
 20
1437.842408966078
 10
94.16690340386344
 20
1437.843652380484
 10
94.17410251492313
 20
1437.845268217121
 10
94.18075976321315
 20
1437.846954753601
 10
94.18710644488086
 20
1437.848734224077
 10
94.19335301881755
 20
1437.850642941776
 10
94.20180514722275
 20
1437.853458898534
 10
94.21066218460603
 20
1437.856683840002
 10
94.22009510699959
 20
1437.860432051012
 10
94.22131194658394
 20
1437.860964806782
  0
LINE
  5
139E
330
1F
100
AcDbEntity
  8
SANINDUSA
100
AcDbLine
 10
94.26369137998943
 20
1437.952826492984
 30
0.0
 11
94.08696801211323
 21
1437.952826492984
 31
0.0
  0
LINE
  5
139F
330
1F
100
AcDbEntity
  8
SANINDUSA
100
AcDbLine
 10
94.08696801211323
 20
1438.002826492984
 30
0.0
 11
94.31007972622966
 21
1438.002826492984
 31
0.0
  0
LWPOLYLINE
  5
13A3
330
1F
100
AcDbEntity
  8
SANINDUSA
100
AcDbPolyline
 90
       28
 70
   128
 43
0.0
 10
94.14200423569161
 20
1437.845109247531
 10
94.15024090361873
 20
1437.845488714501
 10
94.15871235852836
 20
1437.846096022463
 10
94.16641402025552
 20
1437.846904033184
 10
94.17352763112679
 20
1437.847913615873
 10
94.18103444444019
 20
1437.849300251407
 10
94.1881999496258
 20
1437.850916053932
 10
94.19594822587042
 20
1437.852971086107
 10
94.20367206907716
 20
1437.855342855522
 10
94.21135177318161
 20
1437.858028460036
 10
94.21896378651624
 20
1437.861022632109
 10
94.22648399863684
 20
1437.864318433843
 10
94.23388805315843
 20
1437.867907260386
 10
94.24115086741442
 20
1437.871778434439
 10
94.24824541665179
 20
1437.875918139374
 10
94.25514911732019
 20
1437.880312901115
 10
94.26184066221489
 20
1437.884948198315
 10
94.26829766363292
 20
1437.889804633222
 10
94.2745644395058
 20
1437.894901019502
 10
94.28073319300381
 20
1437.90032123747
 10
94.2866878297778
 20
1437.905974098298
 10
94.29242985186316
 20
1437.911860763999
 10
94.29796159416426
 20
1437.917983844202
 10
94.3025827325404
 20
1437.923495226578
 10
94.30723076989309
 20
1437.929509400564
 10
94.31172269805527
 20
1437.935787476077
 10
94.31631864291771
 20
1437.942678532183
 10
94.31847296198018
 20
1437.945753664849
  0
LINE
  5
13A6
330
1F
100
AcDbEntity
  8
SANINDUSA
100
AcDbLine
 10
93.20910875214694
 20
1438.012826492984
 30
0.0
 11
94.47482727207953
 21
1438.012826492984
 31
0.0
  0
ARC
  5
13A8
330
1F
100
AcDbEntity
  8
SANINDUSA
100
AcDbCircle
 10
94.04105803928969
 20
1437.82871015459
 30
0.0
 40
0.0100000000000002
100
AcDbArc
 50
2.000000000003647
 51
85.49737623667574
  0
ARC
  5
13A9
330
1F
100
AcDbEntity
  8
SANINDUSA
100
AcDbCircle
 10
94.13287798493675
 20
1437.82871015459
 30
0.0
 40
0.0100000000000002
100
AcDbArc
 50
94.50262376332101
 51
177.9999999999963
  0
ARC
  5
13AA
330
1F
100
AcDbEntity
  8
SANINDUSA
100
AcDbCircle
 10
93.55105803928969
 20
1437.82871015459
 30
0.0
 40
0.0100000000000002
100
AcDbArc
 50
2.000000000003647
 51
85.49737623667899
  0
ARC
  5
13AB
330
1F
100
AcDbEntity
  8
SANINDUSA
100
AcDbCircle
 10
93.64287798493677
 20
1437.82871015459
 30
0.0
 40
0.0100000000000002
100
AcDbArc
 50
94.50262376332425
 51
177.9999999999963
  0
LINE
  5
13AD
330
1F
100
AcDbEntity
  8
SANINDUSA
100
AcDbLine
 10
93.56293370088804
 20
1437.802826492984
 30
0.0
 11
93.63100232333843
 21
1437.802826492984
 31
0.0
  0
ARC
  5
13AF
330
1F
100
AcDbEntity
  8
SANINDUSA
100
AcDbCircle
 10
93.56293370088804
 20
1437.803826492984
 30
0.0
 40
0.0010000000000001
100
AcDbArc
 50
181.9999999999906
 51
270.0
  0
LINE
  5
13B0
330
1F
100
AcDbEntity
  8
SANINDUSA
100
AcDbLine
 10
93.5610519475599
 20
1437.829059149557
 30
0.0
 11
93.56193431006103
 21
1437.803791593487
 31
0.0
  0
ARC
  5
13B2
330
1F
100
AcDbEntity
  8
SANINDUSA
100
AcDbCircle
 10
93.63100232333843
 20
1437.803826492984
 30
0.0
 40
0.0009999999999999
100
AcDbArc
 50
270.0
 51
357.99999999984
  0
LINE
  5
13B3
330
1F
100
AcDbEntity
  8
SANINDUSA
100
AcDbLine
 10
93.63200171416545
 20
1437.803791593487
 30
0.0
 11
93.63288407666658
 21
1437.829059149557
 31
0.0
  0
LINE
  5
13B9
330
1F
100
AcDbEntity
  8
SANINDUSA
100
AcDbLine
 10
94.12100232333841
 20
1437.802826492984
 30
0.0
 11
94.05293370088804
 21
1437.802826492984
 31
0.0
  0
LINE
  5
13BC
330
1F
100
AcDbEntity
  8
SANINDUSA
100
AcDbLine
 10
94.05105194755988
 20
1437.829059149557
 30
0.0
 11
94.05193431006102
 21
1437.803791593487
 31
0.0
  0
ARC
  5
13BD
330
1F
100
AcDbEntity
  8
SANINDUSA
100
AcDbCircle
 10
94.05293370088804
 20
1437.803826492984
 30
0.0
 40
0.0009999999999999
100
AcDbArc
 50
182.00000000016
 51
270.0
  0
ARC
  5
13BF
330
1F
100
AcDbEntity
  8
SANINDUSA
100
AcDbCircle
 10
94.12100232333841
 20
1437.803826492984
 30
0.0
 40
0.0009999999999999
100
AcDbArc
 50
270.0
 51
357.99999999984
  0
LINE
  5
13C0
330
1F
100
AcDbEntity
  8
SANINDUSA
100
AcDbLine
 10
94.12200171416543
 20
1437.803791593487
 30
0.0
 11
94.12288407666656
 21
1437.829059149557
 31
0.0
  0
LWPOLYLINE
  5
13C1
330
1F
100
AcDbEntity
  8
SANINDUSA
100
AcDbPolyline
 90
        4
 70
   128
 43
0.0
 10
93.68096171116931
 20
1437.844610701501
 10
93.67345002897021
 20
1437.842940400321
 10
93.65803838165183
 20
1437.840393755081
 10
93.6420929374589
 20
1437.838679291988
  0
LINE
  5
13C3
330
1F
100
AcDbEntity
  8
SANINDUSA
100
AcDbLine
 10
93.59696801211324
 20
1437.952826492984
 30
0.0
 11
93.84196801211322
 21
1437.952826492984
 31
0.0
  0
LINE
  5
13C8
330
1F
100
AcDbEntity
  8
SANINDUSA
100
AcDbLine
 10
93.59696801211324
 20
1437.844610701501
 30
0.0
 11
94.08696801211322
 21
1437.844610701501
 31
0.0
  0
LINE
  5
13C9
330
1F
100
AcDbEntity
  8
SANINDUSA
100
AcDbLine
 10
93.59696801211324
 20
1438.002826492984
 30
0.0
 11
94.08696801211323
 21
1438.002826492984
 31
0.0
  0
LWPOLYLINE
  5
13CB
330
1F
100
AcDbEntity
  8
SANINDUSA
100
AcDbPolyline
 90
        5
 70
   128
 43
0.0
 10
93.37246555967603
 20
1437.952447814854
 10
93.3833993115815
 20
1437.952644505617
 10
93.39503246867987
 20
1437.952757109953
 10
93.40732798129378
 20
1437.952811875695
 10
93.42024424535045
 20
1437.952826492984
  0
LINE
  5
13CD
330
1F
100
AcDbEntity
  8
SANINDUSA
100
AcDbLine
 10
93.39328253995391
 20
1437.847826492984
 30
0.0
 11
93.43114698130541
 21
1437.847826492984
 31
0.0
  0
LWPOLYLINE
  5
13D5
330
1F
100
AcDbEntity
  8
SANINDUSA
100
AcDbPolyline
 90
       29
 70
   128
 43
0.0
 10
93.36546306224629
 20
1437.945753664849
 10
93.36583756620468
 20
1437.945232498647
 10
93.37074165047326
 20
1437.937943414976
 10
93.37531528406552
 20
1437.931403104311
 10
93.3797899874356
 20
1437.925463562152
 10
93.38480000092106
 20
1437.919345939717
 10
93.38978967853035
 20
1437.913710882686
 10
93.39547677504707
 20
1437.907742299082
 10
93.40136805706185
 20
1437.902016903804
 10
93.40746688917052
 20
1437.896529963645
 10
93.41377692231862
 20
1437.891277674986
 10
93.42030074075205
 20
1437.886258847323
 10
93.42697288523542
 20
1437.881531530265
 10
93.43375992909605
 20
1437.87710949353
 10
93.44075805585626
 20
1437.872924017561
 10
93.44794700362903
 20
1437.868990431038
 10
93.45530544481626
 20
1437.865322977071
 10
93.46281075955291
 20
1437.861934891502
 10
93.47043702094856
 20
1437.858839066567
 10
93.47815770318387
 20
1437.856046546925
 10
93.48594824156508
 20
1437.853565758513
 10
93.49378428694143
 20
1437.851403432206
 10
93.50164204760975
 20
1437.849564580394
 10
93.50851708196911
 20
1437.848230359193
 10
93.51584973692043
 20
1437.847116938765
 10
93.52329812538583
 20
1437.846273051923
 10
93.53136279339967
 20
1437.845630106726
 10
93.54021430712121
 20
1437.84518237839
 10
93.54193182511151
 20
1437.84511443281
  0
LINE
  5
13D6
330
1F
100
AcDbEntity
  8
SANINDUSA
100
AcDbLine
 10
93.59696801211324
 20
1438.002826492984
 30
0.0
 11
93.3738562979968
 21
1438.002826492984
 31
0.0
  0
LINE
  5
13D8
330
1F
100
AcDbEntity
  8
SANINDUSA
100
AcDbLine
 10
93.28696801211323
 20
1437.917826492984
 30
0.0
 11
93.29203853271065
 21
1437.917826492984
 31
0.0
  0
LINE
  5
13DA
330
1F
100
AcDbEntity
  8
SANINDUSA
100
AcDbLine
 10
93.26696801211324
 20
1437.927826492984
 30
0.0
 11
93.37800981410341
 21
1437.927826492984
 31
0.0
  0
LWPOLYLINE
  5
13E1
330
1F
100
AcDbEntity
  8
SANINDUSA
100
AcDbPolyline
 90
        5
 70
   128
 43
0.0
 10
93.20196801211324
 20
1437.952827725242
 10
93.22696656616017
 20
1437.952834580171
 10
93.24696092354445
 20
1437.952885053103
 10
93.28694869333894
 20
1437.9531344685
 10
93.31924401440994
 20
1437.953269303845
  0
LINE
  5
13E2
330
1F
100
AcDbEntity
  8
SANINDUSA
100
AcDbLine
 10
93.32531624313368
 20
1438.002826492984
 30
0.0
 11
93.21016751290821
 21
1438.002826492984
 31
0.0
  0
LINE
  5
13E4
330
1F
100
AcDbEntity
  8
SANINDUSA
100
AcDbLine
 10
93.19196801211324
 20
1437.987826492984
 30
0.0
 11
93.19196801211324
 21
1437.957826492984
 31
0.0
  0
LINE
  5
13E7
330
1F
100
AcDbEntity
  8
SANINDUSA
100
AcDbLine
 10
93.19696801211323
 20
1437.952826492984
 30
0.0
 11
93.20196801211322
 21
1437.952826492984
 31
0.0
  0
ARC
  5
13E8
330
1F
100
AcDbEntity
  8
SANINDUSA
100
AcDbCircle
 10
93.19696801211323
 20
1437.957826492984
 30
0.0
 40
0.0049999999999991
100
AcDbArc
 50
180.0
 51
270.0000000000098
  0
ARC
  5
13F0
330
1F
100
AcDbEntity
  8
SANINDUSA
100
AcDbCircle
 10
93.26106703162682
 20
1437.922826492984
 30
0.0
 40
0.0050000000000003
100
AcDbArc
 50
191.3099324740376
 51
269.9999999999968
  0
LINE
  5
13F1
330
1F
100
AcDbEntity
  8
SANINDUSA
100
AcDbLine
 10
93.25359810120291
 20
1437.934676047535
 30
0.0
 11
93.25608095848483
 21
1437.922261761126
 31
0.0
  0
LINE
  5
13F2
330
1F
100
AcDbEntity
  8
SANINDUSA
100
AcDbLine
 10
93.25610875537767
 20
1437.922122776661
 30
0.0
 11
93.25616412824837
 21
1437.921845912308
 31
0.0
  0
LINE
  5
13F3
330
1F
100
AcDbEntity
  8
SANINDUSA
100
AcDbLine
 10
93.25608095848483
 20
1437.922261761126
 30
0.0
 11
93.25610875537767
 21
1437.922122776661
 31
0.0
  0
LINE
  5
13F6
330
1F
100
AcDbEntity
  8
SANINDUSA
100
AcDbLine
 10
93.26106703162682
 20
1437.917826492984
 30
0.0
 11
93.26696801211324
 21
1437.917826492984
 31
0.0
  0
ARC
  5
13F7
330
1F
100
AcDbEntity
  8
SANINDUSA
100
AcDbCircle
 10
93.26696801211324
 20
1437.932826492984
 30
0.0
 40
0.005
100
AcDbArc
 50
180.0
 51
270.0
  0
LINE
  5
13F9
330
1F
100
AcDbEntity
  8
SANINDUSA
100
AcDbLine
 10
93.26696801211324
 20
1437.917826492984
 30
0.0
 11
93.28696801211323
 21
1437.917826492984
 31
0.0
  0
LINE
  5
13FC
330
1F
100
AcDbEntity
  8
SANINDUSA
100
AcDbLine
 10
93.24995256813714
 20
1437.952903712864
 30
0.0
 11
93.25359810120291
 21
1437.934676047535
 31
0.0
  0
LINE
  5
13FD
330
1F
100
AcDbEntity
  8
SANINDUSA
100
AcDbLine
 10
93.26196801211322
 20
1437.952978656697
 30
0.0
 11
93.26196801211322
 21
1437.932826492984
 31
0.0
  0
LINE
  5
1400
330
1F
100
AcDbEntity
  8
SANINDUSA
100
AcDbLine
 10
93.20441028904301
 20
1438.0095365937
 30
0.0
 11
93.20414052123721
 21
1438.008795412745
 31
0.0
  0
ARC
  5
1401
330
1F
100
AcDbEntity
  8
SANINDUSA
100
AcDbCircle
 10
93.20910875214694
 20
1438.007826492984
 30
0.0
 40
0.0050000000000002
100
AcDbArc
 50
90.0
 51
159.9999999999965
  0
ARC
  5
140F
330
1F
100
AcDbEntity
  8
SANINDUSA
100
AcDbCircle
 10
93.19696801211323
 20
1437.987826492984
 30
0.0
 40
0.0050000000000001
100
AcDbArc
 50
106.3776629886788
 51
180.0
  0
LINE
  5
1410
330
1F
100
AcDbEntity
  8
SANINDUSA
100
AcDbLine
 10
93.20077058670035
 20
1437.9995365937
 30
0.0
 11
93.20024869092298
 21
1437.998102696837
 31
0.0
  0
LINE
  5
1411
330
1F
100
AcDbEntity
  8
SANINDUSA
100
AcDbLine
 10
93.20373803256401
 20
1438.007689584204
 30
0.0
 11
93.20077058670035
 21
1437.9995365937
 31
0.0
  0
ARC
  5
1412
330
1F
100
AcDbEntity
  8
SANINDUSA
100
AcDbCircle
 10
93.1903470610654
 20
1438.001831988562
 30
0.0
 40
0.0105806375331251
100
AcDbArc
 50
299.5059645672778
 51
339.3619135427544
  0
ARC
  5
1413
330
1F
100
AcDbEntity
  8
SANINDUSA
100
AcDbCircle
 10
93.20546904980428
 20
1437.997826492984
 30
0.0
 40
0.005
100
AcDbArc
 50
89.99999999999674
 51
159.9999999999826
  0
LINE
  5
1414
330
1F
100
AcDbEntity
  8
SANINDUSA
100
AcDbLine
 10
93.21016751290821
 20
1438.002826492984
 30
0.0
 11
93.20546904980428
 21
1438.002826492984
 31
0.0
  0
LINE
  5
1417
330
1F
100
AcDbEntity
  8
SANINDUSA
100
AcDbLine
 10
93.20414052123721
 20
1438.008795412745
 30
0.0
 11
93.20373803256401
 21
1438.007689584204
 31
0.0
  0
LINE
  5
141C
330
1F
100
AcDbEntity
  8
SANINDUSA
100
AcDbLine
 10
93.3452247765234
 20
1437.952826492984
 30
0.0
 11
93.35314882377106
 21
1437.952826492984
 31
0.0
  0
LINE
  5
1420
330
1F
100
AcDbEntity
  8
SANINDUSA
100
AcDbLine
 10
93.30093651828139
 20
1437.914902330544
 30
0.0
 11
93.37443293353478
 21
1437.860747077199
 31
0.0
  0
LWPOLYLINE
  5
142B
330
1F
100
AcDbEntity
  8
SANINDUSA
100
AcDbPolyline
 90
        4
 70
   128
 43
0.0
 10
93.29804048928195
 20
1437.916573365985
 10
93.29904645027507
 20
1437.916088811462
 10
93.30001357959943
 20
1437.915530768922
 10
93.30093651828141
 20
1437.914902330544
  0
LWPOLYLINE
  5
142C
330
1F
100
AcDbEntity
  8
SANINDUSA
100
AcDbPolyline
 90
        3
 70
   128
 43
0.0
 10
93.29414638909973
 20
1437.917677652583
 10
93.29609638591938
 20
1437.917267193359
 10
93.29804048928195
 20
1437.916573365985
  0
LINE
  5
142D
330
1F
100
AcDbEntity
  8
SANINDUSA
100
AcDbLine
 10
93.29203853271065
 20
1437.917826492984
 30
0.0
 11
93.29414638909973
 21
1437.917677652583
 31
0.0
  0
LWPOLYLINE
  5
142F
330
1F
100
AcDbEntity
  8
SANINDUSA
100
AcDbPolyline
 90
        6
 70
   128
 43
0.0
 10
93.31924401440994
 20
1437.953269303845
 10
93.32924401440996
 20
1437.953144292855
 10
93.33920418538944
 20
1437.952898337635
 10
93.34439255790938
 20
1437.952828177552
 10
93.34518312405604
 20
1437.952826497331
 10
93.3452247765234
 20
1437.952826492984
  0
LWPOLYLINE
  5
1432
330
1F
100
AcDbEntity
  8
SANINDUSA
100
AcDbPolyline
 90
        3
 70
   128
 43
0.0
 10
93.35314882377105
 20
1437.952826492984
 10
93.35635600221102
 20
1437.952699944957
 10
93.35961960935161
 20
1437.952550520682
  0
LWPOLYLINE
  5
1434
330
1F
100
AcDbEntity
  8
SANINDUSA
100
AcDbPolyline
 90
        3
 70
   128
 43
0.0
 10
93.35961960935161
 20
1437.952550520682
 10
93.36624086088042
 20
1437.952404267132
 10
93.37246555967603
 20
1437.952447814854
  0
ARC
  5
1439
330
1F
100
AcDbEntity
  8
SANINDUSA
100
AcDbCircle
 10
93.35272885845432
 20
1437.937826492984
 30
0.0
 40
0.015
100
AcDbArc
 50
31.90268538026739
 51
90.0
  0
ARC
  5
144B
330
1F
100
AcDbEntity
  8
SANINDUSA
100
AcDbCircle
 10
93.39328253995391
 20
1437.851826492984
 30
0.0
 40
0.0040000000000001
100
AcDbArc
 50
233.6156481841665
 51
270.0
  0
LINE
  5
144C
330
1F
100
AcDbEntity
  8
SANINDUSA
100
AcDbLine
 10
93.39074760417572
 20
1437.848725740938
 30
0.0
 11
93.39086618937228
 21
1437.848638362372
 31
0.0
  0
LINE
  5
144D
330
1F
100
AcDbEntity
  8
SANINDUSA
100
AcDbLine
 10
93.39086618937228
 20
1437.848638362372
 30
0.0
 11
93.39090974380173
 21
1437.848606269634
 31
0.0
  0
LINE
  5
144E
330
1F
100
AcDbEntity
  8
SANINDUSA
100
AcDbLine
 10
93.3895696204375
 20
1437.849593728955
 30
0.0
 11
93.39074760417572
 21
1437.848725740938
 31
0.0
  0
LINE
  5
1455
330
1F
100
AcDbEntity
  8
SANINDUSA
100
AcDbLine
 10
93.37443293353478
 20
1437.860747077199
 30
0.0
 11
93.3895696204375
 21
1437.849593728955
 31
0.0
  0
LINE
  5
145F
330
1F
100
AcDbEntity
  8
SANINDUSA
100
AcDbLine
 10
93.3738562979968
 20
1438.002826492984
 30
0.0
 11
93.32531624313368
 21
1438.002826492984
 31
0.0
  0
LWPOLYLINE
  5
146F
330
1F
100
AcDbEntity
  8
SANINDUSA
100
AcDbPolyline
 90
       14
 70
   128
 43
0.0
 10
93.46263138246824
 20
1437.860967937422
 10
93.46420623618993
 20
1437.860280631446
 10
93.47410249029598
 20
1437.856372045178
 10
93.48319616652023
 20
1437.853091755822
 10
93.4916452096124
 20
1437.850306933443
 10
93.49779043577393
 20
1437.848451518412
 10
93.50399374654204
 20
1437.846734358261
 10
93.51048103883256
 20
1437.84511131059
 10
93.51749706069805
 20
1437.843553704639
 10
93.52366127017814
 20
1437.842349246046
 10
93.53046193782008
 20
1437.841192145782
 10
93.53802987906943
 20
1437.840111580626
 10
93.5464725265499
 20
1437.839154337589
 10
93.54942163389647
 20
1437.838915087304
  0
LINE
  5
1471
330
1F
100
AcDbEntity
  8
SANINDUSA
100
AcDbLine
 10
93.42024464423703
 20
1437.952826492984
 30
0.0
 11
93.59696801211324
 21
1437.952826492984
 31
0.0
  0
LINE
  5
1478
330
1F
100
AcDbEntity
  8
SANINDUSA
100
AcDbLine
 10
93.45020134156115
 20
1437.855640777033
 30
0.0
 11
93.46263138246822
 21
1437.860967937422
 31
0.0
  0
LINE
  5
1479
330
1F
100
AcDbEntity
  8
SANINDUSA
100
AcDbLine
 10
93.43470523226285
 20
1437.848999587334
 30
0.0
 11
93.45020134156115
 21
1437.855640777033
 31
0.0
  0
ARC
  5
147F
330
1F
100
AcDbEntity
  8
SANINDUSA
100
AcDbCircle
 10
93.43114698130541
 20
1437.851826492984
 30
0.0
 40
0.0040000000000001
100
AcDbArc
 50
270.0
 51
293.198590513652
  0
LINE
  5
1480
330
1F
100
AcDbEntity
  8
SANINDUSA
100
AcDbLine
 10
93.43279754155387
 20
1437.848182005601
 30
0.0
 11
93.43300121267667
 21
1437.848269293225
 31
0.0
  0
LINE
  5
1481
330
1F
100
AcDbEntity
  8
SANINDUSA
100
AcDbLine
 10
93.43272265849973
 20
1437.848149912864
 30
0.0
 11
93.43279754155387
 21
1437.848182005601
 31
0.0
  0
LINE
  5
1486
330
1F
100
AcDbEntity
  8
SANINDUSA
100
AcDbLine
 10
93.43300121267667
 20
1437.848269293225
 30
0.0
 11
93.43470523226285
 21
1437.848999587334
 31
0.0
  0
LWPOLYLINE
  5
1487
330
1F
100
AcDbEntity
  8
SANINDUSA
100
AcDbPolyline
 90
       13
 70
   128
 43
0.0
 10
93.6420929374589
 20
1437.838679291988
 10
93.64209293745885
 20
1437.838679291988
 10
93.64145562412195
 20
1437.838667376109
 10
93.63957726488346
 20
1437.838630142191
 10
93.63649270287133
 20
1437.838588515941
 10
93.63228387667387
 20
1437.838562069341
 10
93.62704669366973
 20
1437.838547586783
 10
93.6209573041876
 20
1437.838542039073
 10
93.61417385925644
 20
1437.83854202743
 10
93.6069053354091
 20
1437.838544142059
 10
93.60196713306415
 20
1437.838545245074
 10
93.59696807211324
 20
1437.838545659604
 10
93.59696801211324
 20
1437.838545659604
  0
LWPOLYLINE
  5
1488
330
1F
100
AcDbEntity
  8
SANINDUSA
100
AcDbPolyline
 90
        4
 70
   128
 43
0.0
 10
93.54193182511151
 20
1437.84511443281
 10
93.55053891431486
 20
1437.845006876863
 10
93.59308726139902
 20
1437.844677090487
 10
93.59696801211326
 20
1437.844610701501
  0
LWPOLYLINE
  5
148A
330
1F
100
AcDbEntity
  8
SANINDUSA
100
AcDbPolyline
 90
       13
 70
   128
 43
0.0
 10
93.59696801211324
 20
1437.838545659604
 10
93.59696795211323
 20
1437.838545659604
 10
93.58937085027598
 20
1437.838544671595
 10
93.58198750968615
 20
1437.838542653665
 10
93.57503796878139
 20
1437.838541636042
 10
93.56870720523478
 20
1437.838544994506
 10
93.56319481914251
 20
1437.838556356734
 10
93.55864032048001
 20
1437.838578805887
 10
93.55519430380354
 20
1437.838618124321
 10
93.55293141812628
 20
1437.838658929215
 10
93.55211699682856
 20
1437.838674363769
 10
93.55184308676763
 20
1437.838679291988
 10
93.5518430867676
 20
1437.838679291988
  0
LINE
  5
148C
330
1F
100
AcDbEntity
  8
SANINDUSA
100
AcDbLine
 10
94.08696801211323
 20
1437.952826492984
 30
0.0
 11
93.84196801211322
 21
1437.952826492984
 31
0.0
  0
LWPOLYLINE
  5
148D
330
1F
100
AcDbEntity
  8
SANINDUSA
100
AcDbPolyline
 90
        4
 70
   128
 43
0.0
 10
94.00297431305714
 20
1437.844610701501
 10
94.01048599525626
 20
1437.842940400321
 10
94.02589764257465
 20
1437.840393755081
 10
94.04184308676757
 20
1437.838679291988
  0
LWPOLYLINE
  5
148E
330
1F
100
AcDbEntity
  8
SANINDUSA
100
AcDbPolyline
 90
       13
 70
   128
 43
0.0
 10
94.08696801211323
 20
1437.838545659604
 10
94.08696807211324
 20
1437.838545659604
 10
94.09456517395049
 20
1437.838544671595
 10
94.10194851454033
 20
1437.838542653665
 10
94.10889805544508
 20
1437.838541636042
 10
94.1152288189917
 20
1437.838544994506
 10
94.12074120508396
 20
1437.838556356734
 10
94.12529570374646
 20
1437.838578805887
 10
94.12874172042291
 20
1437.838618124321
 10
94.13100460610017
 20
1437.838658929215
 10
94.13181902739792
 20
1437.838674363769
 10
94.13209293745884
 20
1437.838679291988
 10
94.13209293745888
 20
1437.838679291988
  0
LWPOLYLINE
  5
148F
330
1F
100
AcDbEntity
  8
SANINDUSA
100
AcDbPolyline
 90
        4
 70
   128
 43
0.0
 10
94.08696801211323
 20
1437.844610701501
 10
94.09858975236117
 20
1437.844716203772
 10
94.14070090753265
 20
1437.845092192509
 10
94.14200423569161
 20
1437.845109247531
  0
LWPOLYLINE
  5
1490
330
1F
100
AcDbEntity
  8
SANINDUSA
100
AcDbPolyline
 90
       13
 70
   128
 43
0.0
 10
94.04184308676757
 20
1437.838679291988
 10
94.04184308676761
 20
1437.838679291988
 10
94.04248040010452
 20
1437.838667376109
 10
94.04435875934302
 20
1437.838630142191
 10
94.04744332135512
 20
1437.838588515941
 10
94.0516521475526
 20
1437.838562069341
 10
94.05688933055676
 20
1437.838547586783
 10
94.06297872003888
 20
1437.838542039073
 10
94.06976216497003
 20
1437.83854202743
 10
94.07703068881735
 20
1437.838544142059
 10
94.08196889116231
 20
1437.838545245074
 10
94.08696795211325
 20
1437.838545659604
 10
94.08696801211323
 20
1437.838545659604
  0
LINE
  5
1491
330
1F
100
AcDbEntity
  8
SANINDUSA
100
AcDbLine
 10
94.13208541241452
 20
1437.838718133905
 30
0.0
 11
94.13460840210101
 21
1437.838922877793
 31
0.0
  0
LINE
  5
149C
330
1F
100
AcDbEntity
  8
SANINDUSA
100
AcDbLine
 10
94.42286899259965
 20
1437.917826492984
 30
0.0
 11
94.41696801211323
 21
1437.917826492984
 31
0.0
  0
ARC
  5
149D
330
1F
100
AcDbEntity
  8
SANINDUSA
100
AcDbCircle
 10
94.41696801211323
 20
1437.932826492984
 30
0.0
 40
0.005
100
AcDbArc
 50
270.0
 51
0.0
  0
LINE
  5
14A4
330
1F
100
AcDbEntity
  8
SANINDUSA
100
AcDbLine
 10
94.35861978109278
 20
1438.002826492984
 30
0.0
 11
94.47376851131826
 21
1438.002826492984
 31
0.0
  0
LWPOLYLINE
  5
14A5
330
1F
100
AcDbEntity
  8
SANINDUSA
100
AcDbPolyline
 90
        5
 70
   128
 43
0.0
 10
94.48196801211324
 20
1437.952826492984
 10
94.45696945806629
 20
1437.952834580171
 10
94.43697510068203
 20
1437.952885053103
 10
94.39698733088754
 20
1437.9531344685
 10
94.36469200981653
 20
1437.953269303845
  0
LWPOLYLINE
  5
14A7
330
1F
100
AcDbEntity
  8
SANINDUSA
100
AcDbPolyline
 90
        5
 70
   128
 43
0.0
 10
94.31147046455043
 20
1437.952447814854
 10
94.30053671264499
 20
1437.952644505617
 10
94.2889035555466
 20
1437.952757109953
 10
94.27660804293269
 20
1437.952811875695
 10
94.26369177887604
 20
1437.952826492984
  0
LINE
  5
14B0
330
1F
100
AcDbEntity
  8
SANINDUSA
100
AcDbLine
 10
94.23373468266531
 20
1437.855640777033
 30
0.0
 11
94.22131194658394
 21
1437.860964806782
 31
0.0
  0
ARC
  5
14B8
330
1F
100
AcDbEntity
  8
SANINDUSA
100
AcDbCircle
 10
94.29065348427254
 20
1437.851826492984
 30
0.0
 40
0.0040000000000001
100
AcDbArc
 50
270.0
 51
306.3843518158308
  0
ARC
  5
14C5
330
1F
100
AcDbEntity
  8
SANINDUSA
100
AcDbCircle
 10
94.25278904292104
 20
1437.851826492984
 30
0.0
 40
0.0040000000000001
100
AcDbArc
 50
246.8014094863451
 51
270.0
  0
LINE
  5
14C6
330
1F
100
AcDbEntity
  8
SANINDUSA
100
AcDbLine
 10
94.25113848267258
 20
1437.848182005601
 30
0.0
 11
94.25093481154979
 21
1437.848269293225
 31
0.0
  0
LINE
  5
14C7
330
1F
100
AcDbEntity
  8
SANINDUSA
100
AcDbLine
 10
94.25121336572672
 20
1437.848149912864
 30
0.0
 11
94.25113848267258
 21
1437.848182005601
 31
0.0
  0
LINE
  5
14C8
330
1F
100
AcDbEntity
  8
SANINDUSA
100
AcDbLine
 10
94.25093481154979
 20
1437.848269293225
 30
0.0
 11
94.24923079196359
 21
1437.848999587334
 31
0.0
  0
LINE
  5
14C9
330
1F
100
AcDbEntity
  8
SANINDUSA
100
AcDbLine
 10
94.24923079196359
 20
1437.848999587334
 30
0.0
 11
94.23373468266531
 21
1437.855640777033
 31
0.0
  0
LINE
  5
14CD
330
1F
100
AcDbEntity
  8
SANINDUSA
100
AcDbLine
 10
94.29065348427254
 20
1437.847826492984
 30
0.0
 11
94.25278904292104
 21
1437.847826492984
 31
0.0
  0
LWPOLYLINE
  5
14D2
330
1F
100
AcDbEntity
  8
SANINDUSA
100
AcDbPolyline
 90
        6
 70
   128
 43
0.0
 10
94.36469200981653
 20
1437.953269303845
 10
94.35469200981653
 20
1437.953144292855
 10
94.34473183883703
 20
1437.952898337635
 10
94.33954346631711
 20
1437.952828177552
 10
94.33875290017043
 20
1437.952826497331
 10
94.33871124770305
 20
1437.952826492984
  0
LINE
  5
14D4
330
1F
100
AcDbEntity
  8
SANINDUSA
100
AcDbLine
 10
94.41696801211323
 20
1437.927826492984
 30
0.0
 11
94.30593013953005
 21
1437.927826492984
 31
0.0
  0
LINE
  5
14D6
330
1F
100
AcDbEntity
  8
SANINDUSA
100
AcDbLine
 10
94.38299950594506
 20
1437.914902330544
 30
0.0
 11
94.30950309069169
 21
1437.860747077199
 31
0.0
  0
LINE
  5
14D7
330
1F
100
AcDbEntity
  8
SANINDUSA
100
AcDbLine
 10
94.33871124770305
 20
1437.952826492984
 30
0.0
 11
94.33078720045541
 21
1437.952826492984
 31
0.0
  0
LWPOLYLINE
  5
14DF
330
1F
100
AcDbEntity
  8
SANINDUSA
100
AcDbPolyline
 90
        3
 70
   128
 43
0.0
 10
94.32431641487486
 20
1437.952550520682
 10
94.31769516334606
 20
1437.952404267132
 10
94.31147046455043
 20
1437.952447814854
  0
LWPOLYLINE
  5
14E3
330
1F
100
AcDbEntity
  8
SANINDUSA
100
AcDbPolyline
 90
        3
 70
   128
 43
0.0
 10
94.33078720045541
 20
1437.952826492984
 10
94.32758002201543
 20
1437.952699944957
 10
94.32431641487486
 20
1437.952550520682
  0
ARC
  5
14E6
330
1F
100
AcDbEntity
  8
SANINDUSA
100
AcDbCircle
 10
94.33120716577214
 20
1437.937826492984
 30
0.0
 40
0.015
100
AcDbArc
 50
90.0
 51
148.0973146197326
  0
LINE
  5
14F1
330
1F
100
AcDbEntity
  8
SANINDUSA
100
AcDbLine
 10
94.30950309069169
 20
1437.860747077199
 30
0.0
 11
94.29436640378897
 21
1437.849593728955
 31
0.0
  0
LINE
  5
14F2
330
1F
100
AcDbEntity
  8
SANINDUSA
100
AcDbLine
 10
94.29436640378897
 20
1437.849593728955
 30
0.0
 11
94.29318842005072
 21
1437.848725740938
 31
0.0
  0
LINE
  5
14FF
330
1F
100
AcDbEntity
  8
SANINDUSA
100
AcDbLine
 10
94.39696801211324
 20
1437.917826492984
 30
0.0
 11
94.39189749151582
 21
1437.917826492984
 31
0.0
  0
LWPOLYLINE
  5
1500
330
1F
100
AcDbEntity
  8
SANINDUSA
100
AcDbPolyline
 90
        3
 70
   128
 43
0.0
 10
94.38978963512672
 20
1437.917677652583
 10
94.3878396383071
 20
1437.917267193359
 10
94.3858955349445
 20
1437.916573365985
  0
LINE
  5
1501
330
1F
100
AcDbEntity
  8
SANINDUSA
100
AcDbLine
 10
94.39189749151582
 20
1437.917826492984
 30
0.0
 11
94.38978963512672
 21
1437.917677652583
 31
0.0
  0
LWPOLYLINE
  5
1502
330
1F
100
AcDbEntity
  8
SANINDUSA
100
AcDbPolyline
 90
        4
 70
   128
 43
0.0
 10
94.3858955349445
 20
1437.916573365985
 10
94.3848895739514
 20
1437.916088811462
 10
94.38392244462702
 20
1437.915530768922
 10
94.38299950594508
 20
1437.914902330544
  0
LINE
  5
1504
330
1F
100
AcDbEntity
  8
SANINDUSA
100
AcDbLine
 10
94.41696801211323
 20
1437.917826492984
 30
0.0
 11
94.39696801211324
 21
1437.917826492984
 31
0.0
  0
LINE
  5
150A
330
1F
100
AcDbEntity
  8
SANINDUSA
100
AcDbLine
 10
94.31007972622966
 20
1438.002826492984
 30
0.0
 11
94.35861978109278
 21
1438.002826492984
 31
0.0
  0
LINE
  5
151F
330
1F
100
AcDbEntity
  8
SANINDUSA
100
AcDbLine
 10
94.49196801211323
 20
1437.987826492984
 30
0.0
 11
94.49196801211323
 21
1437.957826492984
 31
0.0
  0
LINE
  5
1520
330
1F
100
AcDbEntity
  8
SANINDUSA
100
AcDbLine
 10
94.43398345608931
 20
1437.952903712864
 30
0.0
 11
94.43033792302355
 21
1437.934676047535
 31
0.0
  0
ARC
  5
1529
330
1F
100
AcDbEntity
  8
SANINDUSA
100
AcDbCircle
 10
94.42286899259963
 20
1437.922826492984
 30
0.0
 40
0.0050000000000023
100
AcDbArc
 50
270.000000000013
 51
348.6900675259491
  0
LINE
  5
152A
330
1F
100
AcDbEntity
  8
SANINDUSA
100
AcDbLine
 10
94.42196801211322
 20
1437.952978656697
 30
0.0
 11
94.42196801211322
 21
1437.932826492984
 31
0.0
  0
LINE
  5
152B
330
1F
100
AcDbEntity
  8
SANINDUSA
100
AcDbLine
 10
94.43033792302355
 20
1437.934676047535
 30
0.0
 11
94.42785506574162
 21
1437.922261761126
 31
0.0
  0
LINE
  5
152F
330
1F
100
AcDbEntity
  8
SANINDUSA
100
AcDbLine
 10
94.48696801211324
 20
1437.952826492984
 30
0.0
 11
94.48196801211322
 21
1437.952826492984
 31
0.0
  0
ARC
  5
1530
330
1F
100
AcDbEntity
  8
SANINDUSA
100
AcDbCircle
 10
94.48696801211324
 20
1437.957826492984
 30
0.0
 40
0.0049999999999994
100
AcDbArc
 50
269.9999999999935
 51
0.0
  0
ARC
  5
1534
330
1F
100
AcDbEntity
  8
SANINDUSA
100
AcDbCircle
 10
94.47846697442219
 20
1437.997826492984
 30
0.0
 40
0.005
100
AcDbArc
 50
20.0000000000035
 51
90.0
  0
LINE
  5
1535
330
1F
100
AcDbEntity
  8
SANINDUSA
100
AcDbLine
 10
94.48019799166244
 20
1438.007689584204
 30
0.0
 11
94.48316543752611
 21
1437.9995365937
 31
0.0
  0
LINE
  5
153A
330
1F
100
AcDbEntity
  8
SANINDUSA
100
AcDbLine
 10
94.47952573518346
 20
1438.0095365937
 30
0.0
 11
94.47979550298923
 21
1438.008795412745
 31
0.0
  0
ARC
  5
153D
330
1F
100
AcDbEntity
  8
SANINDUSA
100
AcDbCircle
 10
94.47482727207953
 20
1438.007826492984
 30
0.0
 40
0.005
100
AcDbArc
 50
20.0000000000035
 51
90.0
  0
LINE
  5
1543
330
1F
100
AcDbEntity
  8
SANINDUSA
100
AcDbLine
 10
94.47376851131826
 20
1438.002826492984
 30
0.0
 11
94.47846697442219
 21
1438.002826492984
 31
0.0
  0
LINE
  5
1546
330
1F
100
AcDbEntity
  8
SANINDUSA
100
AcDbLine
 10
94.47979550298923
 20
1438.008795412745
 30
0.0
 11
94.48019799166244
 21
1438.007689584204
 31
0.0
  0
ARC
  5
154B
330
1F
100
AcDbEntity
  8
SANINDUSA
100
AcDbCircle
 10
94.48696801211324
 20
1437.987826492984
 30
0.0
 40
0.005
100
AcDbArc
 50
0.0
 51
73.62233701132431
  0
ARC
  5
154C
330
1F
100
AcDbEntity
  8
SANINDUSA
100
AcDbCircle
 10
94.49358896316107
 20
1438.001831988562
 30
0.0
 40
0.0105806375331351
100
AcDbArc
 50
200.6380864572587
 51
240.4940354326845
  0
LINE
  5
154D
330
1F
100
AcDbEntity
  8
SANINDUSA
100
AcDbLine
 10
94.48316543752611
 20
1437.9995365937
 30
0.0
 11
94.48368733330349
 21
1437.998102696837
 31
0.0
  0
LWPOLYLINE
  5
155F
330
1F
100
AcDbEntity
  8
SANINDUSA
100
AcDbPolyline
 90
        7
 70
   128
 43
0.0
 10
91.9536443387739
 20
1437.734281337169
 10
91.96163030552298
 20
1437.741064893643
 10
91.96929947208712
 20
1437.748239839841
 10
91.97918678846479
 20
1437.758627064732
 10
91.98834283827862
 20
1437.769663614687
 10
91.99686459235929
 20
1437.781551414736
 10
92.0044994418472
 20
1437.794026625986
  0
LWPOLYLINE
  5
1562
330
1F
100
AcDbEntity
  8
SANINDUSA
100
AcDbPolyline
 90
       11
 70
   128
 43
0.0
 10
91.51449938200169
 20
1437.794026519535
 10
91.51018390688994
 20
1437.786723280998
 10
91.50556101819082
 20
1437.779610554773
 10
91.50060649543977
 20
1437.772649444131
 10
91.49536534983276
 20
1437.765901413778
 10
91.48498722648119
 20
1437.754042076752
 10
91.4736919372255
 20
1437.742926078292
 10
91.46552163818276
 20
1437.735818240958
 10
91.45701360226913
 20
1437.72911812022
 10
91.44810816715057
 20
1437.722777298903
 10
91.43891015635238
 20
1437.716868664015
  0
LWPOLYLINE
  5
1564
330
1F
100
AcDbEntity
  8
SANINDUSA
100
AcDbPolyline
 90
       11
 70
   128
 43
0.0
 10
91.59489340497669
 20
1437.794026519535
 10
91.59920888008846
 20
1437.786723280998
 10
91.60383176878756
 20
1437.779610554773
 10
91.60878629153861
 20
1437.772649444131
 10
91.61402743714562
 20
1437.765901413778
 10
91.62440556049721
 20
1437.754042076752
 10
91.63570084975289
 20
1437.742926078292
 10
91.64387114879561
 20
1437.735818240958
 10
91.65237918470927
 20
1437.72911812022
 10
91.66128461982779
 20
1437.722777298903
 10
91.670482630626
 20
1437.716868664015
  0
LWPOLYLINE
  5
1566
330
1F
100
AcDbEntity
  8
SANINDUSA
100
AcDbPolyline
 90
        7
 70
   128
 43
0.0
 10
91.15574844820448
 20
1437.734281337169
 10
91.14776248145538
 20
1437.741064893643
 10
91.14009331489127
 20
1437.748239839841
 10
91.13020599851358
 20
1437.758627064732
 10
91.12104994869978
 20
1437.769663614687
 10
91.1125281946191
 20
1437.781551414736
 10
91.10489334513118
 20
1437.794026625986
  0
LWPOLYLINE
  5
1567
330
1F
100
AcDbEntity
  8
SANINDUSA
100
AcDbPolyline
 90
       26
 70
   128
 43
0.0
 10
91.30969639348919
 20
1437.667086569023
 10
91.30575146166204
 20
1437.667115408545
 10
91.28898292782496
 20
1437.667887975693
 10
91.27224528247683
 20
1437.66970977054
 10
91.25563790422868
 20
1437.672571548692
 10
91.2392601716915
 20
1437.676464065752
 10
91.22321146347632
 20
1437.681378077325
 10
91.20767770326052
 20
1437.687262740517
 10
91.19250795687873
 20
1437.69416734217
 10
91.17780921057988
 20
1437.702057402826
 10
91.1636884506128
 20
1437.710898443023
 10
91.15025266322641
 20
1437.720655983303
 10
91.13841440430705
 20
1437.730549921924
 10
91.12725978083025
 20
1437.741207943242
 10
91.12022175649732
 20
1437.748738830104
 10
91.11353748777998
 20
1437.756585250805
 10
91.105255943448
 20
1437.76746739595
 10
91.09765742217865
 20
1437.778889686894
 10
91.09079800678797
 20
1437.79078463568
 10
91.08473378009206
 20
1437.803084754347
 10
91.07952082490701
 20
1437.815722554938
 10
91.07507503560293
 20
1437.829081317161
 10
91.0715710882526
 20
1437.842773282216
 10
91.06903547228322
 20
1437.856694387699
 10
91.06749467712189
 20
1437.870740571201
 10
91.06697519219578
 20
1437.884807770316
  0
LINE
  5
156A
330
1F
100
AcDbEntity
  8
SANINDUSA
100
AcDbLine
 10
90.91349896807631
 20
1438.137524316464
 30
0.0
 11
90.91349896807631
 21
1437.773007271111
 31
0.0
  0
LINE
  5
156E
330
1F
100
AcDbEntity
  8
SANINDUSA
100
AcDbLine
 10
90.90469639348919
 20
1438.152807770316
 30
0.0
 11
90.90469639348919
 21
1437.764807770316
 31
0.0
  0
LWPOLYLINE
  5
1570
330
1F
100
AcDbEntity
  8
SANINDUSA
100
AcDbPolyline
 90
       26
 70
   128
 43
0.0
 10
91.7996963934892
 20
1437.667086569023
 10
91.80364132531634
 20
1437.667115408545
 10
91.82040985915341
 20
1437.667887975693
 10
91.83714750450155
 20
1437.66970977054
 10
91.85375488274969
 20
1437.672571548692
 10
91.87013261528688
 20
1437.676464065752
 10
91.88618132350205
 20
1437.681378077325
 10
91.90171508371788
 20
1437.687262740517
 10
91.91688483009965
 20
1437.69416734217
 10
91.9315835763985
 20
1437.702057402826
 10
91.94570433636558
 20
1437.710898443023
 10
91.95914012375197
 20
1437.720655983303
 10
91.97097838267131
 20
1437.730549921924
 10
91.98213300614813
 20
1437.741207943242
 10
91.98917103048108
 20
1437.748738830104
 10
91.9958552991984
 20
1437.756585250805
 10
92.00413684353037
 20
1437.76746739595
 10
92.01173536479975
 20
1437.778889686894
 10
92.01859478019041
 20
1437.79078463568
 10
92.02465900688633
 20
1437.803084754347
 10
92.02987196207137
 20
1437.815722554938
 10
92.03431775137545
 20
1437.829081317161
 10
92.03782169872576
 20
1437.842773282216
 10
92.04035731469517
 20
1437.856694387699
 10
92.04189810985649
 20
1437.870740571201
 10
92.04241759478259
 20
1437.884807770316
  0
LINE
  5
1572
330
1F
100
AcDbEntity
  8
SANINDUSA
100
AcDbLine
 10
92.19589381890207
 20
1438.137524316464
 30
0.0
 11
92.19589381890207
 21
1437.773007271111
 31
0.0
  0
LINE
  5
1576
330
1F
100
AcDbEntity
  8
SANINDUSA
100
AcDbLine
 10
92.20469639348918
 20
1438.152807770316
 30
0.0
 11
92.20469639348918
 21
1437.764807770316
 31
0.0
  0
LWPOLYLINE
  5
157A
330
1F
100
AcDbEntity
  8
SANINDUSA
100
AcDbPolyline
 90
       12
 70
   128
 43
0.0
 10
91.79969639348918
 20
1437.681231241547
 10
91.81407002949425
 20
1437.681635689865
 10
91.82840961569683
 20
1437.682847069768
 10
91.84264681913544
 20
1437.684862433678
 10
91.85717370818725
 20
1437.687781156015
 10
91.87151640293816
 20
1437.691551042994
 10
91.88559724478169
 20
1437.696161811385
 10
91.9000956189518
 20
1437.701925058399
 10
91.91414079664586
 20
1437.708585310075
 10
91.92772056051785
 20
1437.716148583267
 10
91.94099778129972
 20
1437.724764647796
 10
91.9536443387739
 20
1437.734281337169
  0
LWPOLYLINE
  5
157C
330
1F
100
AcDbEntity
  8
SANINDUSA
100
AcDbPolyline
 90
       17
 70
   128
 43
0.0
 10
92.02654196091982
 20
1437.741452808898
 10
92.01847186155946
 20
1437.731425343307
 10
92.00990820035702
 20
1437.721815772613
 10
91.99798316906671
 20
1437.709902816808
 10
91.98526811546589
 20
1437.698741511469
 10
91.97185170349731
 20
1437.688374556528
 10
91.95782259710375
 20
1437.678844651918
 10
91.94326946022796
 20
1437.67019449757
 10
91.92828095681267
 20
1437.662466793417
 10
91.91292745058481
 20
1437.655680078171
 10
91.89715604964501
 20
1437.649777383976
 10
91.88104693529037
 20
1437.644772445108
 10
91.86468028881796
 20
1437.64067899584
 10
91.84813629152486
 20
1437.637510770445
 10
91.83149512470816
 20
1437.635281503198
 10
91.8156176590657
 20
1437.634028960692
 10
91.79969639348918
 20
1437.633610344903
  0
LWPOLYLINE
  5
1580
330
1F
100
AcDbEntity
  8
SANINDUSA
100
AcDbPolyline
 90
       17
 70
   128
 43
0.0
 10
92.0304470325837
 20
1437.732137431191
 10
92.01821392063022
 20
1437.717841256416
 10
92.00495461171948
 20
1437.704398455569
 10
91.99078416222945
 20
1437.691879152631
 10
91.97581762853811
 20
1437.680353471583
 10
91.96017006702341
 20
1437.669891536404
 10
91.94393972725588
 20
1437.660534507322
 10
91.92709184716326
 20
1437.65221570119
 10
91.9097348989546
 20
1437.644963311598
 10
91.89197735483899
 20
1437.638805532134
 10
91.87392768702544
 20
1437.63377055639
 10
91.86367998151714
 20
1437.631435847648
 10
91.8498663490331
 20
1437.628862761633
 10
91.83594314875767
 20
1437.626916873411
 10
91.82195350579039
 20
1437.625600737974
 10
91.81083202157296
 20
1437.62500595348
 10
91.79969639348918
 20
1437.624807770316
  0
LINE
  5
1584
330
1F
100
AcDbEntity
  8
SANINDUSA
100
AcDbLine
 10
91.30969639348919
 20
1437.667086569023
 30
0.0
 11
91.79969639348918
 21
1437.667086569023
 31
0.0
  0
LINE
  5
1585
330
1F
100
AcDbEntity
  8
SANINDUSA
100
AcDbLine
 10
91.79969639348918
 20
1437.633610344903
 30
0.0
 11
91.30969639348919
 21
1437.633610344903
 31
0.0
  0
LINE
  5
1589
330
1F
100
AcDbEntity
  8
SANINDUSA
100
AcDbLine
 10
91.79969639348918
 20
1437.624807770316
 30
0.0
 11
91.30969639348919
 21
1437.624807770316
 31
0.0
  0
LWPOLYLINE
  5
158B
330
1F
100
AcDbEntity
  8
SANINDUSA
100
AcDbPolyline
 90
        6
 70
   128
 43
0.0
 10
91.37884285890075
 20
1437.690776923455
 10
91.36330708510071
 20
1437.686916651875
 10
91.35012999660331
 20
1437.684446040017
 10
91.33680345888707
 20
1437.682670560123
 10
91.32328802360781
 20
1437.681592939796
 10
91.30969639348919
 20
1437.681231241547
  0
LWPOLYLINE
  5
158D
330
1F
100
AcDbEntity
  8
SANINDUSA
100
AcDbPolyline
 90
       17
 70
   128
 43
0.0
 10
91.08285082605856
 20
1437.741452808898
 10
91.09092092541892
 20
1437.731425343307
 10
91.09948458662136
 20
1437.721815772613
 10
91.1114096179117
 20
1437.709902816808
 10
91.1241246715125
 20
1437.698741511469
 10
91.13754108348107
 20
1437.688374556528
 10
91.15157018987462
 20
1437.678844651918
 10
91.16612332675043
 20
1437.67019449757
 10
91.18111183016571
 20
1437.662466793417
 10
91.19646533639357
 20
1437.655680078171
 10
91.21223673733338
 20
1437.649777383976
 10
91.22834585168801
 20
1437.644772445108
 10
91.24471249816041
 20
1437.64067899584
 10
91.2612564954535
 20
1437.637510770445
 10
91.27789766227023
 20
1437.635281503198
 10
91.29377512791268
 20
1437.634028960692
 10
91.30969639348919
 20
1437.633610344903
  0
LWPOLYLINE
  5
1590
330
1F
100
AcDbEntity
  8
SANINDUSA
100
AcDbPolyline
 90
       17
 70
   128
 43
0.0
 10
91.07894575439466
 20
1437.732137431191
 10
91.09117886634818
 20
1437.717841256416
 10
91.1044381752589
 20
1437.704398455569
 10
91.11860862474893
 20
1437.691879152631
 10
91.13357515844027
 20
1437.680353471583
 10
91.14922271995496
 20
1437.669891536404
 10
91.1654530597225
 20
1437.660534507322
 10
91.18230093981512
 20
1437.65221570119
 10
91.19965788802378
 20
1437.644963311598
 10
91.21741543213941
 20
1437.638805532134
 10
91.23546509995293
 20
1437.63377055639
 10
91.24571280546122
 20
1437.631435847648
 10
91.25952643794526
 20
1437.628862761633
 10
91.27344963822071
 20
1437.626916873411
 10
91.28743928118799
 20
1437.625600737974
 10
91.29856076540541
 20
1437.62500595348
 10
91.30969639348919
 20
1437.624807770316
  0
LINE
  5
1595
330
1F
100
AcDbEntity
  8
SANINDUSA
100
AcDbLine
 10
90.92289589428416
 20
1437.763610344903
 30
0.0
 11
91.03804462450964
 21
1437.763610344903
 31
0.0
  0
LINE
  5
1598
330
1F
100
AcDbEntity
  8
SANINDUSA
100
AcDbLine
 10
90.91469639348918
 20
1437.754807770316
 30
0.0
 11
91.03197239578589
 21
1437.754807770316
 31
0.0
  0
ARC
  5
159A
330
1F
100
AcDbEntity
  8
SANINDUSA
100
AcDbCircle
 10
90.92343320106593
 20
1437.773544577893
 30
0.0
 40
0.0099487528700811
100
AcDbArc
 50
183.0959052675104
 51
266.9040947324894
  0
ARC
  5
15A4
330
1F
100
AcDbEntity
  8
SANINDUSA
100
AcDbCircle
 10
90.91469639348918
 20
1437.764807770316
 30
0.0
 40
0.01
100
AcDbArc
 50
180.0
 51
270.0
  0
LWPOLYLINE
  5
15A9
330
1F
100
AcDbEntity
  8
SANINDUSA
100
AcDbPolyline
 90
       10
 70
   128
 43
0.0
 10
91.03804462450964
 20
1437.763610344903
 10
91.04446656053228
 20
1437.763274156379
 10
91.05083004776009
 20
1437.762212155462
 10
91.0570088452386
 20
1437.760434088374
 10
91.06287939878212
 20
1437.757965817229
 10
91.06844614342296
 20
1437.754828313832
 10
91.0735991575977
 20
1437.751085974889
 10
91.07717164187832
 20
1437.74789179585
 10
91.08045985244872
 20
1437.744405606829
 10
91.08285082605856
 20
1437.741452808898
  0
ARC
  5
15AB
330
1F
100
AcDbEntity
  8
SANINDUSA
100
AcDbCircle
 10
91.03197239578589
 20
1437.694807770316
 30
0.0
 40
0.0600000000000001
100
AcDbArc
 50
38.47411551059186
 51
90.0
  0
LWPOLYLINE
  5
15B8
330
1F
100
AcDbEntity
  8
SANINDUSA
100
AcDbPolyline
 90
       12
 70
   128
 43
0.0
 10
91.30969639348919
 20
1437.681231241547
 10
91.29532275748413
 20
1437.681635689865
 10
91.28098317128154
 20
1437.682847069768
 10
91.26674596784294
 20
1437.684862433678
 10
91.25221907879113
 20
1437.687781156015
 10
91.23787638404023
 20
1437.691551042994
 10
91.22379554219667
 20
1437.696161811385
 10
91.20929716802656
 20
1437.701925058399
 10
91.19525199033253
 20
1437.708585310075
 10
91.18167222646054
 20
1437.716148583267
 10
91.16839500567866
 20
1437.724764647796
 10
91.15574844820448
 20
1437.734281337169
  0
LWPOLYLINE
  5
15BA
330
1F
100
AcDbEntity
  8
SANINDUSA
100
AcDbPolyline
 90
        6
 70
   128
 43
0.0
 10
91.43891015635238
 20
1437.716868664015
 10
91.42496228096074
 20
1437.709010129829
 10
91.41387144751266
 20
1437.703606838816
 10
91.40248777194152
 20
1437.698767183177
 10
91.39078124662317
 20
1437.694478838363
 10
91.37884285890075
 20
1437.690776923455
  0
LWPOLYLINE
  5
15BC
330
1F
100
AcDbEntity
  8
SANINDUSA
100
AcDbPolyline
 90
        6
 70
   128
 43
0.0
 10
91.73054992807761
 20
1437.690776923455
 10
91.74608570187768
 20
1437.686916651875
 10
91.75926279037506
 20
1437.684446040017
 10
91.77258932809129
 20
1437.682670560123
 10
91.78610476337055
 20
1437.681592939796
 10
91.79969639348918
 20
1437.681231241547
  0
LWPOLYLINE
  5
15BD
330
1F
100
AcDbEntity
  8
SANINDUSA
100
AcDbPolyline
 90
        6
 70
   128
 43
0.0
 10
91.670482630626
 20
1437.716868664015
 10
91.68443050601764
 20
1437.709010129829
 10
91.69552133946572
 20
1437.703606838816
 10
91.70690501503685
 20
1437.698767183177
 10
91.71861154035523
 20
1437.694478838363
 10
91.73054992807761
 20
1437.690776923455
  0
LINE
  5
15C0
330
1F
100
AcDbEntity
  8
SANINDUSA
100
AcDbLine
 10
92.18649689269421
 20
1437.763610344903
 30
0.0
 11
92.07134816246872
 21
1437.763610344903
 31
0.0
  0
LINE
  5
15C3
330
1F
100
AcDbEntity
  8
SANINDUSA
100
AcDbLine
 10
92.19469639348918
 20
1437.754807770316
 30
0.0
 11
92.07742039119247
 21
1437.754807770316
 31
0.0
  0
ARC
  5
15C5
330
1F
100
AcDbEntity
  8
SANINDUSA
100
AcDbCircle
 10
92.07742039119247
 20
1437.694807770316
 30
0.0
 40
0.0600000000000005
100
AcDbArc
 50
90.0
 51
141.5258844894081
  0
LWPOLYLINE
  5
15C6
330
1F
100
AcDbEntity
  8
SANINDUSA
100
AcDbPolyline
 90
       10
 70
   128
 43
0.0
 10
92.07134816246874
 20
1437.763610344903
 10
92.06492622644608
 20
1437.763274156379
 10
92.05856273921829
 20
1437.762212155462
 10
92.05238394173978
 20
1437.760434088374
 10
92.04651338819624
 20
1437.757965817229
 10
92.04094664355542
 20
1437.754828313832
 10
92.0357936293807
 20
1437.751085974889
 10
92.03222114510005
 20
1437.74789179585
 10
92.02893293452966
 20
1437.744405606829
 10
92.02654196091982
 20
1437.741452808898
  0
ARC
  5
15D3
330
1F
100
AcDbEntity
  8
SANINDUSA
100
AcDbCircle
 10
92.18595958591244
 20
1437.773544577893
 30
0.0
 40
0.0099487528700805
100
AcDbArc
 50
273.0959052675106
 51
356.9040947324896
  0
ARC
  5
15DE
330
1F
100
AcDbEntity
  8
SANINDUSA
100
AcDbCircle
 10
92.19469639348918
 20
1437.764807770316
 30
0.0
 40
0.01
100
AcDbArc
 50
270.0
 51
0.0
  0
LINE
  5
15E4
330
1F
100
AcDbEntity
  8
SANINDUSA
100
AcDbLine
 10
90.92183713352289
 20
1438.154807770316
 30
0.0
 11
92.18755565345547
 21
1438.154807770316
 31
0.0
  0
LINE
  5
15E7
330
1F
100
AcDbEntity
  8
SANINDUSA
100
AcDbLine
 10
91.07533336662916
 20
1438.140640379497
 30
0.0
 11
92.03405942034923
 21
1438.140640379497
 31
0.0
  0
LWPOLYLINE
  5
15EA
330
1F
100
AcDbEntity
  8
SANINDUSA
100
AcDbPolyline
 90
        9
 70
   128
 43
0.0
 10
91.96828644958218
 20
1438.016914863796
 10
91.96015223588279
 20
1438.018398923464
 10
91.95189645714119
 20
1438.019116056441
 10
91.94356909966428
 20
1438.01931689332
 10
91.93522014975895
 20
1438.019252064691
 10
91.92689959373215
 20
1438.019172201148
 10
91.88494997476258
 20
1438.019108401965
 10
91.86267652223667
 20
1438.019053872145
 10
91.79969639348918
 20
1438.018950423187
  0
LWPOLYLINE
  5
15FB
330
1F
100
AcDbEntity
  8
SANINDUSA
100
AcDbPolyline
 90
        6
 70
   128
 43
0.0
 10
91.30969639348919
 20
1438.018950423187
 10
91.33019751425074
 20
1438.018964854807
 10
91.39563761576246
 20
1438.019109972953
 10
91.42835765248754
 20
1438.01916603204
 10
91.44471880044482
 20
1438.019244611196
 10
91.46107807845593
 20
1438.019146744872
  0
LWPOLYLINE
  5
1600
330
1F
100
AcDbEntity
  8
SANINDUSA
100
AcDbPolyline
 90
       10
 70
   128
 43
0.0
 10
91.09497603393256
 20
1437.985616504582
 10
91.09792026775558
 20
1437.989523606002
 10
91.10227001191278
 20
1437.994497436709
 10
91.1070186485406
 20
1437.999091868029
 10
91.11229229520846
 20
1438.003387471661
 10
91.11791465996246
 20
1438.007215716647
 10
91.12333385444577
 20
1438.010287689201
 10
91.12897743529375
 20
1438.012924863829
 10
91.134962138249
 20
1438.015162421178
 10
91.1411063373962
 20
1438.016914863796
  0
LWPOLYLINE
  5
1603
330
1F
100
AcDbEntity
  8
SANINDUSA
100
AcDbPolyline
 90
        6
 70
   128
 43
0.0
 10
91.06697519219578
 20
1437.884807770316
 10
91.06695808735061
 20
1437.949200534074
 10
91.06685066634506
 20
1438.013591662152
 10
91.06676475579437
 20
1438.046862200153
 10
91.06668276491598
 20
1438.113427942839
 10
91.06667803281046
 20
1438.135381818505
  0
LWPOLYLINE
  5
160B
330
1F
100
AcDbEntity
  8
SANINDUSA
100
AcDbPolyline
 90
        8
 70
   128
 43
0.0
 10
91.08811514910458
 20
1437.833702143025
 10
91.08602334542606
 20
1437.841425674209
 10
91.08426509049051
 20
1437.849247272913
 10
91.08188183976411
 20
1437.864264263466
 10
91.0807488913989
 20
1437.879427197211
 10
91.08053970391713
 20
1437.89485212128
 10
91.08057258438924
 20
1437.910281426951
 10
91.08054781204382
 20
1437.934807770316
  0
LWPOLYLINE
  5
160D
330
1F
100
AcDbEntity
  8
SANINDUSA
100
AcDbPolyline
 90
        4
 70
   128
 43
0.0
 10
91.10489334513118
 20
1437.794026625986
 10
91.0976247853671
 20
1437.808295307937
 10
91.09242508353283
 20
1437.820794827871
 10
91.08811514910458
 20
1437.833702143025
  0
LWPOLYLINE
  5
1610
330
1F
100
AcDbEntity
  8
SANINDUSA
100
AcDbPolyline
 90
        3
 70
   128
 43
0.0
 10
91.08054781204382
 20
1437.934807770316
 10
91.08054063573069
 20
1437.937646792756
 10
91.08055108019394
 20
1437.940481356477
  0
LWPOLYLINE
  5
1613
330
1F
100
AcDbEntity
  8
SANINDUSA
100
AcDbPolyline
 90
        5
 70
   128
 43
0.0
 10
91.08055108019394
 20
1437.940481356477
 10
91.08092166670983
 20
1437.947558541712
 10
91.08191128523111
 20
1437.95462804596
 10
91.0836177271762
 20
1437.961888283661
 10
91.08602888669031
 20
1437.969017727485
  0
LWPOLYLINE
  5
1614
330
1F
100
AcDbEntity
  8
SANINDUSA
100
AcDbPolyline
 90
        4
 70
   128
 43
0.0
 10
91.08602888669031
 20
1437.969017727485
 10
91.08933460082814
 20
1437.976314211928
 10
91.09340881151055
 20
1437.98330893462
 10
91.09497603393256
 20
1437.985616504582
  0
LINE
  5
1616
330
1F
100
AcDbEntity
  8
SANINDUSA
100
AcDbLine
 10
91.05801751435413
 20
1438.143319871422
 30
0.0
 11
90.92116487704391
 21
1438.143319871422
 31
0.0
  0
LWPOLYLINE
  5
1619
330
1F
100
AcDbEntity
  8
SANINDUSA
100
AcDbPolyline
 90
        9
 70
   128
 43
0.0
 10
90.91901805566054
 20
1438.154807770316
 10
90.91865140578857
 20
1438.154769340877
 10
90.91829884606557
 20
1438.154655529381
 10
90.91797392516395
 20
1438.15447070954
 10
90.91768912961176
 20
1438.154221983878
 10
90.91745540394237
 20
1438.153918910782
 10
90.91728173010215
 20
1438.153573137181
 10
90.91717478227939
 20
1438.15319795096
 10
90.91713867041896
 20
1438.152807770316
  0
LINE
  5
161A
330
1F
100
AcDbEntity
  8
SANINDUSA
100
AcDbLine
 10
90.92183713352289
 20
1438.154807770316
 30
0.0
 11
90.91901805566054
 21
1438.154807770316
 31
0.0
  0
LINE
  5
161E
330
1F
100
AcDbEntity
  8
SANINDUSA
100
AcDbLine
 10
90.91713867041896
 20
1438.152807770316
 30
0.0
 11
90.91713867041896
 21
1438.149411732244
 31
0.0
  0
LWPOLYLINE
  5
1621
330
1F
100
AcDbEntity
  8
SANINDUSA
100
AcDbPolyline
 90
        8
 70
   128
 43
0.0
 10
90.91713867041896
 20
1438.149411732244
 10
90.91713232513415
 20
1438.149225820637
 10
90.91711351052108
 20
1438.14904639122
 10
90.91708288258985
 20
1438.148879700167
 10
90.91704150924622
 20
1438.148731559506
 10
90.91699083305675
 20
1438.148607134464
 10
90.91693262095088
 20
1438.148510763376
 10
90.91686890261319
 20
1438.148445806417
  0
LINE
  5
1623
330
1F
100
AcDbEntity
  8
SANINDUSA
100
AcDbLine
 10
90.91686890261318
 20
1438.148445806417
 30
0.0
 11
90.91646641393998
 21
1438.148149500553
 31
0.0
  0
LWPOLYLINE
  5
1624
330
1F
100
AcDbEntity
  8
SANINDUSA
100
AcDbPolyline
 90
        8
 70
   128
 43
0.0
 10
90.91646641393998
 20
1438.148149500553
 10
90.91576551222535
 20
1438.147434974011
 10
90.91512517906064
 20
1438.146374892041
 10
90.91456774097652
 20
1438.145006216579
 10
90.91411263419656
 20
1438.143376669305
 10
90.9137757269532
 20
1438.141543067732
 10
90.91356876620933
 20
1438.139569344143
 10
90.91349896807631
 20
1438.137524316464
  0
LINE
  5
1626
330
1F
100
AcDbEntity
  8
SANINDUSA
100
AcDbLine
 10
90.91901805566054
 20
1438.154807770316
 30
0.0
 11
90.91485645754051
 21
1438.154807770316
 31
0.0
  0
LWPOLYLINE
  5
1628
330
1F
100
AcDbEntity
  8
SANINDUSA
100
AcDbPolyline
 90
        9
 70
   128
 43
0.0
 10
90.91646641393998
 20
1438.148149500553
 10
90.9166237390051
 20
1438.147256319527
 10
90.91693649294159
 20
1438.146393709279
 10
90.91739397116594
 20
1438.145591194242
 10
90.91798051563747
 20
1438.144876241985
 10
90.91867605078387
 20
1438.144273323072
 10
90.91945677062479
 20
1438.143803073522
 10
90.92029595357574
 20
1438.143481588498
 10
90.92116487704391
 20
1438.143319871422
  0
LINE
  5
162D
330
1F
100
AcDbEntity
  8
SANINDUSA
100
AcDbLine
 10
90.91485645754051
 20
1438.154807770316
 30
0.0
 11
90.90847314400956
 21
1438.154807770316
 31
0.0
  0
ARC
  5
162F
330
1F
100
AcDbEntity
  8
SANINDUSA
100
AcDbCircle
 10
90.90669639348918
 20
1438.152807770316
 30
0.0
 40
0.0020000000000002
100
AcDbArc
 50
90.0
 51
180.0
  0
LINE
  5
1630
330
1F
100
AcDbEntity
  8
SANINDUSA
100
AcDbLine
 10
90.90847314400956
 20
1438.154807770316
 30
0.0
 11
90.90669639348918
 21
1438.154807770316
 31
0.0
  0
LWPOLYLINE
  5
1631
330
1F
100
AcDbEntity
  8
SANINDUSA
100
AcDbPolyline
 90
        8
 70
   128
 43
0.0
 10
91.07187464962379
 20
1438.141175702715
 10
91.07132017333817
 20
1438.141414685937
 10
91.06969825137658
 20
1438.141961908042
 10
91.06775661150029
 20
1438.142434127368
 10
91.06557231007604
 20
1438.14281139066
 10
91.06317866902655
 20
1438.143090695885
 10
91.06063538488909
 20
1438.143261651116
 10
91.05801751435413
 20
1438.143319871422
  0
LWPOLYLINE
  5
1634
330
1F
100
AcDbEntity
  8
SANINDUSA
100
AcDbPolyline
 90
        5
 70
   128
 43
0.0
 10
91.07533336662916
 20
1438.140640379497
 10
91.07404557748948
 20
1438.140697556536
 10
91.07290328693194
 20
1438.140861368329
 10
91.07201382525461
 20
1438.141115736394
 10
91.07187464962379
 20
1438.141175702715
  0
LWPOLYLINE
  5
1635
330
1F
100
AcDbEntity
  8
SANINDUSA
100
AcDbPolyline
 90
        9
 70
   128
 43
0.0
 10
91.07187464962379
 20
1438.141175702715
 10
91.07093587617139
 20
1438.140946534304
 10
91.0700274700039
 20
1438.140537305362
 10
91.06917881609042
 20
1438.139961253558
 10
91.06841736654429
 20
1438.139237012918
 10
91.06776775260662
 20
1438.138388011055
 10
91.06725098787929
 20
1438.13744171134
 10
91.06688378858029
 20
1438.136428724514
 10
91.06667803281046
 20
1438.135381818505
  0
LWPOLYLINE
  5
1638
330
1F
100
AcDbEntity
  8
SANINDUSA
100
AcDbPolyline
 90
        9
 70
   128
 43
0.0
 10
91.1411063373962
 20
1438.016914863796
 10
91.14924055109559
 20
1438.018398923464
 10
91.15749632983719
 20
1438.019116056441
 10
91.1658236873141
 20
1438.01931689332
 10
91.17417263721941
 20
1438.019252064691
 10
91.18249319324624
 20
1438.019172201148
 10
91.2244428122158
 20
1438.019108401965
 10
91.24671626474171
 20
1438.019053872145
 10
91.30969639348919
 20
1438.018950423187
  0
CIRCLE
  5
1644
330
1F
100
AcDbEntity
  8
SANINDUSA
100
AcDbCircle
 10
91.30974784139743
 20
1437.934802956423
 30
0.0
 40
0.0240509429964184
  0
CIRCLE
  5
1651
330
1F
100
AcDbEntity
  8
SANINDUSA
100
AcDbCircle
 10
91.30969639348919
 20
1438.079807770316
 30
0.0
 40
0.0175
  0
LWPOLYLINE
  5
1655
330
1F
100
AcDbEntity
  8
SANINDUSA
100
AcDbPolyline
 90
       10
 70
   128
 43
0.0
 10
91.64831470852245
 20
1438.019146744872
 10
91.64029608684151
 20
1438.018574921881
 10
91.63235453748672
 20
1438.01720189575
 10
91.62461034426165
 20
1438.015045784949
 10
91.6163842364482
 20
1438.011771533377
 10
91.60854622368503
 20
1438.007594705626
 10
91.6012420165684
 20
1438.002591230234
 10
91.59440698399038
 20
1437.996658058136
 10
91.58829298602338
 20
1437.989983920247
 10
91.58497603677515
 20
1437.98561650861
  0
LWPOLYLINE
  5
165D
330
1F
100
AcDbEntity
  8
SANINDUSA
100
AcDbPolyline
 90
       10
 70
   128
 43
0.0
 10
91.46107807845593
 20
1438.019146744872
 10
91.46909670013688
 20
1438.018574921881
 10
91.47703824949166
 20
1438.01720189575
 10
91.48478244271672
 20
1438.015045784949
 10
91.49300855053018
 20
1438.011771533377
 10
91.50084656329333
 20
1438.007594705626
 10
91.50815077040999
 20
1438.002591230234
 10
91.51498580298799
 20
1437.996658058136
 10
91.52109980095501
 20
1437.989983920247
 10
91.52441675020325
 20
1437.98561650861
  0
LWPOLYLINE
  5
1662
330
1F
100
AcDbEntity
  8
SANINDUSA
100
AcDbPolyline
 90
       10
 70
   128
 43
0.0
 10
91.53884497493455
 20
1437.934807770316
 10
91.53877292530314
 20
1437.891373880412
 10
91.53856204863137
 20
1437.880455484341
 10
91.5379172852652
 20
1437.869541107237
 10
91.53672180478379
 20
1437.858684644244
 10
91.53485877676628
 20
1437.847939990508
 10
91.53176798051978
 20
1437.835399575957
 10
91.52779421979607
 20
1437.823044171335
 10
91.52177439584068
 20
1437.80830926105
 10
91.51449938200169
 20
1437.794026519535
  0
LWPOLYLINE
  5
1664
330
1F
100
AcDbEntity
  8
SANINDUSA
100
AcDbPolyline
 90
       10
 70
   128
 43
0.0
 10
91.57054781204383
 20
1437.934807770316
 10
91.57061986167525
 20
1437.891373880412
 10
91.570830738347
 20
1437.880455484341
 10
91.57147550171318
 20
1437.869541107237
 10
91.57267098219461
 20
1437.858684644244
 10
91.57453401021209
 20
1437.847939990508
 10
91.57762480645862
 20
1437.835399575957
 10
91.58159856718233
 20
1437.823044171335
 10
91.5876183911377
 20
1437.80830926105
 10
91.59489340497669
 20
1437.794026519535
  0
LWPOLYLINE
  5
166B
330
1F
100
AcDbEntity
  8
SANINDUSA
100
AcDbPolyline
 90
        9
 70
   128
 43
0.0
 10
91.52441675020325
 20
1437.98561650861
 10
91.52903822348052
 20
1437.97822680395
 10
91.53285871809472
 20
1437.970271946932
 10
91.53493722822858
 20
1437.964631210987
 10
91.53657823696898
 20
1437.958847980519
 10
91.53779606888095
 20
1437.952812800558
 10
91.53854848056743
 20
1437.946701731563
 10
91.53883782334075
 20
1437.94076676515
 10
91.53884497493455
 20
1437.934807770316
  0
LWPOLYLINE
  5
166C
330
1F
100
AcDbEntity
  8
SANINDUSA
100
AcDbPolyline
 90
        9
 70
   128
 43
0.0
 10
91.58497603677515
 20
1437.98561650861
 10
91.58035456349784
 20
1437.97822680395
 10
91.57653406888364
 20
1437.970271946932
 10
91.5744555587498
 20
1437.964631210987
 10
91.57281455000939
 20
1437.958847980519
 10
91.57159671809742
 20
1437.952812800558
 10
91.57084430641095
 20
1437.946701731563
 10
91.57055496363764
 20
1437.94076676515
 10
91.57054781204383
 20
1437.934807770316
  0
LWPOLYLINE
  5
166F
330
1F
100
AcDbEntity
  8
SANINDUSA
100
AcDbPolyline
 90
        6
 70
   128
 43
0.0
 10
91.79969639348918
 20
1438.018950423187
 10
91.77919527272763
 20
1438.018964854807
 10
91.71375517121592
 20
1438.019109972953
 10
91.68103513449084
 20
1438.01916603204
 10
91.66467398653356
 20
1438.019244611196
 10
91.64831470852245
 20
1438.019146744872
  0
CIRCLE
  5
1678
330
1F
100
AcDbEntity
  8
SANINDUSA
100
AcDbCircle
 10
91.79969649571907
 20
1437.934807908211
 30
0.0
 40
0.0239998621034217
  0
CIRCLE
  5
1687
330
1F
100
AcDbEntity
  8
SANINDUSA
100
AcDbCircle
 10
91.79969639348918
 20
1438.079807770316
 30
0.0
 40
0.0175
  0
LINE
  5
1689
330
1F
100
AcDbEntity
  8
SANINDUSA
100
AcDbLine
 10
92.05137527262424
 20
1438.143319871422
 30
0.0
 11
92.18822790993447
 21
1438.143319871422
 31
0.0
  0
LWPOLYLINE
  5
168C
330
1F
100
AcDbEntity
  8
SANINDUSA
100
AcDbPolyline
 90
        6
 70
   128
 43
0.0
 10
92.04241759478259
 20
1437.884807770316
 10
92.04243469962776
 20
1437.949200534074
 10
92.04254212063331
 20
1438.013591662152
 10
92.04262803118401
 20
1438.046862200153
 10
92.0427100220624
 20
1438.113427942839
 10
92.04271475416792
 20
1438.135381818505
  0
LWPOLYLINE
  5
1697
330
1F
100
AcDbEntity
  8
SANINDUSA
100
AcDbPolyline
 90
       10
 70
   128
 43
0.0
 10
92.01441675304581
 20
1437.985616504582
 10
92.01147251922279
 20
1437.989523606002
 10
92.00712277506561
 20
1437.994497436709
 10
92.00237413843778
 20
1437.999091868029
 10
91.99710049176992
 20
1438.003387471661
 10
91.99147812701593
 20
1438.007215716647
 10
91.98605893253262
 20
1438.010287689201
 10
91.98041535168462
 20
1438.012924863829
 10
91.9744306487294
 20
1438.015162421178
 10
91.96828644958218
 20
1438.016914863796
  0
LWPOLYLINE
  5
1698
330
1F
100
AcDbEntity
  8
SANINDUSA
100
AcDbPolyline
 90
        4
 70
   128
 43
0.0
 10
92.0044994418472
 20
1437.794026625986
 10
92.01176800161128
 20
1437.808295307937
 10
92.01696770344556
 20
1437.820794827871
 10
92.0212776378738
 20
1437.833702143025
  0
LWPOLYLINE
  5
169C
330
1F
100
AcDbEntity
  8
SANINDUSA
100
AcDbPolyline
 90
        8
 70
   128
 43
0.0
 10
92.0212776378738
 20
1437.833702143025
 10
92.02336944155232
 20
1437.841425674209
 10
92.02512769648786
 20
1437.849247272913
 10
92.02751094721428
 20
1437.864264263466
 10
92.02864389557948
 20
1437.879427197211
 10
92.02885308306123
 20
1437.89485212128
 10
92.02882020258915
 20
1437.910281426951
 10
92.02884497493455
 20
1437.934807770316
  0
LWPOLYLINE
  5
169F
330
1F
100
AcDbEntity
  8
SANINDUSA
100
AcDbPolyline
 90
        3
 70
   128
 43
0.0
 10
92.02884497493455
 20
1437.934807770316
 10
92.02885215124771
 20
1437.937646792756
 10
92.02884170678444
 20
1437.940481356477
  0
LWPOLYLINE
  5
16A1
330
1F
100
AcDbEntity
  8
SANINDUSA
100
AcDbPolyline
 90
        5
 70
   128
 43
0.0
 10
92.02884170678444
 20
1437.940481356477
 10
92.02847112026855
 20
1437.947558541712
 10
92.02748150174727
 20
1437.95462804596
 10
92.02577505980221
 20
1437.961888283661
 10
92.02336390028806
 20
1437.969017727485
  0
LWPOLYLINE
  5
16A5
330
1F
100
AcDbEntity
  8
SANINDUSA
100
AcDbPolyline
 90
        4
 70
   128
 43
0.0
 10
92.02336390028806
 20
1437.969017727485
 10
92.02005818615024
 20
1437.976314211928
 10
92.01598397546781
 20
1437.98330893462
 10
92.01441675304581
 20
1437.985616504582
  0
LWPOLYLINE
  5
16A6
330
1F
100
AcDbEntity
  8
SANINDUSA
100
AcDbPolyline
 90
        8
 70
   128
 43
0.0
 10
92.03751813735458
 20
1438.141175702715
 10
92.03807261364021
 20
1438.141414685937
 10
92.03969453560178
 20
1438.141961908042
 10
92.04163617547807
 20
1438.142434127368
 10
92.04382047690234
 20
1438.14281139066
 10
92.04621411795184
 20
1438.143090695885
 10
92.0487574020893
 20
1438.143261651116
 10
92.05137527262426
 20
1438.143319871422
  0
LWPOLYLINE
  5
16A7
330
1F
100
AcDbEntity
  8
SANINDUSA
100
AcDbPolyline
 90
        9
 70
   128
 43
0.0
 10
92.03751813735458
 20
1438.141175702715
 10
92.03845691080699
 20
1438.140946534304
 10
92.03936531697449
 20
1438.140537305362
 10
92.04021397088794
 20
1438.139961253558
 10
92.04097542043411
 20
1438.139237012918
 10
92.04162503437174
 20
1438.138388011055
 10
92.04214179909909
 20
1438.13744171134
 10
92.04250899839809
 20
1438.136428724514
 10
92.04271475416792
 20
1438.135381818505
  0
LWPOLYLINE
  5
16A9
330
1F
100
AcDbEntity
  8
SANINDUSA
100
AcDbPolyline
 90
        5
 70
   128
 43
0.0
 10
92.03405942034923
 20
1438.140640379497
 10
92.03534720948891
 20
1438.140697556536
 10
92.03648950004645
 20
1438.140861368329
 10
92.03737896172375
 20
1438.141115736394
 10
92.03751813735458
 20
1438.141175702715
  0
LINE
  5
16AD
330
1F
100
AcDbEntity
  8
SANINDUSA
100
AcDbLine
 10
92.19037473131782
 20
1438.154807770316
 30
0.0
 11
92.19453632943787
 21
1438.154807770316
 31
0.0
  0
LWPOLYLINE
  5
16AE
330
1F
100
AcDbEntity
  8
SANINDUSA
100
AcDbPolyline
 90
        8
 70
   128
 43
0.0
 10
92.19292637303841
 20
1438.148149500553
 10
92.19362727475303
 20
1438.147434974011
 10
92.19426760791774
 20
1438.146374892041
 10
92.19482504600184
 20
1438.145006216579
 10
92.19528015278182
 20
1438.143376669305
 10
92.19561706002517
 20
1438.141543067732
 10
92.19582402076904
 20
1438.139569344143
 10
92.19589381890207
 20
1438.137524316464
  0
LWPOLYLINE
  5
16B1
330
1F
100
AcDbEntity
  8
SANINDUSA
100
AcDbPolyline
 90
        9
 70
   128
 43
0.0
 10
92.19037473131782
 20
1438.154807770316
 10
92.19074138118982
 20
1438.154769340877
 10
92.19109394091281
 20
1438.154655529381
 10
92.19141886181443
 20
1438.15447070954
 10
92.19170365736662
 20
1438.154221983878
 10
92.19193738303602
 20
1438.153918910782
 10
92.19211105687623
 20
1438.153573137181
 10
92.19221800469897
 20
1438.15319795096
 10
92.19225411655941
 20
1438.152807770316
  0
LWPOLYLINE
  5
16B5
330
1F
100
AcDbEntity
  8
SANINDUSA
100
AcDbPolyline
 90
        9
 70
   128
 43
0.0
 10
92.19292637303841
 20
1438.148149500553
 10
92.19276904797329
 20
1438.147256319527
 10
92.19245629403678
 20
1438.146393709279
 10
92.19199881581245
 20
1438.145591194242
 10
92.19141227134089
 20
1438.144876241985
 10
92.19071673619451
 20
1438.144273323072
 10
92.18993601635359
 20
1438.143803073522
 10
92.18909683340264
 20
1438.143481588498
 10
92.18822790993447
 20
1438.143319871422
  0
LINE
  5
16B7
330
1F
100
AcDbEntity
  8
SANINDUSA
100
AcDbLine
 10
92.18755565345547
 20
1438.154807770316
 30
0.0
 11
92.19037473131782
 21
1438.154807770316
 31
0.0
  0
LINE
  5
16BC
330
1F
100
AcDbEntity
  8
SANINDUSA
100
AcDbLine
 10
92.19225411655941
 20
1438.152807770316
 30
0.0
 11
92.19225411655941
 21
1438.149411732244
 31
0.0
  0
LWPOLYLINE
  5
16BD
330
1F
100
AcDbEntity
  8
SANINDUSA
100
AcDbPolyline
 90
        8
 70
   128
 43
0.0
 10
92.19225411655941
 20
1438.149411732244
 10
92.19226046184422
 20
1438.149225820637
 10
92.1922792764573
 20
1438.14904639122
 10
92.19230990438852
 20
1438.148879700167
 10
92.19235127773215
 20
1438.148731559506
 10
92.19240195392162
 20
1438.148607134464
 10
92.19246016602751
 20
1438.148510763376
 10
92.19252388436521
 20
1438.148445806417
  0
LINE
  5
16BE
330
1F
100
AcDbEntity
  8
SANINDUSA
100
AcDbLine
 10
92.19252388436519
 20
1438.148445806417
 30
0.0
 11
92.19292637303841
 21
1438.148149500553
 31
0.0
  0
LINE
  5
16C2
330
1F
100
AcDbEntity
  8
SANINDUSA
100
AcDbLine
 10
92.19453632943787
 20
1438.154807770316
 30
0.0
 11
92.20091964296882
 21
1438.154807770316
 31
0.0
  0
ARC
  5
16C4
330
1F
100
AcDbEntity
  8
SANINDUSA
100
AcDbCircle
 10
92.20269639348918
 20
1438.152807770316
 30
0.0
 40
0.0020000000000002
100
AcDbArc
 50
0.0
 51
90.0
  0
LINE
  5
16C5
330
1F
100
AcDbEntity
  8
SANINDUSA
100
AcDbLine
 10
92.20091964296882
 20
1438.154807770316
 30
0.0
 11
92.20269639348918
 21
1438.154807770316
 31
0.0
  0
LWPOLYLINE
  5
16CD
330
1F
100
AcDbEntity
  8
SANINDUSA
100
AcDbPolyline
 90
        3
 70
   128
 43
0.0
 10
92.83478863329532
 20
1437.952826492984
 10
92.83800018037204
 20
1437.952699944957
 10
92.84115187649002
 20
1437.952550520682
  0
LINE
  5
16CF
330
1F
100
AcDbEntity
  8
SANINDUSA
100
AcDbLine
 10
92.84653261769994
 20
1438.002826492984
 30
0.0
 11
92.82252862680222
 21
1438.002826492984
 31
0.0
  0
LWPOLYLINE
  5
16D6
330
1F
100
AcDbEntity
  8
SANINDUSA
100
AcDbPolyline
 90
       12
 70
   128
 43
0.0
 10
92.83260593943312
 20
1437.844865666484
 10
92.84573176379515
 20
1437.849831021221
 10
92.85831579657566
 20
1437.855805834816
 10
92.87030850886962
 20
1437.862742731793
 10
92.88166037177212
 20
1437.870594336678
 10
92.89232185637819
 20
1437.879313273997
 10
92.90224343378286
 20
1437.888852168275
 10
92.91087586896207
 20
1437.898554430969
 10
92.91876499737854
 20
1437.908903793625
 10
92.92586930485724
 20
1437.919860547032
 10
92.93214727722299
 20
1437.93138498198
 10
92.93755740030073
 20
1437.943437389258
  0
LINE
  5
16DA
330
1F
100
AcDbEntity
  8
SANINDUSA
100
AcDbLine
 10
95.03750103137646
 20
1438.002826492984
 30
0.0
 11
95.26449248077872
 21
1438.002826492984
 31
0.0
  0
LWPOLYLINE
  5
16DB
330
1F
100
AcDbEntity
  8
SANINDUSA
100
AcDbPolyline
 90
       11
 70
   128
 43
0.0
 10
95.15040317495786
 20
1437.868518778507
 10
95.14187197025444
 20
1437.864717754054
 10
95.13299694155726
 20
1437.861062383084
 10
95.12363817493863
 20
1437.857527078386
 10
95.11352371394972
 20
1437.854061028455
 10
95.10216969569761
 20
1437.850594392432
 10
95.0898855768184
 20
1437.84733585231
 10
95.07667036940091
 20
1437.84438820258
 10
95.06260705648305
 20
1437.841867475395
 10
95.04786594965223
 20
1437.839889161516
 10
95.03274678700968
 20
1437.838545659604
  0
LWPOLYLINE
  5
16DD
330
1F
100
AcDbEntity
  8
SANINDUSA
100
AcDbPolyline
 90
       24
 70
   128
 43
0.0
 10
95.24107756014585
 20
1437.986820394005
 10
95.23704223400661
 20
1437.973537951777
 10
95.23178115752605
 20
1437.960437721448
 10
95.22527716697418
 20
1437.9476510405
 10
95.21754483914815
 20
1437.93531853232
 10
95.20860695596731
 20
1437.923583216993
 10
95.20075865216341
 20
1437.914873601084
 10
95.19221595890785
 20
1437.906684979403
 10
95.18301210294509
 20
1437.899081801752
 10
95.17318437917767
 20
1437.89212504314
 10
95.1627695103213
 20
1437.885877651973
 10
95.15364544305787
 20
1437.881145953508
 10
95.14411216615936
 20
1437.876636372442
 10
95.13413951991605
 20
1437.872310754589
 10
95.12364958605417
 20
1437.868183604635
 10
95.11223290341721
 20
1437.864161956649
 10
95.09970677685538
 20
1437.860291066365
 10
95.08681721236586
 20
1437.856880843056
 10
95.07287807154247
 20
1437.853830424351
 10
95.05799617987788
 20
1437.851280525044
 10
95.0424078889859
 20
1437.849371561797
 10
95.02625297620033
 20
1437.848185659893
 42
0.1613041525486936
 10
95.02044415615687
 20
1437.845776635425
 10
95.01323056570546
 20
1437.839538834548
  0
LWPOLYLINE
  5
16DF
330
1F
100
AcDbEntity
  8
SANINDUSA
100
AcDbPolyline
 90
        9
 70
   128
 43
0.0
 10
92.62679569470211
 20
1437.833760873556
 10
92.62682692719371
 20
1437.834678588277
 10
92.62684858181312
 20
1437.835559712631
 10
92.6268599167599
 20
1437.836374062829
 10
92.62686054374414
 20
1437.837093742496
 10
92.6268504412879
 20
1437.837694098291
 10
92.62682995546084
 20
1437.838154564428
 10
92.62679978802532
 20
1437.838459367183
 10
92.62676097239681
 20
1437.838598065236
  0
ARC
  5
16E0
330
1F
100
AcDbEntity
  8
SANINDUSA
100
AcDbCircle
 10
92.58693106167477
 20
1437.838004308494
 30
0.0
 40
0.0300000000000013
100
AcDbArc
 50
185.5184855729977
 51
266.631178363397
  0
LWPOLYLINE
  5
16E2
330
1F
100
AcDbEntity
  8
SANINDUSA
100
AcDbPolyline
 90
        9
 70
   128
 43
0.0
 10
92.57950439097092
 20
1437.851928090456
 10
92.58010404542883
 20
1437.850977385117
 10
92.58497408235603
 20
1437.845649440191
 10
92.59070506696657
 20
1437.841259661116
 10
92.5970839871886
 20
1437.837945216655
 10
92.60391736941201
 20
1437.835704638261
 10
92.61145565639365
 20
1437.834465175402
 10
92.61911874776314
 20
1437.833999305569
 10
92.62679569470211
 20
1437.833760873556
  0
ARC
  5
16E3
330
1F
100
AcDbEntity
  8
SANINDUSA
100
AcDbCircle
 10
92.70193465265808
 20
1437.82856741264
 30
0.0
 40
0.0100000000000002
100
AcDbArc
 50
93.77986536027213
 51
177.9999999999963
  0
LINE
  5
16F7
330
1F
100
AcDbEntity
  8
SANINDUSA
100
AcDbLine
 10
94.79282048547274
 20
1437.881477870013
 30
0.0
 11
94.80111304609925
 21
1437.976262271697
 31
0.0
  0
LINE
  5
16F9
330
1F
100
AcDbEntity
  8
SANINDUSA
100
AcDbLine
 10
94.77750103137644
 20
1437.98438123068
 30
0.0
 11
94.77750103137644
 21
1437.888826492984
 31
0.0
  0
LINE
  5
16FA
330
1F
100
AcDbEntity
  8
SANINDUSA
100
AcDbLine
 10
94.78341758316034
 20
1437.888739337241
 30
0.0
 11
94.79115109911832
 21
1437.977133829125
 31
0.0
  0
LINE
  5
16FB
330
1F
100
AcDbEntity
  8
SANINDUSA
100
AcDbLine
 10
94.76750103137645
 20
1438.010826492984
 30
0.0
 11
94.76750103137645
 21
1437.879826492984
 31
0.0
  0
LINE
  5
16FD
330
1F
100
AcDbEntity
  8
SANINDUSA
100
AcDbLine
 10
94.88260717431677
 20
1437.979730326087
 30
0.0
 11
94.89666898961525
 21
1437.834185003675
 31
0.0
  0
LINE
  5
16FE
330
1F
100
AcDbEntity
  8
SANINDUSA
100
AcDbLine
 10
94.87490063538436
 20
1437.976307327465
 30
0.0
 11
94.8885414718544
 21
1437.835119301605
 31
0.0
  0
LWPOLYLINE
  5
16FF
330
1F
100
AcDbEntity
  8
SANINDUSA
100
AcDbPolyline
 90
       21
 70
   128
 43
0.0
 10
94.89917037758539
 20
1437.937516805846
 10
94.89917037758537
 20
1437.937516805846
 10
94.89914364992463
 20
1437.937722353537
 10
94.89906527685983
 20
1437.938327447023
 10
94.89893730919622
 20
1437.939320608368
 10
94.8987648623212
 20
1437.940668350407
 10
94.89855306801805
 20
1437.942337557916
 10
94.89830931422911
 20
1437.944276474842
 10
94.89804082593233
 20
1437.946433873399
 10
94.8977559808582
 20
1437.948745716668
 10
94.89746292308325
 20
1437.951148155616
 10
94.89716986105543
 20
1437.953572280972
 10
94.89688485857188
 20
1437.95594886233
 10
94.89661525347409
 20
1437.958211773423
 10
94.89636839813197
 20
1437.960294416781
 10
94.89615036724648
 20
1437.962140732218
 10
94.89596734639569
 20
1437.963694408975
 10
94.89582370820842
 20
1437.964915782387
 10
94.89572391357105
 20
1437.965765192727
 10
94.89567006443898
 20
1437.966223899995
 10
94.89566070805503
 20
1437.966303646779
  0
LWPOLYLINE
  5
1701
330
1F
100
AcDbEntity
  8
SANINDUSA
100
AcDbPolyline
 90
       21
 70
   128
 43
0.0
 10
94.90558719864644
 20
1437.967513929614
 10
94.90561135857142
 20
1437.967308064706
 10
94.90568253314897
 20
1437.966702000253
 10
94.9057994235877
 20
1437.965707459147
 10
94.90595824264259
 20
1437.964357879859
 10
94.90615524456899
 20
1437.962686943425
 10
94.90638473809543
 20
1437.960746155648
 10
94.90664107890797
 20
1437.958587442192
 10
94.90691728072588
 20
1437.956274516773
 10
94.90720629211372
 20
1437.953871681639
 10
94.90750027414067
 20
1437.951447731147
 10
94.90779119219821
 20
1437.949071871318
 10
94.90807085011814
 20
1437.946810352889
 10
94.90833085580621
 20
1437.944729251904
 10
94.90856351556837
 20
1437.942884881467
 10
94.90876108273738
 20
1437.941332850982
 10
94.90891756838765
 20
1437.940113076105
 10
94.90902709115712
 20
1437.939264749543
 10
94.90908651340008
 20
1437.938806713443
 10
94.90909686821387
 20
1437.938727088377
 10
94.90909686821389
 20
1437.938727088376
  0
LINE
  5
1705
330
1F
100
AcDbEntity
  8
SANINDUSA
100
AcDbLine
 10
94.88472126197038
 20
1437.85103885908
 30
0.0
 11
94.8042049713686
 21
1437.848311798078
 31
0.0
  0
LINE
  5
1706
330
1F
100
AcDbEntity
  8
SANINDUSA
100
AcDbLine
 10
94.77850103137646
 20
1437.887826492984
 30
0.0
 11
94.78242138846225
 21
1437.887826492984
 31
0.0
  0
LINE
  5
1707
330
1F
100
AcDbEntity
  8
SANINDUSA
100
AcDbLine
 10
94.76950103137644
 20
1437.877826492984
 30
0.0
 11
94.78883570668036
 21
1437.877826492984
 31
0.0
  0
LINE
  5
170A
330
1F
100
AcDbEntity
  8
SANINDUSA
100
AcDbLine
 10
94.7888605723052
 20
1437.847826492984
 30
0.0
 11
94.76950103137644
 21
1437.847826492984
 31
0.0
  0
ARC
  5
170B
330
1F
100
AcDbEntity
  8
SANINDUSA
100
AcDbCircle
 10
94.77850103137646
 20
1437.888826492984
 30
0.0
 40
0.001
100
AcDbArc
 50
180.0
 51
270.0
  0
ARC
  5
170C
330
1F
100
AcDbEntity
  8
SANINDUSA
100
AcDbCircle
 10
94.76950103137644
 20
1437.879826492984
 30
0.0
 40
0.0020000000000005
100
AcDbArc
 50
180.0
 51
270.0
  0
ARC
  5
1711
330
1F
100
AcDbEntity
  8
SANINDUSA
100
AcDbCircle
 10
94.76950103137644
 20
1437.849826492984
 30
0.0
 40
0.0020000000000005
100
AcDbArc
 50
180.0
 51
270.0
  0
LINE
  5
1714
330
1F
100
AcDbEntity
  8
SANINDUSA
100
AcDbLine
 10
94.76750103137645
 20
1437.849988202924
 30
0.0
 11
94.76750103137645
 21
1437.879826492984
 31
0.0
  0
LINE
  5
1716
330
1F
100
AcDbEntity
  8
SANINDUSA
100
AcDbLine
 10
94.79268608150075
 20
1437.879941625583
 30
0.0
 11
94.79085119126178
 21
1437.858968734182
 31
0.0
  0
ARC
  5
1718
330
1F
100
AcDbEntity
  8
SANINDUSA
100
AcDbCircle
 10
94.78242138846225
 20
1437.888826492984
 30
0.0
 40
0.001
100
AcDbArc
 50
270.0
 51
355.0000000000002
  0
ARC
  5
1719
330
1F
100
AcDbEntity
  8
SANINDUSA
100
AcDbCircle
 10
94.78883570668036
 20
1437.881826492984
 30
0.0
 40
0.0040000000000003
100
AcDbArc
 50
270.0
 51
355.0000000000002
  0
LINE
  5
171C
330
1F
100
AcDbEntity
  8
SANINDUSA
100
AcDbLine
 10
94.79282048547274
 20
1437.881477870013
 30
0.0
 11
94.79268608150075
 21
1437.879941625583
 31
0.0
  0
LWPOLYLINE
  5
1721
330
1F
100
AcDbEntity
  8
SANINDUSA
100
AcDbPolyline
 90
        9
 70
   128
 43
0.0
 10
94.7951900348052
 20
1437.851769647886
 10
94.79537791022591
 20
1437.850209366932
 10
94.7951578623506
 20
1437.84902237479
 10
94.7949298116382
 20
1437.848622965101
 10
94.79471950283809
 20
1437.848393974964
 10
94.79450395789559
 20
1437.848232430334
 10
94.79426011061288
 20
1437.84810720768
 10
94.7939704766787
 20
1437.848013477016
 10
94.79346874966028
 20
1437.847948165684
  0
LINE
  5
1723
330
1F
100
AcDbEntity
  8
SANINDUSA
100
AcDbLine
 10
94.79346874966026
 20
1437.847948165684
 30
0.0
 11
94.79089158849729
 21
1437.84786087806
 31
0.0
  0
LWPOLYLINE
  5
1725
330
1F
100
AcDbEntity
  8
SANINDUSA
100
AcDbPolyline
 90
        3
 70
   128
 43
0.0
 10
94.79089158849729
 20
1437.84786087806
 10
94.78987622592553
 20
1437.847835089869
 10
94.78886057230521
 20
1437.847826492984
  0
LINE
  5
1727
330
1F
100
AcDbEntity
  8
SANINDUSA
100
AcDbLine
 10
94.8042049713686
 20
1437.848311798078
 30
0.0
 11
94.79346874966026
 21
1437.847948165684
 31
0.0
  0
LWPOLYLINE
  5
172A
330
1F
100
AcDbEntity
  8
SANINDUSA
100
AcDbPolyline
 90
        7
 70
   128
 43
0.0
 10
94.79085119126178
 20
1437.858968734182
 10
94.79087639310945
 20
1437.857579292348
 10
94.79119554477765
 20
1437.856229748493
 10
94.7918019803834
 20
1437.854948289534
 10
94.79268303375828
 20
1437.853761680348
 10
94.79382030299715
 20
1437.852694704758
 10
94.7951900348052
 20
1437.851769647886
  0
LINE
  5
1734
330
1F
100
AcDbEntity
  8
SANINDUSA
100
AcDbLine
 10
94.96255979453399
 20
1437.813366907643
 30
0.0
 11
94.97383462645601
 21
1437.812703216028
 31
0.0
  0
LINE
  5
1735
330
1F
100
AcDbEntity
  8
SANINDUSA
100
AcDbLine
 10
94.97420773972821
 20
1437.824702025225
 30
0.0
 11
94.96244226821888
 21
1437.82539459828
 31
0.0
  0
LWPOLYLINE
  5
173A
330
1F
100
AcDbEntity
  8
SANINDUSA
100
AcDbPolyline
 90
       14
 70
   128
 43
0.0
 10
94.94790684061063
 20
1437.847826493664
 10
94.94790684062087
 20
1437.847826493664
 10
94.94813975354832
 20
1437.84784397438
 10
94.94950049568519
 20
1437.847933104653
 10
94.95197712441418
 20
1437.848055302315
 10
94.95550314333982
 20
1437.848161929604
 10
94.95990834728539
 20
1437.848223189624
 10
94.96222687712011
 20
1437.848232727982
 10
94.96624983200049
 20
1437.848234248718
 10
94.9706344776586
 20
1437.84823209682
 10
94.97528244984748
 20
1437.848236058656
 10
94.98131584174368
 20
1437.8482590357
 10
94.98750097137666
 20
1437.848275167257
 10
94.98750103137645
 20
1437.848275167248
  0
LINE
  5
173C
330
1F
100
AcDbEntity
  8
SANINDUSA
100
AcDbLine
 10
95.01250103137646
 20
1437.802826492984
 30
0.0
 11
94.96250103137644
 21
1437.802826492984
 31
0.0
  0
ARC
  5
1741
330
1F
100
AcDbEntity
  8
SANINDUSA
100
AcDbCircle
 10
94.91840242855793
 20
1437.838004308494
 30
0.0
 40
0.0299999999999999
100
AcDbArc
 50
185.5184855729977
 51
266.6311783633776
  0
ARC
  5
1742
330
1F
100
AcDbEntity
  8
SANINDUSA
100
AcDbCircle
 10
94.91657629408427
 20
1437.836108341601
 30
0.0
 40
0.02
100
AcDbArc
 50
185.5184855729846
 51
266.6311783633839
  0
LINE
  5
1743
330
1F
100
AcDbEntity
  8
SANINDUSA
100
AcDbLine
 10
94.91540103093329
 20
1437.816142902549
 30
0.0
 11
94.96255979453399
 21
1437.813366907643
 31
0.0
  0
LINE
  5
1744
330
1F
100
AcDbEntity
  8
SANINDUSA
100
AcDbLine
 10
94.96350103137643
 20
1437.812368635691
 30
0.0
 11
94.96350103137643
 21
1437.803826492984
 31
0.0
  0
ARC
  5
1745
330
1F
100
AcDbEntity
  8
SANINDUSA
100
AcDbCircle
 10
94.96250103137644
 20
1437.803826492984
 30
0.0
 40
0.0010000000000002
100
AcDbArc
 50
270.0
 51
0.0
  0
ARC
  5
1746
330
1F
100
AcDbEntity
  8
SANINDUSA
100
AcDbCircle
 10
94.96250103137644
 20
1437.812368635691
 30
0.0
 40
0.001
100
AcDbArc
 50
0.0
 51
86.6311783633937
  0
ARC
  5
1747
330
1F
100
AcDbEntity
  8
SANINDUSA
100
AcDbCircle
 10
94.95316972134688
 20
1437.803826492984
 30
0.0
 40
0.0010000000000003
100
AcDbArc
 50
205.7997139103676
 51
270.0
  0
ARC
  5
1748
330
1F
100
AcDbEntity
  8
SANINDUSA
100
AcDbCircle
 10
94.94776779567933
 20
1437.80121513336
 30
0.0
 40
0.0049999999999996
100
AcDbArc
 50
25.79971391033687
 51
86.63117836332801
  0
LINE
  5
1749
330
1F
100
AcDbEntity
  8
SANINDUSA
100
AcDbLine
 10
94.96250103137644
 20
1437.802826492984
 30
0.0
 11
94.95316972134688
 21
1437.802826492984
 31
0.0
  0
LINE
  5
174A
330
1F
100
AcDbEntity
  8
SANINDUSA
100
AcDbLine
 10
94.91663953383145
 20
1437.808056149916
 30
0.0
 11
94.9480616114671
 21
1437.806206493123
 31
0.0
  0
LINE
  5
174B
330
1F
100
AcDbEntity
  8
SANINDUSA
100
AcDbLine
 10
94.90004199779574
 20
1437.938630478338
 30
0.0
 11
94.90798318915734
 21
1437.939598713724
 31
0.0
  0
LWPOLYLINE
  5
174C
330
1F
100
AcDbEntity
  8
SANINDUSA
100
AcDbPolyline
 90
       18
 70
   128
 43
0.0
 10
94.94179642214163
 20
1437.837825908628
 10
94.94124475476747
 20
1437.837839357062
 10
94.93730748293399
 20
1437.838184839934
 10
94.93332509905119
 20
1437.839002249989
 10
94.92936324944372
 20
1437.840316086287
 10
94.92548298434057
 20
1437.842144268155
 10
94.92180445902178
 20
1437.844473119738
 10
94.91842973955328
 20
1437.847249351095
 10
94.91541912264052
 20
1437.850434311237
 10
94.91285420640167
 20
1437.853932942855
 10
94.91077302098291
 20
1437.857660167619
 10
94.90919234404314
 20
1437.861517103908
 10
94.90841072741662
 20
1437.864136055742
 10
94.90784635989822
 20
1437.866780084982
 10
94.90751124508738
 20
1437.869109852977
 10
94.90615317837711
 20
1437.880246718692
 10
94.90343724031019
 20
1437.902520554367
 10
94.89917037758539
 20
1437.937516805846
  0
ARC
  5
174E
330
1F
100
AcDbEntity
  8
SANINDUSA
100
AcDbCircle
 10
94.90016302721882
 20
1437.937637829419
 30
0.0
 40
0.0010000000000001
100
AcDbArc
 50
96.95151722230249
 51
186.9511795555501
  0
LINE
  5
1751
330
1F
100
AcDbEntity
  8
SANINDUSA
100
AcDbLine
 10
94.88699596531231
 20
1437.851115902555
 30
0.0
 11
94.88472126197038
 21
1437.85103885908
 31
0.0
  0
LINE
  5
1755
330
1F
100
AcDbEntity
  8
SANINDUSA
100
AcDbLine
 10
94.96350103137643
 20
1437.835472679427
 30
0.0
 11
94.96350103137643
 21
1437.826392870233
 31
0.0
  0
ARC
  5
1756
330
1F
100
AcDbEntity
  8
SANINDUSA
100
AcDbCircle
 10
94.96250103137644
 20
1437.826392870233
 30
0.0
 40
0.0010000000000001
100
AcDbArc
 50
266.6311783632693
 51
0.0
  0
ARC
  5
1758
330
1F
100
AcDbEntity
  8
SANINDUSA
100
AcDbCircle
 10
94.95850103141931
 20
1437.835472683155
 30
0.0
 40
0.0049999999609797
100
AcDbArc
 50
0.0000001871928943
 51
50.03984462438509
  0
LINE
  5
1759
330
1F
100
AcDbEntity
  8
SANINDUSA
100
AcDbLine
 10
94.95169083505368
 20
1437.826027480091
 30
0.0
 11
94.95161579217784
 21
1437.828176426891
 31
0.0
  0
LINE
  5
175A
330
1F
100
AcDbEntity
  8
SANINDUSA
100
AcDbLine
 10
94.95169083505368
 20
1437.826027480091
 30
0.0
 11
94.96244226821888
 21
1437.82539459828
 31
0.0
  0
ARC
  5
175B
330
1F
100
AcDbEntity
  8
SANINDUSA
100
AcDbCircle
 10
94.90810421858045
 20
1437.938606064803
 30
0.0
 40
0.001
100
AcDbArc
 50
6.951179555261361
 51
96.95151722195667
  0
ARC
  5
175C
330
1F
100
AcDbEntity
  8
SANINDUSA
100
AcDbCircle
 10
94.94162188390765
 20
1437.827827431924
 30
0.0
 40
0.0100000000000004
100
AcDbArc
 50
2.000000000003647
 51
88.99991880180564
  0
LWPOLYLINE
  5
175D
330
1F
100
AcDbEntity
  8
SANINDUSA
100
AcDbPolyline
 90
       18
 70
   128
 43
0.0
 10
94.96171230322689
 20
1437.839305140981
 10
94.95432937867647
 20
1437.845491406264
 42
0.1761473879011628
 10
94.94790683532214
 20
1437.847826493664
 10
94.94473453534215
 20
1437.847826497848
 10
94.94156157762434
 20
1437.847834336966
 10
94.93704139184945
 20
1437.848388806165
 10
94.93250329879705
 20
1437.849837441266
 10
94.92817752217581
 20
1437.85221447079
 10
94.92435597519865
 20
1437.855439657361
 10
94.92127047044148
 20
1437.859333544637
 10
94.91918277307268
 20
1437.863346870561
 10
94.91788886642057
 20
1437.867506087869
 10
94.91727473802109
 20
1437.871656768076
 10
94.91676772442525
 20
1437.875814501766
 10
94.91626072097178
 20
1437.879972242573
 10
94.91575372711055
 20
1437.88412999011
 10
94.91336372581171
 20
1437.903730878946
 10
94.90909686821389
 20
1437.938727088376
  0
LINE
  5
175E
330
1F
100
AcDbEntity
  8
SANINDUSA
100
AcDbLine
 10
95.02341211127106
 20
1437.828916407607
 30
0.0
 11
95.02253473342866
 21
1437.803791593487
 31
0.0
  0
LINE
  5
175F
330
1F
100
AcDbEntity
  8
SANINDUSA
100
AcDbLine
 10
95.01150103137645
 20
1437.803826492984
 30
0.0
 11
95.01150103137645
 21
1437.835756761931
 31
0.0
  0
LWPOLYLINE
  5
1761
330
1F
100
AcDbEntity
  8
SANINDUSA
100
AcDbPolyline
 90
        3
 70
   128
 43
0.0
 10
94.97796651554091
 20
1437.81342871388
 10
94.97840212500173
 20
1437.818550631726
 10
94.97884096564325
 20
1437.823394549868
  0
ARC
  5
1763
330
1F
100
AcDbEntity
  8
SANINDUSA
100
AcDbCircle
 10
95.02153534260164
 20
1437.803826492984
 30
0.0
 40
0.001
100
AcDbArc
 50
270.0
 51
358.0000000000224
  0
LINE
  5
1764
330
1F
100
AcDbEntity
  8
SANINDUSA
100
AcDbLine
 10
95.02153534260164
 20
1437.802826492984
 30
0.0
 11
95.01250103137646
 21
1437.802826492984
 31
0.0
  0
ARC
  5
1765
330
1F
100
AcDbEntity
  8
SANINDUSA
100
AcDbCircle
 10
95.01250103137646
 20
1437.803826492984
 30
0.0
 40
0.0009999999999999
100
AcDbArc
 50
180.0
 51
270.0
  0
LWPOLYLINE
  5
1769
330
1F
100
AcDbEntity
  8
SANINDUSA
100
AcDbPolyline
 90
        7
 70
   128
 43
0.0
 10
94.97383462645601
 20
1437.812703216028
 10
94.97598248889717
 20
1437.812759289136
 10
94.97725334497918
 20
1437.812986583497
 10
94.97772245020298
 20
1437.813164878381
 10
94.97790503859755
 20
1437.813301050114
 10
94.97794851896191
 20
1437.813366010038
 10
94.97796651554091
 20
1437.81342871388
  0
ARC
  5
176A
330
1F
100
AcDbEntity
  8
SANINDUSA
100
AcDbCircle
 10
95.03340601954125
 20
1437.82856741264
 30
0.0
 40
0.0100000000000001
100
AcDbArc
 50
93.77986536026886
 51
177.9999999999963
  0
ARC
  5
176B
330
1F
100
AcDbEntity
  8
SANINDUSA
100
AcDbCircle
 10
95.01650103580566
 20
1437.835756762416
 30
0.0
 40
0.0050000044292001
100
AcDbArc
 50
130.8509301776375
 51
180.00000555629
  0
LWPOLYLINE
  5
176F
330
1F
100
AcDbEntity
  8
SANINDUSA
100
AcDbPolyline
 90
        9
 70
   128
 43
0.0
 10
94.97884096564325
 20
1437.823394549868
 10
94.97884189953776
 20
1437.823426711375
 10
94.97882183592148
 20
1437.823497615638
 10
94.97879913540691
 20
1437.823535656067
 10
94.97860938242828
 20
1437.823702596346
 10
94.97835267525607
 20
1437.823840220291
 10
94.97762116559805
 20
1437.824107382614
 10
94.97688293232952
 20
1437.824303730504
 10
94.97420773972821
 20
1437.824702025225
  0
LWPOLYLINE
  5
1770
330
1F
100
AcDbEntity
  8
SANINDUSA
100
AcDbPolyline
 90
       13
 70
   128
 43
0.0
 10
94.98750103137645
 20
1437.848275165698
 10
94.98750109137644
 20
1437.848275165698
 10
94.9918703899277
 20
1437.848272703048
 10
94.99829690338359
 20
1437.84825759598
 10
95.00442673765153
 20
1437.848236125674
 10
95.01006841038615
 20
1437.848219502487
 10
95.01507517424089
 20
1437.848209163109
 10
95.01837699434409
 20
1437.848204840367
 10
95.02192840553428
 20
1437.848202671374
 10
95.0245109468382
 20
1437.848202759772
 10
95.02600024111137
 20
1437.848203668551
 10
95.02650432950829
 20
1437.848204111267
 10
95.02650432943529
 20
1437.848204111264
  0
LINE
  5
177B
330
1F
100
AcDbEntity
  8
SANINDUSA
100
AcDbLine
 10
92.58516816694829
 20
1437.808056149916
 30
0.0
 11
92.62486684206528
 21
1437.805719292215
 31
0.0
  0
LINE
  5
177D
330
1F
100
AcDbEntity
  8
SANINDUSA
100
AcDbLine
 10
94.86100103137644
 20
1437.980826492984
 30
0.0
 11
94.82400103137644
 21
1437.980826492984
 31
0.0
  0
LINE
  5
177F
330
1F
100
AcDbEntity
  8
SANINDUSA
100
AcDbLine
 10
94.82400103137644
 20
1437.992826492983
 30
0.0
 11
94.86100103137644
 21
1437.992826492983
 31
0.0
  0
LINE
  5
1782
330
1F
100
AcDbEntity
  8
SANINDUSA
100
AcDbLine
 10
94.78478448522862
 20
1438.002826492984
 30
0.0
 11
95.03750103137646
 21
1438.002826492984
 31
0.0
  0
ARC
  5
1786
330
1F
100
AcDbEntity
  8
SANINDUSA
100
AcDbCircle
 10
94.78746397715294
 20
1437.998826492984
 30
0.0
 40
0.0160000000000002
100
AcDbArc
 50
238.1813706647058
 51
270.0
  0
LINE
  5
1787
330
1F
100
AcDbEntity
  8
SANINDUSA
100
AcDbLine
 10
94.7816684221952
 20
1437.997273578713
 30
0.0
 11
94.77869262440631
 21
1438.008379407254
 31
0.0
  0
ARC
  5
1788
330
1F
100
AcDbEntity
  8
SANINDUSA
100
AcDbCircle
 10
94.78478448522862
 20
1438.008826492984
 30
0.0
 40
0.0060000000000008
100
AcDbArc
 50
194.9999999999944
 51
270.0
  0
ARC
  5
1789
330
1F
100
AcDbEntity
  8
SANINDUSA
100
AcDbCircle
 10
94.77850103137646
 20
1437.98438123068
 30
0.0
 40
0.001
100
AcDbArc
 50
58.18137066470583
 51
180.0
  0
ARC
  5
178A
330
1F
100
AcDbEntity
  8
SANINDUSA
100
AcDbCircle
 10
94.76950103137644
 20
1438.010826492984
 30
0.0
 40
0.0020000000000002
100
AcDbArc
 50
90.0
 51
180.0
  0
LINE
  5
178B
330
1F
100
AcDbEntity
  8
SANINDUSA
100
AcDbLine
 10
94.77289706944857
 20
1438.012826492984
 30
0.0
 11
94.76950103137644
 21
1438.012826492984
 31
0.0
  0
ARC
  5
178C
330
1F
100
AcDbEntity
  8
SANINDUSA
100
AcDbCircle
 10
94.77289706944857
 20
1438.006826492984
 30
0.0
 40
0.0060000000000004
100
AcDbArc
 50
15.00000000000793
 51
90.0
  0
ARC
  5
1792
330
1F
100
AcDbEntity
  8
SANINDUSA
100
AcDbCircle
 10
94.82400103137644
 20
1437.981826492984
 30
0.0
 40
0.0010000000000002
100
AcDbArc
 50
270.0
 51
0.0
  0
ARC
  5
1793
330
1F
100
AcDbEntity
  8
SANINDUSA
100
AcDbCircle
 10
94.82400103137644
 20
1437.991826492984
 30
0.0
 40
0.0009999999999997
100
AcDbArc
 50
0.0
 51
90.0
  0
LINE
  5
1794
330
1F
100
AcDbEntity
  8
SANINDUSA
100
AcDbLine
 10
94.82500103137644
 20
1437.991826492984
 30
0.0
 11
94.82500103137644
 21
1437.981826492984
 31
0.0
  0
LINE
  5
1796
330
1F
100
AcDbEntity
  8
SANINDUSA
100
AcDbLine
 10
94.82400103137644
 20
1437.980826492984
 30
0.0
 11
94.8060940195897
 21
1437.980826492984
 31
0.0
  0
ARC
  5
1797
330
1F
100
AcDbEntity
  8
SANINDUSA
100
AcDbCircle
 10
94.8060940195897
 20
1437.975826492984
 30
0.0
 40
0.0050000000000001
100
AcDbArc
 50
90.0
 51
175.0000000000002
  0
ARC
  5
1799
330
1F
100
AcDbEntity
  8
SANINDUSA
100
AcDbCircle
 10
94.7912616226155
 20
1437.981826492984
 30
0.0
 40
0.001
100
AcDbArc
 50
337.9756871629579
 51
90.0
  0
LINE
  5
179A
330
1F
100
AcDbEntity
  8
SANINDUSA
100
AcDbLine
 10
94.7912616226155
 20
1437.982826492984
 30
0.0
 11
94.78746397715294
 21
1437.982826492984
 31
0.0
  0
ARC
  5
179B
330
1F
100
AcDbEntity
  8
SANINDUSA
100
AcDbCircle
 10
94.8060940195897
 20
1437.975826492984
 30
0.0
 40
0.0150000000000001
100
AcDbArc
 50
157.9756871629578
 51
175.0000000000002
  0
ARC
  5
179C
330
1F
100
AcDbEntity
  8
SANINDUSA
100
AcDbCircle
 10
94.78746397715294
 20
1437.998826492984
 30
0.0
 40
0.0060000000000002
100
AcDbArc
 50
194.9999999999944
 51
270.0
  0
LINE
  5
17A0
330
1F
100
AcDbEntity
  8
SANINDUSA
100
AcDbLine
 10
94.82400103137644
 20
1437.992826492983
 30
0.0
 11
94.78746397715294
 21
1437.992826492983
 31
0.0
  0
ARC
  5
17AA
330
1F
100
AcDbEntity
  8
SANINDUSA
100
AcDbCircle
 10
94.90459454903154
 20
1437.967392905889
 30
0.0
 40
0.0010000000000001
100
AcDbArc
 50
276.951517221997
 51
6.951188335492194
  0
LINE
  5
17AB
330
1F
100
AcDbEntity
  8
SANINDUSA
100
AcDbLine
 10
94.90558719864644
 20
1437.967513929614
 30
0.0
 11
94.90335837850601
 21
1437.985794711527
 31
0.0
  0
ARC
  5
17AD
330
1F
100
AcDbEntity
  8
SANINDUSA
100
AcDbCircle
 10
94.86992380926711
 20
1437.975826492984
 30
0.0
 40
0.005
100
AcDbArc
 50
5.518485572997694
 51
90.0
  0
LINE
  5
17AE
330
1F
100
AcDbEntity
  8
SANINDUSA
100
AcDbLine
 10
94.89566070805503
 20
1437.966303646779
 30
0.0
 11
94.89399723251557
 21
1437.979947517882
 31
0.0
  0
ARC
  5
17AF
330
1F
100
AcDbEntity
  8
SANINDUSA
100
AcDbCircle
 10
94.89665335766993
 20
1437.966424670504
 30
0.0
 40
0.001
100
AcDbArc
 50
186.9511883351247
 51
276.9515172219744
  0
ARC
  5
17B0
330
1F
100
AcDbEntity
  8
SANINDUSA
100
AcDbCircle
 10
94.89300458304374
 20
1437.979826492984
 30
0.0
 40
0.001
100
AcDbArc
 50
6.951256063123552
 51
90.0
  0
ARC
  5
17B1
330
1F
100
AcDbEntity
  8
SANINDUSA
100
AcDbCircle
 10
94.8836025395402
 20
1437.979826492984
 30
0.0
 40
0.001
100
AcDbArc
 50
90.0
 51
185.5184855729977
  0
LINE
  5
17B2
330
1F
100
AcDbEntity
  8
SANINDUSA
100
AcDbLine
 10
94.86992380926711
 20
1437.980826492984
 30
0.0
 11
94.86100103137644
 21
1437.980826492984
 31
0.0
  0
ARC
  5
17B3
330
1F
100
AcDbEntity
  8
SANINDUSA
100
AcDbCircle
 10
94.86100103137644
 20
1437.981826492984
 30
0.0
 40
0.0010000000000008
100
AcDbArc
 50
180.0
 51
270.0
  0
LINE
  5
17B4
330
1F
100
AcDbEntity
  8
SANINDUSA
100
AcDbLine
 10
94.86000103137644
 20
1437.981826492984
 30
0.0
 11
94.86000103137644
 21
1437.991826492984
 31
0.0
  0
ARC
  5
17B5
330
1F
100
AcDbEntity
  8
SANINDUSA
100
AcDbCircle
 10
94.86100103137644
 20
1437.991826492984
 30
0.0
 40
0.0010000000000002
100
AcDbArc
 50
90.0
 51
180.0
  0
LINE
  5
17B6
330
1F
100
AcDbEntity
  8
SANINDUSA
100
AcDbLine
 10
94.89300458304374
 20
1437.980826492984
 30
0.0
 11
94.8836025395402
 21
1437.980826492984
 31
0.0
  0
LINE
  5
17B7
330
1F
100
AcDbEntity
  8
SANINDUSA
100
AcDbLine
 10
94.89541718509112
 20
1437.992826492983
 30
0.0
 11
94.86100103137644
 21
1437.992826492983
 31
0.0
  0
LINE
  5
17B9
330
1F
100
AcDbEntity
  8
SANINDUSA
100
AcDbLine
 10
94.90471557845465
 20
1437.966400256969
 30
0.0
 11
94.89677438709302
 21
1437.965432021584
 31
0.0
  0
ARC
  5
17BA
330
1F
100
AcDbEntity
  8
SANINDUSA
100
AcDbCircle
 10
94.89541718509112
 20
1437.984826492983
 30
0.0
 40
0.008
100
AcDbArc
 50
6.951395709323333
 51
90.0
  0
LINE
  5
17C2
330
1F
100
AcDbEntity
  8
SANINDUSA
100
AcDbLine
 10
92.6352577320147
 20
1437.802826492984
 30
0.0
 11
92.69006397571848
 21
1437.802826492984
 31
0.0
  0
LINE
  5
17C5
330
1F
100
AcDbEntity
  8
SANINDUSA
100
AcDbLine
 10
92.62867671282434
 20
1437.802826492984
 30
0.0
 11
92.63365311795464
 21
1437.802826492984
 31
0.0
  0
LWPOLYLINE
  5
17C6
330
1F
100
AcDbEntity
  8
SANINDUSA
100
AcDbPolyline
 90
        7
 70
   128
 43
0.0
 10
92.62679569470211
 20
1437.833760873556
 10
92.6290881363232
 20
1437.83347440005
 10
92.6312969668247
 20
1437.832799447597
 10
92.63314053230324
 20
1437.831823997746
 10
92.63443714602694
 20
1437.830639427674
 10
92.63492237645518
 20
1437.829795464681
 10
92.63509231490832
 20
1437.82894601061
  0
LWPOLYLINE
  5
17C7
330
1F
100
AcDbEntity
  8
SANINDUSA
100
AcDbPolyline
 90
        7
 70
   128
 43
0.0
 10
92.63545781840971
 20
1437.809939460687
 10
92.63543102303723
 20
1437.809510289043
 10
92.63521286142724
 20
1437.808996326327
 10
92.63499617609763
 20
1437.808707695647
 10
92.63379476131799
 20
1437.807777822925
 10
92.6317004418834
 20
1437.806855981014
 10
92.63058851727086
 20
1437.806510424679
  0
LINE
  5
17C9
330
1F
100
AcDbEntity
  8
SANINDUSA
100
AcDbLine
 10
92.62169835447148
 20
1437.802826492984
 30
0.0
 11
92.62867671282434
 21
1437.802826492984
 31
0.0
  0
LWPOLYLINE
  5
17CA
330
1F
100
AcDbEntity
  8
SANINDUSA
100
AcDbPolyline
 90
        9
 70
   128
 43
0.0
 10
92.62081623905952
 20
1437.803353276289
 10
92.62049077187873
 20
1437.803936861031
 10
92.62009039445448
 20
1437.804471835636
 10
92.61962225753279
 20
1437.804948645449
 10
92.61909472204523
 20
1437.805358774642
 10
92.61851720978251
 20
1437.805694898302
 10
92.61790003512119
 20
1437.805951013255
 10
92.61725422080882
 20
1437.806122545285
 10
92.61659130109745
 20
1437.806206430829
  0
ARC
  5
17CB
330
1F
100
AcDbEntity
  8
SANINDUSA
100
AcDbCircle
 10
92.62169835447148
 20
1437.803826492984
 30
0.0
 40
0.001
100
AcDbArc
 50
207.9295049862218
 51
270.0000128019147
  0
LWPOLYLINE
  5
17CC
330
1F
100
AcDbEntity
  8
SANINDUSA
100
AcDbPolyline
 90
        3
 70
   128
 43
0.0
 10
92.63058851727086
 20
1437.806510424679
 10
92.62877602271258
 20
1437.80604650481
 10
92.6248668420653
 20
1437.805719292215
  0
LINE
  5
17CE
330
1F
100
AcDbEntity
  8
SANINDUSA
100
AcDbLine
 10
92.63365311795464
 20
1437.802826492984
 30
0.0
 11
92.6352577320147
 21
1437.802826492984
 31
0.0
  0
LINE
  5
17D4
330
1F
100
AcDbEntity
  8
SANINDUSA
100
AcDbLine
 10
92.63509231490832
 20
1437.82894601061
 30
0.0
 11
92.63545781840971
 21
1437.809939460687
 31
0.0
  0
LINE
  5
17D6
330
1F
100
AcDbEntity
  8
SANINDUSA
100
AcDbLine
 10
92.6910633665455
 20
1437.803791593487
 30
0.0
 11
92.69194074438789
 21
1437.828916407607
 31
0.0
  0
ARC
  5
17D8
330
1F
100
AcDbEntity
  8
SANINDUSA
100
AcDbCircle
 10
92.69006397571848
 20
1437.803826492984
 30
0.0
 40
0.0009999999999999
100
AcDbArc
 50
270.0
 51
357.99999999984
  0
LWPOLYLINE
  5
17E0
330
1F
100
AcDbEntity
  8
SANINDUSA
100
AcDbPolyline
 90
        9
 70
   128
 43
0.0
 10
92.58775633072955
 20
1437.85359223662
 10
92.58740683505676
 20
1437.853267641239
 10
92.58702799992644
 20
1437.852977825731
 10
92.58662327290869
 20
1437.852725427548
 10
92.58619633720149
 20
1437.852512743628
 10
92.58575107811187
 20
1437.852341709489
 10
92.58529154769794
 20
1437.852213881619
 10
92.58482192789317
 20
1437.852130423309
 10
92.58435187342891
 20
1437.852092273143
  0
LWPOLYLINE
  5
17E2
330
1F
100
AcDbEntity
  8
SANINDUSA
100
AcDbPolyline
 90
        5
 70
   128
 43
0.0
 10
92.57957144086347
 20
1437.853792011803
 10
92.58475577128866
 20
1437.862839923126
 10
92.58936207940445
 20
1437.871973685608
 10
92.59348467713591
 20
1437.881172188688
 10
92.59713659932165
 20
1437.890266390843
  0
LINE
  5
17E5
330
1F
100
AcDbEntity
  8
SANINDUSA
100
AcDbLine
 10
92.4779456188993
 20
1437.927826492984
 30
0.0
 11
92.76602966449328
 21
1437.927826492984
 31
0.0
  0
LINE
  5
17E7
330
1F
100
AcDbEntity
  8
SANINDUSA
100
AcDbLine
 10
92.43802966449328
 20
1437.952826492984
 30
0.0
 11
92.82602966449328
 21
1437.952826492984
 31
0.0
  0
LINE
  5
17E8
330
1F
100
AcDbEntity
  8
SANINDUSA
100
AcDbLine
 10
92.8178301636983
 20
1438.002826492984
 30
0.0
 11
92.45331311834545
 21
1438.002826492984
 31
0.0
  0
LINE
  5
17F1
330
1F
100
AcDbEntity
  8
SANINDUSA
100
AcDbLine
 10
92.43802966449328
 20
1437.917826492984
 30
0.0
 11
92.46158574173303
 21
1437.917826492984
 31
0.0
  0
LINE
  5
17F4
330
1F
100
AcDbEntity
  8
SANINDUSA
100
AcDbLine
 10
92.45738920542203
 20
1437.847826492984
 30
0.0
 11
92.46200006782798
 21
1437.847948256625
 31
0.0
  0
LINE
  5
17FE
330
1F
100
AcDbEntity
  8
SANINDUSA
100
AcDbLine
 10
92.43602966449328
 20
1437.987826492984
 30
0.0
 11
92.43602966449328
 21
1437.957826492984
 31
0.0
  0
LINE
  5
1800
330
1F
100
AcDbEntity
  8
SANINDUSA
100
AcDbLine
 10
92.43602966449328
 20
1437.954826492983
 30
0.0
 11
92.43602966449328
 21
1437.922238144578
 31
0.0
  0
ARC
  5
1801
330
1F
100
AcDbEntity
  8
SANINDUSA
100
AcDbCircle
 10
92.43802966449328
 20
1437.954826492983
 30
0.0
 40
0.0020000000000002
100
AcDbArc
 50
180.0
 51
270.0
  0
LINE
  5
1803
330
1F
100
AcDbEntity
  8
SANINDUSA
100
AcDbLine
 10
92.43602966449328
 20
1437.957826492984
 30
0.0
 11
92.43602966449328
 21
1437.954826492983
 31
0.0
  0
ARC
  5
1806
330
1F
100
AcDbEntity
  8
SANINDUSA
100
AcDbCircle
 10
92.43802966449328
 20
1437.919826492984
 30
0.0
 40
0.0020000000000005
100
AcDbArc
 50
180.0
 51
270.0
  0
LINE
  5
1807
330
1F
100
AcDbEntity
  8
SANINDUSA
100
AcDbLine
 10
92.43602966449328
 20
1437.922238144578
 30
0.0
 11
92.43602966449328
 21
1437.919826492984
 31
0.0
  0
LINE
  5
1808
330
1F
100
AcDbEntity
  8
SANINDUSA
100
AcDbLine
 10
92.43602966449328
 20
1437.919826492984
 30
0.0
 11
92.43602966449328
 21
1437.916512442219
 31
0.0
  0
ARC
  5
180F
330
1F
100
AcDbEntity
  8
SANINDUSA
100
AcDbCircle
 10
92.43802966449328
 20
1437.849826492984
 30
0.0
 40
0.0020000000000005
100
AcDbArc
 50
180.0
 51
270.0
  0
LINE
  5
1813
330
1F
100
AcDbEntity
  8
SANINDUSA
100
AcDbLine
 10
92.43802966449328
 20
1437.847826492984
 30
0.0
 11
92.45738920542203
 21
1437.847826492984
 31
0.0
  0
LINE
  5
1815
330
1F
100
AcDbEntity
  8
SANINDUSA
100
AcDbLine
 10
92.43602966449328
 20
1437.916512442219
 30
0.0
 11
92.43602966449328
 21
1437.850216381309
 31
0.0
  0
LINE
  5
181C
330
1F
100
AcDbEntity
  8
SANINDUSA
100
AcDbLine
 10
92.44751756338773
 20
1438.007273578713
 30
0.0
 11
92.44722125752314
 21
1438.008379407254
 31
0.0
  0
ARC
  5
1820
330
1F
100
AcDbEntity
  8
SANINDUSA
100
AcDbCircle
 10
92.4414257025654
 20
1438.006826492984
 30
0.0
 40
0.0060000000000006
100
AcDbArc
 50
15.00000000000793
 51
89.99999999999349
  0
ARC
  5
1821
330
1F
100
AcDbEntity
  8
SANINDUSA
100
AcDbCircle
 10
92.43802966449328
 20
1438.010826492984
 30
0.0
 40
0.0019999999999999
100
AcDbArc
 50
90.0
 51
180.0
  0
LINE
  5
1822
330
1F
100
AcDbEntity
  8
SANINDUSA
100
AcDbLine
 10
92.43602966449328
 20
1438.010826492984
 30
0.0
 11
92.43602966449328
 21
1438.008852553414
 31
0.0
  0
LINE
  5
1825
330
1F
100
AcDbEntity
  8
SANINDUSA
100
AcDbLine
 10
92.4414257025654
 20
1438.012826492984
 30
0.0
 11
92.43802966449328
 21
1438.012826492984
 31
0.0
  0
ARC
  5
1828
330
1F
100
AcDbEntity
  8
SANINDUSA
100
AcDbCircle
 10
92.45331311834545
 20
1438.008826492984
 30
0.0
 40
0.0060000000000011
100
AcDbArc
 50
194.9999999999953
 51
269.9999999999935
  0
LINE
  5
1829
330
1F
100
AcDbEntity
  8
SANINDUSA
100
AcDbLine
 10
92.43602966449328
 20
1437.99741865655
 30
0.0
 11
92.43602966449328
 21
1437.990565774041
 31
0.0
  0
LINE
  5
182A
330
1F
100
AcDbEntity
  8
SANINDUSA
100
AcDbLine
 10
92.43602966449328
 20
1437.990565774041
 30
0.0
 11
92.43602966449328
 21
1437.987826492984
 31
0.0
  0
LINE
  5
1831
330
1F
100
AcDbEntity
  8
SANINDUSA
100
AcDbLine
 10
92.43602966449328
 20
1438.008852553414
 30
0.0
 11
92.43602966449328
 21
1437.99741865655
 31
0.0
  0
LINE
  5
1835
330
1F
100
AcDbEntity
  8
SANINDUSA
100
AcDbLine
 10
92.47298062554866
 20
1437.848320164602
 30
0.0
 11
92.54530838657997
 21
1437.850769882728
 31
0.0
  0
ARC
  5
1837
330
1F
100
AcDbEntity
  8
SANINDUSA
100
AcDbCircle
 10
92.4779456188993
 20
1437.913826492984
 30
0.0
 40
0.0140000000000005
100
AcDbArc
 50
90.0
 51
153.6122000387625
  0
LINE
  5
1838
330
1F
100
AcDbEntity
  8
SANINDUSA
100
AcDbLine
 10
92.46158574173303
 20
1437.917826492984
 30
0.0
 11
92.46182110340271
 21
1437.917826492984
 31
0.0
  0
ARC
  5
1839
330
1F
100
AcDbEntity
  8
SANINDUSA
100
AcDbCircle
 10
92.46182110340271
 20
1437.921826492984
 30
0.0
 40
0.0040000000000001
100
AcDbArc
 50
270.0
 51
333.6122000387335
  0
LINE
  5
1852
330
1F
100
AcDbEntity
  8
SANINDUSA
100
AcDbLine
 10
92.46200006782798
 20
1437.847948256625
 30
0.0
 11
92.47298062554866
 21
1437.848320164602
 31
0.0
  0
LINE
  5
185C
330
1F
100
AcDbEntity
  8
SANINDUSA
100
AcDbLine
 10
92.5812135019491
 20
1437.851985977498
 30
0.0
 11
92.58432440628046
 21
1437.852091342833
 31
0.0
  0
LWPOLYLINE
  5
185D
330
1F
100
AcDbEntity
  8
SANINDUSA
100
AcDbPolyline
 90
        9
 70
   128
 43
0.0
 10
92.57957144086347
 20
1437.853792011803
 10
92.57926496995695
 20
1437.853367896576
 10
92.57891951691517
 20
1437.852986607928
 10
92.57853937171981
 20
1437.852652880863
 10
92.57812925517431
 20
1437.852370859744
 10
92.57769426027897
 20
1437.852144046829
 10
92.57723978898395
 20
1437.851975258776
 10
92.57677148510557
 20
1437.851866591666
 10
92.57629516423902
 20
1437.851819394973
  0
LINE
  5
1860
330
1F
100
AcDbEntity
  8
SANINDUSA
100
AcDbLine
 10
92.576295164239
 20
1437.851819394973
 30
0.0
 11
92.5812135019491
 21
1437.851985977498
 31
0.0
  0
LINE
  5
1861
330
1F
100
AcDbEntity
  8
SANINDUSA
100
AcDbLine
 10
92.54530838657997
 20
1437.850769882728
 30
0.0
 11
92.576295164239
 21
1437.851819394973
 31
0.0
  0
LINE
  5
1864
330
1F
100
AcDbEntity
  8
SANINDUSA
100
AcDbLine
 10
92.55552459842915
 20
1437.851115902555
 30
0.0
 11
92.55707010497124
 21
1437.835119301605
 31
0.0
  0
LWPOLYLINE
  5
1866
330
1F
100
AcDbEntity
  8
SANINDUSA
100
AcDbPolyline
 90
       11
 70
   128
 43
0.0
 10
92.81893180807468
 20
1437.868518778507
 10
92.81040060337128
 20
1437.864717754054
 10
92.8015255746741
 20
1437.861062383084
 10
92.79216680805545
 20
1437.857527078386
 10
92.78205234706655
 20
1437.854061028455
 10
92.77069832881444
 20
1437.850594392432
 10
92.75841420993524
 20
1437.84733585231
 10
92.74519900251773
 20
1437.84438820258
 10
92.73113568959988
 20
1437.841867475395
 10
92.71639458276906
 20
1437.839889161516
 10
92.70127542012652
 20
1437.838545659604
  0
LWPOLYLINE
  5
1868
330
1F
100
AcDbEntity
  8
SANINDUSA
100
AcDbPolyline
 90
        9
 70
   128
 43
0.0
 10
92.65446087239034
 20
1437.926880661176
 10
92.64867902303194
 20
1437.925581495905
 10
92.6429813924974
 20
1437.923661398601
 10
92.6376419445247
 20
1437.92111683277
 10
92.63264160288311
 20
1437.917857070822
 10
92.62826453829809
 20
1437.913983431205
 10
92.62466621259433
 20
1437.909633712603
 10
92.62190547697215
 20
1437.90491323486
 10
92.62005841317428
 20
1437.900098160061
  0
LWPOLYLINE
  5
1869
330
1F
100
AcDbEntity
  8
SANINDUSA
100
AcDbPolyline
 90
        3
 70
   128
 43
0.0
 10
92.63677307934427
 20
1437.926801173936
 10
92.64674007956397
 20
1437.927780610882
 10
92.64942845347832
 20
1437.927826492984
  0
LWPOLYLINE
  5
186B
330
1F
100
AcDbEntity
  8
SANINDUSA
100
AcDbPolyline
 90
        7
 70
   128
 43
0.0
 10
92.65602966449327
 20
1437.838679291988
 10
92.65602960449328
 20
1437.838679291988
 10
92.6484305422459
 20
1437.838646536559
 10
92.64104342109838
 20
1437.83860296595
 10
92.63410858072763
 20
1437.838598847773
 10
92.62778588283907
 20
1437.838600991979
 10
92.62676097239681
 20
1437.838598065236
  0
LWPOLYLINE
  5
186C
330
1F
100
AcDbEntity
  8
SANINDUSA
100
AcDbPolyline
 90
        8
 70
   128
 43
0.0
 10
92.60152495438303
 20
1437.901110611635
 10
92.60487646308494
 20
1437.907490288564
 10
92.60853826786298
 20
1437.912349736103
 10
92.61301049314694
 20
1437.916685415576
 10
92.61809640397066
 20
1437.920267387042
 10
92.62383660426122
 20
1437.923173170907
 10
92.63015411642411
 20
1437.92535255637
 10
92.63677307934427
 20
1437.926801173936
  0
LINE
  5
186F
330
1F
100
AcDbEntity
  8
SANINDUSA
100
AcDbLine
 10
92.59713659932163
 20
1437.890266390843
 30
0.0
 11
92.5991885332424
 21
1437.895532371909
 31
0.0
  0
LWPOLYLINE
  5
1871
330
1F
100
AcDbEntity
  8
SANINDUSA
100
AcDbPolyline
 90
        4
 70
   128
 43
0.0
 10
92.61887623227774
 20
1437.892468275605
 10
92.61700782424389
 20
1437.887509468328
 10
92.61408662251247
 20
1437.882975423799
 10
92.61335210188924
 20
1437.88223013764
  0
LWPOLYLINE
  5
1874
330
1F
100
AcDbEntity
  8
SANINDUSA
100
AcDbPolyline
 90
        5
 70
   128
 43
0.0
 10
92.58770780653627
 20
1437.85362140041
 10
92.59041722623878
 20
1437.856409710519
 10
92.59763092128997
 20
1437.864193894187
 10
92.60538879259257
 20
1437.872899753351
 10
92.61352830692125
 20
1437.882297917425
  0
LINE
  5
1875
330
1F
100
AcDbEntity
  8
SANINDUSA
100
AcDbLine
 10
92.5991885332424
 20
1437.895532371909
 30
0.0
 11
92.60152495438303
 21
1437.901110611635
 31
0.0
  0
LINE
  5
1876
330
1F
100
AcDbEntity
  8
SANINDUSA
100
AcDbLine
 10
92.62005841317428
 20
1437.900098160061
 30
0.0
 11
92.61887623227773
 21
1437.892468275605
 31
0.0
  0
LWPOLYLINE
  5
1879
330
1F
100
AcDbEntity
  8
SANINDUSA
100
AcDbPolyline
 90
        3
 70
   128
 43
0.0
 10
92.66572350687141
 20
1437.927826492984
 10
92.6600821803945
 20
1437.927596456591
 10
92.65446087239034
 20
1437.926880661176
  0
LWPOLYLINE
  5
187B
330
1F
100
AcDbEntity
  8
SANINDUSA
100
AcDbPolyline
 90
       13
 70
   128
 43
0.0
 10
92.70127542012652
 20
1437.838545659604
 10
92.70127542012648
 20
1437.838545659604
 10
92.70062943327863
 20
1437.838544671595
 10
92.69872709759939
 20
1437.838542653665
 10
92.69560695527466
 20
1437.838541636042
 10
92.69137022067447
 20
1437.838544994506
 10
92.68612742253573
 20
1437.838556356734
 10
92.68003430290672
 20
1437.838578805887
 10
92.67324767738239
 20
1437.838618124321
 10
92.66597890210334
 20
1437.838658929215
 10
92.66103386396954
 20
1437.838674363769
 10
92.65602972449327
 20
1437.838679291988
 10
92.65602966449327
 20
1437.838679291988
  0
LINE
  5
187D
330
1F
100
AcDbEntity
  8
SANINDUSA
100
AcDbLine
 10
92.83602966449327
 20
1437.957826492984
 30
0.0
 11
92.83602966449327
 21
1437.987826492984
 31
0.0
  0
ARC
  5
1880
330
1F
100
AcDbEntity
  8
SANINDUSA
100
AcDbCircle
 10
92.76602966449328
 20
1437.932826492984
 30
0.0
 40
0.005
100
AcDbArc
 50
270.0
 51
0.0
  0
LINE
  5
1887
330
1F
100
AcDbEntity
  8
SANINDUSA
100
AcDbLine
 10
92.77102966449328
 20
1437.932826492984
 30
0.0
 11
92.77102966449328
 21
1437.952826492984
 31
0.0
  0
ARC
  5
1889
330
1F
100
AcDbEntity
  8
SANINDUSA
100
AcDbCircle
 10
92.83102966449327
 20
1437.957826492984
 30
0.0
 40
0.0049999999999994
100
AcDbArc
 50
269.9999999999935
 51
0.0
  0
LINE
  5
188B
330
1F
100
AcDbEntity
  8
SANINDUSA
100
AcDbLine
 10
92.82602966449328
 20
1437.952826492984
 30
0.0
 11
92.83102966449325
 21
1437.952826492984
 31
0.0
  0
LINE
  5
188D
330
1F
100
AcDbEntity
  8
SANINDUSA
100
AcDbLine
 10
92.8313373766255
 20
1437.952826492984
 30
0.0
 11
92.83478863329534
 21
1437.952826492984
 31
0.0
  0
ARC
  5
1892
330
1F
100
AcDbEntity
  8
SANINDUSA
100
AcDbCircle
 10
92.83102966449325
 20
1437.849610701501
 30
0.0
 40
0.005
100
AcDbArc
 50
180.0
 51
288.3762078667206
  0
ARC
  5
1893
330
1F
100
AcDbEntity
  8
SANINDUSA
100
AcDbCircle
 10
92.82102966449325
 20
1437.863980166556
 30
0.0
 40
0.005
100
AcDbArc
 50
0.0
 51
114.8075238006619
  0
LINE
  5
1897
330
1F
100
AcDbEntity
  8
SANINDUSA
100
AcDbLine
 10
92.82602966449324
 20
1437.952476482984
 30
0.0
 11
92.82602966449324
 21
1437.850029218767
 31
0.0
  0
ARC
  5
189A
330
1F
100
AcDbEntity
  8
SANINDUSA
100
AcDbCircle
 10
92.83765061554111
 20
1438.001831988562
 30
0.0
 40
0.0105806375331359
100
AcDbArc
 50
200.6380864572597
 51
240.494035432672
  0
LINE
  5
189D
330
1F
100
AcDbEntity
  8
SANINDUSA
100
AcDbLine
 10
92.82774898568353
 20
1437.998102696837
 30
0.0
 11
92.82722708990617
 21
1437.9995365937
 31
0.0
  0
ARC
  5
189E
330
1F
100
AcDbEntity
  8
SANINDUSA
100
AcDbCircle
 10
92.82252862680222
 20
1437.997826492984
 30
0.0
 40
0.0050000000000004
100
AcDbArc
 50
20.00000000000267
 51
90.0
  0
LINE
  5
189F
330
1F
100
AcDbEntity
  8
SANINDUSA
100
AcDbLine
 10
92.82252862680222
 20
1438.002826492984
 30
0.0
 11
92.8178301636983
 21
1438.002826492984
 31
0.0
  0
ARC
  5
18AA
330
1F
100
AcDbEntity
  8
SANINDUSA
100
AcDbCircle
 10
92.83102966449327
 20
1437.987826492984
 30
0.0
 40
0.005
100
AcDbArc
 50
0.0
 51
73.62233701133419
  0
ARC
  5
18B2
330
1F
100
AcDbEntity
  8
SANINDUSA
100
AcDbCircle
 10
95.2829398362657
 20
1437.937826492984
 30
0.0
 40
0.0150000000000002
100
AcDbArc
 50
90.0
 51
158.0337883327262
  0
LWPOLYLINE
  5
18B3
330
1F
100
AcDbEntity
  8
SANINDUSA
100
AcDbPolyline
 90
       14
 70
   128
 43
0.0
 10
95.16750103137642
 20
1437.863980166556
 10
95.16750103137642
 20
1437.858299870097
 42
0.5245725365479144
 10
95.16885485033094
 20
1437.857364556167
 10
95.17328298728383
 20
1437.859039671587
 10
95.18513149424935
 20
1437.864665262503
 10
95.19642342522487
 20
1437.871196809323
 10
95.20711247660113
 20
1437.878589975425
 10
95.21715190271249
 20
1437.886800194753
 10
95.22650303516995
 20
1437.8957906466
 10
95.23462423359003
 20
1437.904918314381
 10
95.24205280371246
 20
1437.914663493082
 10
95.24874205370805
 20
1437.924980116187
 10
95.254653118657
 20
1437.935831021465
 10
95.25975472112936
 20
1437.947177986774
  0
LWPOLYLINE
  5
18B4
330
1F
100
AcDbEntity
  8
SANINDUSA
100
AcDbPolyline
 90
       12
 70
   128
 43
0.0
 10
95.25011791048656
 20
1437.98217614435
 10
95.24648396677728
 20
1437.970214868926
 10
95.2408954763465
 20
1437.956299368534
 10
95.23398739727021
 20
1437.942718259764
 10
95.22577572174988
 20
1437.929621226399
 10
95.21631219162259
 20
1437.917195744001
 10
95.20794261624402
 20
1437.907907649567
 10
95.19886935730609
 20
1437.89921045272
 10
95.18909376293201
 20
1437.891134969904
 10
95.17865305046621
 20
1437.883744294495
 10
95.16764805176821
 20
1437.877142912126
 10
95.16414807542517
 20
1437.875327840819
  0
LWPOLYLINE
  5
18B5
330
1F
100
AcDbEntity
  8
SANINDUSA
100
AcDbPolyline
 90
       12
 70
   128
 43
0.0
 10
95.16407730631629
 20
1437.844865666484
 10
95.17720313067833
 20
1437.849831021221
 10
95.18978716345882
 20
1437.855805834816
 10
95.20177987575278
 20
1437.862742731793
 10
95.21313173865529
 20
1437.870594336678
 10
95.22379322326136
 20
1437.879313273997
 10
95.23371480066602
 20
1437.888852168275
 10
95.24234723584523
 20
1437.898554430969
 10
95.25023636426173
 20
1437.908903793625
 10
95.2573406717404
 20
1437.919860547032
 10
95.26361864410615
 20
1437.93138498198
 10
95.2690287671839
 20
1437.943437389258
  0
ARC
  5
18B9
330
1F
100
AcDbEntity
  8
SANINDUSA
100
AcDbCircle
 10
95.15250103137642
 20
1437.863980166556
 30
0.0
 40
0.0050000000000002
100
AcDbArc
 50
0.0
 51
114.8075238006619
  0
ARC
  5
18BA
330
1F
100
AcDbEntity
  8
SANINDUSA
100
AcDbCircle
 10
95.16250103137641
 20
1437.849610701501
 30
0.0
 40
0.005
100
AcDbArc
 50
180.0
 51
288.376207866736
  0
ARC
  5
18BE
330
1F
100
AcDbEntity
  8
SANINDUSA
100
AcDbCircle
 10
95.15250103137642
 20
1437.863980166556
 30
0.0
 40
0.0150000000000018
100
AcDbArc
 50
0.0
 51
40.82468813520153
  0
ARC
  5
18BF
330
1F
100
AcDbEntity
  8
SANINDUSA
100
AcDbCircle
 10
95.16460844631202
 20
1437.874440114145
 30
0.0
 40
0.001
100
AcDbArc
 50
117.4110427418332
 51
220.8246881352156
  0
LINE
  5
18C0
330
1F
100
AcDbEntity
  8
SANINDUSA
100
AcDbLine
 10
95.15750103137643
 20
1437.863980166556
 30
0.0
 11
95.15750103137643
 21
1437.849610701501
 31
0.0
  0
ARC
  5
18C5
330
1F
100
AcDbEntity
  8
SANINDUSA
100
AcDbCircle
 10
95.29861727877456
 20
1438.00152289827
 30
0.0
 40
0.0200000000000003
100
AcDbArc
 50
207.4990292708841
 51
234.7626999915537
  0
LINE
  5
18C6
330
1F
100
AcDbEntity
  8
SANINDUSA
100
AcDbLine
 10
95.2839999936854
 20
1438.002826492984
 30
0.0
 11
95.26449248077872
 21
1438.002826492984
 31
0.0
  0
LINE
  5
18C7
330
1F
100
AcDbEntity
  8
SANINDUSA
100
AcDbLine
 10
95.2829398362657
 20
1437.962826492984
 30
0.0
 11
95.28650103137644
 21
1437.962826492984
 31
0.0
  0
LINE
  5
18C8
330
1F
100
AcDbEntity
  8
SANINDUSA
100
AcDbLine
 10
95.2829398362657
 20
1437.952826492984
 30
0.0
 11
95.28750103137644
 21
1437.952826492984
 31
0.0
  0
ARC
  5
18CC
330
1F
100
AcDbEntity
  8
SANINDUSA
100
AcDbCircle
 10
95.26515201718934
 20
1437.991826492984
 30
0.0
 40
0.001
100
AcDbArc
 50
90.0
 51
155.6842608288192
  0
ARC
  5
18CD
330
1F
100
AcDbEntity
  8
SANINDUSA
100
AcDbCircle
 10
95.27998988699456
 20
1437.991826492984
 30
0.0
 40
0.001
100
AcDbArc
 50
27.49902927088413
 51
90.0
  0
LINE
  5
18CE
330
1F
100
AcDbEntity
  8
SANINDUSA
100
AcDbLine
 10
95.27998988699456
 20
1437.992826492983
 30
0.0
 11
95.26515201718934
 21
1437.992826492983
 31
0.0
  0
ARC
  5
18CF
330
1F
100
AcDbEntity
  8
SANINDUSA
100
AcDbCircle
 10
95.26449248077872
 20
1437.992826492983
 30
0.0
 40
0.0100000000000003
100
AcDbArc
 50
90.0
 51
157.9756871629578
  0
ARC
  5
18D0
330
1F
100
AcDbEntity
  8
SANINDUSA
100
AcDbCircle
 10
95.25107472784467
 20
1437.981885454579
 30
0.0
 40
0.001
100
AcDbArc
 50
94.7733511483724
 51
163.1007438590132
  0
LINE
  5
18D1
330
1F
100
AcDbEntity
  8
SANINDUSA
100
AcDbLine
 10
95.24966008380452
 20
1437.992826492983
 30
0.0
 11
95.24882509902724
 21
1437.992826492983
 31
0.0
  0
ARC
  5
18D2
330
1F
100
AcDbEntity
  8
SANINDUSA
100
AcDbCircle
 10
95.24966008380452
 20
1437.998826492984
 30
0.0
 40
0.0160000000000002
100
AcDbArc
 50
274.7733511483659
 51
335.6842608288193
  0
ARC
  5
18D3
330
1F
100
AcDbEntity
  8
SANINDUSA
100
AcDbCircle
 10
95.24966008380452
 20
1437.998826492984
 30
0.0
 40
0.0060000000000002
100
AcDbArc
 50
270.0
 51
337.9756871629595
  0
ARC
  5
18D4
330
1F
100
AcDbEntity
  8
SANINDUSA
100
AcDbCircle
 10
95.24882509902724
 20
1437.984826492983
 30
0.0
 40
0.0079999999999998
100
AcDbArc
 50
90.0
 51
165.5675964878128
  0
ARC
  5
18D5
330
1F
100
AcDbEntity
  8
SANINDUSA
100
AcDbCircle
 10
95.2829398362657
 20
1437.937826492984
 30
0.0
 40
0.0250000000000002
100
AcDbArc
 50
90.0
 51
158.0337883327262
  0
ARC
  5
18D9
330
1F
100
AcDbEntity
  8
SANINDUSA
100
AcDbCircle
 10
95.28650103137644
 20
1437.984370739543
 30
0.0
 40
0.001
100
AcDbArc
 50
0.0
 51
54.76269999156382
  0
LINE
  5
18DA
330
1F
100
AcDbEntity
  8
SANINDUSA
100
AcDbLine
 10
95.2892203525667
 20
1437.998102696837
 30
0.0
 11
95.28869845678931
 21
1437.9995365937
 31
0.0
  0
ARC
  5
18DB
330
1F
100
AcDbEntity
  8
SANINDUSA
100
AcDbCircle
 10
95.29861727877456
 20
1438.00152289827
 30
0.0
 40
0.0100000000000003
100
AcDbArc
 50
200.0000000000313
 51
245.9364394103811
  0
ARC
  5
18DC
330
1F
100
AcDbEntity
  8
SANINDUSA
100
AcDbCircle
 10
95.2839999936854
 20
1437.997826492984
 30
0.0
 40
0.005
100
AcDbArc
 50
20.00000000000267
 51
90.0
  0
ARC
  5
18DD
330
1F
100
AcDbEntity
  8
SANINDUSA
100
AcDbCircle
 10
95.29250103137647
 20
1437.987826492984
 30
0.0
 40
0.0049999999999859
100
AcDbArc
 50
0.0
 51
65.93643941059453
  0
ARC
  5
18DE
330
1F
100
AcDbEntity
  8
SANINDUSA
100
AcDbCircle
 10
95.28650103137644
 20
1437.963826492984
 30
0.0
 40
0.001
100
AcDbArc
 50
270.0
 51
0.0
  0
ARC
  5
18DF
330
1F
100
AcDbEntity
  8
SANINDUSA
100
AcDbCircle
 10
95.28750103137644
 20
1437.962826492984
 30
0.0
 40
0.01
100
AcDbArc
 50
270.0
 51
0.0
  0
LINE
  5
18E0
330
1F
100
AcDbEntity
  8
SANINDUSA
100
AcDbLine
 10
95.28750103137644
 20
1437.963826492984
 30
0.0
 11
95.28750103137644
 21
1437.984370739543
 31
0.0
  0
LINE
  5
18E1
330
1F
100
AcDbEntity
  8
SANINDUSA
100
AcDbLine
 10
95.29750103137644
 20
1437.962826492984
 30
0.0
 11
95.29750103137644
 21
1437.987826492984
 31
0.0
  0
ARC
  5
18E5
330
1F
100
AcDbEntity
  8
SANINDUSA
100
AcDbCircle
 10
92.9671459118914
 20
1438.00152289827
 30
0.0
 40
0.0100000000000003
100
AcDbArc
 50
200.0000000000313
 51
245.936439410422
  0
ARC
  5
18E8
330
1F
100
AcDbEntity
  8
SANINDUSA
100
AcDbCircle
 10
92.95602966449328
 20
1437.962826492984
 30
0.0
 40
0.0099999999999903
100
AcDbArc
 50
270.0000000000456
 51
0.0
  0
LINE
  5
18EC
330
1F
100
AcDbEntity
  8
SANINDUSA
100
AcDbLine
 10
92.89761912479164
 20
1437.952826492984
 30
0.0
 11
92.95602966449328
 21
1437.952826492984
 31
0.0
  0
LWPOLYLINE
  5
18F2
330
1F
100
AcDbEntity
  8
SANINDUSA
100
AcDbPolyline
 90
        3
 70
   128
 43
0.0
 10
92.84115187649002
 20
1437.952550520682
 10
92.84737428202076
 20
1437.952404267132
 10
92.8540553135104
 20
1437.952447814854
  0
LWPOLYLINE
  5
18F5
330
1F
100
AcDbEntity
  8
SANINDUSA
100
AcDbPolyline
 90
        5
 70
   128
 43
0.0
 10
92.8540553135104
 20
1437.952447814854
 10
92.86589626251346
 20
1437.952644505617
 10
92.87712693487662
 20
1437.952757109953
 10
92.88771646989431
 20
1437.952811875695
 10
92.89761885872501
 20
1437.952826492984
  0
ARC
  5
18F8
330
1F
100
AcDbEntity
  8
SANINDUSA
100
AcDbCircle
 10
92.95146846938253
 20
1437.937826492984
 30
0.0
 40
0.0150000000000001
100
AcDbArc
 50
90.0
 51
158.0337883327262
  0
LINE
  5
18F9
330
1F
100
AcDbEntity
  8
SANINDUSA
100
AcDbLine
 10
92.95252862680223
 20
1438.002826492984
 30
0.0
 11
92.84653261769994
 21
1438.002826492984
 31
0.0
  0
LINE
  5
1906
330
1F
100
AcDbEntity
  8
SANINDUSA
100
AcDbLine
 10
92.95774898568353
 20
1437.998102696837
 30
0.0
 11
92.95722708990615
 21
1437.9995365937
 31
0.0
  0
ARC
  5
1907
330
1F
100
AcDbEntity
  8
SANINDUSA
100
AcDbCircle
 10
92.95252862680223
 20
1437.997826492984
 30
0.0
 40
0.005
100
AcDbArc
 50
20.0000000000035
 51
90.0
  0
LINE
  5
1908
330
1F
100
AcDbEntity
  8
SANINDUSA
100
AcDbLine
 10
92.96602966449327
 20
1437.962826492984
 30
0.0
 11
92.96602966449327
 21
1437.987826492984
 31
0.0
  0
ARC
  5
1909
330
1F
100
AcDbEntity
  8
SANINDUSA
100
AcDbCircle
 10
92.9610296644933
 20
1437.987826492984
 30
0.0
 40
0.0049999999999854
100
AcDbArc
 50
0.0
 51
65.93643941059453
  0
ENDSEC
  0
SECTION
  2
OBJECTS
  0
DICTIONARY
  5
C
330
0
100
AcDbDictionary
281
     1
  3
ACAD_COLOR
350
1C44
  3
ACAD_GROUP
350
D
  3
ACAD_LAYOUT
350
1A
  3
ACAD_MATERIAL
350
1C17
  3
ACAD_MLEADERSTYLE
350
1C59
  3
ACAD_MLINESTYLE
350
17
  3
ACAD_PLOTSETTINGS
350
19
  3
ACAD_PLOTSTYLENAME
350
E
  3
ACAD_SCALELIST
350
1C47
  3
ACAD_TABLESTYLE
350
1C45
  3
ACAD_VISUALSTYLE
350
1C30
  3
ACDB_RECOMPOSE_DATA
350
1C86
  3
AcDbVariableDictionary
350
3D
  3
ASE_INDEX_DICTIONARY
350
1C12
  3
DWGPROPS
350
1C87
  0
DICTIONARY
  5
1C60
330
10
100
AcDbDictionary
280
     1
281
     1
  3
ADSK_XREC_LAYER_RECONCILED
360
1C61
  0
DICTIONARY
  5
1C62
330
2F
100
AcDbDictionary
280
     1
281
     1
  3
ADSK_XREC_LAYER_RECONCILED
360
1C63
  0
DICTIONARY
  5
1C64
330
30
100
AcDbDictionary
280
     1
281
     1
  3
ADSK_XREC_LAYER_RECONCILED
360
1C65
  0
DICTIONARY
  5
1C66
330
31
100
AcDbDictionary
280
     1
281
     1
  3
ADSK_XREC_LAYER_RECONCILED
360
1C67
  0
DICTIONARY
  5
1C68
330
32
100
AcDbDictionary
280
     1
281
     1
  3
ADSK_XREC_LAYER_RECONCILED
360
1C69
  0
DICTIONARY
  5
1C6A
330
33
100
AcDbDictionary
280
     1
281
     1
  3
ADSK_XREC_LAYER_RECONCILED
360
1C6B
  0
DICTIONARY
  5
1C6C
330
34
100
AcDbDictionary
280
     1
281
     1
  3
ADSK_XREC_LAYER_RECONCILED
360
1C6D
  0
DICTIONARY
  5
1C6E
330
35
100
AcDbDictionary
280
     1
281
     1
  3
ADSK_XREC_LAYER_RECONCILED
360
1C6F
  0
DICTIONARY
  5
1C70
330
36
100
AcDbDictionary
280
     1
281
     1
  3
ADSK_XREC_LAYER_RECONCILED
360
1C71
  0
DICTIONARY
  5
1C72
330
37
100
AcDbDictionary
280
     1
281
     1
  3
ADSK_XREC_LAYER_RECONCILED
360
1C73
  0
DICTIONARY
  5
1C74
330
5D6
100
AcDbDictionary
280
     1
281
     1
  3
ADSK_XREC_LAYER_RECONCILED
360
1C75
  0
DICTIONARY
  5
1C76
330
8AF
100
AcDbDictionary
280
     1
281
     1
  3
ADSK_XREC_LAYER_RECONCILED
360
1C77
  0
DICTIONARY
  5
1C78
330
8F8
100
AcDbDictionary
280
     1
281
     1
  3
ADSK_XREC_LAYER_RECONCILED
360
1C79
  0
DICTIONARY
  5
1C7A
330
91D
100
AcDbDictionary
280
     1
281
     1
  3
ADSK_XREC_LAYER_RECONCILED
360
1C7B
  0
DICTIONARY
  5
1C7C
330
BA5
100
AcDbDictionary
280
     1
281
     1
  3
ADSK_XREC_LAYER_RECONCILED
360
1C7D
  0
DICTIONARY
  5
1C44
102
{ACAD_REACTORS
330
C
102
}
330
C
100
AcDbDictionary
281
     1
  0
DICTIONARY
  5
D
102
{ACAD_REACTORS
330
C
102
}
330
C
100
AcDbDictionary
281
     1
  0
DICTIONARY
  5
1A
102
{ACAD_REACTORS
330
C
102
}
330
C
100
AcDbDictionary
281
     1
  3
Layout1
350
1E
  3
Layout2
350
26
  3
Model
350
22
  0
DICTIONARY
  5
1C17
102
{ACAD_REACTORS
330
C
102
}
330
C
100
AcDbDictionary
281
     1
  3
ByBlock
350
1C20
  3
ByLayer
350
1C18
  3
Global
350
1C28
  0
DICTIONARY
  5
1C59
102
{ACAD_REACTORS
330
C
102
}
330
C
100
AcDbDictionary
281
     1
  3
Standard
350
1C5A
  0
DICTIONARY
  5
17
102
{ACAD_REACTORS
330
C
102
}
330
C
100
AcDbDictionary
281
     1
  3
Standard
350
18
  0
DICTIONARY
  5
19
102
{ACAD_REACTORS
330
C
102
}
330
C
100
AcDbDictionary
281
     1
  0
ACDBDICTIONARYWDFLT
  5
E
102
{ACAD_REACTORS
330
C
102
}
330
C
100
AcDbDictionary
281
     1
  3
Normal
350
F
100
AcDbDictionaryWithDefault
340
F
  0
DICTIONARY
  5
1C47
102
{ACAD_REACTORS
330
C
102
}
330
C
100
AcDbDictionary
281
     1
  3
A0
350
1C48
  3
A1
350
1C49
  3
A2
350
1C4A
  3
A3
350
1C4B
  3
A4
350
1C4C
  3
A5
350
1C4D
  3
A6
350
1C4E
  3
A7
350
1C4F
  3
A8
350
1C50
  3
A9
350
1C51
  3
B0
350
1C52
  3
B1
350
1C53
  3
B2
350
1C54
  3
B3
350
1C55
  3
B4
350
1C56
  3
B5
350
1C57
  3
B6
350
1C58
  0
DICTIONARY
  5
1C45
102
{ACAD_REACTORS
330
C
102
}
330
C
100
AcDbDictionary
281
     1
  3
Standard
350
1C46
  0
DICTIONARY
  5
1C30
102
{ACAD_REACTORS
330
C
102
}
330
C
100
AcDbDictionary
281
     1
  3
2dWireframe
350
1C36
  3
3D Hidden
350
1C38
  3
3dWireframe
350
1C37
  3
Basic
350
1C35
  3
Brighten
350
1C3C
  3
ColorChange
350
1C40
  3
Conceptual
350
1C39
  3
Dim
350
1C3B
  3
EdgeColorOff
350
1C43
  3
Facepattern
350
1C3F
  3
Flat
350
1C31
  3
FlatWithEdges
350
1C32
  3
Gouraud
350
1C33
  3
GouraudWithEdges
350
1C34
  3
JitterOff
350
1C41
  3
Linepattern
350
1C3E
  3
OverhangOff
350
1C42
  3
Realistic
350
1C3A
  3
Thicken
350
1C3D
  0
XRECORD
  5
1C86
102
{ACAD_REACTORS
330
C
102
}
330
C
100
AcDbXrecord
280
     1
 90
        1
330
1C46
  0
DICTIONARY
  5
3D
102
{ACAD_REACTORS
330
C
102
}
330
C
100
AcDbDictionary
281
     1
  3
CANNOSCALE
350
1C80
  3
CMLEADERSTYLE
350
1C7F
  3
CTABLESTYLE
350
1C7E
  3
DIMASSOC
350
3F
  3
HIDETEXT
350
3E
  3
INDEXCTL
350
1C82
  3
SORTENTS
350
1C81
  3
XCLIPFRAME
350
1C83
  0
DICTIONARY
  5
1C12
102
{ACAD_REACTORS
330
C
102
}
330
C
100
AcDbDictionary
281
     1
  3
ASEBlockHierarchyIndexRecord
350
1C13
1001
DCO15
1040
1529128155.031
  0
XRECORD
  5
1C87
102
{ACAD_REACTORS
330
C
102
}
330
C
100
AcDbXrecord
280
     1
  1
DWGPROPS COOKIE
  2

  3

  4

  6

  7

  8
Julio
  9

300
=
301
=
302
=
303
=
304
=
305
=
306
=
307
=
308
=
309
=
 40
0.0036179861111111
 41
2453501.450970231
 42
2456149.572405776
  1

 90
        0
  0
XRECORD
  5
1C61
102
{ACAD_REACTORS
330
1C60
102
}
330
1C60
100
AcDbXrecord
280
     1
290
     1
  0
XRECORD
  5
1C63
102
{ACAD_REACTORS
330
1C62
102
}
330
1C62
100
AcDbXrecord
280
     1
290
     1
  0
XRECORD
  5
1C65
102
{ACAD_REACTORS
330
1C64
102
}
330
1C64
100
AcDbXrecord
280
     1
290
     1
  0
XRECORD
  5
1C67
102
{ACAD_REACTORS
330
1C66
102
}
330
1C66
100
AcDbXrecord
280
     1
290
     1
  0
XRECORD
  5
1C69
102
{ACAD_REACTORS
330
1C68
102
}
330
1C68
100
AcDbXrecord
280
     1
290
     1
  0
XRECORD
  5
1C6B
102
{ACAD_REACTORS
330
1C6A
102
}
330
1C6A
100
AcDbXrecord
280
     1
290
     1
  0
XRECORD
  5
1C6D
102
{ACAD_REACTORS
330
1C6C
102
}
330
1C6C
100
AcDbXrecord
280
     1
290
     1
  0
XRECORD
  5
1C6F
102
{ACAD_REACTORS
330
1C6E
102
}
330
1C6E
100
AcDbXrecord
280
     1
290
     1
  0
XRECORD
  5
1C71
102
{ACAD_REACTORS
330
1C70
102
}
330
1C70
100
AcDbXrecord
280
     1
290
     1
  0
XRECORD
  5
1C73
102
{ACAD_REACTORS
330
1C72
102
}
330
1C72
100
AcDbXrecord
280
     1
290
     1
  0
XRECORD
  5
1C75
102
{ACAD_REACTORS
330
1C74
102
}
330
1C74
100
AcDbXrecord
280
     1
290
     1
  0
XRECORD
  5
1C77
102
{ACAD_REACTORS
330
1C76
102
}
330
1C76
100
AcDbXrecord
280
     1
290
     1
  0
XRECORD
  5
1C79
102
{ACAD_REACTORS
330
1C78
102
}
330
1C78
100
AcDbXrecord
280
     1
290
     1
  0
XRECORD
  5
1C7B
102
{ACAD_REACTORS
330
1C7A
102
}
330
1C7A
100
AcDbXrecord
280
     1
290
     1
  0
XRECORD
  5
1C7D
102
{ACAD_REACTORS
330
1C7C
102
}
330
1C7C
100
AcDbXrecord
280
     1
290
     1
  0
LAYOUT
  5
1E
102
{ACAD_XDICTIONARY
360
1C88
102
}
102
{ACAD_REACTORS
330
1A
102
}
330
1A
100
AcDbPlotSettings
  1

  2
Ploter HP500
  4

  6

 40
0.0
 41
0.0
 42
0.0
 43
0.0
 44
0.0
 45
0.0
 46
0.0
 47
0.0
 48
0.0
 49
0.0
140
0.0
141
0.0
142
1.0
143
1.0
 70
   688
 72
     0
 73
     0
 74
     5
  7
monochrome.ctb
 75
    16
147
1.0
148
0.0
149
0.0
100
AcDbLayout
  1
Layout1
 70
     1
 71
     1
 10
0.0
 20
0.0
 11
420.0
 21
297.0
 12
0.0
 22
0.0
 32
0.0
 14
1.000000000000000E+20
 24
1.000000000000000E+20
 34
1.000000000000000E+20
 15
-1.000000000000000E+20
 25
-1.000000000000000E+20
 35
-1.000000000000000E+20
146
0.0
 13
0.0
 23
0.0
 33
0.0
 16
1.0
 26
0.0
 36
0.0
 17
0.0
 27
1.0
 37
0.0
 76
     0
330
1B
  0
LAYOUT
  5
26
102
{ACAD_XDICTIONARY
360
1C8C
102
}
102
{ACAD_REACTORS
330
1A
102
}
330
1A
100
AcDbPlotSettings
  1

  2
Ploter HP500
  4

  6

 40
0.0
 41
0.0
 42
0.0
 43
0.0
 44
0.0
 45
0.0
 46
0.0
 47
0.0
 48
0.0
 49
0.0
140
0.0
141
0.0
142
1.0
143
1.0
 70
   688
 72
     0
 73
     0
 74
     5
  7
monochrome.ctb
 75
    16
147
1.0
148
0.0
149
0.0
100
AcDbLayout
  1
Layout2
 70
     1
 71
     2
 10
0.0
 20
0.0
 11
12.0
 21
9.0
 12
0.0
 22
0.0
 32
0.0
 14
0.0
 24
0.0
 34
0.0
 15
0.0
 25
0.0
 35
0.0
146
0.0
 13
0.0
 23
0.0
 33
0.0
 16
1.0
 26
0.0
 36
0.0
 17
0.0
 27
1.0
 37
0.0
 76
     0
330
23
  0
LAYOUT
  5
22
102
{ACAD_XDICTIONARY
360
1C8A
102
}
102
{ACAD_REACTORS
330
1A
102
}
330
1A
100
AcDbPlotSettings
  1

  2
Ploter HP500
  4
User268
  6

 40
4.995333194732666
 41
16.97565841674804
 42
4.995330810546875
 43
16.97567749023437
 44
209.9733276367187
 45
296.9259948730469
 46
0.0
 47
0.0
 48
0.0
 49
0.0
140
0.0
141
0.0
142
1.0
143
1.0
 70
 11952
 72
     1
 73
     1
 74
     0
  7

 75
     0
147
1.0
148
-427.5957866592534
149
7.362384574453926
100
AcDbLayout
  1
Model
 70
     1
 71
     0
 10
0.0
 20
0.0
 11
12.0
 21
9.0
 12
0.0
 22
0.0
 32
0.0
 14
0.0
 24
0.0
 34
0.0
 15
0.0
 25
0.0
 35
0.0
146
0.0
 13
0.0
 23
0.0
 33
0.0
 16
1.0
 26
0.0
 36
0.0
 17
0.0
 27
1.0
 37
0.0
 76
     0
330
1F
331
1C15
  0
MATERIAL
  5
1C20
102
{ACAD_XDICTIONARY
360
1C21
102
}
102
{ACAD_REACTORS
330
1C17
102
}
330
1C17
100
AcDbMaterial
  1
ByBlock
 72
     0
 43
0.0008202099737533
 43
0.0
 43
0.0
 43
0.0
 43
0.0
 43
0.0008202099737533
 43
0.0
 43
0.0
 43
0.0
 43
0.0
 43
1.0
 43
0.0
 43
0.0
 43
0.0
 43
0.0
 43
1.0
 77
     0
 47
0.0008202099737533
 47
0.0
 47
0.0
 47
0.0
 47
0.0
 47
0.0008202099737533
 47
0.0
 47
0.0
 47
0.0
 47
0.0
 47
1.0
 47
0.0
 47
0.0
 47
0.0
 47
0.0
 47
1.0
171
     0
 49
0.0008202099737533
 49
0.0
 49
0.0
 49
0.0
 49
0.0
 49
0.0008202099737533
 49
0.0
 49
0.0
 49
0.0
 49
0.0
 49
1.0
 49
0.0
 49
0.0
 49
0.0
 49
0.0
 49
1.0
175
     0
142
0.0008202099737533
142
0.0
142
0.0
142
0.0
142
0.0
142
0.0008202099737533
142
0.0
142
0.0
142
0.0
142
0.0
142
1.0
142
0.0
142
0.0
142
0.0
142
0.0
142
1.0
179
     0
144
0.0008202099737533
144
0.0
144
0.0
144
0.0
144
0.0
144
0.0008202099737533
144
0.0
144
0.0
144
0.0
144
0.0
144
1.0
144
0.0
144
0.0
144
0.0
144
0.0
144
1.0
147
0.0008202099737533
147
0.0
147
0.0
147
0.0
147
0.0
147
0.0008202099737533
147
0.0
147
0.0
147
0.0
147
0.0
147
1.0
147
0.0
147
0.0
147
0.0
147
0.0
147
1.0
  0
MATERIAL
  5
1C18
102
{ACAD_XDICTIONARY
360
1C19
102
}
102
{ACAD_REACTORS
330
1C17
102
}
330
1C17
100
AcDbMaterial
  1
ByLayer
 72
     0
 43
0.0008202099737533
 43
0.0
 43
0.0
 43
0.0
 43
0.0
 43
0.0008202099737533
 43
0.0
 43
0.0
 43
0.0
 43
0.0
 43
1.0
 43
0.0
 43
0.0
 43
0.0
 43
0.0
 43
1.0
 77
     0
 47
0.0008202099737533
 47
0.0
 47
0.0
 47
0.0
 47
0.0
 47
0.0008202099737533
 47
0.0
 47
0.0
 47
0.0
 47
0.0
 47
1.0
 47
0.0
 47
0.0
 47
0.0
 47
0.0
 47
1.0
171
     0
 49
0.0008202099737533
 49
0.0
 49
0.0
 49
0.0
 49
0.0
 49
0.0008202099737533
 49
0.0
 49
0.0
 49
0.0
 49
0.0
 49
1.0
 49
0.0
 49
0.0
 49
0.0
 49
0.0
 49
1.0
175
     0
142
0.0008202099737533
142
0.0
142
0.0
142
0.0
142
0.0
142
0.0008202099737533
142
0.0
142
0.0
142
0.0
142
0.0
142
1.0
142
0.0
142
0.0
142
0.0
142
0.0
142
1.0
179
     0
144
0.0008202099737533
144
0.0
144
0.0
144
0.0
144
0.0
144
0.0008202099737533
144
0.0
144
0.0
144
0.0
144
0.0
144
1.0
144
0.0
144
0.0
144
0.0
144
0.0
144
1.0
147
0.0008202099737533
147
0.0
147
0.0
147
0.0
147
0.0
147
0.0008202099737533
147
0.0
147
0.0
147
0.0
147
0.0
147
1.0
147
0.0
147
0.0
147
0.0
147
0.0
147
1.0
  0
MATERIAL
  5
1C28
102
{ACAD_XDICTIONARY
360
1C29
102
}
102
{ACAD_REACTORS
330
1C17
102
}
330
1C17
100
AcDbMaterial
  1
Global
 72
     0
 43
0.0008202099737533
 43
0.0
 43
0.0
 43
0.0
 43
0.0
 43
0.0008202099737533
 43
0.0
 43
0.0
 43
0.0
 43
0.0
 43
1.0
 43
0.0
 43
0.0
 43
0.0
 43
0.0
 43
1.0
 77
     0
 47
0.0008202099737533
 47
0.0
 47
0.0
 47
0.0
 47
0.0
 47
0.0008202099737533
 47
0.0
 47
0.0
 47
0.0
 47
0.0
 47
1.0
 47
0.0
 47
0.0
 47
0.0
 47
0.0
 47
1.0
171
     0
 49
0.0008202099737533
 49
0.0
 49
0.0
 49
0.0
 49
0.0
 49
0.0008202099737533
 49
0.0
 49
0.0
 49
0.0
 49
0.0
 49
1.0
 49
0.0
 49
0.0
 49
0.0
 49
0.0
 49
1.0
175
     0
142
0.0008202099737533
142
0.0
142
0.0
142
0.0
142
0.0
142
0.0008202099737533
142
0.0
142
0.0
142
0.0
142
0.0
142
1.0
142
0.0
142
0.0
142
0.0
142
0.0
142
1.0
179
     0
144
0.0008202099737533
144
0.0
144
0.0
144
0.0
144
0.0
144
0.0008202099737533
144
0.0
144
0.0
144
0.0
144
0.0
144
1.0
144
0.0
144
0.0
144
0.0
144
0.0
144
1.0
147
0.0008202099737533
147
0.0
147
0.0
147
0.0
147
0.0
147
0.0008202099737533
147
0.0
147
0.0
147
0.0
147
0.0
147
1.0
147
0.0
147
0.0
147
0.0
147
0.0
147
1.0
  0
MLEADERSTYLE
  5
1C5A
102
{ACAD_REACTORS
330
1C59
102
}
330
1C59
100
AcDbMLeaderStyle
170
     2
171
     1
172
     0
 90
        2
 40
0.0
 41
0.0
173
     1
 91
-1056964608
340
14
 92
       -2
290
     1
 42
2.0
291
     1
 43
0.36
  3
Standard
 44
4.0
300

342
11
174
     1
178
     6
175
     1
176
     0
 93
-1056964608
 45
4.0
292
     0
297
     0
 46
4.0
 94
-1056964608
 47
1.0
 49
1.0
140
1.0
293
     1
141
0.0
294
     1
177
     0
142
1.0
295
     0
296
     0
143
0.125
1001
ACAD_MLEADERVER
1070
     2
  0
MLINESTYLE
  5
18
102
{ACAD_REACTORS
330
17
102
}
330
17
100
AcDbMlineStyle
  2
STANDARD
 70
     0
  3

 62
   256
 51
90.0
 52
90.0
 71
     2
 49
0.5
 62
   256
  6
BYLAYER
 49
-0.5
 62
   256
  6
BYLAYER
  0
ACDBPLACEHOLDER
  5
F
102
{ACAD_REACTORS
330
E
102
}
330
E
  0
SCALE
  5
1C48
102
{ACAD_REACTORS
330
1C47
102
}
330
1C47
100
AcDbScale
 70
     0
300
1:1
140
1.0
141
1.0
290
     1
  0
SCALE
  5
1C49
102
{ACAD_REACTORS
330
1C47
102
}
330
1C47
100
AcDbScale
 70
     0
300
1:2
140
1.0
141
2.0
290
     0
  0
SCALE
  5
1C4A
102
{ACAD_REACTORS
330
1C47
102
}
330
1C47
100
AcDbScale
 70
     0
300
1:4
140
1.0
141
4.0
290
     0
  0
SCALE
  5
1C4B
102
{ACAD_REACTORS
330
1C47
102
}
330
1C47
100
AcDbScale
 70
     0
300
1:5
140
1.0
141
5.0
290
     0
  0
SCALE
  5
1C4C
102
{ACAD_REACTORS
330
1C47
102
}
330
1C47
100
AcDbScale
 70
     0
300
1:8
140
1.0
141
8.0
290
     0
  0
SCALE
  5
1C4D
102
{ACAD_REACTORS
330
1C47
102
}
330
1C47
100
AcDbScale
 70
     0
300
1:10
140
1.0
141
10.0
290
     0
  0
SCALE
  5
1C4E
102
{ACAD_REACTORS
330
1C47
102
}
330
1C47
100
AcDbScale
 70
     0
300
1:16
140
1.0
141
16.0
290
     0
  0
SCALE
  5
1C4F
102
{ACAD_REACTORS
330
1C47
102
}
330
1C47
100
AcDbScale
 70
     0
300
1:20
140
1.0
141
20.0
290
     0
  0
SCALE
  5
1C50
102
{ACAD_REACTORS
330
1C47
102
}
330
1C47
100
AcDbScale
 70
     0
300
1:30
140
1.0
141
30.0
290
     0
  0
SCALE
  5
1C51
102
{ACAD_REACTORS
330
1C47
102
}
330
1C47
100
AcDbScale
 70
     0
300
1:40
140
1.0
141
40.0
290
     0
  0
SCALE
  5
1C52
102
{ACAD_REACTORS
330
1C47
102
}
330
1C47
100
AcDbScale
 70
     0
300
1:50
140
1.0
141
50.0
290
     0
  0
SCALE
  5
1C53
102
{ACAD_REACTORS
330
1C47
102
}
330
1C47
100
AcDbScale
 70
     0
300
1:100
140
1.0
141
100.0
290
     0
  0
SCALE
  5
1C54
102
{ACAD_REACTORS
330
1C47
102
}
330
1C47
100
AcDbScale
 70
     0
300
2:1
140
2.0
141
1.0
290
     0
  0
SCALE
  5
1C55
102
{ACAD_REACTORS
330
1C47
102
}
330
1C47
100
AcDbScale
 70
     0
300
4:1
140
4.0
141
1.0
290
     0
  0
SCALE
  5
1C56
102
{ACAD_REACTORS
330
1C47
102
}
330
1C47
100
AcDbScale
 70
     0
300
8:1
140
8.0
141
1.0
290
     0
  0
SCALE
  5
1C57
102
{ACAD_REACTORS
330
1C47
102
}
330
1C47
100
AcDbScale
 70
     0
300
10:1
140
10.0
141
1.0
290
     0
  0
SCALE
  5
1C58
102
{ACAD_REACTORS
330
1C47
102
}
330
1C47
100
AcDbScale
 70
     0
300
100:1
140
100.0
141
1.0
290
     0
  0
TABLESTYLE
  5
1C46
102
{ACAD_XDICTIONARY
360
1C84
102
}
102
{ACAD_REACTORS
330
1C45
102
}
330
1C45
100
AcDbTableStyle
  3
Standard
 70
     0
 71
     0
 40
1.5
 41
1.5
280
     0
281
     0
  7
Standard
140
4.5
170
     2
 62
     0
 63
     7
283
     0
274
    -2
284
     1
 64
     0
275
    -2
285
     1
 65
     0
276
    -2
286
     1
 66
     0
277
    -2
287
     1
 67
     0
278
    -2
288
     1
 68
     0
279
    -2
289
     1
 69
     0
  7
Standard
140
6.0
170
     5
 62
     0
 63
     7
283
     0
274
    -2
284
     1
 64
     0
275
    -2
285
     1
 65
     0
276
    -2
286
     1
 66
     0
277
    -2
287
     1
 67
     0
278
    -2
288
     1
 68
     0
279
    -2
289
     1
 69
     0
  7
Standard
140
4.5
170
     5
 62
     0
 63
     7
283
     0
274
    -2
284
     1
 64
     0
275
    -2
285
     1
 65
     0
276
    -2
286
     1
 66
     0
277
    -2
287
     1
 67
     0
278
    -2
288
     1
 68
     0
279
    -2
289
     1
 69
     0
  0
VISUALSTYLE
  5
1C36
102
{ACAD_XDICTIONARY
360
1CB3
102
}
102
{ACAD_REACTORS
330
1C30
102
}
330
1C30
100
AcDbVisualStyle
  2
2dWireframe
 70
     4
 71
     0
 72
     2
 73
     0
 90
        0
 40
-0.6
 41
-30.0
 62
     5
 63
     7
 74
     1
 91
        4
 64
     7
 65
   257
 75
     1
175
     1
 42
1.0
 92
        0
 66
   257
 43
1.0
 76
     1
 77
     6
 78
     2
 67
     7
 79
     5
170
     0
171
     0
290
     0
174
     0
 93
        1
 44
0.0
173
     0
291
     0
 45
0.0
1001
ACAD
1000
AcDbSavedByObjectVersion
1070
     0
  0
VISUALSTYLE
  5
1C38
102
{ACAD_XDICTIONARY
360
1CB7
102
}
102
{ACAD_REACTORS
330
1C30
102
}
330
1C30
100
AcDbVisualStyle
  2
3D Hidden
 70
     6
 71
     1
 72
     2
 73
     2
 90
        0
 40
-0.6
 41
-30.0
 62
     5
 63
     7
 74
     2
 91
        2
 64
     7
 65
   257
 75
     2
175
     1
 42
179.0
 92
        0
 66
   257
 43
1.0
 76
     1
 77
     6
 78
     2
 67
     7
 79
     3
170
     0
171
     0
290
     0
174
     0
 93
        1
 44
0.0
173
     0
291
     0
 45
0.0
1001
ACAD
1000
AcDbSavedByObjectVersion
1070
     0
  0
VISUALSTYLE
  5
1C37
102
{ACAD_XDICTIONARY
360
1CB5
102
}
102
{ACAD_REACTORS
330
1C30
102
}
330
1C30
100
AcDbVisualStyle
  2
3dWireframe
 70
     5
 71
     0
 72
     2
 73
     0
 90
        0
 40
-0.6
 41
-30.0
 62
     5
 63
     7
 74
     1
 91
        4
 64
     7
 65
   257
 75
     1
175
     1
 42
1.0
 92
        0
 66
   257
 43
1.0
 76
     1
 77
     6
 78
     2
 67
     7
 79
     5
170
     0
171
     0
290
     0
174
     0
 93
        1
 44
0.0
173
     0
291
     0
 45
0.0
1001
ACAD
1000
AcDbSavedByObjectVersion
1070
     0
  0
VISUALSTYLE
  5
1C35
102
{ACAD_XDICTIONARY
360
1CB1
102
}
102
{ACAD_REACTORS
330
1C30
102
}
330
1C30
100
AcDbVisualStyle
  2
Basic
 70
     7
 71
     1
 72
     0
 73
     1
 90
        0
 40
-0.6
 41
-30.0
 62
     5
 63
     7
 74
     0
 91
        4
 64
     7
 65
   257
 75
     1
175
     1
 42
1.0
 92
        8
 66
     7
 43
1.0
 76
     1
 77
     6
 78
     2
 67
     7
 79
     5
170
     0
171
     0
290
     0
174
     0
 93
        1
 44
0.0
173
     0
291
     1
 45
0.0
1001
ACAD
1000
AcDbSavedByObjectVersion
1070
     0
  0
VISUALSTYLE
  5
1C3C
102
{ACAD_XDICTIONARY
360
1CBF
102
}
102
{ACAD_REACTORS
330
1C30
102
}
330
1C30
100
AcDbVisualStyle
  2
Brighten
 70
    12
 71
     2
 72
     2
 73
     0
 90
        0
 40
-0.6
 41
-30.0
 62
     5
 63
     7
 74
     1
 91
        4
 64
     7
 65
   257
 75
     1
175
     1
 42
1.0
 92
        8
 66
     7
 43
1.0
 76
     1
 77
     6
 78
     2
 67
     7
 79
     5
170
     0
171
     0
290
     0
174
     0
 93
        1
 44
50.0
173
     0
291
     1
 45
0.0
1001
ACAD
1000
AcDbSavedByObjectVersion
1070
     0
  0
VISUALSTYLE
  5
1C40
102
{ACAD_XDICTIONARY
360
1CC7
102
}
102
{ACAD_REACTORS
330
1C30
102
}
330
1C30
100
AcDbVisualStyle
  2
ColorChange
 70
    16
 71
     2
 72
     2
 73
     3
 90
        0
 40
-0.6
 41
-30.0
 62
     5
 63
     8
 74
     1
 91
        4
 64
     7
 65
   257
 75
     1
175
     1
 42
1.0
 92
        8
 66
     8
 43
1.0
 76
     1
 77
     6
 78
     2
 67
     7
 79
     5
170
     0
171
     0
290
     0
174
     0
 93
        1
 44
0.0
173
     0
291
     1
 45
0.0
1001
ACAD
1000
AcDbSavedByObjectVersion
1070
     0
  0
VISUALSTYLE
  5
1C39
102
{ACAD_XDICTIONARY
360
1CB9
102
}
102
{ACAD_REACTORS
330
1C30
102
}
330
1C30
100
AcDbVisualStyle
  2
Conceptual
 70
     9
 71
     3
 72
     2
 73
     0
 90
        0
 40
-0.6
 41
-30.0
 62
     5
 63
     7
 74
     2
 91
        2
 64
     7
 65
   257
 75
     1
175
     1
 42
179.0
 92
        8
 66
     7
 43
1.0
 76
     1
 77
     6
 78
     2
 67
     7
 79
     3
170
     0
171
     0
290
     0
174
     0
 93
        1
 44
0.0
173
     0
291
     0
 45
0.0
1001
ACAD
1000
AcDbSavedByObjectVersion
1070
     0
  0
VISUALSTYLE
  5
1C3B
102
{ACAD_XDICTIONARY
360
1CBD
102
}
102
{ACAD_REACTORS
330
1C30
102
}
330
1C30
100
AcDbVisualStyle
  2
Dim
 70
    11
 71
     2
 72
     2
 73
     0
 90
        0
 40
-0.6
 41
-30.0
 62
     5
 63
     7
 74
     1
 91
        4
 64
     7
 65
   257
 75
     1
175
     1
 42
1.0
 92
        8
 66
     7
 43
1.0
 76
     1
 77
     6
 78
     2
 67
     7
 79
     5
170
     0
171
     0
290
     0
174
     0
 93
        1
 44
-50.0
173
     0
291
     1
 45
0.0
1001
ACAD
1000
AcDbSavedByObjectVersion
1070
     0
  0
VISUALSTYLE
  5
1C43
102
{ACAD_XDICTIONARY
360
1CCD
102
}
102
{ACAD_REACTORS
330
1C30
102
}
330
1C30
100
AcDbVisualStyle
  2
EdgeColorOff
 70
    22
 71
     2
 72
     2
 73
     0
 90
        0
 40
-0.6
 41
-30.0
 62
     5
 63
     7
 74
     1
 91
        4
 64
     7
 65
   257
 75
     1
175
     1
 42
1.0
 92
        8
 66
     7
 43
1.0
 76
     1
 77
     6
 78
     2
 67
     7
 79
     5
170
     0
171
     0
290
     0
174
     0
 93
        1
 44
0.0
173
     0
291
     1
 45
0.0
1001
ACAD
1000
AcDbSavedByObjectVersion
1070
     0
  0
VISUALSTYLE
  5
1C3F
102
{ACAD_XDICTIONARY
360
1CC5
102
}
102
{ACAD_REACTORS
330
1C30
102
}
330
1C30
100
AcDbVisualStyle
  2
Facepattern
 70
    15
 71
     2
 72
     2
 73
     0
 90
        0
 40
-0.6
 41
-30.0
 62
     5
 63
     7
 74
     1
 91
        4
 64
     7
 65
   257
 75
     1
175
     1
 42
1.0
 92
        8
 66
     7
 43
1.0
 76
     1
 77
     6
 78
     2
 67
     7
 79
     5
170
     0
171
     0
290
     0
174
     0
 93
        1
 44
0.0
173
     0
291
     1
 45
0.0
1001
ACAD
1000
AcDbSavedByObjectVersion
1070
     0
  0
VISUALSTYLE
  5
1C31
102
{ACAD_XDICTIONARY
360
1CA9
102
}
102
{ACAD_REACTORS
330
1C30
102
}
330
1C30
100
AcDbVisualStyle
  2
Flat
 70
     0
 71
     2
 72
     1
 73
     1
 90
        2
 40
-0.6
 41
30.0
 62
     5
 63
     7
 74
     0
 91
        4
 64
     7
 65
   257
 75
     1
175
     1
 42
1.0
 92
        8
 66
     7
 43
1.0
 76
     1
 77
     6
 78
     2
 67
     7
 79
     5
170
     0
171
     0
290
     0
174
     0
 93
       13
 44
0.0
173
     0
291
     1
 45
0.0
1001
ACAD
1000
AcDbSavedByObjectVersion
1070
     0
  0
VISUALSTYLE
  5
1C32
102
{ACAD_XDICTIONARY
360
1CAB
102
}
102
{ACAD_REACTORS
330
1C30
102
}
330
1C30
100
AcDbVisualStyle
  2
FlatWithEdges
 70
     1
 71
     2
 72
     1
 73
     1
 90
        2
 40
-0.6
 41
30.0
 62
     5
 63
     7
 74
     1
 91
        4
 64
     7
 65
   257
 75
     1
175
     1
 42
1.0
 92
        0
 66
   257
 43
1.0
 76
     1
 77
     6
 78
     2
 67
     7
 79
     5
170
     0
171
     0
290
     0
174
     0
 93
       13
 44
0.0
173
     0
291
     1
 45
0.0
1001
ACAD
1000
AcDbSavedByObjectVersion
1070
     0
  0
VISUALSTYLE
  5
1C33
102
{ACAD_XDICTIONARY
360
1CAD
102
}
102
{ACAD_REACTORS
330
1C30
102
}
330
1C30
100
AcDbVisualStyle
  2
Gouraud
 70
     2
 71
     2
 72
     2
 73
     1
 90
        2
 40
-0.6
 41
30.0
 62
     5
 63
     7
 74
     0
 91
        4
 64
     7
 65
   257
 75
     1
175
     1
 42
1.0
 92
        0
 66
     7
 43
1.0
 76
     1
 77
     6
 78
     2
 67
     7
 79
     5
170
     0
171
     0
290
     0
174
     0
 93
       13
 44
0.0
173
     0
291
     1
 45
0.0
1001
ACAD
1000
AcDbSavedByObjectVersion
1070
     0
  0
VISUALSTYLE
  5
1C34
102
{ACAD_XDICTIONARY
360
1CAF
102
}
102
{ACAD_REACTORS
330
1C30
102
}
330
1C30
100
AcDbVisualStyle
  2
GouraudWithEdges
 70
     3
 71
     2
 72
     2
 73
     1
 90
        2
 40
-0.6
 41
30.0
 62
     5
 63
     7
 74
     1
 91
        4
 64
     7
 65
   257
 75
     1
175
     1
 42
1.0
 92
        0
 66
   257
 43
1.0
 76
     1
 77
     6
 78
     2
 67
     7
 79
     5
170
     0
171
     0
290
     0
174
     0
 93
       13
 44
0.0
173
     0
291
     1
 45
0.0
1001
ACAD
1000
AcDbSavedByObjectVersion
1070
     0
  0
VISUALSTYLE
  5
1C41
102
{ACAD_XDICTIONARY
360
1CC9
102
}
102
{ACAD_REACTORS
330
1C30
102
}
330
1C30
100
AcDbVisualStyle
  2
JitterOff
 70
    20
 71
     2
 72
     2
 73
     0
 90
        0
 40
-0.6
 41
-30.0
 62
     5
 63
     7
 74
     1
 91
        4
 64
     7
 65
   257
 75
     1
175
     1
 42
1.0
 92
       10
 66
     7
 43
1.0
 76
     1
 77
     6
 78
     2
 67
     7
 79
     5
170
     0
171
     0
290
     0
174
     0
 93
        1
 44
0.0
173
     0
291
     1
 45
0.0
1001
ACAD
1000
AcDbSavedByObjectVersion
1070
     0
  0
VISUALSTYLE
  5
1C3E
102
{ACAD_XDICTIONARY
360
1CC3
102
}
102
{ACAD_REACTORS
330
1C30
102
}
330
1C30
100
AcDbVisualStyle
  2
Linepattern
 70
    14
 71
     2
 72
     2
 73
     0
 90
        0
 40
-0.6
 41
-30.0
 62
     5
 63
     7
 74
     1
 91
        4
 64
     7
 65
   257
 75
     7
175
     7
 42
1.0
 92
        8
 66
     7
 43
1.0
 76
     1
 77
     6
 78
     2
 67
     7
 79
     5
170
     0
171
     0
290
     0
174
     0
 93
        1
 44
0.0
173
     0
291
     1
 45
0.0
1001
ACAD
1000
AcDbSavedByObjectVersion
1070
     0
  0
VISUALSTYLE
  5
1C42
102
{ACAD_XDICTIONARY
360
1CCB
102
}
102
{ACAD_REACTORS
330
1C30
102
}
330
1C30
100
AcDbVisualStyle
  2
OverhangOff
 70
    21
 71
     2
 72
     2
 73
     0
 90
        0
 40
-0.6
 41
-30.0
 62
     5
 63
     7
 74
     1
 91
        4
 64
     7
 65
   257
 75
     1
175
     1
 42
1.0
 92
        9
 66
     7
 43
1.0
 76
     1
 77
     6
 78
     2
 67
     7
 79
     5
170
     0
171
     0
290
     0
174
     0
 93
        1
 44
0.0
173
     0
291
     1
 45
0.0
1001
ACAD
1000
AcDbSavedByObjectVersion
1070
     0
  0
VISUALSTYLE
  5
1C3A
102
{ACAD_XDICTIONARY
360
1CBB
102
}
102
{ACAD_REACTORS
330
1C30
102
}
330
1C30
100
AcDbVisualStyle
  2
Realistic
 70
     8
 71
     2
 72
     2
 73
     0
 90
        0
 40
-0.6
 41
-30.0
 62
     5
 63
     7
 74
     1
 91
        0
 64
     7
 65
   257
 75
     1
175
     1
 42
1.0
 92
        8
 66
     8
 43
1.0
 76
     1
 77
     6
 78
     2
 67
     7
 79
     5
170
     0
171
     0
290
     0
174
     0
 93
       13
 44
0.0
173
     0
291
     0
 45
0.0
1001
ACAD
1000
AcDbSavedByObjectVersion
1070
     0
  0
VISUALSTYLE
  5
1C3D
102
{ACAD_XDICTIONARY
360
1CC1
102
}
102
{ACAD_REACTORS
330
1C30
102
}
330
1C30
100
AcDbVisualStyle
  2
Thicken
 70
    13
 71
     2
 72
     2
 73
     0
 90
        0
 40
-0.6
 41
-30.0
 62
     5
 63
     7
 74
     1
 91
        4
 64
     7
 65
   257
 75
     1
175
     1
 42
1.0
 92
       12
 66
     7
 43
1.0
 76
     1
 77
     6
 78
     2
 67
     7
 79
     5
170
     0
171
     0
290
     0
174
     0
 93
        1
 44
0.0
173
     0
291
     1
 45
0.0
1001
ACAD
1000
AcDbSavedByObjectVersion
1070
     0
  0
DICTIONARYVAR
  5
1C80
102
{ACAD_REACTORS
330
3D
102
}
330
3D
100
DictionaryVariables
280
     0
  1
1:1
  0
DICTIONARYVAR
  5
1C7F
102
{ACAD_REACTORS
330
3D
102
}
330
3D
100
DictionaryVariables
280
     0
  1
STANDARD
  0
DICTIONARYVAR
  5
1C7E
102
{ACAD_REACTORS
330
3D
102
}
330
3D
100
DictionaryVariables
280
     0
  1
STANDARD
  0
DICTIONARYVAR
  5
3F
102
{ACAD_REACTORS
330
3D
102
}
330
3D
100
DictionaryVariables
280
     0
  1
2
  0
DICTIONARYVAR
  5
3E
102
{ACAD_REACTORS
330
3D
102
}
330
3D
100
DictionaryVariables
280
     0
  1
1
  0
DICTIONARYVAR
  5
1C82
102
{ACAD_REACTORS
330
3D
102
}
330
3D
100
DictionaryVariables
280
     0
  1
0
  0
DICTIONARYVAR
  5
1C81
102
{ACAD_REACTORS
330
3D
102
}
330
3D
100
DictionaryVariables
280
     0
  1
127
  0
DICTIONARYVAR
  5
1C83
102
{ACAD_REACTORS
330
3D
102
}
330
3D
100
DictionaryVariables
280
     0
  1
2
  0
XRECORD
  5
1C13
102
{ACAD_REACTORS
330
1C12
102
}
330
1C12
100
AcDbXrecord
280
     1
  0
DICTIONARY
  5
1C88
330
1E
100
AcDbDictionary
280
     1
281
     1
  3
ACAD_XREC_ROUNDTRIP
360
1C89
  0
DICTIONARY
  5
1C8C
330
26
100
AcDbDictionary
280
     1
281
     1
  3
ACAD_XREC_ROUNDTRIP
360
1C8D
  0
DICTIONARY
  5
1C8A
330
22
100
AcDbDictionary
280
     1
281
     1
  3
ACAD_XREC_ROUNDTRIP
360
1C8B
  0
DICTIONARY
  5
1C21
330
1C20
100
AcDbDictionary
280
     1
281
     1
  3
ACAD_XREC_ROUNDTRIP
360
1CA7
  3
BUMPTILE
360
1C23
  3
DIFFUSETILE
360
1C22
  3
OPACITYTILE
360
1C26
  3
REFLECTIONTILE
360
1C25
  3
REFRACTIONTILE
360
1C27
  3
SPECULARTILE
360
1C24
  0
DICTIONARY
  5
1C19
330
1C18
100
AcDbDictionary
280
     1
281
     1
  3
ACAD_XREC_ROUNDTRIP
360
1CA6
  3
BUMPTILE
360
1C1B
  3
DIFFUSETILE
360
1C1A
  3
OPACITYTILE
360
1C1E
  3
REFLECTIONTILE
360
1C1D
  3
REFRACTIONTILE
360
1C1F
  3
SPECULARTILE
360
1C1C
  0
DICTIONARY
  5
1C29
330
1C28
100
AcDbDictionary
280
     1
281
     1
  3
ACAD_XREC_ROUNDTRIP
360
1CA8
  3
BUMPTILE
360
1C2B
  3
DIFFUSETILE
360
1C2A
  3
OPACITYTILE
360
1C2E
  3
REFLECTIONTILE
360
1C2D
  3
REFRACTIONTILE
360
1C2F
  3
SPECULARTILE
360
1C2C
  0
DICTIONARY
  5
1C84
330
1C46
100
AcDbDictionary
280
     1
281
     1
  3
ACAD_ROUNDTRIP_2008_TABLESTYLE_CELLSTYLEMAP
360
1C85
  3
ACAD_XREC_ROUNDTRIP
360
1CCF
  0
DICTIONARY
  5
1CB3
330
1C36
100
AcDbDictionary
280
     1
281
     1
  3
ACAD_XREC_ROUNDTRIP
360
1CB4
  0
DICTIONARY
  5
1CB7
330
1C38
100
AcDbDictionary
280
     1
281
     1
  3
ACAD_XREC_ROUNDTRIP
360
1CB8
  0
DICTIONARY
  5
1CB5
330
1C37
100
AcDbDictionary
280
     1
281
     1
  3
ACAD_XREC_ROUNDTRIP
360
1CB6
  0
DICTIONARY
  5
1CB1
330
1C35
100
AcDbDictionary
280
     1
281
     1
  3
ACAD_XREC_ROUNDTRIP
360
1CB2
  0
DICTIONARY
  5
1CBF
330
1C3C
100
AcDbDictionary
280
     1
281
     1
  3
ACAD_XREC_ROUNDTRIP
360
1CC0
  0
DICTIONARY
  5
1CC7
330
1C40
100
AcDbDictionary
280
     1
281
     1
  3
ACAD_XREC_ROUNDTRIP
360
1CC8
  0
DICTIONARY
  5
1CB9
330
1C39
100
AcDbDictionary
280
     1
281
     1
  3
ACAD_XREC_ROUNDTRIP
360
1CBA
  0
DICTIONARY
  5
1CBD
330
1C3B
100
AcDbDictionary
280
     1
281
     1
  3
ACAD_XREC_ROUNDTRIP
360
1CBE
  0
DICTIONARY
  5
1CCD
330
1C43
100
AcDbDictionary
280
     1
281
     1
  3
ACAD_XREC_ROUNDTRIP
360
1CCE
  0
DICTIONARY
  5
1CC5
330
1C3F
100
AcDbDictionary
280
     1
281
     1
  3
ACAD_XREC_ROUNDTRIP
360
1CC6
  0
DICTIONARY
  5
1CA9
330
1C31
100
AcDbDictionary
280
     1
281
     1
  3
ACAD_XREC_ROUNDTRIP
360
1CAA
  0
DICTIONARY
  5
1CAB
330
1C32
100
AcDbDictionary
280
     1
281
     1
  3
ACAD_XREC_ROUNDTRIP
360
1CAC
  0
DICTIONARY
  5
1CAD
330
1C33
100
AcDbDictionary
280
     1
281
     1
  3
ACAD_XREC_ROUNDTRIP
360
1CAE
  0
DICTIONARY
  5
1CAF
330
1C34
100
AcDbDictionary
280
     1
281
     1
  3
ACAD_XREC_ROUNDTRIP
360
1CB0
  0
DICTIONARY
  5
1CC9
330
1C41
100
AcDbDictionary
280
     1
281
     1
  3
ACAD_XREC_ROUNDTRIP
360
1CCA
  0
DICTIONARY
  5
1CC3
330
1C3E
100
AcDbDictionary
280
     1
281
     1
  3
ACAD_XREC_ROUNDTRIP
360
1CC4
  0
DICTIONARY
  5
1CCB
330
1C42
100
AcDbDictionary
280
     1
281
     1
  3
ACAD_XREC_ROUNDTRIP
360
1CCC
  0
DICTIONARY
  5
1CBB
330
1C3A
100
AcDbDictionary
280
     1
281
     1
  3
ACAD_XREC_ROUNDTRIP
360
1CBC
  0
DICTIONARY
  5
1CC1
330
1C3D
100
AcDbDictionary
280
     1
281
     1
  3
ACAD_XREC_ROUNDTRIP
360
1CC2
  0
XRECORD
  5
1C89
102
{ACAD_REACTORS
330
1C88
102
}
330
1C88
100
AcDbXrecord
280
     1
102
SHADEPLOT
 70
     0
102
SHADEPLOTRESLEVEL
 70
     2
102
SHADEPLOTCUSTOMDPI
 70
   300
  0
XRECORD
  5
1C8D
102
{ACAD_REACTORS
330
1C8C
102
}
330
1C8C
100
AcDbXrecord
280
     1
102
SHADEPLOT
 70
     0
102
SHADEPLOTRESLEVEL
 70
     2
102
SHADEPLOTCUSTOMDPI
 70
   300
  0
XRECORD
  5
1C8B
102
{ACAD_REACTORS
330
1C8A
102
}
330
1C8A
100
AcDbXrecord
280
     1
102
SHADEPLOT
 70
     0
102
SHADEPLOTRESLEVEL
 70
     2
102
SHADEPLOTCUSTOMDPI
 70
   300
  0
XRECORD
  5
1CA7
102
{ACAD_REACTORS
330
1C21
102
}
330
1C21
100
AcDbXrecord
280
     1
102
MATERIAL
148
0.0
149
0.0
149
0.0
 93
        0
 94
      127
282
     0
 72
     0
 77
     0
171
     0
175
     0
179
     0
273
     0
  0
XRECORD
  5
1C23
102
{ACAD_REACTORS
330
1C21
102
}
330
1C21
100
AcDbXrecord
280
     1
270
     1
271
     1
  0
XRECORD
  5
1C22
102
{ACAD_REACTORS
330
1C21
102
}
330
1C21
100
AcDbXrecord
280
     1
270
     1
271
     1
  0
XRECORD
  5
1C26
102
{ACAD_REACTORS
330
1C21
102
}
330
1C21
100
AcDbXrecord
280
     1
270
     1
271
     1
  0
XRECORD
  5
1C25
102
{ACAD_REACTORS
330
1C21
102
}
330
1C21
100
AcDbXrecord
280
     1
270
     1
271
     1
  0
XRECORD
  5
1C27
102
{ACAD_REACTORS
330
1C21
102
}
330
1C21
100
AcDbXrecord
280
     1
270
     1
271
     1
  0
XRECORD
  5
1C24
102
{ACAD_REACTORS
330
1C21
102
}
330
1C21
100
AcDbXrecord
280
     1
270
     1
271
     1
  0
XRECORD
  5
1CA6
102
{ACAD_REACTORS
330
1C19
102
}
330
1C19
100
AcDbXrecord
280
     1
102
MATERIAL
148
0.0
149
0.0
149
0.0
 93
        0
 94
      127
282
     0
 72
     0
 77
     0
171
     0
175
     0
179
     0
273
     0
  0
XRECORD
  5
1C1B
102
{ACAD_REACTORS
330
1C19
102
}
330
1C19
100
AcDbXrecord
280
     1
270
     1
271
     1
  0
XRECORD
  5
1C1A
102
{ACAD_REACTORS
330
1C19
102
}
330
1C19
100
AcDbXrecord
280
     1
270
     1
271
     1
  0
XRECORD
  5
1C1E
102
{ACAD_REACTORS
330
1C19
102
}
330
1C19
100
AcDbXrecord
280
     1
270
     1
271
     1
  0
XRECORD
  5
1C1D
102
{ACAD_REACTORS
330
1C19
102
}
330
1C19
100
AcDbXrecord
280
     1
270
     1
271
     1
  0
XRECORD
  5
1C1F
102
{ACAD_REACTORS
330
1C19
102
}
330
1C19
100
AcDbXrecord
280
     1
270
     1
271
     1
  0
XRECORD
  5
1C1C
102
{ACAD_REACTORS
330
1C19
102
}
330
1C19
100
AcDbXrecord
280
     1
270
     1
271
     1
  0
XRECORD
  5
1CA8
102
{ACAD_REACTORS
330
1C29
102
}
330
1C29
100
AcDbXrecord
280
     1
102
MATERIAL
148
0.0
149
0.0
149
0.0
 93
        0
 94
      127
282
     0
 72
     0
 77
     0
171
     0
175
     0
179
     0
273
     0
  0
XRECORD
  5
1C2B
102
{ACAD_REACTORS
330
1C29
102
}
330
1C29
100
AcDbXrecord
280
     1
270
     1
271
     1
  0
XRECORD
  5
1C2A
102
{ACAD_REACTORS
330
1C29
102
}
330
1C29
100
AcDbXrecord
280
     1
270
     1
271
     1
  0
XRECORD
  5
1C2E
102
{ACAD_REACTORS
330
1C29
102
}
330
1C29
100
AcDbXrecord
280
     1
270
     1
271
     1
  0
XRECORD
  5
1C2D
102
{ACAD_REACTORS
330
1C29
102
}
330
1C29
100
AcDbXrecord
280
     1
270
     1
271
     1
  0
XRECORD
  5
1C2F
102
{ACAD_REACTORS
330
1C29
102
}
330
1C29
100
AcDbXrecord
280
     1
270
     1
271
     1
  0
XRECORD
  5
1C2C
102
{ACAD_REACTORS
330
1C29
102
}
330
1C29
100
AcDbXrecord
280
     1
270
     1
271
     1
  0
CELLSTYLEMAP
  5
1C85
102
{ACAD_REACTORS
330
1C84
102
}
330
1C84
100
AcDbCellStyleMap
 90
        3
300
CELLSTYLE
  1
TABLEFORMAT_BEGIN
 90
        5
170
     1
 91
        0
 92
    32768
 62
   257
 93
        1
300
CONTENTFORMAT
  1
CONTENTFORMAT_BEGIN
 90
        0
 91
        0
 92
      512
 93
        0
300

 40
0.0
140
1.0
 94
        5
 62
     0
340
11
144
6.0
309
CONTENTFORMAT_END
171
     1
301
MARGIN
  1
CELLMARGIN_BEGIN
 40
1.5
 40
1.5
 40
1.5
 40
1.5
 40
4.5
 40
4.5
309
CELLMARGIN_END
 94
        6
 95
        1
302
GRIDFORMAT
  1
GRIDFORMAT_BEGIN
 90
        0
 91
        1
 62
     0
 92
       -2
340
0
 93
        0
 40
1.125
309
GRIDFORMAT_END
 95
        2
302
GRIDFORMAT
  1
GRIDFORMAT_BEGIN
 90
        0
 91
        1
 62
     0
 92
       -2
340
0
 93
        0
 40
1.125
309
GRIDFORMAT_END
 95
        4
302
GRIDFORMAT
  1
GRIDFORMAT_BEGIN
 90
        0
 91
        1
 62
     0
 92
       -2
340
0
 93
        0
 40
1.125
309
GRIDFORMAT_END
 95
        8
302
GRIDFORMAT
  1
GRIDFORMAT_BEGIN
 90
        0
 91
        1
 62
     0
 92
       -2
340
0
 93
        0
 40
1.125
309
GRIDFORMAT_END
 95
       16
302
GRIDFORMAT
  1
GRIDFORMAT_BEGIN
 90
        0
 91
        1
 62
     0
 92
       -2
340
0
 93
        0
 40
1.125
309
GRIDFORMAT_END
 95
       32
302
GRIDFORMAT
  1
GRIDFORMAT_BEGIN
 90
        0
 91
        1
 62
     0
 92
       -2
340
0
 93
        0
 40
1.125
309
GRIDFORMAT_END
309
TABLEFORMAT_END
  1
CELLSTYLE_BEGIN
 90
        1
 91
        1
300
_TITLE
309
CELLSTYLE_END
300
CELLSTYLE
  1
TABLEFORMAT_BEGIN
 90
        5
170
     1
 91
        0
 92
        0
 62
   257
 93
        1
300
CONTENTFORMAT
  1
CONTENTFORMAT_BEGIN
 90
        0
 91
        0
 92
      512
 93
        0
300

 40
0.0
140
1.0
 94
        5
 62
     0
340
11
144
4.5
309
CONTENTFORMAT_END
171
     1
301
MARGIN
  1
CELLMARGIN_BEGIN
 40
1.5
 40
1.5
 40
1.5
 40
1.5
 40
4.5
 40
4.5
309
CELLMARGIN_END
 94
        6
 95
        1
302
GRIDFORMAT
  1
GRIDFORMAT_BEGIN
 90
        0
 91
        1
 62
     0
 92
       -2
340
0
 93
        0
 40
1.125
309
GRIDFORMAT_END
 95
        2
302
GRIDFORMAT
  1
GRIDFORMAT_BEGIN
 90
        0
 91
        1
 62
     0
 92
       -2
340
0
 93
        0
 40
1.125
309
GRIDFORMAT_END
 95
        4
302
GRIDFORMAT
  1
GRIDFORMAT_BEGIN
 90
        0
 91
        1
 62
     0
 92
       -2
340
0
 93
        0
 40
1.125
309
GRIDFORMAT_END
 95
        8
302
GRIDFORMAT
  1
GRIDFORMAT_BEGIN
 90
        0
 91
        1
 62
     0
 92
       -2
340
0
 93
        0
 40
1.125
309
GRIDFORMAT_END
 95
       16
302
GRIDFORMAT
  1
GRIDFORMAT_BEGIN
 90
        0
 91
        1
 62
     0
 92
       -2
340
0
 93
        0
 40
1.125
309
GRIDFORMAT_END
 95
       32
302
GRIDFORMAT
  1
GRIDFORMAT_BEGIN
 90
        0
 91
        1
 62
     0
 92
       -2
340
0
 93
        0
 40
1.125
309
GRIDFORMAT_END
309
TABLEFORMAT_END
  1
CELLSTYLE_BEGIN
 90
        2
 91
        1
300
_HEADER
309
CELLSTYLE_END
300
CELLSTYLE
  1
TABLEFORMAT_BEGIN
 90
        5
170
     1
 91
        0
 92
        0
 62
   257
 93
        1
300
CONTENTFORMAT
  1
CONTENTFORMAT_BEGIN
 90
        0
 91
        0
 92
      512
 93
        0
300

 40
0.0
140
1.0
 94
        2
 62
     0
340
11
144
4.5
309
CONTENTFORMAT_END
171
     1
301
MARGIN
  1
CELLMARGIN_BEGIN
 40
1.5
 40
1.5
 40
1.5
 40
1.5
 40
4.5
 40
4.5
309
CELLMARGIN_END
 94
        6
 95
        1
302
GRIDFORMAT
  1
GRIDFORMAT_BEGIN
 90
        0
 91
        1
 62
     0
 92
       -2
340
0
 93
        0
 40
1.125
309
GRIDFORMAT_END
 95
        2
302
GRIDFORMAT
  1
GRIDFORMAT_BEGIN
 90
        0
 91
        1
 62
     0
 92
       -2
340
0
 93
        0
 40
1.125
309
GRIDFORMAT_END
 95
        4
302
GRIDFORMAT
  1
GRIDFORMAT_BEGIN
 90
        0
 91
        1
 62
     0
 92
       -2
340
0
 93
        0
 40
1.125
309
GRIDFORMAT_END
 95
        8
302
GRIDFORMAT
  1
GRIDFORMAT_BEGIN
 90
        0
 91
        1
 62
     0
 92
       -2
340
0
 93
        0
 40
1.125
309
GRIDFORMAT_END
 95
       16
302
GRIDFORMAT
  1
GRIDFORMAT_BEGIN
 90
        0
 91
        1
 62
     0
 92
       -2
340
0
 93
        0
 40
1.125
309
GRIDFORMAT_END
 95
       32
302
GRIDFORMAT
  1
GRIDFORMAT_BEGIN
 90
        0
 91
        1
 62
     0
 92
       -2
340
0
 93
        0
 40
1.125
309
GRIDFORMAT_END
309
TABLEFORMAT_END
  1
CELLSTYLE_BEGIN
 90
        3
 91
        2
300
_DATA
309
CELLSTYLE_END
  0
XRECORD
  5
1CCF
102
{ACAD_REACTORS
330
1C84
102
}
330
1C84
100
AcDbXrecord
280
     1
102
ACAD_ROUNDTRIP_PRE2007_TABLESTYLE
 90
      512
 91
        0
  1

 92
      512
 93
        0
  2

 94
      512
 95
        0
  3

  0
XRECORD
  5
1CB4
102
{ACAD_REACTORS
330
1CB3
102
}
330
1CB3
100
AcDbXrecord
280
     1
102
RTVSPropertyOp0
 70
     1
102
RTVSPropertyOp1
 70
     1
102
RTVSPropertyOp2
 70
     1
102
RTVSPropertyOp3
 70
     1
102
RTVSPropertyOp4
 70
     1
102
RTVSPropertyOp5
 70
     1
102
RTVSPropertyOp6
 70
     1
102
RTVSPropertyOp7
 70
     1
102
RTVSPropertyOp8
 70
     1
102
RTVSPropertyOp9
 70
     1
102
RTVSPropertyOp10
 70
     1
102
RTVSPropertyOp11
 70
     1
102
RTVSPropertyOp12
 70
     1
102
RTVSPropertyOp13
 70
     1
102
RTVSPropertyOp14
 70
     1
102
RTVSPropertyOp15
 70
     1
102
RTVSPropertyOp16
 70
     1
102
RTVSPropertyOp17
 70
     1
102
RTVSPropertyOp18
 70
     1
102
RTVSPropertyOp19
 70
     1
102
RTVSPropertyOp20
 70
     1
102
RTVSPropertyOp21
 70
     1
102
RTVSPropertyOp22
 70
     1
102
RTVSPropertyOp23
 70
     1
102
RTVSPropertyOp24
 70
     1
102
RTVSPropertyOp25
 70
     1
102
RTVSPropertyOp26
 70
     1
102
RTVSPropertyOp27
 70
     1
  0
XRECORD
  5
1CB8
102
{ACAD_REACTORS
330
1CB7
102
}
330
1CB7
100
AcDbXrecord
280
     1
102
RTVSPropertyOp0
 70
     1
102
RTVSPropertyOp1
 70
     1
102
RTVSPropertyOp2
 70
     1
102
RTVSPropertyOp3
 70
     1
102
RTVSPropertyOp4
 70
     1
102
RTVSPropertyOp5
 70
     1
102
RTVSPropertyOp6
 70
     1
102
RTVSPropertyOp7
 70
     1
102
RTVSPropertyOp8
 70
     1
102
RTVSPropertyOp9
 70
     1
102
RTVSPropertyOp10
 70
     1
102
RTVSPropertyOp11
 70
     1
102
RTVSPropertyOp12
 70
     1
102
RTVSPropertyOp13
 70
     1
102
RTVSPropertyOp14
 70
     1
102
RTVSPropertyOp15
 70
     1
102
RTVSPropertyOp16
 70
     1
102
RTVSPropertyOp17
 70
     1
102
RTVSPropertyOp18
 70
     1
102
RTVSPropertyOp19
 70
     1
102
RTVSPropertyOp20
 70
     1
102
RTVSPropertyOp21
 70
     1
102
RTVSPropertyOp22
 70
     1
102
RTVSPropertyOp23
 70
     1
102
RTVSPropertyOp24
 70
     1
102
RTVSPropertyOp25
 70
     1
102
RTVSPropertyOp26
 70
     1
102
RTVSPropertyOp27
 70
     1
  0
XRECORD
  5
1CB6
102
{ACAD_REACTORS
330
1CB5
102
}
330
1CB5
100
AcDbXrecord
280
     1
102
RTVSPropertyOp0
 70
     1
102
RTVSPropertyOp1
 70
     1
102
RTVSPropertyOp2
 70
     1
102
RTVSPropertyOp3
 70
     1
102
RTVSPropertyOp4
 70
     1
102
RTVSPropertyOp5
 70
     1
102
RTVSPropertyOp6
 70
     1
102
RTVSPropertyOp7
 70
     1
102
RTVSPropertyOp8
 70
     1
102
RTVSPropertyOp9
 70
     1
102
RTVSPropertyOp10
 70
     1
102
RTVSPropertyOp11
 70
     1
102
RTVSPropertyOp12
 70
     1
102
RTVSPropertyOp13
 70
     1
102
RTVSPropertyOp14
 70
     1
102
RTVSPropertyOp15
 70
     1
102
RTVSPropertyOp16
 70
     1
102
RTVSPropertyOp17
 70
     1
102
RTVSPropertyOp18
 70
     1
102
RTVSPropertyOp19
 70
     1
102
RTVSPropertyOp20
 70
     1
102
RTVSPropertyOp21
 70
     1
102
RTVSPropertyOp22
 70
     1
102
RTVSPropertyOp23
 70
     1
102
RTVSPropertyOp24
 70
     1
102
RTVSPropertyOp25
 70
     1
102
RTVSPropertyOp26
 70
     1
102
RTVSPropertyOp27
 70
     1
  0
XRECORD
  5
1CB2
102
{ACAD_REACTORS
330
1CB1
102
}
330
1CB1
100
AcDbXrecord
280
     1
102
RTVSPropertyOp0
 70
     1
102
RTVSPropertyOp1
 70
     1
102
RTVSPropertyOp2
 70
     1
102
RTVSPropertyOp3
 70
     1
102
RTVSPropertyOp4
 70
     1
102
RTVSPropertyOp5
 70
     1
102
RTVSPropertyOp6
 70
     1
102
RTVSPropertyOp7
 70
     1
102
RTVSPropertyOp8
 70
     1
102
RTVSPropertyOp9
 70
     1
102
RTVSPropertyOp10
 70
     1
102
RTVSPropertyOp11
 70
     1
102
RTVSPropertyOp12
 70
     1
102
RTVSPropertyOp13
 70
     1
102
RTVSPropertyOp14
 70
     1
102
RTVSPropertyOp15
 70
     1
102
RTVSPropertyOp16
 70
     1
102
RTVSPropertyOp17
 70
     1
102
RTVSPropertyOp18
 70
     1
102
RTVSPropertyOp19
 70
     1
102
RTVSPropertyOp20
 70
     1
102
RTVSPropertyOp21
 70
     1
102
RTVSPropertyOp22
 70
     1
102
RTVSPropertyOp23
 70
     1
102
RTVSPropertyOp24
 70
     1
102
RTVSPropertyOp25
 70
     1
102
RTVSPropertyOp26
 70
     1
102
RTVSPropertyOp27
 70
     1
  0
XRECORD
  5
1CC0
102
{ACAD_REACTORS
330
1CBF
102
}
330
1CBF
100
AcDbXrecord
280
     1
102
RTVSPropertyOp0
 70
     1
102
RTVSPropertyOp1
 70
     1
102
RTVSPropertyOp2
 70
     1
102
RTVSPropertyOp3
 70
     1
102
RTVSPropertyOp4
 70
     1
102
RTVSPropertyOp5
 70
     1
102
RTVSPropertyOp6
 70
     1
102
RTVSPropertyOp7
 70
     1
102
RTVSPropertyOp8
 70
     1
102
RTVSPropertyOp9
 70
     1
102
RTVSPropertyOp10
 70
     1
102
RTVSPropertyOp11
 70
     1
102
RTVSPropertyOp12
 70
     1
102
RTVSPropertyOp13
 70
     1
102
RTVSPropertyOp14
 70
     1
102
RTVSPropertyOp15
 70
     1
102
RTVSPropertyOp16
 70
     1
102
RTVSPropertyOp17
 70
     1
102
RTVSPropertyOp18
 70
     1
102
RTVSPropertyOp19
 70
     1
102
RTVSPropertyOp20
 70
     1
102
RTVSPropertyOp21
 70
     1
102
RTVSPropertyOp22
 70
     1
102
RTVSPropertyOp23
 70
     1
102
RTVSPropertyOp24
 70
     1
102
RTVSPropertyOp25
 70
     1
102
RTVSPropertyOp26
 70
     1
102
RTVSPropertyOp27
 70
     1
  0
XRECORD
  5
1CC8
102
{ACAD_REACTORS
330
1CC7
102
}
330
1CC7
100
AcDbXrecord
280
     1
102
RTVSPropertyOp0
 70
     1
102
RTVSPropertyOp1
 70
     1
102
RTVSPropertyOp2
 70
     1
102
RTVSPropertyOp3
 70
     1
102
RTVSPropertyOp4
 70
     1
102
RTVSPropertyOp5
 70
     1
102
RTVSPropertyOp6
 70
     1
102
RTVSPropertyOp7
 70
     1
102
RTVSPropertyOp8
 70
     1
102
RTVSPropertyOp9
 70
     1
102
RTVSPropertyOp10
 70
     1
102
RTVSPropertyOp11
 70
     1
102
RTVSPropertyOp12
 70
     1
102
RTVSPropertyOp13
 70
     1
102
RTVSPropertyOp14
 70
     1
102
RTVSPropertyOp15
 70
     1
102
RTVSPropertyOp16
 70
     1
102
RTVSPropertyOp17
 70
     1
102
RTVSPropertyOp18
 70
     1
102
RTVSPropertyOp19
 70
     1
102
RTVSPropertyOp20
 70
     1
102
RTVSPropertyOp21
 70
     1
102
RTVSPropertyOp22
 70
     1
102
RTVSPropertyOp23
 70
     1
102
RTVSPropertyOp24
 70
     1
102
RTVSPropertyOp25
 70
     1
102
RTVSPropertyOp26
 70
     1
102
RTVSPropertyOp27
 70
     1
  0
XRECORD
  5
1CBA
102
{ACAD_REACTORS
330
1CB9
102
}
330
1CB9
100
AcDbXrecord
280
     1
102
RTVSPropertyOp0
 70
     1
102
RTVSPropertyOp1
 70
     1
102
RTVSPropertyOp2
 70
     1
102
RTVSPropertyOp3
 70
     1
102
RTVSPropertyOp4
 70
     1
102
RTVSPropertyOp5
 70
     1
102
RTVSPropertyOp6
 70
     1
102
RTVSPropertyOp7
 70
     1
102
RTVSPropertyOp8
 70
     1
102
RTVSPropertyOp9
 70
     1
102
RTVSPropertyOp10
 70
     1
102
RTVSPropertyOp11
 70
     1
102
RTVSPropertyOp12
 70
     1
102
RTVSPropertyOp13
 70
     1
102
RTVSPropertyOp14
 70
     1
102
RTVSPropertyOp15
 70
     1
102
RTVSPropertyOp16
 70
     1
102
RTVSPropertyOp17
 70
     1
102
RTVSPropertyOp18
 70
     1
102
RTVSPropertyOp19
 70
     1
102
RTVSPropertyOp20
 70
     1
102
RTVSPropertyOp21
 70
     1
102
RTVSPropertyOp22
 70
     1
102
RTVSPropertyOp23
 70
     1
102
RTVSPropertyOp24
 70
     1
102
RTVSPropertyOp25
 70
     1
102
RTVSPropertyOp26
 70
     1
102
RTVSPropertyOp27
 70
     1
  0
XRECORD
  5
1CBE
102
{ACAD_REACTORS
330
1CBD
102
}
330
1CBD
100
AcDbXrecord
280
     1
102
RTVSPropertyOp0
 70
     1
102
RTVSPropertyOp1
 70
     1
102
RTVSPropertyOp2
 70
     1
102
RTVSPropertyOp3
 70
     1
102
RTVSPropertyOp4
 70
     1
102
RTVSPropertyOp5
 70
     1
102
RTVSPropertyOp6
 70
     1
102
RTVSPropertyOp7
 70
     1
102
RTVSPropertyOp8
 70
     1
102
RTVSPropertyOp9
 70
     1
102
RTVSPropertyOp10
 70
     1
102
RTVSPropertyOp11
 70
     1
102
RTVSPropertyOp12
 70
     1
102
RTVSPropertyOp13
 70
     1
102
RTVSPropertyOp14
 70
     1
102
RTVSPropertyOp15
 70
     1
102
RTVSPropertyOp16
 70
     1
102
RTVSPropertyOp17
 70
     1
102
RTVSPropertyOp18
 70
     1
102
RTVSPropertyOp19
 70
     1
102
RTVSPropertyOp20
 70
     1
102
RTVSPropertyOp21
 70
     1
102
RTVSPropertyOp22
 70
     1
102
RTVSPropertyOp23
 70
     1
102
RTVSPropertyOp24
 70
     1
102
RTVSPropertyOp25
 70
     1
102
RTVSPropertyOp26
 70
     1
102
RTVSPropertyOp27
 70
     1
  0
XRECORD
  5
1CCE
102
{ACAD_REACTORS
330
1CCD
102
}
330
1CCD
100
AcDbXrecord
280
     1
102
RTVSPropertyOp0
 70
     0
102
RTVSPropertyOp1
 70
     0
102
RTVSPropertyOp2
 70
     0
102
RTVSPropertyOp3
 70
     0
102
RTVSPropertyOp4
 70
     0
102
RTVSPropertyOp5
 70
     0
102
RTVSPropertyOp6
 70
     0
102
RTVSPropertyOp7
 70
     0
102
RTVSPropertyOp8
 70
     0
102
RTVSPropertyOp9
 70
     0
102
RTVSPropertyOp10
 70
     0
102
RTVSPropertyOp11
 70
     0
102
RTVSPropertyOp12
 70
     0
102
RTVSPropertyOp13
 70
     0
102
RTVSPropertyOp14
 70
     2
102
RTVSPropertyOp15
 70
     0
102
RTVSPropertyOp16
 70
     0
102
RTVSPropertyOp17
 70
     0
102
RTVSPropertyOp18
 70
     0
102
RTVSPropertyOp19
 70
     0
102
RTVSPropertyOp20
 70
     0
102
RTVSPropertyOp21
 70
     0
102
RTVSPropertyOp22
 70
     0
102
RTVSPropertyOp23
 70
     0
102
RTVSPropertyOp24
 70
     0
102
RTVSPropertyOp25
 70
     0
102
RTVSPropertyOp26
 70
     0
102
RTVSPropertyOp27
 70
     0
  0
XRECORD
  5
1CC6
102
{ACAD_REACTORS
330
1CC5
102
}
330
1CC5
100
AcDbXrecord
280
     1
102
RTVSPropertyOp0
 70
     1
102
RTVSPropertyOp1
 70
     1
102
RTVSPropertyOp2
 70
     1
102
RTVSPropertyOp3
 70
     1
102
RTVSPropertyOp4
 70
     1
102
RTVSPropertyOp5
 70
     1
102
RTVSPropertyOp6
 70
     1
102
RTVSPropertyOp7
 70
     1
102
RTVSPropertyOp8
 70
     1
102
RTVSPropertyOp9
 70
     1
102
RTVSPropertyOp10
 70
     1
102
RTVSPropertyOp11
 70
     1
102
RTVSPropertyOp12
 70
     1
102
RTVSPropertyOp13
 70
     1
102
RTVSPropertyOp14
 70
     1
102
RTVSPropertyOp15
 70
     1
102
RTVSPropertyOp16
 70
     1
102
RTVSPropertyOp17
 70
     1
102
RTVSPropertyOp18
 70
     1
102
RTVSPropertyOp19
 70
     1
102
RTVSPropertyOp20
 70
     1
102
RTVSPropertyOp21
 70
     1
102
RTVSPropertyOp22
 70
     1
102
RTVSPropertyOp23
 70
     1
102
RTVSPropertyOp24
 70
     1
102
RTVSPropertyOp25
 70
     1
102
RTVSPropertyOp26
 70
     1
102
RTVSPropertyOp27
 70
     1
  0
XRECORD
  5
1CAA
102
{ACAD_REACTORS
330
1CA9
102
}
330
1CA9
100
AcDbXrecord
280
     1
102
RTVSPropertyOp0
 70
     1
102
RTVSPropertyOp1
 70
     1
102
RTVSPropertyOp2
 70
     1
102
RTVSPropertyOp3
 70
     1
102
RTVSPropertyOp4
 70
     1
102
RTVSPropertyOp5
 70
     1
102
RTVSPropertyOp6
 70
     1
102
RTVSPropertyOp7
 70
     1
102
RTVSPropertyOp8
 70
     1
102
RTVSPropertyOp9
 70
     1
102
RTVSPropertyOp10
 70
     1
102
RTVSPropertyOp11
 70
     1
102
RTVSPropertyOp12
 70
     1
102
RTVSPropertyOp13
 70
     1
102
RTVSPropertyOp14
 70
     1
102
RTVSPropertyOp15
 70
     1
102
RTVSPropertyOp16
 70
     1
102
RTVSPropertyOp17
 70
     1
102
RTVSPropertyOp18
 70
     1
102
RTVSPropertyOp19
 70
     1
102
RTVSPropertyOp20
 70
     1
102
RTVSPropertyOp21
 70
     1
102
RTVSPropertyOp22
 70
     1
102
RTVSPropertyOp23
 70
     1
102
RTVSPropertyOp24
 70
     1
102
RTVSPropertyOp25
 70
     1
102
RTVSPropertyOp26
 70
     1
102
RTVSPropertyOp27
 70
     1
  0
XRECORD
  5
1CAC
102
{ACAD_REACTORS
330
1CAB
102
}
330
1CAB
100
AcDbXrecord
280
     1
102
RTVSPropertyOp0
 70
     1
102
RTVSPropertyOp1
 70
     1
102
RTVSPropertyOp2
 70
     1
102
RTVSPropertyOp3
 70
     1
102
RTVSPropertyOp4
 70
     1
102
RTVSPropertyOp5
 70
     1
102
RTVSPropertyOp6
 70
     1
102
RTVSPropertyOp7
 70
     1
102
RTVSPropertyOp8
 70
     1
102
RTVSPropertyOp9
 70
     1
102
RTVSPropertyOp10
 70
     1
102
RTVSPropertyOp11
 70
     1
102
RTVSPropertyOp12
 70
     1
102
RTVSPropertyOp13
 70
     1
102
RTVSPropertyOp14
 70
     1
102
RTVSPropertyOp15
 70
     1
102
RTVSPropertyOp16
 70
     1
102
RTVSPropertyOp17
 70
     1
102
RTVSPropertyOp18
 70
     1
102
RTVSPropertyOp19
 70
     1
102
RTVSPropertyOp20
 70
     1
102
RTVSPropertyOp21
 70
     1
102
RTVSPropertyOp22
 70
     1
102
RTVSPropertyOp23
 70
     1
102
RTVSPropertyOp24
 70
     1
102
RTVSPropertyOp25
 70
     1
102
RTVSPropertyOp26
 70
     1
102
RTVSPropertyOp27
 70
     1
  0
XRECORD
  5
1CAE
102
{ACAD_REACTORS
330
1CAD
102
}
330
1CAD
100
AcDbXrecord
280
     1
102
RTVSPropertyOp0
 70
     1
102
RTVSPropertyOp1
 70
     1
102
RTVSPropertyOp2
 70
     1
102
RTVSPropertyOp3
 70
     1
102
RTVSPropertyOp4
 70
     1
102
RTVSPropertyOp5
 70
     1
102
RTVSPropertyOp6
 70
     1
102
RTVSPropertyOp7
 70
     1
102
RTVSPropertyOp8
 70
     1
102
RTVSPropertyOp9
 70
     1
102
RTVSPropertyOp10
 70
     1
102
RTVSPropertyOp11
 70
     1
102
RTVSPropertyOp12
 70
     1
102
RTVSPropertyOp13
 70
     1
102
RTVSPropertyOp14
 70
     1
102
RTVSPropertyOp15
 70
     1
102
RTVSPropertyOp16
 70
     1
102
RTVSPropertyOp17
 70
     1
102
RTVSPropertyOp18
 70
     1
102
RTVSPropertyOp19
 70
     1
102
RTVSPropertyOp20
 70
     1
102
RTVSPropertyOp21
 70
     1
102
RTVSPropertyOp22
 70
     1
102
RTVSPropertyOp23
 70
     1
102
RTVSPropertyOp24
 70
     1
102
RTVSPropertyOp25
 70
     1
102
RTVSPropertyOp26
 70
     1
102
RTVSPropertyOp27
 70
     1
  0
XRECORD
  5
1CB0
102
{ACAD_REACTORS
330
1CAF
102
}
330
1CAF
100
AcDbXrecord
280
     1
102
RTVSPropertyOp0
 70
     1
102
RTVSPropertyOp1
 70
     1
102
RTVSPropertyOp2
 70
     1
102
RTVSPropertyOp3
 70
     1
102
RTVSPropertyOp4
 70
     1
102
RTVSPropertyOp5
 70
     1
102
RTVSPropertyOp6
 70
     1
102
RTVSPropertyOp7
 70
     1
102
RTVSPropertyOp8
 70
     1
102
RTVSPropertyOp9
 70
     1
102
RTVSPropertyOp10
 70
     1
102
RTVSPropertyOp11
 70
     1
102
RTVSPropertyOp12
 70
     1
102
RTVSPropertyOp13
 70
     1
102
RTVSPropertyOp14
 70
     1
102
RTVSPropertyOp15
 70
     1
102
RTVSPropertyOp16
 70
     1
102
RTVSPropertyOp17
 70
     1
102
RTVSPropertyOp18
 70
     1
102
RTVSPropertyOp19
 70
     1
102
RTVSPropertyOp20
 70
     1
102
RTVSPropertyOp21
 70
     1
102
RTVSPropertyOp22
 70
     1
102
RTVSPropertyOp23
 70
     1
102
RTVSPropertyOp24
 70
     1
102
RTVSPropertyOp25
 70
     1
102
RTVSPropertyOp26
 70
     1
102
RTVSPropertyOp27
 70
     1
  0
XRECORD
  5
1CCA
102
{ACAD_REACTORS
330
1CC9
102
}
330
1CC9
100
AcDbXrecord
280
     1
102
RTVSPropertyOp0
 70
     0
102
RTVSPropertyOp1
 70
     0
102
RTVSPropertyOp2
 70
     0
102
RTVSPropertyOp3
 70
     0
102
RTVSPropertyOp4
 70
     0
102
RTVSPropertyOp5
 70
     0
102
RTVSPropertyOp6
 70
     0
102
RTVSPropertyOp7
 70
     0
102
RTVSPropertyOp8
 70
     0
102
RTVSPropertyOp9
 70
     0
102
RTVSPropertyOp10
 70
     0
102
RTVSPropertyOp11
 70
     0
102
RTVSPropertyOp12
 70
     0
102
RTVSPropertyOp13
 70
     0
102
RTVSPropertyOp14
 70
     2
102
RTVSPropertyOp15
 70
     0
102
RTVSPropertyOp16
 70
     0
102
RTVSPropertyOp17
 70
     0
102
RTVSPropertyOp18
 70
     0
102
RTVSPropertyOp19
 70
     0
102
RTVSPropertyOp20
 70
     0
102
RTVSPropertyOp21
 70
     0
102
RTVSPropertyOp22
 70
     0
102
RTVSPropertyOp23
 70
     0
102
RTVSPropertyOp24
 70
     0
102
RTVSPropertyOp25
 70
     0
102
RTVSPropertyOp26
 70
     0
102
RTVSPropertyOp27
 70
     0
  0
XRECORD
  5
1CC4
102
{ACAD_REACTORS
330
1CC3
102
}
330
1CC3
100
AcDbXrecord
280
     1
102
RTVSPropertyOp0
 70
     1
102
RTVSPropertyOp1
 70
     1
102
RTVSPropertyOp2
 70
     1
102
RTVSPropertyOp3
 70
     1
102
RTVSPropertyOp4
 70
     1
102
RTVSPropertyOp5
 70
     1
102
RTVSPropertyOp6
 70
     1
102
RTVSPropertyOp7
 70
     1
102
RTVSPropertyOp8
 70
     1
102
RTVSPropertyOp9
 70
     1
102
RTVSPropertyOp10
 70
     1
102
RTVSPropertyOp11
 70
     1
102
RTVSPropertyOp12
 70
     1
102
RTVSPropertyOp13
 70
     1
102
RTVSPropertyOp14
 70
     1
102
RTVSPropertyOp15
 70
     1
102
RTVSPropertyOp16
 70
     1
102
RTVSPropertyOp17
 70
     1
102
RTVSPropertyOp18
 70
     1
102
RTVSPropertyOp19
 70
     1
102
RTVSPropertyOp20
 70
     1
102
RTVSPropertyOp21
 70
     1
102
RTVSPropertyOp22
 70
     1
102
RTVSPropertyOp23
 70
     1
102
RTVSPropertyOp24
 70
     1
102
RTVSPropertyOp25
 70
     1
102
RTVSPropertyOp26
 70
     1
102
RTVSPropertyOp27
 70
     1
  0
XRECORD
  5
1CCC
102
{ACAD_REACTORS
330
1CCB
102
}
330
1CCB
100
AcDbXrecord
280
     1
102
RTVSPropertyOp0
 70
     0
102
RTVSPropertyOp1
 70
     0
102
RTVSPropertyOp2
 70
     0
102
RTVSPropertyOp3
 70
     0
102
RTVSPropertyOp4
 70
     0
102
RTVSPropertyOp5
 70
     0
102
RTVSPropertyOp6
 70
     0
102
RTVSPropertyOp7
 70
     0
102
RTVSPropertyOp8
 70
     0
102
RTVSPropertyOp9
 70
     0
102
RTVSPropertyOp10
 70
     0
102
RTVSPropertyOp11
 70
     0
102
RTVSPropertyOp12
 70
     0
102
RTVSPropertyOp13
 70
     0
102
RTVSPropertyOp14
 70
     2
102
RTVSPropertyOp15
 70
     0
102
RTVSPropertyOp16
 70
     0
102
RTVSPropertyOp17
 70
     0
102
RTVSPropertyOp18
 70
     0
102
RTVSPropertyOp19
 70
     0
102
RTVSPropertyOp20
 70
     0
102
RTVSPropertyOp21
 70
     0
102
RTVSPropertyOp22
 70
     0
102
RTVSPropertyOp23
 70
     0
102
RTVSPropertyOp24
 70
     0
102
RTVSPropertyOp25
 70
     0
102
RTVSPropertyOp26
 70
     0
102
RTVSPropertyOp27
 70
     0
  0
XRECORD
  5
1CBC
102
{ACAD_REACTORS
330
1CBB
102
}
330
1CBB
100
AcDbXrecord
280
     1
102
RTVSPropertyOp0
 70
     1
102
RTVSPropertyOp1
 70
     1
102
RTVSPropertyOp2
 70
     1
102
RTVSPropertyOp3
 70
     1
102
RTVSPropertyOp4
 70
     1
102
RTVSPropertyOp5
 70
     1
102
RTVSPropertyOp6
 70
     1
102
RTVSPropertyOp7
 70
     1
102
RTVSPropertyOp8
 70
     1
102
RTVSPropertyOp9
 70
     1
102
RTVSPropertyOp10
 70
     1
102
RTVSPropertyOp11
 70
     1
102
RTVSPropertyOp12
 70
     1
102
RTVSPropertyOp13
 70
     1
102
RTVSPropertyOp14
 70
     1
102
RTVSPropertyOp15
 70
     1
102
RTVSPropertyOp16
 70
     1
102
RTVSPropertyOp17
 70
     1
102
RTVSPropertyOp18
 70
     1
102
RTVSPropertyOp19
 70
     1
102
RTVSPropertyOp20
 70
     1
102
RTVSPropertyOp21
 70
     1
102
RTVSPropertyOp22
 70
     1
102
RTVSPropertyOp23
 70
     1
102
RTVSPropertyOp24
 70
     1
102
RTVSPropertyOp25
 70
     1
102
RTVSPropertyOp26
 70
     1
102
RTVSPropertyOp27
 70
     1
  0
XRECORD
  5
1CC2
102
{ACAD_REACTORS
330
1CC1
102
}
330
1CC1
100
AcDbXrecord
280
     1
102
RTVSPropertyOp0
 70
     1
102
RTVSPropertyOp1
 70
     1
102
RTVSPropertyOp2
 70
     1
102
RTVSPropertyOp3
 70
     1
102
RTVSPropertyOp4
 70
     1
102
RTVSPropertyOp5
 70
     1
102
RTVSPropertyOp6
 70
     1
102
RTVSPropertyOp7
 70
     1
102
RTVSPropertyOp8
 70
     1
102
RTVSPropertyOp9
 70
     1
102
RTVSPropertyOp10
 70
     1
102
RTVSPropertyOp11
 70
     1
102
RTVSPropertyOp12
 70
     1
102
RTVSPropertyOp13
 70
     1
102
RTVSPropertyOp14
 70
     1
102
RTVSPropertyOp15
 70
     1
102
RTVSPropertyOp16
 70
     1
102
RTVSPropertyOp17
 70
     1
102
RTVSPropertyOp18
 70
     1
102
RTVSPropertyOp19
 70
     1
102
RTVSPropertyOp20
 70
     1
102
RTVSPropertyOp21
 70
     1
102
RTVSPropertyOp22
 70
     1
102
RTVSPropertyOp23
 70
     1
102
RTVSPropertyOp24
 70
     1
102
RTVSPropertyOp25
 70
     1
102
RTVSPropertyOp26
 70
     1
102
RTVSPropertyOp27
 70
     1
  0
ENDSEC
  0
EOF
