  0
SECTION
  2
HEADER
  9
$ACADVER
  1
AC1015
  9
$ACADMAINTVER
 70
    20
  9
$DWGCODEPAGE
  3
ANSI_1252
  9
$INSBASE
 10
0.0
 20
0.0
 30
0.0
  9
$EXTMIN
 10
205.4551666645665
 20
1016.598687877089
 30
0.0
  9
$EXTMAX
 10
208.6274930240103
 20
1017.098687877168
 30
0.0
  9
$LIMMIN
 10
0.0
 20
0.0
  9
$LIMMAX
 10
420.0
 20
297.0
  9
$ORTHOMODE
 70
     1
  9
$REGENMODE
 70
     1
  9
$FILLMODE
 70
     1
  9
$QTEXTMODE
 70
     0
  9
$MIRRTEXT
 70
     1
  9
$LTSCALE
 40
1.0
  9
$ATTMODE
 70
     1
  9
$TEXTSIZE
 40
2.5
  9
$TRACEWID
 40
1.0
  9
$TEXTSTYLE
  7
SANINDUSA
  9
$CLAYER
  8
0
  9
$CELTYPE
  6
ByLayer
  9
$CECOLOR
 62
   256
  9
$CELTSCALE
 40
1.0
  9
$DISPSILH
 70
     0
  9
$DIMSCALE
 40
1.0
  9
$DIMASZ
 40
2.0
  9
$DIMEXO
 40
1.0
  9
$DIMDLI
 40
1.0
  9
$DIMRND
 40
0.0
  9
$DIMDLE
 40
0.0
  9
$DIMEXE
 40
1.0
  9
$DIMTP
 40
0.0
  9
$DIMTM
 40
0.0
  9
$DIMTXT
 40
2.0
  9
$DIMCEN
 40
0.0
  9
$DIMTSZ
 40
0.0
  9
$DIMTOL
 70
     0
  9
$DIMLIM
 70
     0
  9
$DIMTIH
 70
     0
  9
$DIMTOH
 70
     0
  9
$DIMSE1
 70
     0
  9
$DIMSE2
 70
     0
  9
$DIMTAD
 70
     1
  9
$DIMZIN
 70
     8
  9
$DIMBLK
  1

  9
$DIMASO
 70
     1
  9
$DIMSHO
 70
     1
  9
$DIMPOST
  1

  9
$DIMAPOST
  1

  9
$DIMALT
 70
     0
  9
$DIMALTD
 70
     3
  9
$DIMALTF
 40
0.03937007874016
  9
$DIMLFAC
 40
1.0
  9
$DIMTOFL
 70
     1
  9
$DIMTVP
 40
0.0
  9
$DIMTIX
 70
     0
  9
$DIMSOXD
 70
     0
  9
$DIMSAH
 70
     0
  9
$DIMBLK1
  1

  9
$DIMBLK2
  1

  9
$DIMSTYLE
  2
SANINDUSA
  9
$DIMCLRD
 70
   256
  9
$DIMCLRE
 70
   256
  9
$DIMCLRT
 70
   256
  9
$DIMTFAC
 40
1.0
  9
$DIMGAP
 40
1.0
  9
$DIMJUST
 70
     0
  9
$DIMSD1
 70
     0
  9
$DIMSD2
 70
     0
  9
$DIMTOLJ
 70
     0
  9
$DIMTZIN
 70
     8
  9
$DIMALTZ
 70
     0
  9
$DIMALTTZ
 70
     0
  9
$DIMUPT
 70
     0
  9
$DIMDEC
 70
     1
  9
$DIMTDEC
 70
     1
  9
$DIMALTU
 70
     2
  9
$DIMALTTD
 70
     3
  9
$DIMTXSTY
  7
SANINDUSA
  9
$DIMAUNIT
 70
     0
  9
$DIMADEC
 70
     1
  9
$DIMALTRND
 40
0.0
  9
$DIMAZIN
 70
     0
  9
$DIMDSEP
 70
    44
  9
$DIMATFIT
 70
     3
  9
$DIMFRAC
 70
     0
  9
$DIMLDRBLK
  1

  9
$DIMLUNIT
 70
     2
  9
$DIMLWD
 70
    -1
  9
$DIMLWE
 70
    -1
  9
$DIMTMOVE
 70
     0
  9
$LUNITS
 70
     2
  9
$LUPREC
 70
     4
  9
$SKETCHINC
 40
1.0
  9
$FILLETRAD
 40
3.0
  9
$AUNITS
 70
     0
  9
$AUPREC
 70
     0
  9
$MENU
  1
.
  9
$ELEVATION
 40
0.0
  9
$PELEVATION
 40
0.0
  9
$THICKNESS
 40
0.0
  9
$LIMCHECK
 70
     0
  9
$CHAMFERA
 40
10.0
  9
$CHAMFERB
 40
10.0
  9
$CHAMFERC
 40
20.0
  9
$CHAMFERD
 40
0.0
  9
$SKPOLY
 70
     0
  9
$TDCREATE
 40
2453497.621712593
  9
$TDUCREATE
 40
2453497.580045926
  9
$TDUPDATE
 40
2456142.453566979
  9
$TDUUPDATE
 40
2456142.411900313
  9
$TDINDWG
 40
0.0052077894
  9
$TDUSRTIMER
 40
0.0052077894
  9
$USRTIMER
 70
     1
  9
$ANGBASE
 50
0.0
  9
$ANGDIR
 70
     0
  9
$PDMODE
 70
     0
  9
$PDSIZE
 40
0.0
  9
$PLINEWID
 40
0.0
  9
$SPLFRAME
 70
     0
  9
$SPLINETYPE
 70
     6
  9
$SPLINESEGS
 70
     8
  9
$HANDSEED
  5
1B82
  9
$SURFTAB1
 70
     6
  9
$SURFTAB2
 70
     6
  9
$SURFTYPE
 70
     6
  9
$SURFU
 70
     6
  9
$SURFV
 70
     6
  9
$UCSBASE
  2

  9
$UCSNAME
  2

  9
$UCSORG
 10
0.0
 20
0.0
 30
0.0
  9
$UCSXDIR
 10
1.0
 20
0.0
 30
0.0
  9
$UCSYDIR
 10
0.0
 20
1.0
 30
0.0
  9
$UCSORTHOREF
  2

  9
$UCSORTHOVIEW
 70
     0
  9
$UCSORGTOP
 10
0.0
 20
0.0
 30
0.0
  9
$UCSORGBOTTOM
 10
0.0
 20
0.0
 30
0.0
  9
$UCSORGLEFT
 10
0.0
 20
0.0
 30
0.0
  9
$UCSORGRIGHT
 10
0.0
 20
0.0
 30
0.0
  9
$UCSORGFRONT
 10
0.0
 20
0.0
 30
0.0
  9
$UCSORGBACK
 10
0.0
 20
0.0
 30
0.0
  9
$PUCSBASE
  2

  9
$PUCSNAME
  2

  9
$PUCSORG
 10
0.0
 20
0.0
 30
0.0
  9
$PUCSXDIR
 10
1.0
 20
0.0
 30
0.0
  9
$PUCSYDIR
 10
0.0
 20
1.0
 30
0.0
  9
$PUCSORTHOREF
  2

  9
$PUCSORTHOVIEW
 70
     0
  9
$PUCSORGTOP
 10
0.0
 20
0.0
 30
0.0
  9
$PUCSORGBOTTOM
 10
0.0
 20
0.0
 30
0.0
  9
$PUCSORGLEFT
 10
0.0
 20
0.0
 30
0.0
  9
$PUCSORGRIGHT
 10
0.0
 20
0.0
 30
0.0
  9
$PUCSORGFRONT
 10
0.0
 20
0.0
 30
0.0
  9
$PUCSORGBACK
 10
0.0
 20
0.0
 30
0.0
  9
$USERI1
 70
     0
  9
$USERI2
 70
     0
  9
$USERI3
 70
     0
  9
$USERI4
 70
     0
  9
$USERI5
 70
     0
  9
$USERR1
 40
0.0
  9
$USERR2
 40
0.0
  9
$USERR3
 40
0.0
  9
$USERR4
 40
0.0
  9
$USERR5
 40
0.0
  9
$WORLDVIEW
 70
     1
  9
$SHADEDGE
 70
     3
  9
$SHADEDIF
 70
    70
  9
$TILEMODE
 70
     1
  9
$MAXACTVP
 70
    64
  9
$PINSBASE
 10
0.0
 20
0.0
 30
0.0
  9
$PLIMCHECK
 70
     0
  9
$PEXTMIN
 10
1.000000000000000E+20
 20
1.000000000000000E+20
 30
1.000000000000000E+20
  9
$PEXTMAX
 10
-1.000000000000000E+20
 20
-1.000000000000000E+20
 30
-1.000000000000000E+20
  9
$PLIMMIN
 10
0.0
 20
0.0
  9
$PLIMMAX
 10
420.0
 20
297.0
  9
$UNITMODE
 70
     0
  9
$VISRETAIN
 70
     1
  9
$PLINEGEN
 70
     0
  9
$PSLTSCALE
 70
     1
  9
$TREEDEPTH
 70
  3020
  9
$CMLSTYLE
  2
Standard
  9
$CMLJUST
 70
     0
  9
$CMLSCALE
 40
20.0
  9
$PROXYGRAPHICS
 70
     1
  9
$MEASUREMENT
 70
     1
  9
$CELWEIGHT
370
    -1
  9
$ENDCAPS
280
     0
  9
$JOINSTYLE
280
     0
  9
$LWDISPLAY
290
     0
  9
$INSUNITS
 70
     4
  9
$HYPERLINKBASE
  1

  9
$STYLESHEET
  1
monochrome.ctb
  9
$XEDIT
290
     1
  9
$CEPSNTYPE
380
     0
  9
$PSTYLEMODE
290
     1
  9
$FINGERPRINTGUID
  2
{B98A73AA-52AA-4C10-B469-C0E7150AC31F}
  9
$VERSIONGUID
  2
{EFB71480-9092-4F57-8DE3-D0C478F5470A}
  9
$EXTNAMES
290
     1
  9
$PSVPSCALE
 40
0.0
  9
$OLESTARTUP
290
     0
  0
ENDSEC
  0
SECTION
  2
CLASSES
  0
CLASS
  1
ACDBDICTIONARYWDFLT
  2
AcDbDictionaryWithDefault
  3
ObjectDBX Classes
 90
        0
280
     0
281
     0
  0
CLASS
  1
ACDBPLACEHOLDER
  2
AcDbPlaceHolder
  3
ObjectDBX Classes
 90
        0
280
     0
281
     0
  0
CLASS
  1
LAYOUT
  2
AcDbLayout
  3
ObjectDBX Classes
 90
        0
280
     0
281
     0
  0
CLASS
  1
DICTIONARYVAR
  2
AcDbDictionaryVar
  3
ObjectDBX Classes
 90
        0
280
     0
281
     0
  0
CLASS
  1
DIMASSOC
  2
AcDbDimAssoc
  3
"AcDbDimAssoc|Product Desc:     AcDim ARX App For Dimension|Company:          Autodesk, Inc.|WEB Address:      www.autodesk.com"
 90
    32768
280
     0
281
     0
  0
CLASS
  1
MATERIAL
  2
AcDbMaterial
  3
ObjectDBX Classes
 90
     1153
280
     0
281
     0
  0
CLASS
  1
VISUALSTYLE
  2
AcDbVisualStyle
  3
ObjectDBX Classes
 90
     4095
280
     0
281
     0
  0
CLASS
  1
TABLESTYLE
  2
AcDbTableStyle
  3
ObjectDBX Classes
 90
     4095
280
     0
281
     0
  0
CLASS
  1
SCALE
  2
AcDbScale
  3
ObjectDBX Classes
 90
     1153
280
     0
281
     0
  0
CLASS
  1
MLEADERSTYLE
  2
AcDbMLeaderStyle
  3
ACDB_MLEADERSTYLE_CLASS
 90
     4095
280
     0
281
     0
  0
CLASS
  1
CELLSTYLEMAP
  2
AcDbCellStyleMap
  3
ObjectDBX Classes
 90
     1152
280
     0
281
     0
  0
ENDSEC
  0
SECTION
  2
TABLES
  0
TABLE
  2
VPORT
  5
8
330
0
100
AcDbSymbolTable
 70
     1
  0
VPORT
  5
1ACA
330
8
100
AcDbSymbolTableRecord
100
AcDbViewportTableRecord
  2
*Active
 70
     0
 10
0.0
 20
0.0
 11
1.0
 21
1.0
 12
207.1927589176352
 22
1016.773168989615
 13
0.0
 23
0.0
 14
10.0
 24
10.0
 15
10.0
 25
10.0
 16
0.0
 26
0.0
 36
1.0
 17
0.0
 27
0.0
 37
0.0
 40
2.261738002604033
 41
1.645464025026068
 42
50.0
 43
0.0
 44
0.0
 50
0.0
 51
0.0
 71
     0
 72
   100
 73
     1
 74
     2
 75
     0
 76
     0
 77
     0
 78
     0
281
     0
 65
     1
110
0.0
120
0.0
130
0.0
111
1.0
121
0.0
131
0.0
112
0.0
122
1.0
132
0.0
 79
     0
146
0.0
  0
ENDTAB
  0
TABLE
  2
LTYPE
  5
5
330
0
100
AcDbSymbolTable
 70
     3
  0
LTYPE
  5
14
330
5
100
AcDbSymbolTableRecord
100
AcDbLinetypeTableRecord
  2
ByBlock
 70
     0
  3

 72
    65
 73
     0
 40
0.0
  0
LTYPE
  5
15
330
5
100
AcDbSymbolTableRecord
100
AcDbLinetypeTableRecord
  2
ByLayer
 70
     0
  3

 72
    65
 73
     0
 40
0.0
  0
LTYPE
  5
16
330
5
100
AcDbSymbolTableRecord
100
AcDbLinetypeTableRecord
  2
Continuous
 70
     0
  3
Solid line
 72
    65
 73
     0
 40
0.0
  0
LTYPE
  5
2D
330
5
100
AcDbSymbolTableRecord
100
AcDbLinetypeTableRecord
  2
DASHDOT
 70
     0
  3
Dash dot __ . __ . __ . __ . __ . __ . __ . __
 72
    65
 73
     4
 40
25.4
 49
12.7
 74
     0
 49
-6.349999999999999
 74
     0
 49
0.0
 74
     0
 49
-6.349999999999999
 74
     0
  0
LTYPE
  5
2E
330
5
100
AcDbSymbolTableRecord
100
AcDbLinetypeTableRecord
  2
HIDDEN
 70
     0
  3
Hidden __ __ __ __ __ __ __ __ __ __ __ __ __ _
 72
    65
 73
     2
 40
9.524999999999998
 49
6.349999999999999
 74
     0
 49
-3.174999999999999
 74
     0
  0
ENDTAB
  0
TABLE
  2
LAYER
  5
2
330
0
100
AcDbSymbolTable
 70
    16
  0
LAYER
  5
10
102
{ACAD_XDICTIONARY
360
1B15
102
}
330
2
100
AcDbSymbolTableRecord
100
AcDbLayerTableRecord
  2
0
 70
     0
 62
     7
  6
Continuous
370
    -3
390
F
  0
LAYER
  5
2F
102
{ACAD_XDICTIONARY
360
1B17
102
}
330
2
100
AcDbSymbolTableRecord
100
AcDbLayerTableRecord
  2
1
 70
     0
 62
     1
  6
Continuous
370
    -3
390
F
  0
LAYER
  5
30
102
{ACAD_XDICTIONARY
360
1B19
102
}
330
2
100
AcDbSymbolTableRecord
100
AcDbLayerTableRecord
  2
2
 70
     0
 62
     2
  6
Continuous
370
    -3
390
F
  0
LAYER
  5
31
102
{ACAD_XDICTIONARY
360
1B1B
102
}
330
2
100
AcDbSymbolTableRecord
100
AcDbLayerTableRecord
  2
3
 70
     0
 62
     3
  6
Continuous
370
    -3
390
F
  0
LAYER
  5
32
102
{ACAD_XDICTIONARY
360
1B1D
102
}
330
2
100
AcDbSymbolTableRecord
100
AcDbLayerTableRecord
  2
4
 70
     0
 62
     4
  6
Continuous
370
    -3
390
F
  0
LAYER
  5
33
102
{ACAD_XDICTIONARY
360
1B1F
102
}
330
2
100
AcDbSymbolTableRecord
100
AcDbLayerTableRecord
  2
5
 70
     0
 62
     5
  6
Continuous
370
    -3
390
F
  0
LAYER
  5
34
102
{ACAD_XDICTIONARY
360
1B21
102
}
330
2
100
AcDbSymbolTableRecord
100
AcDbLayerTableRecord
  2
6
 70
     0
 62
     6
  6
Continuous
370
    -3
390
F
  0
LAYER
  5
35
102
{ACAD_XDICTIONARY
360
1B23
102
}
330
2
100
AcDbSymbolTableRecord
100
AcDbLayerTableRecord
  2
7
 70
     0
 62
     7
  6
Continuous
370
    -3
390
F
  0
LAYER
  5
36
102
{ACAD_XDICTIONARY
360
1B25
102
}
330
2
100
AcDbSymbolTableRecord
100
AcDbLayerTableRecord
  2
cen
 70
     0
 62
     7
  6
DASHDOT
370
    -3
390
F
  0
LAYER
  5
37
102
{ACAD_XDICTIONARY
360
1B27
102
}
330
2
100
AcDbSymbolTableRecord
100
AcDbLayerTableRecord
  2
hid
 70
     0
 62
     7
  6
HIDDEN
370
    -3
390
F
  0
LAYER
  5
5D6
102
{ACAD_XDICTIONARY
360
1B29
102
}
330
2
100
AcDbSymbolTableRecord
100
AcDbLayerTableRecord
  2
hatch
 70
     0
 62
     9
  6
Continuous
370
    -3
390
F
  0
LAYER
  5
8AF
102
{ACAD_XDICTIONARY
360
1B2B
102
}
330
2
100
AcDbSymbolTableRecord
100
AcDbLayerTableRecord
  2
9
 70
     0
 62
     9
  6
Continuous
370
    -3
390
F
  0
LAYER
  5
8F8
102
{ACAD_XDICTIONARY
360
1B2D
102
}
330
2
100
AcDbSymbolTableRecord
100
AcDbLayerTableRecord
  2
leg fin
 70
     0
 62
     9
  6
Continuous
370
    -3
390
F
  0
LAYER
  5
91D
102
{ACAD_XDICTIONARY
360
1B2F
102
}
330
2
100
AcDbSymbolTableRecord
100
AcDbLayerTableRecord
  2
cotas
 70
     0
 62
     1
  6
Continuous
370
    -3
390
F
  0
LAYER
  5
92F
330
2
100
AcDbSymbolTableRecord
100
AcDbLayerTableRecord
  2
Defpoints
 70
     0
 62
     7
  6
Continuous
290
     0
370
    -3
390
F
  0
LAYER
  5
BA5
102
{ACAD_XDICTIONARY
360
1B31
102
}
330
2
100
AcDbSymbolTableRecord
100
AcDbLayerTableRecord
  2
SANINDUSA
 70
     0
 62
     3
  6
Continuous
370
    -3
390
F
  0
ENDTAB
  0
TABLE
  2
STYLE
  5
3
330
0
100
AcDbSymbolTable
 70
     3
  0
STYLE
  5
11
330
3
100
AcDbSymbolTableRecord
100
AcDbTextStyleTableRecord
  2
Standard
 70
     0
 40
0.0
 41
1.0
 50
0.0
 71
     0
 42
2.5
  3
Avgardn.ttf
  4

1001
ACAD
1000
AvantGarde Bk BT
1071
       34
  0
STYLE
  5
2C
330
3
100
AcDbSymbolTableRecord
100
AcDbTextStyleTableRecord
  2

 70
     1
 40
0.0
 41
1.0
 50
0.0
 71
     0
 42
2.5
  3
ltypeshp.shx
  4

  0
STYLE
  5
91F
330
3
100
AcDbSymbolTableRecord
100
AcDbTextStyleTableRecord
  2
SANINDUSA
 70
     0
 40
0.0
 41
1.0
 50
0.0
 71
     0
 42
2.5
  3
verdana.TTF
  4

1001
ACAD
1000
Verdana
1071
       34
  0
ENDTAB
  0
TABLE
  2
VIEW
  5
6
330
0
100
AcDbSymbolTable
 70
     0
  0
ENDTAB
  0
TABLE
  2
UCS
  5
7
330
0
100
AcDbSymbolTable
 70
     0
  0
ENDTAB
  0
TABLE
  2
APPID
  5
9
330
0
100
AcDbSymbolTable
 70
     3
  0
APPID
  5
12
330
9
100
AcDbSymbolTableRecord
100
AcDbRegAppTableRecord
  2
ACAD
 70
     0
  0
APPID
  5
3A
330
9
100
AcDbSymbolTableRecord
100
AcDbRegAppTableRecord
  2
DCO15
 70
     0
  0
APPID
  5
1B81
330
9
100
AcDbSymbolTableRecord
100
AcDbRegAppTableRecord
  2
ACAD_MLEADERVER
 70
     0
  0
ENDTAB
  0
TABLE
  2
DIMSTYLE
  5
A
330
0
100
AcDbSymbolTable
 70
     2
100
AcDbDimStyleTable
 71
     1
340
921
  0
DIMSTYLE
105
45
330
A
100
AcDbSymbolTableRecord
100
AcDbDimStyleTableRecord
  2
STANDARD
 70
     0
289
     0
340
11
  0
DIMSTYLE
105
921
330
A
100
AcDbSymbolTableRecord
100
AcDbDimStyleTableRecord
  2
SANINDUSA
 70
     0
 41
2.0
 42
1.0
 43
1.0
 44
1.0
 73
     0
 74
     0
 77
     1
 78
     8
140
2.0
141
0.0
143
0.03937007874016
147
1.0
171
     3
172
     1
176
   256
177
   256
178
   256
179
     1
271
     1
272
     1
274
     3
278
    44
283
     0
284
     8
340
91F
371
    -1
372
    -1
  0
ENDTAB
  0
TABLE
  2
BLOCK_RECORD
  5
1
330
0
100
AcDbSymbolTable
 70
   107
  0
BLOCK_RECORD
  5
1F
330
1
100
AcDbSymbolTableRecord
100
AcDbBlockTableRecord
  2
*Model_Space
340
22
  0
BLOCK_RECORD
  5
1B
330
1
100
AcDbSymbolTableRecord
100
AcDbBlockTableRecord
  2
*Paper_Space
340
1E
  0
BLOCK_RECORD
  5
23
330
1
100
AcDbSymbolTableRecord
100
AcDbBlockTableRecord
  2
*Paper_Space0
340
26
  0
BLOCK_RECORD
  5
919
330
1
100
AcDbSymbolTableRecord
100
AcDbBlockTableRecord
  2
_DotSmall
340
0
  0
BLOCK_RECORD
  5
922
330
1
100
AcDbSymbolTableRecord
100
AcDbBlockTableRecord
  2
base para cotas
340
0
310
2800000020000000200000000100080000000000000400000000000000000000000000000000000000000000000080000080000000808000800000008000800080800000C0C0C000C0DCC000F0CAA6000020400000206000002080000020A0000020C0000020E00000400000004020000040400000406000004080000040A0
310
000040C0000040E00000600000006020000060400000606000006080000060A0000060C0000060E00000800000008020000080400000806000008080000080A0000080C0000080E00000A0000000A0200000A0400000A0600000A0800000A0A00000A0C00000A0E00000C0000000C0200000C0400000C0600000C0800000C0
310
A00000C0C00000C0E00000E0000000E0200000E0400000E0600000E0800000E0A00000E0C00000E0E00040000000400020004000400040006000400080004000A0004000C0004000E00040200000402020004020400040206000402080004020A0004020C0004020E000404000004040200040404000404060004040800040
310
40A0004040C0004040E00040600000406020004060400040606000406080004060A0004060C0004060E00040800000408020004080400040806000408080004080A0004080C0004080E00040A0000040A0200040A0400040A0600040A0800040A0A00040A0C00040A0E00040C0000040C0200040C0400040C0600040C08000
310
40C0A00040C0C00040C0E00040E0000040E0200040E0400040E0600040E0800040E0A00040E0C00040E0E00080000000800020008000400080006000800080008000A0008000C0008000E00080200000802020008020400080206000802080008020A0008020C0008020E00080400000804020008040400080406000804080
310
008040A0008040C0008040E00080600000806020008060400080606000806080008060A0008060C0008060E00080800000808020008080400080806000808080008080A0008080C0008080E00080A0000080A0200080A0400080A0600080A0800080A0A00080A0C00080A0E00080C0000080C0200080C0400080C0600080C0
310
800080C0A00080C0C00080C0E00080E0000080E0200080E0400080E0600080E0800080E0A00080E0C00080E0E000C0000000C0002000C0004000C0006000C0008000C000A000C000C000C000E000C0200000C0202000C0204000C0206000C0208000C020A000C020C000C020E000C0400000C0402000C0404000C0406000C0
310
408000C040A000C040C000C040E000C0600000C0602000C0604000C0606000C0608000C060A000C060C000C060E000C0800000C0802000C0804000C0806000C0808000C080A000C080C000C080E000C0A00000C0A02000C0A04000C0A06000C0A08000C0A0A000C0A0C000C0A0E000C0C00000C0C02000C0C04000C0C06000
310
C0C08000C0C0A000F0FBFF00A4A0A000808080000000FF0000FF000000FFFF00FF000000FF00FF00FFFF0000FFFFFF00A4A4A4A4A4A4A4A4A4A4A4A4A4A4A4A4A4A4A4A4A4A4A4A4A4A4A4A4A4A4A4A4A4A4A4A4A4A4A4A4A4A4A4A4A4A4A4A4A4A4A4A4A4A4A4A4A4A4A4A4A4A4A4A4A4A4A4A4A4A4A4A4A4A4A4A4A4A4A4
310
A4A4A4A4A4A4A4A4A4A4A4A4A4A4A4A4A4A4A4A4A4A4A4A4A4A4A4A4A4A4A4A4A4A4A4A4A4A4A4A4A4A4A4A4A4A4A4A4A4A4A4A4A4A4A4A4A4A4A4A4A4A4A4A4A4A4A4A4A4A4A4A4A4A4A4A4A4A4A4A4A4A4A4A4A4A4A4A4A4A4A4A4A4A4A4A4A4A4A4A4A4A4A4A4A4A4A4A4A4A4A4A4A4A4A4A4A4A4A4A4A4A4A4A4A4A4A4
310
A4A4A4A4A4A4A4A4A4A4A4A4A4A4A4A4A4A4A4A4A4A4A4A4A4A4A4A4A4A4A4A4A4A4A4A4A4A4A4A4A4A4A4A4A4A4A4A4A4A4A4A4A4A4A4A4A4A4A4A4A4A4A4A4A4A4A4A4A4A4A4A4A4A4A4A4A4A4A4A4A4A4A4A4A4A4A4A4A4A4A4A4A4A4A4A4A4A4A4A4A4A4A4A4A4A4A4A4A4A4A4A4A4A4A4A4A4A4A4A4A4A4A4A4A4A4A4
310
A4A4A4A4A4A4A4A4A4A4A4A4A4A4A4A4A4A4A4A4A4A4A4A4A4A4A4A4A4A4A4A4A4A4A4A4A4A4A4A4A4A4A4A4A4A4A4A4A4A4A4A4A4A4A4A4A4A4A4A4A4A4A4A4A4A4A4A4A4A4A4A4A4A4A4A4A4A4A4A4A4A4A4A4A4A4A4A4A4A4A4A4A4A4A4A4A4A4A4A4A4A4A4A4A4A4A4A4A4A4A4A4A4A4A4A4F9F9F9F9F9F9F9F9F9F9F9
310
F9F9F9F9F9F9F9F9F9F9F9F9F9F9F9F9F9F9F9A4A4F9F9F9F9F9F9F9F9F9F9F9F9F9F9F9F9F9F9F9F9F9F9F9F9F9F9F9F9F9F9A4A4F9F9F9F9F9F9F9F9F9F9F9F9F9F9F9F9F9F9F9F9F9F9F9F9F9F9F9F9F9F9A4A4F9A4A4A4A4A4A4A4A4A4A4A4A4A4A4A4A4A4A4A4A4A4A4A4A4A4A4A4A4F9A4A4A4A4A4A4A4A4A4A4A4A4
310
A4A4A4A4A4A4A4A4A4A4A4A4A4A4A4A4A4A4A4A4A4A4A4A4A4A4A4A4A4A4A4A4A4A4A4A4A4A4A4A4A4A4A4A4A4A4A4A4A4A4A4A4A4A4A4A4A4A4A4A4A4A4A4A4A4A4A4A4A4A4A4A4A4A4A4A4A4A4A4A4A4A4A4A4A4A4A4A4A4A4A4A4A4A4A4A4A4A4A4A4A4A4A4A4A4A4A4A4A4A4A4A4A4A4A4A4A4A4A4A4A4A4A4A4A4A4A4
310
A4A4A4A4A4A4A4A4A4A4A4A4A4A4A4A4A4A4A4A4A4A4A4A4A4A4A4A4A4A4A4A4A4A4A4A4A4A4A4A4A4A4A4A4A4A4A4A4A4A4A4A4A4A4A4A4A4A4A4A4A4A4A4A4A4A4A4A4A4A4A4A4A4A4A4A4A4A4A4A4A4A4A4A4A4A4A4A4A4A4A4A4A4A4A4A4A4A4A4A4A4A4A4A4A4A4A4A4A4A4A4A4A4A4A4A4A4A4A4A4A4A4A4A4A4A4A4
310
A4A4A4A4A4A4A4A4A4A4A4A4A4A4A4A4A4A4A4A4A4A4A4A4A4A4A4A4A4A4A4A4A4A4A4A4A4A4A4A4A4A4A4A4A4A4A4A4A4A4A4A4A4A4A4A4A4A4A4A4A4A4A4A4A4A4A4A4A4A4A4A4A4A4A4A4A4A4A4A4A4A4A4A4A4A4A4A4A4A4A4A4A4A4A4A4A4A4A4A4A4A4A4A4A4A4A4A4A4A4A4A4A4A4A4A4A4A4A4A4A4A4A4A4A4A4A4
310
A4A4A4A4A4A4A4A4A4A4A4A4A4A4A4A4A4A4A4A4A4A4A4A4A4A4A4A4A4A4A4A4A4A4A4A4A4A4A4A4A4A4A4A4A4A4A4A4A4A4A4A4A4A4A4A4
1001
ACAD
1000
DesignCenter Data
1002
{
1070
     1
1070
     4
1002
}
  0
BLOCK_RECORD
  5
AA8
330
1
100
AcDbSymbolTableRecord
100
AcDbBlockTableRecord
  2
_CLOSED
340
0
  0
ENDTAB
  0
ENDSEC
  0
SECTION
  2
BLOCKS
  0
BLOCK
  5
20
330
1F
100
AcDbEntity
  8
0
100
AcDbBlockBegin
  2
*Model_Space
 70
     0
 10
0.0
 20
0.0
 30
0.0
  3
*Model_Space
  1

  0
ENDBLK
  5
21
330
1F
100
AcDbEntity
  8
0
100
AcDbBlockEnd
  0
BLOCK
  5
1C
330
1B
100
AcDbEntity
 67
     1
  8
0
100
AcDbBlockBegin
  2
*Paper_Space
 70
     0
 10
0.0
 20
0.0
 30
0.0
  3
*Paper_Space
  1

  0
ENDBLK
  5
1D
330
1B
100
AcDbEntity
 67
     1
  8
0
100
AcDbBlockEnd
  0
BLOCK
  5
24
330
23
100
AcDbEntity
 67
     1
  8
0
100
AcDbBlockBegin
  2
*Paper_Space0
 70
     0
 10
0.0
 20
0.0
 30
0.0
  3
*Paper_Space0
  1

  0
ENDBLK
  5
25
330
23
100
AcDbEntity
 67
     1
  8
0
100
AcDbBlockEnd
  0
BLOCK
  5
91B
330
919
100
AcDbEntity
  8
0
100
AcDbBlockBegin
  2
_DotSmall
 70
     0
 10
0.0
 20
0.0
 30
0.0
  3
_DotSmall
  1

  0
LWPOLYLINE
  5
91A
330
919
100
AcDbEntity
  8
0
  6
ByBlock
 62
     0
100
AcDbPolyline
 90
        2
 70
     1
 43
0.5
 10
-0.0625
 20
0.0
 42
1.0
 10
0.0625
 20
0.0
 42
1.0
  0
ENDBLK
  5
91C
330
919
100
AcDbEntity
  8
0
100
AcDbBlockEnd
  0
BLOCK
  5
92A
330
922
100
AcDbEntity
  8
0
100
AcDbBlockBegin
  2
base para cotas
 70
     0
 10
0.0
 20
0.0
 30
0.0
  3
base para cotas
  1

  0
LINE
  5
B36
330
922
100
AcDbEntity
  8
cotas
100
AcDbLine
 10
0.0
 20
-30.0
 30
0.0
 11
327.1260136525398
 21
-30.0
 31
0.0
  0
LINE
  5
B37
330
922
100
AcDbEntity
  8
cotas
100
AcDbLine
 10
0.0
 20
-25.0
 30
0.0
 11
327.1260136525398
 21
-25.0
 31
0.0
  0
LINE
  5
B38
330
922
100
AcDbEntity
  8
cotas
100
AcDbLine
 10
0.0
 20
-20.0
 30
0.0
 11
327.1260136525398
 21
-20.0
 31
0.0
  0
LINE
  5
B39
330
922
100
AcDbEntity
  8
cotas
100
AcDbLine
 10
0.0
 20
-15.0
 30
0.0
 11
327.1260136525398
 21
-15.0
 31
0.0
  0
LINE
  5
B3A
330
922
100
AcDbEntity
  8
cotas
100
AcDbLine
 10
0.0
 20
-10.0
 30
0.0
 11
327.1260136525398
 21
-10.0
 31
0.0
  0
LINE
  5
B3B
330
922
100
AcDbEntity
  8
cotas
100
AcDbLine
 10
0.0
 20
0.0
 30
0.0
 11
0.0
 21
-30.0
 31
0.0
  0
LINE
  5
B3C
330
922
100
AcDbEntity
  8
cotas
100
AcDbLine
 10
327.1260136525398
 20
-30.0
 30
0.0
 11
327.1260136525398
 21
0.0
 31
0.0
  0
ENDBLK
  5
92B
330
922
100
AcDbEntity
  8
0
100
AcDbBlockEnd
  0
BLOCK
  5
AAD
330
AA8
100
AcDbEntity
  8
0
100
AcDbBlockBegin
  2
_CLOSED
 70
     0
 10
0.0
 20
0.0
 30
0.0
  3
_CLOSED
  1

  0
LINE
  5
AA9
330
AA8
100
AcDbEntity
  8
0
100
AcDbLine
 10
-1.0
 20
0.166667
 30
0.0
 11
0.0
 21
0.0
 31
0.0
  0
LINE
  5
AAA
330
AA8
100
AcDbEntity
  8
0
100
AcDbLine
 10
0.0
 20
0.0
 30
0.0
 11
-1.0
 21
-0.166667
 31
0.0
  0
LINE
  5
AAB
330
AA8
100
AcDbEntity
  8
0
100
AcDbLine
 10
-1.0
 20
0.166667
 30
0.0
 11
-1.0
 21
-0.166667
 31
0.0
  0
LINE
  5
AAC
330
AA8
100
AcDbEntity
  8
0
100
AcDbLine
 10
0.0
 20
0.0
 30
0.0
 11
-1.0
 21
0.0
 31
0.0
  0
ENDBLK
  5
AAE
330
AA8
100
AcDbEntity
  8
0
100
AcDbBlockEnd
  0
ENDSEC
  0
SECTION
  2
ENTITIES
  0
LWPOLYLINE
  5
11F0
330
1F
100
AcDbEntity
  8
SANINDUSA
100
AcDbPolyline
 90
       16
 70
   128
 43
0.0
 10
207.5862589407416
 20
1016.917217332073
 10
207.5779017869341
 20
1016.917217438035
 10
207.5581183501557
 20
1016.917217783037
 10
207.5383530108182
 20
1016.917218004265
 10
207.5187000323334
 20
1016.917218110158
 10
207.4992536781132
 20
1016.917218109151
 10
207.4801082115694
 20
1016.917218009685
 10
207.4613578961137
 20
1016.917217820196
 10
207.4465397900564
 20
1016.917217753945
 10
207.4319927446111
 20
1016.917217857844
 10
207.4177933624447
 20
1016.917218025651
 10
207.4040182462235
 20
1016.917218151125
 10
207.3907439986143
 20
1016.917218128025
 10
207.3780472222837
 20
1016.917217850109
 10
207.3668188836348
 20
1016.917217496014
 10
207.3561754927085
 20
1016.917217683061
  0
LINE
  5
11F2
330
1F
100
AcDbEntity
  8
SANINDUSA
100
AcDbLine
 10
207.5862589407416
 20
1016.862651863631
 30
0.0
 11
207.3899324713173
 21
1016.862651863631
 31
0.0
  0
LINE
  5
11F7
330
1F
100
AcDbEntity
  8
SANINDUSA
100
AcDbLine
 10
207.6202932519667
 20
1016.70765186363
 30
0.0
 11
207.5522246295164
 21
1016.70765186363
 31
0.0
  0
LWPOLYLINE
  5
11FA
330
1F
100
AcDbEntity
  8
SANINDUSA
100
AcDbPolyline
 90
       15
 70
   128
 43
0.0
 10
205.8563987692507
 20
1016.908687877168
 10
205.856398769222
 20
1016.908687937168
 10
205.8565781818712
 20
1016.9126269838
 10
205.8571180155011
 20
1016.916532927455
 10
205.8588362428081
 20
1016.922951002248
 10
205.8615808326932
 20
1016.928994464805
 10
205.8648590176201
 20
1016.933723885106
 10
205.8688993485147
 20
1016.93782549876
 10
205.8715946891173
 20
1016.93989186882
 10
205.8776415256829
 20
1016.943395438429
 10
205.8841537710864
 20
1016.945925220385
 10
205.8890036383211
 20
1016.947065828201
 10
205.8939600616272
 20
1016.947574176098
 10
205.8951666045665
 20
1016.947594555514
 10
205.8951666645665
 20
1016.947594555533
  0
LWPOLYLINE
  5
11FB
330
1F
100
AcDbEntity
  8
SANINDUSA
100
AcDbPolyline
 90
       13
 70
   128
 43
0.0
 10
205.8951666645665
 20
1016.869627613963
 10
205.8951666045666
 20
1016.869627614021
 10
205.890071022639
 20
1016.869972405828
 10
205.88506587258
 20
1016.870987477124
 10
205.8789086917565
 20
1016.873258206596
 10
205.8732203765504
 20
1016.876531792888
 10
205.8681639734219
 20
1016.880725377891
 10
205.8638735226153
 20
1016.885700478818
 10
205.8604757897687
 20
1016.891323536494
 10
205.8580552484616
 20
1016.897430921111
 10
205.8568172384992
 20
1016.902998850435
 10
205.856398769277
 20
1016.908687817168
 10
205.8563987692477
 20
1016.908687877168
  0
LWPOLYLINE
  5
11FE
330
1F
100
AcDbEntity
  8
SANINDUSA
100
AcDbPolyline
 90
       20
 70
   128
 43
0.0
 10
205.8951666645665
 20
1016.932687877168
 10
205.8904326704383
 20
1016.932216355648
 10
205.8865576772157
 20
1016.931088104061
 10
205.882924461857
 20
1016.929330756638
 10
205.8796326538104
 20
1016.926979310863
 10
205.8767794589363
 20
1016.924112230286
 10
205.874457404227
 20
1016.920812771261
 10
205.8727167340666
 20
1016.917173195108
 10
205.8715596651536
 20
1016.912995414115
 10
205.8711666668658
 20
1016.908677371726
 10
205.8712013409299
 20
1016.907398201631
 10
205.8717603374141
 20
1016.903393745421
 10
205.8729790734982
 20
1016.899538516393
 10
205.8748321510933
 20
1016.895944585491
 10
205.8772584364739
 20
1016.892709912135
 10
205.8801964579355
 20
1016.889932160173
 10
205.8835564222458
 20
1016.88768306169
 10
205.8872475256837
 20
1016.886034592677
 10
205.8911617910267
 20
1016.88502438233
 10
205.8951666645665
 20
1016.884687877168
  0
LWPOLYLINE
  5
1200
330
1F
100
AcDbEntity
  8
SANINDUSA
100
AcDbPolyline
 90
        6
 70
   128
 43
0.0
 10
205.8951666645665
 20
1016.972932049131
 10
205.8879053313618
 20
1016.972934968284
 10
205.8138814124767
 20
1016.97318202256
 10
205.7732749653975
 20
1016.973343918645
 10
205.752970251437
 20
1016.973451105275
 10
205.7326672610229
 20
1016.973391298155
  0
LWPOLYLINE
  5
1202
330
1F
100
AcDbEntity
  8
SANINDUSA
100
AcDbPolyline
 90
       21
 70
   128
 43
0.0
 10
205.6494076378468
 20
1016.776139109835
 10
205.6524092022756
 20
1016.76871026597
 10
205.655774051401
 20
1016.761438579704
 10
205.6628909077224
 20
1016.748474810171
 10
205.6711043711116
 20
1016.736116818768
 10
205.6802775150886
 20
1016.724440982962
 10
205.6902734131735
 20
1016.713523680218
 10
205.7016384781344
 20
1016.702815595792
 10
205.7137701659752
 20
1016.692907205576
 10
205.7265553012743
 20
1016.683811934486
 10
205.7398807086099
 20
1016.675543207437
 10
205.7536332125604
 20
1016.668114449343
 10
205.7688985262662
 20
1016.661010871302
 10
205.7846014317087
 20
1016.654802015122
 10
205.8006598369711
 20
1016.649482131873
 10
205.8169916501368
 20
1016.64504547262
 10
205.8335147792888
 20
1016.641486288433
 10
205.8501471325104
 20
1016.638798830379
 10
205.8651008182362
 20
1016.637119357799
 10
205.8801224859062
 20
1016.636112449734
 10
205.8951666645665
 20
1016.635777048707
  0
LWPOLYLINE
  5
1206
330
1F
100
AcDbEntity
  8
SANINDUSA
100
AcDbPolyline
 90
       16
 70
   128
 43
0.0
 10
205.8951666645665
 20
1016.598687877089
 10
205.8808449382747
 20
1016.598961397084
 10
205.8665442090095
 20
1016.599782887367
 10
205.8471533563551
 20
1016.601787660122
 10
205.8278345252493
 20
1016.604827478918
 10
205.8086810521698
 20
1016.608906363318
 10
205.7897862735944
 20
1016.614028332885
 10
205.7712435260004
 20
1016.620197407181
 10
205.7531461458657
 20
1016.627417605769
 10
205.7398498554571
 20
1016.633556783403
 10
205.7268486820811
 20
1016.64031515401
 10
205.714197819153
 20
1016.647690649282
 10
205.7005006311048
 20
1016.656689644396
 10
205.6873291123266
 20
1016.666492269788
 10
205.6747831654436
 20
1016.677075983472
 10
205.6629626930813
 20
1016.68841824346
  0
LWPOLYLINE
  5
1207
330
1F
100
AcDbEntity
  8
SANINDUSA
100
AcDbPolyline
 90
       23
 70
   128
 43
0.0
 10
205.6545281451559
 20
1016.828695053253
 10
205.6551871655994
 20
1016.815752396603
 10
205.6568925739724
 20
1016.803968203237
 10
205.6596235017767
 20
1016.792333903482
 10
205.6633173177544
 20
1016.780963821409
 10
205.6679113906476
 20
1016.769972281088
 10
205.6733508259877
 20
1016.759415646246
 10
205.6795873214737
 20
1016.749260203429
 10
205.6865371259636
 20
1016.739551606292
 10
205.6941164883154
 20
1016.730335508491
 10
205.7022416573874
 20
1016.721657563679
 10
205.7139586056089
 20
1016.71080892756
 10
205.7264683164252
 20
1016.700881446668
 10
205.7398332201612
 20
1016.691762150762
 10
205.7538299831199
 20
1016.683551253424
 10
205.7683486874912
 20
1016.67624685897
 10
205.7832794154653
 20
1016.669847071715
 10
205.798512249232
 20
1016.664349995973
 10
205.8173302175837
 20
1016.658858575731
 10
205.8365257985595
 20
1016.654602838105
 10
205.855977836893
 20
1016.651573955241
 10
205.8755651773175
 20
1016.649763099284
 10
205.8951666645665
 20
1016.649161442377
  0
LWPOLYLINE
  5
1208
330
1F
100
AcDbEntity
  8
SANINDUSA
100
AcDbPolyline
 90
       33
 70
   128
 43
0.0
 10
207.321843208619
 20
1016.850161283574
 10
207.3237385769961
 20
1016.847483129656
 10
207.3277224296549
 20
1016.841449798364
 10
207.3316159596252
 20
1016.83602532956
 10
207.3359759835473
 20
1016.830462771184
 10
207.3406200276323
 20
1016.824974057099
 10
207.3458783527063
 20
1016.819229358461
 10
207.3513514609577
 20
1016.813718838064
 10
207.3570427331847
 20
1016.80843797351
 10
207.3629544721166
 20
1016.803384445592
 10
207.3690775309197
 20
1016.798571181513
 10
207.3753469586486
 20
1016.794044189009
 10
207.3818255435527
 20
1016.789754065234
 10
207.3884727076634
 20
1016.78573115956
 10
207.3952403739879
 20
1016.782005469485
 10
207.401400997123
 20
1016.778932207569
 10
207.4080053492251
 20
1016.775969860723
 10
207.4149329286778
 20
1016.773169751596
 10
207.4225032964219
 20
1016.770398708362
 10
207.4309000645203
 20
1016.767596443637
 10
207.4404854011402
 20
1016.76464480833
 10
207.451999186282
 20
1016.761380044886
 10
207.4640475844617
 20
1016.758282576053
 10
207.4762115025559
 20
1016.755477615258
 10
207.488498813103
 20
1016.752964164689
 10
207.5009162608822
 20
1016.750742063792
 10
207.5134708802903
 20
1016.74881161357
 10
207.5261720262511
 20
1016.747174856972
 10
207.5389386006768
 20
1016.745848299024
 10
207.5517369466651
 20
1016.744836404479
 10
207.5629564362063
 20
1016.74421657931
 10
207.5747957436107
 20
1016.743854677125
 10
207.58625817539
 20
1016.743718230166
  0
LINE
  5
1209
330
1F
100
AcDbEntity
  8
SANINDUSA
100
AcDbLine
 10
207.3622681400292
 20
1016.92765186363
 30
0.0
 11
207.8102497414539
 21
1016.92765186363
 31
0.0
  0
LINE
  5
120C
330
1F
100
AcDbEntity
  8
SANINDUSA
100
AcDbLine
 10
207.1633996807753
 20
1016.93765186363
 30
0.0
 11
208.0091182007078
 21
1016.93765186363
 31
0.0
  0
LINE
  5
120D
330
1F
100
AcDbEntity
  8
SANINDUSA
100
AcDbLine
 10
205.4723074046002
 20
1017.098687877168
 30
0.0
 11
206.3180259245328
 21
1017.098687877168
 31
0.0
  0
LINE
  5
1211
330
1F
100
AcDbEntity
  8
SANINDUSA
100
AcDbLine
 10
205.6469080272149
 20
1017.081515624215
 30
0.0
 11
206.1434253019182
 21
1017.081515624215
 31
0.0
  0
LWPOLYLINE
  5
1213
330
1F
100
AcDbEntity
  8
SANINDUSA
100
AcDbPolyline
 90
       30
 70
   128
 43
0.0
 10
206.1225516767323
 20
1016.69610215808
 10
206.1133540719
 20
1016.687004963307
 10
206.1036848488094
 20
1016.678409993301
 10
206.0900716242536
 20
1016.667696723609
 10
206.0757402823124
 20
1016.657862547611
 10
206.0607934738166
 20
1016.648914709955
 10
206.0453338495974
 20
1016.640860455289
 10
206.0294640604854
 20
1016.633707028259
 10
206.0132867573119
 20
1016.627461673515
 10
205.9953599362928
 20
1016.621661951245
 10
205.9771233559085
 20
1016.616865449975
 10
205.9586664113846
 20
1016.613069275024
 10
205.9428987553056
 20
1016.610626950877
 10
205.9270383373186
 20
1016.608884739914
 10
205.9111177363749
 20
1016.607839344967
 10
205.8951666645665
 20
1016.607490451755
 10
205.8821794380603
 20
1016.607721749404
 10
205.8692086490854
 20
1016.608414791429
 10
205.8498245629617
 20
1016.610322045551
 10
205.8305261948052
 20
1016.61328190419
 10
205.8114078336252
 20
1016.617299507194
 10
205.7925637684313
 20
1016.622379994408
 10
205.774088288233
 20
1016.628528505677
 10
205.7565021326635
 20
1016.635565894671
 10
205.7393185957832
 20
1016.643681859989
 10
205.7226698920436
 20
1016.652867741693
 10
205.7066882358965
 20
1016.663114879845
 10
205.6915058417936
 20
1016.674414614507
 10
205.6792878797568
 20
1016.68486995531
 10
205.6677816524008
 20
1016.69610215808
  0
ARC
  5
1217
330
1F
100
AcDbEntity
  8
SANINDUSA
100
AcDbCircle
 10
207.3806994727492
 20
1016.79565186363
 30
0.0
 40
0.02
100
AcDbArc
 50
201.0278463941035
 51
270.0
  0
LWPOLYLINE
  5
121B
330
1F
100
AcDbEntity
  8
SANINDUSA
100
AcDbPolyline
 90
        3
 70
   128
 43
0.0
 10
205.6545723545377
 20
1016.893684640411
 10
205.6545548955989
 20
1016.877684631164
 10
205.6545148766177
 20
1016.84389560488
  0
LINE
  5
121D
330
1F
100
AcDbEntity
  8
SANINDUSA
100
AcDbLine
 10
205.639741575883
 20
1017.074265161918
 30
0.0
 11
205.639741575883
 21
1016.828687877168
 31
0.0
  0
LINE
  5
121F
330
1F
100
AcDbEntity
  8
SANINDUSA
100
AcDbLine
 10
205.4639692391536
 20
1016.751887377963
 30
0.0
 11
205.4639692391536
 21
1017.0789282385
 31
0.0
  0
LINE
  5
1223
330
1F
100
AcDbEntity
  8
SANINDUSA
100
AcDbLine
 10
205.4551666645665
 20
1016.743687877168
 30
0.0
 11
205.4551666645665
 21
1017.096687877168
 31
0.0
  0
LINE
  5
1225
330
1F
100
AcDbEntity
  8
SANINDUSA
100
AcDbLine
 10
205.5591669133121
 20
1016.742490451755
 30
0.0
 11
205.4733661653615
 21
1016.742490451755
 31
0.0
  0
LINE
  5
1228
330
1F
100
AcDbEntity
  8
SANINDUSA
100
AcDbLine
 10
205.5555776365032
 20
1016.733687877168
 30
0.0
 11
205.4651666645666
 21
1016.733687877168
 31
0.0
  0
ARC
  5
122F
330
1F
100
AcDbEntity
  8
SANINDUSA
100
AcDbCircle
 10
205.4651666645666
 20
1016.743687877168
 30
0.0
 40
0.01
100
AcDbArc
 50
180.0
 51
270.0000000000065
  0
LWPOLYLINE
  5
1233
330
1F
100
AcDbEntity
  8
SANINDUSA
100
AcDbPolyline
 90
        9
 70
   128
 43
0.0
 10
205.4733661653615
 20
1016.742490451755
 10
205.4715666889836
 20
1016.742755379588
 10
205.4698469462357
 20
1016.743341441637
 10
205.4682635543237
 20
1016.744229343625
 10
205.4668686415245
 20
1016.745389854126
 10
205.4657081310235
 20
1016.746784766925
 10
205.4648202290362
 20
1016.748368158837
 10
205.4642341669867
 20
1016.750087901585
 10
205.4639692391536
 20
1016.751887377963
  0
LWPOLYLINE
  5
1243
330
1F
100
AcDbEntity
  8
SANINDUSA
100
AcDbPolyline
 90
       11
 70
   128
 43
0.0
 10
205.6677816524008
 20
1016.69610215808
 10
205.6609808117756
 20
1016.702796950702
 10
205.6537732831377
 20
1016.709051671958
 10
205.6435308033309
 20
1016.716673630895
 10
205.6326346449983
 20
1016.723418058837
 10
205.6212055846515
 20
1016.729212315016
 10
205.609364398802
 20
1016.733983758665
 10
205.5969106010698
 20
1016.737770674985
 10
205.5841740237945
 20
1016.740458011605
 10
205.571712690886
 20
1016.741992037353
 10
205.5591669133121
 20
1016.742490451755
  0
ARC
  5
1246
330
1F
100
AcDbEntity
  8
SANINDUSA
100
AcDbCircle
 10
205.5555776365032
 20
1016.583687877168
 30
0.0
 40
0.1499999999999998
100
AcDbArc
 50
44.28296298992728
 51
90.00000000000325
  0
LWPOLYLINE
  5
1253
330
1F
100
AcDbEntity
  8
SANINDUSA
100
AcDbPolyline
 90
        7
 70
   128
 43
0.0
 10
205.639741575883
 20
1016.828687877168
 10
205.6400131539802
 20
1016.819805216208
 10
205.6407790260486
 20
1016.811334232921
 10
205.6420324618009
 20
1016.802921474922
 10
205.6437918833189
 20
1016.794483044062
 10
205.6460303714076
 20
1016.786158720583
 10
205.6494076378468
 20
1016.776139109835
  0
LINE
  5
1257
330
1F
100
AcDbEntity
  8
SANINDUSA
100
AcDbLine
 10
205.6545148766177
 20
1016.84389560488
 30
0.0
 11
205.6545281451559
 21
1016.828695053253
 31
0.0
  0
LINE
  5
125B
330
1F
100
AcDbEntity
  8
SANINDUSA
100
AcDbLine
 10
205.4713996492225
 20
1017.086178700796
 30
0.0
 11
205.6307835117183
 21
1017.086178700796
 31
0.0
  0
LWPOLYLINE
  5
125F
330
1F
100
AcDbEntity
  8
SANINDUSA
100
AcDbPolyline
 90
        8
 70
   128
 43
0.0
 10
205.4639692391536
 20
1017.0789282385
 10
205.464031242311
 20
1017.081025889388
 10
205.4642156268018
 20
1017.083068564953
 10
205.4645175602695
 20
1017.085002730667
 10
205.464929129629
 20
1017.086777695834
 10
205.4654395484531
 20
1017.088346942091
 10
205.4660354396636
 20
1017.089669342566
 10
205.4667011861186
 20
1017.090710239731
  0
LWPOLYLINE
  5
1260
330
1F
100
AcDbEntity
  8
SANINDUSA
100
AcDbPolyline
 90
        9
 70
   128
 43
0.0
 10
205.4667011861186
 20
1017.090710239731
 10
205.4668972764138
 20
1017.08989838029
 10
205.4672359914734
 20
1017.08911223868
 10
205.467706601587
 20
1017.088376718049
 10
205.4682941989141
 20
1017.087715117992
 10
205.4689801697294
 20
1017.087148396469
 10
205.4697427840629
 20
1017.086694505908
 10
205.4705578840553
 20
1017.086367824513
 10
205.4713996492226
 20
1017.086178700796
  0
LINE
  5
1269
330
1F
100
AcDbEntity
  8
SANINDUSA
100
AcDbLine
 10
205.4653267286179
 20
1017.098687877168
 30
0.0
 11
205.4694883267379
 21
1017.098687877168
 31
0.0
  0
ARC
  5
126E
330
1F
100
AcDbEntity
  8
SANINDUSA
100
AcDbCircle
 10
205.4571666645665
 20
1017.096687877168
 30
0.0
 40
0.002
100
AcDbArc
 50
90.0
 51
180.0
  0
LINE
  5
126F
330
1F
100
AcDbEntity
  8
SANINDUSA
100
AcDbLine
 10
205.4571666645665
 20
1017.098687877168
 30
0.0
 11
205.4589434150869
 21
1017.098687877168
 31
0.0
  0
LINE
  5
1271
330
1F
100
AcDbEntity
  8
SANINDUSA
100
AcDbLine
 10
205.4589434150869
 20
1017.098687877168
 30
0.0
 11
205.4653267286179
 21
1017.098687877168
 31
0.0
  0
LWPOLYLINE
  5
1273
330
1F
100
AcDbEntity
  8
SANINDUSA
100
AcDbPolyline
 90
        9
 70
   128
 43
0.0
 10
205.4676089414963
 20
1017.096687877168
 10
205.4676450533567
 20
1017.097078057812
 10
205.4677520011795
 20
1017.097453244032
 10
205.4679256750197
 20
1017.097799017634
 10
205.4681594006891
 20
1017.09810209073
 10
205.4684441962413
 20
1017.098350816392
 10
205.4687691171429
 20
1017.098535636233
 10
205.4691216768659
 20
1017.098649447729
 10
205.4694883267379
 20
1017.098687877168
  0
LINE
  5
1274
330
1F
100
AcDbEntity
  8
SANINDUSA
100
AcDbLine
 10
205.4694883267379
 20
1017.098687877168
 30
0.0
 11
205.4723074046002
 21
1017.098687877168
 31
0.0
  0
LINE
  5
1277
330
1F
100
AcDbEntity
  8
SANINDUSA
100
AcDbLine
 10
205.4676089414963
 20
1017.093784439254
 30
0.0
 11
205.4676089414963
 21
1017.096687877168
 31
0.0
  0
LWPOLYLINE
  5
1279
330
1F
100
AcDbEntity
  8
SANINDUSA
100
AcDbPolyline
 90
        7
 70
   128
 43
0.0
 10
205.4669784921967
 20
1017.091065515893
 10
205.467156267458
 20
1017.091352269153
 10
205.4673112578577
 20
1017.091725714341
 10
205.4674379389398
 20
1017.092172540429
 10
205.4675317953018
 20
1017.092676820812
 10
205.4675894815407
 20
1017.093220580991
 10
205.4676089414963
 20
1017.093784439254
  0
LINE
  5
127A
330
1F
100
AcDbEntity
  8
SANINDUSA
100
AcDbLine
 10
205.4667011861186
 20
1017.090710239731
 30
0.0
 11
205.4669784921967
 21
1017.091065515893
 31
0.0
  0
LWPOLYLINE
  5
127F
330
1F
100
AcDbEntity
  8
SANINDUSA
100
AcDbPolyline
 90
       16
 70
   128
 43
0.0
 10
205.7326672610229
 20
1016.973391298155
 10
205.7301808058131
 20
1016.973321526017
 10
205.7214531883585
 20
1016.972454279702
 10
205.7128487204021
 20
1016.970621547293
 10
205.704528935444
 20
1016.967851095162
 10
205.6969896292256
 20
1016.964375274871
 10
205.689837128201
 20
1016.960115102064
 10
205.6831882449685
 20
1016.955144055718
 10
205.6768486752256
 20
1016.949238139643
 10
205.671188196909
 20
1016.942678322308
 10
205.6661758856815
 20
1016.93536310795
 10
205.6619941449912
 20
1016.927511344567
 10
205.6587205181742
 20
1016.91926946071
 10
205.6571691315631
 20
1016.914025296767
 10
205.6559752131243
 20
1016.908687936124
 10
205.6559752020164
 20
1016.908687877168
  0
LWPOLYLINE
  5
1283
330
1F
100
AcDbEntity
  8
SANINDUSA
100
AcDbPolyline
 90
        4
 70
   128
 43
0.0
 10
205.6559751964319
 20
1016.908687877168
 10
205.6559751853273
 20
1016.908687818211
 10
205.6549004991651
 20
1016.900957874962
 10
205.6545723545377
 20
1016.893684640411
  0
LWPOLYLINE
  5
1285
330
1F
100
AcDbEntity
  8
SANINDUSA
100
AcDbPolyline
 90
        9
 70
   128
 43
0.0
 10
205.6307835117183
 20
1017.086178700796
 10
205.6332735459782
 20
1017.086098000803
 10
205.6357156991775
 20
1017.08585745261
 10
205.6380630109641
 20
1017.085461681738
 10
205.6402703446988
 20
1017.084918298494
 10
205.6422952553911
 20
1017.084237751637
 10
205.6440988058773
 20
1017.083433127455
 10
205.6456463155461
 20
1017.082519898129
 10
205.6469080272149
 20
1017.081515624215
  0
LWPOLYLINE
  5
1288
330
1F
100
AcDbEntity
  8
SANINDUSA
100
AcDbPolyline
 90
        9
 70
   128
 43
0.0
 10
205.639741575883
 20
1017.074265161918
 10
205.6400837651835
 20
1017.0755339009
 10
205.6406290561366
 20
1017.07676488005
 10
205.6413612199555
 20
1017.077921463334
 10
205.6422584661989
 20
1017.078969228866
 10
205.6432940912915
 20
1017.079876993358
 10
205.6444372732679
 20
1017.080617740196
 10
205.6456539890869
 20
1017.081169423493
 10
205.6469080272149
 20
1017.081515624215
  0
LINE
  5
128C
330
1F
100
AcDbEntity
  8
SANINDUSA
100
AcDbLine
 10
207.4087920864641
 20
1016.77565186363
 30
0.0
 11
207.3806994727492
 21
1016.77565186363
 31
0.0
  0
LINE
  5
1292
330
1F
100
AcDbEntity
  8
SANINDUSA
100
AcDbLine
 10
207.5501603764454
 20
1016.739110629063
 30
0.0
 11
207.5512252386893
 21
1016.708616964134
 31
0.0
  0
ARC
  5
1293
330
1F
100
AcDbEntity
  8
SANINDUSA
100
AcDbCircle
 10
207.5522246295164
 20
1016.708651863631
 30
0.0
 40
0.0010000000000001
100
AcDbArc
 50
182.0000000000166
 51
270.0
  0
LWPOLYLINE
  5
1294
330
1F
100
AcDbEntity
  8
SANINDUSA
100
AcDbPolyline
 90
        3
 70
   128
 43
0.0
 10
207.5501603762587
 20
1016.739110635117
 10
207.5493967737226
 20
1016.742608906164
 10
207.5477492441001
 20
1016.7451516901
  0
LINE
  5
1296
330
1F
100
AcDbEntity
  8
SANINDUSA
100
AcDbLine
 10
207.2466699126783
 20
1016.917217332059
 30
0.0
 11
207.1639365457591
 21
1016.917217332059
 31
0.0
  0
LINE
  5
1298
330
1F
100
AcDbEntity
  8
SANINDUSA
100
AcDbLine
 10
207.2466699126783
 20
1016.862651863631
 30
0.0
 11
207.1562589407415
 21
1016.862651863631
 31
0.0
  0
LINE
  5
129B
330
1F
100
AcDbEntity
  8
SANINDUSA
100
AcDbLine
 10
207.1644584415365
 20
1016.92765186363
 30
0.0
 11
207.2502591894871
 21
1016.92765186363
 31
0.0
  0
LINE
  5
129D
330
1F
100
AcDbEntity
  8
SANINDUSA
100
AcDbLine
 10
207.1462589407416
 20
1016.867651863631
 30
0.0
 11
207.1462589407416
 21
1016.91265186363
 31
0.0
  0
ARC
  5
12A3
330
1F
100
AcDbEntity
  8
SANINDUSA
100
AcDbCircle
 10
207.1512589407416
 20
1016.867651863631
 30
0.0
 40
0.005
100
AcDbArc
 50
180.0
 51
270.0
  0
LINE
  5
12A5
330
1F
100
AcDbEntity
  8
SANINDUSA
100
AcDbLine
 10
207.1562589407415
 20
1016.862651863631
 30
0.0
 11
207.1512589407416
 21
1016.862651863631
 31
0.0
  0
LWPOLYLINE
  5
12A6
330
1F
100
AcDbEntity
  8
SANINDUSA
100
AcDbPolyline
 90
        3
 70
   128
 43
0.0
 10
207.1639365457591
 20
1016.917217332059
 10
207.1613544407445
 20
1016.917246121373
 10
207.1562589407415
 20
1016.917448983499
  0
LINE
  5
12AA
330
1F
100
AcDbEntity
  8
SANINDUSA
100
AcDbLine
 10
207.1550615153287
 20
1016.924361964347
 30
0.0
 11
207.1577934622936
 21
1016.931867926945
 31
0.0
  0
ARC
  5
12AB
330
1F
100
AcDbEntity
  8
SANINDUSA
100
AcDbCircle
 10
207.1597599784326
 20
1016.92265186363
 30
0.0
 40
0.005
100
AcDbArc
 50
90.0
 51
159.9999999999963
  0
ARC
  5
12AD
330
1F
100
AcDbEntity
  8
SANINDUSA
100
AcDbCircle
 10
207.1512589407416
 20
1016.91265186363
 30
0.0
 40
0.005
100
AcDbArc
 50
106.3776629886707
 51
180.0
  0
LWPOLYLINE
  5
12AF
330
1F
100
AcDbEntity
  8
SANINDUSA
100
AcDbPolyline
 90
        5
 70
   128
 43
0.0
 10
207.1562589407415
 20
1016.917448983499
 10
207.1536069911414
 20
1016.917563318767
 10
207.1521206516232
 20
1016.917578665058
 10
207.1510810073518
 20
1016.917567239498
 10
207.1498491035284
 20
1016.917448983499
  0
LINE
  5
12B1
330
1F
100
AcDbEntity
  8
SANINDUSA
100
AcDbLine
 10
207.1545396195513
 20
1016.922928067483
 30
0.0
 11
207.1550615153287
 21
1016.924361964347
 31
0.0
  0
ARC
  5
12B2
330
1F
100
AcDbEntity
  8
SANINDUSA
100
AcDbCircle
 10
207.1446379896937
 20
1016.926657359208
 30
0.0
 40
0.0105806375331318
100
AcDbArc
 50
299.5059645673128
 51
339.3619135427413
  0
LINE
  5
12B7
330
1F
100
AcDbEntity
  8
SANINDUSA
100
AcDbLine
 10
207.1597599784326
 20
1016.92765186363
 30
0.0
 11
207.1644584415365
 21
1016.92765186363
 31
0.0
  0
LINE
  5
12BC
330
1F
100
AcDbEntity
  8
SANINDUSA
100
AcDbLine
 10
207.1577934622936
 20
1016.931867926945
 30
0.0
 11
207.1580707683717
 21
1016.932629819132
 31
0.0
  0
ARC
  5
12BD
330
1F
100
AcDbEntity
  8
SANINDUSA
100
AcDbCircle
 10
207.1633996807753
 20
1016.93265186363
 30
0.0
 40
0.005
100
AcDbArc
 50
90.0
 51
159.9999999999963
  0
LINE
  5
12BF
330
1F
100
AcDbEntity
  8
SANINDUSA
100
AcDbLine
 10
207.1580707683717
 20
1016.932629819132
 30
0.0
 11
207.1587012176713
 21
1016.934361964347
 31
0.0
  0
LWPOLYLINE
  5
12C2
330
1F
100
AcDbEntity
  8
SANINDUSA
100
AcDbPolyline
 90
       10
 70
   128
 43
0.0
 10
207.2975649662765
 20
1016.862651863631
 10
207.3025580236594
 20
1016.861926315755
 10
207.3059721263654
 20
1016.86110740204
 10
207.3091966759812
 20
1016.860004772348
 10
207.3122040929527
 20
1016.858637372942
 10
207.3149749518007
 20
1016.857017288053
 10
207.3174193958522
 20
1016.855207131855
 10
207.3194821840148
 20
1016.853274713696
 10
207.3211460324318
 20
1016.851273967827
 10
207.3218133269373
 20
1016.850208974355
  0
LWPOLYLINE
  5
12C3
330
1F
100
AcDbEntity
  8
SANINDUSA
100
AcDbPolyline
 90
        6
 70
   128
 43
0.0
 10
207.3570332966118
 20
1016.86225302634
 10
207.349681127202
 20
1016.862068146885
 10
207.3420029678214
 20
1016.862042136034
 10
207.3339762106191
 20
1016.862189137642
 10
207.3256501600609
 20
1016.862437883883
 10
207.3142745633726
 20
1016.862651863631
  0
LWPOLYLINE
  5
12C5
330
1F
100
AcDbEntity
  8
SANINDUSA
100
AcDbPolyline
 90
        6
 70
   128
 43
0.0
 10
207.3330303236712
 20
1016.834220870981
 10
207.3303046364946
 20
1016.837170494008
 10
207.3218024617097
 20
1016.844956220237
 10
207.3126196475811
 20
1016.852057393497
 10
207.3026587999455
 20
1016.858496535856
 10
207.2948498797861
 20
1016.862644306947
  0
LINE
  5
12C7
330
1F
100
AcDbEntity
  8
SANINDUSA
100
AcDbLine
 10
207.3142745633726
 20
1016.862651863631
 30
0.0
 11
207.2466699126783
 21
1016.862651863631
 31
0.0
  0
LWPOLYLINE
  5
12CE
330
1F
100
AcDbEntity
  8
SANINDUSA
100
AcDbPolyline
 90
        6
 70
   128
 43
0.0
 10
207.3620153884404
 20
1016.788516931614
 10
207.3583835393185
 20
1016.797088157097
 10
207.3541678895232
 20
1016.805431353204
 10
207.3506440540097
 20
1016.811491552648
 10
207.3468209929557
 20
1016.817364588835
 10
207.3438979980844
 20
1016.821392887786
  0
LWPOLYLINE
  5
12D1
330
1F
100
AcDbEntity
  8
SANINDUSA
100
AcDbPolyline
 90
        5
 70
   128
 43
0.0
 10
207.3899324713173
 20
1016.862651863631
 10
207.3813526261888
 20
1016.862635650843
 10
207.3730044244678
 20
1016.862577096846
 10
207.3648825560113
 20
1016.862457521544
 10
207.3570332966118
 20
1016.86225302634
  0
LWPOLYLINE
  5
12D5
330
1F
100
AcDbEntity
  8
SANINDUSA
100
AcDbPolyline
 90
       13
 70
   128
 43
0.0
 10
207.3546731443059
 20
1016.917221949326
 10
207.3458901094828
 20
1016.917264689175
 10
207.3364780954735
 20
1016.917298067918
 10
207.3262160799413
 20
1016.917322043008
 10
207.3154205811665
 20
1016.917335528827
 10
207.3084627206915
 20
1016.917338617922
 10
207.3013446877372
 20
1016.917337654029
 10
207.2940057075719
 20
1016.917332559171
 10
207.2865424764622
 20
1016.917323321302
 10
207.2776406158744
 20
1016.917307160801
 10
207.2686288367138
 20
1016.917285318959
 10
207.2594015410339
 20
1016.917257424028
 10
207.2501310954069
 20
1016.917224072405
  0
LINE
  5
12D8
330
1F
100
AcDbEntity
  8
SANINDUSA
100
AcDbLine
 10
207.2502591894871
 20
1016.92765186363
 30
0.0
 11
207.3622681400292
 21
1016.92765186363
 31
0.0
  0
LINE
  5
12DA
330
1F
100
AcDbEntity
  8
SANINDUSA
100
AcDbLine
 10
207.2501310954069
 20
1016.917224072405
 30
0.0
 11
207.2466699126783
 21
1016.917217332059
 31
0.0
  0
LINE
  5
12E5
330
1F
100
AcDbEntity
  8
SANINDUSA
100
AcDbLine
 10
207.3561754927085
 20
1016.917217683061
 30
0.0
 11
207.3546731443059
 21
1016.917221949326
 31
0.0
  0
LWPOLYLINE
  5
12F2
330
1F
100
AcDbEntity
  8
SANINDUSA
100
AcDbPolyline
 90
       10
 70
   128
 43
0.0
 10
207.7919358508056
 20
1016.775706633839
 10
207.7945905957177
 20
1016.775896127765
 10
207.7971965642623
 20
1016.776436367016
 10
207.7997076007107
 20
1016.777317783119
 10
207.8020792307282
 20
1016.778524764834
 10
207.8042694490836
 20
1016.78003593465
 10
207.8062394636264
 20
1016.781824527414
 10
207.8079543823556
 20
1016.783858864387
 10
207.8093838314114
 20
1016.786102914317
 10
207.8105024930426
 20
1016.788516931614
  0
LWPOLYLINE
  5
12F4
330
1F
100
AcDbEntity
  8
SANINDUSA
100
AcDbPolyline
 90
       33
 70
   128
 43
0.0
 10
207.5862591284028
 20
1016.743722207833
 10
207.5887083882642
 20
1016.743729828096
 10
207.6010808438805
 20
1016.743930989096
 10
207.6122955810273
 20
1016.744341535016
 10
207.6242387483462
 20
1016.745078565686
 10
207.6363545584177
 20
1016.746109631466
 10
207.6490948967967
 20
1016.747502226696
 10
207.6617955752455
 20
1016.749207502866
 10
207.6744751153713
 20
1016.751228302794
 10
207.6870559147304
 20
1016.753555922745
 10
207.6994911691607
 20
1016.75618121529
 10
207.7117882848556
 20
1016.759103529072
 10
207.7239544976543
 20
1016.76232274134
 10
207.7359967298802
 20
1016.765839223194
 10
207.7456666750697
 20
1016.768917227584
 10
207.7538932600405
 20
1016.771785015304
 10
207.7612554420215
 20
1016.774617994374
 10
207.7679576391801
 20
1016.777475670572
 10
207.7741326502977
 20
1016.780396828932
 10
207.7805513940185
 20
1016.783762400192
 10
207.7870372687065
 20
1016.787496160054
 10
207.7935769017054
 20
1016.791617614873
 10
207.7999746476641
 20
1016.79602106831
 10
207.8061886762667
 20
1016.800681202552
 10
207.8121719308698
 20
1016.805563100001
 10
207.8179267542242
 20
1016.810659996375
 10
207.8235126279629
 20
1016.816026187973
 10
207.8288776640153
 20
1016.821617286262
 10
207.8340223818574
 20
1016.82743362918
 10
207.8389500373769
 20
1016.833479266242
 10
207.8429681648237
 20
1016.83884591744
 10
207.8469484821285
 20
1016.844650114763
 10
207.8506746899499
 20
1016.850227748085
  0
LWPOLYLINE
  5
12FB
330
1F
100
AcDbEntity
  8
SANINDUSA
100
AcDbPolyline
 90
        3
 70
   128
 43
0.0
 10
206.1357609745954
 20
1016.893684640411
 10
206.1357784335342
 20
1016.877684631164
 10
206.1358184525154
 20
1016.84389560488
  0
LINE
  5
12FD
330
1F
100
AcDbEntity
  8
SANINDUSA
100
AcDbLine
 10
206.15059175325
 20
1017.074265161918
 30
0.0
 11
206.15059175325
 21
1016.828687877168
 31
0.0
  0
LINE
  5
1300
330
1F
100
AcDbEntity
  8
SANINDUSA
100
AcDbLine
 10
206.3263640899794
 20
1016.751887377963
 30
0.0
 11
206.3263640899794
 21
1017.0789282385
 31
0.0
  0
LINE
  5
1303
330
1F
100
AcDbEntity
  8
SANINDUSA
100
AcDbLine
 10
206.3351666645665
 20
1016.743687877168
 30
0.0
 11
206.3351666645665
 21
1017.096687877168
 31
0.0
  0
LWPOLYLINE
  5
1305
330
1F
100
AcDbEntity
  8
SANINDUSA
100
AcDbPolyline
 90
       11
 70
   128
 43
0.0
 10
206.1225516767323
 20
1016.69610215808
 10
206.1293525173574
 20
1016.702796950702
 10
206.1365600459953
 20
1016.709051671958
 10
206.1468025258021
 20
1016.716673630895
 10
206.1576986841347
 20
1016.723418058837
 10
206.1691277444816
 20
1016.729212315016
 10
206.180968930331
 20
1016.733983758665
 10
206.1934227280633
 20
1016.737770674985
 10
206.2061593053385
 20
1016.740458011605
 10
206.2186206382471
 20
1016.741992037353
 10
206.231166415821
 20
1016.742490451755
  0
ARC
  5
1308
330
1F
100
AcDbEntity
  8
SANINDUSA
100
AcDbCircle
 10
206.2347556926298
 20
1016.583687877168
 30
0.0
 40
0.1499999999999998
100
AcDbArc
 50
89.99999999999674
 51
135.7170370100727
  0
LWPOLYLINE
  5
130A
330
1F
100
AcDbEntity
  8
SANINDUSA
100
AcDbPolyline
 90
       16
 70
   128
 43
0.0
 10
205.8951666645665
 20
1016.598687877089
 10
205.9094883908584
 20
1016.598961397084
 10
205.9237891201235
 20
1016.599782887367
 10
205.943179972778
 20
1016.601787660122
 10
205.9624988038838
 20
1016.604827478918
 10
205.9816522769632
 20
1016.608906363318
 10
206.0005470555387
 20
1016.614028332885
 10
206.0190898031326
 20
1016.620197407181
 10
206.0371871832674
 20
1016.627417605769
 10
206.050483473676
 20
1016.633556783403
 10
206.063484647052
 20
1016.64031515401
 10
206.0761355099801
 20
1016.647690649282
 10
206.0898326980282
 20
1016.656689644396
 10
206.1030042168064
 20
1016.666492269788
 10
206.1155501636894
 20
1016.677075983472
 10
206.1273706360518
 20
1016.68841824346
  0
LWPOLYLINE
  5
130C
330
1F
100
AcDbEntity
  8
SANINDUSA
100
AcDbPolyline
 90
       21
 70
   128
 43
0.0
 10
206.1409256912863
 20
1016.776139109835
 10
206.1379241268574
 20
1016.76871026597
 10
206.1345592777321
 20
1016.761438579704
 10
206.1274424214107
 20
1016.748474810171
 10
206.1192289580215
 20
1016.736116818768
 10
206.1100558140444
 20
1016.724440982962
 10
206.1000599159595
 20
1016.713523680218
 10
206.0886948509986
 20
1016.702815595792
 10
206.0765631631578
 20
1016.692907205576
 10
206.0637780278587
 20
1016.683811934486
 10
206.0504526205231
 20
1016.675543207437
 10
206.0367001165726
 20
1016.668114449343
 10
206.0214348028669
 20
1016.661010871302
 10
206.0057318974244
 20
1016.654802015122
 10
205.9896734921619
 20
1016.649482131873
 10
205.9733416789963
 20
1016.64504547262
 10
205.9568185498443
 20
1016.641486288433
 10
205.9401861966227
 20
1016.638798830379
 10
205.9252325108969
 20
1016.637119357799
 10
205.9102108432269
 20
1016.636112449734
 10
205.8951666645665
 20
1016.635777048707
  0
LWPOLYLINE
  5
130F
330
1F
100
AcDbEntity
  8
SANINDUSA
100
AcDbPolyline
 90
       23
 70
   128
 43
0.0
 10
206.1358051839772
 20
1016.828695053253
 10
206.1351461635336
 20
1016.815752396603
 10
206.1334407551607
 20
1016.803968203237
 10
206.1307098273563
 20
1016.792333903482
 10
206.1270160113786
 20
1016.780963821409
 10
206.1224219384855
 20
1016.769972281088
 10
206.1169825031454
 20
1016.759415646246
 10
206.1107460076594
 20
1016.749260203429
 10
206.1037962031695
 20
1016.739551606292
 10
206.0962168408176
 20
1016.730335508491
 10
206.0880916717456
 20
1016.721657563679
 10
206.0763747235242
 20
1016.71080892756
 10
206.0638650127078
 20
1016.700881446668
 10
206.0505001089718
 20
1016.691762150762
 10
206.0365033460132
 20
1016.683551253424
 10
206.0219846416418
 20
1016.67624685897
 10
206.0070539136678
 20
1016.669847071715
 10
205.9918210799011
 20
1016.664349995973
 10
205.9730031115494
 20
1016.658858575731
 10
205.9538075305735
 20
1016.654602838105
 10
205.9343554922401
 20
1016.651573955241
 10
205.9147681518155
 20
1016.649763099284
 10
205.8951666645665
 20
1016.649161442377
  0
LWPOLYLINE
  5
1317
330
1F
100
AcDbEntity
  8
SANINDUSA
100
AcDbPolyline
 90
        7
 70
   128
 43
0.0
 10
206.15059175325
 20
1016.828687877168
 10
206.1503201751529
 20
1016.819805216208
 10
206.1495543030845
 20
1016.811334232921
 10
206.1483008673322
 20
1016.802921474922
 10
206.1465414458142
 20
1016.794483044062
 10
206.1443029577254
 20
1016.786158720583
 10
206.1409256912863
 20
1016.776139109835
  0
LINE
  5
131B
330
1F
100
AcDbEntity
  8
SANINDUSA
100
AcDbLine
 10
206.1358184525154
 20
1016.84389560488
 30
0.0
 11
206.1358051839772
 21
1016.828695053253
 31
0.0
  0
ARC
  5
131F
330
1F
100
AcDbEntity
  8
SANINDUSA
100
AcDbCircle
 10
206.3251666645665
 20
1016.743687877168
 30
0.0
 40
0.01
100
AcDbArc
 50
269.9999999999968
 51
0.0
  0
LINE
  5
1322
330
1F
100
AcDbEntity
  8
SANINDUSA
100
AcDbLine
 10
206.2347556926298
 20
1016.733687877168
 30
0.0
 11
206.3251666645665
 21
1016.733687877168
 31
0.0
  0
LINE
  5
1327
330
1F
100
AcDbEntity
  8
SANINDUSA
100
AcDbLine
 10
206.231166415821
 20
1016.742490451755
 30
0.0
 11
206.3169671637715
 21
1016.742490451755
 31
0.0
  0
LWPOLYLINE
  5
1331
330
1F
100
AcDbEntity
  8
SANINDUSA
100
AcDbPolyline
 90
        9
 70
   128
 43
0.0
 10
206.3169671637715
 20
1016.742490451755
 10
206.3187666401495
 20
1016.742755379588
 10
206.3204863828974
 20
1016.743341441637
 10
206.3220697748093
 20
1016.744229343625
 10
206.3234646876086
 20
1016.745389854126
 10
206.3246251981096
 20
1016.746784766925
 10
206.3255131000969
 20
1016.748368158837
 10
206.3260991621464
 20
1016.750087901585
 10
206.3263640899794
 20
1016.751887377963
  0
LINE
  5
1344
330
1F
100
AcDbEntity
  8
SANINDUSA
100
AcDbLine
 10
206.3189336799105
 20
1017.086178700796
 30
0.0
 11
206.1595498174148
 21
1017.086178700796
 31
0.0
  0
LWPOLYLINE
  5
1347
330
1F
100
AcDbEntity
  8
SANINDUSA
100
AcDbPolyline
 90
        6
 70
   128
 43
0.0
 10
205.8951666645665
 20
1016.972932049131
 10
205.9024279977713
 20
1016.972934968284
 10
205.9764519166564
 20
1016.97318202256
 10
206.0170583637356
 20
1016.973343918645
 10
206.0373630776961
 20
1016.973451105275
 10
206.0576660681102
 20
1016.973391298155
  0
LWPOLYLINE
  5
134B
330
1F
100
AcDbEntity
  8
SANINDUSA
100
AcDbPolyline
 90
       15
 70
   128
 43
0.0
 10
205.9339345598823
 20
1016.908687877168
 10
205.9339345599111
 20
1016.908687937168
 10
205.9337551472618
 20
1016.9126269838
 10
205.9332153136319
 20
1016.916532927455
 10
205.9314970863249
 20
1016.922951002248
 10
205.9287524964399
 20
1016.928994464805
 10
205.925474311513
 20
1016.933723885106
 10
205.9214339806183
 20
1016.93782549876
 10
205.9187386400157
 20
1016.93989186882
 10
205.9126918034501
 20
1016.943395438429
 10
205.9061795580466
 20
1016.945925220385
 10
205.901329690812
 20
1016.947065828201
 10
205.8963732675059
 20
1016.947574176098
 10
205.8951667245665
 20
1016.947594555514
 10
205.8951666645665
 20
1016.947594555533
  0
LWPOLYLINE
  5
134E
330
1F
100
AcDbEntity
  8
SANINDUSA
100
AcDbPolyline
 90
       20
 70
   128
 43
0.0
 10
205.8951666645665
 20
1016.932687877168
 10
205.8999006586948
 20
1016.932216355648
 10
205.9037756519173
 20
1016.931088104061
 10
205.9074088672761
 20
1016.929330756638
 10
205.9107006753226
 20
1016.926979310863
 10
205.9135538701968
 20
1016.924112230286
 10
205.915875924906
 20
1016.920812771261
 10
205.9176165950665
 20
1016.917173195108
 10
205.9187736639795
 20
1016.912995414115
 10
205.9191666622673
 20
1016.908677371726
 10
205.9191319882032
 20
1016.907398201631
 10
205.918572991719
 20
1016.903393745421
 10
205.9173542556349
 20
1016.899538516393
 10
205.9155011780398
 20
1016.895944585491
 10
205.9130748926591
 20
1016.892709912135
 10
205.9101368711976
 20
1016.889932160173
 10
205.9067769068873
 20
1016.88768306169
 10
205.9030858034493
 20
1016.886034592677
 10
205.8991715381064
 20
1016.88502438233
 10
205.8951666645665
 20
1016.884687877168
  0
LWPOLYLINE
  5
134F
330
1F
100
AcDbEntity
  8
SANINDUSA
100
AcDbPolyline
 90
       13
 70
   128
 43
0.0
 10
205.8951666645665
 20
1016.869627613963
 10
205.8951667245665
 20
1016.869627614021
 10
205.9002623064941
 20
1016.869972405828
 10
205.905267456553
 20
1016.870987477124
 10
205.9114246373765
 20
1016.873258206596
 10
205.9171129525827
 20
1016.876531792888
 10
205.9221693557111
 20
1016.880725377891
 10
205.9264598065178
 20
1016.885700478818
 10
205.9298575393644
 20
1016.891323536494
 10
205.9322780806715
 20
1016.897430921111
 10
205.9335160906339
 20
1016.902998850435
 10
205.933934559856
 20
1016.908687817168
 10
205.9339345598854
 20
1016.908687877168
  0
CIRCLE
  5
1356
330
1F
100
AcDbEntity
  8
SANINDUSA
100
AcDbCircle
 10
205.8951666645665
 20
1017.028687877168
 30
0.0
 40
0.0174999999999999
  0
LWPOLYLINE
  5
1359
330
1F
100
AcDbEntity
  8
SANINDUSA
100
AcDbPolyline
 90
       16
 70
   128
 43
0.0
 10
206.0576660681102
 20
1016.973391298155
 10
206.0601525233199
 20
1016.973321526017
 10
206.0688801407745
 20
1016.972454279702
 10
206.077484608731
 20
1016.970621547293
 10
206.0858043936891
 20
1016.967851095162
 10
206.0933436999074
 20
1016.964375274871
 10
206.1004962009321
 20
1016.960115102064
 10
206.1071450841645
 20
1016.955144055718
 10
206.1134846539074
 20
1016.949238139643
 10
206.1191451322241
 20
1016.942678322308
 10
206.1241574434515
 20
1016.93536310795
 10
206.1283391841419
 20
1016.927511344567
 10
206.1316128109589
 20
1016.91926946071
 10
206.1331641975699
 20
1016.914025296767
 10
206.1343581160087
 20
1016.908687936124
 10
206.1343581271166
 20
1016.908687877168
  0
LWPOLYLINE
  5
1360
330
1F
100
AcDbEntity
  8
SANINDUSA
100
AcDbPolyline
 90
        4
 70
   128
 43
0.0
 10
206.1343581327011
 20
1016.908687877168
 10
206.1343581438057
 20
1016.908687818211
 10
206.1354328299679
 20
1016.900957874962
 10
206.1357609745954
 20
1016.893684640411
  0
LWPOLYLINE
  5
1365
330
1F
100
AcDbEntity
  8
SANINDUSA
100
AcDbPolyline
 90
        9
 70
   128
 43
0.0
 10
206.1595498174148
 20
1017.086178700796
 10
206.1570597831548
 20
1017.086098000803
 10
206.1546176299556
 20
1017.08585745261
 10
206.152270318169
 20
1017.085461681738
 10
206.1500629844343
 20
1017.084918298494
 10
206.148038073742
 20
1017.084237751637
 10
206.1462345232558
 20
1017.083433127455
 10
206.144687013587
 20
1017.082519898129
 10
206.1434253019182
 20
1017.081515624215
  0
LWPOLYLINE
  5
1366
330
1F
100
AcDbEntity
  8
SANINDUSA
100
AcDbPolyline
 90
        9
 70
   128
 43
0.0
 10
206.15059175325
 20
1017.074265161918
 10
206.1502495639496
 20
1017.0755339009
 10
206.1497042729965
 20
1017.07676488005
 10
206.1489721091775
 20
1017.077921463334
 10
206.1480748629342
 20
1017.078969228866
 10
206.1470392378416
 20
1017.079876993358
 10
206.1458960558652
 20
1017.080617740196
 10
206.1446793400462
 20
1017.081169423493
 10
206.1434253019182
 20
1017.081515624215
  0
LWPOLYLINE
  5
136A
330
1F
100
AcDbEntity
  8
SANINDUSA
100
AcDbPolyline
 90
        8
 70
   128
 43
0.0
 10
206.3263640899794
 20
1017.0789282385
 10
206.326302086822
 20
1017.081025889388
 10
206.3261177023312
 20
1017.083068564953
 10
206.3258157688636
 20
1017.085002730667
 10
206.3254041995041
 20
1017.086777695834
 10
206.32489378068
 20
1017.088346942091
 10
206.3242978894694
 20
1017.089669342566
 10
206.3236321430145
 20
1017.090710239731
  0
LWPOLYLINE
  5
136B
330
1F
100
AcDbEntity
  8
SANINDUSA
100
AcDbPolyline
 90
        9
 70
   128
 43
0.0
 10
206.3236321430145
 20
1017.090710239731
 10
206.3234360527193
 20
1017.08989838029
 10
206.3230973376597
 20
1017.08911223868
 10
206.322626727546
 20
1017.088376718049
 10
206.322039130219
 20
1017.087715117992
 10
206.3213531594036
 20
1017.087148396469
 10
206.3205905450701
 20
1017.086694505908
 10
206.3197754450778
 20
1017.086367824513
 10
206.3189336799105
 20
1017.086178700796
  0
LINE
  5
1374
330
1F
100
AcDbEntity
  8
SANINDUSA
100
AcDbLine
 10
206.3313899140462
 20
1017.098687877168
 30
0.0
 11
206.3250066005152
 21
1017.098687877168
 31
0.0
  0
LINE
  5
1375
330
1F
100
AcDbEntity
  8
SANINDUSA
100
AcDbLine
 10
206.3208450023952
 20
1017.098687877168
 30
0.0
 11
206.3180259245328
 21
1017.098687877168
 31
0.0
  0
LWPOLYLINE
  5
1376
330
1F
100
AcDbEntity
  8
SANINDUSA
100
AcDbPolyline
 90
        9
 70
   128
 43
0.0
 10
206.3227243876367
 20
1017.096687877168
 10
206.3226882757763
 20
1017.097078057812
 10
206.3225813279536
 20
1017.097453244032
 10
206.3224076541134
 20
1017.097799017634
 10
206.3221739284439
 20
1017.09810209073
 10
206.3218891328918
 20
1017.098350816392
 10
206.3215642119902
 20
1017.098535636233
 10
206.3212116522672
 20
1017.098649447729
 10
206.3208450023952
 20
1017.098687877168
  0
LINE
  5
137A
330
1F
100
AcDbEntity
  8
SANINDUSA
100
AcDbLine
 10
206.3227243876367
 20
1017.093784439254
 30
0.0
 11
206.3227243876367
 21
1017.096687877168
 31
0.0
  0
LWPOLYLINE
  5
137C
330
1F
100
AcDbEntity
  8
SANINDUSA
100
AcDbPolyline
 90
        7
 70
   128
 43
0.0
 10
206.3233548369364
 20
1017.091065515893
 10
206.3231770616751
 20
1017.091352269153
 10
206.3230220712754
 20
1017.091725714341
 10
206.3228953901932
 20
1017.092172540429
 10
206.3228015338312
 20
1017.092676820812
 10
206.3227438475923
 20
1017.093220580991
 10
206.3227243876367
 20
1017.093784439254
  0
LINE
  5
137F
330
1F
100
AcDbEntity
  8
SANINDUSA
100
AcDbLine
 10
206.3250066005152
 20
1017.098687877168
 30
0.0
 11
206.3208450023952
 21
1017.098687877168
 31
0.0
  0
LINE
  5
1380
330
1F
100
AcDbEntity
  8
SANINDUSA
100
AcDbLine
 10
206.3236321430145
 20
1017.090710239731
 30
0.0
 11
206.3233548369364
 21
1017.091065515893
 31
0.0
  0
ARC
  5
1383
330
1F
100
AcDbEntity
  8
SANINDUSA
100
AcDbCircle
 10
206.3331666645666
 20
1017.096687877168
 30
0.0
 40
0.0020000000000002
100
AcDbArc
 50
0.0
 51
90.0
  0
LINE
  5
1384
330
1F
100
AcDbEntity
  8
SANINDUSA
100
AcDbLine
 10
206.3331666645666
 20
1017.098687877168
 30
0.0
 11
206.3313899140462
 21
1017.098687877168
 31
0.0
  0
LINE
  5
1386
330
1F
100
AcDbEntity
  8
SANINDUSA
100
AcDbLine
 10
207.6212926427937
 20
1016.708616964134
 30
0.0
 11
207.6223575054318
 21
1016.73911064035
 31
0.0
  0
ARC
  5
1387
330
1F
100
AcDbEntity
  8
SANINDUSA
100
AcDbCircle
 10
207.6202932519667
 20
1016.708651863631
 30
0.0
 40
0.0010000000000001
100
AcDbArc
 50
270.0
 51
357.9999999999964
  0
LWPOLYLINE
  5
1389
330
1F
100
AcDbEntity
  8
SANINDUSA
100
AcDbPolyline
 90
        3
 70
   128
 43
0.0
 10
207.6223575052245
 20
1016.739110635117
 10
207.6231211077605
 20
1016.742608906164
 10
207.6247494159769
 20
1016.745122023937
  0
LINE
  5
138A
330
1F
100
AcDbEntity
  8
SANINDUSA
100
AcDbLine
 10
207.7636802078485
 20
1016.77565186363
 30
0.0
 11
207.7918184087339
 21
1016.77565186363
 31
0.0
  0
LWPOLYLINE
  5
138E
330
1F
100
AcDbEntity
  8
SANINDUSA
100
AcDbPolyline
 90
       13
 70
   128
 43
0.0
 10
207.8178447371771
 20
1016.917221949326
 10
207.8266277720002
 20
1016.917264689175
 10
207.8360397860096
 20
1016.917298067918
 10
207.8463018015417
 20
1016.917322043008
 10
207.8570973003166
 20
1016.917335528827
 10
207.8640551607916
 20
1016.917338617922
 10
207.8711731937458
 20
1016.917337654029
 10
207.8785121739112
 20
1016.917332559171
 10
207.8859754050208
 20
1016.917323321302
 10
207.8948772656087
 20
1016.917307160801
 10
207.9038890447693
 20
1016.917285318959
 10
207.9131163404492
 20
1016.917257424028
 10
207.9223867860762
 20
1016.917224072405
  0
LINE
  5
1392
330
1F
100
AcDbEntity
  8
SANINDUSA
100
AcDbLine
 10
207.922258691996
 20
1016.92765186363
 30
0.0
 11
207.8102497414539
 21
1016.92765186363
 31
0.0
  0
LINE
  5
1394
330
1F
100
AcDbEntity
  8
SANINDUSA
100
AcDbLine
 10
207.8582433181105
 20
1016.862651863631
 30
0.0
 11
207.9258479688049
 21
1016.862651863631
 31
0.0
  0
LWPOLYLINE
  5
1398
330
1F
100
AcDbEntity
  8
SANINDUSA
100
AcDbPolyline
 90
       16
 70
   128
 43
0.0
 10
207.5862589407416
 20
1016.917217332073
 10
207.5946160945489
 20
1016.917217438035
 10
207.6143995313274
 20
1016.917217783037
 10
207.6341648706649
 20
1016.917218004265
 10
207.6538178491497
 20
1016.917218110158
 10
207.6732642033698
 20
1016.917218109151
 10
207.6924096699137
 20
1016.917218009685
 10
207.7111599853693
 20
1016.917217820196
 10
207.7259780914267
 20
1016.917217753945
 10
207.7405251368719
 20
1016.917217857844
 10
207.7547245190384
 20
1016.917218025651
 10
207.7684996352596
 20
1016.917218151125
 10
207.7817738828688
 20
1016.917218128025
 10
207.7944706591994
 20
1016.917217850109
 10
207.8056989978482
 20
1016.917217496014
 10
207.8163423887745
 20
1016.917217683061
  0
LINE
  5
1399
330
1F
100
AcDbEntity
  8
SANINDUSA
100
AcDbLine
 10
207.5862589407416
 20
1016.862651863631
 30
0.0
 11
207.7825854101658
 21
1016.862651863631
 31
0.0
  0
LWPOLYLINE
  5
139E
330
1F
100
AcDbEntity
  8
SANINDUSA
100
AcDbPolyline
 90
        5
 70
   128
 43
0.0
 10
207.7825854101658
 20
1016.862651863631
 10
207.7911652552943
 20
1016.862635650843
 10
207.7995134570153
 20
1016.862577096846
 10
207.8076353254717
 20
1016.862457521544
 10
207.8154845848713
 20
1016.86225302634
  0
LWPOLYLINE
  5
139F
330
1F
100
AcDbEntity
  8
SANINDUSA
100
AcDbPolyline
 90
        6
 70
   128
 43
0.0
 10
207.8105024930426
 20
1016.788516931614
 10
207.8141343421645
 20
1016.797088157097
 10
207.8183499919599
 20
1016.805431353204
 10
207.8218738274734
 20
1016.811491552648
 10
207.8256968885273
 20
1016.817364588835
 10
207.8284882065835
 20
1016.821211418574
  0
LWPOLYLINE
  5
13A4
330
1F
100
AcDbEntity
  8
SANINDUSA
100
AcDbPolyline
 90
        6
 70
   128
 43
0.0
 10
207.8395810154758
 20
1016.8343220069
 10
207.8422132449885
 20
1016.837170494008
 10
207.8507154197734
 20
1016.844956220237
 10
207.8598982339019
 20
1016.852057393497
 10
207.8698590815375
 20
1016.858496535856
 10
207.8776743726667
 20
1016.862647690939
  0
LWPOLYLINE
  5
13A6
330
1F
100
AcDbEntity
  8
SANINDUSA
100
AcDbPolyline
 90
        6
 70
   128
 43
0.0
 10
207.8154845848713
 20
1016.86225302634
 10
207.8228367542811
 20
1016.862068146885
 10
207.8305149136617
 20
1016.862042136034
 10
207.838541670864
 20
1016.862189137642
 10
207.8468677214222
 20
1016.862437883883
 10
207.8582433181105
 20
1016.862651863631
  0
LWPOLYLINE
  5
13A7
330
1F
100
AcDbEntity
  8
SANINDUSA
100
AcDbPolyline
 90
       11
 70
   128
 43
0.0
 10
207.8506885300627
 20
1016.850221341792
 10
207.850882889709
 20
1016.850565286562
 10
207.8522861027093
 20
1016.852437554206
 10
207.8540147695532
 20
1016.854249851023
 10
207.8560666604145
 20
1016.855975206544
 10
207.8584242706227
 20
1016.857575963081
 10
207.8610504099825
 20
1016.859006044111
 10
207.8639343915177
 20
1016.860241437162
 10
207.8670635504284
 20
1016.86125342911
 10
207.8703712142056
 20
1016.86200297834
 10
207.8751387405258
 20
1016.862651863631
  0
LINE
  5
13B2
330
1F
100
AcDbEntity
  8
SANINDUSA
100
AcDbLine
 10
207.8163423887745
 20
1016.917217683061
 30
0.0
 11
207.8178447371771
 21
1016.917221949326
 31
0.0
  0
LINE
  5
13BB
330
1F
100
AcDbEntity
  8
SANINDUSA
100
AcDbLine
 10
208.0262589407416
 20
1016.867651863631
 30
0.0
 11
208.0262589407416
 21
1016.91265186363
 31
0.0
  0
LINE
  5
13BE
330
1F
100
AcDbEntity
  8
SANINDUSA
100
AcDbLine
 10
207.9258479688049
 20
1016.862651863631
 30
0.0
 11
208.0162589407415
 21
1016.862651863631
 31
0.0
  0
LINE
  5
13C1
330
1F
100
AcDbEntity
  8
SANINDUSA
100
AcDbLine
 10
208.0162589407415
 20
1016.862651863631
 30
0.0
 11
208.0212589407416
 21
1016.862651863631
 31
0.0
  0
ARC
  5
13C3
330
1F
100
AcDbEntity
  8
SANINDUSA
100
AcDbCircle
 10
208.0212589407416
 20
1016.867651863631
 30
0.0
 40
0.005
100
AcDbArc
 50
270.0
 51
0.0
  0
LINE
  5
13C5
330
1F
100
AcDbEntity
  8
SANINDUSA
100
AcDbLine
 10
207.9258479688049
 20
1016.917217332059
 30
0.0
 11
208.0085813357239
 21
1016.917217332059
 31
0.0
  0
LINE
  5
13C8
330
1F
100
AcDbEntity
  8
SANINDUSA
100
AcDbLine
 10
208.0080594399465
 20
1016.92765186363
 30
0.0
 11
207.922258691996
 21
1016.92765186363
 31
0.0
  0
LINE
  5
13C9
330
1F
100
AcDbEntity
  8
SANINDUSA
100
AcDbLine
 10
207.9223867860762
 20
1016.917224072405
 30
0.0
 11
207.9258479688049
 21
1016.917217332059
 31
0.0
  0
LWPOLYLINE
  5
13D0
330
1F
100
AcDbEntity
  8
SANINDUSA
100
AcDbPolyline
 90
        5
 70
   128
 43
0.0
 10
208.0162589407415
 20
1016.917448983499
 10
208.0189108903416
 20
1016.917563318767
 10
208.0203972298599
 20
1016.917578665058
 10
208.0214368741314
 20
1016.917567239498
 10
208.0226687779547
 20
1016.917448983499
  0
ARC
  5
13D2
330
1F
100
AcDbEntity
  8
SANINDUSA
100
AcDbCircle
 10
208.0278798917894
 20
1016.926657359208
 30
0.0
 40
0.0105806375331303
100
AcDbArc
 50
200.6380864572586
 51
240.4940354326945
  0
LWPOLYLINE
  5
13D4
330
1F
100
AcDbEntity
  8
SANINDUSA
100
AcDbPolyline
 90
        3
 70
   128
 43
0.0
 10
208.008581335724
 20
1016.917217332059
 10
208.0111634407386
 20
1016.917246121373
 10
208.0162589407415
 20
1016.917448983499
  0
LINE
  5
13DC
330
1F
100
AcDbEntity
  8
SANINDUSA
100
AcDbLine
 10
208.0179782619318
 20
1016.922928067483
 30
0.0
 11
208.0174563661544
 21
1016.924361964347
 31
0.0
  0
ARC
  5
13DD
330
1F
100
AcDbEntity
  8
SANINDUSA
100
AcDbCircle
 10
208.0127579030505
 20
1016.92265186363
 30
0.0
 40
0.005
100
AcDbArc
 50
20.00000000000371
 51
90.0
  0
LINE
  5
13DF
330
1F
100
AcDbEntity
  8
SANINDUSA
100
AcDbLine
 10
208.0127579030505
 20
1016.92765186363
 30
0.0
 11
208.0080594399465
 21
1016.92765186363
 31
0.0
  0
LINE
  5
13E2
330
1F
100
AcDbEntity
  8
SANINDUSA
100
AcDbLine
 10
208.0174563661544
 20
1016.924361964347
 30
0.0
 11
208.0147244191894
 21
1016.931867926945
 31
0.0
  0
LINE
  5
13E5
330
1F
100
AcDbEntity
  8
SANINDUSA
100
AcDbLine
 10
208.0147244191894
 20
1016.931867926945
 30
0.0
 11
208.0144471131114
 21
1016.932629819132
 31
0.0
  0
ARC
  5
13E7
330
1F
100
AcDbEntity
  8
SANINDUSA
100
AcDbCircle
 10
208.0091182007078
 20
1016.93265186363
 30
0.0
 40
0.0050000000000001
100
AcDbArc
 50
20.00000000000371
 51
90.0
  0
LINE
  5
13E8
330
1F
100
AcDbEntity
  8
SANINDUSA
100
AcDbLine
 10
208.0144471131114
 20
1016.932629819132
 30
0.0
 11
208.0138166638117
 21
1016.934361964347
 31
0.0
  0
ARC
  5
13E9
330
1F
100
AcDbEntity
  8
SANINDUSA
100
AcDbCircle
 10
208.0212589407416
 20
1016.91265186363
 30
0.0
 40
0.005
100
AcDbArc
 50
0.0
 51
73.62233701132923
  0
LINE
  5
13F4
330
1F
100
AcDbEntity
  8
SANINDUSA
100
AcDbLine
 10
206.4736067112511
 20
1016.77765186363
 30
0.0
 11
206.4736067112511
 21
1016.78919307415
 31
0.0
  0
LWPOLYLINE
  5
13F5
330
1F
100
AcDbEntity
  8
SANINDUSA
100
AcDbPolyline
 90
        4
 70
   128
 43
0.0
 10
206.6528866860482
 20
1016.790115485396
 10
206.6047413224135
 20
1016.785760539604
 10
206.556561025416
 20
1016.781150665537
 10
206.5057949486672
 20
1016.776322605954
  0
LWPOLYLINE
  5
13F7
330
1F
100
AcDbEntity
  8
SANINDUSA
100
AcDbPolyline
 90
       14
 70
   128
 43
0.0
 10
206.8296311756923
 20
1016.743788693769
 10
206.8425615092131
 20
1016.747086081534
 10
206.8550284188214
 20
1016.75144185015
 10
206.8669802174171
 20
1016.756806380002
 10
206.8783652179003
 20
1016.763130051473
 10
206.8891317331707
 20
1016.770363244948
 10
206.8992280761285
 20
1016.77845634081
 10
206.9086025596735
 20
1016.787359719443
 10
206.9165175584013
 20
1016.796190582128
 10
206.9237427509563
 20
1016.80562239342
 10
206.9302383251104
 20
1016.81561693358
 10
206.9359644686354
 20
1016.826135982869
 10
206.9408813693034
 20
1016.837141321548
 10
206.9449492148861
 20
1016.848594729878
  0
LINE
  5
13F8
330
1F
100
AcDbEntity
  8
SANINDUSA
100
AcDbLine
 10
206.823606711251
 20
1016.748682615776
 30
0.0
 11
206.823606711251
 21
1016.852874542345
 31
0.0
  0
LWPOLYLINE
  5
1404
330
1F
100
AcDbEntity
  8
SANINDUSA
100
AcDbPolyline
 90
       15
 70
   128
 43
0.0
 10
206.8167410836898
 20
1016.77285837697
 10
206.8146415263265
 20
1016.772021837131
 10
206.8087414701096
 20
1016.769754420332
 10
206.8026696160323
 20
1016.767547462211
 10
206.7963910811634
 20
1016.765396870914
 10
206.7895361561514
 20
1016.763198135548
 10
206.7818350542975
 20
1016.760911083268
 10
206.773053674367
 20
1016.758538735066
 10
206.7663921529766
 20
1016.756903891497
 10
206.7589952516079
 20
1016.755250575547
 10
206.7507426094226
 20
1016.753604310336
 10
206.7415406777975
 20
1016.752012651485
 10
206.7313597075321
 20
1016.750543724581
 10
206.7203803870234
 20
1016.749299194632
 10
206.7090406680269
 20
1016.748379352433
  0
LINE
  5
1406
330
1F
100
AcDbEntity
  8
SANINDUSA
100
AcDbLine
 10
208.4475249136449
 20
1016.91765186363
 30
0.0
 11
208.2456430543933
 21
1016.91765186363
 31
0.0
  0
LWPOLYLINE
  5
1407
330
1F
100
AcDbEntity
  8
SANINDUSA
100
AcDbPolyline
 90
       15
 70
   128
 43
0.0
 10
208.3174930239312
 20
1016.758216193568
 10
208.3174929639312
 20
1016.758216193565
 10
208.3135539172995
 20
1016.758213391888
 10
208.3096479736436
 20
1016.758219060369
 10
208.3032298988511
 20
1016.75828462328
 10
208.2971864362943
 20
1016.758401845463
 10
208.2924570159931
 20
1016.758515302993
 10
208.2883554023386
 20
1016.758658279569
 10
208.2862890322787
 20
1016.758765006526
 10
208.2827854626704
 20
1016.759050114464
 10
208.2802556807139
 20
1016.759384262251
 10
208.2791150728978
 20
1016.759586369778
 10
208.2786067250008
 20
1016.759687694325
 10
208.2785863455847
 20
1016.759691703568
 10
208.2785863455655
 20
1016.759691703577
  0
LINE
  5
140C
330
1F
100
AcDbEntity
  8
SANINDUSA
100
AcDbLine
 10
208.3424930239312
 20
1016.70765186363
 30
0.0
 11
208.2924930239312
 21
1016.70765186363
 31
0.0
  0
LINE
  5
140E
330
1F
100
AcDbEntity
  8
SANINDUSA
100
AcDbLine
 10
208.5993887901223
 20
1016.92765186363
 30
0.0
 11
208.1472526625992
 21
1016.92765186363
 31
0.0
  0
ARC
  5
141D
330
1F
100
AcDbEntity
  8
SANINDUSA
100
AcDbCircle
 10
208.1519157391808
 20
1016.92565186363
 30
0.0
 40
0.008
100
AcDbArc
 50
205.0000000000066
 51
270.0
  0
LINE
  5
141F
330
1F
100
AcDbEntity
  8
SANINDUSA
100
AcDbLine
 10
208.1274930239312
 20
1016.93565186363
 30
0.0
 11
208.1274930239312
 21
1016.85965186363
 31
0.0
  0
ARC
  5
1423
330
1F
100
AcDbEntity
  8
SANINDUSA
100
AcDbCircle
 10
208.1519157391808
 20
1016.92565186363
 30
0.0
 40
0.0190000000000001
100
AcDbArc
 50
231.600878615292
 51
270.0
  0
LINE
  5
1424
330
1F
100
AcDbEntity
  8
SANINDUSA
100
AcDbLine
 10
208.1394930239312
 20
1016.86865186363
 30
0.0
 11
208.1486711202521
 21
1016.86865186363
 31
0.0
  0
LINE
  5
1426
330
1F
100
AcDbEntity
  8
SANINDUSA
100
AcDbLine
 10
208.1294930239312
 20
1016.85765186363
 30
0.0
 11
208.1550854384702
 21
1016.85765186363
 31
0.0
  0
LINE
  5
1427
330
1F
100
AcDbEntity
  8
SANINDUSA
100
AcDbLine
 10
208.1506711629593
 20
1016.77565186363
 30
0.0
 11
208.1294930239312
 21
1016.77565186363
 31
0.0
  0
LINE
  5
1429
330
1F
100
AcDbEntity
  8
SANINDUSA
100
AcDbLine
 10
208.1274930239312
 20
1016.851678041309
 30
0.0
 11
208.1274930239312
 21
1016.77765186363
 31
0.0
  0
LWPOLYLINE
  5
142A
330
1F
100
AcDbEntity
  8
SANINDUSA
100
AcDbPolyline
 90
        8
 70
   128
 43
0.0
 10
208.1294930239312
 20
1016.77565186363
 10
208.1289222883769
 20
1016.775735027454
 10
208.1284184705517
 20
1016.775965051538
 10
208.1279927662127
 20
1016.776329280258
 10
208.1276577460006
 20
1016.776857033512
 10
208.127495579932
 20
1016.777550782128
 10
208.1274930379557
 20
1016.777644373776
 10
208.1274930239312
 20
1016.77765186363
  0
LINE
  5
142D
330
1F
100
AcDbEntity
  8
SANINDUSA
100
AcDbLine
 10
208.1274930239312
 20
1016.851678041309
 30
0.0
 11
208.1274930239312
 21
1016.85965186363
 31
0.0
  0
ARC
  5
142E
330
1F
100
AcDbEntity
  8
SANINDUSA
100
AcDbCircle
 10
208.1294930239312
 20
1016.85965186363
 30
0.0
 40
0.0020000000000002
100
AcDbArc
 50
180.0
 51
270.0
  0
ARC
  5
142F
330
1F
100
AcDbEntity
  8
SANINDUSA
100
AcDbCircle
 10
208.1394930239312
 20
1016.909977803983
 30
0.0
 40
0.001
100
AcDbArc
 50
51.60087861529196
 51
180.0
  0
ARC
  5
1430
330
1F
100
AcDbEntity
  8
SANINDUSA
100
AcDbCircle
 10
208.1394930239312
 20
1016.86965186363
 30
0.0
 40
0.001
100
AcDbArc
 50
180.0
 51
270.0
  0
LINE
  5
1431
330
1F
100
AcDbEntity
  8
SANINDUSA
100
AcDbLine
 10
208.1384930239312
 20
1016.909977803983
 30
0.0
 11
208.1384930239312
 21
1016.86965186363
 31
0.0
  0
LINE
  5
1436
330
1F
100
AcDbEntity
  8
SANINDUSA
100
AcDbLine
 10
208.233037475094
 20
1016.905651863631
 30
0.0
 11
208.2506251946109
 21
1016.739043989848
 31
0.0
  0
LINE
  5
1437
330
1F
100
AcDbEntity
  8
SANINDUSA
100
AcDbLine
 10
208.2254654312694
 20
1016.901176764849
 30
0.0
 11
208.2424942500675
 21
1016.739863338725
 31
0.0
  0
LWPOLYLINE
  5
1438
330
1F
100
AcDbEntity
  8
SANINDUSA
100
AcDbPolyline
 90
       15
 70
   128
 43
0.0
 10
208.2753361610969
 20
1016.750178669254
 10
208.2730593833182
 20
1016.75129307818
 10
208.2691913353577
 20
1016.753797831826
 10
208.2657256234948
 20
1016.756897398128
 10
208.2628166862333
 20
1016.760441455841
 10
208.2604991859449
 20
1016.764334219478
 10
208.2588288647643
 20
1016.76843745644
 10
208.2578083263579
 20
1016.772620537674
 10
208.2574467200474
 20
1016.775451779949
 10
208.2572181232782
 20
1016.777625552217
 10
208.2569846972467
 20
1016.779834107561
 10
208.2567518543601
 20
1016.782041621832
 10
208.2565193518516
 20
1016.784248068265
 10
208.2518625910507
 20
1016.828364779165
 10
208.2482695023999
 20
1016.862403193871
  0
LWPOLYLINE
  5
1439
330
1F
100
AcDbEntity
  8
SANINDUSA
100
AcDbPolyline
 90
       10
 70
   128
 43
0.0
 10
208.2785863455655
 20
1016.759691703577
 10
208.2756026617261
 20
1016.761490349524
 10
208.2729532786543
 20
1016.763808331559
 10
208.2700218460144
 20
1016.767724886037
 10
208.268176543432
 20
1016.772060140353
 10
208.2673944135609
 20
1016.776473246425
 10
208.2669294377401
 20
1016.78088393446
 10
208.2664643064684
 20
1016.785295864843
 10
208.2618073379936
 20
1016.829414544968
 10
208.2582142462559
 20
1016.863452988917
  0
LINE
  5
143C
330
1F
100
AcDbEntity
  8
SANINDUSA
100
AcDbLine
 10
208.1632487135818
 20
1016.775906407378
 30
0.0
 11
208.2385014145435
 21
1016.777687334973
 31
0.0
  0
LINE
  5
143E
330
1F
100
AcDbEntity
  8
SANINDUSA
100
AcDbLine
 10
208.1543119168336
 20
1016.775694854793
 30
0.0
 11
208.1598981075675
 21
1016.775826207635
 31
0.0
  0
ARC
  5
143F
330
1F
100
AcDbEntity
  8
SANINDUSA
100
AcDbCircle
 10
208.1506700768254
 20
1016.929925962878
 30
0.0
 40
0.1542740992513083
100
AcDbArc
 50
270.0004033787652
 51
271.3526667648368
  0
LWPOLYLINE
  5
1440
330
1F
100
AcDbEntity
  8
SANINDUSA
100
AcDbPolyline
 90
        3
 70
   128
 43
0.0
 10
208.1598981075675
 20
1016.775826207635
 10
208.1615735786256
 20
1016.775866643295
 10
208.1632487135818
 20
1016.775906407378
  0
ARC
  5
1441
330
1F
100
AcDbEntity
  8
SANINDUSA
100
AcDbCircle
 10
208.2884930238312
 20
1016.745267260647
 30
0.0
 40
0.0050000001000205
100
AcDbArc
 50
0.0
 51
50.09434432497373
  0
ARC
  5
1442
330
1F
100
AcDbEntity
  8
SANINDUSA
100
AcDbCircle
 10
208.2713216928703
 20
1016.74101984592
 30
0.0
 40
0.0099999999999998
100
AcDbArc
 50
2.000000000068824
 51
66.33134244572296
  0
ARC
  5
1443
330
1F
100
AcDbEntity
  8
SANINDUSA
100
AcDbCircle
 10
208.2705146807625
 20
1016.741143594722
 30
0.0
 40
0.02
100
AcDbArc
 50
186.0260283155259
 51
265.6960923234771
  0
ARC
  5
1445
330
1F
100
AcDbEntity
  8
SANINDUSA
100
AcDbCircle
 10
208.2723284792949
 20
1016.743012746035
 30
0.0
 40
0.03
100
AcDbArc
 50
186.0260283155259
 51
265.6960923234771
  0
LINE
  5
1451
330
1F
100
AcDbEntity
  8
SANINDUSA
100
AcDbLine
 10
208.2934930239312
 20
1016.71843014025
 30
0.0
 11
208.2934930239312
 21
1016.708651863631
 31
0.0
  0
ARC
  5
1452
330
1F
100
AcDbEntity
  8
SANINDUSA
100
AcDbCircle
 10
208.2924930239312
 20
1016.71843014025
 30
0.0
 40
0.001
100
AcDbArc
 50
0.0
 51
85.69609232347383
  0
ARC
  5
1453
330
1F
100
AcDbEntity
  8
SANINDUSA
100
AcDbCircle
 10
208.2924930239312
 20
1016.708651863631
 30
0.0
 40
0.001
100
AcDbArc
 50
270.0
 51
0.0
  0
LINE
  5
1454
330
1F
100
AcDbEntity
  8
SANINDUSA
100
AcDbLine
 10
208.2924930239312
 20
1016.70765186363
 30
0.0
 11
208.2833876356382
 21
1016.70765186363
 31
0.0
  0
ARC
  5
1455
330
1F
100
AcDbEntity
  8
SANINDUSA
100
AcDbCircle
 10
208.2833876356382
 20
1016.708651863631
 30
0.0
 40
0.001
100
AcDbArc
 50
190.8251853540098
 51
270.0
  0
ARC
  5
1456
330
1F
100
AcDbEntity
  8
SANINDUSA
100
AcDbCircle
 10
208.2774944069034
 20
1016.707524985163
 30
0.0
 40
0.0050000000000001
100
AcDbArc
 50
10.82518535395682
 51
85.69609232347383
  0
LINE
  5
1457
330
1F
100
AcDbEntity
  8
SANINDUSA
100
AcDbLine
 10
208.2700770772001
 20
1016.713097345509
 30
0.0
 11
208.2778696405859
 21
1016.712510885251
 31
0.0
  0
ARC
  5
1458
330
1F
100
AcDbEntity
  8
SANINDUSA
100
AcDbCircle
 10
208.2924930239312
 20
1016.730464075737
 30
0.0
 40
0.001
100
AcDbArc
 50
265.6960923234576
 51
0.0
  0
LINE
  5
1459
330
1F
100
AcDbEntity
  8
SANINDUSA
100
AcDbLine
 10
208.2817030663564
 20
1016.730273288824
 30
0.0
 11
208.2924179771947
 21
1016.729466895719
 31
0.0
  0
LINE
  5
1460
330
1F
100
AcDbEntity
  8
SANINDUSA
100
AcDbLine
 10
208.2934930239312
 20
1016.745267260638
 30
0.0
 11
208.2934930239312
 21
1016.730464075737
 31
0.0
  0
LINE
  5
1461
330
1F
100
AcDbEntity
  8
SANINDUSA
100
AcDbLine
 10
208.2817030663564
 20
1016.730273288824
 30
0.0
 11
208.2813156011405
 21
1016.741368840887
 31
0.0
  0
LINE
  5
1463
330
1F
100
AcDbEntity
  8
SANINDUSA
100
AcDbLine
 10
208.2690137460326
 20
1016.721199994371
 30
0.0
 11
208.2925680706677
 21
1016.719427320267
 31
0.0
  0
LWPOLYLINE
  5
1466
330
1F
100
AcDbEntity
  8
SANINDUSA
100
AcDbPolyline
 90
        3
 70
   128
 43
0.0
 10
208.2785863455655
 20
1016.759691703577
 10
208.2796292966782
 20
1016.75910164139
 10
208.2806077563799
 20
1016.758379729755
  0
LINE
  5
1467
330
1F
100
AcDbEntity
  8
SANINDUSA
100
AcDbLine
 10
208.2806077563799
 20
1016.758379729755
 30
0.0
 11
208.2917006506725
 21
1016.749102769876
 31
0.0
  0
LINE
  5
1468
330
1F
100
AcDbEntity
  8
SANINDUSA
100
AcDbLine
 10
208.2452930543933
 20
1016.91765186363
 30
0.0
 11
208.2159930239312
 21
1016.91765186363
 31
0.0
  0
LINE
  5
1469
330
1F
100
AcDbEntity
  8
SANINDUSA
100
AcDbLine
 10
208.1634672325692
 20
1016.901087642344
 30
0.0
 11
208.1600664119607
 21
1016.862216084917
 31
0.0
  0
ARC
  5
1470
330
1F
100
AcDbEntity
  8
SANINDUSA
100
AcDbCircle
 10
208.1550854384702
 20
1016.862651863631
 30
0.0
 40
0.0050000000000003
100
AcDbArc
 50
270.0
 51
355.0000000000003
  0
LINE
  5
1473
330
1F
100
AcDbEntity
  8
SANINDUSA
100
AcDbLine
 10
208.2159930239312
 20
1016.905651863631
 30
0.0
 11
208.1789930239312
 21
1016.905651863631
 31
0.0
  0
LINE
  5
1474
330
1F
100
AcDbEntity
  8
SANINDUSA
100
AcDbLine
 10
208.1789930239312
 20
1016.91765186363
 30
0.0
 11
208.2159930239312
 21
1016.91765186363
 31
0.0
  0
ARC
  5
1476
330
1F
100
AcDbEntity
  8
SANINDUSA
100
AcDbCircle
 10
208.1522001292504
 20
1016.905651863631
 30
0.0
 40
0.001
100
AcDbArc
 50
342.8953648233591
 51
90.0
  0
ARC
  5
1477
330
1F
100
AcDbEntity
  8
SANINDUSA
100
AcDbCircle
 10
208.1486711202521
 20
1016.86965186363
 30
0.0
 40
0.001
100
AcDbArc
 50
270.0
 51
355.0000000000003
  0
LINE
  5
1478
330
1F
100
AcDbEntity
  8
SANINDUSA
100
AcDbLine
 10
208.1522001292504
 20
1016.90665186363
 30
0.0
 11
208.1519157391808
 21
1016.90665186363
 31
0.0
  0
ARC
  5
1479
330
1F
100
AcDbEntity
  8
SANINDUSA
100
AcDbCircle
 10
208.1684482060597
 20
1016.90065186363
 30
0.0
 40
0.0160000000000001
100
AcDbArc
 50
162.895364823359
 51
175.0000000000002
  0
LINE
  5
147A
330
1F
100
AcDbEntity
  8
SANINDUSA
100
AcDbLine
 10
208.1525090908902
 20
1016.902046355514
 30
0.0
 11
208.1496673149502
 21
1016.869564707888
 31
0.0
  0
ARC
  5
147B
330
1F
100
AcDbEntity
  8
SANINDUSA
100
AcDbCircle
 10
208.1789930239312
 20
1016.91665186363
 30
0.0
 40
0.0010000000000002
100
AcDbArc
 50
0.0
 51
90.0
  0
LINE
  5
147C
330
1F
100
AcDbEntity
  8
SANINDUSA
100
AcDbLine
 10
208.1799930239312
 20
1016.91665186363
 30
0.0
 11
208.1799930239312
 21
1016.90665186363
 31
0.0
  0
ARC
  5
147D
330
1F
100
AcDbEntity
  8
SANINDUSA
100
AcDbCircle
 10
208.1789930239312
 20
1016.90665186363
 30
0.0
 40
0.0010000000000002
100
AcDbArc
 50
270.0
 51
0.0
  0
LINE
  5
147E
330
1F
100
AcDbEntity
  8
SANINDUSA
100
AcDbLine
 10
208.1789930239312
 20
1016.905651863631
 30
0.0
 11
208.1684482060597
 21
1016.905651863631
 31
0.0
  0
ARC
  5
147F
330
1F
100
AcDbEntity
  8
SANINDUSA
100
AcDbCircle
 10
208.1684482060597
 20
1016.90065186363
 30
0.0
 40
0.0050000000000001
100
AcDbArc
 50
90.0
 51
175.0000000000002
  0
LINE
  5
1482
330
1F
100
AcDbEntity
  8
SANINDUSA
100
AcDbLine
 10
208.1789930239312
 20
1016.91765186363
 30
0.0
 11
208.1519157391808
 21
1016.91765186363
 31
0.0
  0
ARC
  5
1483
330
1F
100
AcDbEntity
  8
SANINDUSA
100
AcDbCircle
 10
208.2204930597315
 20
1016.90065186363
 30
0.0
 40
0.005
100
AcDbArc
 50
6.026028315525913
 51
90.0
  0
LINE
  5
1484
330
1F
100
AcDbEntity
  8
SANINDUSA
100
AcDbLine
 10
208.2204930597315
 20
1016.905651863631
 30
0.0
 11
208.2159930239312
 21
1016.905651863631
 31
0.0
  0
LINE
  5
1485
330
1F
100
AcDbEntity
  8
SANINDUSA
100
AcDbLine
 10
208.2149930239312
 20
1016.90665186363
 30
0.0
 11
208.2149930239312
 21
1016.91665186363
 31
0.0
  0
ARC
  5
1486
330
1F
100
AcDbEntity
  8
SANINDUSA
100
AcDbCircle
 10
208.2159930239312
 20
1016.90665186363
 30
0.0
 40
0.001
100
AcDbArc
 50
180.0
 51
270.0
  0
ARC
  5
1487
330
1F
100
AcDbEntity
  8
SANINDUSA
100
AcDbCircle
 10
208.2159930239312
 20
1016.91665186363
 30
0.0
 40
0.001
100
AcDbArc
 50
90.0
 51
180.0
  0
LWPOLYLINE
  5
148B
330
1F
100
AcDbEntity
  8
SANINDUSA
100
AcDbPolyline
 90
       21
 70
   128
 43
0.0
 10
208.2452251825771
 20
1016.891242960114
 10
208.2452331239766
 20
1016.891162822833
 10
208.2452787324277
 20
1016.890702875852
 10
208.2453632339601
 20
1016.889851505356
 10
208.2454848701912
 20
1016.888627514112
 10
208.2456399490179
 20
1016.887070639345
 10
208.2458249140736
 20
1016.885220543467
 10
208.2460347582842
 20
1016.883133754021
 10
208.2462646617131
 20
1016.880866225251
 10
208.2465086958012
 20
1016.878484947707
 10
208.2467609583388
 20
1016.8760562949
 10
208.2470147789547
 20
1016.873649538372
 10
208.2472632575733
 20
1016.871333709695
 10
208.2474992096079
 20
1016.86917269964
 10
208.2477150798454
 20
1016.867230707867
 10
208.247903997386
 20
1016.865558887588
 10
208.2480588197069
 20
1016.864209129884
 10
208.2481743091032
 20
1016.863214543927
 10
208.2482452500942
 20
1016.862608925645
 10
208.2482695023999
 20
1016.862403193871
 10
208.2482695023999
 20
1016.862403193871
  0
ARC
  5
148C
330
1F
100
AcDbEntity
  8
SANINDUSA
100
AcDbCircle
 10
208.2492639770976
 20
1016.862508170419
 30
0.0
 40
0.001
100
AcDbArc
 50
96.02602831552916
 51
186.0258154247516
  0
ARC
  5
148E
330
1F
100
AcDbEntity
  8
SANINDUSA
100
AcDbCircle
 10
208.2452930543933
 20
1016.90965186363
 30
0.0
 40
0.0079999999999999
100
AcDbArc
 50
6.025815897619665
 51
90.0
  0
LINE
  5
148F
330
1F
100
AcDbEntity
  8
SANINDUSA
100
AcDbLine
 10
208.2437041816108
 20
1016.905651863631
 30
0.0
 11
208.233037475094
 21
1016.905651863631
 31
0.0
  0
ARC
  5
1490
330
1F
100
AcDbEntity
  8
SANINDUSA
100
AcDbCircle
 10
208.246219657275
 20
1016.89134793666
 30
0.0
 40
0.001
100
AcDbArc
 50
186.0258153020049
 51
276.0260283155291
  0
ARC
  5
1491
330
1F
100
AcDbEntity
  8
SANINDUSA
100
AcDbCircle
 10
208.2541754517357
 20
1016.89218777861
 30
0.0
 40
0.001
100
AcDbArc
 50
276.0260283155291
 51
6.025815302044542
  0
LINE
  5
1492
330
1F
100
AcDbEntity
  8
SANINDUSA
100
AcDbLine
 10
208.2542804319793
 20
1016.891193304302
 30
0.0
 11
208.2463246375187
 21
1016.890353462353
 31
0.0
  0
ARC
  5
1493
330
1F
100
AcDbEntity
  8
SANINDUSA
100
AcDbCircle
 10
208.2572197715583
 20
1016.863348012369
 30
0.0
 40
0.001
100
AcDbArc
 50
6.025815424869544
 51
96.02602831552916
  0
LINE
  5
1494
330
1F
100
AcDbEntity
  8
SANINDUSA
100
AcDbLine
 10
208.2491589968539
 20
1016.863502644727
 30
0.0
 11
208.2571147913146
 21
1016.864342486677
 31
0.0
  0
LWPOLYLINE
  5
1496
330
1F
100
AcDbEntity
  8
SANINDUSA
100
AcDbPolyline
 90
       21
 70
   128
 43
0.0
 10
208.2582142462559
 20
1016.863452988917
 10
208.2582142462559
 20
1016.863452988918
 10
208.2581899690846
 20
1016.863659031971
 10
208.2581189342613
 20
1016.864265728944
 10
208.2580034768023
 20
1016.86526044576
 10
208.257848674948
 20
1016.866610491251
 10
208.257659826117
 20
1016.868282154343
 10
208.2574439690112
 20
1016.870224406053
 10
208.2572080656341
 20
1016.872385224428
 10
208.2569595977663
 20
1016.874701057236
 10
208.2567057710846
 20
1016.877107821861
 10
208.2564535101708
 20
1016.879536271854
 10
208.2562094276831
 20
1016.881917728474
 10
208.2559795110132
 20
1016.884185031897
 10
208.2557696125849
 20
1016.886271984061
 10
208.2555846263957
 20
1016.888121933802
 10
208.2554295191938
 20
1016.88967878458
 10
208.2553078798436
 20
1016.890902563643
 10
208.255223393931
 20
1016.891753608506
 10
208.2551778277259
 20
1016.892213038629
 10
208.2551699264335
 20
1016.892292755156
  0
LINE
  5
1498
330
1F
100
AcDbEntity
  8
SANINDUSA
100
AcDbLine
 10
208.2452251825771
 20
1016.891242960114
 30
0.0
 11
208.2437041816108
 21
1016.905651863631
 31
0.0
  0
LINE
  5
1499
330
1F
100
AcDbEntity
  8
SANINDUSA
100
AcDbLine
 10
208.2551699264335
 20
1016.892292755156
 30
0.0
 11
208.2532488519675
 21
1016.910491676084
 31
0.0
  0
LINE
  5
149D
330
1F
100
AcDbEntity
  8
SANINDUSA
100
AcDbLine
 10
208.1446652768845
 20
1016.922270917536
 30
0.0
 11
208.139646924141
 21
1016.933032809724
 31
0.0
  0
ARC
  5
149E
330
1F
100
AcDbEntity
  8
SANINDUSA
100
AcDbCircle
 10
208.1472526625992
 20
1016.93565186363
 30
0.0
 40
0.0080000000000001
100
AcDbArc
 50
205.0000000000066
 51
270.0
  0
ARC
  5
14A1
330
1F
100
AcDbEntity
  8
SANINDUSA
100
AcDbCircle
 10
208.1294930239312
 20
1016.93565186363
 30
0.0
 40
0.0020000000000002
100
AcDbArc
 50
90.0
 51
180.0
  0
LINE
  5
14A2
330
1F
100
AcDbEntity
  8
SANINDUSA
100
AcDbLine
 10
208.1323964618448
 20
1016.93765186363
 30
0.0
 11
208.1294930239312
 21
1016.93765186363
 31
0.0
  0
ARC
  5
14A3
330
1F
100
AcDbEntity
  8
SANINDUSA
100
AcDbCircle
 10
208.1323964618448
 20
1016.92965186363
 30
0.0
 40
0.008
100
AcDbArc
 50
24.99999999999207
 51
90.0
  0
LINE
  5
14A7
330
1F
100
AcDbEntity
  8
SANINDUSA
100
AcDbLine
 10
206.5846151018634
 20
1016.777687334973
 30
0.0
 11
206.6235630402992
 21
1016.778609075422
 31
0.0
  0
LWPOLYLINE
  5
14A8
330
1F
100
AcDbEntity
  8
SANINDUSA
100
AcDbPolyline
 90
       10
 70
   128
 43
0.0
 10
206.6342447603543
 20
1016.744491374101
 10
206.627395427866
 20
1016.745987592347
 10
206.6208442908584
 20
1016.748459472559
 10
206.6167185958212
 20
1016.750745115665
 10
206.6128873911973
 20
1016.753526622186
 10
206.6094514362399
 20
1016.756754993434
 10
206.6055379216662
 20
1016.76178999096
 10
206.6025934418656
 20
1016.76744349477
 10
206.5999055633392
 20
1016.775497338705
 10
206.5993469202159
 20
1016.778035977633
  0
ARC
  5
14AA
330
1F
100
AcDbEntity
  8
SANINDUSA
100
AcDbCircle
 10
206.6184421666148
 20
1016.743012746035
 30
0.0
 40
0.0300000000000004
100
AcDbArc
 50
186.0260283155259
 51
265.6960923234739
  0
LINE
  5
14AB
330
1F
100
AcDbEntity
  8
SANINDUSA
100
AcDbLine
 10
206.5093624009016
 20
1016.775906407378
 30
0.0
 11
206.5846151018634
 21
1016.777687334973
 31
0.0
  0
LINE
  5
14AC
330
1F
100
AcDbEntity
  8
SANINDUSA
100
AcDbLine
 10
206.4914270048403
 20
1016.77565186363
 30
0.0
 11
206.4756067112511
 21
1016.77565186363
 31
0.0
  0
ARC
  5
14AD
330
1F
100
AcDbEntity
  8
SANINDUSA
100
AcDbCircle
 10
206.4756067112511
 20
1016.77765186363
 30
0.0
 40
0.0020000000000002
100
AcDbArc
 50
180.0
 51
270.0
  0
LINE
  5
14B0
330
1F
100
AcDbEntity
  8
SANINDUSA
100
AcDbLine
 10
206.5093624009016
 20
1016.775906407378
 30
0.0
 11
206.4914270048403
 21
1016.77565186363
 31
0.0
  0
LINE
  5
14B1
330
1F
100
AcDbEntity
  8
SANINDUSA
100
AcDbLine
 10
206.504883972911
 20
1016.776240389869
 30
0.0
 11
206.4956086388235
 21
1016.775711210454
 31
0.0
  0
LINE
  5
14B4
330
1F
100
AcDbEntity
  8
SANINDUSA
100
AcDbLine
 10
206.5886079373874
 20
1016.739863338725
 30
0.0
 11
206.5846151018634
 21
1016.777687334973
 31
0.0
  0
LWPOLYLINE
  5
14B5
330
1F
100
AcDbEntity
  8
SANINDUSA
100
AcDbPolyline
 90
       13
 70
   128
 43
0.0
 10
206.6636075635868
 20
1016.748715720358
 10
206.6636076235868
 20
1016.748715720362
 10
206.6711938060389
 20
1016.74871018692
 10
206.6785675901749
 20
1016.748696777445
 10
206.6855350888447
 20
1016.748673882822
 10
206.6918926902032
 20
1016.748633572198
 10
206.6974524041492
 20
1016.748576104249
 10
206.7020674431018
 20
1016.748511496152
 10
206.7055843663273
 20
1016.748450919564
 10
206.7079163190669
 20
1016.748404413114
 10
206.7087574709774
 20
1016.74838594458
 10
206.7090406680268
 20
1016.748379352433
 10
206.7090406680269
 20
1016.748379352433
  0
LINE
  5
14B8
330
1F
100
AcDbEntity
  8
SANINDUSA
100
AcDbLine
 10
206.6976410224762
 20
1016.70765186363
 30
0.0
 11
206.629501322958
 21
1016.70765186363
 31
0.0
  0
LINE
  5
14B9
330
1F
100
AcDbEntity
  8
SANINDUSA
100
AcDbLine
 10
206.6411936731737
 20
1016.716006916605
 30
0.0
 11
206.6411547650326
 21
1016.739505315038
 31
0.0
  0
LINE
  5
14BB
330
1F
100
AcDbEntity
  8
SANINDUSA
100
AcDbLine
 10
206.6239833279058
 20
1016.712510885251
 30
0.0
 11
206.6312338193254
 21
1016.711965220767
 31
0.0
  0
ARC
  5
14C0
330
1F
100
AcDbEntity
  8
SANINDUSA
100
AcDbCircle
 10
206.6236080942233
 20
1016.707524985163
 30
0.0
 40
0.0050000000000002
100
AcDbArc
 50
10.83781200658862
 51
85.69609232347058
  0
ARC
  5
14C1
330
1F
100
AcDbEntity
  8
SANINDUSA
100
AcDbCircle
 10
206.629501322958
 20
1016.708651863631
 30
0.0
 40
0.0010000000000001
100
AcDbArc
 50
190.8226444355795
 51
270.0000000004397
  0
LINE
  5
14C3
330
1F
100
AcDbEntity
  8
SANINDUSA
100
AcDbLine
 10
206.6312338193254
 20
1016.711965220767
 30
0.0
 11
206.6343147575548
 21
1016.712096168067
 31
0.0
  0
LINE
  5
14C4
330
1F
100
AcDbEntity
  8
SANINDUSA
100
AcDbLine
 10
206.6239833279058
 20
1016.712510885251
 30
0.0
 11
206.61619076452
 21
1016.713097345509
 31
0.0
  0
LWPOLYLINE
  5
14C8
330
1F
100
AcDbEntity
  8
SANINDUSA
100
AcDbPolyline
 90
        8
 70
   128
 43
0.0
 10
206.6343147575548
 20
1016.712096168067
 10
206.6345770598598
 20
1016.712135406896
 10
206.6381516549469
 20
1016.713090396793
 10
206.6401470465724
 20
1016.714168134328
 10
206.6406961967572
 20
1016.714679534479
 10
206.6409947983272
 20
1016.715108570013
 10
206.6411721662431
 20
1016.715604431345
 10
206.6411936731737
 20
1016.716006916605
  0
LWPOLYLINE
  5
14CB
330
1F
100
AcDbEntity
  8
SANINDUSA
100
AcDbPolyline
 90
        6
 70
   128
 43
0.0
 10
206.6235630402992
 20
1016.778609075422
 10
206.6299855177551
 20
1016.77861992636
 10
206.6364156121709
 20
1016.778308924343
 10
206.6423146835773
 20
1016.777667766956
 10
206.6478540769862
 20
1016.776653641999
 10
206.6510964057741
 20
1016.775808778583
  0
LWPOLYLINE
  5
14CC
330
1F
100
AcDbEntity
  8
SANINDUSA
100
AcDbPolyline
 90
        9
 70
   128
 43
0.0
 10
206.6347777011013
 20
1016.749195921138
 10
206.6361912957616
 20
1016.749132610397
 10
206.6400643937829
 20
1016.748982342386
 10
206.6443079240656
 20
1016.74885387734
 10
206.6488255128191
 20
1016.748763352899
 10
206.6536332180747
 20
1016.748721044895
 10
206.65859598331
 20
1016.748712958017
 10
206.663607504476
 20
1016.748715720353
 10
206.663607564476
 20
1016.748715720358
  0
LWPOLYLINE
  5
14CE
330
1F
100
AcDbEntity
  8
SANINDUSA
100
AcDbPolyline
 90
        9
 70
   128
 43
0.0
 10
206.6347777011013
 20
1016.749195921138
 10
206.6347870012759
 20
1016.749018870985
 10
206.634771906317
 20
1016.748694528722
 10
206.6347328860632
 20
1016.748232989675
 10
206.6346711550407
 20
1016.747648619493
 10
206.6345886346605
 20
1016.746959607009
 10
206.6344878934133
 20
1016.746187398104
 10
206.6343720669242
 20
1016.74535602819
 10
206.6342447603543
 20
1016.744491374101
  0
LWPOLYLINE
  5
14D1
330
1F
100
AcDbEntity
  8
SANINDUSA
100
AcDbPolyline
 90
        7
 70
   128
 43
0.0
 10
206.6411547650326
 20
1016.739505315038
 10
206.6410936410269
 20
1016.740060747814
 10
206.6407285591996
 20
1016.74097244545
 10
206.6396743251365
 20
1016.742198058164
 10
206.6383546739231
 20
1016.743112418815
 10
206.6363629239494
 20
1016.743985980504
 10
206.6342447603543
 20
1016.744491374101
  0
LINE
  5
14D2
330
1F
100
AcDbEntity
  8
SANINDUSA
100
AcDbLine
 10
206.6636067112511
 20
1016.762956579994
 30
0.0
 11
206.6636067112511
 21
1016.750640182632
 31
0.0
  0
LWPOLYLINE
  5
14DB
330
1F
100
AcDbEntity
  8
SANINDUSA
100
AcDbPolyline
 90
        6
 70
   128
 43
0.0
 10
206.6636067112511
 20
1016.767343753349
 10
206.6630294344708
 20
1016.769284767368
 10
206.6612445882642
 20
1016.771226592634
 10
206.6583947465889
 20
1016.773018799528
 10
206.6543891211598
 20
1016.77473190035
 10
206.6510964057741
 20
1016.775808778583
  0
LINE
  5
14DF
330
1F
100
AcDbEntity
  8
SANINDUSA
100
AcDbLine
 10
206.6986404133033
 20
1016.708616964134
 30
0.0
 11
206.6996926551525
 21
1016.738749228244
 31
0.0
  0
ARC
  5
14E0
330
1F
100
AcDbEntity
  8
SANINDUSA
100
AcDbCircle
 10
206.6976410224762
 20
1016.708651863631
 30
0.0
 40
0.0010000000000001
100
AcDbArc
 50
270.0
 51
357.9999999999964
  0
ARC
  5
14E1
330
1F
100
AcDbEntity
  8
SANINDUSA
100
AcDbCircle
 10
206.7096865634227
 20
1016.738400233277
 30
0.0
 40
0.0100000000000005
100
AcDbArc
 50
93.70328596908658
 51
177.9999999999964
  0
ARC
  5
14F1
330
1F
100
AcDbEntity
  8
SANINDUSA
100
AcDbCircle
 10
208.628609271314
 20
1016.926348268959
 30
0.0
 40
0.0100000000000003
100
AcDbArc
 50
200.0000000000037
 51
245.9364398051888
  0
ARC
  5
14F2
330
1F
100
AcDbEntity
  8
SANINDUSA
100
AcDbCircle
 10
208.583215902208
 20
1016.92555361638
 30
0.0
 40
0.0080000000000001
100
AcDbArc
 50
276.3527289085882
 51
333.9607813397853
  0
ARC
  5
14FD
330
1F
100
AcDbEntity
  8
SANINDUSA
100
AcDbCircle
 10
208.4724930239312
 20
1016.768219472595
 30
0.0
 40
0.0050000000000001
100
AcDbArc
 50
0.0
 51
111.9085053416943
  0
LWPOLYLINE
  5
14FE
330
1F
100
AcDbEntity
  8
SANINDUSA
100
AcDbPolyline
 90
       28
 70
   128
 43
0.0
 10
208.5770194587222
 20
1016.910379640962
 10
208.5755265677004
 20
1016.899100102574
 10
208.5730762396517
 20
1016.887782750588
 10
208.5696341511088
 20
1016.876526823327
 10
208.5651809117238
 20
1016.865436589014
 10
208.5597274003978
 20
1016.854626511413
 10
208.5532881573655
 20
1016.844212287526
 10
208.5463307577583
 20
1016.834858871817
 10
208.5385565042693
 20
1016.826049612443
 10
208.5300202721908
 20
1016.817872062447
 10
208.5207777538033
 20
1016.810411162459
 10
208.5108904826001
 20
1016.80373190918
 10
208.5004011509663
 20
1016.797785436468
 10
208.4893367789486
 20
1016.792126181154
 10
208.4776600552241
 20
1016.786681960674
 10
208.4652855190065
 20
1016.781493191652
 10
208.4521158038865
 20
1016.776586926751
 10
208.4470370691767
 20
1016.774857809043
 10
208.4415612420292
 20
1016.773092015094
 10
208.4355378362788
 20
1016.771266888249
 10
208.4288594643241
 20
1016.769384095976
 10
208.4213685355119
 20
1016.767451000409
 10
208.4128859096067
 20
1016.765480704886
 10
208.4037825479436
 20
1016.763620779209
 10
208.3934488735491
 20
1016.761823883743
 10
208.3818443288442
 20
1016.760193710486
 10
208.3692952873247
 20
1016.758886093693
 10
208.3565532871363
 20
1016.758036373722
  0
LWPOLYLINE
  5
14FF
330
1F
100
AcDbEntity
  8
SANINDUSA
100
AcDbPolyline
 90
       20
 70
   128
 43
0.0
 10
208.4475249136449
 20
1016.91765186363
 10
208.4574548628673
 20
1016.91765176308
 10
208.467096365835
 20
1016.917651406972
 10
208.4763964871641
 20
1016.917650713623
 10
208.488998015153
 20
1016.917649011833
 10
208.5008680430489
 20
1016.917646515589
 10
208.5119477266124
 20
1016.91764334798
 10
208.5221782216043
 20
1016.917639632093
 10
208.532343622305
 20
1016.917635145614
 10
208.5415768140366
 20
1016.917630410397
 10
208.5498743862261
 20
1016.917625643963
 10
208.5572329283004
 20
1016.917621063835
 10
208.5636490296865
 20
1016.917616887534
 10
208.5684891440843
 20
1016.917613614549
 10
208.5726614637596
 20
1016.917610680173
 10
208.5771612574303
 20
1016.91760753069
 10
208.5805359998934
 20
1016.917605219265
 10
208.5827931720977
 20
1016.91760368701
 10
208.5839402549919
 20
1016.917602875042
 10
208.584101094207
 20
1016.917602740005
  0
LWPOLYLINE
  5
1501
330
1F
100
AcDbEntity
  8
SANINDUSA
100
AcDbPolyline
 90
       15
 70
   128
 43
0.0
 10
208.4706273963699
 20
1016.77285837697
 10
208.4685278390066
 20
1016.772021837131
 10
208.4626277827898
 20
1016.769754420332
 10
208.4565559287125
 20
1016.767547462211
 10
208.4502773938435
 20
1016.765396870914
 10
208.4434224688315
 20
1016.763198135548
 10
208.4357213669777
 20
1016.760911083268
 10
208.4269399870471
 20
1016.758538735066
 10
208.4202784656568
 20
1016.756903891497
 10
208.4128815642881
 20
1016.755250575547
 10
208.4046289221028
 20
1016.753604310336
 10
208.3954269904776
 20
1016.752012651485
 10
208.3852460202122
 20
1016.750543724581
 10
208.3742666997035
 20
1016.749299194632
 10
208.362926980707
 20
1016.748379352433
  0
ARC
  5
1503
330
1F
100
AcDbEntity
  8
SANINDUSA
100
AcDbCircle
 10
208.3635728761028
 20
1016.738400233277
 30
0.0
 40
0.0100000000000002
100
AcDbArc
 50
93.70328596908331
 51
177.9999999999964
  0
ARC
  5
1504
330
1F
100
AcDbEntity
  8
SANINDUSA
100
AcDbCircle
 10
208.346493025969
 20
1016.745559415964
 30
0.0
 40
0.0050000020378204
100
AcDbArc
 50
130.7891611653435
 51
180.0
  0
LINE
  5
1505
330
1F
100
AcDbEntity
  8
SANINDUSA
100
AcDbLine
 10
208.3515273351564
 20
1016.70765186363
 30
0.0
 11
208.3424930239312
 21
1016.70765186363
 31
0.0
  0
ARC
  5
1506
330
1F
100
AcDbEntity
  8
SANINDUSA
100
AcDbCircle
 10
208.3424930239312
 20
1016.708651863631
 30
0.0
 40
0.0010000000000002
100
AcDbArc
 50
180.0
 51
270.0
  0
LINE
  5
1507
330
1F
100
AcDbEntity
  8
SANINDUSA
100
AcDbLine
 10
208.3414930239312
 20
1016.708651863631
 30
0.0
 11
208.3414930239312
 21
1016.745559415669
 31
0.0
  0
ARC
  5
1508
330
1F
100
AcDbEntity
  8
SANINDUSA
100
AcDbCircle
 10
208.3515273351564
 20
1016.708651863631
 30
0.0
 40
0.001
100
AcDbArc
 50
270.0
 51
357.9999999997226
  0
LINE
  5
1509
330
1F
100
AcDbEntity
  8
SANINDUSA
100
AcDbLine
 10
208.3535789678327
 20
1016.738749228244
 30
0.0
 11
208.3525267259834
 21
1016.708616964134
 31
0.0
  0
LINE
  5
150A
330
1F
100
AcDbEntity
  8
SANINDUSA
100
AcDbLine
 10
208.3432266378802
 20
1016.749345010928
 30
0.0
 11
208.3504978548486
 21
1016.755618957938
 31
0.0
  0
LWPOLYLINE
  5
150C
330
1F
100
AcDbEntity
  8
SANINDUSA
100
AcDbPolyline
 90
       13
 70
   128
 43
0.0
 10
208.3565532871363
 20
1016.758036373722
 10
208.3565532870781
 20
1016.75803637372
 10
208.3562084952709
 20
1016.758041041438
 10
208.3551934239748
 20
1016.758054287642
 10
208.3529226945033
 20
1016.758081047178
 10
208.3496491082108
 20
1016.758114219782
 10
208.3454555232074
 20
1016.758148219915
 10
208.3404804222812
 20
1016.758177152132
 10
208.3348573646046
 20
1016.758196185385
 10
208.3287499799883
 20
1016.758207089126
 10
208.3231820506644
 20
1016.758213485145
 10
208.3174930839312
 20
1016.758216193571
 10
208.3174930239312
 20
1016.758216193568
  0
ARC
  5
150D
330
1F
100
AcDbEntity
  8
SANINDUSA
100
AcDbCircle
 10
208.3570306346418
 20
1016.748047763041
 30
0.0
 40
0.0100000101992747
100
AcDbArc
 50
92.73603668133823
 51
130.7891512247131
  0
LWPOLYLINE
  5
1513
330
1F
100
AcDbEntity
  8
SANINDUSA
100
AcDbPolyline
 90
       31
 70
   128
 43
0.0
 10
208.5867334442311
 20
1016.907559761904
 10
208.5853865307399
 20
1016.897383156775
 10
208.5827613338637
 20
1016.885258136577
 10
208.579072549569
 20
1016.87319549287
 10
208.5743015334609
 20
1016.861313875473
 10
208.5684605690606
 20
1016.849735779333
 10
208.5615679396987
 20
1016.838588291192
 10
208.5541050471311
 20
1016.828555298906
 10
208.5457769319093
 20
1016.819118440797
 10
208.5366316282966
 20
1016.810357411712
 10
208.5267280148092
 20
1016.8023628515
 10
208.516163334992
 20
1016.79522598119
 10
208.5051460640679
 20
1016.788980216139
 10
208.4937279756242
 20
1016.78314004034
 10
208.4877817379187
 20
1016.780367633467
 42
0.2914872571947099
 10
208.4874930239311
 20
1016.779914468795
 10
208.4874930239307
 20
1016.755766043926
 42
0.4893874720643728
 10
208.4881165757572
 20
1016.7552815494
 10
208.4935577370238
 20
1016.756669109787
 10
208.5052113045885
 20
1016.760740707758
 10
208.5163831412937
 20
1016.765755153996
 10
208.5270260720898
 20
1016.77166665114
 10
208.5370920145805
 20
1016.778429183651
 10
208.546532294478
 20
1016.785996387984
 10
208.5553106784706
 20
1016.794333623427
 10
208.5626998793465
 20
1016.802577846898
 10
208.5694552259676
 20
1016.811396318386
 10
208.5755277475146
 20
1016.820739920512
 10
208.5808804272273
 20
1016.830572908714
 10
208.5854764731167
 20
1016.840860088589
 10
208.5893526866894
 20
1016.851773938665
  0
LWPOLYLINE
  5
1514
330
1F
100
AcDbEntity
  8
SANINDUSA
100
AcDbPolyline
 90
       14
 70
   128
 43
0.0
 10
208.4835174883724
 20
1016.743788693769
 10
208.4964478218933
 20
1016.747086081534
 10
208.5089147315016
 20
1016.75144185015
 10
208.5208665300973
 20
1016.756806380002
 10
208.5322515305804
 20
1016.763130051473
 10
208.5430180458508
 20
1016.770363244948
 10
208.5531143888086
 20
1016.77845634081
 10
208.5624888723536
 20
1016.787359719443
 10
208.5704038710815
 20
1016.796190582128
 10
208.5776290636365
 20
1016.80562239342
 10
208.5841246377905
 20
1016.81561693358
 10
208.5898507813156
 20
1016.826135982869
 10
208.5947676819835
 20
1016.837141321548
 10
208.5988355275663
 20
1016.848594729878
  0
ARC
  5
1515
330
1F
100
AcDbEntity
  8
SANINDUSA
100
AcDbCircle
 10
208.4824930239312
 20
1016.748682615776
 30
0.0
 40
0.005
100
AcDbArc
 50
180.0
 51
281.8232289022704
  0
LINE
  5
1516
330
1F
100
AcDbEntity
  8
SANINDUSA
100
AcDbLine
 10
208.4774930239312
 20
1016.768219472595
 30
0.0
 11
208.4774930239312
 21
1016.748682615776
 31
0.0
  0
ARC
  5
1517
330
1F
100
AcDbEntity
  8
SANINDUSA
100
AcDbCircle
 10
208.617932185409
 20
1016.842651863631
 30
0.0
 40
0.0300000000000004
100
AcDbArc
 50
95.52994358239452
 51
162.2978284151192
  0
ARC
  5
1518
330
1F
100
AcDbEntity
  8
SANINDUSA
100
AcDbCircle
 10
208.6224930240102
 20
1016.867651863631
 30
0.0
 40
0.005
100
AcDbArc
 50
270.0
 51
0.0
  0
ARC
  5
1519
330
1F
100
AcDbEntity
  8
SANINDUSA
100
AcDbCircle
 10
208.617932185409
 20
1016.842651863631
 30
0.0
 40
0.0200000000000001
100
AcDbArc
 50
90.0
 51
162.7138956340076
  0
ARC
  5
151A
330
1F
100
AcDbEntity
  8
SANINDUSA
100
AcDbCircle
 10
208.583215902208
 20
1016.92555361638
 30
0.0
 40
0.0180000000000001
100
AcDbArc
 50
282.52882634476
 51
325.7879780718115
  0
ARC
  5
151C
330
1F
100
AcDbEntity
  8
SANINDUSA
100
AcDbCircle
 10
208.5872291215515
 20
1016.907494157072
 30
0.0
 40
0.0005
100
AcDbArc
 50
102.5288263447567
 51
172.4605002408294
  0
ARC
  5
151D
330
1F
100
AcDbEntity
  8
SANINDUSA
100
AcDbCircle
 10
208.5849862862059
 20
1016.90965186363
 30
0.0
 40
0.0080000000000001
100
AcDbArc
 50
96.3527289085915
 51
174.780462428655
  0
ARC
  5
151E
330
1F
100
AcDbEntity
  8
SANINDUSA
100
AcDbCircle
 10
208.5985147106499
 20
1016.915151863631
 30
0.0
 40
0.0005
100
AcDbArc
 50
90.00000000002605
 51
145.7879780718115
  0
ARC
  5
151F
330
1F
100
AcDbEntity
  8
SANINDUSA
100
AcDbCircle
 10
208.6090928549492
 20
1016.915151863631
 30
0.0
 40
0.0005
100
AcDbArc
 50
29.84253384422668
 51
90.0
  0
ARC
  5
1520
330
1F
100
AcDbEntity
  8
SANINDUSA
100
AcDbCircle
 10
208.6149930240102
 20
1016.908436043822
 30
0.0
 40
0.0005
100
AcDbArc
 50
0.0
 51
52.75917258882866
  0
ARC
  5
1521
330
1F
100
AcDbEntity
  8
SANINDUSA
100
AcDbCircle
 10
208.6149930240102
 20
1016.873009915779
 30
0.0
 40
0.0004999999999997
100
AcDbArc
 50
275.5299435823816
 51
0.0000000000260551
  0
LINE
  5
1522
330
1F
100
AcDbEntity
  8
SANINDUSA
100
AcDbLine
 10
208.6154930240102
 20
1016.908436043822
 30
0.0
 11
208.6154930240102
 21
1016.873009915779
 31
0.0
  0
ARC
  5
1523
330
1F
100
AcDbEntity
  8
SANINDUSA
100
AcDbCircle
 10
208.628609271314
 20
1016.926348268959
 30
0.0
 40
0.0220000000000003
100
AcDbArc
 50
209.8425338442283
 51
232.7591725888287
  0
LINE
  5
1524
330
1F
100
AcDbEntity
  8
SANINDUSA
100
AcDbLine
 10
208.5985147106499
 20
1016.91565186363
 30
0.0
 11
208.6090928549492
 21
1016.91565186363
 31
0.0
  0
ARC
  5
1525
330
1F
100
AcDbEntity
  8
SANINDUSA
100
AcDbCircle
 10
208.6224930240102
 20
1016.91265186363
 30
0.0
 40
0.005
100
AcDbArc
 50
0.0
 51
65.93643980518878
  0
LINE
  5
1526
330
1F
100
AcDbEntity
  8
SANINDUSA
100
AcDbLine
 10
208.617932185409
 20
1016.862651863631
 30
0.0
 11
208.6224930240102
 21
1016.862651863631
 31
0.0
  0
LINE
  5
1527
330
1F
100
AcDbEntity
  8
SANINDUSA
100
AcDbLine
 10
208.6274930240103
 20
1016.91265186363
 30
0.0
 11
208.6274930240103
 21
1016.867651863631
 31
0.0
  0
ARC
  5
152E
330
1F
100
AcDbEntity
  8
SANINDUSA
100
AcDbCircle
 10
208.5993887901223
 20
1016.91765186363
 30
0.0
 40
0.0100000000000002
100
AcDbArc
 50
90.0
 51
153.9607813397998
  0
LINE
  5
152F
330
1F
100
AcDbEntity
  8
SANINDUSA
100
AcDbLine
 10
208.5993887901223
 20
1016.92765186363
 30
0.0
 11
208.6139919862401
 21
1016.92765186363
 31
0.0
  0
ARC
  5
1530
330
1F
100
AcDbEntity
  8
SANINDUSA
100
AcDbCircle
 10
208.6139919862401
 20
1016.92265186363
 30
0.0
 40
0.0050000000000001
100
AcDbArc
 50
20.00000000000371
 51
90.0
  0
LINE
  5
1531
330
1F
100
AcDbEntity
  8
SANINDUSA
100
AcDbLine
 10
208.6192123451061
 20
1016.922928067526
 30
0.0
 11
208.6186904493441
 21
1016.924361964347
 31
0.0
  0
ARC
  5
1538
330
1F
100
AcDbEntity
  8
SANINDUSA
100
AcDbCircle
 10
206.818606711251
 20
1016.768219472595
 30
0.0
 40
0.0050000000000002
100
AcDbArc
 50
0.0
 51
111.9085053416943
  0
ARC
  5
1539
330
1F
100
AcDbEntity
  8
SANINDUSA
100
AcDbCircle
 10
206.828606711251
 20
1016.748682615776
 30
0.0
 40
0.005
100
AcDbArc
 50
180.0
 51
281.8232289022704
  0
LINE
  5
153D
330
1F
100
AcDbEntity
  8
SANINDUSA
100
AcDbLine
 10
206.8286067112511
 20
1016.862651863631
 30
0.0
 11
206.4756067112511
 21
1016.862651863631
 31
0.0
  0
LINE
  5
1540
330
1F
100
AcDbEntity
  8
SANINDUSA
100
AcDbLine
 10
206.8209291062335
 20
1016.917217332059
 30
0.0
 11
206.4756067112511
 21
1016.917217332059
 31
0.0
  0
LINE
  5
1543
330
1F
100
AcDbEntity
  8
SANINDUSA
100
AcDbLine
 10
206.4933663499191
 20
1016.92765186363
 30
0.0
 11
206.8204072104561
 21
1016.92765186363
 31
0.0
  0
LWPOLYLINE
  5
1545
330
1F
100
AcDbEntity
  8
SANINDUSA
100
AcDbPolyline
 90
        8
 70
   128
 43
0.0
 10
206.8176713825478
 20
1016.835410690163
 10
206.8111931941185
 20
1016.832555717679
 10
206.8044560425424
 20
1016.830100333922
 10
206.7976242146253
 20
1016.82784688748
 10
206.7766983542948
 20
1016.821426734493
 10
206.7559978122432
 20
1016.815494797589
 10
206.7352306470069
 20
1016.809762645646
 10
206.6738326691006
 20
1016.793588483153
  0
LINE
  5
154B
330
1F
100
AcDbEntity
  8
SANINDUSA
100
AcDbLine
 10
206.4736067112511
 20
1016.867651863631
 30
0.0
 11
206.4736067112511
 21
1016.91265186363
 31
0.0
  0
LINE
  5
154D
330
1F
100
AcDbEntity
  8
SANINDUSA
100
AcDbLine
 10
206.4736067112511
 20
1016.78919307415
 30
0.0
 11
206.4736067112511
 21
1016.86465186363
 31
0.0
  0
LINE
  5
1553
330
1F
100
AcDbEntity
  8
SANINDUSA
100
AcDbLine
 10
206.4736067112511
 20
1016.86465186363
 30
0.0
 11
206.4736067112511
 21
1016.867651863631
 31
0.0
  0
ARC
  5
1556
330
1F
100
AcDbEntity
  8
SANINDUSA
100
AcDbCircle
 10
206.4756067112511
 20
1016.86465186363
 30
0.0
 40
0.0020000000000002
100
AcDbArc
 50
180.0
 51
270.0
  0
ARC
  5
155C
330
1F
100
AcDbEntity
  8
SANINDUSA
100
AcDbCircle
 10
206.4785101491646
 20
1016.92965186363
 30
0.0
 40
0.0080000000000004
100
AcDbArc
 50
25.00000000000663
 51
90.0
  0
LINE
  5
155F
330
1F
100
AcDbEntity
  8
SANINDUSA
100
AcDbLine
 10
206.4736067112511
 20
1016.91265186363
 30
0.0
 11
206.4736067112511
 21
1016.915391144688
 31
0.0
  0
LWPOLYLINE
  5
1560
330
1F
100
AcDbEntity
  8
SANINDUSA
100
AcDbPolyline
 90
        9
 70
   128
 43
0.0
 10
206.4756067112511
 20
1016.917217332059
 10
206.475216530607
 20
1016.917182242381
 10
206.4748413443863
 20
1016.917078321823
 10
206.474495570785
 20
1016.916909563994
 10
206.4741924976887
 20
1016.916682454162
 10
206.4739437720265
 20
1016.916405720031
 10
206.4737589521861
 20
1016.916089996339
 10
206.4736451406903
 20
1016.91574741617
 10
206.4736067112511
 20
1016.915391144688
  0
LINE
  5
1563
330
1F
100
AcDbEntity
  8
SANINDUSA
100
AcDbLine
 10
206.4736067112511
 20
1016.915391144688
 30
0.0
 11
206.4736067112511
 21
1016.922244027197
 31
0.0
  0
LINE
  5
1566
330
1F
100
AcDbEntity
  8
SANINDUSA
100
AcDbLine
 10
206.4736067112511
 20
1016.922244027197
 30
0.0
 11
206.4736067112511
 21
1016.93367792406
 31
0.0
  0
ARC
  5
156A
330
1F
100
AcDbEntity
  8
SANINDUSA
100
AcDbCircle
 10
206.4756067112511
 20
1016.93565186363
 30
0.0
 40
0.0020000000000002
100
AcDbArc
 50
90.0
 51
180.0
  0
LINE
  5
156B
330
1F
100
AcDbEntity
  8
SANINDUSA
100
AcDbLine
 10
206.4736067112511
 20
1016.93367792406
 30
0.0
 11
206.4736067112511
 21
1016.93565186363
 31
0.0
  0
LINE
  5
156C
330
1F
100
AcDbEntity
  8
SANINDUSA
100
AcDbLine
 10
206.4756067112511
 20
1016.93765186363
 30
0.0
 11
206.4785101491646
 21
1016.93765186363
 31
0.0
  0
ARC
  5
1570
330
1F
100
AcDbEntity
  8
SANINDUSA
100
AcDbCircle
 10
206.4933663499191
 20
1016.93565186363
 30
0.0
 40
0.0080000000000013
100
AcDbArc
 50
205.0000000000066
 51
269.9999999999968
  0
LINE
  5
1573
330
1F
100
AcDbEntity
  8
SANINDUSA
100
AcDbLine
 10
206.4857606114609
 20
1016.933032809724
 30
0.0
 11
206.4861158876228
 21
1016.932270917537
 31
0.0
  0
LWPOLYLINE
  5
1579
330
1F
100
AcDbEntity
  8
SANINDUSA
100
AcDbPolyline
 90
        3
 70
   128
 43
0.0
 10
206.6738326691006
 20
1016.793588483153
 10
206.6634665768863
 20
1016.791442088077
 10
206.6528866860482
 20
1016.790115485396
  0
LINE
  5
157D
330
1F
100
AcDbEntity
  8
SANINDUSA
100
AcDbLine
 10
206.8729435994063
 20
1016.92765186363
 30
0.0
 11
206.9601057285912
 21
1016.92765186363
 31
0.0
  0
LWPOLYLINE
  5
1580
330
1F
100
AcDbEntity
  8
SANINDUSA
100
AcDbPolyline
 90
       16
 70
   128
 43
0.0
 10
206.9706454604313
 20
1016.917217332073
 10
206.9705515365383
 20
1016.917217438035
 10
206.9695952378525
 20
1016.917217806518
 10
206.9676042112936
 20
1016.917217962327
 10
206.9645758114679
 20
1016.917217697491
 10
206.9603693772288
 20
1016.917217532968
 10
206.9550399215955
 20
1016.917217768773
 10
206.9485829587461
 20
1016.917217820196
 10
206.9426396258633
 20
1016.917217753945
 10
206.9359417139641
 20
1016.917217857844
 10
206.9284948550111
 20
1016.917218025651
 10
206.9203046809664
 20
1016.917218151125
 10
206.9113768237924
 20
1016.917218128025
 10
206.9017169154513
 20
1016.917217850109
 10
206.8920833611175
 20
1016.917217496014
 10
206.8818082434466
 20
1016.917217683061
  0
LINE
  5
1583
330
1F
100
AcDbEntity
  8
SANINDUSA
100
AcDbLine
 10
206.9686067113301
 20
1016.862651863631
 30
0.0
 11
206.908281439982
 21
1016.862651863631
 31
0.0
  0
LINE
  5
1586
330
1F
100
AcDbEntity
  8
SANINDUSA
100
AcDbLine
 10
206.838606711251
 20
1016.91265186363
 30
0.0
 11
206.838606711251
 21
1016.867651863631
 31
0.0
  0
LWPOLYLINE
  5
1588
330
1F
100
AcDbEntity
  8
SANINDUSA
100
AcDbPolyline
 90
        6
 70
   128
 43
0.0
 10
206.8811763703337
 20
1016.86225302634
 10
206.8743963209473
 20
1016.862068146885
 10
206.8679481164525
 20
1016.862042136034
 10
206.8618204332561
 20
1016.862189137642
 10
206.8560673993099
 20
1016.862437883883
 10
206.8491269234519
 20
1016.862651863631
  0
LWPOLYLINE
  5
158D
330
1F
100
AcDbEntity
  8
SANINDUSA
100
AcDbPolyline
 90
        7
 70
   128
 43
0.0
 10
206.823606711251
 20
1016.832918615621
 10
206.8235535875205
 20
1016.833320334076
 10
206.8232744036996
 20
1016.833907136624
 10
206.8224186913675
 20
1016.834697292772
 10
206.8211346306804
 20
1016.835283418304
 10
206.8195662409464
 20
1016.835604013772
 10
206.8178896703174
 20
1016.835626256654
  0
LINE
  5
1592
330
1F
100
AcDbEntity
  8
SANINDUSA
100
AcDbLine
 10
206.8336067112511
 20
1016.862651863631
 30
0.0
 11
206.8286067112511
 21
1016.862651863631
 31
0.0
  0
LINE
  5
1593
330
1F
100
AcDbEntity
  8
SANINDUSA
100
AcDbLine
 10
206.8491269234519
 20
1016.862651863631
 30
0.0
 11
206.8336067112511
 21
1016.862651863631
 31
0.0
  0
LINE
  5
1595
330
1F
100
AcDbEntity
  8
SANINDUSA
100
AcDbLine
 10
206.823606711251
 20
1016.862651863631
 30
0.0
 11
206.823606711251
 21
1016.852874542345
 31
0.0
  0
ARC
  5
1597
330
1F
100
AcDbEntity
  8
SANINDUSA
100
AcDbCircle
 10
206.8336067112511
 20
1016.867651863631
 30
0.0
 40
0.0050000000000006
100
AcDbArc
 50
270.0
 51
0.0
  0
LWPOLYLINE
  5
1598
330
1F
100
AcDbEntity
  8
SANINDUSA
100
AcDbPolyline
 90
        5
 70
   128
 43
0.0
 10
206.908281439982
 20
1016.862651863631
 10
206.902010364121
 20
1016.862635650843
 10
206.8954096901367
 20
1016.862577096846
 10
206.8884582234135
 20
1016.862457521544
 10
206.8811763703337
 20
1016.86225302634
  0
LWPOLYLINE
  5
159D
330
1F
100
AcDbEntity
  8
SANINDUSA
100
AcDbPolyline
 90
       13
 70
   128
 43
0.0
 10
206.8802756485839
 20
1016.917221949326
 10
206.8720486013961
 20
1016.917264689175
 10
206.8645493955993
 20
1016.917298067918
 10
206.8576613242371
 20
1016.917322043008
 10
206.8516437974643
 20
1016.917335528827
 10
206.8483582131137
 20
1016.917338617922
 10
206.8454358010987
 20
1016.917337654029
 10
206.8428591778924
 20
1016.917332559171
 10
206.8406683262675
 20
1016.917323321302
 10
206.838594982105
 20
1016.917307160801
 10
206.8370685656628
 20
1016.917285318959
 10
206.8360839136639
 20
1016.917257424028
 10
206.8356694595635
 20
1016.917224072405
  0
LINE
  5
15A0
330
1F
100
AcDbEntity
  8
SANINDUSA
100
AcDbLine
 10
206.82510567356
 20
1016.92765186363
 30
0.0
 11
206.8729435994063
 21
1016.92765186363
 31
0.0
  0
LWPOLYLINE
  5
15A3
330
1F
100
AcDbEntity
  8
SANINDUSA
100
AcDbPolyline
 90
        5
 70
   128
 43
0.0
 10
206.8350165484642
 20
1016.917448983499
 10
206.8339182880024
 20
1016.917563318767
 10
206.8327450003695
 20
1016.917578665058
 10
206.8314682173796
 20
1016.917567239498
 10
206.8286067112511
 20
1016.917448983499
  0
ARC
  5
15A4
330
1F
100
AcDbEntity
  8
SANINDUSA
100
AcDbCircle
 10
206.8336067112511
 20
1016.91265186363
 30
0.0
 40
0.0050000000000006
100
AcDbArc
 50
0.0
 51
73.62233701132923
  0
LINE
  5
15A6
330
1F
100
AcDbEntity
  8
SANINDUSA
100
AcDbLine
 10
206.829804136664
 20
1016.924361964347
 30
0.0
 11
206.8303260324413
 21
1016.922928067483
 31
0.0
  0
LWPOLYLINE
  5
15A9
330
1F
100
AcDbEntity
  8
SANINDUSA
100
AcDbPolyline
 90
        9
 70
   128
 43
0.0
 10
206.8303186725857
 20
1016.922948288521
 10
206.8307098620771
 20
1016.922021474503
 10
206.8311922055018
 20
1016.921138659946
 10
206.8317608206939
 20
1016.92030878049
 10
206.8324099522653
 20
1016.919540235976
 10
206.8331330298598
 20
1016.918840805432
 10
206.8339227346576
 20
1016.918217568327
 10
206.8347710734535
 20
1016.917676832919
 10
206.8356694595635
 20
1016.917224072405
  0
LINE
  5
15AE
330
1F
100
AcDbEntity
  8
SANINDUSA
100
AcDbLine
 10
206.8204072104561
 20
1016.92765186363
 30
0.0
 11
206.82510567356
 21
1016.92765186363
 31
0.0
  0
LWPOLYLINE
  5
15AF
330
1F
100
AcDbEntity
  8
SANINDUSA
100
AcDbPolyline
 90
        3
 70
   128
 43
0.0
 10
206.8286067112511
 20
1016.917448983499
 10
206.8262438838795
 20
1016.917336272046
 10
206.8209291062335
 20
1016.917217332059
  0
ARC
  5
15B3
330
1F
100
AcDbEntity
  8
SANINDUSA
100
AcDbCircle
 10
206.82510567356
 20
1016.92265186363
 30
0.0
 40
0.005
100
AcDbArc
 50
20.00000000000371
 51
90.0
  0
LINE
  5
15B9
330
1F
100
AcDbEntity
  8
SANINDUSA
100
AcDbLine
 10
206.8818082434466
 20
1016.917217683061
 30
0.0
 11
206.8802756485839
 21
1016.917221949326
 31
0.0
  0
LINE
  5
15BB
330
1F
100
AcDbEntity
  8
SANINDUSA
100
AcDbLine
 10
206.9736067113301
 20
1016.91265186363
 30
0.0
 11
206.9736067113301
 21
1016.867651863631
 31
0.0
  0
ARC
  5
15BC
330
1F
100
AcDbEntity
  8
SANINDUSA
100
AcDbCircle
 10
206.9686067113301
 20
1016.867651863631
 30
0.0
 40
0.005
100
AcDbArc
 50
270.0
 51
0.0
  0
ARC
  5
15BD
330
1F
100
AcDbEntity
  8
SANINDUSA
100
AcDbCircle
 10
206.9640458727288
 20
1016.842651863631
 30
0.0
 40
0.0200000000000003
100
AcDbArc
 50
90.0
 51
162.7138956340478
  0
ARC
  5
15BE
330
1F
100
AcDbEntity
  8
SANINDUSA
100
AcDbCircle
 10
206.9686067113301
 20
1016.91265186363
 30
0.0
 40
0.0049999999999997
100
AcDbArc
 50
0.0
 51
65.93643980519606
  0
LINE
  5
15BF
330
1F
100
AcDbEntity
  8
SANINDUSA
100
AcDbLine
 10
206.9653295092406
 20
1016.922918515056
 30
0.0
 11
206.9648037222513
 21
1016.92436310097
 31
0.0
  0
ARC
  5
15C0
330
1F
100
AcDbEntity
  8
SANINDUSA
100
AcDbCircle
 10
206.9747229586338
 20
1016.926348268959
 30
0.0
 40
0.0099999999999999
100
AcDbArc
 50
200.0000000000037
 51
245.9364398051931
  0
ARC
  5
15C1
330
1F
100
AcDbEntity
  8
SANINDUSA
100
AcDbCircle
 10
206.9601056730073
 20
1016.92265186363
 30
0.0
 40
0.005
100
AcDbArc
 50
20.01386149500453
 51
89.99936305586055
  0
ENDSEC
  0
SECTION
  2
OBJECTS
  0
DICTIONARY
  5
C
330
0
100
AcDbDictionary
281
     1
  3
ACAD_COLOR
350
1AF9
  3
ACAD_GROUP
350
D
  3
ACAD_LAYOUT
350
1A
  3
ACAD_MATERIAL
350
1ACC
  3
ACAD_MLEADERSTYLE
350
1B0E
  3
ACAD_MLINESTYLE
350
17
  3
ACAD_PLOTSETTINGS
350
19
  3
ACAD_PLOTSTYLENAME
350
E
  3
ACAD_SCALELIST
350
1AFC
  3
ACAD_TABLESTYLE
350
1AFA
  3
ACAD_VISUALSTYLE
350
1AE5
  3
ACDB_RECOMPOSE_DATA
350
1B3B
  3
AcDbVariableDictionary
350
3D
  3
ASE_INDEX_DICTIONARY
350
B91
  3
DWGPROPS
350
1B3C
  0
DICTIONARY
  5
1B15
330
10
100
AcDbDictionary
280
     1
281
     1
  3
ADSK_XREC_LAYER_RECONCILED
360
1B16
  0
DICTIONARY
  5
1B17
330
2F
100
AcDbDictionary
280
     1
281
     1
  3
ADSK_XREC_LAYER_RECONCILED
360
1B18
  0
DICTIONARY
  5
1B19
330
30
100
AcDbDictionary
280
     1
281
     1
  3
ADSK_XREC_LAYER_RECONCILED
360
1B1A
  0
DICTIONARY
  5
1B1B
330
31
100
AcDbDictionary
280
     1
281
     1
  3
ADSK_XREC_LAYER_RECONCILED
360
1B1C
  0
DICTIONARY
  5
1B1D
330
32
100
AcDbDictionary
280
     1
281
     1
  3
ADSK_XREC_LAYER_RECONCILED
360
1B1E
  0
DICTIONARY
  5
1B1F
330
33
100
AcDbDictionary
280
     1
281
     1
  3
ADSK_XREC_LAYER_RECONCILED
360
1B20
  0
DICTIONARY
  5
1B21
330
34
100
AcDbDictionary
280
     1
281
     1
  3
ADSK_XREC_LAYER_RECONCILED
360
1B22
  0
DICTIONARY
  5
1B23
330
35
100
AcDbDictionary
280
     1
281
     1
  3
ADSK_XREC_LAYER_RECONCILED
360
1B24
  0
DICTIONARY
  5
1B25
330
36
100
AcDbDictionary
280
     1
281
     1
  3
ADSK_XREC_LAYER_RECONCILED
360
1B26
  0
DICTIONARY
  5
1B27
330
37
100
AcDbDictionary
280
     1
281
     1
  3
ADSK_XREC_LAYER_RECONCILED
360
1B28
  0
DICTIONARY
  5
1B29
330
5D6
100
AcDbDictionary
280
     1
281
     1
  3
ADSK_XREC_LAYER_RECONCILED
360
1B2A
  0
DICTIONARY
  5
1B2B
330
8AF
100
AcDbDictionary
280
     1
281
     1
  3
ADSK_XREC_LAYER_RECONCILED
360
1B2C
  0
DICTIONARY
  5
1B2D
330
8F8
100
AcDbDictionary
280
     1
281
     1
  3
ADSK_XREC_LAYER_RECONCILED
360
1B2E
  0
DICTIONARY
  5
1B2F
330
91D
100
AcDbDictionary
280
     1
281
     1
  3
ADSK_XREC_LAYER_RECONCILED
360
1B30
  0
DICTIONARY
  5
1B31
330
BA5
100
AcDbDictionary
280
     1
281
     1
  3
ADSK_XREC_LAYER_RECONCILED
360
1B32
  0
DICTIONARY
  5
1AF9
102
{ACAD_REACTORS
330
C
102
}
330
C
100
AcDbDictionary
281
     1
  0
DICTIONARY
  5
D
102
{ACAD_REACTORS
330
C
102
}
330
C
100
AcDbDictionary
281
     1
  0
DICTIONARY
  5
1A
102
{ACAD_REACTORS
330
C
102
}
330
C
100
AcDbDictionary
281
     1
  3
Layout1
350
1E
  3
Layout2
350
26
  3
Model
350
22
  0
DICTIONARY
  5
1ACC
102
{ACAD_REACTORS
330
C
102
}
330
C
100
AcDbDictionary
281
     1
  3
ByBlock
350
1AD5
  3
ByLayer
350
1ACD
  3
Global
350
1ADD
  0
DICTIONARY
  5
1B0E
102
{ACAD_REACTORS
330
C
102
}
330
C
100
AcDbDictionary
281
     1
  3
Standard
350
1B0F
  0
DICTIONARY
  5
17
102
{ACAD_REACTORS
330
C
102
}
330
C
100
AcDbDictionary
281
     1
  3
Standard
350
18
  0
DICTIONARY
  5
19
102
{ACAD_REACTORS
330
C
102
}
330
C
100
AcDbDictionary
281
     1
  0
ACDBDICTIONARYWDFLT
  5
E
102
{ACAD_REACTORS
330
C
102
}
330
C
100
AcDbDictionary
281
     1
  3
Normal
350
F
100
AcDbDictionaryWithDefault
340
F
  0
DICTIONARY
  5
1AFC
102
{ACAD_REACTORS
330
C
102
}
330
C
100
AcDbDictionary
281
     1
  3
A0
350
1AFD
  3
A1
350
1AFE
  3
A2
350
1AFF
  3
A3
350
1B00
  3
A4
350
1B01
  3
A5
350
1B02
  3
A6
350
1B03
  3
A7
350
1B04
  3
A8
350
1B05
  3
A9
350
1B06
  3
B0
350
1B07
  3
B1
350
1B08
  3
B2
350
1B09
  3
B3
350
1B0A
  3
B4
350
1B0B
  3
B5
350
1B0C
  3
B6
350
1B0D
  0
DICTIONARY
  5
1AFA
102
{ACAD_REACTORS
330
C
102
}
330
C
100
AcDbDictionary
281
     1
  3
Standard
350
1AFB
  0
DICTIONARY
  5
1AE5
102
{ACAD_REACTORS
330
C
102
}
330
C
100
AcDbDictionary
281
     1
  3
2dWireframe
350
1AEB
  3
3D Hidden
350
1AED
  3
3dWireframe
350
1AEC
  3
Basic
350
1AEA
  3
Brighten
350
1AF1
  3
ColorChange
350
1AF5
  3
Conceptual
350
1AEE
  3
Dim
350
1AF0
  3
EdgeColorOff
350
1AF8
  3
Facepattern
350
1AF4
  3
Flat
350
1AE6
  3
FlatWithEdges
350
1AE7
  3
Gouraud
350
1AE8
  3
GouraudWithEdges
350
1AE9
  3
JitterOff
350
1AF6
  3
Linepattern
350
1AF3
  3
OverhangOff
350
1AF7
  3
Realistic
350
1AEF
  3
Thicken
350
1AF2
  0
XRECORD
  5
1B3B
102
{ACAD_REACTORS
330
C
102
}
330
C
100
AcDbXrecord
280
     1
 90
        1
330
1AFB
  0
DICTIONARY
  5
3D
102
{ACAD_REACTORS
330
C
102
}
330
C
100
AcDbDictionary
281
     1
  3
CANNOSCALE
350
1B35
  3
CMLEADERSTYLE
350
1B34
  3
CTABLESTYLE
350
1B33
  3
DIMASSOC
350
3F
  3
HIDETEXT
350
3E
  3
INDEXCTL
350
1B37
  3
SORTENTS
350
1B36
  3
XCLIPFRAME
350
1B38
  0
DICTIONARY
  5
B91
102
{ACAD_REACTORS
330
C
102
}
330
C
100
AcDbDictionary
281
     1
  3
ASEBlockHierarchyIndexRecord
350
B92
1001
DCO15
1040
1485069952.593
  0
XRECORD
  5
1B3C
102
{ACAD_REACTORS
330
C
102
}
330
C
100
AcDbXrecord
280
     1
  1
DWGPROPS COOKIE
  2

  3

  4

  6

  7

  8
Julio
  9

300
=
301
=
302
=
303
=
304
=
305
=
306
=
307
=
308
=
309
=
 40
0.0052074305555556
 41
2453497.621712593
 42
2456142.453566979
  1

 90
        0
  0
XRECORD
  5
1B16
102
{ACAD_REACTORS
330
1B15
102
}
330
1B15
100
AcDbXrecord
280
     1
290
     1
  0
XRECORD
  5
1B18
102
{ACAD_REACTORS
330
1B17
102
}
330
1B17
100
AcDbXrecord
280
     1
290
     1
  0
XRECORD
  5
1B1A
102
{ACAD_REACTORS
330
1B19
102
}
330
1B19
100
AcDbXrecord
280
     1
290
     1
  0
XRECORD
  5
1B1C
102
{ACAD_REACTORS
330
1B1B
102
}
330
1B1B
100
AcDbXrecord
280
     1
290
     1
  0
XRECORD
  5
1B1E
102
{ACAD_REACTORS
330
1B1D
102
}
330
1B1D
100
AcDbXrecord
280
     1
290
     1
  0
XRECORD
  5
1B20
102
{ACAD_REACTORS
330
1B1F
102
}
330
1B1F
100
AcDbXrecord
280
     1
290
     1
  0
XRECORD
  5
1B22
102
{ACAD_REACTORS
330
1B21
102
}
330
1B21
100
AcDbXrecord
280
     1
290
     1
  0
XRECORD
  5
1B24
102
{ACAD_REACTORS
330
1B23
102
}
330
1B23
100
AcDbXrecord
280
     1
290
     1
  0
XRECORD
  5
1B26
102
{ACAD_REACTORS
330
1B25
102
}
330
1B25
100
AcDbXrecord
280
     1
290
     1
  0
XRECORD
  5
1B28
102
{ACAD_REACTORS
330
1B27
102
}
330
1B27
100
AcDbXrecord
280
     1
290
     1
  0
XRECORD
  5
1B2A
102
{ACAD_REACTORS
330
1B29
102
}
330
1B29
100
AcDbXrecord
280
     1
290
     1
  0
XRECORD
  5
1B2C
102
{ACAD_REACTORS
330
1B2B
102
}
330
1B2B
100
AcDbXrecord
280
     1
290
     1
  0
XRECORD
  5
1B2E
102
{ACAD_REACTORS
330
1B2D
102
}
330
1B2D
100
AcDbXrecord
280
     1
290
     1
  0
XRECORD
  5
1B30
102
{ACAD_REACTORS
330
1B2F
102
}
330
1B2F
100
AcDbXrecord
280
     1
290
     1
  0
XRECORD
  5
1B32
102
{ACAD_REACTORS
330
1B31
102
}
330
1B31
100
AcDbXrecord
280
     1
290
     1
  0
LAYOUT
  5
1E
102
{ACAD_XDICTIONARY
360
1B3D
102
}
102
{ACAD_REACTORS
330
1A
102
}
330
1A
100
AcDbPlotSettings
  1

  2
Ploter HP500
  4

  6

 40
0.0
 41
0.0
 42
0.0
 43
0.0
 44
0.0
 45
0.0
 46
0.0
 47
0.0
 48
0.0
 49
0.0
140
0.0
141
0.0
142
1.0
143
1.0
 70
   688
 72
     0
 73
     0
 74
     5
  7
monochrome.ctb
 75
    16
147
1.0
148
0.0
149
0.0
100
AcDbLayout
  1
Layout1
 70
     1
 71
     1
 10
0.0
 20
0.0
 11
420.0
 21
297.0
 12
0.0
 22
0.0
 32
0.0
 14
1.000000000000000E+20
 24
1.000000000000000E+20
 34
1.000000000000000E+20
 15
-1.000000000000000E+20
 25
-1.000000000000000E+20
 35
-1.000000000000000E+20
146
0.0
 13
0.0
 23
0.0
 33
0.0
 16
1.0
 26
0.0
 36
0.0
 17
0.0
 27
1.0
 37
0.0
 76
     0
330
1B
  0
LAYOUT
  5
26
102
{ACAD_XDICTIONARY
360
1B41
102
}
102
{ACAD_REACTORS
330
1A
102
}
330
1A
100
AcDbPlotSettings
  1

  2
Ploter HP500
  4

  6

 40
0.0
 41
0.0
 42
0.0
 43
0.0
 44
0.0
 45
0.0
 46
0.0
 47
0.0
 48
0.0
 49
0.0
140
0.0
141
0.0
142
1.0
143
1.0
 70
   688
 72
     0
 73
     0
 74
     5
  7
monochrome.ctb
 75
    16
147
1.0
148
0.0
149
0.0
100
AcDbLayout
  1
Layout2
 70
     1
 71
     2
 10
0.0
 20
0.0
 11
12.0
 21
9.0
 12
0.0
 22
0.0
 32
0.0
 14
0.0
 24
0.0
 34
0.0
 15
0.0
 25
0.0
 35
0.0
146
0.0
 13
0.0
 23
0.0
 33
0.0
 16
1.0
 26
0.0
 36
0.0
 17
0.0
 27
1.0
 37
0.0
 76
     0
330
23
  0
LAYOUT
  5
22
102
{ACAD_XDICTIONARY
360
1B3F
102
}
102
{ACAD_REACTORS
330
1A
102
}
330
1A
100
AcDbPlotSettings
  1

  2
Ploter HP500
  4
User268
  6

 40
4.995333194732666
 41
16.97565841674804
 42
4.995330810546875
 43
16.97567749023437
 44
209.9733276367187
 45
296.9259948730469
 46
0.0
 47
0.0
 48
0.0
 49
0.0
140
0.0
141
0.0
142
1.0
143
1.0
 70
 11952
 72
     1
 73
     1
 74
     0
  7

 75
     0
147
1.0
148
-427.5957866592534
149
7.362384574453926
100
AcDbLayout
  1
Model
 70
     1
 71
     0
 10
0.0
 20
0.0
 11
12.0
 21
9.0
 12
0.0
 22
0.0
 32
0.0
 14
0.0
 24
0.0
 34
0.0
 15
0.0
 25
0.0
 35
0.0
146
0.0
 13
0.0
 23
0.0
 33
0.0
 16
1.0
 26
0.0
 36
0.0
 17
0.0
 27
1.0
 37
0.0
 76
     0
330
1F
331
1ACA
  0
MATERIAL
  5
1AD5
102
{ACAD_XDICTIONARY
360
1AD6
102
}
102
{ACAD_REACTORS
330
1ACC
102
}
330
1ACC
100
AcDbMaterial
  1
ByBlock
 72
     0
 43
0.0008202099737533
 43
0.0
 43
0.0
 43
0.0
 43
0.0
 43
0.0008202099737533
 43
0.0
 43
0.0
 43
0.0
 43
0.0
 43
1.0
 43
0.0
 43
0.0
 43
0.0
 43
0.0
 43
1.0
 77
     0
 47
0.0008202099737533
 47
0.0
 47
0.0
 47
0.0
 47
0.0
 47
0.0008202099737533
 47
0.0
 47
0.0
 47
0.0
 47
0.0
 47
1.0
 47
0.0
 47
0.0
 47
0.0
 47
0.0
 47
1.0
171
     0
 49
0.0008202099737533
 49
0.0
 49
0.0
 49
0.0
 49
0.0
 49
0.0008202099737533
 49
0.0
 49
0.0
 49
0.0
 49
0.0
 49
1.0
 49
0.0
 49
0.0
 49
0.0
 49
0.0
 49
1.0
175
     0
142
0.0008202099737533
142
0.0
142
0.0
142
0.0
142
0.0
142
0.0008202099737533
142
0.0
142
0.0
142
0.0
142
0.0
142
1.0
142
0.0
142
0.0
142
0.0
142
0.0
142
1.0
179
     0
144
0.0008202099737533
144
0.0
144
0.0
144
0.0
144
0.0
144
0.0008202099737533
144
0.0
144
0.0
144
0.0
144
0.0
144
1.0
144
0.0
144
0.0
144
0.0
144
0.0
144
1.0
147
0.0008202099737533
147
0.0
147
0.0
147
0.0
147
0.0
147
0.0008202099737533
147
0.0
147
0.0
147
0.0
147
0.0
147
1.0
147
0.0
147
0.0
147
0.0
147
0.0
147
1.0
  0
MATERIAL
  5
1ACD
102
{ACAD_XDICTIONARY
360
1ACE
102
}
102
{ACAD_REACTORS
330
1ACC
102
}
330
1ACC
100
AcDbMaterial
  1
ByLayer
 72
     0
 43
0.0008202099737533
 43
0.0
 43
0.0
 43
0.0
 43
0.0
 43
0.0008202099737533
 43
0.0
 43
0.0
 43
0.0
 43
0.0
 43
1.0
 43
0.0
 43
0.0
 43
0.0
 43
0.0
 43
1.0
 77
     0
 47
0.0008202099737533
 47
0.0
 47
0.0
 47
0.0
 47
0.0
 47
0.0008202099737533
 47
0.0
 47
0.0
 47
0.0
 47
0.0
 47
1.0
 47
0.0
 47
0.0
 47
0.0
 47
0.0
 47
1.0
171
     0
 49
0.0008202099737533
 49
0.0
 49
0.0
 49
0.0
 49
0.0
 49
0.0008202099737533
 49
0.0
 49
0.0
 49
0.0
 49
0.0
 49
1.0
 49
0.0
 49
0.0
 49
0.0
 49
0.0
 49
1.0
175
     0
142
0.0008202099737533
142
0.0
142
0.0
142
0.0
142
0.0
142
0.0008202099737533
142
0.0
142
0.0
142
0.0
142
0.0
142
1.0
142
0.0
142
0.0
142
0.0
142
0.0
142
1.0
179
     0
144
0.0008202099737533
144
0.0
144
0.0
144
0.0
144
0.0
144
0.0008202099737533
144
0.0
144
0.0
144
0.0
144
0.0
144
1.0
144
0.0
144
0.0
144
0.0
144
0.0
144
1.0
147
0.0008202099737533
147
0.0
147
0.0
147
0.0
147
0.0
147
0.0008202099737533
147
0.0
147
0.0
147
0.0
147
0.0
147
1.0
147
0.0
147
0.0
147
0.0
147
0.0
147
1.0
  0
MATERIAL
  5
1ADD
102
{ACAD_XDICTIONARY
360
1ADE
102
}
102
{ACAD_REACTORS
330
1ACC
102
}
330
1ACC
100
AcDbMaterial
  1
Global
 72
     0
 43
0.0008202099737533
 43
0.0
 43
0.0
 43
0.0
 43
0.0
 43
0.0008202099737533
 43
0.0
 43
0.0
 43
0.0
 43
0.0
 43
1.0
 43
0.0
 43
0.0
 43
0.0
 43
0.0
 43
1.0
 77
     0
 47
0.0008202099737533
 47
0.0
 47
0.0
 47
0.0
 47
0.0
 47
0.0008202099737533
 47
0.0
 47
0.0
 47
0.0
 47
0.0
 47
1.0
 47
0.0
 47
0.0
 47
0.0
 47
0.0
 47
1.0
171
     0
 49
0.0008202099737533
 49
0.0
 49
0.0
 49
0.0
 49
0.0
 49
0.0008202099737533
 49
0.0
 49
0.0
 49
0.0
 49
0.0
 49
1.0
 49
0.0
 49
0.0
 49
0.0
 49
0.0
 49
1.0
175
     0
142
0.0008202099737533
142
0.0
142
0.0
142
0.0
142
0.0
142
0.0008202099737533
142
0.0
142
0.0
142
0.0
142
0.0
142
1.0
142
0.0
142
0.0
142
0.0
142
0.0
142
1.0
179
     0
144
0.0008202099737533
144
0.0
144
0.0
144
0.0
144
0.0
144
0.0008202099737533
144
0.0
144
0.0
144
0.0
144
0.0
144
1.0
144
0.0
144
0.0
144
0.0
144
0.0
144
1.0
147
0.0008202099737533
147
0.0
147
0.0
147
0.0
147
0.0
147
0.0008202099737533
147
0.0
147
0.0
147
0.0
147
0.0
147
1.0
147
0.0
147
0.0
147
0.0
147
0.0
147
1.0
  0
MLEADERSTYLE
  5
1B0F
102
{ACAD_REACTORS
330
1B0E
102
}
330
1B0E
100
AcDbMLeaderStyle
170
     2
171
     1
172
     0
 90
        2
 40
0.0
 41
0.0
173
     1
 91
-1056964608
340
14
 92
       -2
290
     1
 42
2.0
291
     1
 43
0.36
  3
Standard
 44
4.0
300

342
11
174
     1
178
     6
175
     1
176
     0
 93
-1056964608
 45
4.0
292
     0
297
     0
 46
4.0
 94
-1056964608
 47
1.0
 49
1.0
140
1.0
293
     1
141
0.0
294
     1
177
     0
142
1.0
295
     0
296
     0
143
0.125
1001
ACAD_MLEADERVER
1070
     2
  0
MLINESTYLE
  5
18
102
{ACAD_REACTORS
330
17
102
}
330
17
100
AcDbMlineStyle
  2
STANDARD
 70
     0
  3

 62
   256
 51
90.0
 52
90.0
 71
     2
 49
0.5
 62
   256
  6
BYLAYER
 49
-0.5
 62
   256
  6
BYLAYER
  0
ACDBPLACEHOLDER
  5
F
102
{ACAD_REACTORS
330
E
102
}
330
E
  0
SCALE
  5
1AFD
102
{ACAD_REACTORS
330
1AFC
102
}
330
1AFC
100
AcDbScale
 70
     0
300
1:1
140
1.0
141
1.0
290
     1
  0
SCALE
  5
1AFE
102
{ACAD_REACTORS
330
1AFC
102
}
330
1AFC
100
AcDbScale
 70
     0
300
1:2
140
1.0
141
2.0
290
     0
  0
SCALE
  5
1AFF
102
{ACAD_REACTORS
330
1AFC
102
}
330
1AFC
100
AcDbScale
 70
     0
300
1:4
140
1.0
141
4.0
290
     0
  0
SCALE
  5
1B00
102
{ACAD_REACTORS
330
1AFC
102
}
330
1AFC
100
AcDbScale
 70
     0
300
1:5
140
1.0
141
5.0
290
     0
  0
SCALE
  5
1B01
102
{ACAD_REACTORS
330
1AFC
102
}
330
1AFC
100
AcDbScale
 70
     0
300
1:8
140
1.0
141
8.0
290
     0
  0
SCALE
  5
1B02
102
{ACAD_REACTORS
330
1AFC
102
}
330
1AFC
100
AcDbScale
 70
     0
300
1:10
140
1.0
141
10.0
290
     0
  0
SCALE
  5
1B03
102
{ACAD_REACTORS
330
1AFC
102
}
330
1AFC
100
AcDbScale
 70
     0
300
1:16
140
1.0
141
16.0
290
     0
  0
SCALE
  5
1B04
102
{ACAD_REACTORS
330
1AFC
102
}
330
1AFC
100
AcDbScale
 70
     0
300
1:20
140
1.0
141
20.0
290
     0
  0
SCALE
  5
1B05
102
{ACAD_REACTORS
330
1AFC
102
}
330
1AFC
100
AcDbScale
 70
     0
300
1:30
140
1.0
141
30.0
290
     0
  0
SCALE
  5
1B06
102
{ACAD_REACTORS
330
1AFC
102
}
330
1AFC
100
AcDbScale
 70
     0
300
1:40
140
1.0
141
40.0
290
     0
  0
SCALE
  5
1B07
102
{ACAD_REACTORS
330
1AFC
102
}
330
1AFC
100
AcDbScale
 70
     0
300
1:50
140
1.0
141
50.0
290
     0
  0
SCALE
  5
1B08
102
{ACAD_REACTORS
330
1AFC
102
}
330
1AFC
100
AcDbScale
 70
     0
300
1:100
140
1.0
141
100.0
290
     0
  0
SCALE
  5
1B09
102
{ACAD_REACTORS
330
1AFC
102
}
330
1AFC
100
AcDbScale
 70
     0
300
2:1
140
2.0
141
1.0
290
     0
  0
SCALE
  5
1B0A
102
{ACAD_REACTORS
330
1AFC
102
}
330
1AFC
100
AcDbScale
 70
     0
300
4:1
140
4.0
141
1.0
290
     0
  0
SCALE
  5
1B0B
102
{ACAD_REACTORS
330
1AFC
102
}
330
1AFC
100
AcDbScale
 70
     0
300
8:1
140
8.0
141
1.0
290
     0
  0
SCALE
  5
1B0C
102
{ACAD_REACTORS
330
1AFC
102
}
330
1AFC
100
AcDbScale
 70
     0
300
10:1
140
10.0
141
1.0
290
     0
  0
SCALE
  5
1B0D
102
{ACAD_REACTORS
330
1AFC
102
}
330
1AFC
100
AcDbScale
 70
     0
300
100:1
140
100.0
141
1.0
290
     0
  0
TABLESTYLE
  5
1AFB
102
{ACAD_XDICTIONARY
360
1B39
102
}
102
{ACAD_REACTORS
330
1AFA
102
}
330
1AFA
100
AcDbTableStyle
  3
Standard
 70
     0
 71
     0
 40
1.5
 41
1.5
280
     0
281
     0
  7
Standard
140
4.5
170
     2
 62
     0
 63
     7
283
     0
274
    -2
284
     1
 64
     0
275
    -2
285
     1
 65
     0
276
    -2
286
     1
 66
     0
277
    -2
287
     1
 67
     0
278
    -2
288
     1
 68
     0
279
    -2
289
     1
 69
     0
  7
Standard
140
6.0
170
     5
 62
     0
 63
     7
283
     0
274
    -2
284
     1
 64
     0
275
    -2
285
     1
 65
     0
276
    -2
286
     1
 66
     0
277
    -2
287
     1
 67
     0
278
    -2
288
     1
 68
     0
279
    -2
289
     1
 69
     0
  7
Standard
140
4.5
170
     5
 62
     0
 63
     7
283
     0
274
    -2
284
     1
 64
     0
275
    -2
285
     1
 65
     0
276
    -2
286
     1
 66
     0
277
    -2
287
     1
 67
     0
278
    -2
288
     1
 68
     0
279
    -2
289
     1
 69
     0
  0
VISUALSTYLE
  5
1AEB
102
{ACAD_XDICTIONARY
360
1B64
102
}
102
{ACAD_REACTORS
330
1AE5
102
}
330
1AE5
100
AcDbVisualStyle
  2
2dWireframe
 70
     4
 71
     0
 72
     2
 73
     0
 90
        0
 40
-0.6
 41
-30.0
 62
     5
 63
     7
 74
     1
 91
        4
 64
     7
 65
   257
 75
     1
175
     1
 42
1.0
 92
        0
 66
   257
 43
1.0
 76
     1
 77
     6
 78
     2
 67
     7
 79
     5
170
     0
171
     0
290
     0
174
     0
 93
        1
 44
0.0
173
     0
291
     0
 45
0.0
1001
ACAD
1000
AcDbSavedByObjectVersion
1070
     0
  0
VISUALSTYLE
  5
1AED
102
{ACAD_XDICTIONARY
360
1B68
102
}
102
{ACAD_REACTORS
330
1AE5
102
}
330
1AE5
100
AcDbVisualStyle
  2
3D Hidden
 70
     6
 71
     1
 72
     2
 73
     2
 90
        0
 40
-0.6
 41
-30.0
 62
     5
 63
     7
 74
     2
 91
        2
 64
     7
 65
   257
 75
     2
175
     1
 42
179.0
 92
        0
 66
   257
 43
1.0
 76
     1
 77
     6
 78
     2
 67
     7
 79
     3
170
     0
171
     0
290
     0
174
     0
 93
        1
 44
0.0
173
     0
291
     0
 45
0.0
1001
ACAD
1000
AcDbSavedByObjectVersion
1070
     0
  0
VISUALSTYLE
  5
1AEC
102
{ACAD_XDICTIONARY
360
1B66
102
}
102
{ACAD_REACTORS
330
1AE5
102
}
330
1AE5
100
AcDbVisualStyle
  2
3dWireframe
 70
     5
 71
     0
 72
     2
 73
     0
 90
        0
 40
-0.6
 41
-30.0
 62
     5
 63
     7
 74
     1
 91
        4
 64
     7
 65
   257
 75
     1
175
     1
 42
1.0
 92
        0
 66
   257
 43
1.0
 76
     1
 77
     6
 78
     2
 67
     7
 79
     5
170
     0
171
     0
290
     0
174
     0
 93
        1
 44
0.0
173
     0
291
     0
 45
0.0
1001
ACAD
1000
AcDbSavedByObjectVersion
1070
     0
  0
VISUALSTYLE
  5
1AEA
102
{ACAD_XDICTIONARY
360
1B62
102
}
102
{ACAD_REACTORS
330
1AE5
102
}
330
1AE5
100
AcDbVisualStyle
  2
Basic
 70
     7
 71
     1
 72
     0
 73
     1
 90
        0
 40
-0.6
 41
-30.0
 62
     5
 63
     7
 74
     0
 91
        4
 64
     7
 65
   257
 75
     1
175
     1
 42
1.0
 92
        8
 66
     7
 43
1.0
 76
     1
 77
     6
 78
     2
 67
     7
 79
     5
170
     0
171
     0
290
     0
174
     0
 93
        1
 44
0.0
173
     0
291
     1
 45
0.0
1001
ACAD
1000
AcDbSavedByObjectVersion
1070
     0
  0
VISUALSTYLE
  5
1AF1
102
{ACAD_XDICTIONARY
360
1B70
102
}
102
{ACAD_REACTORS
330
1AE5
102
}
330
1AE5
100
AcDbVisualStyle
  2
Brighten
 70
    12
 71
     2
 72
     2
 73
     0
 90
        0
 40
-0.6
 41
-30.0
 62
     5
 63
     7
 74
     1
 91
        4
 64
     7
 65
   257
 75
     1
175
     1
 42
1.0
 92
        8
 66
     7
 43
1.0
 76
     1
 77
     6
 78
     2
 67
     7
 79
     5
170
     0
171
     0
290
     0
174
     0
 93
        1
 44
50.0
173
     0
291
     1
 45
0.0
1001
ACAD
1000
AcDbSavedByObjectVersion
1070
     0
  0
VISUALSTYLE
  5
1AF5
102
{ACAD_XDICTIONARY
360
1B78
102
}
102
{ACAD_REACTORS
330
1AE5
102
}
330
1AE5
100
AcDbVisualStyle
  2
ColorChange
 70
    16
 71
     2
 72
     2
 73
     3
 90
        0
 40
-0.6
 41
-30.0
 62
     5
 63
     8
 74
     1
 91
        4
 64
     7
 65
   257
 75
     1
175
     1
 42
1.0
 92
        8
 66
     8
 43
1.0
 76
     1
 77
     6
 78
     2
 67
     7
 79
     5
170
     0
171
     0
290
     0
174
     0
 93
        1
 44
0.0
173
     0
291
     1
 45
0.0
1001
ACAD
1000
AcDbSavedByObjectVersion
1070
     0
  0
VISUALSTYLE
  5
1AEE
102
{ACAD_XDICTIONARY
360
1B6A
102
}
102
{ACAD_REACTORS
330
1AE5
102
}
330
1AE5
100
AcDbVisualStyle
  2
Conceptual
 70
     9
 71
     3
 72
     2
 73
     0
 90
        0
 40
-0.6
 41
-30.0
 62
     5
 63
     7
 74
     2
 91
        2
 64
     7
 65
   257
 75
     1
175
     1
 42
179.0
 92
        8
 66
     7
 43
1.0
 76
     1
 77
     6
 78
     2
 67
     7
 79
     3
170
     0
171
     0
290
     0
174
     0
 93
        1
 44
0.0
173
     0
291
     0
 45
0.0
1001
ACAD
1000
AcDbSavedByObjectVersion
1070
     0
  0
VISUALSTYLE
  5
1AF0
102
{ACAD_XDICTIONARY
360
1B6E
102
}
102
{ACAD_REACTORS
330
1AE5
102
}
330
1AE5
100
AcDbVisualStyle
  2
Dim
 70
    11
 71
     2
 72
     2
 73
     0
 90
        0
 40
-0.6
 41
-30.0
 62
     5
 63
     7
 74
     1
 91
        4
 64
     7
 65
   257
 75
     1
175
     1
 42
1.0
 92
        8
 66
     7
 43
1.0
 76
     1
 77
     6
 78
     2
 67
     7
 79
     5
170
     0
171
     0
290
     0
174
     0
 93
        1
 44
-50.0
173
     0
291
     1
 45
0.0
1001
ACAD
1000
AcDbSavedByObjectVersion
1070
     0
  0
VISUALSTYLE
  5
1AF8
102
{ACAD_XDICTIONARY
360
1B7E
102
}
102
{ACAD_REACTORS
330
1AE5
102
}
330
1AE5
100
AcDbVisualStyle
  2
EdgeColorOff
 70
    22
 71
     2
 72
     2
 73
     0
 90
        0
 40
-0.6
 41
-30.0
 62
     5
 63
     7
 74
     1
 91
        4
 64
     7
 65
   257
 75
     1
175
     1
 42
1.0
 92
        8
 66
     7
 43
1.0
 76
     1
 77
     6
 78
     2
 67
     7
 79
     5
170
     0
171
     0
290
     0
174
     0
 93
        1
 44
0.0
173
     0
291
     1
 45
0.0
1001
ACAD
1000
AcDbSavedByObjectVersion
1070
     0
  0
VISUALSTYLE
  5
1AF4
102
{ACAD_XDICTIONARY
360
1B76
102
}
102
{ACAD_REACTORS
330
1AE5
102
}
330
1AE5
100
AcDbVisualStyle
  2
Facepattern
 70
    15
 71
     2
 72
     2
 73
     0
 90
        0
 40
-0.6
 41
-30.0
 62
     5
 63
     7
 74
     1
 91
        4
 64
     7
 65
   257
 75
     1
175
     1
 42
1.0
 92
        8
 66
     7
 43
1.0
 76
     1
 77
     6
 78
     2
 67
     7
 79
     5
170
     0
171
     0
290
     0
174
     0
 93
        1
 44
0.0
173
     0
291
     1
 45
0.0
1001
ACAD
1000
AcDbSavedByObjectVersion
1070
     0
  0
VISUALSTYLE
  5
1AE6
102
{ACAD_XDICTIONARY
360
1B5A
102
}
102
{ACAD_REACTORS
330
1AE5
102
}
330
1AE5
100
AcDbVisualStyle
  2
Flat
 70
     0
 71
     2
 72
     1
 73
     1
 90
        2
 40
-0.6
 41
30.0
 62
     5
 63
     7
 74
     0
 91
        4
 64
     7
 65
   257
 75
     1
175
     1
 42
1.0
 92
        8
 66
     7
 43
1.0
 76
     1
 77
     6
 78
     2
 67
     7
 79
     5
170
     0
171
     0
290
     0
174
     0
 93
       13
 44
0.0
173
     0
291
     1
 45
0.0
1001
ACAD
1000
AcDbSavedByObjectVersion
1070
     0
  0
VISUALSTYLE
  5
1AE7
102
{ACAD_XDICTIONARY
360
1B5C
102
}
102
{ACAD_REACTORS
330
1AE5
102
}
330
1AE5
100
AcDbVisualStyle
  2
FlatWithEdges
 70
     1
 71
     2
 72
     1
 73
     1
 90
        2
 40
-0.6
 41
30.0
 62
     5
 63
     7
 74
     1
 91
        4
 64
     7
 65
   257
 75
     1
175
     1
 42
1.0
 92
        0
 66
   257
 43
1.0
 76
     1
 77
     6
 78
     2
 67
     7
 79
     5
170
     0
171
     0
290
     0
174
     0
 93
       13
 44
0.0
173
     0
291
     1
 45
0.0
1001
ACAD
1000
AcDbSavedByObjectVersion
1070
     0
  0
VISUALSTYLE
  5
1AE8
102
{ACAD_XDICTIONARY
360
1B5E
102
}
102
{ACAD_REACTORS
330
1AE5
102
}
330
1AE5
100
AcDbVisualStyle
  2
Gouraud
 70
     2
 71
     2
 72
     2
 73
     1
 90
        2
 40
-0.6
 41
30.0
 62
     5
 63
     7
 74
     0
 91
        4
 64
     7
 65
   257
 75
     1
175
     1
 42
1.0
 92
        0
 66
     7
 43
1.0
 76
     1
 77
     6
 78
     2
 67
     7
 79
     5
170
     0
171
     0
290
     0
174
     0
 93
       13
 44
0.0
173
     0
291
     1
 45
0.0
1001
ACAD
1000
AcDbSavedByObjectVersion
1070
     0
  0
VISUALSTYLE
  5
1AE9
102
{ACAD_XDICTIONARY
360
1B60
102
}
102
{ACAD_REACTORS
330
1AE5
102
}
330
1AE5
100
AcDbVisualStyle
  2
GouraudWithEdges
 70
     3
 71
     2
 72
     2
 73
     1
 90
        2
 40
-0.6
 41
30.0
 62
     5
 63
     7
 74
     1
 91
        4
 64
     7
 65
   257
 75
     1
175
     1
 42
1.0
 92
        0
 66
   257
 43
1.0
 76
     1
 77
     6
 78
     2
 67
     7
 79
     5
170
     0
171
     0
290
     0
174
     0
 93
       13
 44
0.0
173
     0
291
     1
 45
0.0
1001
ACAD
1000
AcDbSavedByObjectVersion
1070
     0
  0
VISUALSTYLE
  5
1AF6
102
{ACAD_XDICTIONARY
360
1B7A
102
}
102
{ACAD_REACTORS
330
1AE5
102
}
330
1AE5
100
AcDbVisualStyle
  2
JitterOff
 70
    20
 71
     2
 72
     2
 73
     0
 90
        0
 40
-0.6
 41
-30.0
 62
     5
 63
     7
 74
     1
 91
        4
 64
     7
 65
   257
 75
     1
175
     1
 42
1.0
 92
       10
 66
     7
 43
1.0
 76
     1
 77
     6
 78
     2
 67
     7
 79
     5
170
     0
171
     0
290
     0
174
     0
 93
        1
 44
0.0
173
     0
291
     1
 45
0.0
1001
ACAD
1000
AcDbSavedByObjectVersion
1070
     0
  0
VISUALSTYLE
  5
1AF3
102
{ACAD_XDICTIONARY
360
1B74
102
}
102
{ACAD_REACTORS
330
1AE5
102
}
330
1AE5
100
AcDbVisualStyle
  2
Linepattern
 70
    14
 71
     2
 72
     2
 73
     0
 90
        0
 40
-0.6
 41
-30.0
 62
     5
 63
     7
 74
     1
 91
        4
 64
     7
 65
   257
 75
     7
175
     7
 42
1.0
 92
        8
 66
     7
 43
1.0
 76
     1
 77
     6
 78
     2
 67
     7
 79
     5
170
     0
171
     0
290
     0
174
     0
 93
        1
 44
0.0
173
     0
291
     1
 45
0.0
1001
ACAD
1000
AcDbSavedByObjectVersion
1070
     0
  0
VISUALSTYLE
  5
1AF7
102
{ACAD_XDICTIONARY
360
1B7C
102
}
102
{ACAD_REACTORS
330
1AE5
102
}
330
1AE5
100
AcDbVisualStyle
  2
OverhangOff
 70
    21
 71
     2
 72
     2
 73
     0
 90
        0
 40
-0.6
 41
-30.0
 62
     5
 63
     7
 74
     1
 91
        4
 64
     7
 65
   257
 75
     1
175
     1
 42
1.0
 92
        9
 66
     7
 43
1.0
 76
     1
 77
     6
 78
     2
 67
     7
 79
     5
170
     0
171
     0
290
     0
174
     0
 93
        1
 44
0.0
173
     0
291
     1
 45
0.0
1001
ACAD
1000
AcDbSavedByObjectVersion
1070
     0
  0
VISUALSTYLE
  5
1AEF
102
{ACAD_XDICTIONARY
360
1B6C
102
}
102
{ACAD_REACTORS
330
1AE5
102
}
330
1AE5
100
AcDbVisualStyle
  2
Realistic
 70
     8
 71
     2
 72
     2
 73
     0
 90
        0
 40
-0.6
 41
-30.0
 62
     5
 63
     7
 74
     1
 91
        0
 64
     7
 65
   257
 75
     1
175
     1
 42
1.0
 92
        8
 66
     8
 43
1.0
 76
     1
 77
     6
 78
     2
 67
     7
 79
     5
170
     0
171
     0
290
     0
174
     0
 93
       13
 44
0.0
173
     0
291
     0
 45
0.0
1001
ACAD
1000
AcDbSavedByObjectVersion
1070
     0
  0
VISUALSTYLE
  5
1AF2
102
{ACAD_XDICTIONARY
360
1B72
102
}
102
{ACAD_REACTORS
330
1AE5
102
}
330
1AE5
100
AcDbVisualStyle
  2
Thicken
 70
    13
 71
     2
 72
     2
 73
     0
 90
        0
 40
-0.6
 41
-30.0
 62
     5
 63
     7
 74
     1
 91
        4
 64
     7
 65
   257
 75
     1
175
     1
 42
1.0
 92
       12
 66
     7
 43
1.0
 76
     1
 77
     6
 78
     2
 67
     7
 79
     5
170
     0
171
     0
290
     0
174
     0
 93
        1
 44
0.0
173
     0
291
     1
 45
0.0
1001
ACAD
1000
AcDbSavedByObjectVersion
1070
     0
  0
DICTIONARYVAR
  5
1B35
102
{ACAD_REACTORS
330
3D
102
}
330
3D
100
DictionaryVariables
280
     0
  1
1:1
  0
DICTIONARYVAR
  5
1B34
102
{ACAD_REACTORS
330
3D
102
}
330
3D
100
DictionaryVariables
280
     0
  1
STANDARD
  0
DICTIONARYVAR
  5
1B33
102
{ACAD_REACTORS
330
3D
102
}
330
3D
100
DictionaryVariables
280
     0
  1
STANDARD
  0
DICTIONARYVAR
  5
3F
102
{ACAD_REACTORS
330
3D
102
}
330
3D
100
DictionaryVariables
280
     0
  1
2
  0
DICTIONARYVAR
  5
3E
102
{ACAD_REACTORS
330
3D
102
}
330
3D
100
DictionaryVariables
280
     0
  1
1
  0
DICTIONARYVAR
  5
1B37
102
{ACAD_REACTORS
330
3D
102
}
330
3D
100
DictionaryVariables
280
     0
  1
0
  0
DICTIONARYVAR
  5
1B36
102
{ACAD_REACTORS
330
3D
102
}
330
3D
100
DictionaryVariables
280
     0
  1
127
  0
DICTIONARYVAR
  5
1B38
102
{ACAD_REACTORS
330
3D
102
}
330
3D
100
DictionaryVariables
280
     0
  1
2
  0
XRECORD
  5
B92
102
{ACAD_REACTORS
330
B91
102
}
330
B91
100
AcDbXrecord
280
     1
  0
DICTIONARY
  5
1B3D
330
1E
100
AcDbDictionary
280
     1
281
     1
  3
ACAD_XREC_ROUNDTRIP
360
1B3E
  0
DICTIONARY
  5
1B41
330
26
100
AcDbDictionary
280
     1
281
     1
  3
ACAD_XREC_ROUNDTRIP
360
1B42
  0
DICTIONARY
  5
1B3F
330
22
100
AcDbDictionary
280
     1
281
     1
  3
ACAD_XREC_ROUNDTRIP
360
1B40
  0
DICTIONARY
  5
1AD6
330
1AD5
100
AcDbDictionary
280
     1
281
     1
  3
ACAD_XREC_ROUNDTRIP
360
1B58
  3
BUMPTILE
360
1AD8
  3
DIFFUSETILE
360
1AD7
  3
OPACITYTILE
360
1ADB
  3
REFLECTIONTILE
360
1ADA
  3
REFRACTIONTILE
360
1ADC
  3
SPECULARTILE
360
1AD9
  0
DICTIONARY
  5
1ACE
330
1ACD
100
AcDbDictionary
280
     1
281
     1
  3
ACAD_XREC_ROUNDTRIP
360
1B57
  3
BUMPTILE
360
1AD0
  3
DIFFUSETILE
360
1ACF
  3
OPACITYTILE
360
1AD3
  3
REFLECTIONTILE
360
1AD2
  3
REFRACTIONTILE
360
1AD4
  3
SPECULARTILE
360
1AD1
  0
DICTIONARY
  5
1ADE
330
1ADD
100
AcDbDictionary
280
     1
281
     1
  3
ACAD_XREC_ROUNDTRIP
360
1B59
  3
BUMPTILE
360
1AE0
  3
DIFFUSETILE
360
1ADF
  3
OPACITYTILE
360
1AE3
  3
REFLECTIONTILE
360
1AE2
  3
REFRACTIONTILE
360
1AE4
  3
SPECULARTILE
360
1AE1
  0
DICTIONARY
  5
1B39
330
1AFB
100
AcDbDictionary
280
     1
281
     1
  3
ACAD_ROUNDTRIP_2008_TABLESTYLE_CELLSTYLEMAP
360
1B3A
  3
ACAD_XREC_ROUNDTRIP
360
1B80
  0
DICTIONARY
  5
1B64
330
1AEB
100
AcDbDictionary
280
     1
281
     1
  3
ACAD_XREC_ROUNDTRIP
360
1B65
  0
DICTIONARY
  5
1B68
330
1AED
100
AcDbDictionary
280
     1
281
     1
  3
ACAD_XREC_ROUNDTRIP
360
1B69
  0
DICTIONARY
  5
1B66
330
1AEC
100
AcDbDictionary
280
     1
281
     1
  3
ACAD_XREC_ROUNDTRIP
360
1B67
  0
DICTIONARY
  5
1B62
330
1AEA
100
AcDbDictionary
280
     1
281
     1
  3
ACAD_XREC_ROUNDTRIP
360
1B63
  0
DICTIONARY
  5
1B70
330
1AF1
100
AcDbDictionary
280
     1
281
     1
  3
ACAD_XREC_ROUNDTRIP
360
1B71
  0
DICTIONARY
  5
1B78
330
1AF5
100
AcDbDictionary
280
     1
281
     1
  3
ACAD_XREC_ROUNDTRIP
360
1B79
  0
DICTIONARY
  5
1B6A
330
1AEE
100
AcDbDictionary
280
     1
281
     1
  3
ACAD_XREC_ROUNDTRIP
360
1B6B
  0
DICTIONARY
  5
1B6E
330
1AF0
100
AcDbDictionary
280
     1
281
     1
  3
ACAD_XREC_ROUNDTRIP
360
1B6F
  0
DICTIONARY
  5
1B7E
330
1AF8
100
AcDbDictionary
280
     1
281
     1
  3
ACAD_XREC_ROUNDTRIP
360
1B7F
  0
DICTIONARY
  5
1B76
330
1AF4
100
AcDbDictionary
280
     1
281
     1
  3
ACAD_XREC_ROUNDTRIP
360
1B77
  0
DICTIONARY
  5
1B5A
330
1AE6
100
AcDbDictionary
280
     1
281
     1
  3
ACAD_XREC_ROUNDTRIP
360
1B5B
  0
DICTIONARY
  5
1B5C
330
1AE7
100
AcDbDictionary
280
     1
281
     1
  3
ACAD_XREC_ROUNDTRIP
360
1B5D
  0
DICTIONARY
  5
1B5E
330
1AE8
100
AcDbDictionary
280
     1
281
     1
  3
ACAD_XREC_ROUNDTRIP
360
1B5F
  0
DICTIONARY
  5
1B60
330
1AE9
100
AcDbDictionary
280
     1
281
     1
  3
ACAD_XREC_ROUNDTRIP
360
1B61
  0
DICTIONARY
  5
1B7A
330
1AF6
100
AcDbDictionary
280
     1
281
     1
  3
ACAD_XREC_ROUNDTRIP
360
1B7B
  0
DICTIONARY
  5
1B74
330
1AF3
100
AcDbDictionary
280
     1
281
     1
  3
ACAD_XREC_ROUNDTRIP
360
1B75
  0
DICTIONARY
  5
1B7C
330
1AF7
100
AcDbDictionary
280
     1
281
     1
  3
ACAD_XREC_ROUNDTRIP
360
1B7D
  0
DICTIONARY
  5
1B6C
330
1AEF
100
AcDbDictionary
280
     1
281
     1
  3
ACAD_XREC_ROUNDTRIP
360
1B6D
  0
DICTIONARY
  5
1B72
330
1AF2
100
AcDbDictionary
280
     1
281
     1
  3
ACAD_XREC_ROUNDTRIP
360
1B73
  0
XRECORD
  5
1B3E
102
{ACAD_REACTORS
330
1B3D
102
}
330
1B3D
100
AcDbXrecord
280
     1
102
SHADEPLOT
 70
     0
102
SHADEPLOTRESLEVEL
 70
     2
102
SHADEPLOTCUSTOMDPI
 70
   300
  0
XRECORD
  5
1B42
102
{ACAD_REACTORS
330
1B41
102
}
330
1B41
100
AcDbXrecord
280
     1
102
SHADEPLOT
 70
     0
102
SHADEPLOTRESLEVEL
 70
     2
102
SHADEPLOTCUSTOMDPI
 70
   300
  0
XRECORD
  5
1B40
102
{ACAD_REACTORS
330
1B3F
102
}
330
1B3F
100
AcDbXrecord
280
     1
102
SHADEPLOT
 70
     0
102
SHADEPLOTRESLEVEL
 70
     2
102
SHADEPLOTCUSTOMDPI
 70
   300
  0
XRECORD
  5
1B58
102
{ACAD_REACTORS
330
1AD6
102
}
330
1AD6
100
AcDbXrecord
280
     1
102
MATERIAL
148
0.0
149
0.0
149
0.0
 93
        0
 94
      127
282
     0
 72
     0
 77
     0
171
     0
175
     0
179
     0
273
     0
  0
XRECORD
  5
1AD8
102
{ACAD_REACTORS
330
1AD6
102
}
330
1AD6
100
AcDbXrecord
280
     1
270
     1
271
     1
  0
XRECORD
  5
1AD7
102
{ACAD_REACTORS
330
1AD6
102
}
330
1AD6
100
AcDbXrecord
280
     1
270
     1
271
     1
  0
XRECORD
  5
1ADB
102
{ACAD_REACTORS
330
1AD6
102
}
330
1AD6
100
AcDbXrecord
280
     1
270
     1
271
     1
  0
XRECORD
  5
1ADA
102
{ACAD_REACTORS
330
1AD6
102
}
330
1AD6
100
AcDbXrecord
280
     1
270
     1
271
     1
  0
XRECORD
  5
1ADC
102
{ACAD_REACTORS
330
1AD6
102
}
330
1AD6
100
AcDbXrecord
280
     1
270
     1
271
     1
  0
XRECORD
  5
1AD9
102
{ACAD_REACTORS
330
1AD6
102
}
330
1AD6
100
AcDbXrecord
280
     1
270
     1
271
     1
  0
XRECORD
  5
1B57
102
{ACAD_REACTORS
330
1ACE
102
}
330
1ACE
100
AcDbXrecord
280
     1
102
MATERIAL
148
0.0
149
0.0
149
0.0
 93
        0
 94
      127
282
     0
 72
     0
 77
     0
171
     0
175
     0
179
     0
273
     0
  0
XRECORD
  5
1AD0
102
{ACAD_REACTORS
330
1ACE
102
}
330
1ACE
100
AcDbXrecord
280
     1
270
     1
271
     1
  0
XRECORD
  5
1ACF
102
{ACAD_REACTORS
330
1ACE
102
}
330
1ACE
100
AcDbXrecord
280
     1
270
     1
271
     1
  0
XRECORD
  5
1AD3
102
{ACAD_REACTORS
330
1ACE
102
}
330
1ACE
100
AcDbXrecord
280
     1
270
     1
271
     1
  0
XRECORD
  5
1AD2
102
{ACAD_REACTORS
330
1ACE
102
}
330
1ACE
100
AcDbXrecord
280
     1
270
     1
271
     1
  0
XRECORD
  5
1AD4
102
{ACAD_REACTORS
330
1ACE
102
}
330
1ACE
100
AcDbXrecord
280
     1
270
     1
271
     1
  0
XRECORD
  5
1AD1
102
{ACAD_REACTORS
330
1ACE
102
}
330
1ACE
100
AcDbXrecord
280
     1
270
     1
271
     1
  0
XRECORD
  5
1B59
102
{ACAD_REACTORS
330
1ADE
102
}
330
1ADE
100
AcDbXrecord
280
     1
102
MATERIAL
148
0.0
149
0.0
149
0.0
 93
        0
 94
      127
282
     0
 72
     0
 77
     0
171
     0
175
     0
179
     0
273
     0
  0
XRECORD
  5
1AE0
102
{ACAD_REACTORS
330
1ADE
102
}
330
1ADE
100
AcDbXrecord
280
     1
270
     1
271
     1
  0
XRECORD
  5
1ADF
102
{ACAD_REACTORS
330
1ADE
102
}
330
1ADE
100
AcDbXrecord
280
     1
270
     1
271
     1
  0
XRECORD
  5
1AE3
102
{ACAD_REACTORS
330
1ADE
102
}
330
1ADE
100
AcDbXrecord
280
     1
270
     1
271
     1
  0
XRECORD
  5
1AE2
102
{ACAD_REACTORS
330
1ADE
102
}
330
1ADE
100
AcDbXrecord
280
     1
270
     1
271
     1
  0
XRECORD
  5
1AE4
102
{ACAD_REACTORS
330
1ADE
102
}
330
1ADE
100
AcDbXrecord
280
     1
270
     1
271
     1
  0
XRECORD
  5
1AE1
102
{ACAD_REACTORS
330
1ADE
102
}
330
1ADE
100
AcDbXrecord
280
     1
270
     1
271
     1
  0
CELLSTYLEMAP
  5
1B3A
102
{ACAD_REACTORS
330
1B39
102
}
330
1B39
100
AcDbCellStyleMap
 90
        3
300
CELLSTYLE
  1
TABLEFORMAT_BEGIN
 90
        5
170
     1
 91
        0
 92
    32768
 62
   257
 93
        1
300
CONTENTFORMAT
  1
CONTENTFORMAT_BEGIN
 90
        0
 91
        0
 92
      512
 93
        0
300

 40
0.0
140
1.0
 94
        5
 62
     0
340
11
144
6.0
309
CONTENTFORMAT_END
171
     1
301
MARGIN
  1
CELLMARGIN_BEGIN
 40
1.5
 40
1.5
 40
1.5
 40
1.5
 40
4.5
 40
4.5
309
CELLMARGIN_END
 94
        6
 95
        1
302
GRIDFORMAT
  1
GRIDFORMAT_BEGIN
 90
        0
 91
        1
 62
     0
 92
       -2
340
0
 93
        0
 40
1.125
309
GRIDFORMAT_END
 95
        2
302
GRIDFORMAT
  1
GRIDFORMAT_BEGIN
 90
        0
 91
        1
 62
     0
 92
       -2
340
0
 93
        0
 40
1.125
309
GRIDFORMAT_END
 95
        4
302
GRIDFORMAT
  1
GRIDFORMAT_BEGIN
 90
        0
 91
        1
 62
     0
 92
       -2
340
0
 93
        0
 40
1.125
309
GRIDFORMAT_END
 95
        8
302
GRIDFORMAT
  1
GRIDFORMAT_BEGIN
 90
        0
 91
        1
 62
     0
 92
       -2
340
0
 93
        0
 40
1.125
309
GRIDFORMAT_END
 95
       16
302
GRIDFORMAT
  1
GRIDFORMAT_BEGIN
 90
        0
 91
        1
 62
     0
 92
       -2
340
0
 93
        0
 40
1.125
309
GRIDFORMAT_END
 95
       32
302
GRIDFORMAT
  1
GRIDFORMAT_BEGIN
 90
        0
 91
        1
 62
     0
 92
       -2
340
0
 93
        0
 40
1.125
309
GRIDFORMAT_END
309
TABLEFORMAT_END
  1
CELLSTYLE_BEGIN
 90
        1
 91
        1
300
_TITLE
309
CELLSTYLE_END
300
CELLSTYLE
  1
TABLEFORMAT_BEGIN
 90
        5
170
     1
 91
        0
 92
        0
 62
   257
 93
        1
300
CONTENTFORMAT
  1
CONTENTFORMAT_BEGIN
 90
        0
 91
        0
 92
      512
 93
        0
300

 40
0.0
140
1.0
 94
        5
 62
     0
340
11
144
4.5
309
CONTENTFORMAT_END
171
     1
301
MARGIN
  1
CELLMARGIN_BEGIN
 40
1.5
 40
1.5
 40
1.5
 40
1.5
 40
4.5
 40
4.5
309
CELLMARGIN_END
 94
        6
 95
        1
302
GRIDFORMAT
  1
GRIDFORMAT_BEGIN
 90
        0
 91
        1
 62
     0
 92
       -2
340
0
 93
        0
 40
1.125
309
GRIDFORMAT_END
 95
        2
302
GRIDFORMAT
  1
GRIDFORMAT_BEGIN
 90
        0
 91
        1
 62
     0
 92
       -2
340
0
 93
        0
 40
1.125
309
GRIDFORMAT_END
 95
        4
302
GRIDFORMAT
  1
GRIDFORMAT_BEGIN
 90
        0
 91
        1
 62
     0
 92
       -2
340
0
 93
        0
 40
1.125
309
GRIDFORMAT_END
 95
        8
302
GRIDFORMAT
  1
GRIDFORMAT_BEGIN
 90
        0
 91
        1
 62
     0
 92
       -2
340
0
 93
        0
 40
1.125
309
GRIDFORMAT_END
 95
       16
302
GRIDFORMAT
  1
GRIDFORMAT_BEGIN
 90
        0
 91
        1
 62
     0
 92
       -2
340
0
 93
        0
 40
1.125
309
GRIDFORMAT_END
 95
       32
302
GRIDFORMAT
  1
GRIDFORMAT_BEGIN
 90
        0
 91
        1
 62
     0
 92
       -2
340
0
 93
        0
 40
1.125
309
GRIDFORMAT_END
309
TABLEFORMAT_END
  1
CELLSTYLE_BEGIN
 90
        2
 91
        1
300
_HEADER
309
CELLSTYLE_END
300
CELLSTYLE
  1
TABLEFORMAT_BEGIN
 90
        5
170
     1
 91
        0
 92
        0
 62
   257
 93
        1
300
CONTENTFORMAT
  1
CONTENTFORMAT_BEGIN
 90
        0
 91
        0
 92
      512
 93
        0
300

 40
0.0
140
1.0
 94
        2
 62
     0
340
11
144
4.5
309
CONTENTFORMAT_END
171
     1
301
MARGIN
  1
CELLMARGIN_BEGIN
 40
1.5
 40
1.5
 40
1.5
 40
1.5
 40
4.5
 40
4.5
309
CELLMARGIN_END
 94
        6
 95
        1
302
GRIDFORMAT
  1
GRIDFORMAT_BEGIN
 90
        0
 91
        1
 62
     0
 92
       -2
340
0
 93
        0
 40
1.125
309
GRIDFORMAT_END
 95
        2
302
GRIDFORMAT
  1
GRIDFORMAT_BEGIN
 90
        0
 91
        1
 62
     0
 92
       -2
340
0
 93
        0
 40
1.125
309
GRIDFORMAT_END
 95
        4
302
GRIDFORMAT
  1
GRIDFORMAT_BEGIN
 90
        0
 91
        1
 62
     0
 92
       -2
340
0
 93
        0
 40
1.125
309
GRIDFORMAT_END
 95
        8
302
GRIDFORMAT
  1
GRIDFORMAT_BEGIN
 90
        0
 91
        1
 62
     0
 92
       -2
340
0
 93
        0
 40
1.125
309
GRIDFORMAT_END
 95
       16
302
GRIDFORMAT
  1
GRIDFORMAT_BEGIN
 90
        0
 91
        1
 62
     0
 92
       -2
340
0
 93
        0
 40
1.125
309
GRIDFORMAT_END
 95
       32
302
GRIDFORMAT
  1
GRIDFORMAT_BEGIN
 90
        0
 91
        1
 62
     0
 92
       -2
340
0
 93
        0
 40
1.125
309
GRIDFORMAT_END
309
TABLEFORMAT_END
  1
CELLSTYLE_BEGIN
 90
        3
 91
        2
300
_DATA
309
CELLSTYLE_END
  0
XRECORD
  5
1B80
102
{ACAD_REACTORS
330
1B39
102
}
330
1B39
100
AcDbXrecord
280
     1
102
ACAD_ROUNDTRIP_PRE2007_TABLESTYLE
 90
      512
 91
        0
  1

 92
      512
 93
        0
  2

 94
      512
 95
        0
  3

  0
XRECORD
  5
1B65
102
{ACAD_REACTORS
330
1B64
102
}
330
1B64
100
AcDbXrecord
280
     1
102
RTVSPropertyOp0
 70
     1
102
RTVSPropertyOp1
 70
     1
102
RTVSPropertyOp2
 70
     1
102
RTVSPropertyOp3
 70
     1
102
RTVSPropertyOp4
 70
     1
102
RTVSPropertyOp5
 70
     1
102
RTVSPropertyOp6
 70
     1
102
RTVSPropertyOp7
 70
     1
102
RTVSPropertyOp8
 70
     1
102
RTVSPropertyOp9
 70
     1
102
RTVSPropertyOp10
 70
     1
102
RTVSPropertyOp11
 70
     1
102
RTVSPropertyOp12
 70
     1
102
RTVSPropertyOp13
 70
     1
102
RTVSPropertyOp14
 70
     1
102
RTVSPropertyOp15
 70
     1
102
RTVSPropertyOp16
 70
     1
102
RTVSPropertyOp17
 70
     1
102
RTVSPropertyOp18
 70
     1
102
RTVSPropertyOp19
 70
     1
102
RTVSPropertyOp20
 70
     1
102
RTVSPropertyOp21
 70
     1
102
RTVSPropertyOp22
 70
     1
102
RTVSPropertyOp23
 70
     1
102
RTVSPropertyOp24
 70
     1
102
RTVSPropertyOp25
 70
     1
102
RTVSPropertyOp26
 70
     1
102
RTVSPropertyOp27
 70
     1
  0
XRECORD
  5
1B69
102
{ACAD_REACTORS
330
1B68
102
}
330
1B68
100
AcDbXrecord
280
     1
102
RTVSPropertyOp0
 70
     1
102
RTVSPropertyOp1
 70
     1
102
RTVSPropertyOp2
 70
     1
102
RTVSPropertyOp3
 70
     1
102
RTVSPropertyOp4
 70
     1
102
RTVSPropertyOp5
 70
     1
102
RTVSPropertyOp6
 70
     1
102
RTVSPropertyOp7
 70
     1
102
RTVSPropertyOp8
 70
     1
102
RTVSPropertyOp9
 70
     1
102
RTVSPropertyOp10
 70
     1
102
RTVSPropertyOp11
 70
     1
102
RTVSPropertyOp12
 70
     1
102
RTVSPropertyOp13
 70
     1
102
RTVSPropertyOp14
 70
     1
102
RTVSPropertyOp15
 70
     1
102
RTVSPropertyOp16
 70
     1
102
RTVSPropertyOp17
 70
     1
102
RTVSPropertyOp18
 70
     1
102
RTVSPropertyOp19
 70
     1
102
RTVSPropertyOp20
 70
     1
102
RTVSPropertyOp21
 70
     1
102
RTVSPropertyOp22
 70
     1
102
RTVSPropertyOp23
 70
     1
102
RTVSPropertyOp24
 70
     1
102
RTVSPropertyOp25
 70
     1
102
RTVSPropertyOp26
 70
     1
102
RTVSPropertyOp27
 70
     1
  0
XRECORD
  5
1B67
102
{ACAD_REACTORS
330
1B66
102
}
330
1B66
100
AcDbXrecord
280
     1
102
RTVSPropertyOp0
 70
     1
102
RTVSPropertyOp1
 70
     1
102
RTVSPropertyOp2
 70
     1
102
RTVSPropertyOp3
 70
     1
102
RTVSPropertyOp4
 70
     1
102
RTVSPropertyOp5
 70
     1
102
RTVSPropertyOp6
 70
     1
102
RTVSPropertyOp7
 70
     1
102
RTVSPropertyOp8
 70
     1
102
RTVSPropertyOp9
 70
     1
102
RTVSPropertyOp10
 70
     1
102
RTVSPropertyOp11
 70
     1
102
RTVSPropertyOp12
 70
     1
102
RTVSPropertyOp13
 70
     1
102
RTVSPropertyOp14
 70
     1
102
RTVSPropertyOp15
 70
     1
102
RTVSPropertyOp16
 70
     1
102
RTVSPropertyOp17
 70
     1
102
RTVSPropertyOp18
 70
     1
102
RTVSPropertyOp19
 70
     1
102
RTVSPropertyOp20
 70
     1
102
RTVSPropertyOp21
 70
     1
102
RTVSPropertyOp22
 70
     1
102
RTVSPropertyOp23
 70
     1
102
RTVSPropertyOp24
 70
     1
102
RTVSPropertyOp25
 70
     1
102
RTVSPropertyOp26
 70
     1
102
RTVSPropertyOp27
 70
     1
  0
XRECORD
  5
1B63
102
{ACAD_REACTORS
330
1B62
102
}
330
1B62
100
AcDbXrecord
280
     1
102
RTVSPropertyOp0
 70
     1
102
RTVSPropertyOp1
 70
     1
102
RTVSPropertyOp2
 70
     1
102
RTVSPropertyOp3
 70
     1
102
RTVSPropertyOp4
 70
     1
102
RTVSPropertyOp5
 70
     1
102
RTVSPropertyOp6
 70
     1
102
RTVSPropertyOp7
 70
     1
102
RTVSPropertyOp8
 70
     1
102
RTVSPropertyOp9
 70
     1
102
RTVSPropertyOp10
 70
     1
102
RTVSPropertyOp11
 70
     1
102
RTVSPropertyOp12
 70
     1
102
RTVSPropertyOp13
 70
     1
102
RTVSPropertyOp14
 70
     1
102
RTVSPropertyOp15
 70
     1
102
RTVSPropertyOp16
 70
     1
102
RTVSPropertyOp17
 70
     1
102
RTVSPropertyOp18
 70
     1
102
RTVSPropertyOp19
 70
     1
102
RTVSPropertyOp20
 70
     1
102
RTVSPropertyOp21
 70
     1
102
RTVSPropertyOp22
 70
     1
102
RTVSPropertyOp23
 70
     1
102
RTVSPropertyOp24
 70
     1
102
RTVSPropertyOp25
 70
     1
102
RTVSPropertyOp26
 70
     1
102
RTVSPropertyOp27
 70
     1
  0
XRECORD
  5
1B71
102
{ACAD_REACTORS
330
1B70
102
}
330
1B70
100
AcDbXrecord
280
     1
102
RTVSPropertyOp0
 70
     1
102
RTVSPropertyOp1
 70
     1
102
RTVSPropertyOp2
 70
     1
102
RTVSPropertyOp3
 70
     1
102
RTVSPropertyOp4
 70
     1
102
RTVSPropertyOp5
 70
     1
102
RTVSPropertyOp6
 70
     1
102
RTVSPropertyOp7
 70
     1
102
RTVSPropertyOp8
 70
     1
102
RTVSPropertyOp9
 70
     1
102
RTVSPropertyOp10
 70
     1
102
RTVSPropertyOp11
 70
     1
102
RTVSPropertyOp12
 70
     1
102
RTVSPropertyOp13
 70
     1
102
RTVSPropertyOp14
 70
     1
102
RTVSPropertyOp15
 70
     1
102
RTVSPropertyOp16
 70
     1
102
RTVSPropertyOp17
 70
     1
102
RTVSPropertyOp18
 70
     1
102
RTVSPropertyOp19
 70
     1
102
RTVSPropertyOp20
 70
     1
102
RTVSPropertyOp21
 70
     1
102
RTVSPropertyOp22
 70
     1
102
RTVSPropertyOp23
 70
     1
102
RTVSPropertyOp24
 70
     1
102
RTVSPropertyOp25
 70
     1
102
RTVSPropertyOp26
 70
     1
102
RTVSPropertyOp27
 70
     1
  0
XRECORD
  5
1B79
102
{ACAD_REACTORS
330
1B78
102
}
330
1B78
100
AcDbXrecord
280
     1
102
RTVSPropertyOp0
 70
     1
102
RTVSPropertyOp1
 70
     1
102
RTVSPropertyOp2
 70
     1
102
RTVSPropertyOp3
 70
     1
102
RTVSPropertyOp4
 70
     1
102
RTVSPropertyOp5
 70
     1
102
RTVSPropertyOp6
 70
     1
102
RTVSPropertyOp7
 70
     1
102
RTVSPropertyOp8
 70
     1
102
RTVSPropertyOp9
 70
     1
102
RTVSPropertyOp10
 70
     1
102
RTVSPropertyOp11
 70
     1
102
RTVSPropertyOp12
 70
     1
102
RTVSPropertyOp13
 70
     1
102
RTVSPropertyOp14
 70
     1
102
RTVSPropertyOp15
 70
     1
102
RTVSPropertyOp16
 70
     1
102
RTVSPropertyOp17
 70
     1
102
RTVSPropertyOp18
 70
     1
102
RTVSPropertyOp19
 70
     1
102
RTVSPropertyOp20
 70
     1
102
RTVSPropertyOp21
 70
     1
102
RTVSPropertyOp22
 70
     1
102
RTVSPropertyOp23
 70
     1
102
RTVSPropertyOp24
 70
     1
102
RTVSPropertyOp25
 70
     1
102
RTVSPropertyOp26
 70
     1
102
RTVSPropertyOp27
 70
     1
  0
XRECORD
  5
1B6B
102
{ACAD_REACTORS
330
1B6A
102
}
330
1B6A
100
AcDbXrecord
280
     1
102
RTVSPropertyOp0
 70
     1
102
RTVSPropertyOp1
 70
     1
102
RTVSPropertyOp2
 70
     1
102
RTVSPropertyOp3
 70
     1
102
RTVSPropertyOp4
 70
     1
102
RTVSPropertyOp5
 70
     1
102
RTVSPropertyOp6
 70
     1
102
RTVSPropertyOp7
 70
     1
102
RTVSPropertyOp8
 70
     1
102
RTVSPropertyOp9
 70
     1
102
RTVSPropertyOp10
 70
     1
102
RTVSPropertyOp11
 70
     1
102
RTVSPropertyOp12
 70
     1
102
RTVSPropertyOp13
 70
     1
102
RTVSPropertyOp14
 70
     1
102
RTVSPropertyOp15
 70
     1
102
RTVSPropertyOp16
 70
     1
102
RTVSPropertyOp17
 70
     1
102
RTVSPropertyOp18
 70
     1
102
RTVSPropertyOp19
 70
     1
102
RTVSPropertyOp20
 70
     1
102
RTVSPropertyOp21
 70
     1
102
RTVSPropertyOp22
 70
     1
102
RTVSPropertyOp23
 70
     1
102
RTVSPropertyOp24
 70
     1
102
RTVSPropertyOp25
 70
     1
102
RTVSPropertyOp26
 70
     1
102
RTVSPropertyOp27
 70
     1
  0
XRECORD
  5
1B6F
102
{ACAD_REACTORS
330
1B6E
102
}
330
1B6E
100
AcDbXrecord
280
     1
102
RTVSPropertyOp0
 70
     1
102
RTVSPropertyOp1
 70
     1
102
RTVSPropertyOp2
 70
     1
102
RTVSPropertyOp3
 70
     1
102
RTVSPropertyOp4
 70
     1
102
RTVSPropertyOp5
 70
     1
102
RTVSPropertyOp6
 70
     1
102
RTVSPropertyOp7
 70
     1
102
RTVSPropertyOp8
 70
     1
102
RTVSPropertyOp9
 70
     1
102
RTVSPropertyOp10
 70
     1
102
RTVSPropertyOp11
 70
     1
102
RTVSPropertyOp12
 70
     1
102
RTVSPropertyOp13
 70
     1
102
RTVSPropertyOp14
 70
     1
102
RTVSPropertyOp15
 70
     1
102
RTVSPropertyOp16
 70
     1
102
RTVSPropertyOp17
 70
     1
102
RTVSPropertyOp18
 70
     1
102
RTVSPropertyOp19
 70
     1
102
RTVSPropertyOp20
 70
     1
102
RTVSPropertyOp21
 70
     1
102
RTVSPropertyOp22
 70
     1
102
RTVSPropertyOp23
 70
     1
102
RTVSPropertyOp24
 70
     1
102
RTVSPropertyOp25
 70
     1
102
RTVSPropertyOp26
 70
     1
102
RTVSPropertyOp27
 70
     1
  0
XRECORD
  5
1B7F
102
{ACAD_REACTORS
330
1B7E
102
}
330
1B7E
100
AcDbXrecord
280
     1
102
RTVSPropertyOp0
 70
     0
102
RTVSPropertyOp1
 70
     0
102
RTVSPropertyOp2
 70
     0
102
RTVSPropertyOp3
 70
     0
102
RTVSPropertyOp4
 70
     0
102
RTVSPropertyOp5
 70
     0
102
RTVSPropertyOp6
 70
     0
102
RTVSPropertyOp7
 70
     0
102
RTVSPropertyOp8
 70
     0
102
RTVSPropertyOp9
 70
     0
102
RTVSPropertyOp10
 70
     0
102
RTVSPropertyOp11
 70
     0
102
RTVSPropertyOp12
 70
     0
102
RTVSPropertyOp13
 70
     0
102
RTVSPropertyOp14
 70
     2
102
RTVSPropertyOp15
 70
     0
102
RTVSPropertyOp16
 70
     0
102
RTVSPropertyOp17
 70
     0
102
RTVSPropertyOp18
 70
     0
102
RTVSPropertyOp19
 70
     0
102
RTVSPropertyOp20
 70
     0
102
RTVSPropertyOp21
 70
     0
102
RTVSPropertyOp22
 70
     0
102
RTVSPropertyOp23
 70
     0
102
RTVSPropertyOp24
 70
     0
102
RTVSPropertyOp25
 70
     0
102
RTVSPropertyOp26
 70
     0
102
RTVSPropertyOp27
 70
     0
  0
XRECORD
  5
1B77
102
{ACAD_REACTORS
330
1B76
102
}
330
1B76
100
AcDbXrecord
280
     1
102
RTVSPropertyOp0
 70
     1
102
RTVSPropertyOp1
 70
     1
102
RTVSPropertyOp2
 70
     1
102
RTVSPropertyOp3
 70
     1
102
RTVSPropertyOp4
 70
     1
102
RTVSPropertyOp5
 70
     1
102
RTVSPropertyOp6
 70
     1
102
RTVSPropertyOp7
 70
     1
102
RTVSPropertyOp8
 70
     1
102
RTVSPropertyOp9
 70
     1
102
RTVSPropertyOp10
 70
     1
102
RTVSPropertyOp11
 70
     1
102
RTVSPropertyOp12
 70
     1
102
RTVSPropertyOp13
 70
     1
102
RTVSPropertyOp14
 70
     1
102
RTVSPropertyOp15
 70
     1
102
RTVSPropertyOp16
 70
     1
102
RTVSPropertyOp17
 70
     1
102
RTVSPropertyOp18
 70
     1
102
RTVSPropertyOp19
 70
     1
102
RTVSPropertyOp20
 70
     1
102
RTVSPropertyOp21
 70
     1
102
RTVSPropertyOp22
 70
     1
102
RTVSPropertyOp23
 70
     1
102
RTVSPropertyOp24
 70
     1
102
RTVSPropertyOp25
 70
     1
102
RTVSPropertyOp26
 70
     1
102
RTVSPropertyOp27
 70
     1
  0
XRECORD
  5
1B5B
102
{ACAD_REACTORS
330
1B5A
102
}
330
1B5A
100
AcDbXrecord
280
     1
102
RTVSPropertyOp0
 70
     1
102
RTVSPropertyOp1
 70
     1
102
RTVSPropertyOp2
 70
     1
102
RTVSPropertyOp3
 70
     1
102
RTVSPropertyOp4
 70
     1
102
RTVSPropertyOp5
 70
     1
102
RTVSPropertyOp6
 70
     1
102
RTVSPropertyOp7
 70
     1
102
RTVSPropertyOp8
 70
     1
102
RTVSPropertyOp9
 70
     1
102
RTVSPropertyOp10
 70
     1
102
RTVSPropertyOp11
 70
     1
102
RTVSPropertyOp12
 70
     1
102
RTVSPropertyOp13
 70
     1
102
RTVSPropertyOp14
 70
     1
102
RTVSPropertyOp15
 70
     1
102
RTVSPropertyOp16
 70
     1
102
RTVSPropertyOp17
 70
     1
102
RTVSPropertyOp18
 70
     1
102
RTVSPropertyOp19
 70
     1
102
RTVSPropertyOp20
 70
     1
102
RTVSPropertyOp21
 70
     1
102
RTVSPropertyOp22
 70
     1
102
RTVSPropertyOp23
 70
     1
102
RTVSPropertyOp24
 70
     1
102
RTVSPropertyOp25
 70
     1
102
RTVSPropertyOp26
 70
     1
102
RTVSPropertyOp27
 70
     1
  0
XRECORD
  5
1B5D
102
{ACAD_REACTORS
330
1B5C
102
}
330
1B5C
100
AcDbXrecord
280
     1
102
RTVSPropertyOp0
 70
     1
102
RTVSPropertyOp1
 70
     1
102
RTVSPropertyOp2
 70
     1
102
RTVSPropertyOp3
 70
     1
102
RTVSPropertyOp4
 70
     1
102
RTVSPropertyOp5
 70
     1
102
RTVSPropertyOp6
 70
     1
102
RTVSPropertyOp7
 70
     1
102
RTVSPropertyOp8
 70
     1
102
RTVSPropertyOp9
 70
     1
102
RTVSPropertyOp10
 70
     1
102
RTVSPropertyOp11
 70
     1
102
RTVSPropertyOp12
 70
     1
102
RTVSPropertyOp13
 70
     1
102
RTVSPropertyOp14
 70
     1
102
RTVSPropertyOp15
 70
     1
102
RTVSPropertyOp16
 70
     1
102
RTVSPropertyOp17
 70
     1
102
RTVSPropertyOp18
 70
     1
102
RTVSPropertyOp19
 70
     1
102
RTVSPropertyOp20
 70
     1
102
RTVSPropertyOp21
 70
     1
102
RTVSPropertyOp22
 70
     1
102
RTVSPropertyOp23
 70
     1
102
RTVSPropertyOp24
 70
     1
102
RTVSPropertyOp25
 70
     1
102
RTVSPropertyOp26
 70
     1
102
RTVSPropertyOp27
 70
     1
  0
XRECORD
  5
1B5F
102
{ACAD_REACTORS
330
1B5E
102
}
330
1B5E
100
AcDbXrecord
280
     1
102
RTVSPropertyOp0
 70
     1
102
RTVSPropertyOp1
 70
     1
102
RTVSPropertyOp2
 70
     1
102
RTVSPropertyOp3
 70
     1
102
RTVSPropertyOp4
 70
     1
102
RTVSPropertyOp5
 70
     1
102
RTVSPropertyOp6
 70
     1
102
RTVSPropertyOp7
 70
     1
102
RTVSPropertyOp8
 70
     1
102
RTVSPropertyOp9
 70
     1
102
RTVSPropertyOp10
 70
     1
102
RTVSPropertyOp11
 70
     1
102
RTVSPropertyOp12
 70
     1
102
RTVSPropertyOp13
 70
     1
102
RTVSPropertyOp14
 70
     1
102
RTVSPropertyOp15
 70
     1
102
RTVSPropertyOp16
 70
     1
102
RTVSPropertyOp17
 70
     1
102
RTVSPropertyOp18
 70
     1
102
RTVSPropertyOp19
 70
     1
102
RTVSPropertyOp20
 70
     1
102
RTVSPropertyOp21
 70
     1
102
RTVSPropertyOp22
 70
     1
102
RTVSPropertyOp23
 70
     1
102
RTVSPropertyOp24
 70
     1
102
RTVSPropertyOp25
 70
     1
102
RTVSPropertyOp26
 70
     1
102
RTVSPropertyOp27
 70
     1
  0
XRECORD
  5
1B61
102
{ACAD_REACTORS
330
1B60
102
}
330
1B60
100
AcDbXrecord
280
     1
102
RTVSPropertyOp0
 70
     1
102
RTVSPropertyOp1
 70
     1
102
RTVSPropertyOp2
 70
     1
102
RTVSPropertyOp3
 70
     1
102
RTVSPropertyOp4
 70
     1
102
RTVSPropertyOp5
 70
     1
102
RTVSPropertyOp6
 70
     1
102
RTVSPropertyOp7
 70
     1
102
RTVSPropertyOp8
 70
     1
102
RTVSPropertyOp9
 70
     1
102
RTVSPropertyOp10
 70
     1
102
RTVSPropertyOp11
 70
     1
102
RTVSPropertyOp12
 70
     1
102
RTVSPropertyOp13
 70
     1
102
RTVSPropertyOp14
 70
     1
102
RTVSPropertyOp15
 70
     1
102
RTVSPropertyOp16
 70
     1
102
RTVSPropertyOp17
 70
     1
102
RTVSPropertyOp18
 70
     1
102
RTVSPropertyOp19
 70
     1
102
RTVSPropertyOp20
 70
     1
102
RTVSPropertyOp21
 70
     1
102
RTVSPropertyOp22
 70
     1
102
RTVSPropertyOp23
 70
     1
102
RTVSPropertyOp24
 70
     1
102
RTVSPropertyOp25
 70
     1
102
RTVSPropertyOp26
 70
     1
102
RTVSPropertyOp27
 70
     1
  0
XRECORD
  5
1B7B
102
{ACAD_REACTORS
330
1B7A
102
}
330
1B7A
100
AcDbXrecord
280
     1
102
RTVSPropertyOp0
 70
     0
102
RTVSPropertyOp1
 70
     0
102
RTVSPropertyOp2
 70
     0
102
RTVSPropertyOp3
 70
     0
102
RTVSPropertyOp4
 70
     0
102
RTVSPropertyOp5
 70
     0
102
RTVSPropertyOp6
 70
     0
102
RTVSPropertyOp7
 70
     0
102
RTVSPropertyOp8
 70
     0
102
RTVSPropertyOp9
 70
     0
102
RTVSPropertyOp10
 70
     0
102
RTVSPropertyOp11
 70
     0
102
RTVSPropertyOp12
 70
     0
102
RTVSPropertyOp13
 70
     0
102
RTVSPropertyOp14
 70
     2
102
RTVSPropertyOp15
 70
     0
102
RTVSPropertyOp16
 70
     0
102
RTVSPropertyOp17
 70
     0
102
RTVSPropertyOp18
 70
     0
102
RTVSPropertyOp19
 70
     0
102
RTVSPropertyOp20
 70
     0
102
RTVSPropertyOp21
 70
     0
102
RTVSPropertyOp22
 70
     0
102
RTVSPropertyOp23
 70
     0
102
RTVSPropertyOp24
 70
     0
102
RTVSPropertyOp25
 70
     0
102
RTVSPropertyOp26
 70
     0
102
RTVSPropertyOp27
 70
     0
  0
XRECORD
  5
1B75
102
{ACAD_REACTORS
330
1B74
102
}
330
1B74
100
AcDbXrecord
280
     1
102
RTVSPropertyOp0
 70
     1
102
RTVSPropertyOp1
 70
     1
102
RTVSPropertyOp2
 70
     1
102
RTVSPropertyOp3
 70
     1
102
RTVSPropertyOp4
 70
     1
102
RTVSPropertyOp5
 70
     1
102
RTVSPropertyOp6
 70
     1
102
RTVSPropertyOp7
 70
     1
102
RTVSPropertyOp8
 70
     1
102
RTVSPropertyOp9
 70
     1
102
RTVSPropertyOp10
 70
     1
102
RTVSPropertyOp11
 70
     1
102
RTVSPropertyOp12
 70
     1
102
RTVSPropertyOp13
 70
     1
102
RTVSPropertyOp14
 70
     1
102
RTVSPropertyOp15
 70
     1
102
RTVSPropertyOp16
 70
     1
102
RTVSPropertyOp17
 70
     1
102
RTVSPropertyOp18
 70
     1
102
RTVSPropertyOp19
 70
     1
102
RTVSPropertyOp20
 70
     1
102
RTVSPropertyOp21
 70
     1
102
RTVSPropertyOp22
 70
     1
102
RTVSPropertyOp23
 70
     1
102
RTVSPropertyOp24
 70
     1
102
RTVSPropertyOp25
 70
     1
102
RTVSPropertyOp26
 70
     1
102
RTVSPropertyOp27
 70
     1
  0
XRECORD
  5
1B7D
102
{ACAD_REACTORS
330
1B7C
102
}
330
1B7C
100
AcDbXrecord
280
     1
102
RTVSPropertyOp0
 70
     0
102
RTVSPropertyOp1
 70
     0
102
RTVSPropertyOp2
 70
     0
102
RTVSPropertyOp3
 70
     0
102
RTVSPropertyOp4
 70
     0
102
RTVSPropertyOp5
 70
     0
102
RTVSPropertyOp6
 70
     0
102
RTVSPropertyOp7
 70
     0
102
RTVSPropertyOp8
 70
     0
102
RTVSPropertyOp9
 70
     0
102
RTVSPropertyOp10
 70
     0
102
RTVSPropertyOp11
 70
     0
102
RTVSPropertyOp12
 70
     0
102
RTVSPropertyOp13
 70
     0
102
RTVSPropertyOp14
 70
     2
102
RTVSPropertyOp15
 70
     0
102
RTVSPropertyOp16
 70
     0
102
RTVSPropertyOp17
 70
     0
102
RTVSPropertyOp18
 70
     0
102
RTVSPropertyOp19
 70
     0
102
RTVSPropertyOp20
 70
     0
102
RTVSPropertyOp21
 70
     0
102
RTVSPropertyOp22
 70
     0
102
RTVSPropertyOp23
 70
     0
102
RTVSPropertyOp24
 70
     0
102
RTVSPropertyOp25
 70
     0
102
RTVSPropertyOp26
 70
     0
102
RTVSPropertyOp27
 70
     0
  0
XRECORD
  5
1B6D
102
{ACAD_REACTORS
330
1B6C
102
}
330
1B6C
100
AcDbXrecord
280
     1
102
RTVSPropertyOp0
 70
     1
102
RTVSPropertyOp1
 70
     1
102
RTVSPropertyOp2
 70
     1
102
RTVSPropertyOp3
 70
     1
102
RTVSPropertyOp4
 70
     1
102
RTVSPropertyOp5
 70
     1
102
RTVSPropertyOp6
 70
     1
102
RTVSPropertyOp7
 70
     1
102
RTVSPropertyOp8
 70
     1
102
RTVSPropertyOp9
 70
     1
102
RTVSPropertyOp10
 70
     1
102
RTVSPropertyOp11
 70
     1
102
RTVSPropertyOp12
 70
     1
102
RTVSPropertyOp13
 70
     1
102
RTVSPropertyOp14
 70
     1
102
RTVSPropertyOp15
 70
     1
102
RTVSPropertyOp16
 70
     1
102
RTVSPropertyOp17
 70
     1
102
RTVSPropertyOp18
 70
     1
102
RTVSPropertyOp19
 70
     1
102
RTVSPropertyOp20
 70
     1
102
RTVSPropertyOp21
 70
     1
102
RTVSPropertyOp22
 70
     1
102
RTVSPropertyOp23
 70
     1
102
RTVSPropertyOp24
 70
     1
102
RTVSPropertyOp25
 70
     1
102
RTVSPropertyOp26
 70
     1
102
RTVSPropertyOp27
 70
     1
  0
XRECORD
  5
1B73
102
{ACAD_REACTORS
330
1B72
102
}
330
1B72
100
AcDbXrecord
280
     1
102
RTVSPropertyOp0
 70
     1
102
RTVSPropertyOp1
 70
     1
102
RTVSPropertyOp2
 70
     1
102
RTVSPropertyOp3
 70
     1
102
RTVSPropertyOp4
 70
     1
102
RTVSPropertyOp5
 70
     1
102
RTVSPropertyOp6
 70
     1
102
RTVSPropertyOp7
 70
     1
102
RTVSPropertyOp8
 70
     1
102
RTVSPropertyOp9
 70
     1
102
RTVSPropertyOp10
 70
     1
102
RTVSPropertyOp11
 70
     1
102
RTVSPropertyOp12
 70
     1
102
RTVSPropertyOp13
 70
     1
102
RTVSPropertyOp14
 70
     1
102
RTVSPropertyOp15
 70
     1
102
RTVSPropertyOp16
 70
     1
102
RTVSPropertyOp17
 70
     1
102
RTVSPropertyOp18
 70
     1
102
RTVSPropertyOp19
 70
     1
102
RTVSPropertyOp20
 70
     1
102
RTVSPropertyOp21
 70
     1
102
RTVSPropertyOp22
 70
     1
102
RTVSPropertyOp23
 70
     1
102
RTVSPropertyOp24
 70
     1
102
RTVSPropertyOp25
 70
     1
102
RTVSPropertyOp26
 70
     1
102
RTVSPropertyOp27
 70
     1
  0
ENDSEC
  0
EOF
