  0
SECTION
  2
HEADER
  9
$ACADVER
  1
AC1015
  9
$ACADMAINTVER
 70
    20
  9
$DWGCODEPAGE
  3
ANSI_1252
  9
$INSBASE
 10
0.0
 20
0.0
 30
0.0
  9
$EXTMIN
 10
63.83207995115345
 20
180.9741411009045
 30
0.0
  9
$EXTMAX
 10
66.26513326243804
 20
181.4460102229586
 30
0.0
  9
$LIMMIN
 10
0.0
 20
0.0
  9
$LIMMAX
 10
420.0
 20
297.0
  9
$ORTHOMODE
 70
     0
  9
$REGENMODE
 70
     1
  9
$FILLMODE
 70
     1
  9
$QTEXTMODE
 70
     0
  9
$MIRRTEXT
 70
     0
  9
$LTSCALE
 40
1.0
  9
$ATTMODE
 70
     1
  9
$TEXTSIZE
 40
2.5
  9
$TRACEWID
 40
1.0
  9
$TEXTSTYLE
  7
Standard
  9
$CLAYER
  8
0
  9
$CELTYPE
  6
ByLayer
  9
$CECOLOR
 62
   256
  9
$CELTSCALE
 40
1.0
  9
$DISPSILH
 70
     0
  9
$DIMSCALE
 40
1.0
  9
$DIMASZ
 40
2.5
  9
$DIMEXO
 40
0.625
  9
$DIMDLI
 40
3.75
  9
$DIMRND
 40
0.0
  9
$DIMDLE
 40
0.0
  9
$DIMEXE
 40
1.25
  9
$DIMTP
 40
0.0
  9
$DIMTM
 40
0.0
  9
$DIMTXT
 40
2.5
  9
$DIMCEN
 40
2.5
  9
$DIMTSZ
 40
0.0
  9
$DIMTOL
 70
     0
  9
$DIMLIM
 70
     0
  9
$DIMTIH
 70
     0
  9
$DIMTOH
 70
     0
  9
$DIMSE1
 70
     0
  9
$DIMSE2
 70
     0
  9
$DIMTAD
 70
     1
  9
$DIMZIN
 70
     8
  9
$DIMBLK
  1

  9
$DIMASO
 70
     1
  9
$DIMSHO
 70
     1
  9
$DIMPOST
  1

  9
$DIMAPOST
  1

  9
$DIMALT
 70
     0
  9
$DIMALTD
 70
     3
  9
$DIMALTF
 40
0.03937007874016
  9
$DIMLFAC
 40
1.0
  9
$DIMTOFL
 70
     1
  9
$DIMTVP
 40
0.0
  9
$DIMTIX
 70
     0
  9
$DIMSOXD
 70
     0
  9
$DIMSAH
 70
     0
  9
$DIMBLK1
  1

  9
$DIMBLK2
  1

  9
$DIMSTYLE
  2
ISO-25
  9
$DIMCLRD
 70
     0
  9
$DIMCLRE
 70
     0
  9
$DIMCLRT
 70
     0
  9
$DIMTFAC
 40
1.0
  9
$DIMGAP
 40
0.625
  9
$DIMJUST
 70
     0
  9
$DIMSD1
 70
     0
  9
$DIMSD2
 70
     0
  9
$DIMTOLJ
 70
     0
  9
$DIMTZIN
 70
     8
  9
$DIMALTZ
 70
     0
  9
$DIMALTTZ
 70
     0
  9
$DIMUPT
 70
     0
  9
$DIMDEC
 70
     2
  9
$DIMTDEC
 70
     2
  9
$DIMALTU
 70
     2
  9
$DIMALTTD
 70
     3
  9
$DIMTXSTY
  7
Standard
  9
$DIMAUNIT
 70
     0
  9
$DIMADEC
 70
     0
  9
$DIMALTRND
 40
0.0
  9
$DIMAZIN
 70
     0
  9
$DIMDSEP
 70
    44
  9
$DIMATFIT
 70
     3
  9
$DIMFRAC
 70
     0
  9
$DIMLDRBLK
  1

  9
$DIMLUNIT
 70
     2
  9
$DIMLWD
 70
    -2
  9
$DIMLWE
 70
    -2
  9
$DIMTMOVE
 70
     0
  9
$LUNITS
 70
     2
  9
$LUPREC
 70
     4
  9
$SKETCHINC
 40
1.0
  9
$FILLETRAD
 40
0.0
  9
$AUNITS
 70
     0
  9
$AUPREC
 70
     0
  9
$MENU
  1
.
  9
$ELEVATION
 40
0.0
  9
$PELEVATION
 40
0.0
  9
$THICKNESS
 40
0.0
  9
$LIMCHECK
 70
     0
  9
$CHAMFERA
 40
0.0
  9
$CHAMFERB
 40
0.0
  9
$CHAMFERC
 40
0.0
  9
$CHAMFERD
 40
0.0
  9
$SKPOLY
 70
     0
  9
$TDCREATE
 40
2453977.654730903
  9
$TDUCREATE
 40
2453977.613064236
  9
$TDUPDATE
 40
2456149.507703264
  9
$TDUUPDATE
 40
2456149.466036598
  9
$TDINDWG
 40
0.0033260880
  9
$TDUSRTIMER
 40
0.0033260880
  9
$USRTIMER
 70
     1
  9
$ANGBASE
 50
0.0
  9
$ANGDIR
 70
     0
  9
$PDMODE
 70
     0
  9
$PDSIZE
 40
0.0
  9
$PLINEWID
 40
0.0
  9
$SPLFRAME
 70
     0
  9
$SPLINETYPE
 70
     6
  9
$SPLINESEGS
 70
     8
  9
$HANDSEED
  5
5AE
  9
$SURFTAB1
 70
     6
  9
$SURFTAB2
 70
     6
  9
$SURFTYPE
 70
     6
  9
$SURFU
 70
     6
  9
$SURFV
 70
     6
  9
$UCSBASE
  2

  9
$UCSNAME
  2

  9
$UCSORG
 10
0.0
 20
0.0
 30
0.0
  9
$UCSXDIR
 10
1.0
 20
0.0
 30
0.0
  9
$UCSYDIR
 10
0.0
 20
1.0
 30
0.0
  9
$UCSORTHOREF
  2

  9
$UCSORTHOVIEW
 70
     0
  9
$UCSORGTOP
 10
0.0
 20
0.0
 30
0.0
  9
$UCSORGBOTTOM
 10
0.0
 20
0.0
 30
0.0
  9
$UCSORGLEFT
 10
0.0
 20
0.0
 30
0.0
  9
$UCSORGRIGHT
 10
0.0
 20
0.0
 30
0.0
  9
$UCSORGFRONT
 10
0.0
 20
0.0
 30
0.0
  9
$UCSORGBACK
 10
0.0
 20
0.0
 30
0.0
  9
$PUCSBASE
  2

  9
$PUCSNAME
  2

  9
$PUCSORG
 10
0.0
 20
0.0
 30
0.0
  9
$PUCSXDIR
 10
1.0
 20
0.0
 30
0.0
  9
$PUCSYDIR
 10
0.0
 20
1.0
 30
0.0
  9
$PUCSORTHOREF
  2

  9
$PUCSORTHOVIEW
 70
     0
  9
$PUCSORGTOP
 10
0.0
 20
0.0
 30
0.0
  9
$PUCSORGBOTTOM
 10
0.0
 20
0.0
 30
0.0
  9
$PUCSORGLEFT
 10
0.0
 20
0.0
 30
0.0
  9
$PUCSORGRIGHT
 10
0.0
 20
0.0
 30
0.0
  9
$PUCSORGFRONT
 10
0.0
 20
0.0
 30
0.0
  9
$PUCSORGBACK
 10
0.0
 20
0.0
 30
0.0
  9
$USERI1
 70
     0
  9
$USERI2
 70
     0
  9
$USERI3
 70
     0
  9
$USERI4
 70
     0
  9
$USERI5
 70
     0
  9
$USERR1
 40
0.0
  9
$USERR2
 40
0.0
  9
$USERR3
 40
0.0
  9
$USERR4
 40
0.0
  9
$USERR5
 40
0.0
  9
$WORLDVIEW
 70
     1
  9
$SHADEDGE
 70
     3
  9
$SHADEDIF
 70
    70
  9
$TILEMODE
 70
     1
  9
$MAXACTVP
 70
    64
  9
$PINSBASE
 10
0.0
 20
0.0
 30
0.0
  9
$PLIMCHECK
 70
     0
  9
$PEXTMIN
 10
1.000000000000000E+20
 20
1.000000000000000E+20
 30
1.000000000000000E+20
  9
$PEXTMAX
 10
-1.000000000000000E+20
 20
-1.000000000000000E+20
 30
-1.000000000000000E+20
  9
$PLIMMIN
 10
0.0
 20
0.0
  9
$PLIMMAX
 10
420.0
 20
297.0
  9
$UNITMODE
 70
     0
  9
$VISRETAIN
 70
     1
  9
$PLINEGEN
 70
     0
  9
$PSLTSCALE
 70
     1
  9
$TREEDEPTH
 70
  3020
  9
$CMLSTYLE
  2
Standard
  9
$CMLJUST
 70
     0
  9
$CMLSCALE
 40
20.0
  9
$PROXYGRAPHICS
 70
     1
  9
$MEASUREMENT
 70
     1
  9
$CELWEIGHT
370
    -1
  9
$ENDCAPS
280
     0
  9
$JOINSTYLE
280
     0
  9
$LWDISPLAY
290
     0
  9
$INSUNITS
 70
     6
  9
$HYPERLINKBASE
  1

  9
$STYLESHEET
  1

  9
$XEDIT
290
     1
  9
$CEPSNTYPE
380
     0
  9
$PSTYLEMODE
290
     1
  9
$FINGERPRINTGUID
  2
{FCC83F55-C768-4A06-A9EE-27593969CA90}
  9
$VERSIONGUID
  2
{8D111388-1A77-4669-B6F2-DDA3210054CC}
  9
$EXTNAMES
290
     1
  9
$PSVPSCALE
 40
0.0
  9
$OLESTARTUP
290
     0
  0
ENDSEC
  0
SECTION
  2
CLASSES
  0
CLASS
  1
ACDBDICTIONARYWDFLT
  2
AcDbDictionaryWithDefault
  3
ObjectDBX Classes
 90
        0
280
     0
281
     0
  0
CLASS
  1
TABLESTYLE
  2
AcDbTableStyle
  3
ObjectDBX Classes
 90
     4095
280
     0
281
     0
  0
CLASS
  1
DICTIONARYVAR
  2
AcDbDictionaryVar
  3
ObjectDBX Classes
 90
        0
280
     0
281
     0
  0
CLASS
  1
ACDBPLACEHOLDER
  2
AcDbPlaceHolder
  3
ObjectDBX Classes
 90
        0
280
     0
281
     0
  0
CLASS
  1
LAYOUT
  2
AcDbLayout
  3
ObjectDBX Classes
 90
        0
280
     0
281
     0
  0
CLASS
  1
MATERIAL
  2
AcDbMaterial
  3
ObjectDBX Classes
 90
     1153
280
     0
281
     0
  0
CLASS
  1
VISUALSTYLE
  2
AcDbVisualStyle
  3
ObjectDBX Classes
 90
     4095
280
     0
281
     0
  0
CLASS
  1
SCALE
  2
AcDbScale
  3
ObjectDBX Classes
 90
     1153
280
     0
281
     0
  0
CLASS
  1
MLEADERSTYLE
  2
AcDbMLeaderStyle
  3
ACDB_MLEADERSTYLE_CLASS
 90
     4095
280
     0
281
     0
  0
CLASS
  1
CELLSTYLEMAP
  2
AcDbCellStyleMap
  3
ObjectDBX Classes
 90
     1152
280
     0
281
     0
  0
ENDSEC
  0
SECTION
  2
TABLES
  0
TABLE
  2
VPORT
  5
8
330
0
100
AcDbSymbolTable
 70
     1
  0
VPORT
  5
522
330
8
100
AcDbSymbolTableRecord
100
AcDbViewportTableRecord
  2
*Active
 70
     0
 10
0.0
 20
0.0
 11
1.0
 21
1.0
 12
65.09145329909886
 22
181.2087028169873
 13
0.0
 23
0.0
 14
10.0
 24
10.0
 15
10.0
 25
10.0
 16
0.0
 26
0.0
 36
1.0
 17
0.0
 27
0.0
 37
0.0
 40
1.553834349420074
 41
1.645464025026068
 42
50.0
 43
0.0
 44
0.0
 50
0.0
 51
0.0
 71
     0
 72
  1000
 73
     1
 74
     3
 75
     0
 76
     0
 77
     0
 78
     0
281
     0
 65
     1
110
0.0
120
0.0
130
0.0
111
1.0
121
0.0
131
0.0
112
0.0
122
1.0
132
0.0
 79
     0
146
0.0
  0
ENDTAB
  0
TABLE
  2
LTYPE
  5
5
330
0
100
AcDbSymbolTable
 70
     1
  0
LTYPE
  5
14
330
5
100
AcDbSymbolTableRecord
100
AcDbLinetypeTableRecord
  2
ByBlock
 70
     0
  3

 72
    65
 73
     0
 40
0.0
  0
LTYPE
  5
15
330
5
100
AcDbSymbolTableRecord
100
AcDbLinetypeTableRecord
  2
ByLayer
 70
     0
  3

 72
    65
 73
     0
 40
0.0
  0
LTYPE
  5
16
330
5
100
AcDbSymbolTableRecord
100
AcDbLinetypeTableRecord
  2
Continuous
 70
     0
  3
Solid line
 72
    65
 73
     0
 40
0.0
  0
ENDTAB
  0
TABLE
  2
LAYER
  5
2
330
0
100
AcDbSymbolTable
 70
     2
  0
LAYER
  5
10
102
{ACAD_XDICTIONARY
360
570
102
}
330
2
100
AcDbSymbolTableRecord
100
AcDbLayerTableRecord
  2
0
 70
     0
 62
     7
  6
Continuous
370
    -3
390
F
  0
LAYER
  5
2F
102
{ACAD_XDICTIONARY
360
572
102
}
330
2
100
AcDbSymbolTableRecord
100
AcDbLayerTableRecord
  2
BLOCKS
 70
     0
 62
     3
  6
Continuous
370
    -3
390
F
  0
ENDTAB
  0
TABLE
  2
STYLE
  5
3
330
0
100
AcDbSymbolTable
 70
     2
  0
STYLE
  5
11
330
3
100
AcDbSymbolTableRecord
100
AcDbTextStyleTableRecord
  2
Standard
 70
     0
 40
0.0
 41
1.0
 50
0.0
 71
     0
 42
2.5
  3
txt
  4

  0
STYLE
  5
30
330
3
100
AcDbSymbolTableRecord
100
AcDbTextStyleTableRecord
  2
cotas
 70
     0
 40
2.0
 41
0.8
 50
0.0
 71
     0
 42
4.0
  3
ISOCP.shx
  4

  0
ENDTAB
  0
TABLE
  2
VIEW
  5
6
330
0
100
AcDbSymbolTable
 70
     0
  0
ENDTAB
  0
TABLE
  2
UCS
  5
7
330
0
100
AcDbSymbolTable
 70
     0
  0
ENDTAB
  0
TABLE
  2
APPID
  5
9
330
0
100
AcDbSymbolTable
 70
     4
  0
APPID
  5
12
330
9
100
AcDbSymbolTableRecord
100
AcDbRegAppTableRecord
  2
ACAD
 70
     0
  0
APPID
  5
31
330
9
100
AcDbSymbolTableRecord
100
AcDbRegAppTableRecord
  2
DCO15
 70
     0
  0
APPID
  5
32
330
9
100
AcDbSymbolTableRecord
100
AcDbRegAppTableRecord
  2
ADE
 70
     0
  0
APPID
  5
5AD
330
9
100
AcDbSymbolTableRecord
100
AcDbRegAppTableRecord
  2
ACAD_MLEADERVER
 70
     0
  0
ENDTAB
  0
TABLE
  2
DIMSTYLE
  5
A
330
0
100
AcDbSymbolTable
 70
     1
100
AcDbDimStyleTable
 71
     0
  0
DIMSTYLE
105
2B
330
A
100
AcDbSymbolTableRecord
100
AcDbDimStyleTableRecord
  2
ISO-25
 70
     0
 41
2.5
 42
0.625
 43
3.75
 44
1.25
 73
     0
 74
     0
 77
     1
 78
     8
140
2.5
141
2.5
143
0.03937007874016
147
0.625
171
     3
172
     1
271
     2
272
     2
274
     3
278
    44
283
     0
284
     8
340
11
  0
ENDTAB
  0
TABLE
  2
BLOCK_RECORD
  5
1
330
0
100
AcDbSymbolTable
 70
     5
  0
BLOCK_RECORD
  5
23
330
1
100
AcDbSymbolTableRecord
100
AcDbBlockTableRecord
  2
*Model_Space
340
26
  0
BLOCK_RECORD
  5
1F
330
1
100
AcDbSymbolTableRecord
100
AcDbBlockTableRecord
  2
*Paper_Space
340
22
  0
BLOCK_RECORD
  5
27
330
1
100
AcDbSymbolTableRecord
100
AcDbBlockTableRecord
  2
*Paper_Space0
340
2A
  0
BLOCK_RECORD
  5
33
330
1
100
AcDbSymbolTableRecord
100
AcDbBlockTableRecord
  2
108710PL
340
0
102
{BLKREFS
331
2D3
102
}
1001
ACAD
1000
DesignCenter Data
1002
{
1070
     1
1070
     6
1002
}
  0
BLOCK_RECORD
  5
2D4
330
1
100
AcDbSymbolTableRecord
100
AcDbBlockTableRecord
  2
108710CT
340
0
102
{BLKREFS
331
4BF
102
}
1001
ACAD
1000
DesignCenter Data
1002
{
1070
     1
1070
     6
1002
}
  0
BLOCK_RECORD
  5
4C0
330
1
100
AcDbSymbolTableRecord
100
AcDbBlockTableRecord
  2
108710AL
340
0
102
{BLKREFS
331
4DE
102
}
1001
ACAD
1000
DesignCenter Data
1002
{
1070
     1
1070
     6
1002
}
  0
BLOCK_RECORD
  5
4DF
330
1
100
AcDbSymbolTableRecord
100
AcDbBlockTableRecord
  2
108710AF
340
0
102
{BLKREFS
331
4FD
102
}
1001
ACAD
1000
DesignCenter Data
1002
{
1070
     1
1070
     6
1002
}
  0
ENDTAB
  0
ENDSEC
  0
SECTION
  2
BLOCKS
  0
BLOCK
  5
24
330
23
100
AcDbEntity
  8
0
100
AcDbBlockBegin
  2
*Model_Space
 70
     0
 10
0.0
 20
0.0
 30
0.0
  3
*Model_Space
  1

  0
ENDBLK
  5
25
330
23
100
AcDbEntity
  8
0
100
AcDbBlockEnd
  0
BLOCK
  5
20
330
1F
100
AcDbEntity
 67
     1
  8
0
100
AcDbBlockBegin
  2
*Paper_Space
 70
     0
 10
0.0
 20
0.0
 30
0.0
  3
*Paper_Space
  1

  0
ENDBLK
  5
21
330
1F
100
AcDbEntity
 67
     1
  8
0
100
AcDbBlockEnd
  0
BLOCK
  5
28
330
27
100
AcDbEntity
 67
     1
  8
0
100
AcDbBlockBegin
  2
*Paper_Space0
 70
     0
 10
0.0
 20
0.0
 30
0.0
  3
*Paper_Space0
  1

  0
ENDBLK
  5
29
330
27
100
AcDbEntity
 67
     1
  8
0
100
AcDbBlockEnd
  0
BLOCK
  5
2D0
330
33
100
AcDbEntity
  8
0
100
AcDbBlockBegin
  2
108710PL
 70
     0
 10
0.0
 20
0.0
 30
0.0
  3
108710PL
  1

  0
ARC
  5
34
330
33
100
AcDbEntity
  8
BLOCKS
100
AcDbCircle
 10
-0.0049999999999955
 20
-0.0049999999999955
 30
0.0
 40
0.005
100
AcDbArc
 50
0.0
 51
90.0
  0
LINE
  5
35
330
33
100
AcDbEntity
  8
BLOCKS
100
AcDbLine
 10
-0.0026924311475796
 20
-0.3414006914061934
 30
0.0
 11
-0.0163479386429799
 21
-0.3485047044821391
 31
0.0
  0
ARC
  5
36
330
33
100
AcDbEntity
  8
BLOCKS
100
AcDbCircle
 10
-0.0140403697904503
 20
-0.3529403697074263
 30
0.0
 40
0.005
100
AcDbArc
 50
117.4848315596741
 51
150.2409577820348
  0
ARC
  5
37
330
33
100
AcDbEntity
  8
BLOCKS
100
AcDbCircle
 10
-0.0049999999999955
 20
-0.3369650261809062
 30
0.0
 40
0.005
100
AcDbArc
 50
297.4848315596741
 51
0.0
  0
LINE
  5
38
330
33
100
AcDbEntity
  8
BLOCKS
100
AcDbLine
 10
0.0
 20
-0.3369650261809062
 30
0.0
 11
0.0
 21
-0.0049999999999955
 31
0.0
  0
POLYLINE
  5
39
330
33
100
AcDbEntity
  8
BLOCKS
100
AcDb3dPolyline
 66
     1
 10
0.0
 20
0.0
 30
0.0
 70
     8
  0
VERTEX
  5
3A
330
39
100
AcDbEntity
  8
BLOCKS
100
AcDbVertex
100
AcDb3dPolylineVertex
 10
-0.1216419999999516
 20
-0.1406170000000202
 30
0.0
 70
    32
  0
VERTEX
  5
3B
330
39
100
AcDbEntity
  8
BLOCKS
100
AcDbVertex
100
AcDb3dPolylineVertex
 10
-0.1217189999999846
 20
-0.1405939999999646
 30
0.0
 70
    32
  0
VERTEX
  5
3C
330
39
100
AcDbEntity
  8
BLOCKS
100
AcDbVertex
100
AcDb3dPolylineVertex
 10
-0.1217980000000125
 20
-0.1405690000000277
 30
0.0
 70
    32
  0
VERTEX
  5
3D
330
39
100
AcDbEntity
  8
BLOCKS
100
AcDbVertex
100
AcDb3dPolylineVertex
 10
-0.1218770000000404
 20
-0.1405429999999797
 30
0.0
 70
    32
  0
VERTEX
  5
3E
330
39
100
AcDbEntity
  8
BLOCKS
100
AcDbVertex
100
AcDb3dPolylineVertex
 10
-0.1219569999999521
 20
-0.1405160000000478
 30
0.0
 70
    32
  0
VERTEX
  5
3F
330
39
100
AcDbEntity
  8
BLOCKS
100
AcDbVertex
100
AcDb3dPolylineVertex
 10
-0.122037999999975
 20
-0.1404880000000048
 30
0.0
 70
    32
  0
VERTEX
  5
40
330
39
100
AcDbEntity
  8
BLOCKS
100
AcDbVertex
100
AcDb3dPolylineVertex
 10
-0.1221189999999979
 20
-0.1404589999999644
 30
0.0
 70
    32
  0
VERTEX
  5
41
330
39
100
AcDbEntity
  8
BLOCKS
100
AcDbVertex
100
AcDb3dPolylineVertex
 10
-0.1222020000000157
 20
-0.1404280000000426
 30
0.0
 70
    32
  0
VERTEX
  5
42
330
39
100
AcDbEntity
  8
BLOCKS
100
AcDbVertex
100
AcDb3dPolylineVertex
 10
-0.122286000000031
 20
-0.1403960000000097
 30
0.0
 70
    32
  0
VERTEX
  5
43
330
39
100
AcDbEntity
  8
BLOCKS
100
AcDbVertex
100
AcDb3dPolylineVertex
 10
-0.1223700000000463
 20
-0.1403639999999768
 30
0.0
 70
    32
  0
VERTEX
  5
44
330
39
100
AcDbEntity
  8
BLOCKS
100
AcDbVertex
100
AcDb3dPolylineVertex
 10
-0.1224549999999454
 20
-0.140329999999949
 30
0.0
 70
    32
  0
VERTEX
  5
45
330
39
100
AcDbEntity
  8
BLOCKS
100
AcDbVertex
100
AcDb3dPolylineVertex
 10
-0.1225409999999556
 20
-0.1402950000000374
 30
0.0
 70
    32
  0
VERTEX
  5
46
330
39
100
AcDbEntity
  8
BLOCKS
100
AcDbVertex
100
AcDb3dPolylineVertex
 10
-0.1226279999999633
 20
-0.1402580000000171
 30
0.0
 70
    32
  0
VERTEX
  5
47
330
39
100
AcDbEntity
  8
BLOCKS
100
AcDbVertex
100
AcDb3dPolylineVertex
 10
-0.1227159999999685
 20
-0.1402209999999968
 30
0.0
 70
    32
  0
VERTEX
  5
48
330
39
100
AcDbEntity
  8
BLOCKS
100
AcDbVertex
100
AcDb3dPolylineVertex
 10
-0.1228049999999712
 20
-0.1401819999999816
 30
0.0
 70
    32
  0
VERTEX
  5
49
330
39
100
AcDbEntity
  8
BLOCKS
100
AcDbVertex
100
AcDb3dPolylineVertex
 10
-0.1228939999999739
 20
-0.1401419999999689
 30
0.0
 70
    32
  0
VERTEX
  5
4A
330
39
100
AcDbEntity
  8
BLOCKS
100
AcDbVertex
100
AcDb3dPolylineVertex
 10
-0.1229849999999715
 20
-0.1401019999999562
 30
0.0
 70
    32
  0
VERTEX
  5
4B
330
39
100
AcDbEntity
  8
BLOCKS
100
AcDbVertex
100
AcDb3dPolylineVertex
 10
-0.1230759999999691
 20
-0.1400589999999511
 30
0.0
 70
    32
  0
VERTEX
  5
4C
330
39
100
AcDbEntity
  8
BLOCKS
100
AcDbVertex
100
AcDb3dPolylineVertex
 10
-0.1231679999999642
 20
-0.140015999999946
 30
0.0
 70
    32
  0
VERTEX
  5
4D
330
39
100
AcDbEntity
  8
BLOCKS
100
AcDbVertex
100
AcDb3dPolylineVertex
 10
-0.1232599999999593
 20
-0.1399719999999434
 30
0.0
 70
    32
  0
VERTEX
  5
4E
330
39
100
AcDbEntity
  8
BLOCKS
100
AcDbVertex
100
AcDb3dPolylineVertex
 10
-0.1233539999999493
 20
-0.1399259999999458
 30
0.0
 70
    32
  0
VERTEX
  5
4F
330
39
100
AcDbEntity
  8
BLOCKS
100
AcDbVertex
100
AcDb3dPolylineVertex
 10
-0.1234490000000505
 20
-0.1398799999999483
 30
0.0
 70
    32
  0
VERTEX
  5
50
330
39
100
AcDbEntity
  8
BLOCKS
100
AcDbVertex
100
AcDb3dPolylineVertex
 10
-0.1235440000000381
 20
-0.1398319999999558
 30
0.0
 70
    32
  0
VERTEX
  5
51
330
39
100
AcDbEntity
  8
BLOCKS
100
AcDbVertex
100
AcDb3dPolylineVertex
 10
-0.1236400000000231
 20
-0.1397829999999658
 30
0.0
 70
    32
  0
VERTEX
  5
52
330
39
100
AcDbEntity
  8
BLOCKS
100
AcDbVertex
100
AcDb3dPolylineVertex
 10
-0.1237370000000055
 20
-0.1397329999999783
 30
0.0
 70
    32
  0
VERTEX
  5
53
330
39
100
AcDbEntity
  8
BLOCKS
100
AcDbVertex
100
AcDb3dPolylineVertex
 10
-0.123833999999988
 20
-0.1396809999999959
 30
0.0
 70
    32
  0
VERTEX
  5
54
330
39
100
AcDbEntity
  8
BLOCKS
100
AcDbVertex
100
AcDb3dPolylineVertex
 10
-0.1239329999999654
 20
-0.1396290000000135
 30
0.0
 70
    32
  0
VERTEX
  5
55
330
39
100
AcDbEntity
  8
BLOCKS
100
AcDbVertex
100
AcDb3dPolylineVertex
 10
-0.1240320000000565
 20
-0.1395750000000362
 30
0.0
 70
    32
  0
VERTEX
  5
56
330
39
100
AcDbEntity
  8
BLOCKS
100
AcDbVertex
100
AcDb3dPolylineVertex
 10
-0.1241320000000314
 20
-0.1395209999999452
 30
0.0
 70
    32
  0
VERTEX
  5
57
330
39
100
AcDbEntity
  8
BLOCKS
100
AcDbVertex
100
AcDb3dPolylineVertex
 10
-0.1242320000000063
 20
-0.1394649999999729
 30
0.0
 70
    32
  0
VERTEX
  5
58
330
39
100
AcDbEntity
  8
BLOCKS
100
AcDbVertex
100
AcDb3dPolylineVertex
 10
-0.1243339999999762
 20
-0.1394080000000031
 30
0.0
 70
    32
  0
VERTEX
  5
59
330
39
100
AcDbEntity
  8
BLOCKS
100
AcDbVertex
100
AcDb3dPolylineVertex
 10
-0.124435999999946
 20
-0.1393500000000358
 30
0.0
 70
    32
  0
VERTEX
  5
5A
330
39
100
AcDbEntity
  8
BLOCKS
100
AcDbVertex
100
AcDb3dPolylineVertex
 10
-0.124539000000027
 20
-0.1392899999999599
 30
0.0
 70
    32
  0
VERTEX
  5
5B
330
39
100
AcDbEntity
  8
BLOCKS
100
AcDbVertex
100
AcDb3dPolylineVertex
 10
-0.1246429999999918
 20
-0.1392299999999977
 30
0.0
 70
    32
  0
VERTEX
  5
5C
330
39
100
AcDbEntity
  8
BLOCKS
100
AcDbVertex
100
AcDb3dPolylineVertex
 10
-0.1247469999999566
 20
-0.1391680000000406
 30
0.0
 70
    32
  0
VERTEX
  5
5D
330
39
100
AcDbEntity
  8
BLOCKS
100
AcDbVertex
100
AcDb3dPolylineVertex
 10
-0.1248530000000301
 20
-0.1391059999999697
 30
0.0
 70
    32
  0
VERTEX
  5
5E
330
39
100
AcDbEntity
  8
BLOCKS
100
AcDbVertex
100
AcDb3dPolylineVertex
 10
-0.1249589999999898
 20
-0.1390420000000176
 30
0.0
 70
    32
  0
VERTEX
  5
5F
330
39
100
AcDbEntity
  8
BLOCKS
100
AcDbVertex
100
AcDb3dPolylineVertex
 10
-0.1250649999999496
 20
-0.1389769999999544
 30
0.0
 70
    32
  0
VERTEX
  5
60
330
39
100
AcDbEntity
  8
BLOCKS
100
AcDbVertex
100
AcDb3dPolylineVertex
 10
-0.125173000000018
 20
-0.1389110000000073
 30
0.0
 70
    32
  0
VERTEX
  5
61
330
39
100
AcDbEntity
  8
BLOCKS
100
AcDbVertex
100
AcDb3dPolylineVertex
 10
-0.1252809999999727
 20
-0.1388429999999516
 30
0.0
 70
    32
  0
VERTEX
  5
62
330
39
100
AcDbEntity
  8
BLOCKS
100
AcDbVertex
100
AcDb3dPolylineVertex
 10
-0.1253900000000385
 20
-0.1387750000000096
 30
0.0
 70
    32
  0
VERTEX
  5
63
330
39
100
AcDbEntity
  8
BLOCKS
100
AcDbVertex
100
AcDb3dPolylineVertex
 10
-0.1254989999999907
 20
-0.138704999999959
 30
0.0
 70
    32
  0
VERTEX
  5
64
330
39
100
AcDbEntity
  8
BLOCKS
100
AcDbVertex
100
AcDb3dPolylineVertex
 10
-0.1256100000000515
 20
-0.138635000000022
 30
0.0
 70
    32
  0
VERTEX
  5
65
330
39
100
AcDbEntity
  8
BLOCKS
100
AcDbVertex
100
AcDb3dPolylineVertex
 10
-0.1257209999999986
 20
-0.1385629999999764
 30
0.0
 70
    32
  0
VERTEX
  5
66
330
39
100
AcDbEntity
  8
BLOCKS
100
AcDbVertex
100
AcDb3dPolylineVertex
 10
-0.1258319999999458
 20
-0.1384900000000471
 30
0.0
 70
    32
  0
VERTEX
  5
67
330
39
100
AcDbEntity
  8
BLOCKS
100
AcDbVertex
100
AcDb3dPolylineVertex
 10
-0.1259450000000015
 20
-0.1384160000000065
 30
0.0
 70
    32
  0
VERTEX
  5
68
330
39
100
AcDbEntity
  8
BLOCKS
100
AcDbVertex
100
AcDb3dPolylineVertex
 10
-0.1260579999999436
 20
-0.1383409999999685
 30
0.0
 70
    32
  0
VERTEX
  5
69
330
39
100
AcDbEntity
  8
BLOCKS
100
AcDbVertex
100
AcDb3dPolylineVertex
 10
-0.1261719999999968
 20
-0.1382640000000492
 30
0.0
 70
    32
  0
VERTEX
  5
6A
330
39
100
AcDbEntity
  8
BLOCKS
100
AcDbVertex
100
AcDb3dPolylineVertex
 10
-0.1262860000000501
 20
-0.1381870000000163
 30
0.0
 70
    32
  0
VERTEX
  5
6B
330
39
100
AcDbEntity
  8
BLOCKS
100
AcDbVertex
100
AcDb3dPolylineVertex
 10
-0.1264009999999871
 20
-0.1381079999999883
 30
0.0
 70
    32
  0
VERTEX
  5
6C
330
39
100
AcDbEntity
  8
BLOCKS
100
AcDbVertex
100
AcDb3dPolylineVertex
 10
-0.1265170000000353
 20
-0.138027999999963
 30
0.0
 70
    32
  0
VERTEX
  5
6D
330
39
100
AcDbEntity
  8
BLOCKS
100
AcDbVertex
100
AcDb3dPolylineVertex
 10
-0.1266339999999673
 20
-0.1379470000000538
 30
0.0
 70
    32
  0
VERTEX
  5
6E
330
39
100
AcDbEntity
  8
BLOCKS
100
AcDbVertex
100
AcDb3dPolylineVertex
 10
-0.1267510000000129
 20
-0.1378650000000334
 30
0.0
 70
    32
  0
VERTEX
  5
6F
330
39
100
AcDbEntity
  8
BLOCKS
100
AcDbVertex
100
AcDb3dPolylineVertex
 10
-0.1268690000000561
 20
-0.1377820000000156
 30
0.0
 70
    32
  0
VERTEX
  5
70
330
39
100
AcDbEntity
  8
BLOCKS
100
AcDbVertex
100
AcDb3dPolylineVertex
 10
-0.1269869999999855
 20
-0.1376980000000003
 30
0.0
 70
    32
  0
VERTEX
  5
71
330
39
100
AcDbEntity
  8
BLOCKS
100
AcDbVertex
100
AcDb3dPolylineVertex
 10
-0.1271060000000261
 20
-0.1376129999999875
 30
0.0
 70
    32
  0
VERTEX
  5
72
330
39
100
AcDbEntity
  8
BLOCKS
100
AcDbVertex
100
AcDb3dPolylineVertex
 10
-0.1272259999999505
 20
-0.1375259999999798
 30
0.0
 70
    32
  0
VERTEX
  5
73
330
39
100
AcDbEntity
  8
BLOCKS
100
AcDbVertex
100
AcDb3dPolylineVertex
 10
-0.1273459999999886
 20
-0.1374389999999721
 30
0.0
 70
    32
  0
VERTEX
  5
74
330
39
100
AcDbEntity
  8
BLOCKS
100
AcDbVertex
100
AcDb3dPolylineVertex
 10
-0.1274670000000242
 20
-0.1373499999999694
 30
0.0
 70
    32
  0
VERTEX
  5
75
330
39
100
AcDbEntity
  8
BLOCKS
100
AcDbVertex
100
AcDb3dPolylineVertex
 10
-0.1275889999999435
 20
-0.1372599999999693
 30
0.0
 70
    32
  0
VERTEX
  5
76
330
39
100
AcDbEntity
  8
BLOCKS
100
AcDbVertex
100
AcDb3dPolylineVertex
 10
-0.1277109999999766
 20
-0.1371689999999717
 30
0.0
 70
    32
  0
VERTEX
  5
77
330
39
100
AcDbEntity
  8
BLOCKS
100
AcDbVertex
100
AcDb3dPolylineVertex
 10
-0.1278340000000071
 20
-0.1370769999999766
 30
0.0
 70
    32
  0
VERTEX
  5
78
330
39
100
AcDbEntity
  8
BLOCKS
100
AcDbVertex
100
AcDb3dPolylineVertex
 10
-0.1279570000000376
 20
-0.1369829999999865
 30
0.0
 70
    32
  0
VERTEX
  5
79
330
39
100
AcDbEntity
  8
BLOCKS
100
AcDbVertex
100
AcDb3dPolylineVertex
 10
-0.1280809999999519
 20
-0.1368889999999965
 30
0.0
 70
    32
  0
VERTEX
  5
7A
330
39
100
AcDbEntity
  8
BLOCKS
100
AcDbVertex
100
AcDb3dPolylineVertex
 10
-0.1282059999999774
 20
-0.136794000000009
 30
0.0
 70
    32
  0
VERTEX
  5
7B
330
39
100
AcDbEntity
  8
BLOCKS
100
AcDbVertex
100
AcDb3dPolylineVertex
 10
-0.1283310000000029
 20
-0.1366970000000265
 30
0.0
 70
    32
  0
VERTEX
  5
7C
330
39
100
AcDbEntity
  8
BLOCKS
100
AcDbVertex
100
AcDb3dPolylineVertex
 10
-0.1284570000000258
 20
-0.1365990000000465
 30
0.0
 70
    32
  0
VERTEX
  5
7D
330
39
100
AcDbEntity
  8
BLOCKS
100
AcDbVertex
100
AcDb3dPolylineVertex
 10
-0.1285830000000487
 20
-0.1364999999999554
 30
0.0
 70
    32
  0
VERTEX
  5
7E
330
39
100
AcDbEntity
  8
BLOCKS
100
AcDbVertex
100
AcDb3dPolylineVertex
 10
-0.1287109999999529
 20
-0.1363999999999805
 30
0.0
 70
    32
  0
VERTEX
  5
7F
330
39
100
AcDbEntity
  8
BLOCKS
100
AcDbVertex
100
AcDb3dPolylineVertex
 10
-0.1288379999999734
 20
-0.1362990000000082
 30
0.0
 70
    32
  0
VERTEX
  5
80
330
39
100
AcDbEntity
  8
BLOCKS
100
AcDbVertex
100
AcDb3dPolylineVertex
 10
-0.1289659999999912
 20
-0.1361970000000383
 30
0.0
 70
    32
  0
VERTEX
  5
81
330
39
100
AcDbEntity
  8
BLOCKS
100
AcDbVertex
100
AcDb3dPolylineVertex
 10
-0.1290950000000066
 20
-0.1360939999999573
 30
0.0
 70
    32
  0
VERTEX
  5
82
330
39
100
AcDbEntity
  8
BLOCKS
100
AcDbVertex
100
AcDb3dPolylineVertex
 10
-0.129224000000022
 20
-0.135988999999995
 30
0.0
 70
    32
  0
VERTEX
  5
83
330
39
100
AcDbEntity
  8
BLOCKS
100
AcDbVertex
100
AcDb3dPolylineVertex
 10
-0.1293540000000348
 20
-0.1358840000000328
 30
0.0
 70
    32
  0
VERTEX
  5
84
330
39
100
AcDbEntity
  8
BLOCKS
100
AcDbVertex
100
AcDb3dPolylineVertex
 10
-0.1294850000000451
 20
-0.1357769999999618
 30
0.0
 70
    32
  0
VERTEX
  5
85
330
39
100
AcDbEntity
  8
BLOCKS
100
AcDbVertex
100
AcDb3dPolylineVertex
 10
-0.1296149999999443
 20
-0.1356690000000071
 30
0.0
 70
    32
  0
VERTEX
  5
86
330
39
100
AcDbEntity
  8
BLOCKS
100
AcDbVertex
100
AcDb3dPolylineVertex
 10
-0.1297459999999546
 20
-0.1355610000000524
 30
0.0
 70
    32
  0
VERTEX
  5
87
330
39
100
AcDbEntity
  8
BLOCKS
100
AcDbVertex
100
AcDb3dPolylineVertex
 10
-0.12987499999997
 20
-0.1354509999999891
 30
0.0
 70
    32
  0
VERTEX
  5
88
330
39
100
AcDbEntity
  8
BLOCKS
100
AcDbVertex
100
AcDb3dPolylineVertex
 10
-0.1300049999999828
 20
-0.1353410000000395
 30
0.0
 70
    32
  0
VERTEX
  5
89
330
39
100
AcDbEntity
  8
BLOCKS
100
AcDbVertex
100
AcDb3dPolylineVertex
 10
-0.1301330000000007
 20
-0.1352299999999786
 30
0.0
 70
    32
  0
VERTEX
  5
8A
330
39
100
AcDbEntity
  8
BLOCKS
100
AcDbVertex
100
AcDb3dPolylineVertex
 10
-0.1302610000000186
 20
-0.1351190000000315
 30
0.0
 70
    32
  0
VERTEX
  5
8B
330
39
100
AcDbEntity
  8
BLOCKS
100
AcDbVertex
100
AcDb3dPolylineVertex
 10
-0.130388000000039
 20
-0.1350059999999758
 30
0.0
 70
    32
  0
VERTEX
  5
8C
330
39
100
AcDbEntity
  8
BLOCKS
100
AcDbVertex
100
AcDb3dPolylineVertex
 10
-0.1305149999999458
 20
-0.1348930000000337
 30
0.0
 70
    32
  0
VERTEX
  5
8D
330
39
100
AcDbEntity
  8
BLOCKS
100
AcDbVertex
100
AcDb3dPolylineVertex
 10
-0.1306399999999712
 20
-0.1347789999999804
 30
0.0
 70
    32
  0
VERTEX
  5
8E
330
39
100
AcDbEntity
  8
BLOCKS
100
AcDbVertex
100
AcDb3dPolylineVertex
 10
-0.1307659999999942
 20
-0.1346650000000409
 30
0.0
 70
    32
  0
VERTEX
  5
8F
330
39
100
AcDbEntity
  8
BLOCKS
100
AcDbVertex
100
AcDb3dPolylineVertex
 10
-0.1308900000000221
 20
-0.1345499999999902
 30
0.0
 70
    32
  0
VERTEX
  5
90
330
39
100
AcDbEntity
  8
BLOCKS
100
AcDbVertex
100
AcDb3dPolylineVertex
 10
-0.1310140000000501
 20
-0.1344340000000557
 30
0.0
 70
    32
  0
VERTEX
  5
91
330
39
100
AcDbEntity
  8
BLOCKS
100
AcDbVertex
100
AcDb3dPolylineVertex
 10
-0.1311379999999644
 20
-0.13431700000001
 30
0.0
 70
    32
  0
VERTEX
  5
92
330
39
100
AcDbEntity
  8
BLOCKS
100
AcDbVertex
100
AcDb3dPolylineVertex
 10
-0.1312599999999975
 20
-0.1341999999999643
 30
0.0
 70
    32
  0
VERTEX
  5
93
330
39
100
AcDbEntity
  8
BLOCKS
100
AcDbVertex
100
AcDb3dPolylineVertex
 10
-0.1313820000000305
 20
-0.1340830000000324
 30
0.0
 70
    32
  0
VERTEX
  5
94
330
39
100
AcDbEntity
  8
BLOCKS
100
AcDbVertex
100
AcDb3dPolylineVertex
 10
-0.1315039999999499
 20
-0.1339639999999918
 30
0.0
 70
    32
  0
VERTEX
  5
95
330
39
100
AcDbEntity
  8
BLOCKS
100
AcDbVertex
100
AcDb3dPolylineVertex
 10
-0.1316249999999854
 20
-0.1338459999999486
 30
0.0
 70
    32
  0
VERTEX
  5
96
330
39
100
AcDbEntity
  8
BLOCKS
100
AcDbVertex
100
AcDb3dPolylineVertex
 10
-0.1317450000000235
 20
-0.1337260000000242
 30
0.0
 70
    32
  0
VERTEX
  5
97
330
39
100
AcDbEntity
  8
BLOCKS
100
AcDbVertex
100
AcDb3dPolylineVertex
 10
-0.1318639999999505
 20
-0.1336059999999861
 30
0.0
 70
    32
  0
VERTEX
  5
98
330
39
100
AcDbEntity
  8
BLOCKS
100
AcDbVertex
100
AcDb3dPolylineVertex
 10
-0.1319829999999911
 20
-0.133485999999948
 30
0.0
 70
    32
  0
VERTEX
  5
99
330
39
100
AcDbEntity
  8
BLOCKS
100
AcDbVertex
100
AcDb3dPolylineVertex
 10
-0.1321010000000342
 20
-0.1333650000000262
 30
0.0
 70
    32
  0
VERTEX
  5
9A
330
39
100
AcDbEntity
  8
BLOCKS
100
AcDbVertex
100
AcDb3dPolylineVertex
 10
-0.1322179999999662
 20
-0.1332429999999931
 30
0.0
 70
    32
  0
VERTEX
  5
9B
330
39
100
AcDbEntity
  8
BLOCKS
100
AcDbVertex
100
AcDb3dPolylineVertex
 10
-0.1323350000000119
 20
-0.1331219999999575
 30
0.0
 70
    32
  0
VERTEX
  5
9C
330
39
100
AcDbEntity
  8
BLOCKS
100
AcDbVertex
100
AcDb3dPolylineVertex
 10
-0.1324509999999464
 20
-0.1329990000000407
 30
0.0
 70
    32
  0
VERTEX
  5
9D
330
39
100
AcDbEntity
  8
BLOCKS
100
AcDbVertex
100
AcDb3dPolylineVertex
 10
-0.1325659999999971
 20
-0.1328770000000077
 30
0.0
 70
    32
  0
VERTEX
  5
9E
330
39
100
AcDbEntity
  8
BLOCKS
100
AcDbVertex
100
AcDb3dPolylineVertex
 10
-0.1326810000000478
 20
-0.1327529999999797
 30
0.0
 70
    32
  0
VERTEX
  5
9F
330
39
100
AcDbEntity
  8
BLOCKS
100
AcDbVertex
100
AcDb3dPolylineVertex
 10
-0.1327949999999873
 20
-0.1326299999999492
 30
0.0
 70
    32
  0
VERTEX
  5
A0
330
39
100
AcDbEntity
  8
BLOCKS
100
AcDbVertex
100
AcDb3dPolylineVertex
 10
-0.1329080000000431
 20
-0.1325060000000349
 30
0.0
 70
    32
  0
VERTEX
  5
A1
330
39
100
AcDbEntity
  8
BLOCKS
100
AcDbVertex
100
AcDb3dPolylineVertex
 10
-0.1330199999999877
 20
-0.1323810000000094
 30
0.0
 70
    32
  0
VERTEX
  5
A2
330
39
100
AcDbEntity
  8
BLOCKS
100
AcDbVertex
100
AcDb3dPolylineVertex
 10
-0.133132000000046
 20
-0.1322569999999814
 30
0.0
 70
    32
  0
VERTEX
  5
A3
330
39
100
AcDbEntity
  8
BLOCKS
100
AcDbVertex
100
AcDb3dPolylineVertex
 10
-0.1332429999999931
 20
-0.1321319999999559
 30
0.0
 70
    32
  0
VERTEX
  5
A4
330
39
100
AcDbEntity
  8
BLOCKS
100
AcDbVertex
100
AcDb3dPolylineVertex
 10
-0.1333540000000539
 20
-0.1320060000000467
 30
0.0
 70
    32
  0
VERTEX
  5
A5
330
39
100
AcDbEntity
  8
BLOCKS
100
AcDbVertex
100
AcDb3dPolylineVertex
 10
-0.1334640000000036
 20
-0.1318810000000212
 30
0.0
 70
    32
  0
VERTEX
  5
A6
330
39
100
AcDbEntity
  8
BLOCKS
100
AcDbVertex
100
AcDb3dPolylineVertex
 10
-0.1335729999999557
 20
-0.1317549999999983
 30
0.0
 70
    32
  0
VERTEX
  5
A7
330
39
100
AcDbEntity
  8
BLOCKS
100
AcDbVertex
100
AcDb3dPolylineVertex
 10
-0.1336810000000241
 20
-0.1316289999999753
 30
0.0
 70
    32
  0
VERTEX
  5
A8
330
39
100
AcDbEntity
  8
BLOCKS
100
AcDbVertex
100
AcDb3dPolylineVertex
 10
-0.1337879999999814
 20
-0.1315019999999549
 30
0.0
 70
    32
  0
VERTEX
  5
A9
330
39
100
AcDbEntity
  8
BLOCKS
100
AcDbVertex
100
AcDb3dPolylineVertex
 10
-0.1338950000000523
 20
-0.1313750000000482
 30
0.0
 70
    32
  0
VERTEX
  5
AA
330
39
100
AcDbEntity
  8
BLOCKS
100
AcDbVertex
100
AcDb3dPolylineVertex
 10
-0.134001000000012
 20
-0.1312490000000253
 30
0.0
 70
    32
  0
VERTEX
  5
AB
330
39
100
AcDbEntity
  8
BLOCKS
100
AcDbVertex
100
AcDb3dPolylineVertex
 10
-0.1341069999999718
 20
-0.1311210000000074
 30
0.0
 70
    32
  0
VERTEX
  5
AC
330
39
100
AcDbEntity
  8
BLOCKS
100
AcDbVertex
100
AcDb3dPolylineVertex
 10
-0.1342110000000503
 20
-0.1309939999999869
 30
0.0
 70
    32
  0
VERTEX
  5
AD
330
39
100
AcDbEntity
  8
BLOCKS
100
AcDbVertex
100
AcDb3dPolylineVertex
 10
-0.1343150000000151
 20
-0.1308669999999665
 30
0.0
 70
    32
  0
VERTEX
  5
AE
330
39
100
AcDbEntity
  8
BLOCKS
100
AcDbVertex
100
AcDb3dPolylineVertex
 10
-0.1344179999999824
 20
-0.1307389999999486
 30
0.0
 70
    32
  0
VERTEX
  5
AF
330
39
100
AcDbEntity
  8
BLOCKS
100
AcDbVertex
100
AcDb3dPolylineVertex
 10
-0.1345209999999497
 20
-0.1306110000000444
 30
0.0
 70
    32
  0
VERTEX
  5
B0
330
39
100
AcDbEntity
  8
BLOCKS
100
AcDbVertex
100
AcDb3dPolylineVertex
 10
-0.1346220000000358
 20
-0.1304830000000265
 30
0.0
 70
    32
  0
VERTEX
  5
B1
330
39
100
AcDbEntity
  8
BLOCKS
100
AcDbVertex
100
AcDb3dPolylineVertex
 10
-0.1347230000000081
 20
-0.1303550000000087
 30
0.0
 70
    32
  0
VERTEX
  5
B2
330
39
100
AcDbEntity
  8
BLOCKS
100
AcDbVertex
100
AcDb3dPolylineVertex
 10
-0.134822999999983
 20
-0.1302269999999908
 30
0.0
 70
    32
  0
VERTEX
  5
B3
330
39
100
AcDbEntity
  8
BLOCKS
100
AcDbVertex
100
AcDb3dPolylineVertex
 10
-0.1349229999999579
 20
-0.1300989999999729
 30
0.0
 70
    32
  0
VERTEX
  5
B4
330
39
100
AcDbEntity
  8
BLOCKS
100
AcDbVertex
100
AcDb3dPolylineVertex
 10
-0.1350210000000516
 20
-0.129970999999955
 30
0.0
 70
    32
  0
VERTEX
  5
B5
330
39
100
AcDbEntity
  8
BLOCKS
100
AcDbVertex
100
AcDb3dPolylineVertex
 10
-0.1351190000000315
 20
-0.1298420000000533
 30
0.0
 70
    32
  0
VERTEX
  5
B6
330
39
100
AcDbEntity
  8
BLOCKS
100
AcDbVertex
100
AcDb3dPolylineVertex
 10
-0.135216000000014
 20
-0.1297140000000354
 30
0.0
 70
    32
  0
VERTEX
  5
B7
330
39
100
AcDbEntity
  8
BLOCKS
100
AcDbVertex
100
AcDb3dPolylineVertex
 10
-0.1353129999999965
 20
-0.1295860000000175
 30
0.0
 70
    32
  0
VERTEX
  5
B8
330
39
100
AcDbEntity
  8
BLOCKS
100
AcDbVertex
100
AcDb3dPolylineVertex
 10
-0.135407999999984
 20
-0.1294579999999996
 30
0.0
 70
    32
  0
VERTEX
  5
B9
330
39
100
AcDbEntity
  8
BLOCKS
100
AcDbVertex
100
AcDb3dPolylineVertex
 10
-0.1355029999999715
 20
-0.1293289999999843
 30
0.0
 70
    32
  0
VERTEX
  5
BA
330
39
100
AcDbEntity
  8
BLOCKS
100
AcDbVertex
100
AcDb3dPolylineVertex
 10
-0.1355969999999615
 20
-0.1292009999999664
 30
0.0
 70
    32
  0
VERTEX
  5
BB
330
39
100
AcDbEntity
  8
BLOCKS
100
AcDbVertex
100
AcDb3dPolylineVertex
 10
-0.1356899999999541
 20
-0.1290729999999485
 30
0.0
 70
    32
  0
VERTEX
  5
BC
330
39
100
AcDbEntity
  8
BLOCKS
100
AcDbVertex
100
AcDb3dPolylineVertex
 10
-0.1357829999999467
 20
-0.1289450000000443
 30
0.0
 70
    32
  0
VERTEX
  5
BD
330
39
100
AcDbEntity
  8
BLOCKS
100
AcDbVertex
100
AcDb3dPolylineVertex
 10
-0.1358739999999443
 20
-0.1288170000000264
 30
0.0
 70
    32
  0
VERTEX
  5
BE
330
39
100
AcDbEntity
  8
BLOCKS
100
AcDbVertex
100
AcDb3dPolylineVertex
 10
-0.1359650000000556
 20
-0.1286890000000085
 30
0.0
 70
    32
  0
VERTEX
  5
BF
330
39
100
AcDbEntity
  8
BLOCKS
100
AcDbVertex
100
AcDb3dPolylineVertex
 10
-0.1360550000000558
 20
-0.1285609999999906
 30
0.0
 70
    32
  0
VERTEX
  5
C0
330
39
100
AcDbEntity
  8
BLOCKS
100
AcDbVertex
100
AcDb3dPolylineVertex
 10
-0.1361439999999447
 20
-0.1284339999999702
 30
0.0
 70
    32
  0
VERTEX
  5
C1
330
39
100
AcDbEntity
  8
BLOCKS
100
AcDbVertex
100
AcDb3dPolylineVertex
 10
-0.1362329999999474
 20
-0.1283059999999523
 30
0.0
 70
    32
  0
VERTEX
  5
C2
330
39
100
AcDbEntity
  8
BLOCKS
100
AcDbVertex
100
AcDb3dPolylineVertex
 10
-0.1363199999999551
 20
-0.1281790000000456
 30
0.0
 70
    32
  0
VERTEX
  5
C3
330
39
100
AcDbEntity
  8
BLOCKS
100
AcDbVertex
100
AcDb3dPolylineVertex
 10
-0.1364069999999629
 20
-0.1280520000000251
 30
0.0
 70
    32
  0
VERTEX
  5
C4
330
39
100
AcDbEntity
  8
BLOCKS
100
AcDbVertex
100
AcDb3dPolylineVertex
 10
-0.1364929999999731
 20
-0.1279250000000047
 30
0.0
 70
    32
  0
VERTEX
  5
C5
330
39
100
AcDbEntity
  8
BLOCKS
100
AcDbVertex
100
AcDb3dPolylineVertex
 10
-0.1365779999999859
 20
-0.1277979999999843
 30
0.0
 70
    32
  0
VERTEX
  5
C6
330
39
100
AcDbEntity
  8
BLOCKS
100
AcDbVertex
100
AcDb3dPolylineVertex
 10
-0.1366629999999986
 20
-0.1276719999999614
 30
0.0
 70
    32
  0
VERTEX
  5
C7
330
39
100
AcDbEntity
  8
BLOCKS
100
AcDbVertex
100
AcDb3dPolylineVertex
 10
-0.1367460000000165
 20
-0.1275460000000521
 30
0.0
 70
    32
  0
VERTEX
  5
C8
330
39
100
AcDbEntity
  8
BLOCKS
100
AcDbVertex
100
AcDb3dPolylineVertex
 10
-0.1368290000000343
 20
-0.1274200000000292
 30
0.0
 70
    32
  0
VERTEX
  5
C9
330
39
100
AcDbEntity
  8
BLOCKS
100
AcDbVertex
100
AcDb3dPolylineVertex
 10
-0.1369110000000546
 20
-0.1272940000000062
 30
0.0
 70
    32
  0
VERTEX
  5
CA
330
39
100
AcDbEntity
  8
BLOCKS
100
AcDbVertex
100
AcDb3dPolylineVertex
 10
-0.1369919999999638
 20
-0.1271689999999808
 30
0.0
 70
    32
  0
VERTEX
  5
CB
330
39
100
AcDbEntity
  8
BLOCKS
100
AcDbVertex
100
AcDb3dPolylineVertex
 10
-0.1370719999999892
 20
-0.1270439999999553
 30
0.0
 70
    32
  0
VERTEX
  5
CC
330
39
100
AcDbEntity
  8
BLOCKS
100
AcDbVertex
100
AcDb3dPolylineVertex
 10
-0.1371510000000171
 20
-0.1269190000000435
 30
0.0
 70
    32
  0
VERTEX
  5
CD
330
39
100
AcDbEntity
  8
BLOCKS
100
AcDbVertex
100
AcDb3dPolylineVertex
 10
-0.137230000000045
 20
-0.1267950000000155
 30
0.0
 70
    32
  0
VERTEX
  5
CE
330
39
100
AcDbEntity
  8
BLOCKS
100
AcDbVertex
100
AcDb3dPolylineVertex
 10
-0.1373079999999618
 20
-0.1266709999999875
 30
0.0
 70
    32
  0
VERTEX
  5
CF
330
39
100
AcDbEntity
  8
BLOCKS
100
AcDbVertex
100
AcDb3dPolylineVertex
 10
-0.1373849999999948
 20
-0.126547999999957
 30
0.0
 70
    32
  0
VERTEX
  5
D0
330
39
100
AcDbEntity
  8
BLOCKS
100
AcDbVertex
100
AcDb3dPolylineVertex
 10
-0.1374610000000302
 20
-0.1264240000000427
 30
0.0
 70
    32
  0
VERTEX
  5
D1
330
39
100
AcDbEntity
  8
BLOCKS
100
AcDbVertex
100
AcDb3dPolylineVertex
 10
-0.1375359999999546
 20
-0.1263020000000097
 30
0.0
 70
    32
  0
VERTEX
  5
D2
330
39
100
AcDbEntity
  8
BLOCKS
100
AcDbVertex
100
AcDb3dPolylineVertex
 10
-0.1376099999999951
 20
-0.1261799999999766
 30
0.0
 70
    32
  0
VERTEX
  5
D3
330
39
100
AcDbEntity
  8
BLOCKS
100
AcDbVertex
100
AcDb3dPolylineVertex
 10
-0.1376830000000382
 20
-0.1260579999999436
 30
0.0
 70
    32
  0
VERTEX
  5
D4
330
39
100
AcDbEntity
  8
BLOCKS
100
AcDbVertex
100
AcDb3dPolylineVertex
 10
-0.1377559999999676
 20
-0.1259360000000242
 30
0.0
 70
    32
  0
VERTEX
  5
D5
330
39
100
AcDbEntity
  8
BLOCKS
100
AcDbVertex
100
AcDb3dPolylineVertex
 10
-0.1378280000000132
 20
-0.1258159999999862
 30
0.0
 70
    32
  0
VERTEX
  5
D6
330
39
100
AcDbEntity
  8
BLOCKS
100
AcDbVertex
100
AcDb3dPolylineVertex
 10
-0.1378979999999501
 20
-0.1256949999999506
 30
0.0
 70
    32
  0
VERTEX
  5
D7
330
39
100
AcDbEntity
  8
BLOCKS
100
AcDbVertex
100
AcDb3dPolylineVertex
 10
-0.1379680000000008
 20
-0.1255750000000262
 30
0.0
 70
    32
  0
VERTEX
  5
D8
330
39
100
AcDbEntity
  8
BLOCKS
100
AcDbVertex
100
AcDb3dPolylineVertex
 10
-0.1380370000000539
 20
-0.1254559999999856
 30
0.0
 70
    32
  0
VERTEX
  5
D9
330
39
100
AcDbEntity
  8
BLOCKS
100
AcDbVertex
100
AcDb3dPolylineVertex
 10
-0.1381059999999934
 20
-0.125336999999945
 30
0.0
 70
    32
  0
VERTEX
  5
DA
330
39
100
AcDbEntity
  8
BLOCKS
100
AcDbVertex
100
AcDb3dPolylineVertex
 10
-0.1381730000000516
 20
-0.1252190000000155
 30
0.0
 70
    32
  0
VERTEX
  5
DB
330
39
100
AcDbEntity
  8
BLOCKS
100
AcDbVertex
100
AcDb3dPolylineVertex
 10
-0.1382389999999987
 20
-0.1251019999999698
 30
0.0
 70
    32
  0
VERTEX
  5
DC
330
39
100
AcDbEntity
  8
BLOCKS
100
AcDbVertex
100
AcDb3dPolylineVertex
 10
-0.1383049999999457
 20
-0.1249850000000379
 30
0.0
 70
    32
  0
VERTEX
  5
DD
330
39
100
AcDbEntity
  8
BLOCKS
100
AcDbVertex
100
AcDb3dPolylineVertex
 10
-0.138370000000009
 20
-0.1248679999999922
 30
0.0
 70
    32
  0
VERTEX
  5
DE
330
39
100
AcDbEntity
  8
BLOCKS
100
AcDbVertex
100
AcDb3dPolylineVertex
 10
-0.1384329999999636
 20
-0.1247530000000552
 30
0.0
 70
    32
  0
VERTEX
  5
DF
330
39
100
AcDbEntity
  8
BLOCKS
100
AcDbVertex
100
AcDb3dPolylineVertex
 10
-0.1384960000000319
 20
-0.1246380000000045
 30
0.0
 70
    32
  0
VERTEX
  5
E0
330
39
100
AcDbEntity
  8
BLOCKS
100
AcDbVertex
100
AcDb3dPolylineVertex
 10
-0.1385579999999891
 20
-0.1245229999999537
 30
0.0
 70
    32
  0
VERTEX
  5
E1
330
39
100
AcDbEntity
  8
BLOCKS
100
AcDbVertex
100
AcDb3dPolylineVertex
 10
-0.1386189999999487
 20
-0.1244100000000117
 30
0.0
 70
    32
  0
VERTEX
  5
E2
330
39
100
AcDbEntity
  8
BLOCKS
100
AcDbVertex
100
AcDb3dPolylineVertex
 10
-0.1386790000000246
 20
-0.1242969999999559
 30
0.0
 70
    32
  0
VERTEX
  5
E3
330
39
100
AcDbEntity
  8
BLOCKS
100
AcDbVertex
100
AcDb3dPolylineVertex
 10
-0.1387379999999894
 20
-0.1241840000000138
 30
0.0
 70
    32
  0
VERTEX
  5
E4
330
39
100
AcDbEntity
  8
BLOCKS
100
AcDbVertex
100
AcDb3dPolylineVertex
 10
-0.1387969999999541
 20
-0.124072999999953
 30
0.0
 70
    32
  0
VERTEX
  5
E5
330
39
100
AcDbEntity
  8
BLOCKS
100
AcDbVertex
100
AcDb3dPolylineVertex
 10
-0.1388540000000376
 20
-0.1239620000000059
 30
0.0
 70
    32
  0
VERTEX
  5
E6
330
39
100
AcDbEntity
  8
BLOCKS
100
AcDbVertex
100
AcDb3dPolylineVertex
 10
-0.1389100000000099
 20
-0.1238520000000562
 30
0.0
 70
    32
  0
VERTEX
  5
E7
330
39
100
AcDbEntity
  8
BLOCKS
100
AcDbVertex
100
AcDb3dPolylineVertex
 10
-0.1389659999999822
 20
-0.1237429999999904
 30
0.0
 70
    32
  0
VERTEX
  5
E8
330
39
100
AcDbEntity
  8
BLOCKS
100
AcDbVertex
100
AcDb3dPolylineVertex
 10
-0.139020999999957
 20
-0.1236340000000382
 30
0.0
 70
    32
  0
VERTEX
  5
E9
330
39
100
AcDbEntity
  8
BLOCKS
100
AcDbVertex
100
AcDb3dPolylineVertex
 10
-0.1390740000000505
 20
-0.1235269999999673
 30
0.0
 70
    32
  0
VERTEX
  5
EA
330
39
100
AcDbEntity
  8
BLOCKS
100
AcDbVertex
100
AcDb3dPolylineVertex
 10
-0.1391270000000304
 20
-0.1234200000000101
 30
0.0
 70
    32
  0
VERTEX
  5
EB
330
39
100
AcDbEntity
  8
BLOCKS
100
AcDbVertex
100
AcDb3dPolylineVertex
 10
-0.1391790000000128
 20
-0.1233140000000503
 30
0.0
 70
    32
  0
VERTEX
  5
EC
330
39
100
AcDbEntity
  8
BLOCKS
100
AcDbVertex
100
AcDb3dPolylineVertex
 10
-0.1392299999999977
 20
-0.1232089999999744
 30
0.0
 70
    32
  0
VERTEX
  5
ED
330
39
100
AcDbEntity
  8
BLOCKS
100
AcDbVertex
100
AcDb3dPolylineVertex
 10
-0.1392789999999877
 20
-0.1231050000000096
 30
0.0
 70
    32
  0
VERTEX
  5
EE
330
39
100
AcDbEntity
  8
BLOCKS
100
AcDbVertex
100
AcDb3dPolylineVertex
 10
-0.1393279999999777
 20
-0.1230010000000448
 30
0.0
 70
    32
  0
VERTEX
  5
EF
330
39
100
AcDbEntity
  8
BLOCKS
100
AcDbVertex
100
AcDb3dPolylineVertex
 10
-0.1393759999999702
 20
-0.1228989999999612
 30
0.0
 70
    32
  0
VERTEX
  5
F0
330
39
100
AcDbEntity
  8
BLOCKS
100
AcDbVertex
100
AcDb3dPolylineVertex
 10
-0.1394229999999652
 20
-0.1227969999999914
 30
0.0
 70
    32
  0
VERTEX
  5
F1
330
39
100
AcDbEntity
  8
BLOCKS
100
AcDbVertex
100
AcDb3dPolylineVertex
 10
-0.1394689999999628
 20
-0.1226970000000165
 30
0.0
 70
    32
  0
VERTEX
  5
F2
330
39
100
AcDbEntity
  8
BLOCKS
100
AcDbVertex
100
AcDb3dPolylineVertex
 10
-0.1395149999999603
 20
-0.1225970000000416
 30
0.0
 70
    32
  0
VERTEX
  5
F3
330
39
100
AcDbEntity
  8
BLOCKS
100
AcDbVertex
100
AcDb3dPolylineVertex
 10
-0.1395589999999629
 20
-0.1224989999999479
 30
0.0
 70
    32
  0
VERTEX
  5
F4
330
39
100
AcDbEntity
  8
BLOCKS
100
AcDbVertex
100
AcDb3dPolylineVertex
 10
-0.139601999999968
 20
-0.122400999999968
 30
0.0
 70
    32
  0
VERTEX
  5
F5
330
39
100
AcDbEntity
  8
BLOCKS
100
AcDbVertex
100
AcDb3dPolylineVertex
 10
-0.1396439999999757
 20
-0.122304999999983
 30
0.0
 70
    32
  0
VERTEX
  5
F6
330
39
100
AcDbEntity
  8
BLOCKS
100
AcDbVertex
100
AcDb3dPolylineVertex
 10
-0.1396849999999858
 20
-0.122208999999998
 30
0.0
 70
    32
  0
VERTEX
  5
F7
330
39
100
AcDbEntity
  8
BLOCKS
100
AcDbVertex
100
AcDb3dPolylineVertex
 10
-0.139725999999996
 20
-0.122115000000008
 30
0.0
 70
    32
  0
VERTEX
  5
F8
330
39
100
AcDbEntity
  8
BLOCKS
100
AcDbVertex
100
AcDb3dPolylineVertex
 10
-0.1397650000000112
 20
-0.1220210000000179
 30
0.0
 70
    32
  0
VERTEX
  5
F9
330
39
100
AcDbEntity
  8
BLOCKS
100
AcDbVertex
100
AcDb3dPolylineVertex
 10
-0.139803000000029
 20
-0.1219290000000228
 30
0.0
 70
    32
  0
SEQEND
  5
FA
330
39
100
AcDbEntity
  8
BLOCKS
  0
CIRCLE
  5
FB
330
33
100
AcDbEntity
  8
BLOCKS
100
AcDbCircle
 10
-0.198870915288353
 20
-0.1988709152883536
 30
0.0
 40
0.0225
  0
POLYLINE
  5
FC
330
33
100
AcDbEntity
  8
BLOCKS
100
AcDb3dPolyline
 66
     1
 10
0.0
 20
0.0
 30
0.0
 70
     8
  0
VERTEX
  5
FD
330
FC
100
AcDbEntity
  8
BLOCKS
100
AcDbVertex
100
AcDb3dPolylineVertex
 10
-0.1439060000000154
 20
-0.1208930000000237
 30
0.0
 70
    32
  0
VERTEX
  5
FE
330
FC
100
AcDbEntity
  8
BLOCKS
100
AcDbVertex
100
AcDb3dPolylineVertex
 10
-0.1437009999999645
 20
-0.1207160000000158
 30
0.0
 70
    32
  0
VERTEX
  5
FF
330
FC
100
AcDbEntity
  8
BLOCKS
100
AcDbVertex
100
AcDb3dPolylineVertex
 10
-0.1434679999999844
 20
-0.1205660000000535
 30
0.0
 70
    32
  0
VERTEX
  5
100
330
FC
100
AcDbEntity
  8
BLOCKS
100
AcDbVertex
100
AcDb3dPolylineVertex
 10
-0.1432089999999562
 20
-0.1204450000000179
 30
0.0
 70
    32
  0
VERTEX
  5
101
330
FC
100
AcDbEntity
  8
BLOCKS
100
AcDbVertex
100
AcDb3dPolylineVertex
 10
-0.1429239999999936
 20
-0.1203530000000228
 30
0.0
 70
    32
  0
VERTEX
  5
102
330
FC
100
AcDbEntity
  8
BLOCKS
100
AcDbVertex
100
AcDb3dPolylineVertex
 10
-0.142612999999983
 20
-0.1202899999999545
 30
0.0
 70
    32
  0
VERTEX
  5
103
330
FC
100
AcDbEntity
  8
BLOCKS
100
AcDbVertex
100
AcDb3dPolylineVertex
 10
-0.142278000000033
 20
-0.1202560000000403
 30
0.0
 70
    32
  0
VERTEX
  5
104
330
FC
100
AcDbEntity
  8
BLOCKS
100
AcDbVertex
100
AcDb3dPolylineVertex
 10
-0.1419190000000299
 20
-0.1202520000000504
 30
0.0
 70
    32
  0
VERTEX
  5
105
330
FC
100
AcDbEntity
  8
BLOCKS
100
AcDbVertex
100
AcDb3dPolylineVertex
 10
-0.1415369999999712
 20
-0.1202759999999898
 30
0.0
 70
    32
  0
VERTEX
  5
106
330
FC
100
AcDbEntity
  8
BLOCKS
100
AcDbVertex
100
AcDb3dPolylineVertex
 10
-0.141132999999968
 20
-0.1203299999999672
 30
0.0
 70
    32
  0
VERTEX
  5
107
330
FC
100
AcDbEntity
  8
BLOCKS
100
AcDbVertex
100
AcDb3dPolylineVertex
 10
-0.1407080000000178
 20
-0.120412999999985
 30
0.0
 70
    32
  0
VERTEX
  5
108
330
FC
100
AcDbEntity
  8
BLOCKS
100
AcDbVertex
100
AcDb3dPolylineVertex
 10
-0.1402630000000045
 20
-0.1205250000000433
 30
0.0
 70
    32
  0
VERTEX
  5
109
330
FC
100
AcDbEntity
  8
BLOCKS
100
AcDbVertex
100
AcDb3dPolylineVertex
 10
-0.1397990000000391
 20
-0.1206650000000309
 30
0.0
 70
    32
  0
VERTEX
  5
10A
330
FC
100
AcDbEntity
  8
BLOCKS
100
AcDbVertex
100
AcDb3dPolylineVertex
 10
-0.1393180000000029
 20
-0.1208339999999453
 30
0.0
 70
    32
  0
VERTEX
  5
10B
330
FC
100
AcDbEntity
  8
BLOCKS
100
AcDbVertex
100
AcDb3dPolylineVertex
 10
-0.1388190000000122
 20
-0.1210300000000188
 30
0.0
 70
    32
  0
VERTEX
  5
10C
330
FC
100
AcDbEntity
  8
BLOCKS
100
AcDbVertex
100
AcDb3dPolylineVertex
 10
-0.1383049999999457
 20
-0.1212540000000217
 30
0.0
 70
    32
  0
VERTEX
  5
10D
330
FC
100
AcDbEntity
  8
BLOCKS
100
AcDbVertex
100
AcDb3dPolylineVertex
 10
-0.1377770000000282
 20
-0.1215049999999564
 30
0.0
 70
    32
  0
VERTEX
  5
10E
330
FC
100
AcDbEntity
  8
BLOCKS
100
AcDbVertex
100
AcDb3dPolylineVertex
 10
-0.1372360000000299
 20
-0.1217820000000529
 30
0.0
 70
    32
  0
VERTEX
  5
10F
330
FC
100
AcDbEntity
  8
BLOCKS
100
AcDbVertex
100
AcDb3dPolylineVertex
 10
-0.1366839999999456
 20
-0.1220839999999725
 30
0.0
 70
    32
  0
VERTEX
  5
110
330
FC
100
AcDbEntity
  8
BLOCKS
100
AcDbVertex
100
AcDb3dPolylineVertex
 10
-0.1361200000000053
 20
-0.1224120000000539
 30
0.0
 70
    32
  0
VERTEX
  5
111
330
FC
100
AcDbEntity
  8
BLOCKS
100
AcDbVertex
100
AcDb3dPolylineVertex
 10
-0.1355479999999716
 20
-0.1227629999999635
 30
0.0
 70
    32
  0
VERTEX
  5
112
330
FC
100
AcDbEntity
  8
BLOCKS
100
AcDbVertex
100
AcDb3dPolylineVertex
 10
-0.1349689999999555
 20
-0.1231380000000399
 30
0.0
 70
    32
  0
VERTEX
  5
113
330
FC
100
AcDbEntity
  8
BLOCKS
100
AcDbVertex
100
AcDb3dPolylineVertex
 10
-0.1343829999999571
 20
-0.1235349999999471
 30
0.0
 70
    32
  0
VERTEX
  5
114
330
FC
100
AcDbEntity
  8
BLOCKS
100
AcDbVertex
100
AcDb3dPolylineVertex
 10
-0.1337929999999687
 20
-0.1239530000000286
 30
0.0
 70
    32
  0
VERTEX
  5
115
330
FC
100
AcDbEntity
  8
BLOCKS
100
AcDbVertex
100
AcDb3dPolylineVertex
 10
-0.1331989999999905
 20
-0.1243919999999434
 30
0.0
 70
    32
  0
VERTEX
  5
116
330
FC
100
AcDbEntity
  8
BLOCKS
100
AcDbVertex
100
AcDb3dPolylineVertex
 10
-0.1326030000000173
 20
-0.1248500000000376
 30
0.0
 70
    32
  0
VERTEX
  5
117
330
FC
100
AcDbEntity
  8
BLOCKS
100
AcDbVertex
100
AcDb3dPolylineVertex
 10
-0.1320060000000467
 20
-0.1253259999999727
 30
0.0
 70
    32
  0
VERTEX
  5
118
330
FC
100
AcDbEntity
  8
BLOCKS
100
AcDbVertex
100
AcDb3dPolylineVertex
 10
-0.1314109999999573
 20
-0.1258189999999786
 30
0.0
 70
    32
  0
VERTEX
  5
119
330
FC
100
AcDbEntity
  8
BLOCKS
100
AcDbVertex
100
AcDb3dPolylineVertex
 10
-0.1308179999999766
 20
-0.1263290000000552
 30
0.0
 70
    32
  0
VERTEX
  5
11A
330
FC
100
AcDbEntity
  8
BLOCKS
100
AcDbVertex
100
AcDb3dPolylineVertex
 10
-0.1302289999999857
 20
-0.1268519999999853
 30
0.0
 70
    32
  0
VERTEX
  5
11B
330
FC
100
AcDbEntity
  8
BLOCKS
100
AcDbVertex
100
AcDb3dPolylineVertex
 10
-0.1296449999999822
 20
-0.1273889999999938
 30
0.0
 70
    32
  0
VERTEX
  5
11C
330
FC
100
AcDbEntity
  8
BLOCKS
100
AcDbVertex
100
AcDb3dPolylineVertex
 10
-0.1290679999999611
 20
-0.1279379999999719
 30
0.0
 70
    32
  0
VERTEX
  5
11D
330
FC
100
AcDbEntity
  8
BLOCKS
100
AcDbVertex
100
AcDb3dPolylineVertex
 10
-0.128498000000036
 20
-0.128498000000036
 30
0.0
 70
    32
  0
VERTEX
  5
11E
330
FC
100
AcDbEntity
  8
BLOCKS
100
AcDbVertex
100
AcDb3dPolylineVertex
 10
-0.1279379999999719
 20
-0.1290679999999611
 30
0.0
 70
    32
  0
VERTEX
  5
11F
330
FC
100
AcDbEntity
  8
BLOCKS
100
AcDbVertex
100
AcDb3dPolylineVertex
 10
-0.1273889999999938
 20
-0.1296449999999822
 30
0.0
 70
    32
  0
VERTEX
  5
120
330
FC
100
AcDbEntity
  8
BLOCKS
100
AcDbVertex
100
AcDb3dPolylineVertex
 10
-0.1268519999999853
 20
-0.1302289999999857
 30
0.0
 70
    32
  0
VERTEX
  5
121
330
FC
100
AcDbEntity
  8
BLOCKS
100
AcDbVertex
100
AcDb3dPolylineVertex
 10
-0.1263290000000552
 20
-0.1308179999999766
 30
0.0
 70
    32
  0
VERTEX
  5
122
330
FC
100
AcDbEntity
  8
BLOCKS
100
AcDbVertex
100
AcDb3dPolylineVertex
 10
-0.1258189999999786
 20
-0.1314109999999573
 30
0.0
 70
    32
  0
VERTEX
  5
123
330
FC
100
AcDbEntity
  8
BLOCKS
100
AcDbVertex
100
AcDb3dPolylineVertex
 10
-0.1253259999999727
 20
-0.1320060000000467
 30
0.0
 70
    32
  0
VERTEX
  5
124
330
FC
100
AcDbEntity
  8
BLOCKS
100
AcDbVertex
100
AcDb3dPolylineVertex
 10
-0.1248500000000376
 20
-0.1326030000000173
 30
0.0
 70
    32
  0
VERTEX
  5
125
330
FC
100
AcDbEntity
  8
BLOCKS
100
AcDbVertex
100
AcDb3dPolylineVertex
 10
-0.1243919999999434
 20
-0.1331989999999905
 30
0.0
 70
    32
  0
VERTEX
  5
126
330
FC
100
AcDbEntity
  8
BLOCKS
100
AcDbVertex
100
AcDb3dPolylineVertex
 10
-0.1239530000000286
 20
-0.1337929999999687
 30
0.0
 70
    32
  0
VERTEX
  5
127
330
FC
100
AcDbEntity
  8
BLOCKS
100
AcDbVertex
100
AcDb3dPolylineVertex
 10
-0.1235349999999471
 20
-0.1343829999999571
 30
0.0
 70
    32
  0
VERTEX
  5
128
330
FC
100
AcDbEntity
  8
BLOCKS
100
AcDbVertex
100
AcDb3dPolylineVertex
 10
-0.1231380000000399
 20
-0.1349689999999555
 30
0.0
 70
    32
  0
VERTEX
  5
129
330
FC
100
AcDbEntity
  8
BLOCKS
100
AcDbVertex
100
AcDb3dPolylineVertex
 10
-0.1227629999999635
 20
-0.1355479999999716
 30
0.0
 70
    32
  0
VERTEX
  5
12A
330
FC
100
AcDbEntity
  8
BLOCKS
100
AcDbVertex
100
AcDb3dPolylineVertex
 10
-0.1224120000000539
 20
-0.1361200000000053
 30
0.0
 70
    32
  0
VERTEX
  5
12B
330
FC
100
AcDbEntity
  8
BLOCKS
100
AcDbVertex
100
AcDb3dPolylineVertex
 10
-0.1220839999999725
 20
-0.1366839999999456
 30
0.0
 70
    32
  0
VERTEX
  5
12C
330
FC
100
AcDbEntity
  8
BLOCKS
100
AcDbVertex
100
AcDb3dPolylineVertex
 10
-0.1217820000000529
 20
-0.1372360000000299
 30
0.0
 70
    32
  0
VERTEX
  5
12D
330
FC
100
AcDbEntity
  8
BLOCKS
100
AcDbVertex
100
AcDb3dPolylineVertex
 10
-0.1215049999999564
 20
-0.1377770000000282
 30
0.0
 70
    32
  0
VERTEX
  5
12E
330
FC
100
AcDbEntity
  8
BLOCKS
100
AcDbVertex
100
AcDb3dPolylineVertex
 10
-0.1212540000000217
 20
-0.1383049999999457
 30
0.0
 70
    32
  0
VERTEX
  5
12F
330
FC
100
AcDbEntity
  8
BLOCKS
100
AcDbVertex
100
AcDb3dPolylineVertex
 10
-0.1210300000000188
 20
-0.1388190000000122
 30
0.0
 70
    32
  0
VERTEX
  5
130
330
FC
100
AcDbEntity
  8
BLOCKS
100
AcDbVertex
100
AcDb3dPolylineVertex
 10
-0.1208339999999453
 20
-0.1393180000000029
 30
0.0
 70
    32
  0
VERTEX
  5
131
330
FC
100
AcDbEntity
  8
BLOCKS
100
AcDbVertex
100
AcDb3dPolylineVertex
 10
-0.1206650000000309
 20
-0.1397990000000391
 30
0.0
 70
    32
  0
VERTEX
  5
132
330
FC
100
AcDbEntity
  8
BLOCKS
100
AcDbVertex
100
AcDb3dPolylineVertex
 10
-0.1205250000000433
 20
-0.1402630000000045
 30
0.0
 70
    32
  0
VERTEX
  5
133
330
FC
100
AcDbEntity
  8
BLOCKS
100
AcDbVertex
100
AcDb3dPolylineVertex
 10
-0.120412999999985
 20
-0.1407080000000178
 30
0.0
 70
    32
  0
VERTEX
  5
134
330
FC
100
AcDbEntity
  8
BLOCKS
100
AcDbVertex
100
AcDb3dPolylineVertex
 10
-0.1203299999999672
 20
-0.141132999999968
 30
0.0
 70
    32
  0
VERTEX
  5
135
330
FC
100
AcDbEntity
  8
BLOCKS
100
AcDbVertex
100
AcDb3dPolylineVertex
 10
-0.1202759999999898
 20
-0.1415369999999712
 30
0.0
 70
    32
  0
VERTEX
  5
136
330
FC
100
AcDbEntity
  8
BLOCKS
100
AcDbVertex
100
AcDb3dPolylineVertex
 10
-0.1202520000000504
 20
-0.1419190000000299
 30
0.0
 70
    32
  0
VERTEX
  5
137
330
FC
100
AcDbEntity
  8
BLOCKS
100
AcDbVertex
100
AcDb3dPolylineVertex
 10
-0.1202560000000403
 20
-0.142278000000033
 30
0.0
 70
    32
  0
VERTEX
  5
138
330
FC
100
AcDbEntity
  8
BLOCKS
100
AcDbVertex
100
AcDb3dPolylineVertex
 10
-0.1202899999999545
 20
-0.142612999999983
 30
0.0
 70
    32
  0
VERTEX
  5
139
330
FC
100
AcDbEntity
  8
BLOCKS
100
AcDbVertex
100
AcDb3dPolylineVertex
 10
-0.1203530000000228
 20
-0.1429239999999936
 30
0.0
 70
    32
  0
VERTEX
  5
13A
330
FC
100
AcDbEntity
  8
BLOCKS
100
AcDbVertex
100
AcDb3dPolylineVertex
 10
-0.1204450000000179
 20
-0.1432089999999562
 30
0.0
 70
    32
  0
VERTEX
  5
13B
330
FC
100
AcDbEntity
  8
BLOCKS
100
AcDbVertex
100
AcDb3dPolylineVertex
 10
-0.1205660000000535
 20
-0.1434679999999844
 30
0.0
 70
    32
  0
VERTEX
  5
13C
330
FC
100
AcDbEntity
  8
BLOCKS
100
AcDbVertex
100
AcDb3dPolylineVertex
 10
-0.1207160000000158
 20
-0.1437009999999645
 30
0.0
 70
    32
  0
VERTEX
  5
13D
330
FC
100
AcDbEntity
  8
BLOCKS
100
AcDbVertex
100
AcDb3dPolylineVertex
 10
-0.1208930000000237
 20
-0.1439060000000154
 30
0.0
 70
    32
  0
VERTEX
  5
13E
330
FC
100
AcDbEntity
  8
BLOCKS
100
AcDbVertex
100
AcDb3dPolylineVertex
 10
-0.1210989999999583
 20
-0.1440840000000207
 30
0.0
 70
    32
  0
VERTEX
  5
13F
330
FC
100
AcDbEntity
  8
BLOCKS
100
AcDbVertex
100
AcDb3dPolylineVertex
 10
-0.1213310000000547
 20
-0.1442329999999856
 30
0.0
 70
    32
  0
VERTEX
  5
140
330
FC
100
AcDbEntity
  8
BLOCKS
100
AcDbVertex
100
AcDb3dPolylineVertex
 10
-0.1215899999999692
 20
-0.1443540000000212
 30
0.0
 70
    32
  0
VERTEX
  5
141
330
FC
100
AcDbEntity
  8
BLOCKS
100
AcDbVertex
100
AcDb3dPolylineVertex
 10
-0.1218760000000429
 20
-0.1444460000000163
 30
0.0
 70
    32
  0
VERTEX
  5
142
330
FC
100
AcDbEntity
  8
BLOCKS
100
AcDbVertex
100
AcDb3dPolylineVertex
 10
-0.1221860000000561
 20
-0.1445089999999709
 30
0.0
 70
    32
  0
VERTEX
  5
143
330
FC
100
AcDbEntity
  8
BLOCKS
100
AcDbVertex
100
AcDb3dPolylineVertex
 10
-0.1225210000000061
 20
-0.1445429999999988
 30
0.0
 70
    32
  0
VERTEX
  5
144
330
FC
100
AcDbEntity
  8
BLOCKS
100
AcDbVertex
100
AcDb3dPolylineVertex
 10
-0.1228800000000092
 20
-0.1445479999999861
 30
0.0
 70
    32
  0
VERTEX
  5
145
330
FC
100
AcDbEntity
  8
BLOCKS
100
AcDbVertex
100
AcDb3dPolylineVertex
 10
-0.1232619999999542
 20
-0.1445230000000492
 30
0.0
 70
    32
  0
VERTEX
  5
146
330
FC
100
AcDbEntity
  8
BLOCKS
100
AcDbVertex
100
AcDb3dPolylineVertex
 10
-0.1236659999999574
 20
-0.1444689999999582
 30
0.0
 70
    32
  0
VERTEX
  5
147
330
FC
100
AcDbEntity
  8
BLOCKS
100
AcDbVertex
100
AcDb3dPolylineVertex
 10
-0.1240910000000213
 20
-0.1443870000000516
 30
0.0
 70
    32
  0
VERTEX
  5
148
330
FC
100
AcDbEntity
  8
BLOCKS
100
AcDbVertex
100
AcDb3dPolylineVertex
 10
-0.1245360000000346
 20
-0.1442749999999933
 30
0.0
 70
    32
  0
VERTEX
  5
149
330
FC
100
AcDbEntity
  8
BLOCKS
100
AcDbVertex
100
AcDb3dPolylineVertex
 10
-0.125
 20
-0.1441340000000082
 30
0.0
 70
    32
  0
VERTEX
  5
14A
330
FC
100
AcDbEntity
  8
BLOCKS
100
AcDbVertex
100
AcDb3dPolylineVertex
 10
-0.1254820000000336
 20
-0.1439659999999776
 30
0.0
 70
    32
  0
VERTEX
  5
14B
330
FC
100
AcDbEntity
  8
BLOCKS
100
AcDbVertex
100
AcDb3dPolylineVertex
 10
-0.1259800000000268
 20
-0.1437690000000202
 30
0.0
 70
    32
  0
VERTEX
  5
14C
330
FC
100
AcDbEntity
  8
BLOCKS
100
AcDbVertex
100
AcDb3dPolylineVertex
 10
-0.1264939999999797
 20
-0.1435450000000173
 30
0.0
 70
    32
  0
VERTEX
  5
14D
330
FC
100
AcDbEntity
  8
BLOCKS
100
AcDbVertex
100
AcDb3dPolylineVertex
 10
-0.1270220000000108
 20
-0.1432949999999664
 30
0.0
 70
    32
  0
VERTEX
  5
14E
330
FC
100
AcDbEntity
  8
BLOCKS
100
AcDbVertex
100
AcDb3dPolylineVertex
 10
-0.1275630000000092
 20
-0.1430179999999837
 30
0.0
 70
    32
  0
VERTEX
  5
14F
330
FC
100
AcDbEntity
  8
BLOCKS
100
AcDbVertex
100
AcDb3dPolylineVertex
 10
-0.1281159999999772
 20
-0.1427149999999528
 30
0.0
 70
    32
  0
VERTEX
  5
150
330
FC
100
AcDbEntity
  8
BLOCKS
100
AcDbVertex
100
AcDb3dPolylineVertex
 10
-0.1286790000000337
 20
-0.1423879999999826
 30
0.0
 70
    32
  0
VERTEX
  5
151
330
FC
100
AcDbEntity
  8
BLOCKS
100
AcDbVertex
100
AcDb3dPolylineVertex
 10
-0.1292509999999538
 20
-0.1420359999999619
 30
0.0
 70
    32
  0
VERTEX
  5
152
330
FC
100
AcDbEntity
  8
BLOCKS
100
AcDbVertex
100
AcDb3dPolylineVertex
 10
-0.1298309999999674
 20
-0.1416619999999966
 30
0.0
 70
    32
  0
VERTEX
  5
153
330
FC
100
AcDbEntity
  8
BLOCKS
100
AcDbVertex
100
AcDb3dPolylineVertex
 10
-0.1304159999999683
 20
-0.1412649999999758
 30
0.0
 70
    32
  0
VERTEX
  5
154
330
FC
100
AcDbEntity
  8
BLOCKS
100
AcDbVertex
100
AcDb3dPolylineVertex
 10
-0.1310069999999541
 20
-0.1408460000000105
 30
0.0
 70
    32
  0
VERTEX
  5
155
330
FC
100
AcDbEntity
  8
BLOCKS
100
AcDbVertex
100
AcDb3dPolylineVertex
 10
-0.131601000000046
 20
-0.140406999999982
 30
0.0
 70
    32
  0
VERTEX
  5
156
330
FC
100
AcDbEntity
  8
BLOCKS
100
AcDbVertex
100
AcDb3dPolylineVertex
 10
-0.1321970000000192
 20
-0.1399490000000014
 30
0.0
 70
    32
  0
VERTEX
  5
157
330
FC
100
AcDbEntity
  8
BLOCKS
100
AcDbVertex
100
AcDb3dPolylineVertex
 10
-0.1327929999999924
 20
-0.1394729999999527
 30
0.0
 70
    32
  0
VERTEX
  5
158
330
FC
100
AcDbEntity
  8
BLOCKS
100
AcDbVertex
100
AcDb3dPolylineVertex
 10
-0.1333879999999681
 20
-0.1389799999999468
 30
0.0
 70
    32
  0
VERTEX
  5
159
330
FC
100
AcDbEntity
  8
BLOCKS
100
AcDbVertex
100
AcDb3dPolylineVertex
 10
-0.1339809999999488
 20
-0.1384709999999814
 30
0.0
 70
    32
  0
VERTEX
  5
15A
330
FC
100
AcDbEntity
  8
BLOCKS
100
AcDbVertex
100
AcDb3dPolylineVertex
 10
-0.1345710000000508
 20
-0.1379470000000538
 30
0.0
 70
    32
  0
VERTEX
  5
15B
330
FC
100
AcDbEntity
  8
BLOCKS
100
AcDbVertex
100
AcDb3dPolylineVertex
 10
-0.1351550000000543
 20
-0.1374100000000453
 30
0.0
 70
    32
  0
VERTEX
  5
15C
330
FC
100
AcDbEntity
  8
BLOCKS
100
AcDbVertex
100
AcDb3dPolylineVertex
 10
-0.1357319999999618
 20
-0.1368609999999535
 30
0.0
 70
    32
  0
VERTEX
  5
15D
330
FC
100
AcDbEntity
  8
BLOCKS
100
AcDbVertex
100
AcDb3dPolylineVertex
 10
-0.1363010000000031
 20
-0.1363010000000031
 30
0.0
 70
    32
  0
VERTEX
  5
15E
330
FC
100
AcDbEntity
  8
BLOCKS
100
AcDbVertex
100
AcDb3dPolylineVertex
 10
-0.1368609999999535
 20
-0.1357319999999618
 30
0.0
 70
    32
  0
VERTEX
  5
15F
330
FC
100
AcDbEntity
  8
BLOCKS
100
AcDbVertex
100
AcDb3dPolylineVertex
 10
-0.1374100000000453
 20
-0.1351550000000543
 30
0.0
 70
    32
  0
VERTEX
  5
160
330
FC
100
AcDbEntity
  8
BLOCKS
100
AcDbVertex
100
AcDb3dPolylineVertex
 10
-0.1379470000000538
 20
-0.1345710000000508
 30
0.0
 70
    32
  0
VERTEX
  5
161
330
FC
100
AcDbEntity
  8
BLOCKS
100
AcDbVertex
100
AcDb3dPolylineVertex
 10
-0.1384709999999814
 20
-0.1339809999999488
 30
0.0
 70
    32
  0
VERTEX
  5
162
330
FC
100
AcDbEntity
  8
BLOCKS
100
AcDbVertex
100
AcDb3dPolylineVertex
 10
-0.1389799999999468
 20
-0.1333879999999681
 30
0.0
 70
    32
  0
VERTEX
  5
163
330
FC
100
AcDbEntity
  8
BLOCKS
100
AcDbVertex
100
AcDb3dPolylineVertex
 10
-0.1394729999999527
 20
-0.1327929999999924
 30
0.0
 70
    32
  0
VERTEX
  5
164
330
FC
100
AcDbEntity
  8
BLOCKS
100
AcDbVertex
100
AcDb3dPolylineVertex
 10
-0.1399490000000014
 20
-0.1321970000000192
 30
0.0
 70
    32
  0
VERTEX
  5
165
330
FC
100
AcDbEntity
  8
BLOCKS
100
AcDbVertex
100
AcDb3dPolylineVertex
 10
-0.140406999999982
 20
-0.131601000000046
 30
0.0
 70
    32
  0
VERTEX
  5
166
330
FC
100
AcDbEntity
  8
BLOCKS
100
AcDbVertex
100
AcDb3dPolylineVertex
 10
-0.1408460000000105
 20
-0.1310069999999541
 30
0.0
 70
    32
  0
VERTEX
  5
167
330
FC
100
AcDbEntity
  8
BLOCKS
100
AcDbVertex
100
AcDb3dPolylineVertex
 10
-0.1412649999999758
 20
-0.1304159999999683
 30
0.0
 70
    32
  0
VERTEX
  5
168
330
FC
100
AcDbEntity
  8
BLOCKS
100
AcDbVertex
100
AcDb3dPolylineVertex
 10
-0.1416619999999966
 20
-0.1298309999999674
 30
0.0
 70
    32
  0
VERTEX
  5
169
330
FC
100
AcDbEntity
  8
BLOCKS
100
AcDbVertex
100
AcDb3dPolylineVertex
 10
-0.1420359999999619
 20
-0.1292509999999538
 30
0.0
 70
    32
  0
VERTEX
  5
16A
330
FC
100
AcDbEntity
  8
BLOCKS
100
AcDbVertex
100
AcDb3dPolylineVertex
 10
-0.1423879999999826
 20
-0.1286790000000337
 30
0.0
 70
    32
  0
VERTEX
  5
16B
330
FC
100
AcDbEntity
  8
BLOCKS
100
AcDbVertex
100
AcDb3dPolylineVertex
 10
-0.1427149999999528
 20
-0.1281159999999772
 30
0.0
 70
    32
  0
VERTEX
  5
16C
330
FC
100
AcDbEntity
  8
BLOCKS
100
AcDbVertex
100
AcDb3dPolylineVertex
 10
-0.1430179999999837
 20
-0.1275630000000092
 30
0.0
 70
    32
  0
VERTEX
  5
16D
330
FC
100
AcDbEntity
  8
BLOCKS
100
AcDbVertex
100
AcDb3dPolylineVertex
 10
-0.1432949999999664
 20
-0.1270220000000108
 30
0.0
 70
    32
  0
VERTEX
  5
16E
330
FC
100
AcDbEntity
  8
BLOCKS
100
AcDbVertex
100
AcDb3dPolylineVertex
 10
-0.1435450000000173
 20
-0.1264939999999797
 30
0.0
 70
    32
  0
VERTEX
  5
16F
330
FC
100
AcDbEntity
  8
BLOCKS
100
AcDbVertex
100
AcDb3dPolylineVertex
 10
-0.1437690000000202
 20
-0.1259800000000268
 30
0.0
 70
    32
  0
VERTEX
  5
170
330
FC
100
AcDbEntity
  8
BLOCKS
100
AcDbVertex
100
AcDb3dPolylineVertex
 10
-0.1439659999999776
 20
-0.1254820000000336
 30
0.0
 70
    32
  0
VERTEX
  5
171
330
FC
100
AcDbEntity
  8
BLOCKS
100
AcDbVertex
100
AcDb3dPolylineVertex
 10
-0.1441340000000082
 20
-0.125
 30
0.0
 70
    32
  0
VERTEX
  5
172
330
FC
100
AcDbEntity
  8
BLOCKS
100
AcDbVertex
100
AcDb3dPolylineVertex
 10
-0.1442749999999933
 20
-0.1245360000000346
 30
0.0
 70
    32
  0
VERTEX
  5
173
330
FC
100
AcDbEntity
  8
BLOCKS
100
AcDbVertex
100
AcDb3dPolylineVertex
 10
-0.1443870000000516
 20
-0.1240910000000213
 30
0.0
 70
    32
  0
VERTEX
  5
174
330
FC
100
AcDbEntity
  8
BLOCKS
100
AcDbVertex
100
AcDb3dPolylineVertex
 10
-0.1444689999999582
 20
-0.1236659999999574
 30
0.0
 70
    32
  0
VERTEX
  5
175
330
FC
100
AcDbEntity
  8
BLOCKS
100
AcDbVertex
100
AcDb3dPolylineVertex
 10
-0.1445230000000492
 20
-0.1232619999999542
 30
0.0
 70
    32
  0
VERTEX
  5
176
330
FC
100
AcDbEntity
  8
BLOCKS
100
AcDbVertex
100
AcDb3dPolylineVertex
 10
-0.1445479999999861
 20
-0.1228800000000092
 30
0.0
 70
    32
  0
VERTEX
  5
177
330
FC
100
AcDbEntity
  8
BLOCKS
100
AcDbVertex
100
AcDb3dPolylineVertex
 10
-0.1445429999999988
 20
-0.1225210000000061
 30
0.0
 70
    32
  0
VERTEX
  5
178
330
FC
100
AcDbEntity
  8
BLOCKS
100
AcDbVertex
100
AcDb3dPolylineVertex
 10
-0.1445089999999709
 20
-0.1221860000000561
 30
0.0
 70
    32
  0
VERTEX
  5
179
330
FC
100
AcDbEntity
  8
BLOCKS
100
AcDbVertex
100
AcDb3dPolylineVertex
 10
-0.1444460000000163
 20
-0.1218760000000429
 30
0.0
 70
    32
  0
VERTEX
  5
17A
330
FC
100
AcDbEntity
  8
BLOCKS
100
AcDbVertex
100
AcDb3dPolylineVertex
 10
-0.1443540000000212
 20
-0.1215899999999692
 30
0.0
 70
    32
  0
VERTEX
  5
17B
330
FC
100
AcDbEntity
  8
BLOCKS
100
AcDbVertex
100
AcDb3dPolylineVertex
 10
-0.1442329999999856
 20
-0.1213310000000547
 30
0.0
 70
    32
  0
VERTEX
  5
17C
330
FC
100
AcDbEntity
  8
BLOCKS
100
AcDbVertex
100
AcDb3dPolylineVertex
 10
-0.1440840000000207
 20
-0.1210989999999583
 30
0.0
 70
    32
  0
VERTEX
  5
17D
330
FC
100
AcDbEntity
  8
BLOCKS
100
AcDbVertex
100
AcDb3dPolylineVertex
 10
-0.1439060000000154
 20
-0.1208930000000237
 30
0.0
 70
    32
  0
SEQEND
  5
17E
330
FC
100
AcDbEntity
  8
BLOCKS
  0
POLYLINE
  5
17F
330
33
100
AcDbEntity
  8
BLOCKS
100
AcDb3dPolyline
 66
     1
 10
0.0
 20
0.0
 30
0.0
 70
     8
  0
VERTEX
  5
180
330
17F
100
AcDbEntity
  8
BLOCKS
100
AcDbVertex
100
AcDb3dPolylineVertex
 10
-0.1430679999999711
 20
-0.1217319999999518
 30
0.0
 70
    32
  0
VERTEX
  5
181
330
17F
100
AcDbEntity
  8
BLOCKS
100
AcDbVertex
100
AcDb3dPolylineVertex
 10
-0.1430370000000494
 20
-0.1217040000000225
 30
0.0
 70
    32
  0
VERTEX
  5
182
330
17F
100
AcDbEntity
  8
BLOCKS
100
AcDbVertex
100
AcDb3dPolylineVertex
 10
-0.143002000000024
 20
-0.1216769999999769
 30
0.0
 70
    32
  0
VERTEX
  5
183
330
17F
100
AcDbEntity
  8
BLOCKS
100
AcDbVertex
100
AcDb3dPolylineVertex
 10
-0.1429610000000139
 20
-0.1216520000000401
 30
0.0
 70
    32
  0
VERTEX
  5
184
330
17F
100
AcDbEntity
  8
BLOCKS
100
AcDbVertex
100
AcDb3dPolylineVertex
 10
-0.1429160000000138
 20
-0.121627999999987
 30
0.0
 70
    32
  0
VERTEX
  5
185
330
17F
100
AcDbEntity
  8
BLOCKS
100
AcDbVertex
100
AcDb3dPolylineVertex
 10
-0.1428650000000289
 20
-0.121605000000045
 30
0.0
 70
    32
  0
VERTEX
  5
186
330
17F
100
AcDbEntity
  8
BLOCKS
100
AcDbVertex
100
AcDb3dPolylineVertex
 10
-0.1428100000000541
 20
-0.1215839999999844
 30
0.0
 70
    32
  0
VERTEX
  5
187
330
17F
100
AcDbEntity
  8
BLOCKS
100
AcDbVertex
100
AcDb3dPolylineVertex
 10
-0.1427499999999782
 20
-0.1215640000000349
 30
0.0
 70
    32
  0
VERTEX
  5
188
330
17F
100
AcDbEntity
  8
BLOCKS
100
AcDbVertex
100
AcDb3dPolylineVertex
 10
-0.1426860000000261
 20
-0.1215459999999666
 30
0.0
 70
    32
  0
VERTEX
  5
189
330
17F
100
AcDbEntity
  8
BLOCKS
100
AcDbVertex
100
AcDb3dPolylineVertex
 10
-0.1426159999999754
 20
-0.121530000000007
 30
0.0
 70
    32
  0
VERTEX
  5
18A
330
17F
100
AcDbEntity
  8
BLOCKS
100
AcDbVertex
100
AcDb3dPolylineVertex
 10
-0.1425420000000486
 20
-0.1215160000000424
 30
0.0
 70
    32
  0
VERTEX
  5
18B
330
17F
100
AcDbEntity
  8
BLOCKS
100
AcDbVertex
100
AcDb3dPolylineVertex
 10
-0.1424630000000207
 20
-0.121503999999959
 30
0.0
 70
    32
  0
VERTEX
  5
18C
330
17F
100
AcDbEntity
  8
BLOCKS
100
AcDbVertex
100
AcDb3dPolylineVertex
 10
-0.1423800000000028
 20
-0.1214939999999842
 30
0.0
 70
    32
  0
VERTEX
  5
18D
330
17F
100
AcDbEntity
  8
BLOCKS
100
AcDbVertex
100
AcDb3dPolylineVertex
 10
-0.1422919999999976
 20
-0.1214860000000044
 30
0.0
 70
    32
  0
VERTEX
  5
18E
330
17F
100
AcDbEntity
  8
BLOCKS
100
AcDbVertex
100
AcDb3dPolylineVertex
 10
-0.1421990000000051
 20
-0.121481000000017
 30
0.0
 70
    32
  0
VERTEX
  5
18F
330
17F
100
AcDbEntity
  8
BLOCKS
100
AcDbVertex
100
AcDb3dPolylineVertex
 10
-0.1421020000000226
 20
-0.1214790000000221
 30
0.0
 70
    32
  0
VERTEX
  5
190
330
17F
100
AcDbEntity
  8
BLOCKS
100
AcDbVertex
100
AcDb3dPolylineVertex
 10
-0.1420000000000527
 20
-0.1214790000000221
 30
0.0
 70
    32
  0
VERTEX
  5
191
330
17F
100
AcDbEntity
  8
BLOCKS
100
AcDbVertex
100
AcDb3dPolylineVertex
 10
-0.1418939999999793
 20
-0.1214820000000145
 30
0.0
 70
    32
  0
VERTEX
  5
192
330
17F
100
AcDbEntity
  8
BLOCKS
100
AcDbVertex
100
AcDb3dPolylineVertex
 10
-0.1417830000000322
 20
-0.1214879999999994
 30
0.0
 70
    32
  0
VERTEX
  5
193
330
17F
100
AcDbEntity
  8
BLOCKS
100
AcDbVertex
100
AcDb3dPolylineVertex
 10
-0.1416679999999815
 20
-0.1214959999999792
 30
0.0
 70
    32
  0
VERTEX
  5
194
330
17F
100
AcDbEntity
  8
BLOCKS
100
AcDbVertex
100
AcDb3dPolylineVertex
 10
-0.1415479999999434
 20
-0.1215079999999489
 30
0.0
 70
    32
  0
VERTEX
  5
195
330
17F
100
AcDbEntity
  8
BLOCKS
100
AcDbVertex
100
AcDb3dPolylineVertex
 10
-0.1414240000000291
 20
-0.1215240000000222
 30
0.0
 70
    32
  0
VERTEX
  5
196
330
17F
100
AcDbEntity
  8
BLOCKS
100
AcDbVertex
100
AcDb3dPolylineVertex
 10
-0.1412960000000112
 20
-0.1215419999999767
 30
0.0
 70
    32
  0
VERTEX
  5
197
330
17F
100
AcDbEntity
  8
BLOCKS
100
AcDbVertex
100
AcDb3dPolylineVertex
 10
-0.1411630000000059
 20
-0.1215640000000349
 30
0.0
 70
    32
  0
VERTEX
  5
198
330
17F
100
AcDbEntity
  8
BLOCKS
100
AcDbVertex
100
AcDb3dPolylineVertex
 10
-0.1410260000000107
 20
-0.1215899999999692
 30
0.0
 70
    32
  0
VERTEX
  5
199
330
17F
100
AcDbEntity
  8
BLOCKS
100
AcDbVertex
100
AcDb3dPolylineVertex
 10
-0.1408850000000257
 20
-0.1216190000000097
 30
0.0
 70
    32
  0
VERTEX
  5
19A
330
17F
100
AcDbEntity
  8
BLOCKS
100
AcDbVertex
100
AcDb3dPolylineVertex
 10
-0.1407400000000507
 20
-0.1216520000000401
 30
0.0
 70
    32
  0
VERTEX
  5
19B
330
17F
100
AcDbEntity
  8
BLOCKS
100
AcDbVertex
100
AcDb3dPolylineVertex
 10
-0.1405899999999747
 20
-0.1216889999999466
 30
0.0
 70
    32
  0
VERTEX
  5
19C
330
17F
100
AcDbEntity
  8
BLOCKS
100
AcDbVertex
100
AcDb3dPolylineVertex
 10
-0.1404360000000224
 20
-0.1217299999999568
 30
0.0
 70
    32
  0
VERTEX
  5
19D
330
17F
100
AcDbEntity
  8
BLOCKS
100
AcDbVertex
100
AcDb3dPolylineVertex
 10
-0.1402779999999666
 20
-0.1217749999999569
 30
0.0
 70
    32
  0
VERTEX
  5
19E
330
17F
100
AcDbEntity
  8
BLOCKS
100
AcDbVertex
100
AcDb3dPolylineVertex
 10
-0.1401160000000345
 20
-0.1218249999999443
 30
0.0
 70
    32
  0
VERTEX
  5
19F
330
17F
100
AcDbEntity
  8
BLOCKS
100
AcDbVertex
100
AcDb3dPolylineVertex
 10
-0.1399499999999989
 20
-0.1218790000000354
 30
0.0
 70
    32
  0
VERTEX
  5
1A0
330
17F
100
AcDbEntity
  8
BLOCKS
100
AcDbVertex
100
AcDb3dPolylineVertex
 10
-0.1397799999999734
 20
-0.1219370000000026
 30
0.0
 70
    32
  0
VERTEX
  5
1A1
330
17F
100
AcDbEntity
  8
BLOCKS
100
AcDbVertex
100
AcDb3dPolylineVertex
 10
-0.1396059999999579
 20
-0.1219999999999572
 30
0.0
 70
    32
  0
VERTEX
  5
1A2
330
17F
100
AcDbEntity
  8
BLOCKS
100
AcDbVertex
100
AcDb3dPolylineVertex
 10
-0.1394279999999526
 20
-0.1220680000000129
 30
0.0
 70
    32
  0
VERTEX
  5
1A3
330
17F
100
AcDbEntity
  8
BLOCKS
100
AcDbVertex
100
AcDb3dPolylineVertex
 10
-0.1392449999999599
 20
-0.122141000000056
 30
0.0
 70
    32
  0
VERTEX
  5
1A4
330
17F
100
AcDbEntity
  8
BLOCKS
100
AcDbVertex
100
AcDb3dPolylineVertex
 10
-0.1390589999999747
 20
-0.1222179999999753
 30
0.0
 70
    32
  0
VERTEX
  5
1A5
330
17F
100
AcDbEntity
  8
BLOCKS
100
AcDbVertex
100
AcDb3dPolylineVertex
 10
-0.1388689999999997
 20
-0.1223009999999931
 30
0.0
 70
    32
  0
VERTEX
  5
1A6
330
17F
100
AcDbEntity
  8
BLOCKS
100
AcDbVertex
100
AcDb3dPolylineVertex
 10
-0.1386750000000347
 20
-0.1223889999999983
 30
0.0
 70
    32
  0
VERTEX
  5
1A7
330
17F
100
AcDbEntity
  8
BLOCKS
100
AcDbVertex
100
AcDb3dPolylineVertex
 10
-0.1384779999999637
 20
-0.1224819999999909
 30
0.0
 70
    32
  0
VERTEX
  5
1A8
330
17F
100
AcDbEntity
  8
BLOCKS
100
AcDbVertex
100
AcDb3dPolylineVertex
 10
-0.1382770000000164
 20
-0.1225809999999683
 30
0.0
 70
    32
  0
VERTEX
  5
1A9
330
17F
100
AcDbEntity
  8
BLOCKS
100
AcDbVertex
100
AcDb3dPolylineVertex
 10
-0.1380739999999605
 20
-0.1226840000000493
 30
0.0
 70
    32
  0
VERTEX
  5
1AA
330
17F
100
AcDbEntity
  8
BLOCKS
100
AcDbVertex
100
AcDb3dPolylineVertex
 10
-0.1378690000000233
 20
-0.1227910000000065
 30
0.0
 70
    32
  0
VERTEX
  5
1AB
330
17F
100
AcDbEntity
  8
BLOCKS
100
AcDbVertex
100
AcDb3dPolylineVertex
 10
-0.1376619999999775
 20
-0.1229039999999486
 30
0.0
 70
    32
  0
VERTEX
  5
1AC
330
17F
100
AcDbEntity
  8
BLOCKS
100
AcDbVertex
100
AcDb3dPolylineVertex
 10
-0.1374530000000504
 20
-0.1230199999999968
 30
0.0
 70
    32
  0
VERTEX
  5
1AD
330
17F
100
AcDbEntity
  8
BLOCKS
100
AcDbVertex
100
AcDb3dPolylineVertex
 10
-0.1372420000000147
 20
-0.1231420000000298
 30
0.0
 70
    32
  0
VERTEX
  5
1AE
330
17F
100
AcDbEntity
  8
BLOCKS
100
AcDbVertex
100
AcDb3dPolylineVertex
 10
-0.1370289999999841
 20
-0.1232670000000553
 30
0.0
 70
    32
  0
VERTEX
  5
1AF
330
17F
100
AcDbEntity
  8
BLOCKS
100
AcDbVertex
100
AcDb3dPolylineVertex
 10
-0.1368139999999585
 20
-0.1233969999999545
 30
0.0
 70
    32
  0
VERTEX
  5
1B0
330
17F
100
AcDbEntity
  8
BLOCKS
100
AcDbVertex
100
AcDb3dPolylineVertex
 10
-0.1365980000000491
 20
-0.1235299999999597
 30
0.0
 70
    32
  0
VERTEX
  5
1B1
330
17F
100
AcDbEntity
  8
BLOCKS
100
AcDbVertex
100
AcDb3dPolylineVertex
 10
-0.1363810000000285
 20
-0.1236679999999524
 30
0.0
 70
    32
  0
VERTEX
  5
1B2
330
17F
100
AcDbEntity
  8
BLOCKS
100
AcDbVertex
100
AcDb3dPolylineVertex
 10
-0.136162000000013
 20
-0.1238100000000486
 30
0.0
 70
    32
  0
VERTEX
  5
1B3
330
17F
100
AcDbEntity
  8
BLOCKS
100
AcDbVertex
100
AcDb3dPolylineVertex
 10
-0.1359410000000025
 20
-0.123956000000021
 30
0.0
 70
    32
  0
VERTEX
  5
1B4
330
17F
100
AcDbEntity
  8
BLOCKS
100
AcDbVertex
100
AcDb3dPolylineVertex
 10
-0.1357189999999946
 20
-0.1241049999999859
 30
0.0
 70
    32
  0
VERTEX
  5
1B5
330
17F
100
AcDbEntity
  8
BLOCKS
100
AcDbVertex
100
AcDb3dPolylineVertex
 10
-0.1354969999999867
 20
-0.1242580000000544
 30
0.0
 70
    32
  0
VERTEX
  5
1B6
330
17F
100
AcDbEntity
  8
BLOCKS
100
AcDbVertex
100
AcDb3dPolylineVertex
 10
-0.1352729999999838
 20
-0.124414999999999
 30
0.0
 70
    32
  0
VERTEX
  5
1B7
330
17F
100
AcDbEntity
  8
BLOCKS
100
AcDbVertex
100
AcDb3dPolylineVertex
 10
-0.1350479999999834
 20
-0.1245760000000473
 30
0.0
 70
    32
  0
VERTEX
  5
1B8
330
17F
100
AcDbEntity
  8
BLOCKS
100
AcDbVertex
100
AcDb3dPolylineVertex
 10
-0.1348219999999856
 20
-0.1247389999999768
 30
0.0
 70
    32
  0
VERTEX
  5
1B9
330
17F
100
AcDbEntity
  8
BLOCKS
100
AcDbVertex
100
AcDb3dPolylineVertex
 10
-0.1345949999999902
 20
-0.1249060000000099
 30
0.0
 70
    32
  0
VERTEX
  5
1BA
330
17F
100
AcDbEntity
  8
BLOCKS
100
AcDbVertex
100
AcDb3dPolylineVertex
 10
-0.1343679999999949
 20
-0.125077000000033
 30
0.0
 70
    32
  0
VERTEX
  5
1BB
330
17F
100
AcDbEntity
  8
BLOCKS
100
AcDbVertex
100
AcDb3dPolylineVertex
 10
-0.1341400000000021
 20
-0.1252500000000509
 30
0.0
 70
    32
  0
VERTEX
  5
1BC
330
17F
100
AcDbEntity
  8
BLOCKS
100
AcDbVertex
100
AcDb3dPolylineVertex
 10
-0.1339110000000119
 20
-0.1254269999999451
 30
0.0
 70
    32
  0
VERTEX
  5
1BD
330
17F
100
AcDbEntity
  8
BLOCKS
100
AcDbVertex
100
AcDb3dPolylineVertex
 10
-0.1336820000000216
 20
-0.1256059999999479
 30
0.0
 70
    32
  0
VERTEX
  5
1BE
330
17F
100
AcDbEntity
  8
BLOCKS
100
AcDbVertex
100
AcDb3dPolylineVertex
 10
-0.1334530000000313
 20
-0.1257890000000543
 30
0.0
 70
    32
  0
VERTEX
  5
1BF
330
17F
100
AcDbEntity
  8
BLOCKS
100
AcDbVertex
100
AcDb3dPolylineVertex
 10
-0.1332230000000436
 20
-0.125974000000042
 30
0.0
 70
    32
  0
VERTEX
  5
1C0
330
17F
100
AcDbEntity
  8
BLOCKS
100
AcDbVertex
100
AcDb3dPolylineVertex
 10
-0.1329930000000559
 20
-0.1261620000000221
 30
0.0
 70
    32
  0
VERTEX
  5
1C1
330
17F
100
AcDbEntity
  8
BLOCKS
100
AcDbVertex
100
AcDb3dPolylineVertex
 10
-0.1327629999999544
 20
-0.1263529999999946
 30
0.0
 70
    32
  0
VERTEX
  5
1C2
330
17F
100
AcDbEntity
  8
BLOCKS
100
AcDbVertex
100
AcDb3dPolylineVertex
 10
-0.1325329999999667
 20
-0.1265459999999621
 30
0.0
 70
    32
  0
VERTEX
  5
1C3
330
17F
100
AcDbEntity
  8
BLOCKS
100
AcDbVertex
100
AcDb3dPolylineVertex
 10
-0.132302999999979
 20
-0.1267420000000357
 30
0.0
 70
    32
  0
VERTEX
  5
1C4
330
17F
100
AcDbEntity
  8
BLOCKS
100
AcDbVertex
100
AcDb3dPolylineVertex
 10
-0.1320729999999912
 20
-0.1269399999999905
 30
0.0
 70
    32
  0
VERTEX
  5
1C5
330
17F
100
AcDbEntity
  8
BLOCKS
100
AcDbVertex
100
AcDb3dPolylineVertex
 10
-0.131844000000001
 20
-0.1271410000000515
 30
0.0
 70
    32
  0
VERTEX
  5
1C6
330
17F
100
AcDbEntity
  8
BLOCKS
100
AcDbVertex
100
AcDb3dPolylineVertex
 10
-0.1316150000000107
 20
-0.1273429999999962
 30
0.0
 70
    32
  0
VERTEX
  5
1C7
330
17F
100
AcDbEntity
  8
BLOCKS
100
AcDbVertex
100
AcDb3dPolylineVertex
 10
-0.1313860000000204
 20
-0.1275480000000471
 30
0.0
 70
    32
  0
VERTEX
  5
1C8
330
17F
100
AcDbEntity
  8
BLOCKS
100
AcDbVertex
100
AcDb3dPolylineVertex
 10
-0.1311570000000302
 20
-0.1277549999999792
 30
0.0
 70
    32
  0
VERTEX
  5
1C9
330
17F
100
AcDbEntity
  8
BLOCKS
100
AcDbVertex
100
AcDb3dPolylineVertex
 10
-0.1309300000000348
 20
-0.1279640000000199
 30
0.0
 70
    32
  0
VERTEX
  5
1CA
330
17F
100
AcDbEntity
  8
BLOCKS
100
AcDbVertex
100
AcDb3dPolylineVertex
 10
-0.1307030000000395
 20
-0.1281750000000557
 30
0.0
 70
    32
  0
VERTEX
  5
1CB
330
17F
100
AcDbEntity
  8
BLOCKS
100
AcDbVertex
100
AcDb3dPolylineVertex
 10
-0.1304760000000442
 20
-0.1283869999999752
 30
0.0
 70
    32
  0
VERTEX
  5
1CC
330
17F
100
AcDbEntity
  8
BLOCKS
100
AcDbVertex
100
AcDb3dPolylineVertex
 10
-0.1302510000000439
 20
-0.1286010000000033
 30
0.0
 70
    32
  0
VERTEX
  5
1CD
330
17F
100
AcDbEntity
  8
BLOCKS
100
AcDbVertex
100
AcDb3dPolylineVertex
 10
-0.130027000000041
 20
-0.1288170000000264
 30
0.0
 70
    32
  0
VERTEX
  5
1CE
330
17F
100
AcDbEntity
  8
BLOCKS
100
AcDbVertex
100
AcDb3dPolylineVertex
 10
-0.1298030000000381
 20
-0.1290340000000469
 30
0.0
 70
    32
  0
VERTEX
  5
1CF
330
17F
100
AcDbEntity
  8
BLOCKS
100
AcDbVertex
100
AcDb3dPolylineVertex
 10
-0.1295810000000301
 20
-0.1292529999999488
 30
0.0
 70
    32
  0
VERTEX
  5
1D0
330
17F
100
AcDbEntity
  8
BLOCKS
100
AcDbVertex
100
AcDb3dPolylineVertex
 10
-0.1293600000000197
 20
-0.1294729999999618
 30
0.0
 70
    32
  0
VERTEX
  5
1D1
330
17F
100
AcDbEntity
  8
BLOCKS
100
AcDbVertex
100
AcDb3dPolylineVertex
 10
-0.1291400000000067
 20
-0.1296939999999722
 30
0.0
 70
    32
  0
VERTEX
  5
1D2
330
17F
100
AcDbEntity
  8
BLOCKS
100
AcDbVertex
100
AcDb3dPolylineVertex
 10
-0.1289219999999887
 20
-0.1299169999999776
 30
0.0
 70
    32
  0
VERTEX
  5
1D3
330
17F
100
AcDbEntity
  8
BLOCKS
100
AcDbVertex
100
AcDb3dPolylineVertex
 10
-0.1287049999999681
 20
-0.130139999999983
 30
0.0
 70
    32
  0
VERTEX
  5
1D4
330
17F
100
AcDbEntity
  8
BLOCKS
100
AcDbVertex
100
AcDb3dPolylineVertex
 10
-0.128488999999945
 20
-0.1303649999999834
 30
0.0
 70
    32
  0
VERTEX
  5
1D5
330
17F
100
AcDbEntity
  8
BLOCKS
100
AcDbVertex
100
AcDb3dPolylineVertex
 10
-0.128276000000028
 20
-0.1305899999999838
 30
0.0
 70
    32
  0
VERTEX
  5
1D6
330
17F
100
AcDbEntity
  8
BLOCKS
100
AcDbVertex
100
AcDb3dPolylineVertex
 10
-0.1280639999999948
 20
-0.1308169999999791
 30
0.0
 70
    32
  0
VERTEX
  5
1D7
330
17F
100
AcDbEntity
  8
BLOCKS
100
AcDbVertex
100
AcDb3dPolylineVertex
 10
-0.1278539999999566
 20
-0.1310439999999744
 30
0.0
 70
    32
  0
VERTEX
  5
1D8
330
17F
100
AcDbEntity
  8
BLOCKS
100
AcDbVertex
100
AcDb3dPolylineVertex
 10
-0.127646000000027
 20
-0.1312709999999697
 30
0.0
 70
    32
  0
VERTEX
  5
1D9
330
17F
100
AcDbEntity
  8
BLOCKS
100
AcDbVertex
100
AcDb3dPolylineVertex
 10
-0.1274399999999787
 20
-0.13149999999996
 30
0.0
 70
    32
  0
VERTEX
  5
1DA
330
17F
100
AcDbEntity
  8
BLOCKS
100
AcDbVertex
100
AcDb3dPolylineVertex
 10
-0.127236000000039
 20
-0.1317279999999528
 30
0.0
 70
    32
  0
VERTEX
  5
1DB
330
17F
100
AcDbEntity
  8
BLOCKS
100
AcDbVertex
100
AcDb3dPolylineVertex
 10
-0.1270339999999805
 20
-0.1319570000000567
 30
0.0
 70
    32
  0
VERTEX
  5
1DC
330
17F
100
AcDbEntity
  8
BLOCKS
100
AcDbVertex
100
AcDb3dPolylineVertex
 10
-0.1268340000000307
 20
-0.1321870000000445
 30
0.0
 70
    32
  0
VERTEX
  5
1DD
330
17F
100
AcDbEntity
  8
BLOCKS
100
AcDbVertex
100
AcDb3dPolylineVertex
 10
-0.1266369999999597
 20
-0.1324160000000347
 30
0.0
 70
    32
  0
VERTEX
  5
1DE
330
17F
100
AcDbEntity
  8
BLOCKS
100
AcDbVertex
100
AcDb3dPolylineVertex
 10
-0.1264419999999973
 20
-0.1326460000000225
 30
0.0
 70
    32
  0
VERTEX
  5
1DF
330
17F
100
AcDbEntity
  8
BLOCKS
100
AcDbVertex
100
AcDb3dPolylineVertex
 10
-0.1262500000000273
 20
-0.1328760000000102
 30
0.0
 70
    32
  0
VERTEX
  5
1E0
330
17F
100
AcDbEntity
  8
BLOCKS
100
AcDbVertex
100
AcDb3dPolylineVertex
 10
-0.1260610000000497
 20
-0.1331059999999979
 30
0.0
 70
    32
  0
VERTEX
  5
1E1
330
17F
100
AcDbEntity
  8
BLOCKS
100
AcDbVertex
100
AcDb3dPolylineVertex
 10
-0.1258739999999534
 20
-0.1333349999999882
 30
0.0
 70
    32
  0
VERTEX
  5
1E2
330
17F
100
AcDbEntity
  8
BLOCKS
100
AcDbVertex
100
AcDb3dPolylineVertex
 10
-0.1256899999999632
 20
-0.1335649999999759
 30
0.0
 70
    32
  0
VERTEX
  5
1E3
330
17F
100
AcDbEntity
  8
BLOCKS
100
AcDbVertex
100
AcDb3dPolylineVertex
 10
-0.1255089999999654
 20
-0.1337939999999662
 30
0.0
 70
    32
  0
VERTEX
  5
1E4
330
17F
100
AcDbEntity
  8
BLOCKS
100
AcDbVertex
100
AcDb3dPolylineVertex
 10
-0.1253299999999626
 20
-0.134021999999959
 30
0.0
 70
    32
  0
VERTEX
  5
1E5
330
17F
100
AcDbEntity
  8
BLOCKS
100
AcDbVertex
100
AcDb3dPolylineVertex
 10
-0.1251549999999497
 20
-0.1342509999999493
 30
0.0
 70
    32
  0
VERTEX
  5
1E6
330
17F
100
AcDbEntity
  8
BLOCKS
100
AcDbVertex
100
AcDb3dPolylineVertex
 10
-0.1249830000000429
 20
-0.1344779999999446
 30
0.0
 70
    32
  0
VERTEX
  5
1E7
330
17F
100
AcDbEntity
  8
BLOCKS
100
AcDbVertex
100
AcDb3dPolylineVertex
 10
-0.1248150000000123
 20
-0.1347050000000536
 30
0.0
 70
    32
  0
VERTEX
  5
1E8
330
17F
100
AcDbEntity
  8
BLOCKS
100
AcDbVertex
100
AcDb3dPolylineVertex
 10
-0.1246489999999767
 20
-0.1349310000000514
 30
0.0
 70
    32
  0
VERTEX
  5
1E9
330
17F
100
AcDbEntity
  8
BLOCKS
100
AcDbVertex
100
AcDb3dPolylineVertex
 10
-0.1244880000000421
 20
-0.1351570000000493
 30
0.0
 70
    32
  0
VERTEX
  5
1EA
330
17F
100
AcDbEntity
  8
BLOCKS
100
AcDbVertex
100
AcDb3dPolylineVertex
 10
-0.1243289999999888
 20
-0.1353810000000521
 30
0.0
 70
    32
  0
VERTEX
  5
1EB
330
17F
100
AcDbEntity
  8
BLOCKS
100
AcDbVertex
100
AcDb3dPolylineVertex
 10
-0.1241740000000391
 20
-0.1356039999999439
 30
0.0
 70
    32
  0
VERTEX
  5
1EC
330
17F
100
AcDbEntity
  8
BLOCKS
100
AcDbVertex
100
AcDb3dPolylineVertex
 10
-0.1240229999999656
 20
-0.1358269999999493
 30
0.0
 70
    32
  0
VERTEX
  5
1ED
330
17F
100
AcDbEntity
  8
BLOCKS
100
AcDbVertex
100
AcDb3dPolylineVertex
 10
-0.1238759999999957
 20
-0.1360479999999598
 30
0.0
 70
    32
  0
VERTEX
  5
1EE
330
17F
100
AcDbEntity
  8
BLOCKS
100
AcDbVertex
100
AcDb3dPolylineVertex
 10
-0.1237330000000156
 20
-0.1362679999999727
 30
0.0
 70
    32
  0
VERTEX
  5
1EF
330
17F
100
AcDbEntity
  8
BLOCKS
100
AcDbVertex
100
AcDb3dPolylineVertex
 10
-0.123593000000028
 20
-0.1364859999999908
 30
0.0
 70
    32
  0
VERTEX
  5
1F0
330
17F
100
AcDbEntity
  8
BLOCKS
100
AcDbVertex
100
AcDb3dPolylineVertex
 10
-0.1234580000000278
 20
-0.1367030000000113
 30
0.0
 70
    32
  0
VERTEX
  5
1F1
330
17F
100
AcDbEntity
  8
BLOCKS
100
AcDbVertex
100
AcDb3dPolylineVertex
 10
-0.1233270000000175
 20
-0.1369190000000344
 30
0.0
 70
    32
  0
VERTEX
  5
1F2
330
17F
100
AcDbEntity
  8
BLOCKS
100
AcDbVertex
100
AcDb3dPolylineVertex
 10
-0.1231999999999971
 20
-0.1371329999999489
 30
0.0
 70
    32
  0
VERTEX
  5
1F3
330
17F
100
AcDbEntity
  8
BLOCKS
100
AcDbVertex
100
AcDb3dPolylineVertex
 10
-0.1230769999999666
 20
-0.1373449999999821
 30
0.0
 70
    32
  0
VERTEX
  5
1F4
330
17F
100
AcDbEntity
  8
BLOCKS
100
AcDbVertex
100
AcDb3dPolylineVertex
 10
-0.1229590000000371
 20
-0.1375560000000178
 30
0.0
 70
    32
  0
VERTEX
  5
1F5
330
17F
100
AcDbEntity
  8
BLOCKS
100
AcDbVertex
100
AcDb3dPolylineVertex
 10
-0.1228449999999839
 20
-0.1377639999999474
 30
0.0
 70
    32
  0
VERTEX
  5
1F6
330
17F
100
AcDbEntity
  8
BLOCKS
100
AcDbVertex
100
AcDb3dPolylineVertex
 10
-0.1227360000000317
 20
-0.1379709999999932
 30
0.0
 70
    32
  0
VERTEX
  5
1F7
330
17F
100
AcDbEntity
  8
BLOCKS
100
AcDbVertex
100
AcDb3dPolylineVertex
 10
-0.1226309999999557
 20
-0.1381750000000466
 30
0.0
 70
    32
  0
VERTEX
  5
1F8
330
17F
100
AcDbEntity
  8
BLOCKS
100
AcDbVertex
100
AcDb3dPolylineVertex
 10
-0.1225309999999808
 20
-0.1383769999999913
 30
0.0
 70
    32
  0
VERTEX
  5
1F9
330
17F
100
AcDbEntity
  8
BLOCKS
100
AcDbVertex
100
AcDb3dPolylineVertex
 10
-0.1224359999999933
 20
-0.1385739999999487
 30
0.0
 70
    32
  0
VERTEX
  5
1FA
330
17F
100
AcDbEntity
  8
BLOCKS
100
AcDbVertex
100
AcDb3dPolylineVertex
 10
-0.1223449999999957
 20
-0.1387670000000298
 30
0.0
 70
    32
  0
VERTEX
  5
1FB
330
17F
100
AcDbEntity
  8
BLOCKS
100
AcDbVertex
100
AcDb3dPolylineVertex
 10
-0.122257999999988
 20
-0.1389570000000049
 30
0.0
 70
    32
  0
VERTEX
  5
1FC
330
17F
100
AcDbEntity
  8
BLOCKS
100
AcDbVertex
100
AcDb3dPolylineVertex
 10
-0.1221769999999651
 20
-0.1391419999999925
 30
0.0
 70
    32
  0
VERTEX
  5
1FD
330
17F
100
AcDbEntity
  8
BLOCKS
100
AcDbVertex
100
AcDb3dPolylineVertex
 10
-0.1220990000000484
 20
-0.1393239999999878
 30
0.0
 70
    32
  0
VERTEX
  5
1FE
330
17F
100
AcDbEntity
  8
BLOCKS
100
AcDbVertex
100
AcDb3dPolylineVertex
 10
-0.1220260000000053
 20
-0.1395019999999931
 30
0.0
 70
    32
  0
VERTEX
  5
1FF
330
17F
100
AcDbEntity
  8
BLOCKS
100
AcDbVertex
100
AcDb3dPolylineVertex
 10
-0.1219579999999496
 20
-0.1396750000000111
 30
0.0
 70
    32
  0
VERTEX
  5
200
330
17F
100
AcDbEntity
  8
BLOCKS
100
AcDbVertex
100
AcDb3dPolylineVertex
 10
-0.121893
 20
-0.1398450000000366
 30
0.0
 70
    32
  0
VERTEX
  5
201
330
17F
100
AcDbEntity
  8
BLOCKS
100
AcDbVertex
100
AcDb3dPolylineVertex
 10
-0.1218330000000378
 20
-0.1400109999999586
 30
0.0
 70
    32
  0
VERTEX
  5
202
330
17F
100
AcDbEntity
  8
BLOCKS
100
AcDbVertex
100
AcDb3dPolylineVertex
 10
-0.1217779999999493
 20
-0.1401730000000043
 30
0.0
 70
    32
  0
VERTEX
  5
203
330
17F
100
AcDbEntity
  8
BLOCKS
100
AcDbVertex
100
AcDb3dPolylineVertex
 10
-0.1217269999999644
 20
-0.1403319999999439
 30
0.0
 70
    32
  0
VERTEX
  5
204
330
17F
100
AcDbEntity
  8
BLOCKS
100
AcDbVertex
100
AcDb3dPolylineVertex
 10
-0.1216799999999694
 20
-0.1404860000000099
 30
0.0
 70
    32
  0
VERTEX
  5
205
330
17F
100
AcDbEntity
  8
BLOCKS
100
AcDbVertex
100
AcDb3dPolylineVertex
 10
-0.1216369999999642
 20
-0.1406369999999697
 30
0.0
 70
    32
  0
VERTEX
  5
206
330
17F
100
AcDbEntity
  8
BLOCKS
100
AcDbVertex
100
AcDb3dPolylineVertex
 10
-0.121597999999949
 20
-0.1407830000000558
 30
0.0
 70
    32
  0
VERTEX
  5
207
330
17F
100
AcDbEntity
  8
BLOCKS
100
AcDbVertex
100
AcDb3dPolylineVertex
 10
-0.1215640000000349
 20
-0.1409260000000359
 30
0.0
 70
    32
  0
VERTEX
  5
208
330
17F
100
AcDbEntity
  8
BLOCKS
100
AcDbVertex
100
AcDb3dPolylineVertex
 10
-0.1215339999999969
 20
-0.141065000000026
 30
0.0
 70
    32
  0
VERTEX
  5
209
330
17F
100
AcDbEntity
  8
BLOCKS
100
AcDbVertex
100
AcDb3dPolylineVertex
 10
-0.1215079999999489
 20
-0.1412000000000262
 30
0.0
 70
    32
  0
VERTEX
  5
20A
330
17F
100
AcDbEntity
  8
BLOCKS
100
AcDbVertex
100
AcDb3dPolylineVertex
 10
-0.1214860000000044
 20
-0.1413310000000365
 30
0.0
 70
    32
  0
VERTEX
  5
20B
330
17F
100
AcDbEntity
  8
BLOCKS
100
AcDbVertex
100
AcDb3dPolylineVertex
 10
-0.1214680000000499
 20
-0.1414579999999432
 30
0.0
 70
    32
  0
VERTEX
  5
20C
330
17F
100
AcDbEntity
  8
BLOCKS
100
AcDbVertex
100
AcDb3dPolylineVertex
 10
-0.1214539999999715
 20
-0.1415819999999712
 30
0.0
 70
    32
  0
VERTEX
  5
20D
330
17F
100
AcDbEntity
  8
BLOCKS
100
AcDbVertex
100
AcDb3dPolylineVertex
 10
-0.1214439999999968
 20
-0.1417010000000118
 30
0.0
 70
    32
  0
VERTEX
  5
20E
330
17F
100
AcDbEntity
  8
BLOCKS
100
AcDbVertex
100
AcDb3dPolylineVertex
 10
-0.1214380000000119
 20
-0.1418169999999463
 30
0.0
 70
    32
  0
VERTEX
  5
20F
330
17F
100
AcDbEntity
  8
BLOCKS
100
AcDbVertex
100
AcDb3dPolylineVertex
 10
-0.121436000000017
 20
-0.1419290000000046
 30
0.0
 70
    32
  0
VERTEX
  5
210
330
17F
100
AcDbEntity
  8
BLOCKS
100
AcDbVertex
100
AcDb3dPolylineVertex
 10
-0.1214380000000119
 20
-0.1420369999999593
 30
0.0
 70
    32
  0
VERTEX
  5
211
330
17F
100
AcDbEntity
  8
BLOCKS
100
AcDbVertex
100
AcDb3dPolylineVertex
 10
-0.1214439999999968
 20
-0.1421410000000378
 30
0.0
 70
    32
  0
VERTEX
  5
212
330
17F
100
AcDbEntity
  8
BLOCKS
100
AcDbVertex
100
AcDb3dPolylineVertex
 10
-0.1214539999999715
 20
-0.1422410000000127
 30
0.0
 70
    32
  0
VERTEX
  5
213
330
17F
100
AcDbEntity
  8
BLOCKS
100
AcDbVertex
100
AcDb3dPolylineVertex
 10
-0.1214680000000499
 20
-0.1423379999999952
 30
0.0
 70
    32
  0
VERTEX
  5
214
330
17F
100
AcDbEntity
  8
BLOCKS
100
AcDbVertex
100
AcDb3dPolylineVertex
 10
-0.1214850000000069
 20
-0.1424309999999878
 30
0.0
 70
    32
  0
VERTEX
  5
215
330
17F
100
AcDbEntity
  8
BLOCKS
100
AcDbVertex
100
AcDb3dPolylineVertex
 10
-0.1215069999999514
 20
-0.1425199999999904
 30
0.0
 70
    32
  0
VERTEX
  5
216
330
17F
100
AcDbEntity
  8
BLOCKS
100
AcDbVertex
100
AcDb3dPolylineVertex
 10
-0.121532000000002
 20
-0.1426050000000032
 30
0.0
 70
    32
  0
VERTEX
  5
217
330
17F
100
AcDbEntity
  8
BLOCKS
100
AcDbVertex
100
AcDb3dPolylineVertex
 10
-0.1215610000000424
 20
-0.1426860000000261
 30
0.0
 70
    32
  0
VERTEX
  5
218
330
17F
100
AcDbEntity
  8
BLOCKS
100
AcDbVertex
100
AcDb3dPolylineVertex
 10
-0.1215929999999616
 20
-0.1427640000000565
 30
0.0
 70
    32
  0
VERTEX
  5
219
330
17F
100
AcDbEntity
  8
BLOCKS
100
AcDbVertex
100
AcDb3dPolylineVertex
 10
-0.1216299999999819
 20
-0.1428369999999859
 30
0.0
 70
    32
  0
VERTEX
  5
21A
330
17F
100
AcDbEntity
  8
BLOCKS
100
AcDbVertex
100
AcDb3dPolylineVertex
 10
-0.1216699999999946
 20
-0.1429070000000365
 30
0.0
 70
    32
  0
VERTEX
  5
21B
330
17F
100
AcDbEntity
  8
BLOCKS
100
AcDbVertex
100
AcDb3dPolylineVertex
 10
-0.1217129999999997
 20
-0.1429729999999836
 30
0.0
 70
    32
  0
VERTEX
  5
21C
330
17F
100
AcDbEntity
  8
BLOCKS
100
AcDbVertex
100
AcDb3dPolylineVertex
 10
-0.1217609999999922
 20
-0.1430360000000519
 30
0.0
 70
    32
  0
VERTEX
  5
21D
330
17F
100
AcDbEntity
  8
BLOCKS
100
AcDbVertex
100
AcDb3dPolylineVertex
 10
-0.1218109999999797
 20
-0.1430940000000191
 30
0.0
 70
    32
  0
VERTEX
  5
21E
330
17F
100
AcDbEntity
  8
BLOCKS
100
AcDbVertex
100
AcDb3dPolylineVertex
 10
-0.1218659999999545
 20
-0.143148999999994
 30
0.0
 70
    32
  0
VERTEX
  5
21F
330
17F
100
AcDbEntity
  8
BLOCKS
100
AcDbVertex
100
AcDb3dPolylineVertex
 10
-0.1219240000000354
 20
-0.1431999999999789
 30
0.0
 70
    32
  0
VERTEX
  5
220
330
17F
100
AcDbEntity
  8
BLOCKS
100
AcDbVertex
100
AcDb3dPolylineVertex
 10
-0.1219849999999951
 20
-0.1432469999999739
 30
0.0
 70
    32
  0
VERTEX
  5
221
330
17F
100
AcDbEntity
  8
BLOCKS
100
AcDbVertex
100
AcDb3dPolylineVertex
 10
-0.1220499999999447
 20
-0.1432909999999765
 30
0.0
 70
    32
  0
VERTEX
  5
222
330
17F
100
AcDbEntity
  8
BLOCKS
100
AcDbVertex
100
AcDb3dPolylineVertex
 10
-0.1221180000000004
 20
-0.1433299999999917
 30
0.0
 70
    32
  0
VERTEX
  5
223
330
17F
100
AcDbEntity
  8
BLOCKS
100
AcDbVertex
100
AcDb3dPolylineVertex
 10
-0.122190000000046
 20
-0.1433660000000145
 30
0.0
 70
    32
  0
VERTEX
  5
224
330
17F
100
AcDbEntity
  8
BLOCKS
100
AcDbVertex
100
AcDb3dPolylineVertex
 10
-0.1222649999999703
 20
-0.1433990000000449
 30
0.0
 70
    32
  0
VERTEX
  5
225
330
17F
100
AcDbEntity
  8
BLOCKS
100
AcDbVertex
100
AcDb3dPolylineVertex
 10
-0.1223439999999982
 20
-0.1434269999999742
 30
0.0
 70
    32
  0
VERTEX
  5
226
330
17F
100
AcDbEntity
  8
BLOCKS
100
AcDbVertex
100
AcDb3dPolylineVertex
 10
-0.1224260000000186
 20
-0.1434520000000248
 30
0.0
 70
    32
  0
VERTEX
  5
227
330
17F
100
AcDbEntity
  8
BLOCKS
100
AcDbVertex
100
AcDb3dPolylineVertex
 10
-0.1225110000000313
 20
-0.1434729999999718
 30
0.0
 70
    32
  0
VERTEX
  5
228
330
17F
100
AcDbEntity
  8
BLOCKS
100
AcDbVertex
100
AcDb3dPolylineVertex
 10
-0.122600000000034
 20
-0.1434900000000425
 30
0.0
 70
    32
  0
VERTEX
  5
229
330
17F
100
AcDbEntity
  8
BLOCKS
100
AcDbVertex
100
AcDb3dPolylineVertex
 10
-0.1226910000000316
 20
-0.1435030000000097
 30
0.0
 70
    32
  0
VERTEX
  5
22A
330
17F
100
AcDbEntity
  8
BLOCKS
100
AcDbVertex
100
AcDb3dPolylineVertex
 10
-0.1227860000000192
 20
-0.1435129999999845
 30
0.0
 70
    32
  0
VERTEX
  5
22B
330
17F
100
AcDbEntity
  8
BLOCKS
100
AcDbVertex
100
AcDb3dPolylineVertex
 10
-0.1228849999999966
 20
-0.1435189999999693
 30
0.0
 70
    32
  0
VERTEX
  5
22C
330
17F
100
AcDbEntity
  8
BLOCKS
100
AcDbVertex
100
AcDb3dPolylineVertex
 10
-0.1229859999999689
 20
-0.1435209999999643
 30
0.0
 70
    32
  0
VERTEX
  5
22D
330
17F
100
AcDbEntity
  8
BLOCKS
100
AcDbVertex
100
AcDb3dPolylineVertex
 10
-0.1230910000000449
 20
-0.1435199999999668
 30
0.0
 70
    32
  0
VERTEX
  5
22E
330
17F
100
AcDbEntity
  8
BLOCKS
100
AcDbVertex
100
AcDb3dPolylineVertex
 10
-0.1231980000000021
 20
-0.1435149999999794
 30
0.0
 70
    32
  0
VERTEX
  5
22F
330
17F
100
AcDbEntity
  8
BLOCKS
100
AcDbVertex
100
AcDb3dPolylineVertex
 10
-0.1233089999999493
 20
-0.1435060000000021
 30
0.0
 70
    32
  0
VERTEX
  5
230
330
17F
100
AcDbEntity
  8
BLOCKS
100
AcDbVertex
100
AcDb3dPolylineVertex
 10
-0.1234230000000025
 20
-0.1434930000000349
 30
0.0
 70
    32
  0
VERTEX
  5
231
330
17F
100
AcDbEntity
  8
BLOCKS
100
AcDbVertex
100
AcDb3dPolylineVertex
 10
-0.1235400000000482
 20
-0.1434769999999617
 30
0.0
 70
    32
  0
VERTEX
  5
232
330
17F
100
AcDbEntity
  8
BLOCKS
100
AcDbVertex
100
AcDb3dPolylineVertex
 10
-0.1236599999999726
 20
-0.1434570000000122
 30
0.0
 70
    32
  0
VERTEX
  5
233
330
17F
100
AcDbEntity
  8
BLOCKS
100
AcDbVertex
100
AcDb3dPolylineVertex
 10
-0.1237830000000031
 20
-0.1434329999999591
 30
0.0
 70
    32
  0
VERTEX
  5
234
330
17F
100
AcDbEntity
  8
BLOCKS
100
AcDbVertex
100
AcDb3dPolylineVertex
 10
-0.123909000000026
 20
-0.1434060000000272
 30
0.0
 70
    32
  0
VERTEX
  5
235
330
17F
100
AcDbEntity
  8
BLOCKS
100
AcDbVertex
100
AcDb3dPolylineVertex
 10
-0.1240380000000414
 20
-0.1433749999999918
 30
0.0
 70
    32
  0
VERTEX
  5
236
330
17F
100
AcDbEntity
  8
BLOCKS
100
AcDbVertex
100
AcDb3dPolylineVertex
 10
-0.1241690000000517
 20
-0.1433399999999665
 30
0.0
 70
    32
  0
VERTEX
  5
237
330
17F
100
AcDbEntity
  8
BLOCKS
100
AcDbVertex
100
AcDb3dPolylineVertex
 10
-0.1243040000000519
 20
-0.1433019999999487
 30
0.0
 70
    32
  0
VERTEX
  5
238
330
17F
100
AcDbEntity
  8
BLOCKS
100
AcDbVertex
100
AcDb3dPolylineVertex
 10
-0.1244410000000471
 20
-0.1432600000000548
 30
0.0
 70
    32
  0
VERTEX
  5
239
330
17F
100
AcDbEntity
  8
BLOCKS
100
AcDbVertex
100
AcDb3dPolylineVertex
 10
-0.1245820000000322
 20
-0.1432139999999435
 30
0.0
 70
    32
  0
VERTEX
  5
23A
330
17F
100
AcDbEntity
  8
BLOCKS
100
AcDbVertex
100
AcDb3dPolylineVertex
 10
-0.1247250000000122
 20
-0.1431649999999536
 30
0.0
 70
    32
  0
VERTEX
  5
23B
330
17F
100
AcDbEntity
  8
BLOCKS
100
AcDbVertex
100
AcDb3dPolylineVertex
 10
-0.1248709999999846
 20
-0.1431109999999762
 30
0.0
 70
    32
  0
VERTEX
  5
23C
330
17F
100
AcDbEntity
  8
BLOCKS
100
AcDbVertex
100
AcDb3dPolylineVertex
 10
-0.1250199999999495
 20
-0.1430550000000039
 30
0.0
 70
    32
  0
VERTEX
  5
23D
330
17F
100
AcDbEntity
  8
BLOCKS
100
AcDbVertex
100
AcDb3dPolylineVertex
 10
-0.125171000000023
 20
-0.1429940000000442
 30
0.0
 70
    32
  0
VERTEX
  5
23E
330
17F
100
AcDbEntity
  8
BLOCKS
100
AcDbVertex
100
AcDb3dPolylineVertex
 10
-0.1253249999999753
 20
-0.1429299999999785
 30
0.0
 70
    32
  0
VERTEX
  5
23F
330
17F
100
AcDbEntity
  8
BLOCKS
100
AcDbVertex
100
AcDb3dPolylineVertex
 10
-0.1254820000000336
 20
-0.1428630000000339
 30
0.0
 70
    32
  0
VERTEX
  5
240
330
17F
100
AcDbEntity
  8
BLOCKS
100
AcDbVertex
100
AcDb3dPolylineVertex
 10
-0.1256409999999732
 20
-0.1427909999999883
 30
0.0
 70
    32
  0
VERTEX
  5
241
330
17F
100
AcDbEntity
  8
BLOCKS
100
AcDbVertex
100
AcDb3dPolylineVertex
 10
-0.125803000000019
 20
-0.1427159999999503
 30
0.0
 70
    32
  0
VERTEX
  5
242
330
17F
100
AcDbEntity
  8
BLOCKS
100
AcDbVertex
100
AcDb3dPolylineVertex
 10
-0.1259679999999435
 20
-0.1426380000000336
 30
0.0
 70
    32
  0
VERTEX
  5
243
330
17F
100
AcDbEntity
  8
BLOCKS
100
AcDbVertex
100
AcDb3dPolylineVertex
 10
-0.1261349999999766
 20
-0.1425550000000157
 30
0.0
 70
    32
  0
VERTEX
  5
244
330
17F
100
AcDbEntity
  8
BLOCKS
100
AcDbVertex
100
AcDb3dPolylineVertex
 10
-0.1263050000000021
 20
-0.142470000000003
 30
0.0
 70
    32
  0
VERTEX
  5
245
330
17F
100
AcDbEntity
  8
BLOCKS
100
AcDbVertex
100
AcDb3dPolylineVertex
 10
-0.1264770000000226
 20
-0.1423800000000028
 30
0.0
 70
    32
  0
VERTEX
  5
246
330
17F
100
AcDbEntity
  8
BLOCKS
100
AcDbVertex
100
AcDb3dPolylineVertex
 10
-0.1266520000000355
 20
-0.1422870000000103
 30
0.0
 70
    32
  0
VERTEX
  5
247
330
17F
100
AcDbEntity
  8
BLOCKS
100
AcDbVertex
100
AcDb3dPolylineVertex
 10
-0.1268290000000434
 20
-0.1421900000000278
 30
0.0
 70
    32
  0
VERTEX
  5
248
330
17F
100
AcDbEntity
  8
BLOCKS
100
AcDbVertex
100
AcDb3dPolylineVertex
 10
-0.1270090000000437
 20
-0.1420900000000529
 30
0.0
 70
    32
  0
VERTEX
  5
249
330
17F
100
AcDbEntity
  8
BLOCKS
100
AcDbVertex
100
AcDb3dPolylineVertex
 10
-0.1271910000000389
 20
-0.1419859999999744
 30
0.0
 70
    32
  0
VERTEX
  5
24A
330
17F
100
AcDbEntity
  8
BLOCKS
100
AcDbVertex
100
AcDb3dPolylineVertex
 10
-0.1273750000000291
 20
-0.1418780000000197
 30
0.0
 70
    32
  0
VERTEX
  5
24B
330
17F
100
AcDbEntity
  8
BLOCKS
100
AcDbVertex
100
AcDb3dPolylineVertex
 10
-0.1275620000000117
 20
-0.1417669999999589
 30
0.0
 70
    32
  0
VERTEX
  5
24C
330
17F
100
AcDbEntity
  8
BLOCKS
100
AcDbVertex
100
AcDb3dPolylineVertex
 10
-0.1277509999999893
 20
-0.1416520000000219
 30
0.0
 70
    32
  0
VERTEX
  5
24D
330
17F
100
AcDbEntity
  8
BLOCKS
100
AcDbVertex
100
AcDb3dPolylineVertex
 10
-0.1279419999999618
 20
-0.1415339999999787
 30
0.0
 70
    32
  0
VERTEX
  5
24E
330
17F
100
AcDbEntity
  8
BLOCKS
100
AcDbVertex
100
AcDb3dPolylineVertex
 10
-0.1281360000000404
 20
-0.1414119999999457
 30
0.0
 70
    32
  0
VERTEX
  5
24F
330
17F
100
AcDbEntity
  8
BLOCKS
100
AcDbVertex
100
AcDb3dPolylineVertex
 10
-0.1283310000000029
 20
-0.1412870000000339
 30
0.0
 70
    32
  0
VERTEX
  5
250
330
17F
100
AcDbEntity
  8
BLOCKS
100
AcDbVertex
100
AcDb3dPolylineVertex
 10
-0.1285289999999577
 20
-0.1411580000000185
 30
0.0
 70
    32
  0
VERTEX
  5
251
330
17F
100
AcDbEntity
  8
BLOCKS
100
AcDbVertex
100
AcDb3dPolylineVertex
 10
-0.1287300000000187
 20
-0.1410250000000133
 30
0.0
 70
    32
  0
VERTEX
  5
252
330
17F
100
AcDbEntity
  8
BLOCKS
100
AcDbVertex
100
AcDb3dPolylineVertex
 10
-0.1289319999999634
 20
-0.1408890000000156
 30
0.0
 70
    32
  0
VERTEX
  5
253
330
17F
100
AcDbEntity
  8
BLOCKS
100
AcDbVertex
100
AcDb3dPolylineVertex
 10
-0.1291370000000143
 20
-0.140749000000028
 30
0.0
 70
    32
  0
VERTEX
  5
254
330
17F
100
AcDbEntity
  8
BLOCKS
100
AcDbVertex
100
AcDb3dPolylineVertex
 10
-0.1293429999999489
 20
-0.140606000000048
 30
0.0
 70
    32
  0
VERTEX
  5
255
330
17F
100
AcDbEntity
  8
BLOCKS
100
AcDbVertex
100
AcDb3dPolylineVertex
 10
-0.1295519999999897
 20
-0.1404589999999644
 30
0.0
 70
    32
  0
VERTEX
  5
256
330
17F
100
AcDbEntity
  8
BLOCKS
100
AcDbVertex
100
AcDb3dPolylineVertex
 10
-0.1297630000000254
 20
-0.1403080000000045
 30
0.0
 70
    32
  0
VERTEX
  5
257
330
17F
100
AcDbEntity
  8
BLOCKS
100
AcDbVertex
100
AcDb3dPolylineVertex
 10
-0.1299749999999449
 20
-0.1401540000000523
 30
0.0
 70
    32
  0
VERTEX
  5
258
330
17F
100
AcDbEntity
  8
BLOCKS
100
AcDbVertex
100
AcDb3dPolylineVertex
 10
-0.1301899999999705
 20
-0.1399969999999939
 30
0.0
 70
    32
  0
VERTEX
  5
259
330
17F
100
AcDbEntity
  8
BLOCKS
100
AcDbVertex
100
AcDb3dPolylineVertex
 10
-0.1304069999999911
 20
-0.1398359999999457
 30
0.0
 70
    32
  0
VERTEX
  5
25A
330
17F
100
AcDbEntity
  8
BLOCKS
100
AcDbVertex
100
AcDb3dPolylineVertex
 10
-0.1306260000000066
 20
-0.1396710000000212
 30
0.0
 70
    32
  0
VERTEX
  5
25B
330
17F
100
AcDbEntity
  8
BLOCKS
100
AcDbVertex
100
AcDb3dPolylineVertex
 10
-0.1308460000000196
 20
-0.1395029999999906
 30
0.0
 70
    32
  0
VERTEX
  5
25C
330
17F
100
AcDbEntity
  8
BLOCKS
100
AcDbVertex
100
AcDb3dPolylineVertex
 10
-0.131069000000025
 20
-0.1393309999999701
 30
0.0
 70
    32
  0
VERTEX
  5
25D
330
17F
100
AcDbEntity
  8
BLOCKS
100
AcDbVertex
100
AcDb3dPolylineVertex
 10
-0.1312930000000279
 20
-0.1391559999999572
 30
0.0
 70
    32
  0
VERTEX
  5
25E
330
17F
100
AcDbEntity
  8
BLOCKS
100
AcDbVertex
100
AcDb3dPolylineVertex
 10
-0.1315190000000257
 20
-0.1389769999999544
 30
0.0
 70
    32
  0
VERTEX
  5
25F
330
17F
100
AcDbEntity
  8
BLOCKS
100
AcDbVertex
100
AcDb3dPolylineVertex
 10
-0.1317470000000185
 20
-0.1387949999999591
 30
0.0
 70
    32
  0
VERTEX
  5
260
330
17F
100
AcDbEntity
  8
BLOCKS
100
AcDbVertex
100
AcDb3dPolylineVertex
 10
-0.1319770000000062
 20
-0.138608999999974
 30
0.0
 70
    32
  0
VERTEX
  5
261
330
17F
100
AcDbEntity
  8
BLOCKS
100
AcDbVertex
100
AcDb3dPolylineVertex
 10
-0.1322079999999914
 20
-0.1384199999999964
 30
0.0
 70
    32
  0
VERTEX
  5
262
330
17F
100
AcDbEntity
  8
BLOCKS
100
AcDbVertex
100
AcDb3dPolylineVertex
 10
-0.1324399999999741
 20
-0.1382280000000264
 30
0.0
 70
    32
  0
VERTEX
  5
263
330
17F
100
AcDbEntity
  8
BLOCKS
100
AcDbVertex
100
AcDb3dPolylineVertex
 10
-0.1326699999999619
 20
-0.1380329999999503
 30
0.0
 70
    32
  0
VERTEX
  5
264
330
17F
100
AcDbEntity
  8
BLOCKS
100
AcDbVertex
100
AcDb3dPolylineVertex
 10
-0.1328969999999572
 20
-0.1378349999999955
 30
0.0
 70
    32
  0
VERTEX
  5
265
330
17F
100
AcDbEntity
  8
BLOCKS
100
AcDbVertex
100
AcDb3dPolylineVertex
 10
-0.133122999999955
 20
-0.1376360000000432
 30
0.0
 70
    32
  0
VERTEX
  5
266
330
17F
100
AcDbEntity
  8
BLOCKS
100
AcDbVertex
100
AcDb3dPolylineVertex
 10
-0.1333469999999579
 20
-0.1374339999999847
 30
0.0
 70
    32
  0
VERTEX
  5
267
330
17F
100
AcDbEntity
  8
BLOCKS
100
AcDbVertex
100
AcDb3dPolylineVertex
 10
-0.1335689999999658
 20
-0.137230000000045
 30
0.0
 70
    32
  0
VERTEX
  5
268
330
17F
100
AcDbEntity
  8
BLOCKS
100
AcDbVertex
100
AcDb3dPolylineVertex
 10
-0.1337879999999814
 20
-0.1370239999999967
 30
0.0
 70
    32
  0
VERTEX
  5
269
330
17F
100
AcDbEntity
  8
BLOCKS
100
AcDbVertex
100
AcDb3dPolylineVertex
 10
-0.1340059999999994
 20
-0.1368159999999534
 30
0.0
 70
    32
  0
VERTEX
  5
26A
330
17F
100
AcDbEntity
  8
BLOCKS
100
AcDbVertex
100
AcDb3dPolylineVertex
 10
-0.1342220000000225
 20
-0.1366060000000289
 30
0.0
 70
    32
  0
VERTEX
  5
26B
330
17F
100
AcDbEntity
  8
BLOCKS
100
AcDbVertex
100
AcDb3dPolylineVertex
 10
-0.1344350000000531
 20
-0.1363939999999957
 30
0.0
 70
    32
  0
VERTEX
  5
26C
330
17F
100
AcDbEntity
  8
BLOCKS
100
AcDbVertex
100
AcDb3dPolylineVertex
 10
-0.1346469999999726
 20
-0.136180999999965
 30
0.0
 70
    32
  0
VERTEX
  5
26D
330
17F
100
AcDbEntity
  8
BLOCKS
100
AcDbVertex
100
AcDb3dPolylineVertex
 10
-0.1348560000000134
 20
-0.1359660000000531
 30
0.0
 70
    32
  0
VERTEX
  5
26E
330
17F
100
AcDbEntity
  8
BLOCKS
100
AcDbVertex
100
AcDb3dPolylineVertex
 10
-0.1350629999999455
 20
-0.13575000000003
 30
0.0
 70
    32
  0
VERTEX
  5
26F
330
17F
100
AcDbEntity
  8
BLOCKS
100
AcDbVertex
100
AcDb3dPolylineVertex
 10
-0.1352679999999964
 20
-0.135532000000012
 30
0.0
 70
    32
  0
VERTEX
  5
270
330
17F
100
AcDbEntity
  8
BLOCKS
100
AcDbVertex
100
AcDb3dPolylineVertex
 10
-0.1354710000000523
 20
-0.1353129999999965
 30
0.0
 70
    32
  0
VERTEX
  5
271
330
17F
100
AcDbEntity
  8
BLOCKS
100
AcDbVertex
100
AcDb3dPolylineVertex
 10
-0.1356710000000021
 20
-0.135091999999986
 30
0.0
 70
    32
  0
VERTEX
  5
272
330
17F
100
AcDbEntity
  8
BLOCKS
100
AcDbVertex
100
AcDb3dPolylineVertex
 10
-0.1358699999999544
 20
-0.1348709999999755
 30
0.0
 70
    32
  0
VERTEX
  5
273
330
17F
100
AcDbEntity
  8
BLOCKS
100
AcDbVertex
100
AcDb3dPolylineVertex
 10
-0.136066000000028
 20
-0.1346479999999701
 30
0.0
 70
    32
  0
VERTEX
  5
274
330
17F
100
AcDbEntity
  8
BLOCKS
100
AcDbVertex
100
AcDb3dPolylineVertex
 10
-0.1362599999999929
 20
-0.1344249999999647
 30
0.0
 70
    32
  0
VERTEX
  5
275
330
17F
100
AcDbEntity
  8
BLOCKS
100
AcDbVertex
100
AcDb3dPolylineVertex
 10
-0.1364509999999655
 20
-0.1342009999999618
 30
0.0
 70
    32
  0
VERTEX
  5
276
330
17F
100
AcDbEntity
  8
BLOCKS
100
AcDbVertex
100
AcDb3dPolylineVertex
 10
-0.1366410000000542
 20
-0.1339759999999615
 30
0.0
 70
    32
  0
VERTEX
  5
277
330
17F
100
AcDbEntity
  8
BLOCKS
100
AcDbVertex
100
AcDb3dPolylineVertex
 10
-0.1368280000000368
 20
-0.1337499999999636
 30
0.0
 70
    32
  0
VERTEX
  5
278
330
17F
100
AcDbEntity
  8
BLOCKS
100
AcDbVertex
100
AcDb3dPolylineVertex
 10
-0.137012000000027
 20
-0.1335239999999658
 30
0.0
 70
    32
  0
VERTEX
  5
279
330
17F
100
AcDbEntity
  8
BLOCKS
100
AcDbVertex
100
AcDb3dPolylineVertex
 10
-0.1371950000000197
 20
-0.1332969999999705
 30
0.0
 70
    32
  0
VERTEX
  5
27A
330
17F
100
AcDbEntity
  8
BLOCKS
100
AcDbVertex
100
AcDb3dPolylineVertex
 10
-0.13737500000002
 20
-0.1330699999999751
 30
0.0
 70
    32
  0
VERTEX
  5
27B
330
17F
100
AcDbEntity
  8
BLOCKS
100
AcDbVertex
100
AcDb3dPolylineVertex
 10
-0.1375530000000253
 20
-0.1328419999999824
 30
0.0
 70
    32
  0
VERTEX
  5
27C
330
17F
100
AcDbEntity
  8
BLOCKS
100
AcDbVertex
100
AcDb3dPolylineVertex
 10
-0.1377280000000383
 20
-0.132614999999987
 30
0.0
 70
    32
  0
VERTEX
  5
27D
330
17F
100
AcDbEntity
  8
BLOCKS
100
AcDbVertex
100
AcDb3dPolylineVertex
 10
-0.1379010000000562
 20
-0.1323869999999943
 30
0.0
 70
    32
  0
VERTEX
  5
27E
330
17F
100
AcDbEntity
  8
BLOCKS
100
AcDbVertex
100
AcDb3dPolylineVertex
 10
-0.1380709999999681
 20
-0.1321590000000015
 30
0.0
 70
    32
  0
VERTEX
  5
27F
330
17F
100
AcDbEntity
  8
BLOCKS
100
AcDbVertex
100
AcDb3dPolylineVertex
 10
-0.1382389999999987
 20
-0.1319310000000087
 30
0.0
 70
    32
  0
VERTEX
  5
280
330
17F
100
AcDbEntity
  8
BLOCKS
100
AcDbVertex
100
AcDb3dPolylineVertex
 10
-0.1384040000000368
 20
-0.1317040000000134
 30
0.0
 70
    32
  0
VERTEX
  5
281
330
17F
100
AcDbEntity
  8
BLOCKS
100
AcDbVertex
100
AcDb3dPolylineVertex
 10
-0.1385669999999664
 20
-0.131477000000018
 30
0.0
 70
    32
  0
VERTEX
  5
282
330
17F
100
AcDbEntity
  8
BLOCKS
100
AcDbVertex
100
AcDb3dPolylineVertex
 10
-0.1387280000000146
 20
-0.1312500000000227
 30
0.0
 70
    32
  0
VERTEX
  5
283
330
17F
100
AcDbEntity
  8
BLOCKS
100
AcDbVertex
100
AcDb3dPolylineVertex
 10
-0.1388859999999568
 20
-0.1310230000000274
 30
0.0
 70
    32
  0
VERTEX
  5
284
330
17F
100
AcDbEntity
  8
BLOCKS
100
AcDbVertex
100
AcDb3dPolylineVertex
 10
-0.1390410000000202
 20
-0.1307970000000296
 30
0.0
 70
    32
  0
VERTEX
  5
285
330
17F
100
AcDbEntity
  8
BLOCKS
100
AcDbVertex
100
AcDb3dPolylineVertex
 10
-0.1391939999999749
 20
-0.1305720000000292
 30
0.0
 70
    32
  0
VERTEX
  5
286
330
17F
100
AcDbEntity
  8
BLOCKS
100
AcDbVertex
100
AcDb3dPolylineVertex
 10
-0.1393450000000485
 20
-0.1303470000000289
 30
0.0
 70
    32
  0
VERTEX
  5
287
330
17F
100
AcDbEntity
  8
BLOCKS
100
AcDbVertex
100
AcDb3dPolylineVertex
 10
-0.1394920000000184
 20
-0.1301240000000234
 30
0.0
 70
    32
  0
VERTEX
  5
288
330
17F
100
AcDbEntity
  8
BLOCKS
100
AcDbVertex
100
AcDb3dPolylineVertex
 10
-0.1396369999999933
 20
-0.129901000000018
 30
0.0
 70
    32
  0
VERTEX
  5
289
330
17F
100
AcDbEntity
  8
BLOCKS
100
AcDbVertex
100
AcDb3dPolylineVertex
 10
-0.1397799999999734
 20
-0.1296790000000101
 30
0.0
 70
    32
  0
VERTEX
  5
28A
330
17F
100
AcDbEntity
  8
BLOCKS
100
AcDbVertex
100
AcDb3dPolylineVertex
 10
-0.139919999999961
 20
-0.1294579999999996
 30
0.0
 70
    32
  0
VERTEX
  5
28B
330
17F
100
AcDbEntity
  8
BLOCKS
100
AcDbVertex
100
AcDb3dPolylineVertex
 10
-0.1400569999999561
 20
-0.1292379999999866
 30
0.0
 70
    32
  0
VERTEX
  5
28C
330
17F
100
AcDbEntity
  8
BLOCKS
100
AcDbVertex
100
AcDb3dPolylineVertex
 10
-0.1401909999999589
 20
-0.1290199999999686
 30
0.0
 70
    32
  0
VERTEX
  5
28D
330
17F
100
AcDbEntity
  8
BLOCKS
100
AcDbVertex
100
AcDb3dPolylineVertex
 10
-0.1403229999999667
 20
-0.128802999999948
 30
0.0
 70
    32
  0
VERTEX
  5
28E
330
17F
100
AcDbEntity
  8
BLOCKS
100
AcDbVertex
100
AcDb3dPolylineVertex
 10
-0.140451999999982
 20
-0.1285870000000386
 30
0.0
 70
    32
  0
VERTEX
  5
28F
330
17F
100
AcDbEntity
  8
BLOCKS
100
AcDbVertex
100
AcDb3dPolylineVertex
 10
-0.140578000000005
 20
-0.1283730000000105
 30
0.0
 70
    32
  0
VERTEX
  5
290
330
17F
100
AcDbEntity
  8
BLOCKS
100
AcDbVertex
100
AcDb3dPolylineVertex
 10
-0.140702000000033
 20
-0.1281609999999773
 30
0.0
 70
    32
  0
VERTEX
  5
291
330
17F
100
AcDbEntity
  8
BLOCKS
100
AcDbVertex
100
AcDb3dPolylineVertex
 10
-0.1408229999999548
 20
-0.1279510000000528
 30
0.0
 70
    32
  0
VERTEX
  5
292
330
17F
100
AcDbEntity
  8
BLOCKS
100
AcDbVertex
100
AcDb3dPolylineVertex
 10
-0.140940999999998
 20
-0.127742000000012
 30
0.0
 70
    32
  0
VERTEX
  5
293
330
17F
100
AcDbEntity
  8
BLOCKS
100
AcDbVertex
100
AcDb3dPolylineVertex
 10
-0.1410560000000487
 20
-0.1275349999999662
 30
0.0
 70
    32
  0
VERTEX
  5
294
330
17F
100
AcDbEntity
  8
BLOCKS
100
AcDbVertex
100
AcDb3dPolylineVertex
 10
-0.1411679999999933
 20
-0.127330000000029
 30
0.0
 70
    32
  0
VERTEX
  5
295
330
17F
100
AcDbEntity
  8
BLOCKS
100
AcDbVertex
100
AcDb3dPolylineVertex
 10
-0.1412780000000566
 20
-0.1271269999999731
 30
0.0
 70
    32
  0
VERTEX
  5
296
330
17F
100
AcDbEntity
  8
BLOCKS
100
AcDbVertex
100
AcDb3dPolylineVertex
 10
-0.1413840000000164
 20
-0.1269270000000233
 30
0.0
 70
    32
  0
VERTEX
  5
297
330
17F
100
AcDbEntity
  8
BLOCKS
100
AcDbVertex
100
AcDb3dPolylineVertex
 10
-0.1414879999999812
 20
-0.1267279999999573
 30
0.0
 70
    32
  0
VERTEX
  5
298
330
17F
100
AcDbEntity
  8
BLOCKS
100
AcDbVertex
100
AcDb3dPolylineVertex
 10
-0.1415889999999536
 20
-0.1265329999999949
 30
0.0
 70
    32
  0
VERTEX
  5
299
330
17F
100
AcDbEntity
  8
BLOCKS
100
AcDbVertex
100
AcDb3dPolylineVertex
 10
-0.1416870000000472
 20
-0.1263390000000299
 30
0.0
 70
    32
  0
VERTEX
  5
29A
330
17F
100
AcDbEntity
  8
BLOCKS
100
AcDbVertex
100
AcDb3dPolylineVertex
 10
-0.1417820000000347
 20
-0.1261479999999437
 30
0.0
 70
    32
  0
VERTEX
  5
29B
330
17F
100
AcDbEntity
  8
BLOCKS
100
AcDbVertex
100
AcDb3dPolylineVertex
 10
-0.1418740000000298
 20
-0.1259599999999637
 30
0.0
 70
    32
  0
VERTEX
  5
29C
330
17F
100
AcDbEntity
  8
BLOCKS
100
AcDbVertex
100
AcDb3dPolylineVertex
 10
-0.1419630000000325
 20
-0.125774999999976
 30
0.0
 70
    32
  0
VERTEX
  5
29D
330
17F
100
AcDbEntity
  8
BLOCKS
100
AcDbVertex
100
AcDb3dPolylineVertex
 10
-0.1420490000000427
 20
-0.1255919999999833
 30
0.0
 70
    32
  0
VERTEX
  5
29E
330
17F
100
AcDbEntity
  8
BLOCKS
100
AcDbVertex
100
AcDb3dPolylineVertex
 10
-0.1421319999999469
 20
-0.125411999999983
 30
0.0
 70
    32
  0
VERTEX
  5
29F
330
17F
100
AcDbEntity
  8
BLOCKS
100
AcDbVertex
100
AcDb3dPolylineVertex
 10
-0.1422119999999722
 20
-0.1252359999999726
 30
0.0
 70
    32
  0
VERTEX
  5
2A0
330
17F
100
AcDbEntity
  8
BLOCKS
100
AcDbVertex
100
AcDb3dPolylineVertex
 10
-0.1422890000000052
 20
-0.1250619999999571
 30
0.0
 70
    32
  0
VERTEX
  5
2A1
330
17F
100
AcDbEntity
  8
BLOCKS
100
AcDbVertex
100
AcDb3dPolylineVertex
 10
-0.1423630000000458
 20
-0.1248920000000453
 30
0.0
 70
    32
  0
VERTEX
  5
2A2
330
17F
100
AcDbEntity
  8
BLOCKS
100
AcDbVertex
100
AcDb3dPolylineVertex
 10
-0.1424339999999802
 20
-0.1247250000000122
 30
0.0
 70
    32
  0
VERTEX
  5
2A3
330
17F
100
AcDbEntity
  8
BLOCKS
100
AcDbVertex
100
AcDb3dPolylineVertex
 10
-0.1425020000000359
 20
-0.1245609999999715
 30
0.0
 70
    32
  0
VERTEX
  5
2A4
330
17F
100
AcDbEntity
  8
BLOCKS
100
AcDbVertex
100
AcDb3dPolylineVertex
 10
-0.1425669999999854
 20
-0.1244010000000344
 30
0.0
 70
    32
  0
VERTEX
  5
2A5
330
17F
100
AcDbEntity
  8
BLOCKS
100
AcDbVertex
100
AcDb3dPolylineVertex
 10
-0.1426279999999451
 20
-0.124243999999976
 30
0.0
 70
    32
  0
VERTEX
  5
2A6
330
17F
100
AcDbEntity
  8
BLOCKS
100
AcDbVertex
100
AcDb3dPolylineVertex
 10
-0.1426860000000261
 20
-0.1240910000000213
 30
0.0
 70
    32
  0
VERTEX
  5
2A7
330
17F
100
AcDbEntity
  8
BLOCKS
100
AcDbVertex
100
AcDb3dPolylineVertex
 10
-0.1427419999999984
 20
-0.1239420000000564
 30
0.0
 70
    32
  0
VERTEX
  5
2A8
330
17F
100
AcDbEntity
  8
BLOCKS
100
AcDbVertex
100
AcDb3dPolylineVertex
 10
-0.1427939999999808
 20
-0.1237969999999677
 30
0.0
 70
    32
  0
VERTEX
  5
2A9
330
17F
100
AcDbEntity
  8
BLOCKS
100
AcDbVertex
100
AcDb3dPolylineVertex
 10
-0.1428419999999733
 20
-0.1236559999999827
 30
0.0
 70
    32
  0
VERTEX
  5
2AA
330
17F
100
AcDbEntity
  8
BLOCKS
100
AcDbVertex
100
AcDb3dPolylineVertex
 10
-0.1428879999999708
 20
-0.12351799999999
 30
0.0
 70
    32
  0
VERTEX
  5
2AB
330
17F
100
AcDbEntity
  8
BLOCKS
100
AcDbVertex
100
AcDb3dPolylineVertex
 10
-0.1429299999999785
 20
-0.1233849999999848
 30
0.0
 70
    32
  0
VERTEX
  5
2AC
330
17F
100
AcDbEntity
  8
BLOCKS
100
AcDbVertex
100
AcDb3dPolylineVertex
 10
-0.1429689999999937
 20
-0.1232559999999694
 30
0.0
 70
    32
  0
VERTEX
  5
2AD
330
17F
100
AcDbEntity
  8
BLOCKS
100
AcDbVertex
100
AcDb3dPolylineVertex
 10
-0.1430050000000165
 20
-0.1231320000000551
 30
0.0
 70
    32
  0
VERTEX
  5
2AE
330
17F
100
AcDbEntity
  8
BLOCKS
100
AcDbVertex
100
AcDb3dPolylineVertex
 10
-0.1430380000000468
 20
-0.1230110000000195
 30
0.0
 70
    32
  0
VERTEX
  5
2AF
330
17F
100
AcDbEntity
  8
BLOCKS
100
AcDbVertex
100
AcDb3dPolylineVertex
 10
-0.1430669999999736
 20
-0.1228959999999688
 30
0.0
 70
    32
  0
VERTEX
  5
2B0
330
17F
100
AcDbEntity
  8
BLOCKS
100
AcDbVertex
100
AcDb3dPolylineVertex
 10
-0.1430930000000217
 20
-0.1227850000000217
 30
0.0
 70
    32
  0
VERTEX
  5
2B1
330
17F
100
AcDbEntity
  8
BLOCKS
100
AcDbVertex
100
AcDb3dPolylineVertex
 10
-0.1431149999999661
 20
-0.1226779999999508
 30
0.0
 70
    32
  0
VERTEX
  5
2B2
330
17F
100
AcDbEntity
  8
BLOCKS
100
AcDbVertex
100
AcDb3dPolylineVertex
 10
-0.1431340000000318
 20
-0.1225769999999784
 30
0.0
 70
    32
  0
VERTEX
  5
2B3
330
17F
100
AcDbEntity
  8
BLOCKS
100
AcDbVertex
100
AcDb3dPolylineVertex
 10
-0.1431499999999914
 20
-0.1224799999999959
 30
0.0
 70
    32
  0
VERTEX
  5
2B4
330
17F
100
AcDbEntity
  8
BLOCKS
100
AcDbVertex
100
AcDb3dPolylineVertex
 10
-0.1431619999999611
 20
-0.1223880000000008
 30
0.0
 70
    32
  0
VERTEX
  5
2B5
330
17F
100
AcDbEntity
  8
BLOCKS
100
AcDbVertex
100
AcDb3dPolylineVertex
 10
-0.1431710000000521
 20
-0.1223009999999931
 30
0.0
 70
    32
  0
VERTEX
  5
2B6
330
17F
100
AcDbEntity
  8
BLOCKS
100
AcDbVertex
100
AcDb3dPolylineVertex
 10
-0.143177000000037
 20
-0.1222189999999728
 30
0.0
 70
    32
  0
VERTEX
  5
2B7
330
17F
100
AcDbEntity
  8
BLOCKS
100
AcDbVertex
100
AcDb3dPolylineVertex
 10
-0.1431790000000319
 20
-0.122143000000051
 30
0.0
 70
    32
  0
VERTEX
  5
2B8
330
17F
100
AcDbEntity
  8
BLOCKS
100
AcDbVertex
100
AcDb3dPolylineVertex
 10
-0.143177000000037
 20
-0.1220720000000028
 30
0.0
 70
    32
  0
VERTEX
  5
2B9
330
17F
100
AcDbEntity
  8
BLOCKS
100
AcDbVertex
100
AcDb3dPolylineVertex
 10
-0.1431720000000496
 20
-0.1220060000000558
 30
0.0
 70
    32
  0
VERTEX
  5
2BA
330
17F
100
AcDbEntity
  8
BLOCKS
100
AcDbVertex
100
AcDb3dPolylineVertex
 10
-0.1431639999999561
 20
-0.1219459999999799
 30
0.0
 70
    32
  0
VERTEX
  5
2BB
330
17F
100
AcDbEntity
  8
BLOCKS
100
AcDbVertex
100
AcDb3dPolylineVertex
 10
-0.1431519999999864
 20
-0.1218920000000025
 30
0.0
 70
    32
  0
VERTEX
  5
2BC
330
17F
100
AcDbEntity
  8
BLOCKS
100
AcDbVertex
100
AcDb3dPolylineVertex
 10
-0.1431360000000268
 20
-0.1218430000000126
 30
0.0
 70
    32
  0
VERTEX
  5
2BD
330
17F
100
AcDbEntity
  8
BLOCKS
100
AcDbVertex
100
AcDb3dPolylineVertex
 10
-0.1431169999999611
 20
-0.1218000000000075
 30
0.0
 70
    32
  0
VERTEX
  5
2BE
330
17F
100
AcDbEntity
  8
BLOCKS
100
AcDbVertex
100
AcDb3dPolylineVertex
 10
-0.1430940000000191
 20
-0.1217629999999872
 30
0.0
 70
    32
  0
VERTEX
  5
2BF
330
17F
100
AcDbEntity
  8
BLOCKS
100
AcDbVertex
100
AcDb3dPolylineVertex
 10
-0.1430679999999711
 20
-0.1217319999999518
 30
0.0
 70
    32
  0
SEQEND
  5
2C0
330
17F
100
AcDbEntity
  8
BLOCKS
  0
LINE
  5
2C1
330
33
100
AcDbEntity
  8
BLOCKS
100
AcDbLine
 10
-0.244370831254173
 20
-0.1015368082171335
 30
0.0
 11
-0.279311131179611
 21
-0.0927757101227371
 31
0.0
  0
LINE
  5
2C2
330
33
100
AcDbEntity
  8
BLOCKS
100
AcDbLine
 10
-0.3414006914061929
 20
-0.0026924311475796
 30
0.0
 11
-0.3485047044821385
 21
-0.0163479386429799
 31
0.0
  0
ARC
  5
2C3
330
33
100
AcDbEntity
  8
BLOCKS
100
AcDbCircle
 10
-0.3529403697074258
 20
-0.0140403697904503
 30
0.0
 40
0.005
100
AcDbArc
 50
299.7590422179651
 51
332.5151684403289
  0
ARC
  5
2C4
330
33
100
AcDbEntity
  8
BLOCKS
100
AcDbCircle
 10
-0.3369650261809056
 20
-0.0049999999999955
 30
0.0
 40
0.005
100
AcDbArc
 50
90.0
 51
152.5151684403289
  0
ARC
  5
2C5
330
33
100
AcDbEntity
  8
BLOCKS
100
AcDbCircle
 10
-0.3264446547277657
 20
-0.328726090728424
 30
0.0
 40
0.241559687422317
100
AcDbArc
 50
45.3247610815618
 51
70.1373680291544
  0
LINE
  5
2C6
330
33
100
AcDbEntity
  8
BLOCKS
100
AcDbLine
 10
-0.1015368082171335
 20
-0.2443708312541736
 30
0.0
 11
-0.0927757101227371
 21
-0.2793111311796116
 31
0.0
  0
CIRCLE
  5
2C7
330
33
100
AcDbEntity
  8
BLOCKS
100
AcDbCircle
 10
-0.198870915288353
 20
-0.1988709152883536
 30
0.0
 40
0.0326756029800634
  0
ARC
  5
2C8
330
33
100
AcDbEntity
  8
BLOCKS
100
AcDbCircle
 10
-0.3287260907284235
 20
-0.3264446547277663
 30
0.0
 40
0.2415596874223135
100
AcDbArc
 50
19.86263197084559
 51
44.67523891843817
  0
LINE
  5
2C9
330
33
100
AcDbEntity
  8
BLOCKS
100
AcDbLine
 10
-0.3981099437442026
 20
-0.4012634116326132
 30
0.0
 11
-0.4012634116326126
 21
-0.3981099437442031
 31
0.0
  0
LWPOLYLINE
  5
2CA
330
33
100
AcDbEntity
  8
BLOCKS
100
AcDbPolyline
 90
       10
 70
     0
 43
0.0
 10
-0.1263370372580539
 20
-0.1263370372580539
 42
0.1107036678408357
 10
-0.2318759106710786
 20
-0.0602840296024851
 10
-0.2715612035279946
 20
-0.05033314926186
 10
-0.3054164473720675
 20
-0.0487344299400547
 10
-0.3176783694021878
 20
-0.0495337896010142
 10
-0.3344714265272159
 20
-0.0559286668883488
 10
-0.3600623458199834
 20
-0.0729813331244031
 10
-0.3933824781905741
 20
-0.1046885866136336
 10
-0.4186525690020062
 20
-0.1425487392846207
 42
0.3148331901932777
 10
-0.375274491266282
 20
-0.3748187645308013
  0
ARC
  5
2CB
330
33
100
AcDbEntity
  8
BLOCKS
100
AcDbCircle
 10
-0.2308061479518528
 20
-0.2276526800635571
 30
0.0
 40
0.2410629741022441
100
AcDbArc
 50
119.7590422179651
 51
225.0
  0
LINE
  5
2CC
330
33
100
AcDbEntity
  8
BLOCKS
100
AcDbLine
 10
-0.3369650261809056
 20
0.0
 30
0.0
 11
-0.0049999999999955
 21
0.0
 31
0.0
  0
ARC
  5
2CD
330
33
100
AcDbEntity
  8
BLOCKS
100
AcDbCircle
 10
-0.2276526800635565
 20
-0.2308061479518534
 30
0.0
 40
0.2410629741022441
100
AcDbArc
 50
225.0
 51
330.2409577820349
  0
LWPOLYLINE
  5
2CE
330
33
100
AcDbEntity
  8
BLOCKS
100
AcDbPolyline
 90
       10
 70
     0
 43
0.0
 10
-0.1263370372580539
 20
-0.1263370372580539
 42
-0.1107036678408357
 10
-0.0602840296024851
 20
-0.2318759106710792
 10
-0.05033314926186
 20
-0.2715612035279951
 10
-0.0487344299400547
 20
-0.3054164473720681
 10
-0.0495337896010142
 20
-0.3176783694021884
 10
-0.0559286668883488
 20
-0.3344714265272165
 10
-0.0729813331244031
 20
-0.3600623458199839
 10
-0.1046885866136336
 20
-0.3933824781905747
 10
-0.1425487392846207
 20
-0.4186525690020068
 42
-0.3148331901932777
 10
-0.3748187645308008
 20
-0.3752744912662825
  0
CIRCLE
  5
2CF
330
33
100
AcDbEntity
  8
BLOCKS
100
AcDbCircle
 10
-0.0776866793300997
 20
-0.0776866793300997
 30
0.0
 40
0.0175
  0
ENDBLK
  5
2D1
330
33
100
AcDbEntity
  8
0
100
AcDbBlockEnd
  0
BLOCK
  5
4BD
330
2D4
100
AcDbEntity
  8
0
100
AcDbBlockBegin
  2
108710CT
 70
     0
 10
0.0
 20
0.0
 30
0.0
  3
108710CT
  1

  0
LINE
  5
2D5
330
2D4
100
AcDbEntity
  8
BLOCKS
100
AcDbLine
 10
-0.0250435715455518
 20
0.8416521428181493
 30
0.0
 11
-0.0250435715455518
 21
0.7197734279629607
 31
0.0
  0
LINE
  5
2D6
330
2D4
100
AcDbEntity
  8
BLOCKS
100
AcDbLine
 10
0.0
 20
0.85
 30
0.0
 11
0.0
 21
0.7197734279629607
 31
0.0
  0
LINE
  5
2D7
330
2D4
100
AcDbEntity
  8
BLOCKS
100
AcDbLine
 10
-0.1063229271170678
 20
0.85
 30
0.0
 11
-0.1063229271170678
 21
0.8416521428181493
 31
0.0
  0
LINE
  5
2D8
330
2D4
100
AcDbEntity
  8
BLOCKS
100
AcDbLine
 10
-0.0771054323730448
 20
0.85
 30
0.0
 11
-0.0771054323730448
 21
0.8416521428181493
 31
0.0
  0
LINE
  5
2D9
330
2D4
100
AcDbEntity
  8
BLOCKS
100
AcDbLine
 10
-0.1536491256075305
 20
0.7999128569088016
 30
0.0
 11
-0.145467711222671
 21
0.7983748236373515
 31
0.0
  0
LINE
  5
2DA
330
2D4
100
AcDbEntity
  8
BLOCKS
100
AcDbLine
 10
-0.1502410220494477
 20
0.8249564284543533
 30
0.0
 11
-0.1419290554640298
 21
0.8242200710232344
 31
0.0
  0
LINE
  5
2DB
330
2D4
100
AcDbEntity
  8
BLOCKS
100
AcDbLine
 10
-0.1325744707583442
 20
0.8416521428181493
 30
0.0
 11
-0.1409181916133025
 21
0.8416521428181493
 31
0.0
  0
ARC
  5
2DC
330
2D4
100
AcDbEntity
  8
BLOCKS
100
AcDbCircle
 10
-0.2034755908891958
 20
0.7074809743249933
 30
0.0
 40
0.0041739285909291
100
AcDbArc
 50
96.2744761945335
 51
180.0000000192026
  0
LINE
  5
2DD
330
2D4
100
AcDbEntity
  8
BLOCKS
100
AcDbLine
 10
-0.2076495194799315
 20
0.7197734279629607
 30
0.0
 11
-0.2159973766617822
 21
0.7128590033887445
 31
0.0
  0
LINE
  5
2DE
330
2D4
100
AcDbEntity
  8
BLOCKS
100
AcDbLine
 10
-0.2076495194799315
 20
0.6914281659751419
 30
0.0
 11
-0.2076495194799315
 21
0.6872542373842169
 31
0.0
  0
LINE
  5
2DF
330
2D4
100
AcDbEntity
  8
BLOCKS
100
AcDbLine
 10
-0.2159973766617822
 20
0.7128590033887445
 30
0.0
 11
-0.2159973766617822
 21
0.6872542373842169
 31
0.0
1001
ACAD
1000
ASC_BOUNDS
1002
{
1070
    19
1002
}
  0
LINE
  5
2E0
330
2D4
100
AcDbEntity
  8
BLOCKS
100
AcDbLine
 10
-0.2076495194801214
 20
0.7074809743236648
 30
0.0
 11
-0.2159973766617822
 21
0.7074809743236648
 31
0.0
  0
LINE
  5
2E1
330
2D4
100
AcDbEntity
  8
BLOCKS
100
AcDbLine
 10
-0.2076495194799315
 20
0.6997988697416629
 30
0.0
 11
-0.2159973766617822
 21
0.6997988697416629
 31
0.0
  0
LINE
  5
2E2
330
2D4
100
AcDbEntity
  8
BLOCKS
100
AcDbLine
 10
-0.2076495194799315
 20
0.7074809743236648
 30
0.0
 11
-0.2076495194799315
 21
0.6997988697416629
 31
0.0
  0
LWPOLYLINE
  5
2E3
330
2D4
100
AcDbEntity
  8
BLOCKS
100
AcDbPolyline
 90
       49
 70
     0
 43
0.0
 10
-0.1325744707583442
 20
0.8416521428181493
 10
-0.1331208347995266
 20
0.8302532287910276
 10
-0.1338776237537655
 20
0.819610136123469
 10
-0.1347992889552432
 20
0.8099485703679006
 10
-0.1358550496235932
 20
0.801186131409578
 10
-0.1370141249785428
 20
0.7932404191337554
 10
-0.1382457342399147
 20
0.7860290334257826
 10
-0.1395190966273424
 20
0.7794695741711992
 10
-0.1408034313606481
 20
0.7734796412550691
 10
-0.1420749280363418
 20
0.7679818894322489
 10
-0.1433376577582504
 20
0.7629191929344757
 10
-0.1446026620069813
 20
0.7582394808631829
 10
-0.1458809822632384
 20
0.7538906823195209
 10
-0.1471836600077251
 20
0.749820726404733
 10
-0.1485217367210493
 20
0.7459775422201568
 10
-0.1499062538838194
 20
0.7423090588668475
 10
-0.1513482529767396
 20
0.7387632054461438
 10
-0.1528524314598167
 20
0.7353014737276322
 10
-0.1543981107099921
 20
0.7319396061541772
 10
-0.1559582680836076
 20
0.7287069078367
 10
-0.1575058809370029
 20
0.7256326838865989
 10
-0.1590139266265191
 20
0.7227462394147
 10
-0.1604553825084974
 20
0.7200768795324012
 10
-0.1618032259391839
 20
0.717653909350624
 10
-0.1630304342750134
 20
0.7155066339806701
 10
-0.1641185500005781
 20
0.7136540370644355
 10
-0.1650833761140427
 20
0.7120738163673252
 10
-0.1659492807417263
 20
0.7107333481859064
 10
-0.1667406320102339
 20
0.7096000088164636
 10
-0.1674817980458863
 20
0.7086411745553733
 10
-0.1681971469751932
 20
0.7078242216989202
 10
-0.1689110469246634
 20
0.7071165265436708
 10
-0.1696478660205241
 20
0.7064854653858146
 10
-0.1704316389717445
 20
0.7059032514502162
 10
-0.1712850668160002
 20
0.7053614456755941
 10
-0.172230517173428
 20
0.7048564459289652
 10
-0.1732903576642588
 20
0.7043846500776289
 10
-0.1744869559086283
 20
0.7039424559885084
 10
-0.1758426795265785
 20
0.7035262615287127
 10
-0.1773798961383409
 20
0.7031324645654492
 10
-0.1791209733639556
 20
0.7027574629658279
 10
-0.1810983848637767
 20
0.7023971717611915
 10
-0.183385028459308
 20
0.7020455746398028
 10
-0.1860639080121774
 20
0.7016961724543478
 10
-0.1892180273841047
 20
0.7013424660573208
 10
-0.192930390436718
 20
0.7009779563012171
 10
-0.1972840010316429
 20
0.7005961440387211
 10
-0.202361863030506
 20
0.7001905301223275
 10
-0.2076495194799315
 20
0.6997988697416629
  0
POLYLINE
  5
2E4
330
2D4
100
AcDbEntity
  8
BLOCKS
100
AcDb2dPolyline
 66
     1
 10
0.0
 20
0.0
 30
0.0
 70
     4
 75
     6
  0
VERTEX
  5
2E5
330
2E4
100
AcDbEntity
  8
BLOCKS
100
AcDbVertex
100
AcDb2dVertex
 10
-0.1242175334651171
 20
0.8416521428181493
 30
0.0
 70
    16
  0
VERTEX
  5
2E6
330
2E4
100
AcDbEntity
  8
BLOCKS
100
AcDbVertex
100
AcDb2dVertex
 10
-0.1242175334651171
 20
0.8416521428181493
 30
0.0
 70
     8
  0
VERTEX
  5
2E7
330
2E4
100
AcDbEntity
  8
BLOCKS
100
AcDbVertex
100
AcDb2dVertex
 10
-0.1247901593084305
 20
0.8297297253888713
 30
0.0
 70
     8
  0
VERTEX
  5
2E8
330
2E4
100
AcDbEntity
  8
BLOCKS
100
AcDbVertex
100
AcDb2dVertex
 10
-0.1255649848090889
 20
0.8188737077917386
 30
0.0
 70
     8
  0
VERTEX
  5
2E9
330
2E4
100
AcDbEntity
  8
BLOCKS
100
AcDbVertex
100
AcDb2dVertex
 10
-0.126510546053093
 20
0.8090021911363095
 30
0.0
 70
     8
  0
VERTEX
  5
2EA
330
2E4
100
AcDbEntity
  8
BLOCKS
100
AcDbVertex
100
AcDb2dVertex
 10
-0.1275953791264436
 20
0.8000332765317608
 30
0.0
 70
     8
  0
VERTEX
  5
2EB
330
2E4
100
AcDbEntity
  8
BLOCKS
100
AcDbVertex
100
AcDb2dVertex
 10
-0.1287880201149528
 20
0.7918850650875545
 30
0.0
 70
     8
  0
VERTEX
  5
2EC
330
2E4
100
AcDbEntity
  8
BLOCKS
100
AcDbVertex
100
AcDb2dVertex
 10
-0.1300570051045253
 20
0.7844756579128677
 30
0.0
 70
     8
  0
VERTEX
  5
2ED
330
2E4
100
AcDbEntity
  8
BLOCKS
100
AcDbVertex
100
AcDb2dVertex
 10
-0.1313708701811629
 20
0.7777231561171624
 30
0.0
 70
     8
  0
VERTEX
  5
2EE
330
2E4
100
AcDbEntity
  8
BLOCKS
100
AcDbVertex
100
AcDb2dVertex
 10
-0.132698151430771
 20
0.7715456608097106
 30
0.0
 70
     8
  0
VERTEX
  5
2EF
330
2E4
100
AcDbEntity
  8
BLOCKS
100
AcDbVertex
100
AcDb2dVertex
 10
-0.1340145088979022
 20
0.7658661532153542
 30
0.0
 70
     8
  0
VERTEX
  5
2F0
330
2E4
100
AcDbEntity
  8
BLOCKS
100
AcDbVertex
100
AcDb2dVertex
 10
-0.1353240984621726
 20
0.7606271350197864
 30
0.0
 70
     8
  0
VERTEX
  5
2F1
330
2E4
100
AcDbEntity
  8
BLOCKS
100
AcDbVertex
100
AcDb2dVertex
 10
-0.1366381999616522
 20
0.7557759880245533
 30
0.0
 70
     8
  0
VERTEX
  5
2F2
330
2E4
100
AcDbEntity
  8
BLOCKS
100
AcDbVertex
100
AcDb2dVertex
 10
-0.1379680932346974
 20
0.7512600940307284
 30
0.0
 70
     8
  0
VERTEX
  5
2F3
330
2E4
100
AcDbEntity
  8
BLOCKS
100
AcDbVertex
100
AcDb2dVertex
 10
-0.1393250581193797
 20
0.7470268348397627
 30
0.0
 70
     8
  0
VERTEX
  5
2F4
330
2E4
100
AcDbEntity
  8
BLOCKS
100
AcDbVertex
100
AcDb2dVertex
 10
-0.1407203744540561
 20
0.7430235922528238
 30
0.0
 70
     8
  0
VERTEX
  5
2F5
330
2E4
100
AcDbEntity
  8
BLOCKS
100
AcDbVertex
100
AcDb2dVertex
 10
-0.1421653220767979
 20
0.7391977480711746
 30
0.0
 70
     8
  0
VERTEX
  5
2F6
330
2E4
100
AcDbEntity
  8
BLOCKS
100
AcDbVertex
100
AcDb2dVertex
 10
-0.1436711808258656
 20
0.7354966840962664
 30
0.0
 70
     8
  0
VERTEX
  5
2F7
330
2E4
100
AcDbEntity
  8
BLOCKS
100
AcDbVertex
100
AcDb2dVertex
 10
-0.145243089292548
 20
0.7318810619654056
 30
0.0
 70
     8
  0
VERTEX
  5
2F8
330
2E4
100
AcDbEntity
  8
BLOCKS
100
AcDbVertex
100
AcDb2dVertex
 10
-0.146861621079575
 20
0.7283646626606419
 30
0.0
 70
     8
  0
VERTEX
  5
2F9
330
2E4
100
AcDbEntity
  8
BLOCKS
100
AcDbVertex
100
AcDb2dVertex
 10
-0.1485012085427991
 20
0.724974547000258
 30
0.0
 70
     8
  0
VERTEX
  5
2FA
330
2E4
100
AcDbEntity
  8
BLOCKS
100
AcDbVertex
100
AcDb2dVertex
 10
-0.150136284038166
 20
0.7217377758022542
 30
0.0
 70
     8
  0
VERTEX
  5
2FB
330
2E4
100
AcDbEntity
  8
BLOCKS
100
AcDbVertex
100
AcDb2dVertex
 10
-0.1517412799215282
 20
0.7186814098850079
 30
0.0
 70
     8
  0
VERTEX
  5
2FC
330
2E4
100
AcDbEntity
  8
BLOCKS
100
AcDbVertex
100
AcDb2dVertex
 10
-0.1532906285486427
 20
0.7158325100666133
 30
0.0
 70
     8
  0
VERTEX
  5
2FD
330
2E4
100
AcDbEntity
  8
BLOCKS
100
AcDbVertex
100
AcDb2dVertex
 10
-0.154758762275456
 20
0.7132181371653532
 30
0.0
 70
     8
  0
VERTEX
  5
2FE
330
2E4
100
AcDbEntity
  8
BLOCKS
100
AcDbVertex
100
AcDb2dVertex
 10
-0.1561201134577254
 20
0.7108653519993221
 30
0.0
 70
     8
  0
VERTEX
  5
2FF
330
2E4
100
AcDbEntity
  8
BLOCKS
100
AcDbVertex
100
AcDb2dVertex
 10
-0.15735763700223
 20
0.7087918610311926
 30
0.0
 70
     8
  0
VERTEX
  5
300
330
2E4
100
AcDbEntity
  8
BLOCKS
100
AcDbVertex
100
AcDb2dVertex
 10
-0.1584883780184197
 20
0.7069779533017681
 30
0.0
 70
     8
  0
VERTEX
  5
301
330
2E4
100
AcDbEntity
  8
BLOCKS
100
AcDbVertex
100
AcDb2dVertex
 10
-0.1595379041669549
 20
0.7053945634961468
 30
0.0
 70
     8
  0
VERTEX
  5
302
330
2E4
100
AcDbEntity
  8
BLOCKS
100
AcDbVertex
100
AcDb2dVertex
 10
-0.160531783108118
 20
0.7040126262997109
 30
0.0
 70
     8
  0
VERTEX
  5
303
330
2E4
100
AcDbEntity
  8
BLOCKS
100
AcDbVertex
100
AcDb2dVertex
 10
-0.1614955825025703
 20
0.702803076397463
 30
0.0
 70
     8
  0
VERTEX
  5
304
330
2E4
100
AcDbEntity
  8
BLOCKS
100
AcDbVertex
100
AcDb2dVertex
 10
-0.1624548700105936
 20
0.7017368484747863
 30
0.0
 70
     8
  0
VERTEX
  5
305
330
2E4
100
AcDbEntity
  8
BLOCKS
100
AcDbVertex
100
AcDb2dVertex
 10
-0.1634352132926602
 20
0.7007848772168735
 30
0.0
 70
     8
  0
VERTEX
  5
306
330
2E4
100
AcDbEntity
  8
BLOCKS
100
AcDbVertex
100
AcDb2dVertex
 10
-0.1644621800093359
 20
0.6999180973088227
 30
0.0
 70
     8
  0
VERTEX
  5
307
330
2E4
100
AcDbEntity
  8
BLOCKS
100
AcDbVertex
100
AcDb2dVertex
 10
-0.1655599591650406
 20
0.6991118282865995
 30
0.0
 70
     8
  0
VERTEX
  5
308
330
2E4
100
AcDbEntity
  8
BLOCKS
100
AcDbVertex
100
AcDb2dVertex
 10
-0.1667472251404632
 20
0.6983589290880258
 30
0.0
 70
     8
  0
VERTEX
  5
309
330
2E4
100
AcDbEntity
  8
BLOCKS
100
AcDbVertex
100
AcDb2dVertex
 10
-0.1680412736604302
 20
0.6976566435019817
 30
0.0
 70
     8
  0
VERTEX
  5
30A
330
2E4
100
AcDbEntity
  8
BLOCKS
100
AcDbVertex
100
AcDb2dVertex
 10
-0.1694594004495781
 20
0.6970022153170623
 30
0.0
 70
     8
  0
VERTEX
  5
30B
330
2E4
100
AcDbEntity
  8
BLOCKS
100
AcDbVertex
100
AcDb2dVertex
 10
-0.1710189012327328
 20
0.6963928883218631
 30
0.0
 70
     8
  0
VERTEX
  5
30C
330
2E4
100
AcDbEntity
  8
BLOCKS
100
AcDbVertex
100
AcDb2dVertex
 10
-0.172737071734627
 20
0.6958259063049792
 30
0.0
 70
     8
  0
VERTEX
  5
30D
330
2E4
100
AcDbEntity
  8
BLOCKS
100
AcDbVertex
100
AcDb2dVertex
 10
-0.1746312076800859
 20
0.6952985130551952
 30
0.0
 70
     8
  0
VERTEX
  5
30E
330
2E4
100
AcDbEntity
  8
BLOCKS
100
AcDbVertex
100
AcDb2dVertex
 10
-0.1767186047936525
 20
0.6948079523610114
 30
0.0
 70
     8
  0
VERTEX
  5
30F
330
2E4
100
AcDbEntity
  8
BLOCKS
100
AcDbVertex
100
AcDb2dVertex
 10
-0.1790267128017939
 20
0.6943505880747535
 30
0.0
 70
     8
  0
VERTEX
  5
310
330
2E4
100
AcDbEntity
  8
BLOCKS
100
AcDbVertex
100
AcDb2dVertex
 10
-0.1816235974365014
 20
0.6939192643026228
 30
0.0
 70
     8
  0
VERTEX
  5
311
330
2E4
100
AcDbEntity
  8
BLOCKS
100
AcDbVertex
100
AcDb2dVertex
 10
-0.1845874784312161
 20
0.6935059452143629
 30
0.0
 70
     8
  0
VERTEX
  5
312
330
2E4
100
AcDbEntity
  8
BLOCKS
100
AcDbVertex
100
AcDb2dVertex
 10
-0.1879965755195701
 20
0.6931025949798107
 30
0.0
 70
     8
  0
VERTEX
  5
313
330
2E4
100
AcDbEntity
  8
BLOCKS
100
AcDbVertex
100
AcDb2dVertex
 10
-0.191929108435101
 20
0.6927011777688984
 30
0.0
 70
     8
  0
VERTEX
  5
314
330
2E4
100
AcDbEntity
  8
BLOCKS
100
AcDbVertex
100
AcDb2dVertex
 10
-0.1964632969112501
 20
0.6922936577511786
 30
0.0
 70
     8
  0
VERTEX
  5
315
330
2E4
100
AcDbEntity
  8
BLOCKS
100
AcDbVertex
100
AcDb2dVertex
 10
-0.2016773606817446
 20
0.6918719990966793
 30
0.0
 70
     8
  0
VERTEX
  5
316
330
2E4
100
AcDbEntity
  8
BLOCKS
100
AcDbVertex
100
AcDb2dVertex
 10
-0.2076495194799315
 20
0.6914281659751419
 30
0.0
 70
     8
  0
VERTEX
  5
317
330
2E4
100
AcDbEntity
  8
BLOCKS
100
AcDbVertex
100
AcDb2dVertex
 10
-0.125446968246955
 20
0.8083643642164389
 30
0.0
 70
    16
  0
VERTEX
  5
318
330
2E4
100
AcDbEntity
  8
BLOCKS
100
AcDbVertex
100
AcDb2dVertex
 10
-0.1328906606696085
 20
0.7662858464348336
 30
0.0
 70
    16
  0
VERTEX
  5
319
330
2E4
100
AcDbEntity
  8
BLOCKS
100
AcDbVertex
100
AcDb2dVertex
 10
-0.1429011438706107
 20
0.7347269560116871
 30
0.0
 70
    16
  0
VERTEX
  5
31A
330
2E4
100
AcDbEntity
  8
BLOCKS
100
AcDbVertex
100
AcDb2dVertex
 10
-0.1575318488032389
 20
0.7077864340958258
 30
0.0
 70
    16
  0
VERTEX
  5
31B
330
2E4
100
AcDbEntity
  8
BLOCKS
100
AcDbVertex
100
AcDb2dVertex
 10
-0.1636921416627854
 20
0.6993194196005607
 30
0.0
 70
    16
  0
VERTEX
  5
31C
330
2E4
100
AcDbEntity
  8
BLOCKS
100
AcDbVertex
100
AcDb2dVertex
 10
-0.1744726646017273
 20
0.6944444713549633
 30
0.0
 70
    16
  0
VERTEX
  5
31D
330
2E4
100
AcDbEntity
  8
BLOCKS
100
AcDbVertex
100
AcDb2dVertex
 10
-0.1906434406622765
 20
0.692648429882313
 30
0.0
 70
    16
  0
VERTEX
  5
31E
330
2E4
100
AcDbEntity
  8
BLOCKS
100
AcDbVertex
100
AcDb2dVertex
 10
-0.2076495194799315
 20
0.6914281659751419
 30
0.0
 70
    16
  0
SEQEND
  5
31F
330
2E4
100
AcDbEntity
  8
BLOCKS
  0
POLYLINE
  5
320
330
2D4
100
AcDbEntity
  8
BLOCKS
100
AcDb3dPolyline
 66
     1
 10
0.0
 20
0.0
 30
0.0
 70
     8
  0
VERTEX
  5
321
330
320
100
AcDbEntity
  8
BLOCKS
100
AcDbVertex
100
AcDb3dPolylineVertex
 10
-0.2039314726670267
 20
0.7116300932821185
 30
0.0
 70
    32
  0
VERTEX
  5
322
330
320
100
AcDbEntity
  8
BLOCKS
100
AcDbVertex
100
AcDb3dPolylineVertex
 10
-0.2034965493079062
 20
0.7116801804251782
 30
0.0
 70
    32
  0
VERTEX
  5
323
330
320
100
AcDbEntity
  8
BLOCKS
100
AcDbVertex
100
AcDb3dPolylineVertex
 10
-0.2030624607344066
 20
0.7117369458539662
 30
0.0
 70
    32
  0
VERTEX
  5
324
330
320
100
AcDbEntity
  8
BLOCKS
100
AcDbVertex
100
AcDb3dPolylineVertex
 10
-0.2026292069467177
 20
0.71179788521143
 30
0.0
 70
    32
  0
VERTEX
  5
325
330
320
100
AcDbEntity
  8
BLOCKS
100
AcDbVertex
100
AcDb3dPolylineVertex
 10
-0.2021959531589346
 20
0.711865502854622
 30
0.0
 70
    32
  0
VERTEX
  5
326
330
320
100
AcDbEntity
  8
BLOCKS
100
AcDbVertex
100
AcDb3dPolylineVertex
 10
-0.201764368942678
 20
0.7119381292121108
 30
0.0
 70
    32
  0
VERTEX
  5
327
330
320
100
AcDbEntity
  8
BLOCKS
100
AcDbVertex
100
AcDb3dPolylineVertex
 10
-0.2013336195120428
 20
0.7120157642838957
 30
0.0
 70
    32
  0
VERTEX
  5
328
330
320
100
AcDbEntity
  8
BLOCKS
100
AcDbVertex
100
AcDb3dPolylineVertex
 10
-0.200903704867219
 20
0.7120992428556935
 30
0.0
 70
    32
  0
VERTEX
  5
329
330
320
100
AcDbEntity
  8
BLOCKS
100
AcDbVertex
100
AcDb3dPolylineVertex
 10
-0.2004737902222996
 20
0.7121877301417874
 30
0.0
 70
    32
  0
VERTEX
  5
32A
330
320
100
AcDbEntity
  8
BLOCKS
100
AcDbVertex
100
AcDb3dPolylineVertex
 10
-0.2000455451489074
 20
0.7122812261422729
 30
0.0
 70
    32
  0
VERTEX
  5
32B
330
320
100
AcDbEntity
  8
BLOCKS
100
AcDbVertex
100
AcDb3dPolylineVertex
 10
-0.1996181348611367
 20
0.7123805656427709
 30
0.0
 70
    32
  0
VERTEX
  5
32C
330
320
100
AcDbEntity
  8
BLOCKS
100
AcDbVertex
100
AcDb3dPolylineVertex
 10
-0.1991915593591767
 20
0.7124849138574706
 30
0.0
 70
    32
  0
VERTEX
  5
32D
330
320
100
AcDbEntity
  8
BLOCKS
100
AcDbVertex
100
AcDb3dPolylineVertex
 10
-0.1987658186429331
 20
0.7125951055722771
 30
0.0
 70
    32
  0
VERTEX
  5
32E
330
320
100
AcDbEntity
  8
BLOCKS
100
AcDbVertex
100
AcDb3dPolylineVertex
 10
-0.1983409127124054
 20
0.712710306001381
 30
0.0
 70
    32
  0
VERTEX
  5
32F
330
320
100
AcDbEntity
  8
BLOCKS
100
AcDbVertex
100
AcDb3dPolylineVertex
 10
-0.1979168415674985
 20
0.7128296803590649
 30
0.0
 70
    32
  0
VERTEX
  5
330
330
320
100
AcDbEntity
  8
BLOCKS
100
AcDbVertex
100
AcDb3dPolylineVertex
 10
-0.1974944399941194
 20
0.7129548982168564
 30
0.0
 70
    32
  0
VERTEX
  5
331
330
320
100
AcDbEntity
  8
BLOCKS
100
AcDbVertex
100
AcDb3dPolylineVertex
 10
-0.1970720384207396
 20
0.7130859595745653
 30
0.0
 70
    32
  0
VERTEX
  5
332
330
320
100
AcDbEntity
  8
BLOCKS
100
AcDbVertex
100
AcDb3dPolylineVertex
 10
-0.1966513064187921
 20
0.7132211948609495
 30
0.0
 70
    32
  0
VERTEX
  5
333
330
320
100
AcDbEntity
  8
BLOCKS
100
AcDbVertex
100
AcDb3dPolylineVertex
 10
-0.1962314092024661
 20
0.7133614388616304
 30
0.0
 70
    32
  0
VERTEX
  5
334
330
320
100
AcDbEntity
  8
BLOCKS
100
AcDbVertex
100
AcDb3dPolylineVertex
 10
-0.1958123467719508
 20
0.7135075263622288
 30
0.0
 70
    32
  0
VERTEX
  5
335
330
320
100
AcDbEntity
  8
BLOCKS
100
AcDbVertex
100
AcDb3dPolylineVertex
 10
-0.1953949539128678
 20
0.7136577877915023
 30
0.0
 70
    32
  0
VERTEX
  5
336
330
320
100
AcDbEntity
  8
BLOCKS
100
AcDbVertex
100
AcDb3dPolylineVertex
 10
-0.1949783958395011
 20
0.7138138927208832
 30
0.0
 70
    32
  0
VERTEX
  5
337
330
320
100
AcDbEntity
  8
BLOCKS
100
AcDbVertex
100
AcDb3dPolylineVertex
 10
-0.1945626725518502
 20
0.71397417157875
 30
0.0
 70
    32
  0
VERTEX
  5
338
330
320
100
AcDbEntity
  8
BLOCKS
100
AcDbVertex
100
AcDb3dPolylineVertex
 10
-0.1941477840499152
 20
0.714139459150913
 30
0.0
 70
    32
  0
VERTEX
  5
339
330
320
100
AcDbEntity
  8
BLOCKS
100
AcDbVertex
100
AcDb3dPolylineVertex
 10
-0.1937345651194124
 20
0.7143105902231838
 30
0.0
 70
    32
  0
VERTEX
  5
33A
330
320
100
AcDbEntity
  8
BLOCKS
100
AcDbVertex
100
AcDb3dPolylineVertex
 10
-0.193322180974626
 20
0.7144858952240344
 30
0.0
 70
    32
  0
VERTEX
  5
33B
330
320
100
AcDbEntity
  8
BLOCKS
100
AcDbVertex
100
AcDb3dPolylineVertex
 10
-0.1929106316155554
 20
0.7146662089390873
 30
0.0
 70
    32
  0
VERTEX
  5
33C
330
320
100
AcDbEntity
  8
BLOCKS
100
AcDbVertex
100
AcDb3dPolylineVertex
 10
-0.192500751827917
 20
0.7148506965828148
 30
0.0
 70
    32
  0
VERTEX
  5
33D
330
320
100
AcDbEntity
  8
BLOCKS
100
AcDbVertex
100
AcDb3dPolylineVertex
 10
-0.1920917068259951
 20
0.7150410277265554
 30
0.0
 70
    32
  0
VERTEX
  5
33E
330
320
100
AcDbEntity
  8
BLOCKS
100
AcDbVertex
100
AcDb3dPolylineVertex
 10
-0.1916834966097889
 20
0.7152355327988761
 30
0.0
 70
    32
  0
VERTEX
  5
33F
330
320
100
AcDbEntity
  8
BLOCKS
100
AcDbVertex
100
AcDb3dPolylineVertex
 10
-0.1912769559651099
 20
0.715435046585588
 30
0.0
 70
    32
  0
VERTEX
  5
340
330
320
100
AcDbEntity
  8
BLOCKS
100
AcDbVertex
100
AcDb3dPolylineVertex
 10
-0.1908712501060518
 20
0.7156387343007857
 30
0.0
 70
    32
  0
VERTEX
  5
341
330
320
100
AcDbEntity
  8
BLOCKS
100
AcDbVertex
100
AcDb3dPolylineVertex
 10
-0.1904672138184259
 20
0.715847430730375
 30
0.0
 70
    32
  0
VERTEX
  5
342
330
320
100
AcDbEntity
  8
BLOCKS
100
AcDbVertex
100
AcDb3dPolylineVertex
 10
-0.1900640123165164
 20
0.7160611358741653
 30
0.0
 70
    32
  0
VERTEX
  5
343
330
320
100
AcDbEntity
  8
BLOCKS
100
AcDbVertex
100
AcDb3dPolylineVertex
 10
-0.1896624803861334
 20
0.7162798497323474
 30
0.0
 70
    32
  0
VERTEX
  5
344
330
320
100
AcDbEntity
  8
BLOCKS
100
AcDbVertex
100
AcDb3dPolylineVertex
 10
-0.189261783241372
 20
0.7165019027333932
 30
0.0
 70
    32
  0
VERTEX
  5
345
330
320
100
AcDbEntity
  8
BLOCKS
100
AcDbVertex
100
AcDb3dPolylineVertex
 10
-0.1888627556680427
 20
0.7167297992344521
 30
0.0
 70
    32
  0
VERTEX
  5
346
330
320
100
AcDbEntity
  8
BLOCKS
100
AcDbVertex
100
AcDb3dPolylineVertex
 10
-0.1884645628805242
 20
0.7169618696640913
 30
0.0
 70
    32
  0
VERTEX
  5
347
330
320
100
AcDbEntity
  8
BLOCKS
100
AcDbVertex
100
AcDb3dPolylineVertex
 10
-0.1880680396643436
 20
0.7171981140224056
 30
0.0
 70
    32
  0
VERTEX
  5
348
330
320
100
AcDbEntity
  8
BLOCKS
100
AcDbVertex
100
AcDb3dPolylineVertex
 10
-0.1876731860196895
 20
0.7174393670949218
 30
0.0
 70
    32
  0
VERTEX
  5
349
330
320
100
AcDbEntity
  8
BLOCKS
100
AcDbVertex
100
AcDb3dPolylineVertex
 10
-0.1872791671606564
 20
0.7176847940961131
 30
0.0
 70
    32
  0
VERTEX
  5
34A
330
320
100
AcDbEntity
  8
BLOCKS
100
AcDbVertex
100
AcDb3dPolylineVertex
 10
-0.1868859830874345
 20
0.7179343950257896
 30
0.0
 70
    32
  0
VERTEX
  5
34B
330
320
100
AcDbEntity
  8
BLOCKS
100
AcDbVertex
100
AcDb3dPolylineVertex
 10
-0.1864953033712664
 20
0.7181890046698579
 30
0.0
 70
    32
  0
VERTEX
  5
34C
330
320
100
AcDbEntity
  8
BLOCKS
100
AcDbVertex
100
AcDb3dPolylineVertex
 10
-0.1861046236551925
 20
0.718447788242507
 30
0.0
 70
    32
  0
VERTEX
  5
34D
330
320
100
AcDbEntity
  8
BLOCKS
100
AcDbVertex
100
AcDb3dPolylineVertex
 10
-0.1857164482962668
 20
0.7187107457437355
 30
0.0
 70
    32
  0
VERTEX
  5
34E
330
320
100
AcDbEntity
  8
BLOCKS
100
AcDbVertex
100
AcDb3dPolylineVertex
 10
-0.185329107722963
 20
0.7189778771735451
 30
0.0
 70
    32
  0
VERTEX
  5
34F
330
320
100
AcDbEntity
  8
BLOCKS
100
AcDbVertex
100
AcDb3dPolylineVertex
 10
-0.1849434367211859
 20
0.7192500173176507
 30
0.0
 70
    32
  0
VERTEX
  5
350
330
320
100
AcDbEntity
  8
BLOCKS
100
AcDbVertex
100
AcDb3dPolylineVertex
 10
-0.1845594352908404
 20
0.719526331390432
 30
0.0
 70
    32
  0
VERTEX
  5
351
330
320
100
AcDbEntity
  8
BLOCKS
100
AcDbVertex
100
AcDb3dPolylineVertex
 10
-0.1841762686462118
 20
0.7198068193916987
 30
0.0
 70
    32
  0
VERTEX
  5
352
330
320
100
AcDbEntity
  8
BLOCKS
100
AcDbVertex
100
AcDb3dPolylineVertex
 10
-0.1837956063587308
 20
0.7200914813216406
 30
0.0
 70
    32
  0
VERTEX
  5
353
330
320
100
AcDbEntity
  8
BLOCKS
100
AcDbVertex
100
AcDb3dPolylineVertex
 10
-0.1834149440711553
 20
0.7203803171800678
 30
0.0
 70
    32
  0
VERTEX
  5
354
330
320
100
AcDbEntity
  8
BLOCKS
100
AcDbVertex
100
AcDb3dPolylineVertex
 10
-0.1830367861408229
 20
0.7206733269671703
 30
0.0
 70
    32
  0
VERTEX
  5
355
330
320
100
AcDbEntity
  8
BLOCKS
100
AcDbVertex
100
AcDb3dPolylineVertex
 10
-0.1826602977819226
 20
0.7209705106828535
 30
0.0
 70
    32
  0
VERTEX
  5
356
330
320
100
AcDbEntity
  8
BLOCKS
100
AcDbVertex
100
AcDb3dPolylineVertex
 10
-0.1822846442087382
 20
0.7212718683271169
 30
0.0
 70
    32
  0
VERTEX
  5
357
330
320
100
AcDbEntity
  8
BLOCKS
100
AcDbVertex
100
AcDb3dPolylineVertex
 10
-0.1819106602069865
 20
0.7215773998999607
 30
0.0
 70
    32
  0
VERTEX
  5
358
330
320
100
AcDbEntity
  8
BLOCKS
100
AcDbVertex
100
AcDb3dPolylineVertex
 10
-0.1815383457767615
 20
0.7218862706156689
 30
0.0
 70
    32
  0
VERTEX
  5
359
330
320
100
AcDbEntity
  8
BLOCKS
100
AcDbVertex
100
AcDb3dPolylineVertex
 10
-0.1811677009178737
 20
0.7222001500457686
 30
0.0
 70
    32
  0
VERTEX
  5
35A
330
320
100
AcDbEntity
  8
BLOCKS
100
AcDbVertex
100
AcDb3dPolylineVertex
 10
-0.1807987256304182
 20
0.7225182034043537
 30
0.0
 70
    32
  0
VERTEX
  5
35B
330
320
100
AcDbEntity
  8
BLOCKS
100
AcDbVertex
100
AcDb3dPolylineVertex
 10
-0.1804314199143948
 20
0.7228395959058975
 30
0.0
 70
    32
  0
VERTEX
  5
35C
330
320
100
AcDbEntity
  8
BLOCKS
100
AcDbVertex
100
AcDb3dPolylineVertex
 10
-0.1800657837698032
 20
0.7231651623359272
 30
0.0
 70
    32
  0
VERTEX
  5
35D
330
320
100
AcDbEntity
  8
BLOCKS
100
AcDbVertex
100
AcDb3dPolylineVertex
 10
-0.1797009824110228
 20
0.7234949026946323
 30
0.0
 70
    32
  0
VERTEX
  5
35E
330
320
100
AcDbEntity
  8
BLOCKS
100
AcDbVertex
100
AcDb3dPolylineVertex
 10
-0.1793386854092961
 20
0.7238279821962017
 30
0.0
 70
    32
  0
VERTEX
  5
35F
330
320
100
AcDbEntity
  8
BLOCKS
100
AcDbVertex
100
AcDb3dPolylineVertex
 10
-0.1789772231932852
 20
0.7241652356263519
 30
0.0
 70
    32
  0
VERTEX
  5
360
330
320
100
AcDbEntity
  8
BLOCKS
100
AcDbVertex
100
AcDb3dPolylineVertex
 10
-0.1786182653345173
 20
0.7245066629850818
 30
0.0
 70
    32
  0
VERTEX
  5
361
330
320
100
AcDbEntity
  8
BLOCKS
100
AcDbVertex
100
AcDb3dPolylineVertex
 10
-0.1782601422613709
 20
0.7248522642723918
 30
0.0
 70
    32
  0
VERTEX
  5
362
330
320
100
AcDbEntity
  8
BLOCKS
100
AcDbVertex
100
AcDb3dPolylineVertex
 10
-0.1779045235454675
 20
0.725201204702662
 30
0.0
 70
    32
  0
VERTEX
  5
363
330
320
100
AcDbEntity
  8
BLOCKS
100
AcDbVertex
100
AcDb3dPolylineVertex
 10
-0.1775505744009013
 20
0.725553484275701
 30
0.0
 70
    32
  0
VERTEX
  5
364
330
320
100
AcDbEntity
  8
BLOCKS
100
AcDbVertex
100
AcDb3dPolylineVertex
 10
-0.1771974600421458
 20
0.7259099377773203
 30
0.0
 70
    32
  0
VERTEX
  5
365
330
320
100
AcDbEntity
  8
BLOCKS
100
AcDbVertex
100
AcDb3dPolylineVertex
 10
-0.176846850040539
 20
0.7262705652076153
 30
0.0
 70
    32
  0
VERTEX
  5
366
330
320
100
AcDbEntity
  8
BLOCKS
100
AcDbVertex
100
AcDb3dPolylineVertex
 10
-0.1764979096102695
 20
0.7266345317807743
 30
0.0
 70
    32
  0
VERTEX
  5
367
330
320
100
AcDbEntity
  8
BLOCKS
100
AcDbVertex
100
AcDb3dPolylineVertex
 10
-0.1761506387515266
 20
0.7270018374967032
 30
0.0
 70
    32
  0
VERTEX
  5
368
330
320
100
AcDbEntity
  8
BLOCKS
100
AcDbVertex
100
AcDb3dPolylineVertex
 10
-0.1758050374642158
 20
0.7273733171413069
 30
0.0
 70
    32
  0
VERTEX
  5
369
330
320
100
AcDbEntity
  8
BLOCKS
100
AcDbVertex
100
AcDb3dPolylineVertex
 10
-0.1754619405340537
 20
0.7277481359287749
 30
0.0
 70
    32
  0
VERTEX
  5
36A
330
320
100
AcDbEntity
  8
BLOCKS
100
AcDbVertex
100
AcDb3dPolylineVertex
 10
-0.1751196783896074
 20
0.7281262938591073
 30
0.0
 70
    32
  0
VERTEX
  5
36B
330
320
100
AcDbEntity
  8
BLOCKS
100
AcDbVertex
100
AcDb3dPolylineVertex
 10
-0.1747799206023097
 20
0.7285086257181149
 30
0.0
 70
    32
  0
VERTEX
  5
36C
330
320
100
AcDbEntity
  8
BLOCKS
100
AcDbVertex
100
AcDb3dPolylineVertex
 10
-0.1744418323864437
 20
0.7288942967198921
 30
0.0
 70
    32
  0
VERTEX
  5
36D
330
320
100
AcDbEntity
  8
BLOCKS
100
AcDbVertex
100
AcDb3dPolylineVertex
 10
-0.1741054137420105
 20
0.7292833068645337
 30
0.0
 70
    32
  0
VERTEX
  5
36E
330
320
100
AcDbEntity
  8
BLOCKS
100
AcDbVertex
100
AcDb3dPolylineVertex
 10
-0.1737706646690089
 20
0.7296756561521346
 30
0.0
 70
    32
  0
VERTEX
  5
36F
330
320
100
AcDbEntity
  8
BLOCKS
100
AcDbVertex
100
AcDb3dPolylineVertex
 10
-0.1734384199531553
 20
0.7300713445825045
 30
0.0
 70
    32
  0
VERTEX
  5
370
330
320
100
AcDbEntity
  8
BLOCKS
100
AcDbVertex
100
AcDb3dPolylineVertex
 10
-0.1731078448087345
 20
0.7304712069415502
 30
0.0
 70
    32
  0
VERTEX
  5
371
330
320
100
AcDbEntity
  8
BLOCKS
100
AcDbVertex
100
AcDb3dPolylineVertex
 10
-0.1727789392357454
 20
0.7308744084434596
 30
0.0
 70
    32
  0
VERTEX
  5
372
330
320
100
AcDbEntity
  8
BLOCKS
100
AcDbVertex
100
AcDb3dPolylineVertex
 10
-0.1724525380199998
 20
0.7312809490881387
 30
0.0
 70
    32
  0
VERTEX
  5
373
330
320
100
AcDbEntity
  8
BLOCKS
100
AcDbVertex
100
AcDb3dPolylineVertex
 10
-0.1721269715898751
 20
0.7316908288757772
 30
0.0
 70
    32
  0
VERTEX
  5
374
330
320
100
AcDbEntity
  8
BLOCKS
100
AcDbVertex
100
AcDb3dPolylineVertex
 10
-0.1718030747312775
 20
0.7321040478062799
 30
0.0
 70
    32
  0
VERTEX
  5
375
330
320
100
AcDbEntity
  8
BLOCKS
100
AcDbVertex
100
AcDb3dPolylineVertex
 10
-0.1714808474440173
 20
0.732521440665363
 30
0.0
 70
    32
  0
VERTEX
  5
376
330
320
100
AcDbEntity
  8
BLOCKS
100
AcDbVertex
100
AcDb3dPolylineVertex
 10
-0.1711602897281887
 20
0.7329421726674054
 30
0.0
 70
    32
  0
VERTEX
  5
377
330
320
100
AcDbEntity
  8
BLOCKS
100
AcDbVertex
100
AcDb3dPolylineVertex
 10
-0.1708405667981719
 20
0.7333670785979331
 30
0.0
 70
    32
  0
VERTEX
  5
378
330
320
100
AcDbEntity
  8
BLOCKS
100
AcDbVertex
100
AcDb3dPolylineVertex
 10
-0.1705233482252078
 20
0.7337944888856089
 30
0.0
 70
    32
  0
VERTEX
  5
379
330
320
100
AcDbEntity
  8
BLOCKS
100
AcDbVertex
100
AcDb3dPolylineVertex
 10
-0.1702069644380549
 20
0.7342260731019599
 30
0.0
 70
    32
  0
VERTEX
  5
37A
330
320
100
AcDbEntity
  8
BLOCKS
100
AcDbVertex
100
AcDb3dPolylineVertex
 10
-0.1698922502223343
 20
0.7346618312467968
 30
0.0
 70
    32
  0
VERTEX
  5
37B
330
320
100
AcDbEntity
  8
BLOCKS
100
AcDbVertex
100
AcDb3dPolylineVertex
 10
-0.1695792055779509
 20
0.7351000937488767
 30
0.0
 70
    32
  0
VERTEX
  5
37C
330
320
100
AcDbEntity
  8
BLOCKS
100
AcDbVertex
100
AcDb3dPolylineVertex
 10
-0.1692669957193783
 20
0.7355425301795373
 30
0.0
 70
    32
  0
VERTEX
  5
37D
330
320
100
AcDbEntity
  8
BLOCKS
100
AcDbVertex
100
AcDb3dPolylineVertex
 10
-0.1689572902179543
 20
0.7359883057530619
 30
0.0
 70
    32
  0
VERTEX
  5
37E
330
320
100
AcDbEntity
  8
BLOCKS
100
AcDbVertex
100
AcDb3dPolylineVertex
 10
-0.1686484195022462
 20
0.7364374204694509
 30
0.0
 70
    32
  0
VERTEX
  5
37F
330
320
100
AcDbEntity
  8
BLOCKS
100
AcDbVertex
100
AcDb3dPolylineVertex
 10
-0.1683412183578753
 20
0.7368898743287037
 30
0.0
 70
    32
  0
VERTEX
  5
380
330
320
100
AcDbEntity
  8
BLOCKS
100
AcDbVertex
100
AcDb3dPolylineVertex
 10
-0.168035686785031
 20
0.7373465021165373
 30
0.0
 70
    32
  0
VERTEX
  5
381
330
320
100
AcDbEntity
  8
BLOCKS
100
AcDbVertex
100
AcDb3dPolylineVertex
 10
-0.1677318247836194
 20
0.7378056342615191
 30
0.0
 70
    32
  0
VERTEX
  5
382
330
320
100
AcDbEntity
  8
BLOCKS
100
AcDbVertex
100
AcDb3dPolylineVertex
 10
-0.1674287975679238
 20
0.7382681055493653
 30
0.0
 70
    32
  0
VERTEX
  5
383
330
320
100
AcDbEntity
  8
BLOCKS
100
AcDbVertex
100
AcDb3dPolylineVertex
 10
-0.1671274399236603
 20
0.738734750765887
 30
0.0
 70
    32
  0
VERTEX
  5
384
330
320
100
AcDbEntity
  8
BLOCKS
100
AcDbVertex
100
AcDb3dPolylineVertex
 10
-0.1668285866365454
 20
0.739204735125178
 30
0.0
 70
    32
  0
VERTEX
  5
385
330
320
100
AcDbEntity
  8
BLOCKS
100
AcDbVertex
100
AcDb3dPolylineVertex
 10
-0.1665305681351464
 20
0.7396772238417117
 30
0.0
 70
    32
  0
VERTEX
  5
386
330
320
100
AcDbEntity
  8
BLOCKS
100
AcDbVertex
100
AcDb3dPolylineVertex
 10
-0.166234219205179
 20
0.7401538864867315
 30
0.0
 70
    32
  0
VERTEX
  5
387
330
320
100
AcDbEntity
  8
BLOCKS
100
AcDbVertex
100
AcDb3dPolylineVertex
 10
-0.1659395398467393
 20
0.7406330534889941
 30
0.0
 70
    32
  0
VERTEX
  5
388
330
320
100
AcDbEntity
  8
BLOCKS
100
AcDbVertex
100
AcDb3dPolylineVertex
 10
-0.1656456952739205
 20
0.7411163944198371
 30
0.0
 70
    32
  0
VERTEX
  5
389
330
320
100
AcDbEntity
  8
BLOCKS
100
AcDbVertex
100
AcDb3dPolylineVertex
 10
-0.1653543550582498
 20
0.7416022397078281
 30
0.0
 70
    32
  0
VERTEX
  5
38A
330
320
100
AcDbEntity
  8
BLOCKS
100
AcDbVertex
100
AcDb3dPolylineVertex
 10
-0.1650638496282954
 20
0.742091424138684
 30
0.0
 70
    32
  0
VERTEX
  5
38B
330
320
100
AcDbEntity
  8
BLOCKS
100
AcDbVertex
100
AcDb3dPolylineVertex
 10
-0.1647750137698682
 20
0.7425839477124038
 30
0.0
 70
    32
  0
VERTEX
  5
38C
330
320
100
AcDbEntity
  8
BLOCKS
100
AcDbVertex
100
AcDb3dPolylineVertex
 10
-0.1644878474827778
 20
0.7430798104289881
 30
0.0
 70
    32
  0
VERTEX
  5
38D
330
320
100
AcDbEntity
  8
BLOCKS
100
AcDbVertex
100
AcDb3dPolylineVertex
 10
-0.16420235076712
 20
0.7435790122884362
 30
0.0
 70
    32
  0
VERTEX
  5
38E
330
320
100
AcDbEntity
  8
BLOCKS
100
AcDbVertex
100
AcDb3dPolylineVertex
 10
-0.1639185236229889
 20
0.7440815532908443
 30
0.0
 70
    32
  0
VERTEX
  5
38F
330
320
100
AcDbEntity
  8
BLOCKS
100
AcDbVertex
100
AcDb3dPolylineVertex
 10
-0.1636363660501956
 20
0.7445865986503049
 30
0.0
 70
    32
  0
VERTEX
  5
390
330
320
100
AcDbEntity
  8
BLOCKS
100
AcDbVertex
100
AcDb3dPolylineVertex
 10
-0.1633558780489289
 20
0.7450949831527254
 30
0.0
 70
    32
  0
VERTEX
  5
391
330
320
100
AcDbEntity
  8
BLOCKS
100
AcDbVertex
100
AcDb3dPolylineVertex
 10
-0.1630762248332831
 20
0.7456067067979149
 30
0.0
 70
    32
  0
VERTEX
  5
392
330
320
100
AcDbEntity
  8
BLOCKS
100
AcDbVertex
100
AcDb3dPolylineVertex
 10
-0.1627990759748809
 20
0.7461217695860637
 30
0.0
 70
    32
  0
VERTEX
  5
393
330
320
100
AcDbEntity
  8
BLOCKS
100
AcDbVertex
100
AcDb3dPolylineVertex
 10
-0.162522761902195
 20
0.7466393367313612
 30
0.0
 70
    32
  0
VERTEX
  5
394
330
320
100
AcDbEntity
  8
BLOCKS
100
AcDbVertex
100
AcDb3dPolylineVertex
 10
-0.1622481174008459
 20
0.7471602430195225
 30
0.0
 70
    32
  0
VERTEX
  5
395
330
320
100
AcDbEntity
  8
BLOCKS
100
AcDbVertex
100
AcDb3dPolylineVertex
 10
-0.1619759772567403
 20
0.7476836536648324
 30
0.0
 70
    32
  0
VERTEX
  5
396
330
320
100
AcDbEntity
  8
BLOCKS
100
AcDbVertex
100
AcDb3dPolylineVertex
 10
-0.1617046718983505
 20
0.7482112382387221
 30
0.0
 70
    32
  0
VERTEX
  5
397
330
320
100
AcDbEntity
  8
BLOCKS
100
AcDbVertex
100
AcDb3dPolylineVertex
 10
-0.1614350361113929
 20
0.7487404923840444
 30
0.0
 70
    32
  0
VERTEX
  5
398
330
320
100
AcDbEntity
  8
BLOCKS
100
AcDbVertex
100
AcDb3dPolylineVertex
 10
-0.1611670698958676
 20
0.749273920457947
 30
0.0
 70
    32
  0
VERTEX
  5
399
330
320
100
AcDbEntity
  8
BLOCKS
100
AcDbVertex
100
AcDb3dPolylineVertex
 10
-0.1608999384659631
 20
0.7498098528889977
 30
0.0
 70
    32
  0
VERTEX
  5
39A
330
320
100
AcDbEntity
  8
BLOCKS
100
AcDbVertex
100
AcDb3dPolylineVertex
 10
-0.1606353113933022
 20
0.7503482896772919
 30
0.0
 70
    32
  0
VERTEX
  5
39B
330
320
100
AcDbEntity
  8
BLOCKS
100
AcDbVertex
100
AcDb3dPolylineVertex
 10
-0.160372353892073
 20
0.7508900656083552
 30
0.0
 70
    32
  0
VERTEX
  5
39C
330
320
100
AcDbEntity
  8
BLOCKS
100
AcDbVertex
100
AcDb3dPolylineVertex
 10
-0.1601102311765601
 20
0.7514351806822828
 30
0.0
 70
    32
  0
VERTEX
  5
39D
330
320
100
AcDbEntity
  8
BLOCKS
100
AcDbVertex
100
AcDb3dPolylineVertex
 10
-0.1598506128182908
 20
0.7519828001134539
 30
0.0
 70
    32
  0
VERTEX
  5
39E
330
320
100
AcDbEntity
  8
BLOCKS
100
AcDbVertex
100
AcDb3dPolylineVertex
 10
-0.1595918292456417
 20
0.7525329239017731
 30
0.0
 70
    32
  0
VERTEX
  5
39F
330
320
100
AcDbEntity
  8
BLOCKS
100
AcDbVertex
100
AcDb3dPolylineVertex
 10
-0.1593355500301413
 20
0.7530863868328613
 30
0.0
 70
    32
  0
VERTEX
  5
3A0
330
320
100
AcDbEntity
  8
BLOCKS
100
AcDbVertex
100
AcDb3dPolylineVertex
 10
-0.1590801056003573
 20
0.7536423541211929
 30
0.0
 70
    32
  0
VERTEX
  5
3A1
330
320
100
AcDbEntity
  8
BLOCKS
100
AcDbVertex
100
AcDb3dPolylineVertex
 10
-0.1588271655277214
 20
0.7542016605523889
 30
0.0
 70
    32
  0
VERTEX
  5
3A2
330
320
100
AcDbEntity
  8
BLOCKS
100
AcDbVertex
100
AcDb3dPolylineVertex
 10
-0.1585750602408961
 20
0.7547634713407331
 30
0.0
 70
    32
  0
VERTEX
  5
3A3
330
320
100
AcDbEntity
  8
BLOCKS
100
AcDbVertex
100
AcDb3dPolylineVertex
 10
-0.1583246245254082
 20
0.7553277864862258
 30
0.0
 70
    32
  0
VERTEX
  5
3A4
330
320
100
AcDbEntity
  8
BLOCKS
100
AcDbVertex
100
AcDb3dPolylineVertex
 10
-0.1580758583813531
 20
0.7558954407745825
 30
0.0
 70
    32
  0
VERTEX
  5
3A5
330
320
100
AcDbEntity
  8
BLOCKS
100
AcDbVertex
100
AcDb3dPolylineVertex
 10
-0.1578287618088245
 20
0.7564655994200871
 30
0.0
 70
    32
  0
VERTEX
  5
3A6
330
320
100
AcDbEntity
  8
BLOCKS
100
AcDbVertex
100
AcDb3dPolylineVertex
 10
-0.1575833348076327
 20
0.7570382624228352
 30
0.0
 70
    32
  0
VERTEX
  5
3A7
330
320
100
AcDbEntity
  8
BLOCKS
100
AcDbVertex
100
AcDb3dPolylineVertex
 10
-0.157340412163685
 20
0.7576134297826372
 30
0.0
 70
    32
  0
VERTEX
  5
3A8
330
320
100
AcDbEntity
  8
BLOCKS
100
AcDbVertex
100
AcDb3dPolylineVertex
 10
-0.1570983243053575
 20
0.7581919362853029
 30
0.0
 70
    32
  0
VERTEX
  5
3A9
330
320
100
AcDbEntity
  8
BLOCKS
100
AcDbVertex
100
AcDb3dPolylineVertex
 10
-0.1568579060185579
 20
0.7587729471452116
 30
0.0
 70
    32
  0
VERTEX
  5
3AA
330
320
100
AcDbEntity
  8
BLOCKS
100
AcDbVertex
100
AcDb3dPolylineVertex
 10
-0.1566191573031898
 20
0.7593564623621734
 30
0.0
 70
    32
  0
VERTEX
  5
3AB
330
320
100
AcDbEntity
  8
BLOCKS
100
AcDbVertex
100
AcDb3dPolylineVertex
 10
-0.1563820781591596
 20
0.7599424819363794
 30
0.0
 70
    32
  0
VERTEX
  5
3AC
330
320
100
AcDbEntity
  8
BLOCKS
100
AcDbVertex
100
AcDb3dPolylineVertex
 10
-0.156146668586656
 20
0.7605310058676378
 30
0.0
 70
    32
  0
VERTEX
  5
3AD
330
320
100
AcDbEntity
  8
BLOCKS
100
AcDbVertex
100
AcDb3dPolylineVertex
 10
-0.1559129285855846
 20
0.7611228689418557
 30
0.0
 70
    32
  0
VERTEX
  5
3AE
330
320
100
AcDbEntity
  8
BLOCKS
100
AcDbVertex
100
AcDb3dPolylineVertex
 10
-0.1556808581559454
 20
0.7617172363732215
 30
0.0
 70
    32
  0
VERTEX
  5
3AF
330
320
100
AcDbEntity
  8
BLOCKS
100
AcDbVertex
100
AcDb3dPolylineVertex
 10
-0.1554504572976435
 20
0.7623132733760202
 30
0.0
 70
    32
  0
VERTEX
  5
3B0
330
320
100
AcDbEntity
  8
BLOCKS
100
AcDbVertex
100
AcDb3dPolylineVertex
 10
-0.1552217260108688
 20
0.7629126495216827
 30
0.0
 70
    32
  0
VERTEX
  5
3B1
330
320
100
AcDbEntity
  8
BLOCKS
100
AcDbVertex
100
AcDb3dPolylineVertex
 10
-0.1549946642955263
 20
0.7635145300244933
 30
0.0
 70
    32
  0
VERTEX
  5
3B2
330
320
100
AcDbEntity
  8
BLOCKS
100
AcDbVertex
100
AcDb3dPolylineVertex
 10
-0.1547692721516154
 20
0.7641180800987365
 30
0.0
 70
    32
  0
VERTEX
  5
3B3
330
320
100
AcDbEntity
  8
BLOCKS
100
AcDbVertex
100
AcDb3dPolylineVertex
 10
-0.1545455495791373
 20
0.7647249693158438
 30
0.0
 70
    32
  0
VERTEX
  5
3B4
330
320
100
AcDbEntity
  8
BLOCKS
100
AcDbVertex
100
AcDb3dPolylineVertex
 10
-0.1543234965781858
 20
0.7653343628900991
 30
0.0
 70
    32
  0
VERTEX
  5
3B5
330
320
100
AcDbEntity
  8
BLOCKS
100
AcDbVertex
100
AcDb3dPolylineVertex
 10
-0.1541031131485721
 20
0.765945426035882
 30
0.0
 70
    32
  0
VERTEX
  5
3B6
330
320
100
AcDbEntity
  8
BLOCKS
100
AcDbVertex
100
AcDb3dPolylineVertex
 10
-0.1538843992903901
 20
0.766559828324434
 30
0.0
 70
    32
  0
VERTEX
  5
3B7
330
320
100
AcDbEntity
  8
BLOCKS
100
AcDbVertex
100
AcDb3dPolylineVertex
 10
-0.1536673550036403
 20
0.767175900184418
 30
0.0
 70
    32
  0
VERTEX
  5
3B8
330
320
100
AcDbEntity
  8
BLOCKS
100
AcDbVertex
100
AcDb3dPolylineVertex
 10
-0.1534519802883227
 20
0.7677944764016451
 30
0.0
 70
    32
  0
VERTEX
  5
3B9
330
320
100
AcDbEntity
  8
BLOCKS
100
AcDbVertex
100
AcDb3dPolylineVertex
 10
-0.1532391099302481
 20
0.7684155569759259
 30
0.0
 70
    32
  0
VERTEX
  5
3BA
330
320
100
AcDbEntity
  8
BLOCKS
100
AcDbVertex
100
AcDb3dPolylineVertex
 10
-0.153027074357795
 20
0.7690391419074496
 30
0.0
 70
    32
  0
VERTEX
  5
3BB
330
320
100
AcDbEntity
  8
BLOCKS
100
AcDbVertex
100
AcDb3dPolylineVertex
 10
-0.1528167083567735
 20
0.7696652311960271
 30
0.0
 70
    32
  0
VERTEX
  5
3BC
330
320
100
AcDbEntity
  8
BLOCKS
100
AcDbVertex
100
AcDb3dPolylineVertex
 10
-0.1526080119272797
 20
0.7702938248418474
 30
0.0
 70
    32
  0
VERTEX
  5
3BD
330
320
100
AcDbEntity
  8
BLOCKS
100
AcDbVertex
100
AcDb3dPolylineVertex
 10
-0.152401819854839
 20
0.7709240880590995
 30
0.0
 70
    32
  0
VERTEX
  5
3BE
330
320
100
AcDbEntity
  8
BLOCKS
100
AcDbVertex
100
AcDb3dPolylineVertex
 10
-0.1521964625682091
 20
0.7715568556335001
 30
0.0
 70
    32
  0
VERTEX
  5
3BF
330
320
100
AcDbEntity
  8
BLOCKS
100
AcDbVertex
100
AcDb3dPolylineVertex
 10
-0.1519936096387278
 20
0.7721921275650488
 30
0.0
 70
    32
  0
VERTEX
  5
3C0
330
320
100
AcDbEntity
  8
BLOCKS
100
AcDbVertex
100
AcDb3dPolylineVertex
 10
-0.1517915914948674
 20
0.7728290690680302
 30
0.0
 70
    32
  0
VERTEX
  5
3C1
330
320
100
AcDbEntity
  8
BLOCKS
100
AcDbVertex
100
AcDb3dPolylineVertex
 10
-0.1515920777082499
 20
0.7734685149281592
 30
0.0
 70
    32
  0
VERTEX
  5
3C2
330
320
100
AcDbEntity
  8
BLOCKS
100
AcDbVertex
100
AcDb3dPolylineVertex
 10
-0.1513942334930653
 20
0.7741104651454367
 30
0.0
 70
    32
  0
VERTEX
  5
3C3
330
320
100
AcDbEntity
  8
BLOCKS
100
AcDbVertex
100
AcDb3dPolylineVertex
 10
-0.1511972240635009
 20
0.7747540849341466
 30
0.0
 70
    32
  0
VERTEX
  5
3C4
330
320
100
AcDbEntity
  8
BLOCKS
100
AcDbVertex
100
AcDb3dPolylineVertex
 10
-0.1510027189911807
 20
0.7754002090800043
 30
0.0
 70
    32
  0
VERTEX
  5
3C5
330
320
100
AcDbEntity
  8
BLOCKS
100
AcDbVertex
100
AcDb3dPolylineVertex
 10
-0.1508098834902921
 20
0.7760488375830102
 30
0.0
 70
    32
  0
VERTEX
  5
3C6
330
320
100
AcDbEntity
  8
BLOCKS
100
AcDbVertex
100
AcDb3dPolylineVertex
 10
-0.1506187175608352
 20
0.7766991356575437
 30
0.0
 70
    32
  0
VERTEX
  5
3C7
330
320
100
AcDbEntity
  8
BLOCKS
100
AcDbVertex
100
AcDb3dPolylineVertex
 10
-0.1504292212028111
 20
0.7773519380891304
 30
0.0
 70
    32
  0
VERTEX
  5
3C8
330
320
100
AcDbEntity
  8
BLOCKS
100
AcDbVertex
100
AcDb3dPolylineVertex
 10
-0.150242229201935
 20
0.7780064100921488
 30
0.0
 70
    32
  0
VERTEX
  5
3C9
330
320
100
AcDbEntity
  8
BLOCKS
100
AcDbVertex
100
AcDb3dPolylineVertex
 10
-0.1500560719867752
 20
0.7786625516666948
 30
0.0
 70
    32
  0
VERTEX
  5
3CA
330
320
100
AcDbEntity
  8
BLOCKS
100
AcDbVertex
100
AcDb3dPolylineVertex
 10
-0.1498715843430472
 20
0.7793220323840098
 30
0.0
 70
    32
  0
VERTEX
  5
3CB
330
320
100
AcDbEntity
  8
BLOCKS
100
AcDbVertex
100
AcDb3dPolylineVertex
 10
-0.1496896010564677
 20
0.7799823478871361
 30
0.0
 70
    32
  0
VERTEX
  5
3CC
330
320
100
AcDbEntity
  8
BLOCKS
100
AcDbVertex
100
AcDb3dPolylineVertex
 10
-0.1495084525556041
 20
0.7806451677474098
 30
0.0
 70
    32
  0
VERTEX
  5
3CD
330
320
100
AcDbEntity
  8
BLOCKS
100
AcDbVertex
100
AcDb3dPolylineVertex
 10
-0.149329808411984
 20
0.7813104919647378
 30
0.0
 70
    32
  0
VERTEX
  5
3CE
330
320
100
AcDbEntity
  8
BLOCKS
100
AcDbVertex
100
AcDb3dPolylineVertex
 10
-0.1491528338397006
 20
0.7819766509678767
 30
0.0
 70
    32
  0
VERTEX
  5
3CF
330
320
100
AcDbEntity
  8
BLOCKS
100
AcDbVertex
100
AcDb3dPolylineVertex
 10
-0.14897752883885
 20
0.7826461491138792
 30
0.0
 70
    32
  0
VERTEX
  5
3D0
330
320
100
AcDbEntity
  8
BLOCKS
100
AcDbVertex
100
AcDb3dPolylineVertex
 10
-0.148803893409526
 20
0.7833164820455983
 30
0.0
 70
    32
  0
VERTEX
  5
3D1
330
320
100
AcDbEntity
  8
BLOCKS
100
AcDbVertex
100
AcDb3dPolylineVertex
 10
-0.1486319275515393
 20
0.783989319334466
 30
0.0
 70
    32
  0
VERTEX
  5
3D2
330
320
100
AcDbEntity
  8
BLOCKS
100
AcDbVertex
100
AcDb3dPolylineVertex
 10
-0.1484616312650797
 20
0.7846638261946702
 30
0.0
 70
    32
  0
VERTEX
  5
3D3
330
320
100
AcDbEntity
  8
BLOCKS
100
AcDbVertex
100
AcDb3dPolylineVertex
 10
-0.1482938393356739
 20
0.7853400026264019
 30
0.0
 70
    32
  0
VERTEX
  5
3D4
330
320
100
AcDbEntity
  8
BLOCKS
100
AcDbVertex
100
AcDb3dPolylineVertex
 10
-0.1481268821920781
 20
0.7860186834153769
 30
0.0
 70
    32
  0
VERTEX
  5
3D5
330
320
100
AcDbEntity
  8
BLOCKS
100
AcDbVertex
100
AcDb3dPolylineVertex
 10
-0.1479624294055367
 20
0.7866990337756886
 30
0.0
 70
    32
  0
VERTEX
  5
3D6
330
320
100
AcDbEntity
  8
BLOCKS
100
AcDbVertex
100
AcDb3dPolylineVertex
 10
-0.1477996461905218
 20
0.7873810537074332
 30
0.0
 70
    32
  0
VERTEX
  5
3D7
330
320
100
AcDbEntity
  8
BLOCKS
100
AcDbVertex
100
AcDb3dPolylineVertex
 10
-0.1476385325469391
 20
0.7880647432106094
 30
0.0
 70
    32
  0
VERTEX
  5
3D8
330
320
100
AcDbEntity
  8
BLOCKS
100
AcDbVertex
100
AcDb3dPolylineVertex
 10
-0.1474790884746932
 20
0.7887509370709336
 30
0.0
 70
    32
  0
VERTEX
  5
3D9
330
320
100
AcDbEntity
  8
BLOCKS
100
AcDbVertex
100
AcDb3dPolylineVertex
 10
-0.147321313973975
 20
0.7894379657169743
 30
0.0
 70
    32
  0
VERTEX
  5
3DA
330
320
100
AcDbEntity
  8
BLOCKS
100
AcDbVertex
100
AcDb3dPolylineVertex
 10
-0.1471660438304048
 20
0.7901274987202584
 30
0.0
 70
    32
  0
VERTEX
  5
3DB
330
320
100
AcDbEntity
  8
BLOCKS
100
AcDbVertex
100
AcDb3dPolylineVertex
 10
-0.147011608472551
 20
0.7908178665091629
 30
0.0
 70
    32
  0
VERTEX
  5
3DC
330
320
100
AcDbEntity
  8
BLOCKS
100
AcDbVertex
100
AcDb3dPolylineVertex
 10
-0.1468596774718452
 20
0.7915107386553109
 30
0.0
 70
    32
  0
VERTEX
  5
3DD
330
320
100
AcDbEntity
  8
BLOCKS
100
AcDbVertex
100
AcDb3dPolylineVertex
 10
-0.1467094160425711
 20
0.7922052803727963
 30
0.0
 70
    32
  0
VERTEX
  5
3DE
330
320
100
AcDbEntity
  8
BLOCKS
100
AcDbVertex
100
AcDb3dPolylineVertex
 10
-0.1465608241847298
 20
0.7929014916618087
 30
0.0
 70
    32
  0
VERTEX
  5
3DF
330
320
100
AcDbEntity
  8
BLOCKS
100
AcDbVertex
100
AcDb3dPolylineVertex
 10
-0.1464147366840365
 20
0.7935993725221584
 30
0.0
 70
    32
  0
VERTEX
  5
3E0
330
320
100
AcDbEntity
  8
BLOCKS
100
AcDbVertex
100
AcDb3dPolylineVertex
 10
-0.146269483969059
 20
0.7942989229540349
 30
0.0
 70
    32
  0
VERTEX
  5
3E1
330
320
100
AcDbEntity
  8
BLOCKS
100
AcDbVertex
100
AcDb3dPolylineVertex
 10
-0.1461267356112302
 20
0.795000142957249
 30
0.0
 70
    32
  0
VERTEX
  5
3E2
330
320
100
AcDbEntity
  8
BLOCKS
100
AcDbVertex
100
AcDb3dPolylineVertex
 10
-0.1459856568249285
 20
0.795702197746274
 30
0.0
 70
    32
  0
VERTEX
  5
3E3
330
320
100
AcDbEntity
  8
BLOCKS
100
AcDbVertex
100
AcDb3dPolylineVertex
 10
-0.1458462476099635
 20
0.7964067568924469
 30
0.0
 70
    32
  0
VERTEX
  5
3E4
330
320
100
AcDbEntity
  8
BLOCKS
100
AcDbVertex
100
AcDb3dPolylineVertex
 10
-0.1457085079664313
 20
0.7971129856100526
 30
0.0
 70
    32
  0
VERTEX
  5
3E5
330
320
100
AcDbEntity
  8
BLOCKS
100
AcDbVertex
100
AcDb3dPolylineVertex
 10
-0.1455724378944257
 20
0.7978200491132787
 30
0.0
 70
    32
  0
VERTEX
  5
3E6
330
320
100
AcDbEntity
  8
BLOCKS
100
AcDbVertex
100
AcDb3dPolylineVertex
 10
-0.1454388721794737
 20
0.7985287821880326
 30
0.0
 70
    32
  0
VERTEX
  5
3E7
330
320
100
AcDbEntity
  8
BLOCKS
100
AcDbVertex
100
AcDb3dPolylineVertex
 10
-0.1453069760360484
 20
0.7992400196199344
 30
0.0
 70
    32
  0
VERTEX
  5
3E8
330
320
100
AcDbEntity
  8
BLOCKS
100
AcDbVertex
100
AcDb3dPolylineVertex
 10
-0.1451767494639608
 20
0.7999520918375521
 30
0.0
 70
    32
  0
VERTEX
  5
3E9
330
320
100
AcDbEntity
  8
BLOCKS
100
AcDbVertex
100
AcDb3dPolylineVertex
 10
-0.1450481924633999
 20
0.8006649988408861
 30
0.0
 70
    32
  0
VERTEX
  5
3EA
330
320
100
AcDbEntity
  8
BLOCKS
100
AcDbVertex
100
AcDb3dPolylineVertex
 10
-0.1449213050341763
 20
0.8013804102013683
 30
0.0
 70
    32
  0
VERTEX
  5
3EB
330
320
100
AcDbEntity
  8
BLOCKS
100
AcDbVertex
100
AcDb3dPolylineVertex
 10
-0.1447969219621962
 20
0.8020966563475667
 30
0.0
 70
    32
  0
VERTEX
  5
3EC
330
320
100
AcDbEntity
  8
BLOCKS
100
AcDbVertex
100
AcDb3dPolylineVertex
 10
-0.1446742084616477
 20
0.8028145720651968
 30
0.0
 70
    32
  0
VERTEX
  5
3ED
330
320
100
AcDbEntity
  8
BLOCKS
100
AcDbVertex
100
AcDb3dPolylineVertex
 10
-0.144553164532532
 20
0.8035341573542591
 30
0.0
 70
    32
  0
VERTEX
  5
3EE
330
320
100
AcDbEntity
  8
BLOCKS
100
AcDbVertex
100
AcDb3dPolylineVertex
 10
-0.1444337901747531
 20
0.804254577429133
 30
0.0
 70
    32
  0
VERTEX
  5
3EF
330
320
100
AcDbEntity
  8
BLOCKS
100
AcDbVertex
100
AcDb3dPolylineVertex
 10
-0.1443169201742171
 20
0.804976667075344
 30
0.0
 70
    32
  0
VERTEX
  5
3F0
330
320
100
AcDbEntity
  8
BLOCKS
100
AcDbVertex
100
AcDb3dPolylineVertex
 10
-0.1442017197451139
 20
0.8056995915072707
 30
0.0
 70
    32
  0
VERTEX
  5
3F1
330
320
100
AcDbEntity
  8
BLOCKS
100
AcDbVertex
100
AcDb3dPolylineVertex
 10
-0.1440881888874423
 20
0.806425020296346
 30
0.0
 70
    32
  0
VERTEX
  5
3F2
330
320
100
AcDbEntity
  8
BLOCKS
100
AcDbVertex
100
AcDb3dPolylineVertex
 10
-0.143976327601203
 20
0.8071504490855158
 30
0.0
 70
    32
  0
VERTEX
  5
3F3
330
320
100
AcDbEntity
  8
BLOCKS
100
AcDbVertex
100
AcDb3dPolylineVertex
 10
-0.1438669706721123
 20
0.8078783822317394
 30
0.0
 70
    32
  0
VERTEX
  5
3F4
330
320
100
AcDbEntity
  8
BLOCKS
100
AcDbVertex
100
AcDb3dPolylineVertex
 10
-0.1437592833144538
 20
0.8086071501636787
 30
0.0
 70
    32
  0
VERTEX
  5
3F5
330
320
100
AcDbEntity
  8
BLOCKS
100
AcDbVertex
100
AcDb3dPolylineVertex
 10
-0.1436532655283218
 20
0.8093367528814292
 30
0.0
 70
    32
  0
VERTEX
  5
3F6
330
320
100
AcDbEntity
  8
BLOCKS
100
AcDbVertex
100
AcDb3dPolylineVertex
 10
-0.1435489173135272
 20
0.8100680251705165
 30
0.0
 70
    32
  0
VERTEX
  5
3F7
330
320
100
AcDbEntity
  8
BLOCKS
100
AcDbVertex
100
AcDb3dPolylineVertex
 10
-0.1434462386701648
 20
0.8108001322454157
 30
0.0
 70
    32
  0
VERTEX
  5
3F8
330
320
100
AcDbEntity
  8
BLOCKS
100
AcDbVertex
100
AcDb3dPolylineVertex
 10
-0.143346064383951
 20
0.811533908891651
 30
0.0
 70
    32
  0
VERTEX
  5
3F9
330
320
100
AcDbEntity
  8
BLOCKS
100
AcDbVertex
100
AcDb3dPolylineVertex
 10
-0.1432475596692637
 20
0.8122685203236983
 30
0.0
 70
    32
  0
VERTEX
  5
3FA
330
320
100
AcDbEntity
  8
BLOCKS
100
AcDbVertex
100
AcDb3dPolylineVertex
 10
-0.1431515593116302
 20
0.8130048013270823
 30
0.0
 70
    32
  0
VERTEX
  5
3FB
330
320
100
AcDbEntity
  8
BLOCKS
100
AcDbVertex
100
AcDb3dPolylineVertex
 10
-0.1430563937398074
 20
0.8137419171162775
 30
0.0
 70
    32
  0
VERTEX
  5
3FC
330
320
100
AcDbEntity
  8
BLOCKS
100
AcDbVertex
100
AcDb3dPolylineVertex
 10
-0.1429637325250383
 20
0.8144798676911888
 30
0.0
 70
    32
  0
VERTEX
  5
3FD
330
320
100
AcDbEntity
  8
BLOCKS
100
AcDbVertex
100
AcDb3dPolylineVertex
 10
-0.1428735756675115
 20
0.8152194878374372
 30
0.0
 70
    32
  0
VERTEX
  5
3FE
330
320
100
AcDbEntity
  8
BLOCKS
100
AcDbVertex
100
AcDb3dPolylineVertex
 10
-0.1427842535957018
 20
0.8159599427694962
 30
0.0
 70
    32
  0
VERTEX
  5
3FF
330
320
100
AcDbEntity
  8
BLOCKS
100
AcDbVertex
100
AcDb3dPolylineVertex
 10
-0.1426974358809446
 20
0.8167012324872718
 30
0.0
 70
    32
  0
VERTEX
  5
400
330
320
100
AcDbEntity
  8
BLOCKS
100
AcDbVertex
100
AcDb3dPolylineVertex
 10
-0.142612287737715
 20
0.81744419177648
 30
0.0
 70
    32
  0
VERTEX
  5
401
330
320
100
AcDbEntity
  8
BLOCKS
100
AcDbVertex
100
AcDb3dPolylineVertex
 10
-0.1425288091659172
 20
0.8181879858513088
 30
0.0
 70
    32
  0
VERTEX
  5
402
330
320
100
AcDbEntity
  8
BLOCKS
100
AcDbVertex
100
AcDb3dPolylineVertex
 10
-0.142447834951268
 20
0.8189326147119487
 30
0.0
 70
    32
  0
VERTEX
  5
403
330
320
100
AcDbEntity
  8
BLOCKS
100
AcDbVertex
100
AcDb3dPolylineVertex
 10
-0.142368530307956
 20
0.8196780783583045
 30
0.0
 70
    32
  0
VERTEX
  5
404
330
320
100
AcDbEntity
  8
BLOCKS
100
AcDbVertex
100
AcDb3dPolylineVertex
 10
-0.1422908952361706
 20
0.8204243767903761
 30
0.0
 70
    32
  0
VERTEX
  5
405
330
320
100
AcDbEntity
  8
BLOCKS
100
AcDbVertex
100
AcDb3dPolylineVertex
 10
-0.1422157645215339
 20
0.8211723447938805
 30
0.0
 70
    32
  0
VERTEX
  5
406
330
320
100
AcDbEntity
  8
BLOCKS
100
AcDbVertex
100
AcDb3dPolylineVertex
 10
-0.1421423033783293
 20
0.8219211475831007
 30
0.0
 70
    32
  0
VERTEX
  5
407
330
320
100
AcDbEntity
  8
BLOCKS
100
AcDbVertex
100
AcDb3dPolylineVertex
 10
-0.1420705118066513
 20
0.8226707851580369
 30
0.0
 70
    32
  0
VERTEX
  5
408
330
320
100
AcDbEntity
  8
BLOCKS
100
AcDbVertex
100
AcDb3dPolylineVertex
 10
-0.142001224592027
 20
0.8234212575186893
 30
0.0
 70
    32
  0
VERTEX
  5
409
330
320
100
AcDbEntity
  8
BLOCKS
100
AcDbVertex
100
AcDb3dPolylineVertex
 10
-0.1419336069488349
 20
0.8241725646650575
 30
0.0
 70
    32
  0
VERTEX
  5
40A
330
320
100
AcDbEntity
  8
BLOCKS
100
AcDbVertex
100
AcDb3dPolylineVertex
 10
-0.1418676588770751
 20
0.8249247065971424
 30
0.0
 70
    32
  0
VERTEX
  5
40B
330
320
100
AcDbEntity
  8
BLOCKS
100
AcDbVertex
100
AcDb3dPolylineVertex
 10
-0.1418033803767474
 20
0.8256776833149428
 30
0.0
 70
    32
  0
VERTEX
  5
40C
330
320
100
AcDbEntity
  8
BLOCKS
100
AcDbVertex
100
AcDb3dPolylineVertex
 10
-0.1417416062336628
 20
0.8264314948184596
 30
0.0
 70
    32
  0
VERTEX
  5
40D
330
320
100
AcDbEntity
  8
BLOCKS
100
AcDbVertex
100
AcDb3dPolylineVertex
 10
-0.1416823364476312
 20
0.8271861411076923
 30
0.0
 70
    32
  0
VERTEX
  5
40E
330
320
100
AcDbEntity
  8
BLOCKS
100
AcDbVertex
100
AcDb3dPolylineVertex
 10
-0.141623901447411
 20
0.8279416221826414
 30
0.0
 70
    32
  0
VERTEX
  5
40F
330
320
100
AcDbEntity
  8
BLOCKS
100
AcDbVertex
100
AcDb3dPolylineVertex
 10
-0.1415679708042438
 20
0.8286979380433063
 30
0.0
 70
    32
  0
VERTEX
  5
410
330
320
100
AcDbEntity
  8
BLOCKS
100
AcDbVertex
100
AcDb3dPolylineVertex
 10
-0.1415137097326038
 20
0.8294550886896871
 30
0.0
 70
    32
  0
VERTEX
  5
411
330
320
100
AcDbEntity
  8
BLOCKS
100
AcDbVertex
100
AcDb3dPolylineVertex
 10
-0.141461953018017
 20
0.8302130741217844
 30
0.0
 70
    32
  0
VERTEX
  5
412
330
320
100
AcDbEntity
  8
BLOCKS
100
AcDbVertex
100
AcDb3dPolylineVertex
 10
-0.1414118658749578
 20
0.8309718943395973
 30
0.0
 70
    32
  0
VERTEX
  5
413
330
320
100
AcDbEntity
  8
BLOCKS
100
AcDbVertex
100
AcDb3dPolylineVertex
 10
-0.1413634483033303
 20
0.8317307145575052
 30
0.0
 70
    32
  0
VERTEX
  5
414
330
320
100
AcDbEntity
  8
BLOCKS
100
AcDbVertex
100
AcDb3dPolylineVertex
 10
-0.1413175350888508
 20
0.8324912043467504
 30
0.0
 70
    32
  0
VERTEX
  5
415
330
320
100
AcDbEntity
  8
BLOCKS
100
AcDbVertex
100
AcDb3dPolylineVertex
 10
-0.1412732914457092
 20
0.833251694135996
 30
0.0
 70
    32
  0
VERTEX
  5
416
330
320
100
AcDbEntity
  8
BLOCKS
100
AcDbVertex
100
AcDb3dPolylineVertex
 10
-0.14123155215981
 20
0.8340130187109576
 30
0.0
 70
    32
  0
VERTEX
  5
417
330
320
100
AcDbEntity
  8
BLOCKS
100
AcDbVertex
100
AcDb3dPolylineVertex
 10
-0.1411914824453436
 20
0.8347743432860136
 30
0.0
 70
    32
  0
VERTEX
  5
418
330
320
100
AcDbEntity
  8
BLOCKS
100
AcDbVertex
100
AcDb3dPolylineVertex
 10
-0.1411530823023088
 20
0.8355373374324074
 30
0.0
 70
    32
  0
VERTEX
  5
419
330
320
100
AcDbEntity
  8
BLOCKS
100
AcDbVertex
100
AcDb3dPolylineVertex
 10
-0.1411163517307068
 20
0.8363003315788006
 30
0.0
 70
    32
  0
VERTEX
  5
41A
330
320
100
AcDbEntity
  8
BLOCKS
100
AcDbVertex
100
AcDb3dPolylineVertex
 10
-0.1410821255162528
 20
0.8370633257251945
 30
0.0
 70
    32
  0
VERTEX
  5
41B
330
320
100
AcDbEntity
  8
BLOCKS
100
AcDbVertex
100
AcDb3dPolylineVertex
 10
-0.1410504036589469
 20
0.8378279894431148
 30
0.0
 70
    32
  0
VERTEX
  5
41C
330
320
100
AcDbEntity
  8
BLOCKS
100
AcDbVertex
100
AcDb3dPolylineVertex
 10
-0.1410195165874518
 20
0.8385918183752243
 30
0.0
 70
    32
  0
VERTEX
  5
41D
330
320
100
AcDbEntity
  8
BLOCKS
100
AcDbVertex
100
AcDb3dPolylineVertex
 10
-0.1409911338730103
 20
0.8393564820930505
 30
0.0
 70
    32
  0
VERTEX
  5
41E
330
320
100
AcDbEntity
  8
BLOCKS
100
AcDbVertex
100
AcDb3dPolylineVertex
 10
-0.1409652555157169
 20
0.8401211458109708
 30
0.0
 70
    32
  0
VERTEX
  5
41F
330
320
100
AcDbEntity
  8
BLOCKS
100
AcDbVertex
100
AcDb3dPolylineVertex
 10
-0.1409410467298557
 20
0.8408866443145125
 30
0.0
 70
    32
  0
VERTEX
  5
420
330
320
100
AcDbEntity
  8
BLOCKS
100
AcDbVertex
100
AcDb3dPolylineVertex
 10
-0.1409185075155216
 20
0.8416521428181493
 30
0.0
 70
    32
  0
SEQEND
  5
421
330
320
100
AcDbEntity
  8
BLOCKS
  0
POLYLINE
  5
422
330
2D4
100
AcDbEntity
  8
BLOCKS
100
AcDb3dPolyline
 66
     1
 10
0.0
 20
0.0
 30
0.0
 70
     8
  0
VERTEX
  5
423
330
422
100
AcDbEntity
  8
BLOCKS
100
AcDbVertex
100
AcDb3dPolylineVertex
 10
-0.2076496082558345
 20
0.7197734279629607
 30
0.0
 70
    32
  0
VERTEX
  5
424
330
422
100
AcDbEntity
  8
BLOCKS
100
AcDbVertex
100
AcDb3dPolylineVertex
 10
-0.2069316925382037
 20
0.7197834453915534
 30
0.0
 70
    32
  0
VERTEX
  5
425
330
422
100
AcDbEntity
  8
BLOCKS
100
AcDbVertex
100
AcDb3dPolylineVertex
 10
-0.2062137768205736
 20
0.7198126628917113
 30
0.0
 70
    32
  0
VERTEX
  5
426
330
422
100
AcDbEntity
  8
BLOCKS
100
AcDbVertex
100
AcDb3dPolylineVertex
 10
-0.2054966958886593
 20
0.7198619152491494
 30
0.0
 70
    32
  0
VERTEX
  5
427
330
422
100
AcDbEntity
  8
BLOCKS
100
AcDbVertex
100
AcDb3dPolylineVertex
 10
-0.2047787801710285
 20
0.7199303676779624
 30
0.0
 70
    32
  0
VERTEX
  5
428
330
422
100
AcDbEntity
  8
BLOCKS
100
AcDbVertex
100
AcDb3dPolylineVertex
 10
-0.2040625340248306
 20
0.7200188549641519
 30
0.0
 70
    32
  0
VERTEX
  5
429
330
422
100
AcDbEntity
  8
BLOCKS
100
AcDbVertex
100
AcDb3dPolylineVertex
 10
-0.2033462878786321
 20
0.7201265423218104
 30
0.0
 70
    32
  0
VERTEX
  5
42A
330
422
100
AcDbEntity
  8
BLOCKS
100
AcDbVertex
100
AcDb3dPolylineVertex
 10
-0.2026300417324342
 20
0.7202534297509392
 30
0.0
 70
    32
  0
VERTEX
  5
42B
330
422
100
AcDbEntity
  8
BLOCKS
100
AcDbVertex
100
AcDb3dPolylineVertex
 10
-0.2019154651576679
 20
0.7204003520373483
 30
0.0
 70
    32
  0
VERTEX
  5
42C
330
422
100
AcDbEntity
  8
BLOCKS
100
AcDbVertex
100
AcDb3dPolylineVertex
 10
-0.201201723368618
 20
0.720567309180944
 30
0.0
 70
    32
  0
VERTEX
  5
42D
330
422
100
AcDbEntity
  8
BLOCKS
100
AcDbVertex
100
AcDb3dPolylineVertex
 10
-0.2004888163652839
 20
0.7207526316103879
 30
0.0
 70
    32
  0
VERTEX
  5
42E
330
422
100
AcDbEntity
  8
BLOCKS
100
AcDbVertex
100
AcDb3dPolylineVertex
 10
-0.1997767441476662
 20
0.7209579888971121
 30
0.0
 70
    32
  0
VERTEX
  5
42F
330
422
100
AcDbEntity
  8
BLOCKS
100
AcDbVertex
100
AcDb3dPolylineVertex
 10
-0.1990655067157644
 20
0.7211825462553066
 30
0.0
 70
    32
  0
VERTEX
  5
430
330
422
100
AcDbEntity
  8
BLOCKS
100
AcDbVertex
100
AcDb3dPolylineVertex
 10
-0.1983559388552948
 20
0.7214271384706871
 30
0.0
 70
    32
  0
VERTEX
  5
431
330
422
100
AcDbEntity
  8
BLOCKS
100
AcDbVertex
100
AcDb3dPolylineVertex
 10
-0.1976480405662573
 20
0.7216909307576321
 30
0.0
 70
    32
  0
VERTEX
  5
432
330
422
100
AcDbEntity
  8
BLOCKS
100
AcDbVertex
100
AcDb3dPolylineVertex
 10
-0.1969418118486516
 20
0.7219739231161419
 30
0.0
 70
    32
  0
VERTEX
  5
433
330
422
100
AcDbEntity
  8
BLOCKS
100
AcDbVertex
100
AcDb3dPolylineVertex
 10
-0.1962364179168577
 20
0.7222752807604053
 30
0.0
 70
    32
  0
VERTEX
  5
434
330
422
100
AcDbEntity
  8
BLOCKS
100
AcDbVertex
100
AcDb3dPolylineVertex
 10
-0.1955335283421164
 20
0.7225966732618549
 30
0.0
 70
    32
  0
VERTEX
  5
435
330
422
100
AcDbEntity
  8
BLOCKS
100
AcDbVertex
100
AcDb3dPolylineVertex
 10
-0.1948323083388078
 20
0.7229372658348683
 30
0.0
 70
    32
  0
VERTEX
  5
436
330
422
100
AcDbEntity
  8
BLOCKS
100
AcDbVertex
100
AcDb3dPolylineVertex
 10
-0.1941327579070259
 20
0.7232970584794475
 30
0.0
 70
    32
  0
VERTEX
  5
437
330
422
100
AcDbEntity
  8
BLOCKS
100
AcDbVertex
100
AcDb3dPolylineVertex
 10
-0.1934348770465811
 20
0.7236760511954959
 30
0.0
 70
    32
  0
VERTEX
  5
438
330
422
100
AcDbEntity
  8
BLOCKS
100
AcDbVertex
100
AcDb3dPolylineVertex
 10
-0.1927395005432851
 20
0.7240742439831093
 30
0.0
 70
    32
  0
VERTEX
  5
439
330
422
100
AcDbEntity
  8
BLOCKS
100
AcDbVertex
100
AcDb3dPolylineVertex
 10
-0.192046628397232
 20
0.7244908020564759
 30
0.0
 70
    32
  0
VERTEX
  5
43A
330
422
100
AcDbEntity
  8
BLOCKS
100
AcDbVertex
100
AcDb3dPolylineVertex
 10
-0.1913562606083269
 20
0.7249265602013128
 30
0.0
 70
    32
  0
VERTEX
  5
43B
330
422
100
AcDbEntity
  8
BLOCKS
100
AcDbVertex
100
AcDb3dPolylineVertex
 10
-0.1906675623907592
 20
0.7253806836319984
 30
0.0
 70
    32
  0
VERTEX
  5
43C
330
422
100
AcDbEntity
  8
BLOCKS
100
AcDbVertex
100
AcDb3dPolylineVertex
 10
-0.1899822033161507
 20
0.7258540071342481
 30
0.0
 70
    32
  0
VERTEX
  5
43D
330
422
100
AcDbEntity
  8
BLOCKS
100
AcDbVertex
100
AcDb3dPolylineVertex
 10
-0.1892993485986903
 20
0.7263465307079686
 30
0.0
 70
    32
  0
VERTEX
  5
43E
330
422
100
AcDbEntity
  8
BLOCKS
100
AcDbVertex
100
AcDb3dPolylineVertex
 10
-0.1886189982383786
 20
0.7268565847818208
 30
0.0
 70
    32
  0
VERTEX
  5
43F
330
422
100
AcDbEntity
  8
BLOCKS
100
AcDbVertex
100
AcDb3dPolylineVertex
 10
-0.1879411522352149
 20
0.727385838927143
 30
0.0
 70
    32
  0
VERTEX
  5
440
330
422
100
AcDbEntity
  8
BLOCKS
100
AcDbVertex
100
AcDb3dPolylineVertex
 10
-0.187266645374915
 20
0.7279334583582187
 30
0.0
 70
    32
  0
VERTEX
  5
441
330
422
100
AcDbEntity
  8
BLOCKS
100
AcDbVertex
100
AcDb3dPolylineVertex
 10
-0.1865954776574802
 20
0.7284994430751438
 30
0.0
 70
    32
  0
VERTEX
  5
442
330
422
100
AcDbEntity
  8
BLOCKS
100
AcDbVertex
100
AcDb3dPolylineVertex
 10
-0.1859276490829092
 20
0.7290837930779169
 30
0.0
 70
    32
  0
VERTEX
  5
443
330
422
100
AcDbEntity
  8
BLOCKS
100
AcDbVertex
100
AcDb3dPolylineVertex
 10
-0.1852623248655817
 20
0.7296865083664438
 30
0.0
 70
    32
  0
VERTEX
  5
444
330
422
100
AcDbEntity
  8
BLOCKS
100
AcDbVertex
100
AcDb3dPolylineVertex
 10
-0.1846011745767396
 20
0.7303067541550082
 30
0.0
 70
    32
  0
VERTEX
  5
445
330
422
100
AcDbEntity
  8
BLOCKS
100
AcDbVertex
100
AcDb3dPolylineVertex
 10
-0.1839425286450455
 20
0.7309453652294212
 30
0.0
 70
    32
  0
VERTEX
  5
446
330
422
100
AcDbEntity
  8
BLOCKS
100
AcDbVertex
100
AcDb3dPolylineVertex
 10
-0.1832880566420266
 20
0.7316023415896832
 30
0.0
 70
    32
  0
VERTEX
  5
447
330
422
100
AcDbEntity
  8
BLOCKS
100
AcDbVertex
100
AcDb3dPolylineVertex
 10
-0.1826377585675885
 20
0.7322768484499825
 30
0.0
 70
    32
  0
VERTEX
  5
448
330
422
100
AcDbEntity
  8
BLOCKS
100
AcDbVertex
100
AcDb3dPolylineVertex
 10
-0.1819899648502985
 20
0.7329688858103198
 30
0.0
 70
    32
  0
VERTEX
  5
449
330
422
100
AcDbEntity
  8
BLOCKS
100
AcDbVertex
100
AcDb3dPolylineVertex
 10
-0.1813471798472102
 20
0.7336784536707893
 30
0.0
 70
    32
  0
VERTEX
  5
44A
330
422
100
AcDbEntity
  8
BLOCKS
100
AcDbVertex
100
AcDb3dPolylineVertex
 10
-0.1807077339870807
 20
0.7344055520312964
 30
0.0
 70
    32
  0
VERTEX
  5
44B
330
422
100
AcDbEntity
  8
BLOCKS
100
AcDbVertex
100
AcDb3dPolylineVertex
 10
-0.1800724620556269
 20
0.7351501808919363
 30
0.0
 70
    32
  0
VERTEX
  5
44C
330
422
100
AcDbEntity
  8
BLOCKS
100
AcDbVertex
100
AcDb3dPolylineVertex
 10
-0.1794413640526585
 20
0.7359123402527087
 30
0.0
 70
    32
  0
VERTEX
  5
44D
330
422
100
AcDbEntity
  8
BLOCKS
100
AcDbVertex
100
AcDb3dPolylineVertex
 10
-0.1788144399782703
 20
0.7366911953277077
 30
0.0
 70
    32
  0
VERTEX
  5
44E
330
422
100
AcDbEntity
  8
BLOCKS
100
AcDbVertex
100
AcDb3dPolylineVertex
 10
-0.1781925246181788
 20
0.7374875809028396
 30
0.0
 70
    32
  0
VERTEX
  5
44F
330
422
100
AcDbEntity
  8
BLOCKS
100
AcDbVertex
100
AcDb3dPolylineVertex
 10
-0.1775739484010461
 20
0.7383006621923875
 30
0.0
 70
    32
  0
VERTEX
  5
450
330
422
100
AcDbEntity
  8
BLOCKS
100
AcDbVertex
100
AcDb3dPolylineVertex
 10
-0.1769612156839264
 20
0.7391312739819728
 30
0.0
 70
    32
  0
VERTEX
  5
451
330
422
100
AcDbEntity
  8
BLOCKS
100
AcDbVertex
100
AcDb3dPolylineVertex
 10
-0.1763518221096706
 20
0.7399777467002587
 30
0.0
 70
    32
  0
VERTEX
  5
452
330
422
100
AcDbEntity
  8
BLOCKS
100
AcDbVertex
100
AcDb3dPolylineVertex
 10
-0.1757474372496171
 20
0.740840915132867
 30
0.0
 70
    32
  0
VERTEX
  5
453
330
422
100
AcDbEntity
  8
BLOCKS
100
AcDbVertex
100
AcDb3dPolylineVertex
 10
-0.1751480611040489
 20
0.7417207792797962
 30
0.0
 70
    32
  0
VERTEX
  5
454
330
422
100
AcDbEntity
  8
BLOCKS
100
AcDbVertex
100
AcDb3dPolylineVertex
 10
-0.174553693672683
 20
0.7426165043554255
 30
0.0
 70
    32
  0
VERTEX
  5
455
330
422
100
AcDbEntity
  8
BLOCKS
100
AcDbVertex
100
AcDb3dPolylineVertex
 10
-0.1739643349556132
 20
0.7435289251453766
 30
0.0
 70
    32
  0
VERTEX
  5
456
330
422
100
AcDbEntity
  8
BLOCKS
100
AcDbVertex
100
AcDb3dPolylineVertex
 10
-0.1733799849528401
 20
0.744457206864028
 30
0.0
 70
    32
  0
VERTEX
  5
457
330
422
100
AcDbEntity
  8
BLOCKS
100
AcDbVertex
100
AcDb3dPolylineVertex
 10
-0.1728006436644586
 20
0.7454013495112856
 30
0.0
 70
    32
  0
VERTEX
  5
458
330
422
100
AcDbEntity
  8
BLOCKS
100
AcDbVertex
100
AcDb3dPolylineVertex
 10
-0.1722271458760889
 20
0.7463605183014318
 30
0.0
 70
    32
  0
VERTEX
  5
459
330
422
100
AcDbEntity
  8
BLOCKS
100
AcDbVertex
100
AcDb3dPolylineVertex
 10
-0.1716578220163001
 20
0.7473363828059946
 30
0.0
 70
    32
  0
VERTEX
  5
45A
330
422
100
AcDbEntity
  8
BLOCKS
100
AcDbVertex
100
AcDb3dPolylineVertex
 10
-0.1710951764422401
 20
0.7483272734535415
 30
0.0
 70
    32
  0
VERTEX
  5
45B
330
422
100
AcDbEntity
  8
BLOCKS
100
AcDbVertex
100
AcDb3dPolylineVertex
 10
-0.1705375395824762
 20
0.7493331902439787
 30
0.0
 70
    32
  0
VERTEX
  5
45C
330
422
100
AcDbEntity
  8
BLOCKS
100
AcDbVertex
100
AcDb3dPolylineVertex
 10
-0.169984911437009
 20
0.7503549679630203
 30
0.0
 70
    32
  0
VERTEX
  5
45D
330
422
100
AcDbEntity
  8
BLOCKS
100
AcDbVertex
100
AcDb3dPolylineVertex
 10
-0.169438961577365
 20
0.7513909370392362
 30
0.0
 70
    32
  0
VERTEX
  5
45E
330
422
100
AcDbEntity
  8
BLOCKS
100
AcDbVertex
100
AcDb3dPolylineVertex
 10
-0.1688980204319228
 20
0.7524427670441521
 30
0.0
 70
    32
  0
VERTEX
  5
45F
330
422
100
AcDbEntity
  8
BLOCKS
100
AcDbVertex
100
AcDb3dPolylineVertex
 10
-0.1683629227865879
 20
0.7535087884063359
 30
0.0
 70
    32
  0
VERTEX
  5
460
330
422
100
AcDbEntity
  8
BLOCKS
100
AcDbVertex
100
AcDb3dPolylineVertex
 10
-0.167833668641266
 20
0.7545890011255984
 30
0.0
 70
    32
  0
VERTEX
  5
461
330
422
100
AcDbEntity
  8
BLOCKS
100
AcDbVertex
100
AcDb3dPolylineVertex
 10
-0.167311092781672
 20
0.7556834052022242
 30
0.0
 70
    32
  0
VERTEX
  5
462
330
422
100
AcDbEntity
  8
BLOCKS
100
AcDbVertex
100
AcDb3dPolylineVertex
 10
-0.1667943604220909
 20
0.756792835421644
 30
0.0
 70
    32
  0
VERTEX
  5
463
330
422
100
AcDbEntity
  8
BLOCKS
100
AcDbVertex
100
AcDb3dPolylineVertex
 10
-0.1662834715626178
 20
0.7579156222126164
 30
0.0
 70
    32
  0
VERTEX
  5
464
330
422
100
AcDbEntity
  8
BLOCKS
100
AcDbVertex
100
AcDb3dPolylineVertex
 10
-0.1657792609887775
 20
0.7590526003607618
 30
0.0
 70
    32
  0
VERTEX
  5
465
330
422
100
AcDbEntity
  8
BLOCKS
100
AcDbVertex
100
AcDb3dPolylineVertex
 10
-0.1652808939150452
 20
0.7602037698661758
 30
0.0
 70
    32
  0
VERTEX
  5
466
330
422
100
AcDbEntity
  8
BLOCKS
100
AcDbVertex
100
AcDb3dPolylineVertex
 10
-0.1647892051270412
 20
0.761367461157331
 30
0.0
 70
    32
  0
VERTEX
  5
467
330
422
100
AcDbEntity
  8
BLOCKS
100
AcDbVertex
100
AcDb3dPolylineVertex
 10
-0.1643033598390502
 20
0.7625453438056593
 30
0.0
 70
    32
  0
VERTEX
  5
468
330
422
100
AcDbEntity
  8
BLOCKS
100
AcDbVertex
100
AcDb3dPolylineVertex
 10
-0.1638250276225034
 20
0.7637357482398239
 30
0.0
 70
    32
  0
VERTEX
  5
469
330
422
100
AcDbEntity
  8
BLOCKS
100
AcDbVertex
100
AcDb3dPolylineVertex
 10
-0.1633525389060645
 20
0.7649395092454455
 30
0.0
 70
    32
  0
VERTEX
  5
46A
330
422
100
AcDbEntity
  8
BLOCKS
100
AcDbVertex
100
AcDb3dPolylineVertex
 10
-0.162886728475259
 20
0.766155792036808
 30
0.0
 70
    32
  0
VERTEX
  5
46B
330
422
100
AcDbEntity
  8
BLOCKS
100
AcDbVertex
100
AcDb3dPolylineVertex
 10
-0.1624284311159931
 20
0.7673854313997231
 30
0.0
 70
    32
  0
VERTEX
  5
46C
330
422
100
AcDbEntity
  8
BLOCKS
100
AcDbVertex
100
AcDb3dPolylineVertex
 10
-0.1619759772567403
 20
0.7686267577626632
 30
0.0
 70
    32
  0
VERTEX
  5
46D
330
422
100
AcDbEntity
  8
BLOCKS
100
AcDbVertex
100
AcDb3dPolylineVertex
 10
-0.1615310364689316
 20
0.7698806059113446
 30
0.0
 70
    32
  0
VERTEX
  5
46E
330
422
100
AcDbEntity
  8
BLOCKS
100
AcDbVertex
100
AcDb3dPolylineVertex
 10
-0.1610927739669467
 20
0.7711461410601459
 30
0.0
 70
    32
  0
VERTEX
  5
46F
330
422
100
AcDbEntity
  8
BLOCKS
100
AcDbVertex
100
AcDb3dPolylineVertex
 10
-0.1606611897505957
 20
0.7724241979946881
 30
0.0
 70
    32
  0
VERTEX
  5
470
330
422
100
AcDbEntity
  8
BLOCKS
100
AcDbVertex
100
AcDb3dPolylineVertex
 10
-0.1602371186057837
 20
0.7737139419292555
 30
0.0
 70
    32
  0
VERTEX
  5
471
330
422
100
AcDbEntity
  8
BLOCKS
100
AcDbVertex
100
AcDb3dPolylineVertex
 10
-0.1598205605324165
 20
0.7750145380782272
 30
0.0
 70
    32
  0
VERTEX
  5
472
330
422
100
AcDbEntity
  8
BLOCKS
100
AcDbVertex
100
AcDb3dPolylineVertex
 10
-0.1594106807447787
 20
0.7763268212272238
 30
0.0
 70
    32
  0
VERTEX
  5
473
330
422
100
AcDbEntity
  8
BLOCKS
100
AcDbVertex
100
AcDb3dPolylineVertex
 10
-0.159008314028585
 20
0.7776499565905296
 30
0.0
 70
    32
  0
VERTEX
  5
474
330
422
100
AcDbEntity
  8
BLOCKS
100
AcDbVertex
100
AcDb3dPolylineVertex
 10
-0.1586126255982145
 20
0.7789839441681438
 30
0.0
 70
    32
  0
VERTEX
  5
475
330
422
100
AcDbEntity
  8
BLOCKS
100
AcDbVertex
100
AcDb3dPolylineVertex
 10
-0.1582252850249103
 20
0.7803287839601626
 30
0.0
 70
    32
  0
VERTEX
  5
476
330
422
100
AcDbEntity
  8
BLOCKS
100
AcDbVertex
100
AcDb3dPolylineVertex
 10
-0.1578446227374297
 20
0.7816844759664901
 30
0.0
 70
    32
  0
VERTEX
  5
477
330
422
100
AcDbEntity
  8
BLOCKS
100
AcDbVertex
100
AcDb3dPolylineVertex
 10
-0.1574723083071098
 20
0.7830501854015052
 30
0.0
 70
    32
  0
VERTEX
  5
478
330
422
100
AcDbEntity
  8
BLOCKS
100
AcDbVertex
100
AcDb3dPolylineVertex
 10
-0.1571066721626135
 20
0.7844259122650187
 30
0.0
 70
    32
  0
VERTEX
  5
479
330
422
100
AcDbEntity
  8
BLOCKS
100
AcDbVertex
100
AcDb3dPolylineVertex
 10
-0.156749383875183
 20
0.7858116565572198
 30
0.0
 70
    32
  0
VERTEX
  5
47A
330
422
100
AcDbEntity
  8
BLOCKS
100
AcDbVertex
100
AcDb3dPolylineVertex
 10
-0.1563987738735761
 20
0.7872065834922978
 30
0.0
 70
    32
  0
VERTEX
  5
47B
330
422
100
AcDbEntity
  8
BLOCKS
100
AcDbVertex
100
AcDb3dPolylineVertex
 10
-0.1560565117291298
 20
0.7886115278560642
 30
0.0
 70
    32
  0
VERTEX
  5
47C
330
422
100
AcDbEntity
  8
BLOCKS
100
AcDbVertex
100
AcDb3dPolylineVertex
 10
-0.1557225974418446
 20
0.7900256548626118
 30
0.0
 70
    32
  0
VERTEX
  5
47D
330
422
100
AcDbEntity
  8
BLOCKS
100
AcDbVertex
100
AcDb3dPolylineVertex
 10
-0.1553953614402877
 20
0.7914489645121314
 30
0.0
 70
    32
  0
VERTEX
  5
47E
330
422
100
AcDbEntity
  8
BLOCKS
100
AcDbVertex
100
AcDb3dPolylineVertex
 10
-0.1550764732959863
 20
0.7928806220188119
 30
0.0
 70
    32
  0
VERTEX
  5
47F
330
422
100
AcDbEntity
  8
BLOCKS
100
AcDbVertex
100
AcDb3dPolylineVertex
 10
-0.1547659330087515
 20
0.7943206273826532
 30
0.0
 70
    32
  0
VERTEX
  5
480
330
422
100
AcDbEntity
  8
BLOCKS
100
AcDbVertex
100
AcDb3dPolylineVertex
 10
-0.1544629057930558
 20
0.7957698153894661
 30
0.0
 70
    32
  0
VERTEX
  5
481
330
422
100
AcDbEntity
  8
BLOCKS
100
AcDbVertex
100
AcDb3dPolylineVertex
 10
-0.1541682264345207
 20
0.7972265164677238
 30
0.0
 70
    32
  0
VERTEX
  5
482
330
422
100
AcDbEntity
  8
BLOCKS
100
AcDbVertex
100
AcDb3dPolylineVertex
 10
-0.1538810601475257
 20
0.7986915654031424
 30
0.0
 70
    32
  0
VERTEX
  5
483
330
422
100
AcDbEntity
  8
BLOCKS
100
AcDbVertex
100
AcDb3dPolylineVertex
 10
-0.1536022417175963
 20
0.8001641274100057
 30
0.0
 70
    32
  0
VERTEX
  5
484
330
422
100
AcDbEntity
  8
BLOCKS
100
AcDbVertex
100
AcDb3dPolylineVertex
 10
-0.1533317711449229
 20
0.8016450372740298
 30
0.0
 70
    32
  0
VERTEX
  5
485
330
422
100
AcDbEntity
  8
BLOCKS
100
AcDbVertex
100
AcDb3dPolylineVertex
 10
-0.1530688136436936
 20
0.8031317906381611
 30
0.0
 70
    32
  0
VERTEX
  5
486
330
422
100
AcDbEntity
  8
BLOCKS
100
AcDbVertex
100
AcDb3dPolylineVertex
 10
-0.1528150387853418
 20
0.8046268918594529
 30
0.0
 70
    32
  0
VERTEX
  5
487
330
422
100
AcDbEntity
  8
BLOCKS
100
AcDbVertex
100
AcDb3dPolylineVertex
 10
-0.1525687769985291
 20
0.8061278365806629
 30
0.0
 70
    32
  0
VERTEX
  5
488
330
422
100
AcDbEntity
  8
BLOCKS
100
AcDbVertex
100
AcDb3dPolylineVertex
 10
-0.1523308630687825
 20
0.8076362943735075
 30
0.0
 70
    32
  0
VERTEX
  5
489
330
422
100
AcDbEntity
  8
BLOCKS
100
AcDbVertex
100
AcDb3dPolylineVertex
 10
-0.1521021317820077
 20
0.809150595666269
 30
0.0
 70
    32
  0
VERTEX
  5
48A
330
422
100
AcDbEntity
  8
BLOCKS
100
AcDbVertex
100
AcDb3dPolylineVertex
 10
-0.1518809135667726
 20
0.8106707404590435
 30
0.0
 70
    32
  0
VERTEX
  5
48B
330
422
100
AcDbEntity
  8
BLOCKS
100
AcDbVertex
100
AcDb3dPolylineVertex
 10
-0.1516680432086031
 20
0.8121975635376418
 30
0.0
 70
    32
  0
VERTEX
  5
48C
330
422
100
AcDbEntity
  8
BLOCKS
100
AcDbVertex
100
AcDb3dPolylineVertex
 10
-0.1514635207075946
 20
0.8137293953305363
 30
0.0
 70
    32
  0
VERTEX
  5
48D
330
422
100
AcDbEntity
  8
BLOCKS
100
AcDbVertex
100
AcDb3dPolylineVertex
 10
-0.1512681808495575
 20
0.8152670706234431
 30
0.0
 70
    32
  0
VERTEX
  5
48E
330
422
100
AcDbEntity
  8
BLOCKS
100
AcDbVertex
100
AcDb3dPolylineVertex
 10
-0.1510811888486814
 20
0.8168097546306473
 30
0.0
 70
    32
  0
VERTEX
  5
48F
330
422
100
AcDbEntity
  8
BLOCKS
100
AcDbVertex
100
AcDb3dPolylineVertex
 10
-0.1509025447049663
 20
0.8183574473521469
 30
0.0
 70
    32
  0
VERTEX
  5
490
330
422
100
AcDbEntity
  8
BLOCKS
100
AcDbVertex
100
AcDb3dPolylineVertex
 10
-0.1507322484185067
 20
0.8199101487879437
 30
0.0
 70
    32
  0
VERTEX
  5
491
330
422
100
AcDbEntity
  8
BLOCKS
100
AcDbVertex
100
AcDb3dPolylineVertex
 10
-0.1505702999892083
 20
0.8214670241524151
 30
0.0
 70
    32
  0
VERTEX
  5
492
330
422
100
AcDbEntity
  8
BLOCKS
100
AcDbVertex
100
AcDb3dPolylineVertex
 10
-0.1504175342027861
 20
0.8230289082310884
 30
0.0
 70
    32
  0
VERTEX
  5
493
330
422
100
AcDbEntity
  8
BLOCKS
100
AcDbVertex
100
AcDb3dPolylineVertex
 10
-0.150273116273525
 20
0.8245941314527209
 30
0.0
 70
    32
  0
VERTEX
  5
494
330
422
100
AcDbEntity
  8
BLOCKS
100
AcDbVertex
100
AcDb3dPolylineVertex
 10
-0.1501370462014245
 20
0.8261635286029342
 30
0.0
 70
    32
  0
VERTEX
  5
495
330
422
100
AcDbEntity
  8
BLOCKS
100
AcDbVertex
100
AcDb3dPolylineVertex
 10
-0.1500101587722958
 20
0.8277362648959167
 30
0.0
 70
    32
  0
VERTEX
  5
496
330
422
100
AcDbEntity
  8
BLOCKS
100
AcDbVertex
100
AcDb3dPolylineVertex
 10
-0.1498916192003281
 20
0.8293123403318583
 30
0.0
 70
    32
  0
VERTEX
  5
497
330
422
100
AcDbEntity
  8
BLOCKS
100
AcDbVertex
100
AcDb3dPolylineVertex
 10
-0.1497822622712374
 20
0.8308917549106638
 30
0.0
 70
    32
  0
VERTEX
  5
498
330
422
100
AcDbEntity
  8
BLOCKS
100
AcDbVertex
100
AcDb3dPolylineVertex
 10
-0.1496812531993072
 20
0.832473673846618
 30
0.0
 70
    32
  0
VERTEX
  5
499
330
422
100
AcDbEntity
  8
BLOCKS
100
AcDbVertex
100
AcDb3dPolylineVertex
 10
-0.1495894267703488
 20
0.8340589319255315
 30
0.0
 70
    32
  0
VERTEX
  5
49A
330
422
100
AcDbEntity
  8
BLOCKS
100
AcDbVertex
100
AcDb3dPolylineVertex
 10
-0.1495059481984561
 20
0.8356458595757823
 30
0.0
 70
    32
  0
VERTEX
  5
49B
330
422
100
AcDbEntity
  8
BLOCKS
100
AcDbVertex
100
AcDb3dPolylineVertex
 10
-0.1494308174838193
 20
0.8372352915831806
 30
0.0
 70
    32
  0
VERTEX
  5
49C
330
422
100
AcDbEntity
  8
BLOCKS
100
AcDbVertex
100
AcDb3dPolylineVertex
 10
-0.1493648694121543
 20
0.8388272279477281
 30
0.0
 70
    32
  0
VERTEX
  5
49D
330
422
100
AcDbEntity
  8
BLOCKS
100
AcDbVertex
100
AcDb3dPolylineVertex
 10
-0.149307269197555
 20
0.8404199990980863
 30
0.0
 70
    32
  0
VERTEX
  5
49E
330
422
100
AcDbEntity
  8
BLOCKS
100
AcDbVertex
100
AcDb3dPolylineVertex
 10
-0.1492588516259275
 20
0.8420144398197811
 30
0.0
 70
    32
  0
VERTEX
  5
49F
330
422
100
AcDbEntity
  8
BLOCKS
100
AcDbVertex
100
AcDb3dPolylineVertex
 10
-0.1492196166971769
 20
0.843609715327288
 30
0.0
 70
    32
  0
VERTEX
  5
4A0
330
422
100
AcDbEntity
  8
BLOCKS
100
AcDbVertex
100
AcDb3dPolylineVertex
 10
-0.1491887296255874
 20
0.8452066604061309
 30
0.0
 70
    32
  0
VERTEX
  5
4A1
330
422
100
AcDbEntity
  8
BLOCKS
100
AcDbVertex
100
AcDb3dPolylineVertex
 10
-0.1491670251968742
 20
0.8468044402707858
 30
0.0
 70
    32
  0
VERTEX
  5
4A2
330
422
100
AcDbEntity
  8
BLOCKS
100
AcDbVertex
100
AcDb3dPolylineVertex
 10
-0.149153668625417
 20
0.848402220135345
 30
0.0
 70
    32
  0
VERTEX
  5
4A3
330
422
100
AcDbEntity
  8
BLOCKS
100
AcDbVertex
100
AcDb3dPolylineVertex
 10
-0.1491494946968368
 20
0.85
 30
0.0
 70
    32
  0
SEQEND
  5
4A4
330
422
100
AcDbEntity
  8
BLOCKS
  0
LINE
  5
4A5
330
2D4
100
AcDbEntity
  8
BLOCKS
100
AcDbLine
 10
0.0
 20
0.7197734279629607
 30
0.0
 11
-0.1511678261639389
 21
0.7197734279629607
 31
0.0
  0
LINE
  5
4A6
330
2D4
100
AcDbEntity
  8
BLOCKS
100
AcDbLine
 10
-0.0250435715455518
 20
0.8416521428181493
 30
0.0
 11
-0.1242175334651171
 21
0.8416521428181493
 31
0.0
1001
ACAD
1000
ASC_BOUNDS
1002
{
1070
    19
1002
}
  0
ARC
  5
4A7
330
2D4
100
AcDbEntity
  8
BLOCKS
100
AcDbCircle
 10
-0.2660845197529801
 20
0.7073348773204089
 30
0.0
 40
0.0041739285909291
100
AcDbArc
 50
0.000000000000007
 51
88.26813917705127
  0
LINE
  5
4A8
330
2D4
100
AcDbEntity
  8
BLOCKS
100
AcDbLine
 10
-0.2619105911620551
 20
0.7197734279629607
 30
0.0
 11
-0.2535627339801096
 21
0.7128590033887445
 31
0.0
  0
LINE
  5
4A9
330
2D4
100
AcDbEntity
  8
BLOCKS
100
AcDbLine
 10
-0.2535627339801096
 20
0.7128590033887445
 30
0.0
 11
-0.2535627339801096
 21
0.6872542373842169
 31
0.0
  0
LINE
  5
4AA
330
2D4
100
AcDbEntity
  8
BLOCKS
100
AcDbLine
 10
-0.2619105911619601
 20
0.7073348773204089
 30
0.0
 11
-0.2619105911619601
 21
0.6872542373842169
 31
0.0
  0
LINE
  5
4AB
330
2D4
100
AcDbEntity
  8
BLOCKS
100
AcDbLine
 10
-0.3173502728851627
 20
0.7197734279629607
 30
0.0
 11
-0.333914287274307
 21
0.7197734279629607
 31
0.0
  0
LINE
  5
4AC
330
2D4
100
AcDbEntity
  8
BLOCKS
100
AcDbLine
 10
-0.333914287274307
 20
0.7254868364013442
 30
0.0
 11
-0.333914287274307
 21
0.7197734279629607
 31
0.0
  0
ARC
  5
4AD
330
2D4
100
AcDbEntity
  8
BLOCKS
100
AcDbCircle
 10
-0.2598562392072932
 20
0.913324583527849
 30
0.0
 40
0.2019099148854871
100
AcDbArc
 50
253.4560396443395
 51
268.2681391770513
  0
LINE
  5
4AE
330
2D4
100
AcDbEntity
  8
BLOCKS
100
AcDbLine
 10
-0.4433744834122564
 20
0.8291303570452788
 30
0.0
 11
-0.4623898712246274
 21
0.8291303570452788
 31
0.0
  0
LINE
  5
4AF
330
2D4
100
AcDbEntity
  8
BLOCKS
100
AcDbLine
 10
-0.4393097888521124
 20
0.8207824998634276
 30
0.0
 11
-0.4637144229922991
 21
0.8207824998634276
 31
0.0
  0
LINE
  5
4B0
330
2D4
100
AcDbEntity
  8
BLOCKS
100
AcDbLine
 10
-0.4486171328578758
 20
0.85
 30
0.0
 11
-0.4551604148379579
 21
0.85
 31
0.0
  0
LINE
  5
4B1
330
2D4
100
AcDbEntity
  8
BLOCKS
100
AcDbLine
 10
-0.4486171328578758
 20
0.8416521428181493
 30
0.0
 11
-0.4551604148379579
 21
0.8416521428181493
 31
0.0
  0
ARC
  5
4B2
330
2D4
100
AcDbEntity
  8
BLOCKS
100
AcDbCircle
 10
-0.4551604148379579
 20
0.8333042856362038
 30
0.0
 40
0.0083478571818581
100
AcDbArc
 50
90.0
 51
210.0000000000005
  0
ARC
  5
4B3
330
2D4
100
AcDbEntity
  8
BLOCKS
100
AcDbCircle
 10
-0.2598562392072932
 20
0.913324583527849
 30
0.0
 40
0.2019099148854871
100
AcDbArc
 50
200.7917509195009
 51
204.6446399365401
  0
ARC
  5
4B4
330
2D4
100
AcDbEntity
  8
BLOCKS
100
AcDbCircle
 10
-0.4486171328578758
 20
0.8416521428181493
 30
0.0
 40
0.0083478571818581
100
AcDbArc
 50
20.79175091950083
 51
90.0
  0
ARC
  5
4B5
330
2D4
100
AcDbEntity
  8
BLOCKS
100
AcDbCircle
 10
-0.4637144229922991
 20
0.8266259998907804
 30
0.0
 40
0.0058435000273007
100
AcDbArc
 50
217.9798724448386
 51
270.0
  0
ARC
  5
4B6
330
2D4
100
AcDbEntity
  8
BLOCKS
100
AcDbCircle
 10
-0.4551604148379579
 20
0.8333042856362038
 30
0.0
 40
0.0166957143637163
100
AcDbArc
 50
90.0
 51
217.9798724448386
  0
ARC
  5
4B7
330
2D4
100
AcDbEntity
  8
BLOCKS
100
AcDbCircle
 10
-0.2598562392072932
 20
0.913324583527849
 30
0.0
 40
0.2019099148854871
100
AcDbArc
 50
207.2796252970274
 51
248.482365393631
  0
ARC
  5
4B8
330
2D4
100
AcDbEntity
  8
BLOCKS
100
AcDbCircle
 10
-0.2598562392072932
 20
0.913324583527849
 30
0.0
 40
0.1935620577036289
100
AcDbArc
 50
200.7917509195009
 51
269.391885434776
  0
LINE
  5
4B9
330
2D4
100
AcDbEntity
  8
BLOCKS
100
AcDbLine
 10
0.0
 20
0.85
 30
0.0
 11
-0.4486171328578758
 21
0.85
 31
0.0
1001
ACAD
1000
ASC_BOUNDS
1002
{
1070
    19
1002
}
  0
LINE
  5
4BA
330
2D4
100
AcDbEntity
  8
BLOCKS
100
AcDbLine
 10
-0.2535627339801096
 20
0.7128590033887445
 30
0.0
 11
-0.2159973766617822
 21
0.7128590033887445
 31
0.0
  0
LINE
  5
4BB
330
2D4
100
AcDbEntity
  8
BLOCKS
100
AcDbLine
 10
-0.2076495194799315
 20
0.6872542373842169
 30
0.0
 11
-0.2619105911619601
 21
0.6872542373842169
 31
0.0
1001
ACAD
1000
ASC_BOUNDS
1002
{
1070
    19
1002
}
  0
LINE
  5
4BC
330
2D4
100
AcDbEntity
  8
BLOCKS
100
AcDbLine
 10
-0.2076495194799315
 20
0.7197734279629607
 30
0.0
 11
-0.2619105911620551
 21
0.7197734279629607
 31
0.0
  0
ENDBLK
  5
4BE
330
2D4
100
AcDbEntity
  8
0
100
AcDbBlockEnd
  0
BLOCK
  5
4DC
330
4C0
100
AcDbEntity
  8
0
100
AcDbBlockBegin
  2
108710AL
 70
     0
 10
0.0
 20
0.0
 30
0.0
  3
108710AL
  1

  0
ARC
  5
4C1
330
4C0
100
AcDbEntity
  8
BLOCKS
100
AcDbCircle
 10
-0.0476588557834248
 20
0.8295872593397229
 30
0.0
 40
0.03
100
AcDbArc
 50
307.2430829888066
 51
0.000000000000007
  0
LINE
  5
4C2
330
4C0
100
AcDbEntity
  8
BLOCKS
100
AcDbLine
 10
-0.0153915667615365
 20
0.8499999999999994
 30
0.0
 11
-0.0176588557834521
 21
0.8295872593397229
 31
0.0
  0
ARC
  5
4C3
330
4C0
100
AcDbEntity
  8
BLOCKS
100
AcDbCircle
 10
-0.0049999999999955
 20
0.845000000000004
 30
0.0
 40
0.005
100
AcDbArc
 50
0.000000000000007
 51
90.0
  0
ARC
  5
4C4
330
4C0
100
AcDbEntity
  8
BLOCKS
100
AcDbCircle
 10
-0.0049999999999955
 20
0.6989999999999322
 30
0.0
 40
0.005
100
AcDbArc
 50
270.0
 51
0.000000000000007
  0
ARC
  5
4C5
330
4C0
100
AcDbEntity
  8
BLOCKS
100
AcDbCircle
 10
-0.0499999999999545
 20
0.732999999999924
 30
0.0
 40
0.008
100
AcDbArc
 50
270.0
 51
90.0
  0
LINE
  5
4C6
330
4C0
100
AcDbEntity
  8
BLOCKS
100
AcDbLine
 10
0.0
 20
0.845000000000004
 30
0.0
 11
0.0
 21
0.6989999999999322
 31
0.0
  0
ARC
  5
4C7
330
4C0
100
AcDbEntity
  8
BLOCKS
100
AcDbCircle
 10
-0.3257872067172229
 20
1.195436267599552
 30
0.0
 40
0.4895659652736322
100
AcDbArc
 50
291.8374060467049
 51
307.2430829888066
  0
ARC
  5
4C8
330
4C0
100
AcDbEntity
  8
BLOCKS
100
AcDbCircle
 10
-0.3500892146525985
 20
0.6972693436551703
 30
0.0
 40
0.0101596488734986
100
AcDbArc
 50
6.75088611198953
 51
77.22445028566091
  0
ARC
  5
4C9
330
4C0
100
AcDbEntity
  8
BLOCKS
100
AcDbCircle
 10
-0.3349751036769248
 20
0.6990601202306602
 30
0.0
 40
0.0050601815076094
100
AcDbArc
 50
186.7696263493035
 51
269.7180297795827
  0
ARC
  5
4CA
330
4C0
100
AcDbEntity
  8
BLOCKS
100
AcDbCircle
 10
-0.0980190000263974
 20
1.020556725832283
 30
0.0
 40
0.406551128078759
100
AcDbArc
 50
226.6342594881165
 51
227.9010552991291
  0
ARC
  5
4CB
330
4C0
100
AcDbEntity
  8
BLOCKS
100
AcDbCircle
 10
-0.3370554946274069
 20
0.7559999999999486
 30
0.0
 40
0.05
100
AcDbArc
 50
227.9010552991291
 51
257.5409457077625
  0
ARC
  5
4CC
330
4C0
100
AcDbEntity
  8
BLOCKS
100
AcDbCircle
 10
-0.4518691220540632
 20
0.8299999999999039
 30
0.0
 40
0.02
100
AcDbArc
 50
90.0
 51
235.8610486845682
  0
ARC
  5
4CD
330
4C0
100
AcDbEntity
  8
BLOCKS
100
AcDbCircle
 10
-0.2743804743818146
 20
0.8621663396846537
 30
0.0
 40
0.169703786764828
100
AcDbArc
 50
211.4030261750755
 51
225.5602618293987
  0
ARC
  5
4CE
330
4C0
100
AcDbEntity
  8
BLOCKS
100
AcDbCircle
 10
-0.4488691220541341
 20
0.732999999999924
 30
0.0
 40
0.008
100
AcDbArc
 50
90.0
 51
270.0
  0
ARC
  5
4CF
330
4C0
100
AcDbEntity
  8
BLOCKS
100
AcDbCircle
 10
-0.4984593517696112
 20
0.7302888334151925
 30
0.0
 40
0.0903656563225757
100
AcDbArc
 50
28.74109250491804
 51
66.96037525786254
  0
ARC
  5
4D0
330
4C0
100
AcDbEntity
  8
BLOCKS
100
AcDbCircle
 10
-0.3257872067172229
 20
1.195436267599552
 30
0.0
 40
0.4895659652736322
100
AcDbArc
 50
267.7110288251331
 51
286.0698003174126
  0
LINE
  5
4D1
330
4C0
100
AcDbEntity
  8
BLOCKS
100
AcDbLine
 10
-0.0448966167614344
 20
0.8149999999999176
 30
0.0
 11
-0.4402763967615329
 21
0.8149999999999176
 31
0.0
  0
LINE
  5
4D2
330
4C0
100
AcDbEntity
  8
BLOCKS
100
AcDbLine
 10
-0.0499999999999545
 20
0.7409999999999622
 30
0.0
 11
-0.4488691220541341
 21
0.7409999999999622
 31
0.0
  0
LINE
  5
4D3
330
4C0
100
AcDbEntity
  8
BLOCKS
100
AcDbLine
 10
-0.0499999999999545
 20
0.7249999999999995
 30
0.0
 11
-0.4488691220541341
 21
0.7249999999999995
 31
0.0
  0
LINE
  5
4D4
330
4C0
100
AcDbEntity
  8
BLOCKS
100
AcDbLine
 10
-0.0049999999999955
 20
0.6939999999999368
 30
0.0
 11
-0.335000006291807
 21
0.6939999999999368
 31
0.0
  0
LINE
  5
4D5
330
4C0
100
AcDbEntity
  8
BLOCKS
100
AcDbLine
 10
-0.0049999999999955
 20
0.8499999999999994
 30
0.0
 11
-0.4518691220540632
 21
0.8499999999999994
 31
0.0
  0
ARC
  5
4D6
330
4C0
100
AcDbEntity
  8
BLOCKS
100
AcDbCircle
 10
-0.1213709152883666
 20
0.6737650179779616
 30
0.0
 40
0.005
100
AcDbArc
 50
286.6992442339917
 51
0.000000000000007
  0
LINE
  5
4D7
330
4C0
100
AcDbEntity
  8
BLOCKS
100
AcDbLine
 10
-0.1199341758605215
 20
0.668975886551811
 30
0.0
 11
-0.1663709152883257
 21
0.6586256592853255
 31
0.0
  0
LINE
  5
4D8
330
4C0
100
AcDbEntity
  8
BLOCKS
100
AcDbLine
 10
-0.1663709152883257
 20
0.6550448647235266
 30
0.0
 11
-0.2313709152882666
 21
0.6550448647235266
 31
0.0
  0
LINE
  5
4D9
330
4C0
100
AcDbEntity
  8
BLOCKS
100
AcDbLine
 10
-0.2313709152882666
 20
0.6939999999999368
 30
0.0
 11
-0.2313709152882666
 21
0.6550448647235266
 31
0.0
  0
LINE
  5
4DA
330
4C0
100
AcDbEntity
  8
BLOCKS
100
AcDbLine
 10
-0.1163709152882575
 20
0.6939999999999368
 30
0.0
 11
-0.1163709152882575
 21
0.6737650179779616
 31
0.0
  0
LINE
  5
4DB
330
4C0
100
AcDbEntity
  8
BLOCKS
100
AcDbLine
 10
-0.1663709152883257
 20
0.6923028753682042
 30
0.0
 11
-0.1663709152883257
 21
0.6550448647235266
 31
0.0
  0
ENDBLK
  5
4DD
330
4C0
100
AcDbEntity
  8
0
100
AcDbBlockEnd
  0
BLOCK
  5
4FB
330
4DF
100
AcDbEntity
  8
0
100
AcDbBlockBegin
  2
108710AF
 70
     0
 10
0.0
 20
0.0
 30
0.0
  3
108710AF
  1

  0
ARC
  5
4E0
330
4DF
100
AcDbEntity
  8
BLOCKS
100
AcDbCircle
 10
-0.0049999999999955
 20
0.8250000000000454
 30
0.0
 40
0.005
100
AcDbArc
 50
0.0
 51
90.0
  0
LINE
  5
4E1
330
4DF
100
AcDbEntity
  8
BLOCKS
100
AcDbLine
 10
-0.0153915667615365
 20
0.8300000000000409
 30
0.0
 11
-0.0176588557834521
 21
0.8095872593397643
 31
0.0
  0
ARC
  5
4E2
330
4DF
100
AcDbEntity
  8
BLOCKS
100
AcDbCircle
 10
-0.0476588557834248
 20
0.8095872593397643
 30
0.0
 40
0.03
100
AcDbArc
 50
307.2430829888066
 51
0.0
  0
ARC
  5
4E3
330
4DF
100
AcDbEntity
  8
BLOCKS
100
AcDbCircle
 10
-0.0499999999999545
 20
0.7129999999999655
 30
0.0
 40
0.008
100
AcDbArc
 50
270.0
 51
90.0
  0
ARC
  5
4E4
330
4DF
100
AcDbEntity
  8
BLOCKS
100
AcDbCircle
 10
-0.0049999999999955
 20
0.6789999999999737
 30
0.0
 40
0.005
100
AcDbArc
 50
270.0
 51
0.0
  0
LINE
  5
4E5
330
4DF
100
AcDbEntity
  8
BLOCKS
100
AcDbLine
 10
0.0
 20
0.8250000000000454
 30
0.0
 11
0.0
 21
0.6789999999999737
 31
0.0
  0
ARC
  5
4E6
330
4DF
100
AcDbEntity
  8
BLOCKS
100
AcDbCircle
 10
-0.3370554946274069
 20
0.73599999999999
 30
0.0
 40
0.05
100
AcDbArc
 50
227.9010552991291
 51
257.5409457077625
  0
ARC
  5
4E7
330
4DF
100
AcDbEntity
  8
BLOCKS
100
AcDbCircle
 10
-0.0980190000263974
 20
1.000556725832325
 30
0.0
 40
0.406551128078759
100
AcDbArc
 50
226.6342594881165
 51
227.9010552991291
  0
ARC
  5
4E8
330
4DF
100
AcDbEntity
  8
BLOCKS
100
AcDbCircle
 10
-0.3500892146525985
 20
0.6772693436552118
 30
0.0
 40
0.0101596488734986
100
AcDbArc
 50
6.750886111989534
 51
77.22445028566089
  0
ARC
  5
4E9
330
4DF
100
AcDbEntity
  8
BLOCKS
100
AcDbCircle
 10
-0.3349751036769248
 20
0.6790601202307017
 30
0.0
 40
0.0050601815076094
100
AcDbArc
 50
186.7696263493035
 51
269.7180297795827
  0
ARC
  5
4EA
330
4DF
100
AcDbEntity
  8
BLOCKS
100
AcDbCircle
 10
-0.3257872067172229
 20
1.175436267599593
 30
0.0
 40
0.4895659652736322
100
AcDbArc
 50
267.7110288251331
 51
286.0698003174126
  0
ARC
  5
4EB
330
4DF
100
AcDbEntity
  8
BLOCKS
100
AcDbCircle
 10
-0.4518691220540632
 20
0.8099999999999454
 30
0.0
 40
0.02
100
AcDbArc
 50
90.0
 51
235.8610486845682
  0
ARC
  5
4EC
330
4DF
100
AcDbEntity
  8
BLOCKS
100
AcDbCircle
 10
-0.4488691220541341
 20
0.7129999999999655
 30
0.0
 40
0.008
100
AcDbArc
 50
90.0
 51
270.0
  0
ARC
  5
4ED
330
4DF
100
AcDbEntity
  8
BLOCKS
100
AcDbCircle
 10
-0.2743804743818146
 20
0.8421663396846952
 30
0.0
 40
0.169703786764828
100
AcDbArc
 50
211.4030261750755
 51
225.5602618293987
  0
ARC
  5
4EE
330
4DF
100
AcDbEntity
  8
BLOCKS
100
AcDbCircle
 10
-0.4984593517696112
 20
0.710288833415234
 30
0.0
 40
0.0903656563225757
100
AcDbArc
 50
28.74109250491802
 51
66.96037525786252
  0
ARC
  5
4EF
330
4DF
100
AcDbEntity
  8
BLOCKS
100
AcDbCircle
 10
-0.1213709152883666
 20
0.6537650179780031
 30
0.0
 40
0.005
100
AcDbArc
 50
286.6992442339917
 51
0.0
  0
LINE
  5
4F0
330
4DF
100
AcDbEntity
  8
BLOCKS
100
AcDbLine
 10
-0.1199341758605215
 20
0.6489758865518525
 30
0.0
 11
-0.1663709152883257
 21
0.638625659285367
 31
0.0
  0
LINE
  5
4F1
330
4DF
100
AcDbEntity
  8
BLOCKS
100
AcDbLine
 10
-0.1663709152883257
 20
0.6350448647235681
 30
0.0
 11
-0.2313709152882666
 21
0.6350448647235681
 31
0.0
  0
LINE
  5
4F2
330
4DF
100
AcDbEntity
  8
BLOCKS
100
AcDbLine
 10
-0.2313709152882666
 20
0.6739999999999782
 30
0.0
 11
-0.2313709152882666
 21
0.6350448647235681
 31
0.0
  0
LINE
  5
4F3
330
4DF
100
AcDbEntity
  8
BLOCKS
100
AcDbLine
 10
-0.1663709152883257
 20
0.6723028753682457
 30
0.0
 11
-0.1663709152883257
 21
0.6350448647235681
 31
0.0
  0
LINE
  5
4F4
330
4DF
100
AcDbEntity
  8
BLOCKS
100
AcDbLine
 10
-0.1163709152882575
 20
0.6739999999999782
 30
0.0
 11
-0.1163709152882575
 21
0.6537650179780031
 31
0.0
  0
LINE
  5
4F5
330
4DF
100
AcDbEntity
  8
BLOCKS
100
AcDbLine
 10
-0.0049999999999955
 20
0.8300000000000409
 30
0.0
 11
-0.4518691220540632
 21
0.8300000000000409
 31
0.0
  0
LINE
  5
4F6
330
4DF
100
AcDbEntity
  8
BLOCKS
100
AcDbLine
 10
-0.0049999999999955
 20
0.6739999999999782
 30
0.0
 11
-0.335000006291807
 21
0.6739999999999782
 31
0.0
  0
LINE
  5
4F7
330
4DF
100
AcDbEntity
  8
BLOCKS
100
AcDbLine
 10
-0.0499999999999545
 20
0.705000000000041
 30
0.0
 11
-0.4488691220541341
 21
0.705000000000041
 31
0.0
  0
LINE
  5
4F8
330
4DF
100
AcDbEntity
  8
BLOCKS
100
AcDbLine
 10
-0.0499999999999545
 20
0.7210000000000037
 30
0.0
 11
-0.4488691220541341
 21
0.7210000000000037
 31
0.0
  0
LINE
  5
4F9
330
4DF
100
AcDbEntity
  8
BLOCKS
100
AcDbLine
 10
-0.0448966167614344
 20
0.7949999999999591
 30
0.0
 11
-0.4402763967615329
 21
0.7949999999999591
 31
0.0
  0
ARC
  5
4FA
330
4DF
100
AcDbEntity
  8
BLOCKS
100
AcDbCircle
 10
-0.3257872067172229
 20
1.175436267599593
 30
0.0
 40
0.4895659652736322
100
AcDbArc
 50
291.8374060467049
 51
307.2430829888066
  0
ENDBLK
  5
4FC
330
4DF
100
AcDbEntity
  8
0
100
AcDbBlockEnd
  0
ENDSEC
  0
SECTION
  2
ENTITIES
  0
INSERT
  5
2D3
330
23
100
AcDbEntity
  8
0
100
AcDbBlockReference
  2
108710PL
 10
64.30394907320755
 20
181.4460102229586
 30
0.0
  0
INSERT
  5
4BF
330
23
100
AcDbEntity
  8
0
100
AcDbBlockReference
  2
108710CT
 10
66.26513326243804
 20
180.4742648643718
 30
0.0
  0
INSERT
  5
4DE
330
23
100
AcDbEntity
  8
0
100
AcDbBlockReference
  2
108710AL
 10
64.99718169225646
 20
180.4742648643718
 30
0.0
  0
INSERT
  5
4FD
330
23
100
AcDbEntity
  8
0
100
AcDbBlockReference
  2
108710AF
 10
65.64018217748524
 20
180.4942648643718
 30
0.0
  0
ENDSEC
  0
SECTION
  2
OBJECTS
  0
DICTIONARY
  5
C
330
0
100
AcDbDictionary
281
     1
  3
ACAD_COLOR
350
1C
  3
ACAD_GROUP
350
D
  3
ACAD_LAYOUT
350
1A
  3
ACAD_MATERIAL
350
1B
  3
ACAD_MLEADERSTYLE
350
56C
  3
ACAD_MLINESTYLE
350
17
  3
ACAD_PLOTSETTINGS
350
19
  3
ACAD_PLOTSTYLENAME
350
E
  3
ACAD_SCALELIST
350
55A
  3
ACAD_TABLESTYLE
350
1D
  3
ACAD_VISUALSTYLE
350
546
  3
ACDB_RECOMPOSE_DATA
350
57B
  3
AcDbVariableDictionary
350
4FF
  3
DWGPROPS
350
57C
  0
DICTIONARY
  5
570
330
10
100
AcDbDictionary
280
     1
281
     1
  3
ADSK_XREC_LAYER_RECONCILED
360
571
  0
DICTIONARY
  5
572
330
2F
100
AcDbDictionary
280
     1
281
     1
  3
ADSK_XREC_LAYER_RECONCILED
360
573
  0
DICTIONARY
  5
1C
102
{ACAD_REACTORS
330
C
102
}
330
C
100
AcDbDictionary
281
     1
  0
DICTIONARY
  5
D
102
{ACAD_REACTORS
330
C
102
}
330
C
100
AcDbDictionary
281
     1
  0
DICTIONARY
  5
1A
102
{ACAD_REACTORS
330
C
102
}
330
C
100
AcDbDictionary
281
     1
  3
Layout1
350
22
  3
Layout2
350
2A
  3
Model
350
26
  0
DICTIONARY
  5
1B
102
{ACAD_REACTORS
330
C
102
}
330
C
100
AcDbDictionary
281
     1
  3
ByBlock
350
536
  3
ByLayer
350
52E
  3
Global
350
53E
  0
DICTIONARY
  5
56C
102
{ACAD_REACTORS
330
C
102
}
330
C
100
AcDbDictionary
281
     1
  3
Standard
350
56D
  0
DICTIONARY
  5
17
102
{ACAD_REACTORS
330
C
102
}
330
C
100
AcDbDictionary
281
     1
  3
Standard
350
18
  0
DICTIONARY
  5
19
102
{ACAD_REACTORS
330
C
102
}
330
C
100
AcDbDictionary
281
     1
  0
ACDBDICTIONARYWDFLT
  5
E
102
{ACAD_REACTORS
330
C
102
}
330
C
100
AcDbDictionary
281
     1
  3
Normal
350
F
100
AcDbDictionaryWithDefault
340
F
  0
DICTIONARY
  5
55A
102
{ACAD_REACTORS
330
C
102
}
330
C
100
AcDbDictionary
281
     1
  3
A0
350
55B
  3
A1
350
55C
  3
A2
350
55D
  3
A3
350
55E
  3
A4
350
55F
  3
A5
350
560
  3
A6
350
561
  3
A7
350
562
  3
A8
350
563
  3
A9
350
564
  3
B0
350
565
  3
B1
350
566
  3
B2
350
567
  3
B3
350
568
  3
B4
350
569
  3
B5
350
56A
  3
B6
350
56B
  0
DICTIONARY
  5
1D
102
{ACAD_REACTORS
330
C
102
}
330
C
100
AcDbDictionary
281
     1
  3
Standard
350
1E
  0
DICTIONARY
  5
546
102
{ACAD_REACTORS
330
C
102
}
330
C
100
AcDbDictionary
281
     1
  3
2dWireframe
350
54C
  3
3D Hidden
350
54E
  3
3dWireframe
350
54D
  3
Basic
350
54B
  3
Brighten
350
552
  3
ColorChange
350
556
  3
Conceptual
350
54F
  3
Dim
350
551
  3
EdgeColorOff
350
559
  3
Facepattern
350
555
  3
Flat
350
547
  3
FlatWithEdges
350
548
  3
Gouraud
350
549
  3
GouraudWithEdges
350
54A
  3
JitterOff
350
557
  3
Linepattern
350
554
  3
OverhangOff
350
558
  3
Realistic
350
550
  3
Thicken
350
553
  0
XRECORD
  5
57B
102
{ACAD_REACTORS
330
C
102
}
330
C
100
AcDbXrecord
280
     1
 90
        1
330
1E
  0
DICTIONARY
  5
4FF
102
{ACAD_REACTORS
330
C
102
}
330
C
100
AcDbDictionary
281
     1
  3
CANNOSCALE
350
575
  3
CMLEADERSTYLE
350
574
  3
CTABLESTYLE
350
500
  3
DIMASSOC
350
52B
  3
HIDETEXT
350
52A
  3
INDEXCTL
350
577
  3
PROJECTNAME
350
52C
  3
SORTENTS
350
576
  3
XCLIPFRAME
350
578
  0
XRECORD
  5
57C
102
{ACAD_REACTORS
330
C
102
}
330
C
100
AcDbXrecord
280
     1
  1
DWGPROPS COOKIE
  2

  3

  4

  6

  7

  8
Julio
  9

300
=
301
=
302
=
303
=
304
=
305
=
306
=
307
=
308
=
309
=
 40
0.0033255439814815
 41
2453977.654730903
 42
2456149.507703264
  1

 90
        0
  0
XRECORD
  5
571
102
{ACAD_REACTORS
330
570
102
}
330
570
100
AcDbXrecord
280
     1
290
     1
  0
XRECORD
  5
573
102
{ACAD_REACTORS
330
572
102
}
330
572
100
AcDbXrecord
280
     1
290
     1
  0
LAYOUT
  5
22
102
{ACAD_XDICTIONARY
360
57E
102
}
102
{ACAD_REACTORS
330
1A
102
}
330
1A
100
AcDbPlotSettings
  1

  2
HP DesignJet 500PS42+HPGL2 Card
  4

  6

 40
0.0
 41
0.0
 42
0.0
 43
0.0
 44
0.0
 45
0.0
 46
0.0
 47
0.0
 48
0.0
 49
0.0
140
0.0
141
0.0
142
1.0
143
1.0
 70
   688
 72
     0
 73
     0
 74
     5
  7
C:\Documents and Settings\Julio\Application Data\Autodesk\AutoCAD 2006\R16.2\enu\Plot Styles\sanindusa.ctb
 75
    16
147
1.0
148
0.0
149
0.0
100
AcDbLayout
  1
Layout1
 70
     1
 71
     1
 10
0.0
 20
0.0
 11
420.0
 21
297.0
 12
0.0
 22
0.0
 32
0.0
 14
1.000000000000000E+20
 24
1.000000000000000E+20
 34
1.000000000000000E+20
 15
-1.000000000000000E+20
 25
-1.000000000000000E+20
 35
-1.000000000000000E+20
146
0.0
 13
0.0
 23
0.0
 33
0.0
 16
1.0
 26
0.0
 36
0.0
 17
0.0
 27
1.0
 37
0.0
 76
     0
330
1F
  0
LAYOUT
  5
2A
102
{ACAD_XDICTIONARY
360
582
102
}
102
{ACAD_REACTORS
330
1A
102
}
330
1A
100
AcDbPlotSettings
  1

  2
HP DesignJet 500PS42+HPGL2 Card
  4

  6

 40
0.0
 41
0.0
 42
0.0
 43
0.0
 44
0.0
 45
0.0
 46
0.0
 47
0.0
 48
0.0
 49
0.0
140
0.0
141
0.0
142
1.0
143
1.0
 70
   688
 72
     0
 73
     0
 74
     5
  7
C:\Documents and Settings\Julio\Application Data\Autodesk\AutoCAD 2006\R16.2\enu\Plot Styles\sanindusa.ctb
 75
    16
147
1.0
148
0.0
149
0.0
100
AcDbLayout
  1
Layout2
 70
     1
 71
     2
 10
0.0
 20
0.0
 11
12.0
 21
9.0
 12
0.0
 22
0.0
 32
0.0
 14
0.0
 24
0.0
 34
0.0
 15
0.0
 25
0.0
 35
0.0
146
0.0
 13
0.0
 23
0.0
 33
0.0
 16
1.0
 26
0.0
 36
0.0
 17
0.0
 27
1.0
 37
0.0
 76
     0
330
27
  0
LAYOUT
  5
26
102
{ACAD_XDICTIONARY
360
580
102
}
102
{ACAD_REACTORS
330
1A
102
}
330
1A
100
AcDbPlotSettings
  1

  2
HP DesignJet 500PS42+HPGL2 Card
  4

  6

 40
0.0
 41
0.0
 42
0.0
 43
0.0
 44
0.0
 45
0.0
 46
0.0
 47
0.0
 48
0.0
 49
0.0
140
0.0
141
0.0
142
1.0
143
1.0
 70
  1712
 72
     0
 73
     0
 74
     0
  7
C:\Documents and Settings\Julio\Application Data\Autodesk\AutoCAD 2006\R16.2\enu\Plot Styles\sanindusa.ctb
 75
     0
147
1.0
148
0.0
149
0.0
100
AcDbLayout
  1
Model
 70
     1
 71
     0
 10
0.0
 20
0.0
 11
12.0
 21
9.0
 12
0.0
 22
0.0
 32
0.0
 14
0.0
 24
0.0
 34
0.0
 15
0.0
 25
0.0
 35
0.0
146
0.0
 13
0.0
 23
0.0
 33
0.0
 16
1.0
 26
0.0
 36
0.0
 17
0.0
 27
1.0
 37
0.0
 76
     0
330
23
331
522
  0
MATERIAL
  5
536
102
{ACAD_XDICTIONARY
360
537
102
}
102
{ACAD_REACTORS
330
1B
102
}
330
1B
100
AcDbMaterial
  1
ByBlock
 72
     0
 43
0.820209973753281
 43
0.0
 43
0.0
 43
0.0
 43
0.0
 43
0.820209973753281
 43
0.0
 43
0.0
 43
0.0
 43
0.0
 43
1.0
 43
0.0
 43
0.0
 43
0.0
 43
0.0
 43
1.0
 77
     0
 47
0.820209973753281
 47
0.0
 47
0.0
 47
0.0
 47
0.0
 47
0.820209973753281
 47
0.0
 47
0.0
 47
0.0
 47
0.0
 47
1.0
 47
0.0
 47
0.0
 47
0.0
 47
0.0
 47
1.0
171
     0
 49
0.820209973753281
 49
0.0
 49
0.0
 49
0.0
 49
0.0
 49
0.820209973753281
 49
0.0
 49
0.0
 49
0.0
 49
0.0
 49
1.0
 49
0.0
 49
0.0
 49
0.0
 49
0.0
 49
1.0
175
     0
142
0.820209973753281
142
0.0
142
0.0
142
0.0
142
0.0
142
0.820209973753281
142
0.0
142
0.0
142
0.0
142
0.0
142
1.0
142
0.0
142
0.0
142
0.0
142
0.0
142
1.0
179
     0
144
0.820209973753281
144
0.0
144
0.0
144
0.0
144
0.0
144
0.820209973753281
144
0.0
144
0.0
144
0.0
144
0.0
144
1.0
144
0.0
144
0.0
144
0.0
144
0.0
144
1.0
147
0.820209973753281
147
0.0
147
0.0
147
0.0
147
0.0
147
0.820209973753281
147
0.0
147
0.0
147
0.0
147
0.0
147
1.0
147
0.0
147
0.0
147
0.0
147
0.0
147
1.0
  0
MATERIAL
  5
52E
102
{ACAD_XDICTIONARY
360
52F
102
}
102
{ACAD_REACTORS
330
1B
102
}
330
1B
100
AcDbMaterial
  1
ByLayer
 72
     0
 43
0.820209973753281
 43
0.0
 43
0.0
 43
0.0
 43
0.0
 43
0.820209973753281
 43
0.0
 43
0.0
 43
0.0
 43
0.0
 43
1.0
 43
0.0
 43
0.0
 43
0.0
 43
0.0
 43
1.0
 77
     0
 47
0.820209973753281
 47
0.0
 47
0.0
 47
0.0
 47
0.0
 47
0.820209973753281
 47
0.0
 47
0.0
 47
0.0
 47
0.0
 47
1.0
 47
0.0
 47
0.0
 47
0.0
 47
0.0
 47
1.0
171
     0
 49
0.820209973753281
 49
0.0
 49
0.0
 49
0.0
 49
0.0
 49
0.820209973753281
 49
0.0
 49
0.0
 49
0.0
 49
0.0
 49
1.0
 49
0.0
 49
0.0
 49
0.0
 49
0.0
 49
1.0
175
     0
142
0.820209973753281
142
0.0
142
0.0
142
0.0
142
0.0
142
0.820209973753281
142
0.0
142
0.0
142
0.0
142
0.0
142
1.0
142
0.0
142
0.0
142
0.0
142
0.0
142
1.0
179
     0
144
0.820209973753281
144
0.0
144
0.0
144
0.0
144
0.0
144
0.820209973753281
144
0.0
144
0.0
144
0.0
144
0.0
144
1.0
144
0.0
144
0.0
144
0.0
144
0.0
144
1.0
147
0.820209973753281
147
0.0
147
0.0
147
0.0
147
0.0
147
0.820209973753281
147
0.0
147
0.0
147
0.0
147
0.0
147
1.0
147
0.0
147
0.0
147
0.0
147
0.0
147
1.0
  0
MATERIAL
  5
53E
102
{ACAD_XDICTIONARY
360
53F
102
}
102
{ACAD_REACTORS
330
1B
102
}
330
1B
100
AcDbMaterial
  1
Global
 72
     0
 43
0.820209973753281
 43
0.0
 43
0.0
 43
0.0
 43
0.0
 43
0.820209973753281
 43
0.0
 43
0.0
 43
0.0
 43
0.0
 43
1.0
 43
0.0
 43
0.0
 43
0.0
 43
0.0
 43
1.0
 77
     0
 47
0.820209973753281
 47
0.0
 47
0.0
 47
0.0
 47
0.0
 47
0.820209973753281
 47
0.0
 47
0.0
 47
0.0
 47
0.0
 47
1.0
 47
0.0
 47
0.0
 47
0.0
 47
0.0
 47
1.0
171
     0
 49
0.820209973753281
 49
0.0
 49
0.0
 49
0.0
 49
0.0
 49
0.820209973753281
 49
0.0
 49
0.0
 49
0.0
 49
0.0
 49
1.0
 49
0.0
 49
0.0
 49
0.0
 49
0.0
 49
1.0
175
     0
142
0.820209973753281
142
0.0
142
0.0
142
0.0
142
0.0
142
0.820209973753281
142
0.0
142
0.0
142
0.0
142
0.0
142
1.0
142
0.0
142
0.0
142
0.0
142
0.0
142
1.0
179
     0
144
0.820209973753281
144
0.0
144
0.0
144
0.0
144
0.0
144
0.820209973753281
144
0.0
144
0.0
144
0.0
144
0.0
144
1.0
144
0.0
144
0.0
144
0.0
144
0.0
144
1.0
147
0.820209973753281
147
0.0
147
0.0
147
0.0
147
0.0
147
0.820209973753281
147
0.0
147
0.0
147
0.0
147
0.0
147
1.0
147
0.0
147
0.0
147
0.0
147
0.0
147
1.0
  0
MLEADERSTYLE
  5
56D
102
{ACAD_REACTORS
330
56C
102
}
330
56C
100
AcDbMLeaderStyle
170
     2
171
     1
172
     0
 90
        2
 40
0.0
 41
0.0
173
     1
 91
-1056964608
340
14
 92
       -2
290
     1
 42
2.0
291
     1
 43
0.36
  3
Standard
 44
4.0
300

342
11
174
     1
178
     6
175
     1
176
     0
 93
-1056964608
 45
4.0
292
     0
297
     0
 46
4.0
 94
-1056964608
 47
1.0
 49
1.0
140
1.0
293
     1
141
0.0
294
     1
177
     0
142
1.0
295
     0
296
     0
143
0.125
1001
ACAD_MLEADERVER
1070
     2
  0
MLINESTYLE
  5
18
102
{ACAD_REACTORS
330
17
102
}
330
17
100
AcDbMlineStyle
  2
STANDARD
 70
     0
  3

 62
   256
 51
90.0
 52
90.0
 71
     2
 49
0.5
 62
   256
  6
BYLAYER
 49
-0.5
 62
   256
  6
BYLAYER
  0
ACDBPLACEHOLDER
  5
F
102
{ACAD_REACTORS
330
E
102
}
330
E
  0
SCALE
  5
55B
102
{ACAD_REACTORS
330
55A
102
}
330
55A
100
AcDbScale
 70
     0
300
1:1
140
1.0
141
1.0
290
     1
  0
SCALE
  5
55C
102
{ACAD_REACTORS
330
55A
102
}
330
55A
100
AcDbScale
 70
     0
300
1:2
140
1.0
141
2.0
290
     0
  0
SCALE
  5
55D
102
{ACAD_REACTORS
330
55A
102
}
330
55A
100
AcDbScale
 70
     0
300
1:4
140
1.0
141
4.0
290
     0
  0
SCALE
  5
55E
102
{ACAD_REACTORS
330
55A
102
}
330
55A
100
AcDbScale
 70
     0
300
1:5
140
1.0
141
5.0
290
     0
  0
SCALE
  5
55F
102
{ACAD_REACTORS
330
55A
102
}
330
55A
100
AcDbScale
 70
     0
300
1:8
140
1.0
141
8.0
290
     0
  0
SCALE
  5
560
102
{ACAD_REACTORS
330
55A
102
}
330
55A
100
AcDbScale
 70
     0
300
1:10
140
1.0
141
10.0
290
     0
  0
SCALE
  5
561
102
{ACAD_REACTORS
330
55A
102
}
330
55A
100
AcDbScale
 70
     0
300
1:16
140
1.0
141
16.0
290
     0
  0
SCALE
  5
562
102
{ACAD_REACTORS
330
55A
102
}
330
55A
100
AcDbScale
 70
     0
300
1:20
140
1.0
141
20.0
290
     0
  0
SCALE
  5
563
102
{ACAD_REACTORS
330
55A
102
}
330
55A
100
AcDbScale
 70
     0
300
1:30
140
1.0
141
30.0
290
     0
  0
SCALE
  5
564
102
{ACAD_REACTORS
330
55A
102
}
330
55A
100
AcDbScale
 70
     0
300
1:40
140
1.0
141
40.0
290
     0
  0
SCALE
  5
565
102
{ACAD_REACTORS
330
55A
102
}
330
55A
100
AcDbScale
 70
     0
300
1:50
140
1.0
141
50.0
290
     0
  0
SCALE
  5
566
102
{ACAD_REACTORS
330
55A
102
}
330
55A
100
AcDbScale
 70
     0
300
1:100
140
1.0
141
100.0
290
     0
  0
SCALE
  5
567
102
{ACAD_REACTORS
330
55A
102
}
330
55A
100
AcDbScale
 70
     0
300
2:1
140
2.0
141
1.0
290
     0
  0
SCALE
  5
568
102
{ACAD_REACTORS
330
55A
102
}
330
55A
100
AcDbScale
 70
     0
300
4:1
140
4.0
141
1.0
290
     0
  0
SCALE
  5
569
102
{ACAD_REACTORS
330
55A
102
}
330
55A
100
AcDbScale
 70
     0
300
8:1
140
8.0
141
1.0
290
     0
  0
SCALE
  5
56A
102
{ACAD_REACTORS
330
55A
102
}
330
55A
100
AcDbScale
 70
     0
300
10:1
140
10.0
141
1.0
290
     0
  0
SCALE
  5
56B
102
{ACAD_REACTORS
330
55A
102
}
330
55A
100
AcDbScale
 70
     0
300
100:1
140
100.0
141
1.0
290
     0
  0
TABLESTYLE
  5
1E
102
{ACAD_XDICTIONARY
360
579
102
}
102
{ACAD_REACTORS
330
1D
102
}
330
1D
100
AcDbTableStyle
  3
Standard
 70
     0
 71
     0
 40
1.5
 41
1.5
280
     0
281
     0
  7
Standard
140
4.5
170
     2
 62
     0
 63
     7
283
     0
274
    -2
284
     1
 64
     0
275
    -2
285
     1
 65
     0
276
    -2
286
     1
 66
     0
277
    -2
287
     1
 67
     0
278
    -2
288
     1
 68
     0
279
    -2
289
     1
 69
     0
  7
Standard
140
6.0
170
     5
 62
     0
 63
     7
283
     0
274
    -2
284
     1
 64
     0
275
    -2
285
     1
 65
     0
276
    -2
286
     1
 66
     0
277
    -2
287
     1
 67
     0
278
    -2
288
     1
 68
     0
279
    -2
289
     1
 69
     0
  7
Standard
140
4.5
170
     5
 62
     0
 63
     7
283
     0
274
    -2
284
     1
 64
     0
275
    -2
285
     1
 65
     0
276
    -2
286
     1
 66
     0
277
    -2
287
     1
 67
     0
278
    -2
288
     1
 68
     0
279
    -2
289
     1
 69
     0
  0
VISUALSTYLE
  5
54C
102
{ACAD_XDICTIONARY
360
591
102
}
102
{ACAD_REACTORS
330
546
102
}
330
546
100
AcDbVisualStyle
  2
2dWireframe
 70
     4
 71
     0
 72
     2
 73
     0
 90
        0
 40
-0.6
 41
-30.0
 62
     5
 63
     7
 74
     1
 91
        4
 64
     7
 65
   257
 75
     1
175
     1
 42
1.0
 92
        0
 66
   257
 43
1.0
 76
     1
 77
     6
 78
     2
 67
     7
 79
     5
170
     0
171
     0
290
     0
174
     0
 93
        1
 44
0.0
173
     0
291
     0
 45
0.0
1001
ACAD
1000
AcDbSavedByObjectVersion
1070
     0
  0
VISUALSTYLE
  5
54E
102
{ACAD_XDICTIONARY
360
595
102
}
102
{ACAD_REACTORS
330
546
102
}
330
546
100
AcDbVisualStyle
  2
3D Hidden
 70
     6
 71
     1
 72
     2
 73
     2
 90
        0
 40
-0.6
 41
-30.0
 62
     5
 63
     7
 74
     2
 91
        2
 64
     7
 65
   257
 75
     2
175
     1
 42
179.0
 92
        0
 66
   257
 43
1.0
 76
     1
 77
     6
 78
     2
 67
     7
 79
     3
170
     0
171
     0
290
     0
174
     0
 93
        1
 44
0.0
173
     0
291
     0
 45
0.0
1001
ACAD
1000
AcDbSavedByObjectVersion
1070
     0
  0
VISUALSTYLE
  5
54D
102
{ACAD_XDICTIONARY
360
593
102
}
102
{ACAD_REACTORS
330
546
102
}
330
546
100
AcDbVisualStyle
  2
3dWireframe
 70
     5
 71
     0
 72
     2
 73
     0
 90
        0
 40
-0.6
 41
-30.0
 62
     5
 63
     7
 74
     1
 91
        4
 64
     7
 65
   257
 75
     1
175
     1
 42
1.0
 92
        0
 66
   257
 43
1.0
 76
     1
 77
     6
 78
     2
 67
     7
 79
     5
170
     0
171
     0
290
     0
174
     0
 93
        1
 44
0.0
173
     0
291
     0
 45
0.0
1001
ACAD
1000
AcDbSavedByObjectVersion
1070
     0
  0
VISUALSTYLE
  5
54B
102
{ACAD_XDICTIONARY
360
58F
102
}
102
{ACAD_REACTORS
330
546
102
}
330
546
100
AcDbVisualStyle
  2
Basic
 70
     7
 71
     1
 72
     0
 73
     1
 90
        0
 40
-0.6
 41
-30.0
 62
     5
 63
     7
 74
     0
 91
        4
 64
     7
 65
   257
 75
     1
175
     1
 42
1.0
 92
        8
 66
     7
 43
1.0
 76
     1
 77
     6
 78
     2
 67
     7
 79
     5
170
     0
171
     0
290
     0
174
     0
 93
        1
 44
0.0
173
     0
291
     1
 45
0.0
1001
ACAD
1000
AcDbSavedByObjectVersion
1070
     0
  0
VISUALSTYLE
  5
552
102
{ACAD_XDICTIONARY
360
59D
102
}
102
{ACAD_REACTORS
330
546
102
}
330
546
100
AcDbVisualStyle
  2
Brighten
 70
    12
 71
     2
 72
     2
 73
     0
 90
        0
 40
-0.6
 41
-30.0
 62
     5
 63
     7
 74
     1
 91
        4
 64
     7
 65
   257
 75
     1
175
     1
 42
1.0
 92
        8
 66
     7
 43
1.0
 76
     1
 77
     6
 78
     2
 67
     7
 79
     5
170
     0
171
     0
290
     0
174
     0
 93
        1
 44
50.0
173
     0
291
     1
 45
0.0
1001
ACAD
1000
AcDbSavedByObjectVersion
1070
     0
  0
VISUALSTYLE
  5
556
102
{ACAD_XDICTIONARY
360
5A5
102
}
102
{ACAD_REACTORS
330
546
102
}
330
546
100
AcDbVisualStyle
  2
ColorChange
 70
    16
 71
     2
 72
     2
 73
     3
 90
        0
 40
-0.6
 41
-30.0
 62
     5
 63
     8
 74
     1
 91
        4
 64
     7
 65
   257
 75
     1
175
     1
 42
1.0
 92
        8
 66
     8
 43
1.0
 76
     1
 77
     6
 78
     2
 67
     7
 79
     5
170
     0
171
     0
290
     0
174
     0
 93
        1
 44
0.0
173
     0
291
     1
 45
0.0
1001
ACAD
1000
AcDbSavedByObjectVersion
1070
     0
  0
VISUALSTYLE
  5
54F
102
{ACAD_XDICTIONARY
360
597
102
}
102
{ACAD_REACTORS
330
546
102
}
330
546
100
AcDbVisualStyle
  2
Conceptual
 70
     9
 71
     3
 72
     2
 73
     0
 90
        0
 40
-0.6
 41
-30.0
 62
     5
 63
     7
 74
     2
 91
        2
 64
     7
 65
   257
 75
     1
175
     1
 42
179.0
 92
        8
 66
     7
 43
1.0
 76
     1
 77
     6
 78
     2
 67
     7
 79
     3
170
     0
171
     0
290
     0
174
     0
 93
        1
 44
0.0
173
     0
291
     0
 45
0.0
1001
ACAD
1000
AcDbSavedByObjectVersion
1070
     0
  0
VISUALSTYLE
  5
551
102
{ACAD_XDICTIONARY
360
59B
102
}
102
{ACAD_REACTORS
330
546
102
}
330
546
100
AcDbVisualStyle
  2
Dim
 70
    11
 71
     2
 72
     2
 73
     0
 90
        0
 40
-0.6
 41
-30.0
 62
     5
 63
     7
 74
     1
 91
        4
 64
     7
 65
   257
 75
     1
175
     1
 42
1.0
 92
        8
 66
     7
 43
1.0
 76
     1
 77
     6
 78
     2
 67
     7
 79
     5
170
     0
171
     0
290
     0
174
     0
 93
        1
 44
-50.0
173
     0
291
     1
 45
0.0
1001
ACAD
1000
AcDbSavedByObjectVersion
1070
     0
  0
VISUALSTYLE
  5
559
102
{ACAD_XDICTIONARY
360
5AB
102
}
102
{ACAD_REACTORS
330
546
102
}
330
546
100
AcDbVisualStyle
  2
EdgeColorOff
 70
    22
 71
     2
 72
     2
 73
     0
 90
        0
 40
-0.6
 41
-30.0
 62
     5
 63
     7
 74
     1
 91
        4
 64
     7
 65
   257
 75
     1
175
     1
 42
1.0
 92
        8
 66
     7
 43
1.0
 76
     1
 77
     6
 78
     2
 67
     7
 79
     5
170
     0
171
     0
290
     0
174
     0
 93
        1
 44
0.0
173
     0
291
     1
 45
0.0
1001
ACAD
1000
AcDbSavedByObjectVersion
1070
     0
  0
VISUALSTYLE
  5
555
102
{ACAD_XDICTIONARY
360
5A3
102
}
102
{ACAD_REACTORS
330
546
102
}
330
546
100
AcDbVisualStyle
  2
Facepattern
 70
    15
 71
     2
 72
     2
 73
     0
 90
        0
 40
-0.6
 41
-30.0
 62
     5
 63
     7
 74
     1
 91
        4
 64
     7
 65
   257
 75
     1
175
     1
 42
1.0
 92
        8
 66
     7
 43
1.0
 76
     1
 77
     6
 78
     2
 67
     7
 79
     5
170
     0
171
     0
290
     0
174
     0
 93
        1
 44
0.0
173
     0
291
     1
 45
0.0
1001
ACAD
1000
AcDbSavedByObjectVersion
1070
     0
  0
VISUALSTYLE
  5
547
102
{ACAD_XDICTIONARY
360
587
102
}
102
{ACAD_REACTORS
330
546
102
}
330
546
100
AcDbVisualStyle
  2
Flat
 70
     0
 71
     2
 72
     1
 73
     1
 90
        2
 40
-0.6
 41
30.0
 62
     5
 63
     7
 74
     0
 91
        4
 64
     7
 65
   257
 75
     1
175
     1
 42
1.0
 92
        8
 66
     7
 43
1.0
 76
     1
 77
     6
 78
     2
 67
     7
 79
     5
170
     0
171
     0
290
     0
174
     0
 93
       13
 44
0.0
173
     0
291
     1
 45
0.0
1001
ACAD
1000
AcDbSavedByObjectVersion
1070
     0
  0
VISUALSTYLE
  5
548
102
{ACAD_XDICTIONARY
360
589
102
}
102
{ACAD_REACTORS
330
546
102
}
330
546
100
AcDbVisualStyle
  2
FlatWithEdges
 70
     1
 71
     2
 72
     1
 73
     1
 90
        2
 40
-0.6
 41
30.0
 62
     5
 63
     7
 74
     1
 91
        4
 64
     7
 65
   257
 75
     1
175
     1
 42
1.0
 92
        0
 66
   257
 43
1.0
 76
     1
 77
     6
 78
     2
 67
     7
 79
     5
170
     0
171
     0
290
     0
174
     0
 93
       13
 44
0.0
173
     0
291
     1
 45
0.0
1001
ACAD
1000
AcDbSavedByObjectVersion
1070
     0
  0
VISUALSTYLE
  5
549
102
{ACAD_XDICTIONARY
360
58B
102
}
102
{ACAD_REACTORS
330
546
102
}
330
546
100
AcDbVisualStyle
  2
Gouraud
 70
     2
 71
     2
 72
     2
 73
     1
 90
        2
 40
-0.6
 41
30.0
 62
     5
 63
     7
 74
     0
 91
        4
 64
     7
 65
   257
 75
     1
175
     1
 42
1.0
 92
        0
 66
     7
 43
1.0
 76
     1
 77
     6
 78
     2
 67
     7
 79
     5
170
     0
171
     0
290
     0
174
     0
 93
       13
 44
0.0
173
     0
291
     1
 45
0.0
1001
ACAD
1000
AcDbSavedByObjectVersion
1070
     0
  0
VISUALSTYLE
  5
54A
102
{ACAD_XDICTIONARY
360
58D
102
}
102
{ACAD_REACTORS
330
546
102
}
330
546
100
AcDbVisualStyle
  2
GouraudWithEdges
 70
     3
 71
     2
 72
     2
 73
     1
 90
        2
 40
-0.6
 41
30.0
 62
     5
 63
     7
 74
     1
 91
        4
 64
     7
 65
   257
 75
     1
175
     1
 42
1.0
 92
        0
 66
   257
 43
1.0
 76
     1
 77
     6
 78
     2
 67
     7
 79
     5
170
     0
171
     0
290
     0
174
     0
 93
       13
 44
0.0
173
     0
291
     1
 45
0.0
1001
ACAD
1000
AcDbSavedByObjectVersion
1070
     0
  0
VISUALSTYLE
  5
557
102
{ACAD_XDICTIONARY
360
5A7
102
}
102
{ACAD_REACTORS
330
546
102
}
330
546
100
AcDbVisualStyle
  2
JitterOff
 70
    20
 71
     2
 72
     2
 73
     0
 90
        0
 40
-0.6
 41
-30.0
 62
     5
 63
     7
 74
     1
 91
        4
 64
     7
 65
   257
 75
     1
175
     1
 42
1.0
 92
       10
 66
     7
 43
1.0
 76
     1
 77
     6
 78
     2
 67
     7
 79
     5
170
     0
171
     0
290
     0
174
     0
 93
        1
 44
0.0
173
     0
291
     1
 45
0.0
1001
ACAD
1000
AcDbSavedByObjectVersion
1070
     0
  0
VISUALSTYLE
  5
554
102
{ACAD_XDICTIONARY
360
5A1
102
}
102
{ACAD_REACTORS
330
546
102
}
330
546
100
AcDbVisualStyle
  2
Linepattern
 70
    14
 71
     2
 72
     2
 73
     0
 90
        0
 40
-0.6
 41
-30.0
 62
     5
 63
     7
 74
     1
 91
        4
 64
     7
 65
   257
 75
     7
175
     7
 42
1.0
 92
        8
 66
     7
 43
1.0
 76
     1
 77
     6
 78
     2
 67
     7
 79
     5
170
     0
171
     0
290
     0
174
     0
 93
        1
 44
0.0
173
     0
291
     1
 45
0.0
1001
ACAD
1000
AcDbSavedByObjectVersion
1070
     0
  0
VISUALSTYLE
  5
558
102
{ACAD_XDICTIONARY
360
5A9
102
}
102
{ACAD_REACTORS
330
546
102
}
330
546
100
AcDbVisualStyle
  2
OverhangOff
 70
    21
 71
     2
 72
     2
 73
     0
 90
        0
 40
-0.6
 41
-30.0
 62
     5
 63
     7
 74
     1
 91
        4
 64
     7
 65
   257
 75
     1
175
     1
 42
1.0
 92
        9
 66
     7
 43
1.0
 76
     1
 77
     6
 78
     2
 67
     7
 79
     5
170
     0
171
     0
290
     0
174
     0
 93
        1
 44
0.0
173
     0
291
     1
 45
0.0
1001
ACAD
1000
AcDbSavedByObjectVersion
1070
     0
  0
VISUALSTYLE
  5
550
102
{ACAD_XDICTIONARY
360
599
102
}
102
{ACAD_REACTORS
330
546
102
}
330
546
100
AcDbVisualStyle
  2
Realistic
 70
     8
 71
     2
 72
     2
 73
     0
 90
        0
 40
-0.6
 41
-30.0
 62
     5
 63
     7
 74
     1
 91
        0
 64
     7
 65
   257
 75
     1
175
     1
 42
1.0
 92
        8
 66
     8
 43
1.0
 76
     1
 77
     6
 78
     2
 67
     7
 79
     5
170
     0
171
     0
290
     0
174
     0
 93
       13
 44
0.0
173
     0
291
     0
 45
0.0
1001
ACAD
1000
AcDbSavedByObjectVersion
1070
     0
  0
VISUALSTYLE
  5
553
102
{ACAD_XDICTIONARY
360
59F
102
}
102
{ACAD_REACTORS
330
546
102
}
330
546
100
AcDbVisualStyle
  2
Thicken
 70
    13
 71
     2
 72
     2
 73
     0
 90
        0
 40
-0.6
 41
-30.0
 62
     5
 63
     7
 74
     1
 91
        4
 64
     7
 65
   257
 75
     1
175
     1
 42
1.0
 92
       12
 66
     7
 43
1.0
 76
     1
 77
     6
 78
     2
 67
     7
 79
     5
170
     0
171
     0
290
     0
174
     0
 93
        1
 44
0.0
173
     0
291
     1
 45
0.0
1001
ACAD
1000
AcDbSavedByObjectVersion
1070
     0
  0
DICTIONARYVAR
  5
575
102
{ACAD_REACTORS
330
4FF
102
}
330
4FF
100
DictionaryVariables
280
     0
  1
1:1
  0
DICTIONARYVAR
  5
574
102
{ACAD_REACTORS
330
4FF
102
}
330
4FF
100
DictionaryVariables
280
     0
  1
STANDARD
  0
DICTIONARYVAR
  5
500
102
{ACAD_REACTORS
330
4FF
102
}
330
4FF
100
DictionaryVariables
280
     0
  1
STANDARD
  0
DICTIONARYVAR
  5
52B
102
{ACAD_REACTORS
330
4FF
102
}
330
4FF
100
DictionaryVariables
280
     0
  1
2
  0
DICTIONARYVAR
  5
52A
102
{ACAD_REACTORS
330
4FF
102
}
330
4FF
100
DictionaryVariables
280
     0
  1
1
  0
DICTIONARYVAR
  5
577
102
{ACAD_REACTORS
330
4FF
102
}
330
4FF
100
DictionaryVariables
280
     0
  1
0
  0
DICTIONARYVAR
  5
52C
102
{ACAD_REACTORS
330
4FF
102
}
330
4FF
100
DictionaryVariables
280
     0
  1

  0
DICTIONARYVAR
  5
576
102
{ACAD_REACTORS
330
4FF
102
}
330
4FF
100
DictionaryVariables
280
     0
  1
127
  0
DICTIONARYVAR
  5
578
102
{ACAD_REACTORS
330
4FF
102
}
330
4FF
100
DictionaryVariables
280
     0
  1
2
  0
DICTIONARY
  5
57E
330
22
100
AcDbDictionary
280
     1
281
     1
  3
ACAD_XREC_ROUNDTRIP
360
57F
  0
DICTIONARY
  5
582
330
2A
100
AcDbDictionary
280
     1
281
     1
  3
ACAD_XREC_ROUNDTRIP
360
583
  0
DICTIONARY
  5
580
330
26
100
AcDbDictionary
280
     1
281
     1
  3
ACAD_XREC_ROUNDTRIP
360
581
  0
DICTIONARY
  5
537
330
536
100
AcDbDictionary
280
     1
281
     1
  3
ACAD_XREC_ROUNDTRIP
360
585
  3
BUMPTILE
360
539
  3
DIFFUSETILE
360
538
  3
OPACITYTILE
360
53C
  3
REFLECTIONTILE
360
53B
  3
REFRACTIONTILE
360
53D
  3
SPECULARTILE
360
53A
  0
DICTIONARY
  5
52F
330
52E
100
AcDbDictionary
280
     1
281
     1
  3
ACAD_XREC_ROUNDTRIP
360
584
  3
BUMPTILE
360
531
  3
DIFFUSETILE
360
530
  3
OPACITYTILE
360
534
  3
REFLECTIONTILE
360
533
  3
REFRACTIONTILE
360
535
  3
SPECULARTILE
360
532
  0
DICTIONARY
  5
53F
330
53E
100
AcDbDictionary
280
     1
281
     1
  3
ACAD_XREC_ROUNDTRIP
360
586
  3
BUMPTILE
360
541
  3
DIFFUSETILE
360
540
  3
OPACITYTILE
360
544
  3
REFLECTIONTILE
360
543
  3
REFRACTIONTILE
360
545
  3
SPECULARTILE
360
542
  0
DICTIONARY
  5
579
330
1E
100
AcDbDictionary
280
     1
281
     1
  3
ACAD_ROUNDTRIP_2008_TABLESTYLE_CELLSTYLEMAP
360
57A
  3
ACAD_XREC_ROUNDTRIP
360
57D
  0
DICTIONARY
  5
591
330
54C
100
AcDbDictionary
280
     1
281
     1
  3
ACAD_XREC_ROUNDTRIP
360
592
  0
DICTIONARY
  5
595
330
54E
100
AcDbDictionary
280
     1
281
     1
  3
ACAD_XREC_ROUNDTRIP
360
596
  0
DICTIONARY
  5
593
330
54D
100
AcDbDictionary
280
     1
281
     1
  3
ACAD_XREC_ROUNDTRIP
360
594
  0
DICTIONARY
  5
58F
330
54B
100
AcDbDictionary
280
     1
281
     1
  3
ACAD_XREC_ROUNDTRIP
360
590
  0
DICTIONARY
  5
59D
330
552
100
AcDbDictionary
280
     1
281
     1
  3
ACAD_XREC_ROUNDTRIP
360
59E
  0
DICTIONARY
  5
5A5
330
556
100
AcDbDictionary
280
     1
281
     1
  3
ACAD_XREC_ROUNDTRIP
360
5A6
  0
DICTIONARY
  5
597
330
54F
100
AcDbDictionary
280
     1
281
     1
  3
ACAD_XREC_ROUNDTRIP
360
598
  0
DICTIONARY
  5
59B
330
551
100
AcDbDictionary
280
     1
281
     1
  3
ACAD_XREC_ROUNDTRIP
360
59C
  0
DICTIONARY
  5
5AB
330
559
100
AcDbDictionary
280
     1
281
     1
  3
ACAD_XREC_ROUNDTRIP
360
5AC
  0
DICTIONARY
  5
5A3
330
555
100
AcDbDictionary
280
     1
281
     1
  3
ACAD_XREC_ROUNDTRIP
360
5A4
  0
DICTIONARY
  5
587
330
547
100
AcDbDictionary
280
     1
281
     1
  3
ACAD_XREC_ROUNDTRIP
360
588
  0
DICTIONARY
  5
589
330
548
100
AcDbDictionary
280
     1
281
     1
  3
ACAD_XREC_ROUNDTRIP
360
58A
  0
DICTIONARY
  5
58B
330
549
100
AcDbDictionary
280
     1
281
     1
  3
ACAD_XREC_ROUNDTRIP
360
58C
  0
DICTIONARY
  5
58D
330
54A
100
AcDbDictionary
280
     1
281
     1
  3
ACAD_XREC_ROUNDTRIP
360
58E
  0
DICTIONARY
  5
5A7
330
557
100
AcDbDictionary
280
     1
281
     1
  3
ACAD_XREC_ROUNDTRIP
360
5A8
  0
DICTIONARY
  5
5A1
330
554
100
AcDbDictionary
280
     1
281
     1
  3
ACAD_XREC_ROUNDTRIP
360
5A2
  0
DICTIONARY
  5
5A9
330
558
100
AcDbDictionary
280
     1
281
     1
  3
ACAD_XREC_ROUNDTRIP
360
5AA
  0
DICTIONARY
  5
599
330
550
100
AcDbDictionary
280
     1
281
     1
  3
ACAD_XREC_ROUNDTRIP
360
59A
  0
DICTIONARY
  5
59F
330
553
100
AcDbDictionary
280
     1
281
     1
  3
ACAD_XREC_ROUNDTRIP
360
5A0
  0
XRECORD
  5
57F
102
{ACAD_REACTORS
330
57E
102
}
330
57E
100
AcDbXrecord
280
     1
102
SHADEPLOT
 70
     0
102
SHADEPLOTRESLEVEL
 70
     2
102
SHADEPLOTCUSTOMDPI
 70
   300
  0
XRECORD
  5
583
102
{ACAD_REACTORS
330
582
102
}
330
582
100
AcDbXrecord
280
     1
102
SHADEPLOT
 70
     0
102
SHADEPLOTRESLEVEL
 70
     2
102
SHADEPLOTCUSTOMDPI
 70
   300
  0
XRECORD
  5
581
102
{ACAD_REACTORS
330
580
102
}
330
580
100
AcDbXrecord
280
     1
102
SHADEPLOT
 70
     0
102
SHADEPLOTRESLEVEL
 70
     2
102
SHADEPLOTCUSTOMDPI
 70
   300
  0
XRECORD
  5
585
102
{ACAD_REACTORS
330
537
102
}
330
537
100
AcDbXrecord
280
     1
102
MATERIAL
148
0.0
149
0.0
149
0.0
 93
        0
 94
      127
282
     0
 72
     0
 77
     0
171
     0
175
     0
179
     0
273
     0
  0
XRECORD
  5
539
102
{ACAD_REACTORS
330
537
102
}
330
537
100
AcDbXrecord
280
     1
270
     1
271
     1
  0
XRECORD
  5
538
102
{ACAD_REACTORS
330
537
102
}
330
537
100
AcDbXrecord
280
     1
270
     1
271
     1
  0
XRECORD
  5
53C
102
{ACAD_REACTORS
330
537
102
}
330
537
100
AcDbXrecord
280
     1
270
     1
271
     1
  0
XRECORD
  5
53B
102
{ACAD_REACTORS
330
537
102
}
330
537
100
AcDbXrecord
280
     1
270
     1
271
     1
  0
XRECORD
  5
53D
102
{ACAD_REACTORS
330
537
102
}
330
537
100
AcDbXrecord
280
     1
270
     1
271
     1
  0
XRECORD
  5
53A
102
{ACAD_REACTORS
330
537
102
}
330
537
100
AcDbXrecord
280
     1
270
     1
271
     1
  0
XRECORD
  5
584
102
{ACAD_REACTORS
330
52F
102
}
330
52F
100
AcDbXrecord
280
     1
102
MATERIAL
148
0.0
149
0.0
149
0.0
 93
        0
 94
      127
282
     0
 72
     0
 77
     0
171
     0
175
     0
179
     0
273
     0
  0
XRECORD
  5
531
102
{ACAD_REACTORS
330
52F
102
}
330
52F
100
AcDbXrecord
280
     1
270
     1
271
     1
  0
XRECORD
  5
530
102
{ACAD_REACTORS
330
52F
102
}
330
52F
100
AcDbXrecord
280
     1
270
     1
271
     1
  0
XRECORD
  5
534
102
{ACAD_REACTORS
330
52F
102
}
330
52F
100
AcDbXrecord
280
     1
270
     1
271
     1
  0
XRECORD
  5
533
102
{ACAD_REACTORS
330
52F
102
}
330
52F
100
AcDbXrecord
280
     1
270
     1
271
     1
  0
XRECORD
  5
535
102
{ACAD_REACTORS
330
52F
102
}
330
52F
100
AcDbXrecord
280
     1
270
     1
271
     1
  0
XRECORD
  5
532
102
{ACAD_REACTORS
330
52F
102
}
330
52F
100
AcDbXrecord
280
     1
270
     1
271
     1
  0
XRECORD
  5
586
102
{ACAD_REACTORS
330
53F
102
}
330
53F
100
AcDbXrecord
280
     1
102
MATERIAL
148
0.0
149
0.0
149
0.0
 93
        0
 94
      127
282
     0
 72
     0
 77
     0
171
     0
175
     0
179
     0
273
     0
  0
XRECORD
  5
541
102
{ACAD_REACTORS
330
53F
102
}
330
53F
100
AcDbXrecord
280
     1
270
     1
271
     1
  0
XRECORD
  5
540
102
{ACAD_REACTORS
330
53F
102
}
330
53F
100
AcDbXrecord
280
     1
270
     1
271
     1
  0
XRECORD
  5
544
102
{ACAD_REACTORS
330
53F
102
}
330
53F
100
AcDbXrecord
280
     1
270
     1
271
     1
  0
XRECORD
  5
543
102
{ACAD_REACTORS
330
53F
102
}
330
53F
100
AcDbXrecord
280
     1
270
     1
271
     1
  0
XRECORD
  5
545
102
{ACAD_REACTORS
330
53F
102
}
330
53F
100
AcDbXrecord
280
     1
270
     1
271
     1
  0
XRECORD
  5
542
102
{ACAD_REACTORS
330
53F
102
}
330
53F
100
AcDbXrecord
280
     1
270
     1
271
     1
  0
CELLSTYLEMAP
  5
57A
102
{ACAD_REACTORS
330
579
102
}
330
579
100
AcDbCellStyleMap
 90
        3
300
CELLSTYLE
  1
TABLEFORMAT_BEGIN
 90
        5
170
     1
 91
        0
 92
    32768
 62
   257
 93
        1
300
CONTENTFORMAT
  1
CONTENTFORMAT_BEGIN
 90
        0
 91
        0
 92
        4
 93
        0
300

 40
0.0
140
1.0
 94
        5
 62
     0
340
11
144
6.0
309
CONTENTFORMAT_END
171
     1
301
MARGIN
  1
CELLMARGIN_BEGIN
 40
1.5
 40
1.5
 40
1.5
 40
1.5
 40
0.18
 40
0.18
309
CELLMARGIN_END
 94
        6
 95
        1
302
GRIDFORMAT
  1
GRIDFORMAT_BEGIN
 90
        0
 91
        1
 62
     0
 92
       -2
340
0
 93
        0
 40
0.045
309
GRIDFORMAT_END
 95
        2
302
GRIDFORMAT
  1
GRIDFORMAT_BEGIN
 90
        0
 91
        1
 62
     0
 92
       -2
340
0
 93
        0
 40
0.045
309
GRIDFORMAT_END
 95
        4
302
GRIDFORMAT
  1
GRIDFORMAT_BEGIN
 90
        0
 91
        1
 62
     0
 92
       -2
340
0
 93
        0
 40
0.045
309
GRIDFORMAT_END
 95
        8
302
GRIDFORMAT
  1
GRIDFORMAT_BEGIN
 90
        0
 91
        1
 62
     0
 92
       -2
340
0
 93
        0
 40
0.045
309
GRIDFORMAT_END
 95
       16
302
GRIDFORMAT
  1
GRIDFORMAT_BEGIN
 90
        0
 91
        1
 62
     0
 92
       -2
340
0
 93
        0
 40
0.045
309
GRIDFORMAT_END
 95
       32
302
GRIDFORMAT
  1
GRIDFORMAT_BEGIN
 90
        0
 91
        1
 62
     0
 92
       -2
340
0
 93
        0
 40
0.045
309
GRIDFORMAT_END
309
TABLEFORMAT_END
  1
CELLSTYLE_BEGIN
 90
        1
 91
        1
300
_TITLE
309
CELLSTYLE_END
300
CELLSTYLE
  1
TABLEFORMAT_BEGIN
 90
        5
170
     1
 91
        0
 92
        0
 62
   257
 93
        1
300
CONTENTFORMAT
  1
CONTENTFORMAT_BEGIN
 90
        0
 91
        0
 92
        4
 93
        0
300

 40
0.0
140
1.0
 94
        5
 62
     0
340
11
144
4.5
309
CONTENTFORMAT_END
171
     1
301
MARGIN
  1
CELLMARGIN_BEGIN
 40
1.5
 40
1.5
 40
1.5
 40
1.5
 40
0.18
 40
0.18
309
CELLMARGIN_END
 94
        6
 95
        1
302
GRIDFORMAT
  1
GRIDFORMAT_BEGIN
 90
        0
 91
        1
 62
     0
 92
       -2
340
0
 93
        0
 40
0.045
309
GRIDFORMAT_END
 95
        2
302
GRIDFORMAT
  1
GRIDFORMAT_BEGIN
 90
        0
 91
        1
 62
     0
 92
       -2
340
0
 93
        0
 40
0.045
309
GRIDFORMAT_END
 95
        4
302
GRIDFORMAT
  1
GRIDFORMAT_BEGIN
 90
        0
 91
        1
 62
     0
 92
       -2
340
0
 93
        0
 40
0.045
309
GRIDFORMAT_END
 95
        8
302
GRIDFORMAT
  1
GRIDFORMAT_BEGIN
 90
        0
 91
        1
 62
     0
 92
       -2
340
0
 93
        0
 40
0.045
309
GRIDFORMAT_END
 95
       16
302
GRIDFORMAT
  1
GRIDFORMAT_BEGIN
 90
        0
 91
        1
 62
     0
 92
       -2
340
0
 93
        0
 40
0.045
309
GRIDFORMAT_END
 95
       32
302
GRIDFORMAT
  1
GRIDFORMAT_BEGIN
 90
        0
 91
        1
 62
     0
 92
       -2
340
0
 93
        0
 40
0.045
309
GRIDFORMAT_END
309
TABLEFORMAT_END
  1
CELLSTYLE_BEGIN
 90
        2
 91
        1
300
_HEADER
309
CELLSTYLE_END
300
CELLSTYLE
  1
TABLEFORMAT_BEGIN
 90
        5
170
     1
 91
        0
 92
        0
 62
   257
 93
        1
300
CONTENTFORMAT
  1
CONTENTFORMAT_BEGIN
 90
        0
 91
        0
 92
        4
 93
        0
300

 40
0.0
140
1.0
 94
        2
 62
     0
340
11
144
4.5
309
CONTENTFORMAT_END
171
     1
301
MARGIN
  1
CELLMARGIN_BEGIN
 40
1.5
 40
1.5
 40
1.5
 40
1.5
 40
0.18
 40
0.18
309
CELLMARGIN_END
 94
        6
 95
        1
302
GRIDFORMAT
  1
GRIDFORMAT_BEGIN
 90
        0
 91
        1
 62
     0
 92
       -2
340
0
 93
        0
 40
0.045
309
GRIDFORMAT_END
 95
        2
302
GRIDFORMAT
  1
GRIDFORMAT_BEGIN
 90
        0
 91
        1
 62
     0
 92
       -2
340
0
 93
        0
 40
0.045
309
GRIDFORMAT_END
 95
        4
302
GRIDFORMAT
  1
GRIDFORMAT_BEGIN
 90
        0
 91
        1
 62
     0
 92
       -2
340
0
 93
        0
 40
0.045
309
GRIDFORMAT_END
 95
        8
302
GRIDFORMAT
  1
GRIDFORMAT_BEGIN
 90
        0
 91
        1
 62
     0
 92
       -2
340
0
 93
        0
 40
0.045
309
GRIDFORMAT_END
 95
       16
302
GRIDFORMAT
  1
GRIDFORMAT_BEGIN
 90
        0
 91
        1
 62
     0
 92
       -2
340
0
 93
        0
 40
0.045
309
GRIDFORMAT_END
 95
       32
302
GRIDFORMAT
  1
GRIDFORMAT_BEGIN
 90
        0
 91
        1
 62
     0
 92
       -2
340
0
 93
        0
 40
0.045
309
GRIDFORMAT_END
309
TABLEFORMAT_END
  1
CELLSTYLE_BEGIN
 90
        3
 91
        2
300
_DATA
309
CELLSTYLE_END
  0
XRECORD
  5
57D
102
{ACAD_REACTORS
330
579
102
}
330
579
100
AcDbXrecord
280
     1
102
ACAD_ROUNDTRIP_PRE2007_TABLESTYLE
 90
        4
 91
        0
  1

 92
        4
 93
        0
  2

 94
        4
 95
        0
  3

  0
XRECORD
  5
592
102
{ACAD_REACTORS
330
591
102
}
330
591
100
AcDbXrecord
280
     1
102
RTVSPropertyOp0
 70
     1
102
RTVSPropertyOp1
 70
     1
102
RTVSPropertyOp2
 70
     1
102
RTVSPropertyOp3
 70
     1
102
RTVSPropertyOp4
 70
     1
102
RTVSPropertyOp5
 70
     1
102
RTVSPropertyOp6
 70
     1
102
RTVSPropertyOp7
 70
     1
102
RTVSPropertyOp8
 70
     1
102
RTVSPropertyOp9
 70
     1
102
RTVSPropertyOp10
 70
     1
102
RTVSPropertyOp11
 70
     1
102
RTVSPropertyOp12
 70
     1
102
RTVSPropertyOp13
 70
     1
102
RTVSPropertyOp14
 70
     1
102
RTVSPropertyOp15
 70
     1
102
RTVSPropertyOp16
 70
     1
102
RTVSPropertyOp17
 70
     1
102
RTVSPropertyOp18
 70
     1
102
RTVSPropertyOp19
 70
     1
102
RTVSPropertyOp20
 70
     1
102
RTVSPropertyOp21
 70
     1
102
RTVSPropertyOp22
 70
     1
102
RTVSPropertyOp23
 70
     1
102
RTVSPropertyOp24
 70
     1
102
RTVSPropertyOp25
 70
     1
102
RTVSPropertyOp26
 70
     1
102
RTVSPropertyOp27
 70
     1
  0
XRECORD
  5
596
102
{ACAD_REACTORS
330
595
102
}
330
595
100
AcDbXrecord
280
     1
102
RTVSPropertyOp0
 70
     1
102
RTVSPropertyOp1
 70
     1
102
RTVSPropertyOp2
 70
     1
102
RTVSPropertyOp3
 70
     1
102
RTVSPropertyOp4
 70
     1
102
RTVSPropertyOp5
 70
     1
102
RTVSPropertyOp6
 70
     1
102
RTVSPropertyOp7
 70
     1
102
RTVSPropertyOp8
 70
     1
102
RTVSPropertyOp9
 70
     1
102
RTVSPropertyOp10
 70
     1
102
RTVSPropertyOp11
 70
     1
102
RTVSPropertyOp12
 70
     1
102
RTVSPropertyOp13
 70
     1
102
RTVSPropertyOp14
 70
     1
102
RTVSPropertyOp15
 70
     1
102
RTVSPropertyOp16
 70
     1
102
RTVSPropertyOp17
 70
     1
102
RTVSPropertyOp18
 70
     1
102
RTVSPropertyOp19
 70
     1
102
RTVSPropertyOp20
 70
     1
102
RTVSPropertyOp21
 70
     1
102
RTVSPropertyOp22
 70
     1
102
RTVSPropertyOp23
 70
     1
102
RTVSPropertyOp24
 70
     1
102
RTVSPropertyOp25
 70
     1
102
RTVSPropertyOp26
 70
     1
102
RTVSPropertyOp27
 70
     1
  0
XRECORD
  5
594
102
{ACAD_REACTORS
330
593
102
}
330
593
100
AcDbXrecord
280
     1
102
RTVSPropertyOp0
 70
     1
102
RTVSPropertyOp1
 70
     1
102
RTVSPropertyOp2
 70
     1
102
RTVSPropertyOp3
 70
     1
102
RTVSPropertyOp4
 70
     1
102
RTVSPropertyOp5
 70
     1
102
RTVSPropertyOp6
 70
     1
102
RTVSPropertyOp7
 70
     1
102
RTVSPropertyOp8
 70
     1
102
RTVSPropertyOp9
 70
     1
102
RTVSPropertyOp10
 70
     1
102
RTVSPropertyOp11
 70
     1
102
RTVSPropertyOp12
 70
     1
102
RTVSPropertyOp13
 70
     1
102
RTVSPropertyOp14
 70
     1
102
RTVSPropertyOp15
 70
     1
102
RTVSPropertyOp16
 70
     1
102
RTVSPropertyOp17
 70
     1
102
RTVSPropertyOp18
 70
     1
102
RTVSPropertyOp19
 70
     1
102
RTVSPropertyOp20
 70
     1
102
RTVSPropertyOp21
 70
     1
102
RTVSPropertyOp22
 70
     1
102
RTVSPropertyOp23
 70
     1
102
RTVSPropertyOp24
 70
     1
102
RTVSPropertyOp25
 70
     1
102
RTVSPropertyOp26
 70
     1
102
RTVSPropertyOp27
 70
     1
  0
XRECORD
  5
590
102
{ACAD_REACTORS
330
58F
102
}
330
58F
100
AcDbXrecord
280
     1
102
RTVSPropertyOp0
 70
     1
102
RTVSPropertyOp1
 70
     1
102
RTVSPropertyOp2
 70
     1
102
RTVSPropertyOp3
 70
     1
102
RTVSPropertyOp4
 70
     1
102
RTVSPropertyOp5
 70
     1
102
RTVSPropertyOp6
 70
     1
102
RTVSPropertyOp7
 70
     1
102
RTVSPropertyOp8
 70
     1
102
RTVSPropertyOp9
 70
     1
102
RTVSPropertyOp10
 70
     1
102
RTVSPropertyOp11
 70
     1
102
RTVSPropertyOp12
 70
     1
102
RTVSPropertyOp13
 70
     1
102
RTVSPropertyOp14
 70
     1
102
RTVSPropertyOp15
 70
     1
102
RTVSPropertyOp16
 70
     1
102
RTVSPropertyOp17
 70
     1
102
RTVSPropertyOp18
 70
     1
102
RTVSPropertyOp19
 70
     1
102
RTVSPropertyOp20
 70
     1
102
RTVSPropertyOp21
 70
     1
102
RTVSPropertyOp22
 70
     1
102
RTVSPropertyOp23
 70
     1
102
RTVSPropertyOp24
 70
     1
102
RTVSPropertyOp25
 70
     1
102
RTVSPropertyOp26
 70
     1
102
RTVSPropertyOp27
 70
     1
  0
XRECORD
  5
59E
102
{ACAD_REACTORS
330
59D
102
}
330
59D
100
AcDbXrecord
280
     1
102
RTVSPropertyOp0
 70
     1
102
RTVSPropertyOp1
 70
     1
102
RTVSPropertyOp2
 70
     1
102
RTVSPropertyOp3
 70
     1
102
RTVSPropertyOp4
 70
     1
102
RTVSPropertyOp5
 70
     1
102
RTVSPropertyOp6
 70
     1
102
RTVSPropertyOp7
 70
     1
102
RTVSPropertyOp8
 70
     1
102
RTVSPropertyOp9
 70
     1
102
RTVSPropertyOp10
 70
     1
102
RTVSPropertyOp11
 70
     1
102
RTVSPropertyOp12
 70
     1
102
RTVSPropertyOp13
 70
     1
102
RTVSPropertyOp14
 70
     1
102
RTVSPropertyOp15
 70
     1
102
RTVSPropertyOp16
 70
     1
102
RTVSPropertyOp17
 70
     1
102
RTVSPropertyOp18
 70
     1
102
RTVSPropertyOp19
 70
     1
102
RTVSPropertyOp20
 70
     1
102
RTVSPropertyOp21
 70
     1
102
RTVSPropertyOp22
 70
     1
102
RTVSPropertyOp23
 70
     1
102
RTVSPropertyOp24
 70
     1
102
RTVSPropertyOp25
 70
     1
102
RTVSPropertyOp26
 70
     1
102
RTVSPropertyOp27
 70
     1
  0
XRECORD
  5
5A6
102
{ACAD_REACTORS
330
5A5
102
}
330
5A5
100
AcDbXrecord
280
     1
102
RTVSPropertyOp0
 70
     1
102
RTVSPropertyOp1
 70
     1
102
RTVSPropertyOp2
 70
     1
102
RTVSPropertyOp3
 70
     1
102
RTVSPropertyOp4
 70
     1
102
RTVSPropertyOp5
 70
     1
102
RTVSPropertyOp6
 70
     1
102
RTVSPropertyOp7
 70
     1
102
RTVSPropertyOp8
 70
     1
102
RTVSPropertyOp9
 70
     1
102
RTVSPropertyOp10
 70
     1
102
RTVSPropertyOp11
 70
     1
102
RTVSPropertyOp12
 70
     1
102
RTVSPropertyOp13
 70
     1
102
RTVSPropertyOp14
 70
     1
102
RTVSPropertyOp15
 70
     1
102
RTVSPropertyOp16
 70
     1
102
RTVSPropertyOp17
 70
     1
102
RTVSPropertyOp18
 70
     1
102
RTVSPropertyOp19
 70
     1
102
RTVSPropertyOp20
 70
     1
102
RTVSPropertyOp21
 70
     1
102
RTVSPropertyOp22
 70
     1
102
RTVSPropertyOp23
 70
     1
102
RTVSPropertyOp24
 70
     1
102
RTVSPropertyOp25
 70
     1
102
RTVSPropertyOp26
 70
     1
102
RTVSPropertyOp27
 70
     1
  0
XRECORD
  5
598
102
{ACAD_REACTORS
330
597
102
}
330
597
100
AcDbXrecord
280
     1
102
RTVSPropertyOp0
 70
     1
102
RTVSPropertyOp1
 70
     1
102
RTVSPropertyOp2
 70
     1
102
RTVSPropertyOp3
 70
     1
102
RTVSPropertyOp4
 70
     1
102
RTVSPropertyOp5
 70
     1
102
RTVSPropertyOp6
 70
     1
102
RTVSPropertyOp7
 70
     1
102
RTVSPropertyOp8
 70
     1
102
RTVSPropertyOp9
 70
     1
102
RTVSPropertyOp10
 70
     1
102
RTVSPropertyOp11
 70
     1
102
RTVSPropertyOp12
 70
     1
102
RTVSPropertyOp13
 70
     1
102
RTVSPropertyOp14
 70
     1
102
RTVSPropertyOp15
 70
     1
102
RTVSPropertyOp16
 70
     1
102
RTVSPropertyOp17
 70
     1
102
RTVSPropertyOp18
 70
     1
102
RTVSPropertyOp19
 70
     1
102
RTVSPropertyOp20
 70
     1
102
RTVSPropertyOp21
 70
     1
102
RTVSPropertyOp22
 70
     1
102
RTVSPropertyOp23
 70
     1
102
RTVSPropertyOp24
 70
     1
102
RTVSPropertyOp25
 70
     1
102
RTVSPropertyOp26
 70
     1
102
RTVSPropertyOp27
 70
     1
  0
XRECORD
  5
59C
102
{ACAD_REACTORS
330
59B
102
}
330
59B
100
AcDbXrecord
280
     1
102
RTVSPropertyOp0
 70
     1
102
RTVSPropertyOp1
 70
     1
102
RTVSPropertyOp2
 70
     1
102
RTVSPropertyOp3
 70
     1
102
RTVSPropertyOp4
 70
     1
102
RTVSPropertyOp5
 70
     1
102
RTVSPropertyOp6
 70
     1
102
RTVSPropertyOp7
 70
     1
102
RTVSPropertyOp8
 70
     1
102
RTVSPropertyOp9
 70
     1
102
RTVSPropertyOp10
 70
     1
102
RTVSPropertyOp11
 70
     1
102
RTVSPropertyOp12
 70
     1
102
RTVSPropertyOp13
 70
     1
102
RTVSPropertyOp14
 70
     1
102
RTVSPropertyOp15
 70
     1
102
RTVSPropertyOp16
 70
     1
102
RTVSPropertyOp17
 70
     1
102
RTVSPropertyOp18
 70
     1
102
RTVSPropertyOp19
 70
     1
102
RTVSPropertyOp20
 70
     1
102
RTVSPropertyOp21
 70
     1
102
RTVSPropertyOp22
 70
     1
102
RTVSPropertyOp23
 70
     1
102
RTVSPropertyOp24
 70
     1
102
RTVSPropertyOp25
 70
     1
102
RTVSPropertyOp26
 70
     1
102
RTVSPropertyOp27
 70
     1
  0
XRECORD
  5
5AC
102
{ACAD_REACTORS
330
5AB
102
}
330
5AB
100
AcDbXrecord
280
     1
102
RTVSPropertyOp0
 70
     0
102
RTVSPropertyOp1
 70
     0
102
RTVSPropertyOp2
 70
     0
102
RTVSPropertyOp3
 70
     0
102
RTVSPropertyOp4
 70
     0
102
RTVSPropertyOp5
 70
     0
102
RTVSPropertyOp6
 70
     0
102
RTVSPropertyOp7
 70
     0
102
RTVSPropertyOp8
 70
     0
102
RTVSPropertyOp9
 70
     0
102
RTVSPropertyOp10
 70
     0
102
RTVSPropertyOp11
 70
     0
102
RTVSPropertyOp12
 70
     0
102
RTVSPropertyOp13
 70
     0
102
RTVSPropertyOp14
 70
     2
102
RTVSPropertyOp15
 70
     0
102
RTVSPropertyOp16
 70
     0
102
RTVSPropertyOp17
 70
     0
102
RTVSPropertyOp18
 70
     0
102
RTVSPropertyOp19
 70
     0
102
RTVSPropertyOp20
 70
     0
102
RTVSPropertyOp21
 70
     0
102
RTVSPropertyOp22
 70
     0
102
RTVSPropertyOp23
 70
     0
102
RTVSPropertyOp24
 70
     0
102
RTVSPropertyOp25
 70
     0
102
RTVSPropertyOp26
 70
     0
102
RTVSPropertyOp27
 70
     0
  0
XRECORD
  5
5A4
102
{ACAD_REACTORS
330
5A3
102
}
330
5A3
100
AcDbXrecord
280
     1
102
RTVSPropertyOp0
 70
     1
102
RTVSPropertyOp1
 70
     1
102
RTVSPropertyOp2
 70
     1
102
RTVSPropertyOp3
 70
     1
102
RTVSPropertyOp4
 70
     1
102
RTVSPropertyOp5
 70
     1
102
RTVSPropertyOp6
 70
     1
102
RTVSPropertyOp7
 70
     1
102
RTVSPropertyOp8
 70
     1
102
RTVSPropertyOp9
 70
     1
102
RTVSPropertyOp10
 70
     1
102
RTVSPropertyOp11
 70
     1
102
RTVSPropertyOp12
 70
     1
102
RTVSPropertyOp13
 70
     1
102
RTVSPropertyOp14
 70
     1
102
RTVSPropertyOp15
 70
     1
102
RTVSPropertyOp16
 70
     1
102
RTVSPropertyOp17
 70
     1
102
RTVSPropertyOp18
 70
     1
102
RTVSPropertyOp19
 70
     1
102
RTVSPropertyOp20
 70
     1
102
RTVSPropertyOp21
 70
     1
102
RTVSPropertyOp22
 70
     1
102
RTVSPropertyOp23
 70
     1
102
RTVSPropertyOp24
 70
     1
102
RTVSPropertyOp25
 70
     1
102
RTVSPropertyOp26
 70
     1
102
RTVSPropertyOp27
 70
     1
  0
XRECORD
  5
588
102
{ACAD_REACTORS
330
587
102
}
330
587
100
AcDbXrecord
280
     1
102
RTVSPropertyOp0
 70
     1
102
RTVSPropertyOp1
 70
     1
102
RTVSPropertyOp2
 70
     1
102
RTVSPropertyOp3
 70
     1
102
RTVSPropertyOp4
 70
     1
102
RTVSPropertyOp5
 70
     1
102
RTVSPropertyOp6
 70
     1
102
RTVSPropertyOp7
 70
     1
102
RTVSPropertyOp8
 70
     1
102
RTVSPropertyOp9
 70
     1
102
RTVSPropertyOp10
 70
     1
102
RTVSPropertyOp11
 70
     1
102
RTVSPropertyOp12
 70
     1
102
RTVSPropertyOp13
 70
     1
102
RTVSPropertyOp14
 70
     1
102
RTVSPropertyOp15
 70
     1
102
RTVSPropertyOp16
 70
     1
102
RTVSPropertyOp17
 70
     1
102
RTVSPropertyOp18
 70
     1
102
RTVSPropertyOp19
 70
     1
102
RTVSPropertyOp20
 70
     1
102
RTVSPropertyOp21
 70
     1
102
RTVSPropertyOp22
 70
     1
102
RTVSPropertyOp23
 70
     1
102
RTVSPropertyOp24
 70
     1
102
RTVSPropertyOp25
 70
     1
102
RTVSPropertyOp26
 70
     1
102
RTVSPropertyOp27
 70
     1
  0
XRECORD
  5
58A
102
{ACAD_REACTORS
330
589
102
}
330
589
100
AcDbXrecord
280
     1
102
RTVSPropertyOp0
 70
     1
102
RTVSPropertyOp1
 70
     1
102
RTVSPropertyOp2
 70
     1
102
RTVSPropertyOp3
 70
     1
102
RTVSPropertyOp4
 70
     1
102
RTVSPropertyOp5
 70
     1
102
RTVSPropertyOp6
 70
     1
102
RTVSPropertyOp7
 70
     1
102
RTVSPropertyOp8
 70
     1
102
RTVSPropertyOp9
 70
     1
102
RTVSPropertyOp10
 70
     1
102
RTVSPropertyOp11
 70
     1
102
RTVSPropertyOp12
 70
     1
102
RTVSPropertyOp13
 70
     1
102
RTVSPropertyOp14
 70
     1
102
RTVSPropertyOp15
 70
     1
102
RTVSPropertyOp16
 70
     1
102
RTVSPropertyOp17
 70
     1
102
RTVSPropertyOp18
 70
     1
102
RTVSPropertyOp19
 70
     1
102
RTVSPropertyOp20
 70
     1
102
RTVSPropertyOp21
 70
     1
102
RTVSPropertyOp22
 70
     1
102
RTVSPropertyOp23
 70
     1
102
RTVSPropertyOp24
 70
     1
102
RTVSPropertyOp25
 70
     1
102
RTVSPropertyOp26
 70
     1
102
RTVSPropertyOp27
 70
     1
  0
XRECORD
  5
58C
102
{ACAD_REACTORS
330
58B
102
}
330
58B
100
AcDbXrecord
280
     1
102
RTVSPropertyOp0
 70
     1
102
RTVSPropertyOp1
 70
     1
102
RTVSPropertyOp2
 70
     1
102
RTVSPropertyOp3
 70
     1
102
RTVSPropertyOp4
 70
     1
102
RTVSPropertyOp5
 70
     1
102
RTVSPropertyOp6
 70
     1
102
RTVSPropertyOp7
 70
     1
102
RTVSPropertyOp8
 70
     1
102
RTVSPropertyOp9
 70
     1
102
RTVSPropertyOp10
 70
     1
102
RTVSPropertyOp11
 70
     1
102
RTVSPropertyOp12
 70
     1
102
RTVSPropertyOp13
 70
     1
102
RTVSPropertyOp14
 70
     1
102
RTVSPropertyOp15
 70
     1
102
RTVSPropertyOp16
 70
     1
102
RTVSPropertyOp17
 70
     1
102
RTVSPropertyOp18
 70
     1
102
RTVSPropertyOp19
 70
     1
102
RTVSPropertyOp20
 70
     1
102
RTVSPropertyOp21
 70
     1
102
RTVSPropertyOp22
 70
     1
102
RTVSPropertyOp23
 70
     1
102
RTVSPropertyOp24
 70
     1
102
RTVSPropertyOp25
 70
     1
102
RTVSPropertyOp26
 70
     1
102
RTVSPropertyOp27
 70
     1
  0
XRECORD
  5
58E
102
{ACAD_REACTORS
330
58D
102
}
330
58D
100
AcDbXrecord
280
     1
102
RTVSPropertyOp0
 70
     1
102
RTVSPropertyOp1
 70
     1
102
RTVSPropertyOp2
 70
     1
102
RTVSPropertyOp3
 70
     1
102
RTVSPropertyOp4
 70
     1
102
RTVSPropertyOp5
 70
     1
102
RTVSPropertyOp6
 70
     1
102
RTVSPropertyOp7
 70
     1
102
RTVSPropertyOp8
 70
     1
102
RTVSPropertyOp9
 70
     1
102
RTVSPropertyOp10
 70
     1
102
RTVSPropertyOp11
 70
     1
102
RTVSPropertyOp12
 70
     1
102
RTVSPropertyOp13
 70
     1
102
RTVSPropertyOp14
 70
     1
102
RTVSPropertyOp15
 70
     1
102
RTVSPropertyOp16
 70
     1
102
RTVSPropertyOp17
 70
     1
102
RTVSPropertyOp18
 70
     1
102
RTVSPropertyOp19
 70
     1
102
RTVSPropertyOp20
 70
     1
102
RTVSPropertyOp21
 70
     1
102
RTVSPropertyOp22
 70
     1
102
RTVSPropertyOp23
 70
     1
102
RTVSPropertyOp24
 70
     1
102
RTVSPropertyOp25
 70
     1
102
RTVSPropertyOp26
 70
     1
102
RTVSPropertyOp27
 70
     1
  0
XRECORD
  5
5A8
102
{ACAD_REACTORS
330
5A7
102
}
330
5A7
100
AcDbXrecord
280
     1
102
RTVSPropertyOp0
 70
     0
102
RTVSPropertyOp1
 70
     0
102
RTVSPropertyOp2
 70
     0
102
RTVSPropertyOp3
 70
     0
102
RTVSPropertyOp4
 70
     0
102
RTVSPropertyOp5
 70
     0
102
RTVSPropertyOp6
 70
     0
102
RTVSPropertyOp7
 70
     0
102
RTVSPropertyOp8
 70
     0
102
RTVSPropertyOp9
 70
     0
102
RTVSPropertyOp10
 70
     0
102
RTVSPropertyOp11
 70
     0
102
RTVSPropertyOp12
 70
     0
102
RTVSPropertyOp13
 70
     0
102
RTVSPropertyOp14
 70
     2
102
RTVSPropertyOp15
 70
     0
102
RTVSPropertyOp16
 70
     0
102
RTVSPropertyOp17
 70
     0
102
RTVSPropertyOp18
 70
     0
102
RTVSPropertyOp19
 70
     0
102
RTVSPropertyOp20
 70
     0
102
RTVSPropertyOp21
 70
     0
102
RTVSPropertyOp22
 70
     0
102
RTVSPropertyOp23
 70
     0
102
RTVSPropertyOp24
 70
     0
102
RTVSPropertyOp25
 70
     0
102
RTVSPropertyOp26
 70
     0
102
RTVSPropertyOp27
 70
     0
  0
XRECORD
  5
5A2
102
{ACAD_REACTORS
330
5A1
102
}
330
5A1
100
AcDbXrecord
280
     1
102
RTVSPropertyOp0
 70
     1
102
RTVSPropertyOp1
 70
     1
102
RTVSPropertyOp2
 70
     1
102
RTVSPropertyOp3
 70
     1
102
RTVSPropertyOp4
 70
     1
102
RTVSPropertyOp5
 70
     1
102
RTVSPropertyOp6
 70
     1
102
RTVSPropertyOp7
 70
     1
102
RTVSPropertyOp8
 70
     1
102
RTVSPropertyOp9
 70
     1
102
RTVSPropertyOp10
 70
     1
102
RTVSPropertyOp11
 70
     1
102
RTVSPropertyOp12
 70
     1
102
RTVSPropertyOp13
 70
     1
102
RTVSPropertyOp14
 70
     1
102
RTVSPropertyOp15
 70
     1
102
RTVSPropertyOp16
 70
     1
102
RTVSPropertyOp17
 70
     1
102
RTVSPropertyOp18
 70
     1
102
RTVSPropertyOp19
 70
     1
102
RTVSPropertyOp20
 70
     1
102
RTVSPropertyOp21
 70
     1
102
RTVSPropertyOp22
 70
     1
102
RTVSPropertyOp23
 70
     1
102
RTVSPropertyOp24
 70
     1
102
RTVSPropertyOp25
 70
     1
102
RTVSPropertyOp26
 70
     1
102
RTVSPropertyOp27
 70
     1
  0
XRECORD
  5
5AA
102
{ACAD_REACTORS
330
5A9
102
}
330
5A9
100
AcDbXrecord
280
     1
102
RTVSPropertyOp0
 70
     0
102
RTVSPropertyOp1
 70
     0
102
RTVSPropertyOp2
 70
     0
102
RTVSPropertyOp3
 70
     0
102
RTVSPropertyOp4
 70
     0
102
RTVSPropertyOp5
 70
     0
102
RTVSPropertyOp6
 70
     0
102
RTVSPropertyOp7
 70
     0
102
RTVSPropertyOp8
 70
     0
102
RTVSPropertyOp9
 70
     0
102
RTVSPropertyOp10
 70
     0
102
RTVSPropertyOp11
 70
     0
102
RTVSPropertyOp12
 70
     0
102
RTVSPropertyOp13
 70
     0
102
RTVSPropertyOp14
 70
     2
102
RTVSPropertyOp15
 70
     0
102
RTVSPropertyOp16
 70
     0
102
RTVSPropertyOp17
 70
     0
102
RTVSPropertyOp18
 70
     0
102
RTVSPropertyOp19
 70
     0
102
RTVSPropertyOp20
 70
     0
102
RTVSPropertyOp21
 70
     0
102
RTVSPropertyOp22
 70
     0
102
RTVSPropertyOp23
 70
     0
102
RTVSPropertyOp24
 70
     0
102
RTVSPropertyOp25
 70
     0
102
RTVSPropertyOp26
 70
     0
102
RTVSPropertyOp27
 70
     0
  0
XRECORD
  5
59A
102
{ACAD_REACTORS
330
599
102
}
330
599
100
AcDbXrecord
280
     1
102
RTVSPropertyOp0
 70
     1
102
RTVSPropertyOp1
 70
     1
102
RTVSPropertyOp2
 70
     1
102
RTVSPropertyOp3
 70
     1
102
RTVSPropertyOp4
 70
     1
102
RTVSPropertyOp5
 70
     1
102
RTVSPropertyOp6
 70
     1
102
RTVSPropertyOp7
 70
     1
102
RTVSPropertyOp8
 70
     1
102
RTVSPropertyOp9
 70
     1
102
RTVSPropertyOp10
 70
     1
102
RTVSPropertyOp11
 70
     1
102
RTVSPropertyOp12
 70
     1
102
RTVSPropertyOp13
 70
     1
102
RTVSPropertyOp14
 70
     1
102
RTVSPropertyOp15
 70
     1
102
RTVSPropertyOp16
 70
     1
102
RTVSPropertyOp17
 70
     1
102
RTVSPropertyOp18
 70
     1
102
RTVSPropertyOp19
 70
     1
102
RTVSPropertyOp20
 70
     1
102
RTVSPropertyOp21
 70
     1
102
RTVSPropertyOp22
 70
     1
102
RTVSPropertyOp23
 70
     1
102
RTVSPropertyOp24
 70
     1
102
RTVSPropertyOp25
 70
     1
102
RTVSPropertyOp26
 70
     1
102
RTVSPropertyOp27
 70
     1
  0
XRECORD
  5
5A0
102
{ACAD_REACTORS
330
59F
102
}
330
59F
100
AcDbXrecord
280
     1
102
RTVSPropertyOp0
 70
     1
102
RTVSPropertyOp1
 70
     1
102
RTVSPropertyOp2
 70
     1
102
RTVSPropertyOp3
 70
     1
102
RTVSPropertyOp4
 70
     1
102
RTVSPropertyOp5
 70
     1
102
RTVSPropertyOp6
 70
     1
102
RTVSPropertyOp7
 70
     1
102
RTVSPropertyOp8
 70
     1
102
RTVSPropertyOp9
 70
     1
102
RTVSPropertyOp10
 70
     1
102
RTVSPropertyOp11
 70
     1
102
RTVSPropertyOp12
 70
     1
102
RTVSPropertyOp13
 70
     1
102
RTVSPropertyOp14
 70
     1
102
RTVSPropertyOp15
 70
     1
102
RTVSPropertyOp16
 70
     1
102
RTVSPropertyOp17
 70
     1
102
RTVSPropertyOp18
 70
     1
102
RTVSPropertyOp19
 70
     1
102
RTVSPropertyOp20
 70
     1
102
RTVSPropertyOp21
 70
     1
102
RTVSPropertyOp22
 70
     1
102
RTVSPropertyOp23
 70
     1
102
RTVSPropertyOp24
 70
     1
102
RTVSPropertyOp25
 70
     1
102
RTVSPropertyOp26
 70
     1
102
RTVSPropertyOp27
 70
     1
  0
ENDSEC
  0
EOF
