  0
SECTION
  2
HEADER
  9
$ACADVER
  1
AC1015
  9
$ACADMAINTVER
 70
    20
  9
$DWGCODEPAGE
  3
ANSI_1252
  9
$INSBASE
 10
0.0
 20
0.0
 30
0.0
  9
$EXTMIN
 10
4267.229575306168
 20
1648.953719360327
 30
0.0
  9
$EXTMAX
 10
4269.357583691644
 20
1649.673560197319
 30
0.0
  9
$LIMMIN
 10
0.0
 20
0.0
  9
$LIMMAX
 10
420.0
 20
297.0
  9
$ORTHOMODE
 70
     1
  9
$REGENMODE
 70
     1
  9
$FILLMODE
 70
     1
  9
$QTEXTMODE
 70
     0
  9
$MIRRTEXT
 70
     1
  9
$LTSCALE
 40
1.0
  9
$ATTMODE
 70
     1
  9
$TEXTSIZE
 40
2.5
  9
$TRACEWID
 40
1.0
  9
$TEXTSTYLE
  7
SANINDUSA
  9
$CLAYER
  8
cotas
  9
$CELTYPE
  6
ByLayer
  9
$CECOLOR
 62
   256
  9
$CELTSCALE
 40
1.0
  9
$DISPSILH
 70
     0
  9
$DIMSCALE
 40
1.0
  9
$DIMASZ
 40
2.0
  9
$DIMEXO
 40
1.0
  9
$DIMDLI
 40
1.0
  9
$DIMRND
 40
0.0
  9
$DIMDLE
 40
0.0
  9
$DIMEXE
 40
1.0
  9
$DIMTP
 40
0.0
  9
$DIMTM
 40
0.0
  9
$DIMTXT
 40
2.0
  9
$DIMCEN
 40
0.0
  9
$DIMTSZ
 40
0.0
  9
$DIMTOL
 70
     0
  9
$DIMLIM
 70
     0
  9
$DIMTIH
 70
     0
  9
$DIMTOH
 70
     0
  9
$DIMSE1
 70
     0
  9
$DIMSE2
 70
     0
  9
$DIMTAD
 70
     1
  9
$DIMZIN
 70
     8
  9
$DIMBLK
  1

  9
$DIMASO
 70
     1
  9
$DIMSHO
 70
     1
  9
$DIMPOST
  1

  9
$DIMAPOST
  1

  9
$DIMALT
 70
     0
  9
$DIMALTD
 70
     3
  9
$DIMALTF
 40
0.03937007874016
  9
$DIMLFAC
 40
1.0
  9
$DIMTOFL
 70
     1
  9
$DIMTVP
 40
0.0
  9
$DIMTIX
 70
     0
  9
$DIMSOXD
 70
     0
  9
$DIMSAH
 70
     0
  9
$DIMBLK1
  1

  9
$DIMBLK2
  1

  9
$DIMSTYLE
  2
SANINDUSA
  9
$DIMCLRD
 70
   256
  9
$DIMCLRE
 70
   256
  9
$DIMCLRT
 70
   256
  9
$DIMTFAC
 40
1.0
  9
$DIMGAP
 40
1.0
  9
$DIMJUST
 70
     0
  9
$DIMSD1
 70
     0
  9
$DIMSD2
 70
     0
  9
$DIMTOLJ
 70
     0
  9
$DIMTZIN
 70
     8
  9
$DIMALTZ
 70
     0
  9
$DIMALTTZ
 70
     0
  9
$DIMUPT
 70
     0
  9
$DIMDEC
 70
     1
  9
$DIMTDEC
 70
     1
  9
$DIMALTU
 70
     2
  9
$DIMALTTD
 70
     3
  9
$DIMTXSTY
  7
SANINDUSA
  9
$DIMAUNIT
 70
     0
  9
$DIMADEC
 70
     1
  9
$DIMALTRND
 40
0.0
  9
$DIMAZIN
 70
     0
  9
$DIMDSEP
 70
    44
  9
$DIMATFIT
 70
     3
  9
$DIMFRAC
 70
     0
  9
$DIMLDRBLK
  1

  9
$DIMLUNIT
 70
     2
  9
$DIMLWD
 70
    -1
  9
$DIMLWE
 70
    -1
  9
$DIMTMOVE
 70
     0
  9
$LUNITS
 70
     2
  9
$LUPREC
 70
     4
  9
$SKETCHINC
 40
1.0
  9
$FILLETRAD
 40
0.0
  9
$AUNITS
 70
     0
  9
$AUPREC
 70
     0
  9
$MENU
  1
.
  9
$ELEVATION
 40
0.0
  9
$PELEVATION
 40
0.0
  9
$THICKNESS
 40
0.0
  9
$LIMCHECK
 70
     0
  9
$CHAMFERA
 40
10.0
  9
$CHAMFERB
 40
10.0
  9
$CHAMFERC
 40
20.0
  9
$CHAMFERD
 40
0.0
  9
$SKPOLY
 70
     0
  9
$TDCREATE
 40
2456276.405903310
  9
$TDUCREATE
 40
2456276.405903310
  9
$TDUPDATE
 40
2456276.415206158
  9
$TDUUPDATE
 40
2456276.415206158
  9
$TDINDWG
 40
0.0017607060
  9
$TDUSRTIMER
 40
0.0017607060
  9
$USRTIMER
 70
     1
  9
$ANGBASE
 50
0.0
  9
$ANGDIR
 70
     0
  9
$PDMODE
 70
     0
  9
$PDSIZE
 40
0.0
  9
$PLINEWID
 40
0.0
  9
$SPLFRAME
 70
     0
  9
$SPLINETYPE
 70
     6
  9
$SPLINESEGS
 70
     8
  9
$HANDSEED
  5
14AD
  9
$SURFTAB1
 70
     6
  9
$SURFTAB2
 70
     6
  9
$SURFTYPE
 70
     6
  9
$SURFU
 70
     6
  9
$SURFV
 70
     6
  9
$UCSBASE
  2

  9
$UCSNAME
  2

  9
$UCSORG
 10
0.0
 20
0.0
 30
0.0
  9
$UCSXDIR
 10
1.0
 20
0.0
 30
0.0
  9
$UCSYDIR
 10
0.0
 20
1.0
 30
0.0
  9
$UCSORTHOREF
  2

  9
$UCSORTHOVIEW
 70
     0
  9
$UCSORGTOP
 10
0.0
 20
0.0
 30
0.0
  9
$UCSORGBOTTOM
 10
0.0
 20
0.0
 30
0.0
  9
$UCSORGLEFT
 10
0.0
 20
0.0
 30
0.0
  9
$UCSORGRIGHT
 10
0.0
 20
0.0
 30
0.0
  9
$UCSORGFRONT
 10
0.0
 20
0.0
 30
0.0
  9
$UCSORGBACK
 10
0.0
 20
0.0
 30
0.0
  9
$PUCSBASE
  2

  9
$PUCSNAME
  2

  9
$PUCSORG
 10
0.0
 20
0.0
 30
0.0
  9
$PUCSXDIR
 10
1.0
 20
0.0
 30
0.0
  9
$PUCSYDIR
 10
0.0
 20
1.0
 30
0.0
  9
$PUCSORTHOREF
  2

  9
$PUCSORTHOVIEW
 70
     0
  9
$PUCSORGTOP
 10
0.0
 20
0.0
 30
0.0
  9
$PUCSORGBOTTOM
 10
0.0
 20
0.0
 30
0.0
  9
$PUCSORGLEFT
 10
0.0
 20
0.0
 30
0.0
  9
$PUCSORGRIGHT
 10
0.0
 20
0.0
 30
0.0
  9
$PUCSORGFRONT
 10
0.0
 20
0.0
 30
0.0
  9
$PUCSORGBACK
 10
0.0
 20
0.0
 30
0.0
  9
$USERI1
 70
     0
  9
$USERI2
 70
     0
  9
$USERI3
 70
     0
  9
$USERI4
 70
     0
  9
$USERI5
 70
     0
  9
$USERR1
 40
0.0
  9
$USERR2
 40
0.0
  9
$USERR3
 40
0.0
  9
$USERR4
 40
0.0
  9
$USERR5
 40
0.0
  9
$WORLDVIEW
 70
     1
  9
$SHADEDGE
 70
     3
  9
$SHADEDIF
 70
    70
  9
$TILEMODE
 70
     1
  9
$MAXACTVP
 70
    64
  9
$PINSBASE
 10
0.0
 20
0.0
 30
0.0
  9
$PLIMCHECK
 70
     0
  9
$PEXTMIN
 10
1.000000000000000E+20
 20
1.000000000000000E+20
 30
1.000000000000000E+20
  9
$PEXTMAX
 10
-1.000000000000000E+20
 20
-1.000000000000000E+20
 30
-1.000000000000000E+20
  9
$PLIMMIN
 10
0.0
 20
0.0
  9
$PLIMMAX
 10
420.0
 20
297.0
  9
$UNITMODE
 70
     0
  9
$VISRETAIN
 70
     1
  9
$PLINEGEN
 70
     0
  9
$PSLTSCALE
 70
     1
  9
$TREEDEPTH
 70
  3020
  9
$CMLSTYLE
  2
Standard
  9
$CMLJUST
 70
     0
  9
$CMLSCALE
 40
20.0
  9
$PROXYGRAPHICS
 70
     1
  9
$MEASUREMENT
 70
     1
  9
$CELWEIGHT
370
    -1
  9
$ENDCAPS
280
     0
  9
$JOINSTYLE
280
     0
  9
$LWDISPLAY
290
     0
  9
$INSUNITS
 70
     4
  9
$HYPERLINKBASE
  1

  9
$STYLESHEET
  1
sanindusa.ctb
  9
$XEDIT
290
     1
  9
$CEPSNTYPE
380
     0
  9
$PSTYLEMODE
290
     1
  9
$FINGERPRINTGUID
  2
{449E6BC7-FE25-414D-9B1D-57D2F6B2B331}
  9
$VERSIONGUID
  2
{8DB3ACA9-870C-4A54-96FF-27E121C60A41}
  9
$EXTNAMES
290
     1
  9
$PSVPSCALE
 40
0.0
  9
$OLESTARTUP
290
     0
  0
ENDSEC
  0
SECTION
  2
CLASSES
  0
CLASS
  1
ACDBDICTIONARYWDFLT
  2
AcDbDictionaryWithDefault
  3
ObjectDBX Classes
 90
        0
280
     0
281
     0
  0
CLASS
  1
ACDBPLACEHOLDER
  2
AcDbPlaceHolder
  3
ObjectDBX Classes
 90
        0
280
     0
281
     0
  0
CLASS
  1
LAYOUT
  2
AcDbLayout
  3
ObjectDBX Classes
 90
        0
280
     0
281
     0
  0
CLASS
  1
DICTIONARYVAR
  2
AcDbDictionaryVar
  3
ObjectDBX Classes
 90
        0
280
     0
281
     0
  0
CLASS
  1
DIMASSOC
  2
AcDbDimAssoc
  3
"AcDbDimAssoc|Product Desc:     AcDim ARX App For Dimension|Company:          Autodesk, Inc.|WEB Address:      www.autodesk.com"
 90
    32768
280
     0
281
     0
  0
CLASS
  1
TABLESTYLE
  2
AcDbTableStyle
  3
ObjectDBX Classes
 90
     4095
280
     0
281
     0
  0
CLASS
  1
MATERIAL
  2
AcDbMaterial
  3
ObjectDBX Classes
 90
     1153
280
     0
281
     0
  0
CLASS
  1
VISUALSTYLE
  2
AcDbVisualStyle
  3
ObjectDBX Classes
 90
     4095
280
     0
281
     0
  0
CLASS
  1
SCALE
  2
AcDbScale
  3
ObjectDBX Classes
 90
     1153
280
     0
281
     0
  0
CLASS
  1
MLEADERSTYLE
  2
AcDbMLeaderStyle
  3
ACDB_MLEADERSTYLE_CLASS
 90
     4095
280
     0
281
     0
  0
CLASS
  1
AEC_REFEDIT_STATUS_TRACKER
  2
AecDbRefEditStatusTracker
  3
AecArchBase60|Product Desc: Autodesk Architectural Desktop 2007 |Company: Autodesk,Inc. |WEB Address: www.autodesk.com
 90
    32897
280
     0
281
     0
  0
CLASS
  1
NPOCOLLECTION
  2
AcDbImpNonPersistentObjectsCollection
  3
ObjectDBX Classes
 90
    33921
280
     0
281
     0
  0
CLASS
  1
CELLSTYLEMAP
  2
AcDbCellStyleMap
  3
ObjectDBX Classes
 90
     1152
280
     0
281
     0
  0
ENDSEC
  0
SECTION
  2
TABLES
  0
TABLE
  2
VPORT
  5
8
102
{ACAD_XDICTIONARY
360
1437
102
}
330
0
100
AcDbSymbolTable
 70
     1
  0
VPORT
  5
1068
330
8
100
AcDbSymbolTableRecord
100
AcDbViewportTableRecord
  2
*Active
 70
     0
 10
0.0
 20
0.0
 11
1.0
 21
1.0
 12
4268.293571874719
 22
1649.313639785017
 13
0.0
 23
0.0
 14
10.0
 24
10.0
 15
10.0
 25
10.0
 16
0.0
 26
0.0
 36
1.0
 17
0.0
 27
0.0
 37
0.0
 40
1.298158963703551
 41
1.645464025026068
 42
50.0
 43
0.0
 44
0.0
 50
0.0
 51
0.0
 71
     0
 72
   100
 73
     1
 74
     2
 75
     0
 76
     0
 77
     0
 78
     0
281
     0
 65
     1
110
0.0
120
0.0
130
0.0
111
1.0
121
0.0
131
0.0
112
0.0
122
1.0
132
0.0
 79
     0
146
0.0
  0
ENDTAB
  0
TABLE
  2
LTYPE
  5
5
330
0
100
AcDbSymbolTable
 70
     5
  0
LTYPE
  5
14
330
5
100
AcDbSymbolTableRecord
100
AcDbLinetypeTableRecord
  2
ByBlock
 70
     0
  3

 72
    65
 73
     0
 40
0.0
  0
LTYPE
  5
15
330
5
100
AcDbSymbolTableRecord
100
AcDbLinetypeTableRecord
  2
ByLayer
 70
     0
  3

 72
    65
 73
     0
 40
0.0
  0
LTYPE
  5
16
330
5
100
AcDbSymbolTableRecord
100
AcDbLinetypeTableRecord
  2
Continuous
 70
     0
  3
Solid line
 72
    65
 73
     0
 40
0.0
  0
LTYPE
  5
2D
330
5
100
AcDbSymbolTableRecord
100
AcDbLinetypeTableRecord
  2
DASHDOT
 70
     0
  3
Dash dot __ . __ . __ . __ . __ . __ . __ . __
 72
    65
 73
     4
 40
25.4
 49
12.7
 74
     0
 49
-6.349999999999999
 74
     0
 49
0.0
 74
     0
 49
-6.349999999999999
 74
     0
  0
LTYPE
  5
2E
330
5
100
AcDbSymbolTableRecord
100
AcDbLinetypeTableRecord
  2
HIDDEN
 70
     0
  3
Hidden __ __ __ __ __ __ __ __ __ __ __ __ __ _
 72
    65
 73
     2
 40
9.524999999999998
 49
6.349999999999999
 74
     0
 49
-3.174999999999999
 74
     0
  0
LTYPE
  5
C75
330
5
100
AcDbSymbolTableRecord
100
AcDbLinetypeTableRecord
  2
AM_ISO02W050
 70
     0
  3
__ __ __ __ __ __ __ __ __ __ __ __ __ __ __
 72
    65
 73
     2
 40
7.5
 49
6.0
 74
     0
 49
-1.5
 74
     0
  0
LTYPE
  5
C76
330
5
100
AcDbSymbolTableRecord
100
AcDbLinetypeTableRecord
  2
AM_ISO08W050
 70
     0
  3
____ . ____ . ____ . ____ . ____ . ____ . ____
 72
    65
 73
     4
 40
18.0
 49
12.0
 74
     0
 49
-1.5
 74
     0
 49
3.0
 74
     0
 49
-1.5
 74
     0
  0
ENDTAB
  0
TABLE
  2
LAYER
  5
2
102
{ACAD_XDICTIONARY
360
1051
102
}
330
0
100
AcDbSymbolTable
 70
    17
  0
LAYER
  5
10
102
{ACAD_XDICTIONARY
360
1357
102
}
330
2
100
AcDbSymbolTableRecord
100
AcDbLayerTableRecord
  2
0
 70
     0
 62
     7
  6
Continuous
370
    -3
390
F
  0
LAYER
  5
2F
102
{ACAD_XDICTIONARY
360
1359
102
}
330
2
100
AcDbSymbolTableRecord
100
AcDbLayerTableRecord
  2
1
 70
     0
 62
     1
  6
Continuous
370
    -3
390
F
  0
LAYER
  5
30
102
{ACAD_XDICTIONARY
360
135B
102
}
330
2
100
AcDbSymbolTableRecord
100
AcDbLayerTableRecord
  2
2
 70
     0
 62
     2
  6
Continuous
370
    -3
390
F
  0
LAYER
  5
31
102
{ACAD_XDICTIONARY
360
135D
102
}
330
2
100
AcDbSymbolTableRecord
100
AcDbLayerTableRecord
  2
3
 70
     0
 62
     3
  6
Continuous
370
    -3
390
F
  0
LAYER
  5
32
102
{ACAD_XDICTIONARY
360
135F
102
}
330
2
100
AcDbSymbolTableRecord
100
AcDbLayerTableRecord
  2
4
 70
     0
 62
     4
  6
Continuous
370
    -3
390
F
  0
LAYER
  5
33
102
{ACAD_XDICTIONARY
360
1361
102
}
330
2
100
AcDbSymbolTableRecord
100
AcDbLayerTableRecord
  2
5
 70
     0
 62
     5
  6
Continuous
370
    -3
390
F
  0
LAYER
  5
34
102
{ACAD_XDICTIONARY
360
1363
102
}
330
2
100
AcDbSymbolTableRecord
100
AcDbLayerTableRecord
  2
6
 70
     0
 62
     6
  6
Continuous
370
    -3
390
F
  0
LAYER
  5
35
102
{ACAD_XDICTIONARY
360
1365
102
}
330
2
100
AcDbSymbolTableRecord
100
AcDbLayerTableRecord
  2
7
 70
     0
 62
     7
  6
Continuous
370
    -3
390
F
  0
LAYER
  5
36
102
{ACAD_XDICTIONARY
360
1367
102
}
330
2
100
AcDbSymbolTableRecord
100
AcDbLayerTableRecord
  2
cen
 70
     0
 62
     7
  6
DASHDOT
370
    -3
390
F
  0
LAYER
  5
37
102
{ACAD_XDICTIONARY
360
1369
102
}
330
2
100
AcDbSymbolTableRecord
100
AcDbLayerTableRecord
  2
hid
 70
     0
 62
     7
  6
HIDDEN
370
    -3
390
F
  0
LAYER
  5
5D6
102
{ACAD_XDICTIONARY
360
136B
102
}
330
2
100
AcDbSymbolTableRecord
100
AcDbLayerTableRecord
  2
hatch
 70
     0
 62
     9
  6
Continuous
370
    -3
390
F
  0
LAYER
  5
8AF
102
{ACAD_XDICTIONARY
360
136D
102
}
330
2
100
AcDbSymbolTableRecord
100
AcDbLayerTableRecord
  2
9
 70
     0
 62
     9
  6
Continuous
370
    -3
390
F
  0
LAYER
  5
8F8
102
{ACAD_XDICTIONARY
360
136F
102
}
330
2
100
AcDbSymbolTableRecord
100
AcDbLayerTableRecord
  2
leg fin
 70
     0
 62
     9
  6
Continuous
370
    -3
390
F
  0
LAYER
  5
91D
102
{ACAD_XDICTIONARY
360
1371
102
}
330
2
100
AcDbSymbolTableRecord
100
AcDbLayerTableRecord
  2
cotas
 70
     0
 62
     1
  6
Continuous
370
    -3
390
F
  0
LAYER
  5
92F
330
2
100
AcDbSymbolTableRecord
100
AcDbLayerTableRecord
  2
Defpoints
 70
     0
 62
     7
  6
Continuous
290
     0
370
    -3
390
F
  0
LAYER
  5
C7B
102
{ACAD_XDICTIONARY
360
1373
102
}
330
2
100
AcDbSymbolTableRecord
100
AcDbLayerTableRecord
  2
SANINDUSA
 70
     0
 62
     3
  6
Continuous
370
    -3
390
F
  0
LAYER
  5
1060
102
{ACAD_XDICTIONARY
360
1375
102
}
330
2
100
AcDbSymbolTableRecord
100
AcDbLayerTableRecord
  2
hid1
 70
     0
 62
     9
  6
HIDDEN
370
    -3
390
F
1001
AcAecLayerStandard
1000

1000

  0
ENDTAB
  0
TABLE
  2
STYLE
  5
3
330
0
100
AcDbSymbolTable
 70
     4
  0
STYLE
  5
11
330
3
100
AcDbSymbolTableRecord
100
AcDbTextStyleTableRecord
  2
Standard
 70
     0
 40
0.0
 41
1.0
 50
0.0
 71
     0
 42
2.5
  3
Avgardn.ttf
  4

1001
ACAD
1000
AvantGarde Bk BT
1071
       34
  0
STYLE
  5
2C
330
3
100
AcDbSymbolTableRecord
100
AcDbTextStyleTableRecord
  2

 70
     1
 40
0.0
 41
1.0
 50
0.0
 71
     0
 42
2.5
  3
ltypeshp.shx
  4

  0
STYLE
  5
91F
330
3
100
AcDbSymbolTableRecord
100
AcDbTextStyleTableRecord
  2
SANINDUSA
 70
     0
 40
0.0
 41
1.0
 50
0.0
 71
     0
 42
2.5
  3
verdana.TTF
  4

1001
ACAD
1000
Verdana
1071
       34
  0
STYLE
  5
C7C
330
3
100
AcDbSymbolTableRecord
100
AcDbTextStyleTableRecord
  2
futura
 70
     0
 40
0.0
 41
1.0
 50
0.0
 71
     0
 42
2.5
  3
zuricrm_.ttf
  4

1001
ACAD
1000
Zurich BT
1071
       34
  0
ENDTAB
  0
TABLE
  2
VIEW
  5
6
330
0
100
AcDbSymbolTable
 70
     0
  0
ENDTAB
  0
TABLE
  2
UCS
  5
7
330
0
100
AcDbSymbolTable
 70
     0
  0
ENDTAB
  0
TABLE
  2
APPID
  5
9
330
0
100
AcDbSymbolTable
 70
    12
  0
APPID
  5
12
330
9
100
AcDbSymbolTableRecord
100
AcDbRegAppTableRecord
  2
ACAD
 70
     0
  0
APPID
  5
3A
330
9
100
AcDbSymbolTableRecord
100
AcDbRegAppTableRecord
  2
DCO15
 70
     0
  0
APPID
  5
EEE
330
9
100
AcDbSymbolTableRecord
100
AcDbRegAppTableRecord
  2
ACAD_DSTYLE_DIMTEXT_FILL
 70
     0
  0
APPID
  5
EEF
330
9
100
AcDbSymbolTableRecord
100
AcDbRegAppTableRecord
  2
ACAD_DSTYLE_DIMEXT_LENGTH
 70
     0
  0
APPID
  5
EF0
330
9
100
AcDbSymbolTableRecord
100
AcDbRegAppTableRecord
  2
ACAD_DSTYLE_DIMEXT_ENABLED
 70
     0
  0
APPID
  5
EF1
330
9
100
AcDbSymbolTableRecord
100
AcDbRegAppTableRecord
  2
ACAD_DSTYLE_DIM_LINETYPE
 70
     0
  0
APPID
  5
EF2
330
9
100
AcDbSymbolTableRecord
100
AcDbRegAppTableRecord
  2
ACAD_DSTYLE_DIM_EXT1_LINETYPE
 70
     0
  0
APPID
  5
EF3
330
9
100
AcDbSymbolTableRecord
100
AcDbRegAppTableRecord
  2
ACAD_DSTYLE_DIM_EXT2_LINETYPE
 70
     0
  0
APPID
  5
FAF
330
9
100
AcDbSymbolTableRecord
100
AcDbRegAppTableRecord
  2
ACAD_DSTYLE_DIMJOGGED_JOGANGLE_SYMBOL
 70
     0
  0
APPID
  5
1013
330
9
100
AcDbSymbolTableRecord
100
AcDbRegAppTableRecord
  2
ACAD_DSTYLE_DIMARC_LENGTH_SYMBOL
 70
     0
  0
APPID
  5
1061
330
9
100
AcDbSymbolTableRecord
100
AcDbRegAppTableRecord
  2
AcAecLayerStandard
 70
     0
  0
APPID
  5
1469
330
9
100
AcDbSymbolTableRecord
100
AcDbRegAppTableRecord
  2
ACAD_MLEADERVER
 70
     0
  0
ENDTAB
  0
TABLE
  2
DIMSTYLE
  5
A
330
0
100
AcDbSymbolTable
 70
     4
100
AcDbDimStyleTable
 71
     1
340
921
  0
DIMSTYLE
105
45
330
A
100
AcDbSymbolTableRecord
100
AcDbDimStyleTableRecord
  2
STANDARD
 70
     0
289
     0
340
11
  0
DIMSTYLE
105
921
330
A
100
AcDbSymbolTableRecord
100
AcDbDimStyleTableRecord
  2
SANINDUSA
 70
     0
 41
2.0
 42
1.0
 43
1.0
 44
1.0
 73
     0
 74
     0
 77
     1
 78
     8
140
2.0
141
0.0
143
0.03937007874016
147
1.0
171
     3
172
     1
176
   256
177
   256
178
   256
179
     1
271
     1
272
     1
274
     3
278
    44
283
     0
284
     8
340
91F
371
    -1
372
    -1
1001
ACAD_DSTYLE_DIMJOGGED_JOGANGLE_SYMBOL
1070
   384
1040
1.570796326794896
  0
DIMSTYLE
105
C7D
330
A
100
AcDbSymbolTableRecord
100
AcDbDimStyleTableRecord
  2
AM_ISO
 70
     0
  4
"
 41
2.5
 42
1.0
 43
10.0
 44
1.0
 47
0.1
 48
0.1
 73
     0
 74
     0
 77
     1
 78
     8
 79
     2
140
3.5
141
0.0
143
0.0393701
146
0.71
147
1.5
172
     1
176
   256
177
   256
178
     2
271
     2
272
     3
274
     4
283
     0
284
     8
340
11
371
    -1
372
    -1
  0
DIMSTYLE
105
10B3
330
A
100
AcDbSymbolTableRecord
100
AcDbDimStyleTableRecord
  2
ISO-25
 70
     0
 41
2.5
 42
0.625
 43
3.75
 44
1.25
 73
     0
 74
     0
 77
     1
 78
     8
140
2.5
141
2.5
143
0.03937007874016
147
0.625
171
     3
172
     1
271
     2
272
     2
274
     3
278
    44
283
     0
284
     8
340
11
  0
ENDTAB
  0
TABLE
  2
BLOCK_RECORD
  5
1
330
0
100
AcDbSymbolTable
 70
     8
  0
BLOCK_RECORD
  5
1F
330
1
100
AcDbSymbolTableRecord
100
AcDbBlockTableRecord
  2
*Model_Space
340
22
  0
BLOCK_RECORD
  5
1B
330
1
100
AcDbSymbolTableRecord
100
AcDbBlockTableRecord
  2
*Paper_Space
340
1E
  0
BLOCK_RECORD
  5
23
330
1
100
AcDbSymbolTableRecord
100
AcDbBlockTableRecord
  2
*Paper_Space0
340
26
  0
BLOCK_RECORD
  5
919
330
1
100
AcDbSymbolTableRecord
100
AcDbBlockTableRecord
  2
_DotSmall
340
0
  0
BLOCK_RECORD
  5
922
330
1
100
AcDbSymbolTableRecord
100
AcDbBlockTableRecord
  2
base para cotas
340
0
310
2800000020000000200000000100080000000000000400000000000000000000000000000000000000000000000080000080000000808000800000008000800080800000C0C0C000C0DCC000F0CAA6000020400000206000002080000020A0000020C0000020E00000400000004020000040400000406000004080000040A0
310
000040C0000040E00000600000006020000060400000606000006080000060A0000060C0000060E00000800000008020000080400000806000008080000080A0000080C0000080E00000A0000000A0200000A0400000A0600000A0800000A0A00000A0C00000A0E00000C0000000C0200000C0400000C0600000C0800000C0
310
A00000C0C00000C0E00000E0000000E0200000E0400000E0600000E0800000E0A00000E0C00000E0E00040000000400020004000400040006000400080004000A0004000C0004000E00040200000402020004020400040206000402080004020A0004020C0004020E000404000004040200040404000404060004040800040
310
40A0004040C0004040E00040600000406020004060400040606000406080004060A0004060C0004060E00040800000408020004080400040806000408080004080A0004080C0004080E00040A0000040A0200040A0400040A0600040A0800040A0A00040A0C00040A0E00040C0000040C0200040C0400040C0600040C08000
310
40C0A00040C0C00040C0E00040E0000040E0200040E0400040E0600040E0800040E0A00040E0C00040E0E00080000000800020008000400080006000800080008000A0008000C0008000E00080200000802020008020400080206000802080008020A0008020C0008020E00080400000804020008040400080406000804080
310
008040A0008040C0008040E00080600000806020008060400080606000806080008060A0008060C0008060E00080800000808020008080400080806000808080008080A0008080C0008080E00080A0000080A0200080A0400080A0600080A0800080A0A00080A0C00080A0E00080C0000080C0200080C0400080C0600080C0
310
800080C0A00080C0C00080C0E00080E0000080E0200080E0400080E0600080E0800080E0A00080E0C00080E0E000C0000000C0002000C0004000C0006000C0008000C000A000C000C000C000E000C0200000C0202000C0204000C0206000C0208000C020A000C020C000C020E000C0400000C0402000C0404000C0406000C0
310
408000C040A000C040C000C040E000C0600000C0602000C0604000C0606000C0608000C060A000C060C000C060E000C0800000C0802000C0804000C0806000C0808000C080A000C080C000C080E000C0A00000C0A02000C0A04000C0A06000C0A08000C0A0A000C0A0C000C0A0E000C0C00000C0C02000C0C04000C0C06000
310
C0C08000C0C0A000F0FBFF00A4A0A000808080000000FF0000FF000000FFFF00FF000000FF00FF00FFFF0000FFFFFF00A4A4A4A4A4A4A4A4A4A4A4A4A4A4A4A4A4A4A4A4A4A4A4A4A4A4A4A4A4A4A4A4A4A4A4A4A4A4A4A4A4A4A4A4A4A4A4A4A4A4A4A4A4A4A4A4A4A4A4A4A4A4A4A4A4A4A4A4A4A4A4A4A4A4A4A4A4A4A4
310
A4A4A4A4A4A4A4A4A4A4A4A4A4A4A4A4A4A4A4A4A4A4A4A4A4A4A4A4A4A4A4A4A4A4A4A4A4A4A4A4A4A4A4A4A4A4A4A4A4A4A4A4A4A4A4A4A4A4A4A4A4A4A4A4A4A4A4A4A4A4A4A4A4A4A4A4A4A4A4A4A4A4A4A4A4A4A4A4A4A4A4A4A4A4A4A4A4A4A4A4A4A4A4A4A4A4A4A4A4A4A4A4A4A4A4A4A4A4A4A4A4A4A4A4A4A4A4
310
A4A4A4A4A4A4A4A4A4A4A4A4A4A4A4A4A4A4A4A4A4A4A4A4A4A4A4A4A4A4A4A4A4A4A4A4A4A4A4A4A4A4A4A4A4A4A4A4A4A4A4A4A4A4A4A4A4A4A4A4A4A4A4A4A4A4A4A4A4A4A4A4A4A4A4A4A4A4A4A4A4A4A4A4A4A4A4A4A4A4A4A4A4A4A4A4A4A4A4A4A4A4A4A4A4A4A4A4A4A4A4A4A4A4A4A4A4A4A4A4A4A4A4A4A4A4A4
310
A4A4A4A4A4A4A4A4A4A4A4A4A4A4A4A4A4A4A4A4A4A4A4A4A4A4A4A4A4A4A4A4A4A4A4A4A4A4A4A4A4A4A4A4A4A4A4A4A4A4A4A4A4A4A4A4A4A4A4A4A4A4A4A4A4A4A4A4A4A4A4A4A4A4A4A4A4A4A4A4A4A4A4A4A4A4A4A4A4A4A4A4A4A4A4A4A4A4A4A4A4A4A4A4A4A4A4A4A4A4A4A4A4A4A4A4F9F9F9F9F9F9F9F9F9F9F9
310
F9F9F9F9F9F9F9F9F9F9F9F9F9F9F9F9F9F9F9A4A4F9F9F9F9F9F9F9F9F9F9F9F9F9F9F9F9F9F9F9F9F9F9F9F9F9F9F9F9F9F9A4A4F9F9F9F9F9F9F9F9F9F9F9F9F9F9F9F9F9F9F9F9F9F9F9F9F9F9F9F9F9F9A4A4F9A4A4A4A4A4A4A4A4A4A4A4A4A4A4A4A4A4A4A4A4A4A4A4A4A4A4A4A4F9A4A4A4A4A4A4A4A4A4A4A4A4
310
A4A4A4A4A4A4A4A4A4A4A4A4A4A4A4A4A4A4A4A4A4A4A4A4A4A4A4A4A4A4A4A4A4A4A4A4A4A4A4A4A4A4A4A4A4A4A4A4A4A4A4A4A4A4A4A4A4A4A4A4A4A4A4A4A4A4A4A4A4A4A4A4A4A4A4A4A4A4A4A4A4A4A4A4A4A4A4A4A4A4A4A4A4A4A4A4A4A4A4A4A4A4A4A4A4A4A4A4A4A4A4A4A4A4A4A4A4A4A4A4A4A4A4A4A4A4A4
310
A4A4A4A4A4A4A4A4A4A4A4A4A4A4A4A4A4A4A4A4A4A4A4A4A4A4A4A4A4A4A4A4A4A4A4A4A4A4A4A4A4A4A4A4A4A4A4A4A4A4A4A4A4A4A4A4A4A4A4A4A4A4A4A4A4A4A4A4A4A4A4A4A4A4A4A4A4A4A4A4A4A4A4A4A4A4A4A4A4A4A4A4A4A4A4A4A4A4A4A4A4A4A4A4A4A4A4A4A4A4A4A4A4A4A4A4A4A4A4A4A4A4A4A4A4A4A4
310
A4A4A4A4A4A4A4A4A4A4A4A4A4A4A4A4A4A4A4A4A4A4A4A4A4A4A4A4A4A4A4A4A4A4A4A4A4A4A4A4A4A4A4A4A4A4A4A4A4A4A4A4A4A4A4A4A4A4A4A4A4A4A4A4A4A4A4A4A4A4A4A4A4A4A4A4A4A4A4A4A4A4A4A4A4A4A4A4A4A4A4A4A4A4A4A4A4A4A4A4A4A4A4A4A4A4A4A4A4A4A4A4A4A4A4A4A4A4A4A4A4A4A4A4A4A4A4
310
A4A4A4A4A4A4A4A4A4A4A4A4A4A4A4A4A4A4A4A4A4A4A4A4A4A4A4A4A4A4A4A4A4A4A4A4A4A4A4A4A4A4A4A4A4A4A4A4A4A4A4A4A4A4A4A4
1001
ACAD
1000
DesignCenter Data
1002
{
1070
     1
1070
     4
1002
}
  0
BLOCK_RECORD
  5
AA8
330
1
100
AcDbSymbolTableRecord
100
AcDbBlockTableRecord
  2
_CLOSED
340
0
  0
BLOCK_RECORD
  5
B79
330
1
100
AcDbSymbolTableRecord
100
AcDbBlockTableRecord
  2
nota revisoes
340
0
1001
ACAD
1000
DesignCenter Data
1002
{
1070
     1
1070
     4
1002
}
  0
BLOCK_RECORD
  5
B8E
330
1
100
AcDbSymbolTableRecord
100
AcDbBlockTableRecord
  2
a3l
340
0
1001
ACAD
1000
DesignCenter Data
1002
{
1070
     1
1070
     4
1002
}
  0
BLOCK_RECORD
  5
B9E
330
1
100
AcDbSymbolTableRecord
100
AcDbBlockTableRecord
  2
legenda desenvolvimento
340
0
1001
ACAD
1000
DesignCenter Data
1002
{
1070
     1
1070
     4
1002
}
  0
ENDTAB
  0
ENDSEC
  0
SECTION
  2
BLOCKS
  0
BLOCK
  5
20
330
1F
100
AcDbEntity
  8
0
100
AcDbBlockBegin
  2
*Model_Space
 70
     0
 10
0.0
 20
0.0
 30
0.0
  3
*Model_Space
  1

  0
ENDBLK
  5
21
330
1F
100
AcDbEntity
  8
0
100
AcDbBlockEnd
  0
BLOCK
  5
1C
330
1B
100
AcDbEntity
 67
     1
  8
0
100
AcDbBlockBegin
  2
*Paper_Space
 70
     0
 10
0.0
 20
0.0
 30
0.0
  3
*Paper_Space
  1

  0
ENDBLK
  5
1D
330
1B
100
AcDbEntity
 67
     1
  8
0
100
AcDbBlockEnd
  0
BLOCK
  5
24
330
23
100
AcDbEntity
 67
     1
  8
0
100
AcDbBlockBegin
  2
*Paper_Space0
 70
     0
 10
0.0
 20
0.0
 30
0.0
  3
*Paper_Space0
  1

  0
ENDBLK
  5
25
330
23
100
AcDbEntity
 67
     1
  8
0
100
AcDbBlockEnd
  0
BLOCK
  5
91B
330
919
100
AcDbEntity
  8
0
100
AcDbBlockBegin
  2
_DotSmall
 70
     0
 10
0.0
 20
0.0
 30
0.0
  3
_DotSmall
  1

  0
LWPOLYLINE
  5
91A
330
919
100
AcDbEntity
  8
0
  6
ByBlock
 62
     0
100
AcDbPolyline
 90
        2
 70
     1
 43
0.5
 10
-0.0625
 20
0.0
 42
1.0
 10
0.0625
 20
0.0
 42
1.0
  0
ENDBLK
  5
91C
330
919
100
AcDbEntity
  8
0
100
AcDbBlockEnd
  0
BLOCK
  5
92A
330
922
100
AcDbEntity
  8
0
100
AcDbBlockBegin
  2
base para cotas
 70
     0
 10
0.0
 20
0.0
 30
0.0
  3
base para cotas
  1

  0
LINE
  5
B36
330
922
100
AcDbEntity
  8
cotas
100
AcDbLine
 10
0.0
 20
-30.0
 30
0.0
 11
327.1260136525398
 21
-30.0
 31
0.0
  0
LINE
  5
B37
330
922
100
AcDbEntity
  8
cotas
100
AcDbLine
 10
0.0
 20
-25.0
 30
0.0
 11
327.1260136525398
 21
-25.0
 31
0.0
  0
LINE
  5
B38
330
922
100
AcDbEntity
  8
cotas
100
AcDbLine
 10
0.0
 20
-20.0
 30
0.0
 11
327.1260136525398
 21
-20.0
 31
0.0
  0
LINE
  5
B39
330
922
100
AcDbEntity
  8
cotas
100
AcDbLine
 10
0.0
 20
-15.0
 30
0.0
 11
327.1260136525398
 21
-15.0
 31
0.0
  0
LINE
  5
B3A
330
922
100
AcDbEntity
  8
cotas
100
AcDbLine
 10
0.0
 20
-10.0
 30
0.0
 11
327.1260136525398
 21
-10.0
 31
0.0
  0
LINE
  5
B3B
330
922
100
AcDbEntity
  8
cotas
100
AcDbLine
 10
0.0
 20
0.0
 30
0.0
 11
0.0
 21
-30.0
 31
0.0
  0
LINE
  5
B3C
330
922
100
AcDbEntity
  8
cotas
100
AcDbLine
 10
327.1260136525398
 20
-30.0
 30
0.0
 11
327.1260136525398
 21
0.0
 31
0.0
  0
ENDBLK
  5
92B
330
922
100
AcDbEntity
  8
0
100
AcDbBlockEnd
  0
BLOCK
  5
AAD
330
AA8
100
AcDbEntity
  8
0
100
AcDbBlockBegin
  2
_CLOSED
 70
     0
 10
0.0
 20
0.0
 30
0.0
  3
_CLOSED
  1

  0
LINE
  5
AA9
330
AA8
100
AcDbEntity
  8
0
100
AcDbLine
 10
-1.0
 20
0.166667
 30
0.0
 11
0.0
 21
0.0
 31
0.0
  0
LINE
  5
AAA
330
AA8
100
AcDbEntity
  8
0
100
AcDbLine
 10
0.0
 20
0.0
 30
0.0
 11
-1.0
 21
-0.166667
 31
0.0
  0
LINE
  5
AAB
330
AA8
100
AcDbEntity
  8
0
100
AcDbLine
 10
-1.0
 20
0.166667
 30
0.0
 11
-1.0
 21
-0.166667
 31
0.0
  0
LINE
  5
AAC
330
AA8
100
AcDbEntity
  8
0
100
AcDbLine
 10
0.0
 20
0.0
 30
0.0
 11
-1.0
 21
0.0
 31
0.0
  0
ENDBLK
  5
AAE
330
AA8
100
AcDbEntity
  8
0
100
AcDbBlockEnd
  0
BLOCK
  5
B7C
330
B79
100
AcDbEntity
  8
0
100
AcDbBlockBegin
  2
nota revisoes
 70
     0
 10
0.0
 20
0.0
 30
0.0
  3
nota revisoes
  1

  0
CIRCLE
  5
B7A
330
B79
100
AcDbEntity
  8
4
100
AcDbCircle
 10
0.0
 20
0.0
 30
0.0
 40
13.69426055101189
  0
TEXT
  5
B7B
330
B79
100
AcDbEntity
  8
4
100
AcDbText
 10
-5.496248358154345
 20
-5.354545554066362
 30
0.0
 40
12.0
  1
1
  7
SANINDUSA
 72
     1
 11
-0.249774214433728
 21
-5.354545554066362
 31
0.0
100
AcDbText
  0
ENDBLK
  5
B7D
330
B79
100
AcDbEntity
  8
0
100
AcDbBlockEnd
  0
BLOCK
  5
B9C
330
B8E
100
AcDbEntity
  8
0
100
AcDbBlockBegin
  2
a3l
 70
     0
 10
0.0
 20
0.0
 30
0.0
  3
a3l
  1

  0
LINE
  5
B8F
330
B8E
100
AcDbEntity
  8
1
100
AcDbLine
 10
-364.2925296599447
 20
-362.1188951399395
 30
0.0
 11
-364.2925296599447
 21
-65.11889513993946
 31
0.0
  0
LINE
  5
B90
330
B8E
100
AcDbEntity
  8
4
100
AcDbLine
 10
-369.2925296599447
 20
-357.1188951399395
 30
0.0
 11
-369.2925296599447
 21
-70.11889513993946
 31
0.0
  0
LINE
  5
B91
330
B8E
100
AcDbEntity
  8
1
100
AcDbLine
 10
-784.2925296599446
 20
-65.11889513993946
 30
0.0
 11
-784.2925296599446
 21
-362.1188951399395
 31
0.0
  0
LINE
  5
B92
330
B8E
100
AcDbEntity
  8
4
100
AcDbLine
 10
-759.2925296599446
 20
-357.1188951399395
 30
0.0
 11
-759.2925296599446
 21
-70.11889513993946
 31
0.0
  0
LINE
  5
B93
330
B8E
100
AcDbEntity
  8
1
100
AcDbLine
 10
-784.2925296599446
 20
-362.1188951399395
 30
0.0
 11
-364.2925296599447
 21
-362.1188951399395
 31
0.0
  0
LINE
  5
B94
330
B8E
100
AcDbEntity
  8
4
100
AcDbLine
 10
-759.2925296599446
 20
-357.1188951399395
 30
0.0
 11
-369.2925296599447
 21
-357.1188951399395
 31
0.0
  0
LINE
  5
B95
330
B8E
100
AcDbEntity
  8
1
100
AcDbLine
 10
-654.2925296599446
 20
-357.1188951399395
 30
0.0
 11
-654.2925296599446
 21
-362.1188951399395
 31
0.0
  0
LINE
  5
B96
330
B8E
100
AcDbEntity
  8
1
100
AcDbLine
 10
-364.2925296599447
 20
-65.11889513993946
 30
0.0
 11
-784.2925296599446
 21
-65.11889513993946
 31
0.0
  0
LINE
  5
B97
330
B8E
100
AcDbEntity
  8
4
100
AcDbLine
 10
-369.2925296599447
 20
-70.11889513993946
 30
0.0
 11
-759.2925296599446
 21
-70.11889513993946
 31
0.0
  0
LINE
  5
B98
330
B8E
100
AcDbEntity
  8
1
100
AcDbLine
 10
-654.2925296599446
 20
-65.11889513993946
 30
0.0
 11
-654.2925296599446
 21
-70.11889513993946
 31
0.0
  0
LINE
  5
B99
330
B8E
100
AcDbEntity
  8
1
100
AcDbLine
 10
-549.2925296599446
 20
-70.11889513993946
 30
0.0
 11
-549.2925296599446
 21
-65.11889513993946
 31
0.0
  0
LINE
  5
B9A
330
B8E
100
AcDbEntity
  8
1
100
AcDbLine
 10
-369.2925296599447
 20
-65.11889513993946
 30
0.0
 11
-364.2925296599447
 21
-65.11889513993946
 31
0.0
  0
LINE
  5
B9B
330
B8E
100
AcDbEntity
  8
1
100
AcDbLine
 10
-549.2925296599446
 20
-357.1188951399395
 30
0.0
 11
-549.2925296599446
 21
-362.1188951399395
 31
0.0
  0
ENDBLK
  5
B9D
330
B8E
100
AcDbEntity
  8
0
100
AcDbBlockEnd
  0
BLOCK
  5
C13
330
B9E
100
AcDbEntity
  8
0
100
AcDbBlockBegin
  2
legenda desenvolvimento
 70
     2
 10
0.0
 20
0.0
 30
0.0
  3
legenda desenvolvimento
  1

  0
ATTDEF
  5
B9F
330
B9E
100
AcDbEntity
  8
1
100
AcDbText
 10
-108.606245802552
 20
55.5
 30
0.0
 40
4.0
  1
XXXXXXXXXXXXXX
 41
0.8
  7
SANINDUSA
 72
     4
 11
-87.5
 21
57.5
 31
0.0
100
AcDbAttributeDefinition
  3
Nome do Produto:
  2
PRODUTO
 70
     0
  0
ATTDEF
  5
BA0
330
B9E
100
AcDbEntity
  8
1
100
AcDbText
 10
-97.9997966101695
 20
41.25
 30
0.0
 40
3.0
  1
XXXXXXXXX
 41
0.8
  7
futura
 72
     4
 11
-87.5
 21
42.75
 31
0.0
100
AcDbAttributeDefinition
  3
Nome da Peça:
  2
PECA
 70
     0
  0
ATTDEF
  5
BA1
330
B9E
100
AcDbEntity
  8
1
100
AcDbText
 10
-133.4422431161853
 20
21.11745296763252
 30
0.0
 40
2.5
  1
X
 41
0.8
  7
SANINDUSA
 72
     4
 11
-132.5
 21
22.36745296763252
 31
0.0
100
AcDbAttributeDefinition
  3
Cod. TESTE:
  2
TESTE
 70
     0
  0
ATTDEF
  5
BA2
330
B9E
100
AcDbEntity
  8
1
100
AcDbText
 10
-124.3844862323707
 20
21.11745296763252
 30
0.0
 40
2.5
  1
XX
 41
0.8
  7
SANINDUSA
 72
     4
 11
-122.5
 21
22.36745296763252
 31
0.0
100
AcDbAttributeDefinition
  3
Cod. Ano:
  2
ANO
 70
     0
  0
ATTDEF
  5
BA3
330
B9E
100
AcDbEntity
  8
1
100
AcDbText
 10
-112.526889953052
 20
21.11745296763252
 30
0.0
 40
2.5
  1
XXX
 41
0.8
  7
SANINDUSA
 72
     4
 11
-109.700160604496
 21
22.36745296763252
 31
0.0
100
AcDbAttributeDefinition
  3
Cod. Sequência:
  2
SEQUENCIA
 70
     0
  0
ATTDEF
  5
BA4
330
B9E
100
AcDbEntity
  8
1
100
AcDbText
 10
-99.35382430979316
 20
21.11745296763252
 30
0.0
 40
2.5
  1
XX
 41
0.8
  7
SANINDUSA
 72
     4
 11
-97.46933807742244
 21
22.36745296763252
 31
0.0
100
AcDbAttributeDefinition
  3
Cod. Tipo:
  2
TIPO
 70
     0
  0
ATTDEF
  5
BA5
330
B9E
100
AcDbEntity
  8
1
100
AcDbText
 10
-87.42035911468438
 20
21.11745296763252
 30
0.0
 40
2.5
  1
XXX
 41
0.8
  7
SANINDUSA
 72
     4
 11
-84.59362976612828
 21
22.36745296763252
 31
0.0
100
AcDbAttributeDefinition
  3
Cod. Produto:
  2
PRODUTO
 70
     0
  0
ATTDEF
  5
BA6
330
B9E
100
AcDbEntity
  8
1
100
AcDbText
 10
-74.62051971917853
 20
21.11745296763252
 30
0.0
 40
2.5
  1
XXX
 41
0.8
  7
SANINDUSA
 72
     4
 11
-71.79379037062244
 21
22.36745296763252
 31
0.0
100
AcDbAttributeDefinition
  3
Cod. Peça:
  2
PECA
 70
     0
  0
ATTDEF
  5
BA7
330
B9E
100
AcDbEntity
  8
1
100
AcDbText
 10
-61.10603446650329
 20
21.11745296763252
 30
0.0
 40
2.5
  1
XX
 41
0.8
  7
SANINDUSA
 72
     4
 11
-59.22154823413257
 21
22.36745296763252
 31
0.0
100
AcDbAttributeDefinition
  3
Cod. Revisão:
  2
REV
 70
     0
  0
ATTDEF
  5
BA8
330
B9E
100
AcDbEntity
  8
1
100
AcDbText
 10
-48.43615325006194
 20
21.11745296763252
 30
0.0
 40
2.5
  1
XX
 41
0.8
  7
SANINDUSA
 72
     4
 11
-46.55166701769121
 21
22.36745296763252
 31
0.0
100
AcDbAttributeDefinition
  3
Cod. Alteração:
  2
ALT
 70
     0
  0
ATTDEF
  5
BA9
330
B9E
100
AcDbEntity
  8
1
100
AcDbText
 10
-35.19086635325722
 20
23.98875083948959
 30
0.0
 40
3.0
  1
1/XXX
 41
0.8
  7
SANINDUSA
 72
     4
 11
-30.0
 21
25.25
 31
0.0
100
AcDbAttributeDefinition
  3
Escala geral:
  2
ESCALA
 70
     0
  0
ATTDEF
  5
BAA
330
B9E
100
AcDbEntity
  8
1
100
AcDbText
 10
-15.65345869711215
 20
23.75
 30
0.0
 40
3.0
  1
XXXXX
 41
0.8
  7
SANINDUSA
 72
     4
 11
-10.0
 21
25.25
 31
0.0
100
AcDbAttributeDefinition
  3
Folha:
  2
FOLHA
 70
     0
  0
ATTDEF
  5
BAB
330
B9E
100
AcDbEntity
  8
1
100
AcDbText
 10
-178.5146998822042
 20
56.9531347542807
 30
0.0
 40
2.0
  1
xx
 41
0.8
  7
SANINDUSA
 72
     4
 11
-177.2123493113513
 21
57.70330265219877
 31
0.0
100
AcDbAttributeDefinition
  3
revisão
  2
REV.
 70
     0
  0
ATTDEF
  5
BAC
330
B9E
100
AcDbEntity
  8
1
100
AcDbText
 10
-172.7849640077129
 20
56.9531347542807
 30
0.0
 40
2.0
  1
xx
 41
0.8
  7
SANINDUSA
 72
     4
 11
-171.48261343686
 21
57.70330265219877
 31
0.0
100
AcDbAttributeDefinition
  3
alteração
  2
ALT.
 70
     0
  0
ATTDEF
  5
BAD
330
B9E
100
AcDbEntity
  8
1
100
AcDbText
 10
-168.007199951307
 20
56.70330265219877
 30
0.0
 40
2.0
  1
xx/xx/xxxx
 41
0.8
  7
SANINDUSA
 11
-168.007199951307
 21
57.70330265219877
 31
0.0
100
AcDbAttributeDefinition
  3
data
  2
DATA
 70
     0
 74
     2
  0
ATTDEF
  5
BAE
330
B9E
100
AcDbEntity
  8
1
100
AcDbText
 10
-168.5396372253371
 20
13.15916722632639
 30
0.0
 40
2.0
  1
XX/XX/XXXX
 41
0.8
  7
SANINDUSA
 72
     4
 11
-161.5099528734231
 21
14.0
 31
0.0
100
AcDbAttributeDefinition
  3
Data projecto
  2
DATA_PROJ
 70
     0
  0
ATTDEF
  5
BAF
330
B9E
100
AcDbEntity
  8
1
100
AcDbText
 10
-150.8658110728766
 20
13.24983210208193
 30
0.0
 40
2.0
  1
xxxxxxxx
 41
0.8
  7
SANINDUSA
 72
     4
 11
-145.6564087894649
 21
14.0
 31
0.0
100
AcDbAttributeDefinition
  3
nome de quem projectou
  2
NOME
 70
     0
  0
ATTDEF
  5
BB0
330
B9E
100
AcDbEntity
  8
1
100
AcDbText
 10
-168.5396372253371
 20
9.159167226326394
 30
0.0
 40
2.0
  1
XX/XX/XXXX
 41
0.8
  7
SANINDUSA
 72
     4
 11
-161.5099528734231
 21
10.0
 31
0.0
100
AcDbAttributeDefinition
  3
Data desenhou
  2
DATA_DES
 70
     0
  0
ATTDEF
  5
BB1
330
B9E
100
AcDbEntity
  8
1
100
AcDbText
 10
-151.516986358303
 20
9.249832102081933
 30
0.0
 40
2.0
  1
xxxxxxxxx
 41
0.8
  7
SANINDUSA
 72
     4
 11
-145.6564087894649
 21
10.0
 31
0.0
100
AcDbAttributeDefinition
  3
nome
  2
NOME
 70
     0
  0
ATTDEF
  5
BB2
330
B9E
100
AcDbEntity
  8
1
100
AcDbText
 10
-127.2924214135946
 20
14.1979876583216
 30
0.0
 40
2.0
  1
Vitreous China
 41
0.8
  7
SANINDUSA
 72
     4
 11
-119.231709526422
 21
15.22216495852308
 31
0.0
100
AcDbAttributeDefinition
  3
Nome do Material:
  2
MATERIAL
 70
     0
  0
ATTDEF
  5
BB3
330
B9E
100
AcDbEntity
  8
1
100
AcDbText
 10
-103.1563452122093
 20
14.38019043949261
 30
0.0
 40
2.0
  1
Branco
 41
0.8
  7
SANINDUSA
 72
     4
 11
-99.33418268702462
 21
15.35937109765245
 31
0.0
100
AcDbAttributeDefinition
  3
cor da peça
  2
COR
 70
     0
  0
ATTDEF
  5
BB4
330
B9E
100
AcDbEntity
  8
1
100
AcDbText
 10
-116.7235057085292
 20
5.975822699798522
 30
0.0
 40
2.0
  1
Vidrado
 41
0.8
  7
SANINDUSA
 72
     4
 11
-112.5
 21
7.0
 31
0.0
100
AcDbAttributeDefinition
  3
Tipo de acabamento:
  2
ACABAMENTO
 70
     0
  0
ATTDEF
  5
BB5
330
B9E
100
AcDbEntity
  8
1
100
AcDbText
 10
-79.18527869967246
 20
16.65066409850533
 30
0.0
 40
2.0
  1
XXXXXXX
 41
0.8
  7
SANINDUSA
 72
     4
 11
-73.90871724903445
 21
17.65066409850533
 31
0.0
100
AcDbAttributeDefinition
  3
Normas
  2
NORMAS
 70
     0
  0
ATTDEF
  5
BB6
330
B9E
100
AcDbEntity
  8
1
100
AcDbText
 10
-30.55312290127603
 20
14.0
 30
0.0
 40
2.0
  1
XXXXXXXXXXXXXX
 41
0.8
  7
SANINDUSA
 72
     4
 11
-20.0
 21
15.0
 31
0.0
100
AcDbAttributeDefinition
  3
Substitui o desenho:
  2
SUBSTITUI
 70
     0
  0
ATTDEF
  5
BB7
330
B9E
100
AcDbEntity
  8
1
100
AcDbText
 10
-31.30691739422431
 20
6.0
 30
0.0
 40
2.0
  1
XXXXXXXXXXXXXXX
 41
0.8
  7
SANINDUSA
 72
     4
 11
-20.0
 21
7.0
 31
0.0
100
AcDbAttributeDefinition
  3
Substituido por:
  2
SUBSTITUIDO
 70
     0
  0
ATTDEF
  5
BB8
330
B9E
100
AcDbEntity
  8
1
100
AcDbText
 10
-110.0220608548302
 20
1.478208457928303
 30
0.0
 40
2.0
  1
XXXXXXXXXXXXXXXXXXXXXXXXXXXXXXXXXX
 41
0.8
  7
SANINDUSA
 11
-110.0220608548302
 21
2.478208457928303
 31
0.0
100
AcDbAttributeDefinition
  3
Localização do desenho:
  2
LOC-DWG
 70
     0
 74
     2
  0
LINE
  5
BB9
330
B9E
100
AcDbEntity
  8
3
100
AcDbLine
 10
-135.0
 20
4.0
 30
0.0
 11
0.0000000000004547
 21
4.0
 31
0.0
  0
LINE
  5
BBA
330
B9E
100
AcDbEntity
  8
3
100
AcDbLine
 10
-90.00000000000046
 20
12.0
 30
0.0
 11
-135.0
 21
12.0
 31
0.0
  0
LINE
  5
BBB
330
B9E
100
AcDbEntity
  8
3
100
AcDbLine
 10
-135.0
 20
32.5
 30
0.0
 11
-40.0
 21
32.5
 31
0.0
  0
TEXT
  5
BBC
330
B9E
100
AcDbEntity
  8
1
100
AcDbText
 10
-134.0
 20
1.25
 30
0.0
 40
2.0
  1
Localização do des.:
 41
0.8
  7
SANINDUSA
 11
-134.0
 21
2.25
 31
0.0
100
AcDbText
 73
     2
  0
LINE
  5
BBD
330
B9E
100
AcDbEntity
  8
3
100
AcDbLine
 10
-180.0
 20
65.0
 30
0.0
 11
0.0
 21
65.0
 31
0.0
  0
LINE
  5
BBE
330
B9E
100
AcDbEntity
  8
leg fin
100
AcDbLine
 10
-40.0
 20
25.05956924886846
 30
0.0
 11
-135.0
 21
25.05956924886846
 31
0.0
  0
LINE
  5
BBF
330
B9E
100
AcDbEntity
  8
leg fin
100
AcDbLine
 10
-40.0
 20
28.5
 30
0.0
 11
-135.0
 21
28.5
 31
0.0
  0
LINE
  5
BC0
330
B9E
100
AcDbEntity
  8
3
100
AcDbLine
 10
-135.0
 20
50.0
 30
0.0
 11
-40.0
 21
50.0
 31
0.0
  0
TEXT
  5
BC1
330
B9E
100
AcDbEntity
  8
1
100
AcDbText
 10
-134.0
 20
29.75
 30
0.0
 40
2.0
  1
Desenho nº:
 41
0.8
  7
SANINDUSA
 11
-134.0
 21
30.75
 31
0.0
100
AcDbText
 73
     2
  0
TEXT
  5
BC2
330
B9E
100
AcDbEntity
  8
1
100
AcDbText
 10
-134.0
 20
9.25
 30
0.0
 40
2.0
  1
Acabamento:
 41
0.8
  7
SANINDUSA
 11
-134.0
 21
10.25
 31
0.0
100
AcDbText
 73
     2
  0
LINE
  5
BC3
330
B9E
100
AcDbEntity
  8
3
100
AcDbLine
 10
-180.0
 20
20.0
 30
0.0
 11
0.0
 21
20.0
 31
0.0
  0
LINE
  5
BC4
330
B9E
100
AcDbEntity
  8
1
100
AcDbLine
 10
-174.5810776056337
 20
55.5
 30
0.0
 11
-174.5810776056337
 21
65.0
 31
0.0
  0
LINE
  5
BC5
330
B9E
100
AcDbEntity
  8
1
100
AcDbLine
 10
-168.9210461879161
 20
55.5
 30
0.0
 11
-168.9210461879161
 21
65.0
 31
0.0
  0
LINE
  5
BC6
330
B9E
100
AcDbEntity
  8
1
100
AcDbLine
 10
-154.0988595589306
 20
55.5
 30
0.0
 11
-154.0988595589306
 21
65.0
 31
0.0
  0
LINE
  5
BC7
330
B9E
100
AcDbEntity
  8
3
100
AcDbLine
 10
-180.0
 20
65.0
 30
0.0
 11
-180.0
 21
0.0
 31
0.0
  0
LINE
  5
BC8
330
B9E
100
AcDbEntity
  8
3
100
AcDbLine
 10
-135.0
 20
0.0
 30
0.0
 11
-135.0
 21
65.0
 31
0.0
  0
TEXT
  5
BC9
330
B9E
100
AcDbEntity
  8
1
100
AcDbText
 10
-179.0
 20
9.75
 30
0.0
 40
1.5
  1
Des.
 41
0.8
  7
SANINDUSA
 11
-179.0
 21
10.5
 31
0.0
100
AcDbText
 73
     2
  0
LINE
  5
BCA
330
B9E
100
AcDbEntity
  8
1
100
AcDbLine
 10
-168.9210461879161
 20
20.0
 30
0.0
 11
-168.9210461879161
 21
0.0
 31
0.0
  0
LINE
  5
BCB
330
B9E
100
AcDbEntity
  8
1
100
AcDbLine
 10
-154.0988595589306
 20
20.0
 30
0.0
 11
-154.0988595589306
 21
0.0
 31
0.0
  0
LINE
  5
BCC
330
B9E
100
AcDbEntity
  8
1
100
AcDbLine
 10
-180.0
 20
4.0
 30
0.0
 11
-135.0
 21
4.0
 31
0.0
  0
LINE
  5
BCD
330
B9E
100
AcDbEntity
  8
1
100
AcDbLine
 10
-180.0
 20
8.0
 30
0.0
 11
-135.0
 21
8.0
 31
0.0
  0
TEXT
  5
BCE
330
B9E
100
AcDbEntity
  8
1
100
AcDbText
 10
-179.0
 20
1.73257823687436
 30
0.0
 40
1.5
  1
Aprov.
 41
0.8
  7
SANINDUSA
 11
-179.0
 21
2.48257823687436
 31
0.0
100
AcDbText
 73
     2
  0
TEXT
  5
BCF
330
B9E
100
AcDbEntity
  8
1
100
AcDbText
 10
-179.0
 20
5.75
 30
0.0
 40
1.5
  1
Ver.
 41
0.8
  7
SANINDUSA
 11
-179.0
 21
6.5
 31
0.0
100
AcDbText
 73
     2
  0
LINE
  5
BD0
330
B9E
100
AcDbEntity
  8
1
100
AcDbLine
 10
-180.0
 20
16.0
 30
0.0
 11
-135.0
 21
16.0
 31
0.0
  0
LINE
  5
BD1
330
B9E
100
AcDbEntity
  8
1
100
AcDbLine
 10
-180.0
 20
12.0
 30
0.0
 11
-135.0
 21
12.0
 31
0.0
  0
TEXT
  5
BD2
330
B9E
100
AcDbEntity
  8
1
100
AcDbText
 10
-179.0
 20
13.75
 30
0.0
 40
1.5
  1
Proj.
 41
0.8
  7
SANINDUSA
 11
-179.0
 21
14.5
 31
0.0
100
AcDbText
 73
     2
  0
TEXT
  5
BD3
330
B9E
100
AcDbEntity
  8
1
100
AcDbText
 10
-167.9210461879161
 20
17.75
 30
0.0
 40
1.5
  1
Data
 41
0.8
  7
SANINDUSA
 11
-167.9210461879161
 21
18.5
 31
0.0
100
AcDbText
 73
     2
  0
TEXT
  5
BD4
330
B9E
100
AcDbEntity
  8
1
100
AcDbText
 10
-153.0988595589306
 20
17.75
 30
0.0
 40
1.5
  1
Nome
 41
0.8
  7
SANINDUSA
 11
-153.0988595589306
 21
18.5
 31
0.0
100
AcDbText
 73
     2
  0
LINE
  5
BD5
330
B9E
100
AcDbEntity
  8
leg fin
100
AcDbLine
 10
-130.0
 20
20.0
 30
0.0
 11
-130.0
 21
28.5
 31
0.0
  0
TEXT
  5
BD6
330
B9E
100
AcDbEntity
  8
1
100
AcDbText
 10
-134.0
 20
17.25
 30
0.0
 40
2.0
  1
Material:
 41
0.8
  7
SANINDUSA
 11
-134.0
 21
18.25
 31
0.0
100
AcDbText
 73
     2
  0
TEXT
  5
BD7
330
B9E
100
AcDbEntity
  8
1
100
AcDbText
 10
-129.0
 20
26.43288406845113
 30
0.0
 40
1.5
  1
Ano:
 41
0.8
  7
SANINDUSA
 11
-129.0
 21
27.18288406845113
 31
0.0
100
AcDbText
 73
     2
  0
LINE
  5
BD8
330
B9E
100
AcDbEntity
  8
1
100
AcDbLine
 10
-180.0
 20
55.5
 30
0.0
 11
-135.0
 21
55.5
 31
0.0
  0
TEXT
  5
BD9
330
B9E
100
AcDbEntity
  8
1
100
AcDbText
 10
-179.0
 20
52.67772246885193
 30
0.0
 40
1.5
  1
descrição
 41
0.8
  7
SANINDUSA
 11
-179.0
 21
53.42772246885193
 31
0.0
100
AcDbText
 73
     2
  0
TEXT
  5
BDA
330
B9E
100
AcDbEntity
  8
1
100
AcDbText
 10
-134.0
 20
47.25
 30
0.0
 40
2.0
  1
Peça:
 41
0.8
  7
SANINDUSA
 11
-134.0
 21
48.25
 31
0.0
100
AcDbText
 73
     2
  0
LINE
  5
BDB
330
B9E
100
AcDbEntity
  8
1
100
AcDbLine
 10
-180.0
 20
59.5
 30
0.0
 11
-135.0
 21
59.5
 31
0.0
  0
TEXT
  5
BDC
330
B9E
100
AcDbEntity
  8
1
100
AcDbText
 10
-173.5810776056337
 20
62.75
 30
0.0
 40
1.5
  1
Alt.
 41
0.8
  7
SANINDUSA
 11
-173.5810776056337
 21
63.5
 31
0.0
100
AcDbText
 73
     2
  0
TEXT
  5
BDD
330
B9E
100
AcDbEntity
  8
1
100
AcDbText
 10
-179.0
 20
62.75
 30
0.0
 40
1.5
  1
Rev.
 41
0.8
  7
SANINDUSA
 11
-179.0
 21
63.5
 31
0.0
100
AcDbText
 73
     2
  0
TEXT
  5
BDE
330
B9E
100
AcDbEntity
  8
1
100
AcDbText
 10
-167.9210461879161
 20
62.75
 30
0.0
 40
1.5
  1
Data
 41
0.8
  7
SANINDUSA
 11
-167.9210461879161
 21
63.5
 31
0.0
100
AcDbText
 73
     2
  0
TEXT
  5
BDF
330
B9E
100
AcDbEntity
  8
1
100
AcDbText
 10
-153.0988595589306
 20
62.75
 30
0.0
 40
1.5
  1
Nome
 41
0.8
  7
SANINDUSA
 11
-153.0988595589306
 21
63.5
 31
0.0
100
AcDbText
 73
     2
  0
TEXT
  5
BE0
330
B9E
100
AcDbEntity
  8
1
100
AcDbText
 10
-134.0
 20
62.25
 30
0.0
 40
2.0
  1
Produto:
 41
0.8
  7
SANINDUSA
 11
-134.0
 21
63.25
 31
0.0
100
AcDbText
 73
     2
  0
LINE
  5
BE1
330
B9E
100
AcDbEntity
  8
3
100
AcDbLine
 10
-40.0
 20
4.0
 30
0.0
 11
-40.0
 21
65.0
 31
0.0
  0
LWPOLYLINE
  5
BE2
102
{ACAD_REACTORS
330
BEC
102
}
330
B9E
100
AcDbEntity
  8
9
100
AcDbPolyline
 90
       12
 70
     1
 43
0.0
 10
-3.038714600644652
 20
58.90010174665076
 10
-5.726962862472191
 20
58.90010174665076
 10
-5.726962862472191
 20
58.5001017466509
 10
-3.038748516195028
 20
58.5001017466509
 42
-0.4142135623731731
 10
-2.638748516194482
 20
58.1001017466508
 10
-2.638748516194482
 20
57.42799728675596
 10
-5.21497371544865
 20
57.42799728675596
 42
0.4142135623731289
 10
-6.014973715448377
 20
56.627997286756
 10
-6.014973715448377
 20
55.92380871629643
 42
0.4142135623731132
 10
-5.21497371544865
 20
55.12380871629648
 10
-2.23871460064447
 20
55.12380871629648
 10
-2.23871460064447
 20
58.10010174665103
 42
0.4142135623730717
  0
LWPOLYLINE
  5
BE3
102
{ACAD_REACTORS
330
BEC
102
}
330
B9E
100
AcDbEntity
  8
9
100
AcDbPolyline
 90
       20
 70
     1
 43
0.0
 10
-10.01531287095122
 20
57.82799728675581
 10
-10.01531287095122
 20
58.10010174665103
 42
-0.4142135623730744
 10
-9.615312870951584
 20
58.5001017466509
 10
-6.92703069357276
 20
58.5001017466509
 10
-6.92703069357276
 20
58.90010174665076
 10
-9.615346786501959
 20
58.90010174665076
 42
0.4142135623730883
 10
-10.41534678650168
 20
58.1001017466508
 10
-10.41534678650168
 20
57.82796337120567
 42
0.4142135623730717
 10
-9.615346786501959
 20
57.02796337120571
 10
-7.423079531965413
 20
57.02796337120571
 42
-0.4142135623730847
 10
-7.023079531965322
 20
56.62796337120562
 10
-7.023079531965322
 20
55.90786840766487
 42
-0.4142135623730744
 10
-7.423079531965413
 20
55.507868407665
 10
-10.41534678650168
 20
55.507868407665
 10
-10.41534678650168
 20
55.12380871629648
 10
-7.445787917283723
 20
55.12380871629648
 42
0.4114777732064574
 10
-6.645822882998345
 20
55.9163291493976
 10
-6.639238813324936
 20
56.62051771985716
 42
0.4169546541682913
 10
-7.439203847610315
 20
57.42799728675596
 10
-9.615312870951584
 20
57.42799728675596
 42
-0.4142135623731576
  0
LWPOLYLINE
  5
BE4
102
{ACAD_REACTORS
330
BEC
102
}
330
B9E
100
AcDbEntity
  8
9
100
AcDbPolyline
 90
       12
 70
     1
 43
0.0
 10
-14.41561811090378
 20
58.90010174665076
 10
-14.79964388672215
 20
58.90010174665076
 10
-14.79964388672215
 20
55.92380871629643
 42
0.4142135623731133
 10
-13.99964388672242
 20
55.12380871629648
 10
-11.8233508563676
 20
55.12380871629648
 42
0.4142135623730872
 10
-11.02335085636741
 20
55.92380871629643
 10
-11.02335085636741
 20
58.90010174665076
 10
-11.42338477191788
 20
58.90010174665076
 10
-11.42338477191788
 20
55.91567577726095
 42
-0.4131711701795318
 10
-11.82196067063523
 20
55.51567831234956
 10
-14.0141940096214
 20
55.50787335710947
 42
-0.4152567234624407
 10
-14.41561811090378
 20
55.90787082202087
  0
LWPOLYLINE
  5
BE5
102
{ACAD_REACTORS
330
BEC
102
}
330
B9E
100
AcDbEntity
  8
9
100
AcDbPolyline
 90
        6
 70
     1
 43
0.0
 10
-15.80771578768872
 20
55.507868407665
 10
-18.39994912667453
 20
55.507868407665
 42
-0.4142135623731731
 10
-18.79994912667462
 20
55.90786840766487
 10
-18.79994912667462
 20
58.10010174665103
 42
-0.4142135623730744
 10
-18.39994912667453
 20
58.5001017466509
 10
-15.80771578768872
 20
58.5001017466509
  0
LWPOLYLINE
  5
BE6
102
{ACAD_REACTORS
330
BEC
102
}
330
B9E
100
AcDbEntity
  8
9
100
AcDbPolyline
 90
        8
 70
     1
 43
0.0
 10
-15.4236900118708
 20
59.87619128370352
 10
-15.80771578768872
 20
59.87619128370352
 10
-15.80771578768872
 20
58.90010174665076
 10
-18.39176256411201
 20
58.90010174665076
 42
0.4131164467977967
 10
-19.19175694739761
 20
58.1030995310698
 10
-19.1999120763262
 20
55.92680650071542
 42
0.4153115297271718
 10
-18.39991769304061
 20
55.12380871629648
 10
-15.4236900118708
 20
55.12380871629648
  0
LWPOLYLINE
  5
BE7
102
{ACAD_REACTORS
330
BEC
102
}
330
B9E
100
AcDbEntity
  8
9
100
AcDbPolyline
 90
       10
 70
     1
 43
0.0
 10
-20.59201288790928
 20
58.90010174665076
 10
-23.56830591826338
 20
58.90010174665076
 10
-23.56830591826338
 20
55.12380871629648
 10
-23.18424622689509
 20
55.12380871629648
 10
-23.18424622689509
 20
58.5001017466509
 10
-20.59204680345965
 20
58.5001017466509
 42
-0.4142135623730898
 10
-20.19204680345956
 20
58.1001017466508
 10
-20.19204680345956
 20
55.12380871629648
 10
-19.79201288790909
 20
55.12380871629648
 10
-19.79201288790909
 20
58.10010174665103
 42
0.4142135623731132
  0
LWPOLYLINE
  5
BE8
102
{ACAD_REACTORS
330
BEC
102
}
330
B9E
100
AcDbEntity
  8
9
100
AcDbPolyline
 90
        4
 70
     1
 43
0.0
 10
-24.19231812786165
 20
58.90010174665076
 10
-24.57637781922995
 20
58.90010174665076
 10
-24.57637781922995
 20
55.12380871629648
 10
-24.19231812786165
 20
55.12380871629648
  0
LWPOLYLINE
  5
BE9
102
{ACAD_REACTORS
330
BEC
102
}
330
B9E
100
AcDbEntity
  8
9
100
AcDbPolyline
 90
       10
 70
     1
 43
0.0
 10
-28.57661522808212
 20
58.5001017466509
 10
-25.98444972019706
 20
58.5001017466509
 42
-0.4142135623731731
 10
-25.58444972019652
 20
58.1001017466508
 10
-25.58444972019652
 20
55.12380871629648
 10
-25.2004239443786
 20
55.12380871629648
 10
-25.2004239443786
 20
58.10010174665103
 42
0.4142135623730717
 10
-26.00042394437833
 20
58.90010174665076
 10
-28.97664914363259
 20
58.90010174665076
 10
-28.97664914363259
 20
55.12380871629648
 10
-28.57661522808212
 20
55.12380871629648
  0
LWPOLYLINE
  5
BEA
102
{ACAD_REACTORS
330
BEC
102
}
330
B9E
100
AcDbEntity
  8
9
100
AcDbPolyline
 90
       12
 70
     1
 43
0.0
 10
-29.58465321349832
 20
58.10010174665103
 42
0.4142135623730716
 10
-30.3846532134985
 20
58.90010174665076
 10
-33.07296930642724
 20
58.90010174665076
 10
-33.07296930642724
 20
58.5001017466509
 10
-30.38468712904842
 20
58.5001017466509
 42
-0.4142135623730067
 10
-29.98468712904878
 20
58.1001017466508
 10
-29.98468712904878
 20
57.42799728675618
 10
-32.56098015940324
 20
57.42799728675596
 42
0.4142135623731289
 10
-33.36098015940343
 20
56.627997286756
 10
-33.36098015940343
 20
55.92380871629643
 42
0.4142135623731132
 10
-32.56098015940324
 20
55.12380871629648
 10
-29.58465321349832
 20
55.12380871629648
  0
LWPOLYLINE
  5
BEB
102
{ACAD_REACTORS
330
BEC
102
}
330
B9E
100
AcDbEntity
  8
9
100
AcDbPolyline
 90
       20
 70
     1
 43
0.0
 10
-34.7850262845518
 20
57.42799728675596
 10
-36.96125148380543
 20
57.42799728675596
 42
-0.4142135623730898
 10
-37.36125148380552
 20
57.82799728675604
 10
-37.36125148380552
 20
58.10010174665103
 42
-0.4142135623730744
 10
-36.96125148380543
 20
58.5001017466509
 10
-34.27303713752781
 20
58.50010174665067
 10
-34.27303713752781
 20
58.90010174665076
 10
-36.96128539935535
 20
58.90010174665076
 42
0.4142135623731289
 10
-37.76128539935553
 20
58.1001017466508
 10
-37.76128539935553
 20
57.82796337120567
 42
0.4142135623730716
 10
-36.9612853993558
 20
57.02796337120571
 10
-34.76901814481926
 20
57.02796337120571
 42
-0.414213562373168
 10
-34.36901814481962
 20
56.62796337120562
 10
-34.36901814481962
 20
55.90786840766487
 42
-0.4142135623730744
 10
-34.76901814481926
 20
55.507868407665
 10
-37.76128539935553
 20
55.507868407665
 10
-37.76128539935553
 20
55.12380871629648
 10
-34.7850262845518
 20
55.12380871629648
 42
0.4142135623731289
 10
-33.98502628455162
 20
55.92380871629643
 10
-33.98502628455162
 20
56.627997286756
 42
0.4142135623731132
  0
HATCH
  5
BEC
330
B9E
100
AcDbEntity
  8
9
100
AcDbHatch
 10
0.0
 20
0.0
 30
0.0
210
0.0
220
0.0
230
1.0
  2
SOLID
 70
     1
 71
     1
 91
       13
 92
        7
 72
     1
 73
     1
 93
       20
 10
-34.36901814481962
 20
55.90786840766487
 42
-0.414213562372991
 10
-34.76901814481926
 20
55.507868407665
 42
0.0
 10
-37.76128539935553
 20
55.507868407665
 42
0.0
 10
-37.76128539935553
 20
55.12380871629648
 42
0.0
 10
-34.7850262845518
 20
55.12380871629648
 42
0.4142135623731705
 10
-33.98502628455162
 20
55.92380871629666
 42
0.0
 10
-33.98502628455162
 20
56.627997286756
 42
0.4142135623731547
 10
-34.7850262845518
 20
57.42799728675596
 42
0.0
 10
-36.96125148380543
 20
57.42799728675596
 42
-0.4142135623730898
 10
-37.36125148380552
 20
57.82799728675604
 42
0.0
 10
-37.36125148380552
 20
58.1001017466508
 42
-0.4142135623731575
 10
-36.96125148380543
 20
58.5001017466509
 42
0.0
 10
-34.27303713752781
 20
58.50010174665067
 42
0.0
 10
-34.27303713752781
 20
58.90010174665076
 42
0.0
 10
-36.96128539935535
 20
58.90010174665076
 42
0.4142135623731705
 10
-37.76128539935553
 20
58.10010174665058
 42
0.0
 10
-37.76128539935553
 20
57.82796337120544
 42
0.4142135623730299
 10
-36.9612853993558
 20
57.02796337120571
 42
0.0
 10
-34.76901814481926
 20
57.02796337120571
 42
-0.4142135623730015
 10
-34.36901814481962
 20
56.62796337120608
 42
0.0
 97
        1
330
BEB
 92
        7
 72
     1
 73
     1
 93
       12
 10
-33.36098015940343
 20
55.92380871629666
 42
0.4142135623731547
 10
-32.56098015940324
 20
55.12380871629648
 42
0.0
 10
-29.58465321349877
 20
55.12380871629648
 42
0.0
 10
-29.58465321349832
 20
58.10010174665058
 42
0.4142135623731964
 10
-30.3846532134985
 20
58.90010174665076
 42
0.0
 10
-33.07296930642724
 20
58.90010174665076
 42
0.0
 10
-33.07296930642724
 20
58.50010174665067
 42
0.0
 10
-30.38468712904887
 20
58.5001017466509
 42
-0.4142135623732564
 10
-29.98468712904878
 20
58.10010174665103
 42
0.0
 10
-29.98468712904923
 20
57.42799728675596
 42
0.0
 10
-32.56098015940324
 20
57.42799728675596
 42
0.4142135623731705
 10
-33.36098015940343
 20
56.627997286756
 42
0.0
 97
        1
330
BEA
 92
       22
 72
     1
 73
     1
 93
        6
 10
-32.97692046803468
 20
56.62796337120562
 42
-0.4142135623731576
 10
-32.57692046803459
 20
57.02796337120571
 42
0.0
 10
-29.98468712904878
 20
57.02796337120571
 42
0.0
 10
-29.98468712904878
 20
55.507868407665
 42
0.0
 10
-32.57692046803459
 20
55.507868407665
 42
-0.4142135623731731
 10
-32.97692046803468
 20
55.90786840766487
 42
0.0
 97
        1
330
C11
 92
        7
 72
     1
 73
     1
 93
       10
 10
-28.57661522808212
 20
58.5001017466509
 42
0.0
 10
-25.98444972019661
 20
58.5001017466509
 42
-0.4142135623730067
 10
-25.58444972019652
 20
58.10010174665058
 42
0.0
 10
-25.58444972019606
 20
55.12380871629648
 42
0.0
 10
-25.20042394437906
 20
55.12380871629648
 42
0.0
 10
-25.2004239443786
 20
58.1001017466508
 42
0.4142135623731134
 10
-26.00042394437833
 20
58.90010174665076
 42
0.0
 10
-28.97664914363259
 20
58.90010174665076
 42
0.0
 10
-28.97664914363259
 20
55.12380871629648
 42
0.0
 10
-28.57661522808212
 20
55.12380871629648
 42
0.0
 97
        1
330
BE9
 92
        7
 72
     0
 73
     1
 93
        4
 10
-24.57637781922995
 20
55.12380871629648
 10
-24.19231812786165
 20
55.12380871629648
 10
-24.19231812786165
 20
58.90010174665076
 10
-24.57637781922995
 20
58.90010174665076
 97
        1
330
BE8
 92
        7
 72
     0
 73
     1
 93
        4
 10
-24.19231812786165
 20
59.87619128370352
 10
-24.5763778192304
 20
59.87619128370352
 10
-24.5763778192304
 20
59.28412752246913
 10
-24.1923181278612
 20
59.28412752246913
 97
        1
330
C12
 92
        7
 72
     1
 73
     1
 93
       10
 10
-23.18424622689509
 20
58.5001017466509
 42
0.0
 10
-20.59204680345965
 20
58.5001017466509
 42
-0.4142135623730898
 10
-20.19204680345956
 20
58.1001017466508
 42
0.0
 10
-20.19204680345956
 20
55.12380871629648
 42
0.0
 10
-19.79201288790909
 20
55.12380871629648
 42
0.0
 10
-19.79201288790909
 20
58.1001017466508
 42
0.4142135623731547
 10
-20.59201288790928
 20
58.90010174665076
 42
0.0
 10
-23.56830591826338
 20
58.90010174665076
 42
0.0
 10
-23.56830591826338
 20
55.12380871629648
 42
0.0
 10
-23.18424622689463
 20
55.12380871629648
 42
0.0
 97
        1
330
BE7
 92
        7
 72
     1
 73
     1
 93
        8
 10
-19.1999120763262
 20
55.92680650071542
 42
0.4153115297271299
 10
-18.39991769304061
 20
55.12380871629648
 42
0.0
 10
-15.4236900118708
 20
55.12380871629648
 42
0.0
 10
-15.4236900118708
 20
59.87619128370352
 42
0.0
 10
-15.80771578768872
 20
59.87619128370352
 42
0.0
 10
-15.80771578768872
 20
58.90010174665076
 42
0.0
 10
-18.39176256411201
 20
58.90010174665076
 42
0.4131164467977965
 10
-19.19175694739761
 20
58.1030995310698
 42
0.0
 97
        1
330
BE6
 92
       22
 72
     1
 73
     1
 93
        6
 10
-18.79994912667462
 20
58.1001017466508
 42
-0.4142135623731575
 10
-18.39994912667453
 20
58.5001017466509
 42
0.0
 10
-15.80771578768872
 20
58.50010174665067
 42
0.0
 10
-15.80771578768827
 20
55.507868407665
 42
0.0
 10
-18.39994912667453
 20
55.507868407665
 42
-0.4142135623731731
 10
-18.79994912667462
 20
55.90786840766487
 42
0.0
 97
        1
330
BE5
 92
        7
 72
     1
 73
     1
 93
       12
 10
-14.79964388672215
 20
55.92380871629621
 42
0.4142135623729885
 10
-13.99964388672242
 20
55.12380871629648
 42
0.0
 10
-11.8233508563676
 20
55.12380871629648
 42
0.4142135623731289
 10
-11.02335085636741
 20
55.92380871629666
 42
0.0
 10
-11.02335085636741
 20
58.90010174665076
 42
0.0
 10
-11.42338477191788
 20
58.90010174665076
 42
0.0
 10
-11.42338477191788
 20
55.91567577726095
 42
-0.4131711701795319
 10
-11.82196067063523
 20
55.51567831234956
 42
0.0
 10
-14.01419400962095
 20
55.50787335710947
 42
-0.4152567234626918
 10
-14.41561811090378
 20
55.90787082202087
 42
0.0
 10
-14.41561811090378
 20
58.90010174665076
 42
0.0
 10
-14.7996438867226
 20
58.90010174665076
 42
0.0
 97
        1
330
BE4
 92
        7
 72
     1
 73
     1
 93
       20
 10
-7.423079531965413
 20
57.02796337120571
 42
-0.414213562373168
 10
-7.023079531965322
 20
56.62796337120562
 42
0.0
 10
-7.023079531965322
 20
55.90786840766487
 42
-0.4142135623731575
 10
-7.423079531965413
 20
55.507868407665
 42
0.0
 10
-10.41534678650168
 20
55.507868407665
 42
0.0
 10
-10.41534678650168
 20
55.12380871629648
 42
0.0
 10
-7.445787917283723
 20
55.12380871629648
 42
0.4114777732065809
 10
-6.645822882998345
 20
55.91632914939783
 42
0.0
 10
-6.639238813324936
 20
56.62051771985716
 42
0.4169546541682913
 10
-7.439203847610315
 20
57.42799728675596
 42
0.0
 10
-9.615312870951584
 20
57.42799728675596
 42
-0.4142135623729911
 10
-10.01531287095122
 20
57.82799728675581
 42
0.0
 10
-10.01531287095122
 20
58.10010174665103
 42
-0.414213562372991
 10
-9.615312870951584
 20
58.5001017466509
 42
0.0
 10
-6.92703069357276
 20
58.50010174665067
 42
0.0
 10
-6.927030693572305
 20
58.90010174665076
 42
0.0
 10
-9.615346786501959
 20
58.90010174665076
 42
0.4142135623730467
 10
-10.41534678650168
 20
58.10010174665103
 42
0.0
 10
-10.41534678650168
 20
57.82796337120544
 42
0.4142135623730301
 10
-9.615346786501959
 20
57.02796337120571
 42
0.0
 97
        1
330
BE3
 92
        7
 72
     1
 73
     1
 93
       12
 10
-5.21497371544865
 20
57.42799728675596
 42
0.4142135623730871
 10
-6.014973715448377
 20
56.627997286756
 42
0.0
 10
-6.014973715448377
 20
55.92380871629621
 42
0.4142135623730715
 10
-5.21497371544865
 20
55.12380871629648
 42
0.0
 10
-2.23871460064447
 20
55.12380871629648
 42
0.0
 10
-2.23871460064447
 20
58.10010174665058
 42
0.414213562373155
 10
-3.038714600644652
 20
58.90010174665076
 42
0.0
 10
-5.726962862471737
 20
58.90010174665076
 42
0.0
 10
-5.726962862472191
 20
58.5001017466509
 42
0.0
 10
-3.038748516194573
 20
58.5001017466509
 42
-0.4142135623730067
 10
-2.638748516194482
 20
58.10010174665058
 42
0.0
 10
-2.638748516194482
 20
57.42799728675596
 42
0.0
 97
        1
330
BE2
 92
       22
 72
     1
 73
     1
 93
        6
 10
-2.638748516194937
 20
57.02796337120571
 42
0.0
 10
-2.638748516194482
 20
55.50786840766477
 42
0.0
 10
-5.21497371544865
 20
55.507868407665
 42
-0.4142135623731731
 10
-5.614973715448741
 20
55.90786840766509
 42
0.0
 10
-5.614973715448741
 20
56.62796337120562
 42
-0.4142135623731576
 10
-5.21497371544865
 20
57.02796337120571
 42
0.0
 97
        1
330
C0D
 75
     0
 76
     1
 47
0.0407044778999864
 98
       13
 10
-34.18710075113677
 20
56.16907953933765
 10
-33.12851374392494
 20
56.49471602641233
 10
-33.12851374392494
 20
56.49471602641233
 10
-28.77202873835904
 20
57.51232930166111
 10
-24.41554807250941
 20
57.91937341678636
 10
-24.41554807250941
 20
59.384734621186
 10
-23.31624584658039
 20
58.3264175319116
 10
-19.04119127844888
 20
57.75655517324913
 10
-19.04119127844888
 20
57.75655517324913
 10
-14.64399105416578
 20
57.43091868617466
 10
-8.048195057457178
 20
57.22739662861204
 10
-4.017427461911665
 20
57.18669281458665
 10
-4.017427461911665
 20
57.18669281458665
  0
TEXT
  5
BED
330
B9E
100
AcDbEntity
  8
leg fin
100
AcDbText
 10
3.391127401597259
 20
2.107634911895729
 30
0.0
 40
1.5
  1
Este desenho é propriedade da Sanindusa, S.A., e não pode ser copiado nem divulgado sem nossa autorização.
 50
90.0
 41
0.8
  7
SANINDUSA
100
AcDbText
  0
LINE
  5
BEE
330
B9E
100
AcDbEntity
  8
3
100
AcDbLine
 10
-90.0
 20
4.0
 30
0.0
 11
-90.0
 21
12.0
 31
0.0
  0
TEXT
  5
BEF
330
B9E
100
AcDbEntity
  8
1
100
AcDbText
 10
-39.0
 20
9.25
 30
0.0
 40
2.0
  1
Substituido por:
 41
0.8
  7
SANINDUSA
 11
-39.0
 21
10.25
 31
0.0
100
AcDbText
 73
     2
  0
POINT
  5
BF0
330
B9E
100
AcDbEntity
  8
SANINDUSA
100
AcDbPoint
 10
0.0
 20
0.0
 30
0.0
  0
TEXT
  5
BF1
330
B9E
100
AcDbEntity
  8
1
100
AcDbText
 10
-89.0
 20
16.74927010445663
 30
0.0
 40
2.0
  1
Normas:
 41
0.8
  7
SANINDUSA
 11
-89.0
 21
17.74927010445663
 31
0.0
100
AcDbText
 73
     2
  0
LINE
  5
BF2
330
B9E
100
AcDbEntity
  8
3
100
AcDbLine
 10
-90.0
 20
12.0
 30
0.0
 11
-90.0
 21
20.0
 31
0.0
  0
LINE
  5
BF3
330
B9E
100
AcDbEntity
  8
3
100
AcDbLine
 10
-110.546019464768
 20
12.0
 30
0.0
 11
-110.546019464768
 21
20.0
 31
0.0
  0
TEXT
  5
BF4
330
B9E
100
AcDbEntity
  8
1
100
AcDbText
 10
-109.6177520618648
 20
17.25
 30
0.0
 40
2.0
  1
Cor:
 41
0.8
  7
SANINDUSA
 11
-109.6177520618648
 21
18.25
 31
0.0
100
AcDbText
 73
     2
  0
LINE
  5
BF5
330
B9E
100
AcDbEntity
  8
leg fin
100
AcDbLine
 10
-91.42857142857156
 20
20.0
 30
0.0
 11
-91.42857142857156
 21
28.5
 31
0.0
  0
LINE
  5
BF6
330
B9E
100
AcDbEntity
  8
leg fin
100
AcDbLine
 10
-104.2857142857142
 20
20.0
 30
0.0
 11
-104.2857142857142
 21
28.5
 31
0.0
  0
LINE
  5
BF7
330
B9E
100
AcDbEntity
  8
leg fin
100
AcDbLine
 10
-117.1428571428573
 20
20.0
 30
0.0
 11
-117.1428571428573
 21
28.5
 31
0.0
  0
POINT
  5
BF8
330
B9E
100
AcDbEntity
  8
SANINDUSA
100
AcDbPoint
 10
-117.1428571428573
 20
28.5
 30
0.0
  0
POINT
  5
BF9
330
B9E
100
AcDbEntity
  8
SANINDUSA
100
AcDbPoint
 10
-104.2857142857142
 20
28.5
 30
0.0
  0
POINT
  5
BFA
330
B9E
100
AcDbEntity
  8
SANINDUSA
100
AcDbPoint
 10
-91.42857142857156
 20
28.5
 30
0.0
  0
TEXT
  5
BFB
330
B9E
100
AcDbEntity
  8
1
100
AcDbText
 10
-116.200160604496
 20
26.43288406845113
 30
0.0
 40
1.5
  1
Nº Seq.:
 41
0.8
  7
SANINDUSA
 11
-116.200160604496
 21
27.18288406845113
 31
0.0
100
AcDbText
 73
     2
  0
TEXT
  5
BFC
330
B9E
100
AcDbEntity
  8
1
100
AcDbText
 10
-103.2106584078738
 20
26.43288406845113
 30
0.0
 40
1.5
  1
Tipo:
 41
0.8
  7
SANINDUSA
 11
-103.2106584078738
 21
27.18288406845113
 31
0.0
100
AcDbText
 73
     2
  0
TEXT
  5
BFD
330
B9E
100
AcDbEntity
  8
1
100
AcDbText
 10
-90.22114672289353
 20
26.43288406845113
 30
0.0
 40
1.5
  1
Prod.:
 41
0.8
  7
SANINDUSA
 11
-90.22114672289353
 21
27.18288406845113
 31
0.0
100
AcDbText
 73
     2
  0
TEXT
  5
BFE
330
B9E
100
AcDbEntity
  8
1
100
AcDbText
 10
-64.77320576346574
 20
26.43288406845113
 30
0.0
 40
1.5
  1
Rev.:
 41
0.8
  7
SANINDUSA
 11
-64.77320576346574
 21
27.18288406845113
 31
0.0
100
AcDbText
 73
     2
  0
LINE
  5
BFF
330
B9E
100
AcDbEntity
  8
leg fin
100
AcDbLine
 10
-52.85714285714266
 20
20.0
 30
0.0
 11
-52.85714285714266
 21
28.5
 31
0.0
  0
LINE
  5
C00
330
B9E
100
AcDbEntity
  8
leg fin
100
AcDbLine
 10
-65.71428571428578
 20
20.0
 30
0.0
 11
-65.71428571428578
 21
28.5
 31
0.0
  0
LINE
  5
C01
330
B9E
100
AcDbEntity
  8
leg fin
100
AcDbLine
 10
-78.57142857142844
 20
20.0
 30
0.0
 11
-78.57142857142844
 21
28.5
 31
0.0
  0
POINT
  5
C02
330
B9E
100
AcDbEntity
  8
SANINDUSA
100
AcDbPoint
 10
-78.57142857142844
 20
28.5
 30
0.0
  0
POINT
  5
C03
330
B9E
100
AcDbEntity
  8
SANINDUSA
100
AcDbPoint
 10
-65.71428571428578
 20
28.5
 30
0.0
  0
POINT
  5
C04
330
B9E
100
AcDbEntity
  8
SANINDUSA
100
AcDbPoint
 10
-52.85714285714266
 20
28.5
 30
0.0
  0
TEXT
  5
C05
330
B9E
100
AcDbEntity
  8
1
100
AcDbText
 10
-77.61097961686573
 20
26.43288406845113
 30
0.0
 40
1.5
  1
Peça:
 41
0.8
  7
SANINDUSA
 11
-77.61097961686573
 21
27.18288406845113
 31
0.0
100
AcDbText
 73
     2
  0
TEXT
  5
C06
330
B9E
100
AcDbEntity
  8
1
100
AcDbText
 10
-52.06538060077036
 20
26.43288406845113
 30
0.0
 40
1.5
  1
Alt.:
 41
0.8
  7
SANINDUSA
 11
-52.06538060077036
 21
27.18288406845113
 31
0.0
100
AcDbText
 73
     2
  0
LINE
  5
C07
330
B9E
100
AcDbEntity
  8
3
100
AcDbLine
 10
0.0
 20
12.0
 30
0.0
 11
-40.0
 21
12.0
 31
0.0
  0
LINE
  5
C08
330
B9E
100
AcDbEntity
  8
3
100
AcDbLine
 10
-40.0
 20
32.5
 30
0.0
 11
0.0
 21
32.5
 31
0.0
  0
TEXT
  5
C09
330
B9E
100
AcDbEntity
  8
1
100
AcDbText
 10
-19.0
 20
29.75
 30
0.0
 40
2.0
  1
Folha:
 41
0.8
  7
SANINDUSA
 11
-19.0
 21
30.75
 31
0.0
100
AcDbText
 73
     2
  0
LINE
  5
C0A
330
B9E
100
AcDbEntity
  8
3
100
AcDbLine
 10
-20.0
 20
32.5
 30
0.0
 11
-20.0
 21
20.0
 31
0.0
  0
TEXT
  5
C0B
330
B9E
100
AcDbEntity
  8
1
100
AcDbText
 10
-39.0
 20
29.75
 30
0.0
 40
2.0
  1
Escala:
 41
0.8
  7
SANINDUSA
 11
-39.0
 21
30.75
 31
0.0
100
AcDbText
 73
     2
  0
TEXT
  5
C0C
330
B9E
100
AcDbEntity
  8
1
100
AcDbText
 10
-39.0
 20
17.25
 30
0.0
 40
2.0
  1
Substitui:
 41
0.8
  7
SANINDUSA
 11
-39.0
 21
18.25
 31
0.0
100
AcDbText
 73
     2
  0
LWPOLYLINE
  5
C0D
102
{ACAD_REACTORS
330
BEC
102
}
330
B9E
100
AcDbEntity
  8
9
100
AcDbPolyline
 90
        6
 70
     1
 43
0.0
 10
-2.638748516194482
 20
57.02796337120571
 10
-2.638748516194482
 20
55.50786840766477
 10
-5.21497371544865
 20
55.507868407665
 42
-0.4142135623730898
 10
-5.614973715448741
 20
55.90786840766487
 10
-5.614973715448741
 20
56.62796337120562
 42
-0.4142135623731576
 10
-5.21497371544865
 20
57.02796337120571
  0
LINE
  5
C0E
330
B9E
100
AcDbEntity
  8
3
100
AcDbLine
 10
-40.0
 20
50.0
 30
0.0
 11
0.0
 21
50.0
 31
0.0
  0
ATTDEF
  5
C0F
330
B9E
100
AcDbEntity
  8
1
100
AcDbText
 10
-31.30691739422431
 20
40.25
 30
0.0
 40
2.0
  1
XXXXXXXXXXXXXXX
 41
0.8
  7
SANINDUSA
 72
     4
 11
-20.0
 21
41.25
 31
0.0
100
AcDbAttributeDefinition
  3
Observações:
  2
OBS
 70
     0
  0
TEXT
  5
C10
330
B9E
100
AcDbEntity
  8
1
100
AcDbText
 10
-39.0
 20
47.25
 30
0.0
 40
2.0
  1
Observações:
 41
0.8
  7
SANINDUSA
 11
-39.0
 21
48.25
 31
0.0
100
AcDbText
 73
     2
  0
LWPOLYLINE
  5
C11
102
{ACAD_REACTORS
330
BEC
102
}
330
B9E
100
AcDbEntity
  8
9
100
AcDbPolyline
 90
        6
 70
     1
 43
0.0
 10
-29.98468712904878
 20
57.02796337120571
 10
-29.98468712904878
 20
55.507868407665
 10
-32.57692046803459
 20
55.507868407665
 42
-0.4142135623731731
 10
-32.97692046803468
 20
55.90786840766487
 10
-32.97692046803468
 20
56.62796337120562
 42
-0.4142135623731576
 10
-32.57692046803459
 20
57.02796337120571
  0
LWPOLYLINE
  5
C12
102
{ACAD_REACTORS
330
BEC
102
}
330
B9E
100
AcDbEntity
  8
9
100
AcDbPolyline
 90
        4
 70
     1
 43
0.0
 10
-24.19231812786165
 20
59.87619128370352
 10
-24.57637781922995
 20
59.87619128370352
 10
-24.57637781922995
 20
59.28412752246913
 10
-24.19231812786165
 20
59.28412752246913
  0
ENDBLK
  5
C14
330
B9E
100
AcDbEntity
  8
0
100
AcDbBlockEnd
  0
ENDSEC
  0
SECTION
  2
ENTITIES
  0
SPLINE
  5
11FE
330
1F
100
AcDbEntity
  8
SANINDUSA
100
AcDbSpline
210
0.0
220
0.0
230
1.0
 70
     8
 71
     3
 72
    19
 73
    15
 74
     0
 42
0.0000000001
 43
0.0000000001
 40
0.0
 40
0.0
 40
0.0
 40
0.0
 40
0.0459665162931386
 40
0.145430431265767
 40
0.2417234632954315
 40
0.3358055182046496
 40
0.428967694264316
 40
0.5218958228999431
 40
0.6148438778180129
 40
0.7079875887768337
 40
0.8013737221215189
 40
0.8949678883762167
 40
0.9838119763870992
 40
1.0
 40
1.0
 40
1.0
 40
1.0
 10
4268.11586309575
 20
1649.300162137339
 30
0.0
 10
4268.115760823246
 20
1649.299963731096
 30
0.0
 10
4268.115437250013
 20
1649.29933600666
 30
0.0
 10
4268.114691345746
 20
1649.298272092525
 30
0.0
 10
4268.113510373027
 20
1649.297008366152
 30
0.0
 10
4268.112072468425
 20
1649.295821057013
 30
0.0
 10
4268.110399552337
 20
1649.294732255068
 30
0.0
 10
4268.10850927851
 20
1649.293762064865
 30
0.0
 10
4268.106427237456
 20
1649.292931127595
 30
0.0
 10
4268.104184168301
 20
1649.29225823094
 30
0.0
 10
4268.101814553853
 20
1649.2917584463
 30
0.0
 10
4268.099399519428
 20
1649.291450507685
 30
0.0
 10
4268.097629246893
 20
1649.291358716671
 30
0.0
 10
4268.096692581208
 20
1649.291354703674
 30
0.0
 10
4268.096548218061
 20
1649.291354085172
 30
0.0
  0
LINE
  5
11FF
330
1F
100
AcDbEntity
  8
SANINDUSA
100
AcDbLine
 10
4268.096548218061
 20
1649.291354085172
 30
0.0
 11
4268.012217376162
 21
1649.291354085172
 31
0.0
  0
SPLINE
  5
1200
330
1F
100
AcDbEntity
  8
SANINDUSA
100
AcDbSpline
210
0.0
220
0.0
230
1.0
 70
     8
 71
     3
 72
    19
 73
    15
 74
     0
 42
0.0000000001
 43
0.0000000001
 40
0.0
 40
0.0
 40
0.0
 40
0.0
 40
0.0477954042927975
 40
0.1414921327234488
 40
0.2350918404268751
 40
0.3284371774755193
 40
0.4214389083457745
 40
0.5140430861349278
 40
0.6062616456506142
 40
0.6982180812235982
 40
0.790155245664457
 40
0.8825140014471463
 40
0.9761725479611722
 40
1.0
 40
1.0
 40
1.0
 40
1.0
 10
4268.012217376162
 20
1649.291354085172
 30
0.0
 10
4268.011791086529
 20
1649.291359205649
 30
0.0
 10
4268.010529111029
 20
1649.291374364162
 30
0.0
 10
4268.00844342191
 20
1649.291545737043
 30
0.0
 10
4268.006014049761
 20
1649.291931546361
 30
0.0
 10
4268.003688761837
 20
1649.292501140231
 30
0.0
 10
4268.001507057203
 20
1649.293236847441
 30
0.0
 10
4267.999504223962
 20
1649.294120716743
 30
0.0
 10
4267.997710771619
 20
1649.295129586741
 30
0.0
 10
4267.996151618726
 20
1649.296237093072
 30
0.0
 10
4267.994843680848
 20
1649.297414581327
 30
0.0
 10
4267.99379820273
 20
1649.298633220056
 30
0.0
 10
4267.993208000486
 20
1649.299553378258
 30
0.0
 10
4267.992954010445
 20
1649.300059491924
 30
0.0
 10
4267.992902498472
 20
1649.300162137339
 30
0.0
  0
LINE
  5
1201
330
1F
100
AcDbEntity
  8
SANINDUSA
100
AcDbLine
 10
4267.992902498472
 20
1649.300162137339
 30
0.0
 11
4267.922051753629
 21
1649.445920894707
 31
0.0
  0
LINE
  5
1202
330
1F
100
AcDbEntity
  8
SANINDUSA
100
AcDbLine
 10
4268.186713840593
 20
1649.445920894707
 30
0.0
 11
4268.11586309575
 21
1649.300162137339
 31
0.0
  0
SPLINE
  5
1203
330
1F
100
AcDbEntity
  8
SANINDUSA
100
AcDbSpline
210
0.0
220
0.0
230
1.0
 70
     8
 71
     3
 72
    11
 73
     7
 74
     0
 42
0.0000000001
 43
0.0000000001
 40
0.0
 40
0.0
 40
0.0
 40
0.0
 40
0.215672024351913
 40
0.4994493096485281
 40
0.7493744450600961
 40
1.0
 40
1.0
 40
1.0
 40
1.0
 10
4267.921706881155
 20
1649.446733812655
 30
0.0
 10
4267.92153781608
 20
1649.447098510211
 30
0.0
 10
4267.921146298291
 20
1649.447943070109
 30
0.0
 10
4267.920680959049
 20
1649.449506126706
 30
0.0
 10
4267.920288116157
 20
1649.451301391582
 30
0.0
 10
4267.920124624428
 20
1649.452589522321
 30
0.0
 10
4267.920042764177
 20
1649.453234488929
 30
0.0
  0
SPLINE
  5
1204
330
1F
100
AcDbEntity
  8
SANINDUSA
100
AcDbSpline
210
0.0
220
0.0
230
1.0
 70
     8
 71
     3
 72
    11
 73
     7
 74
     0
 42
0.0000000001
 43
0.0000000001
 40
0.0
 40
0.0
 40
0.0
 40
0.0
 40
0.2583954015219684
 40
0.5236690134573782
 40
0.783129469655508
 40
1.0
 40
1.0
 40
1.0
 40
1.0
 10
4268.188723545303
 20
1649.453249554003
 30
0.0
 10
4268.188639231077
 20
1649.452583129523
 30
0.0
 10
4268.188468358274
 20
1649.451232541053
 30
0.0
 10
4268.188068735078
 20
1649.449447357689
 30
0.0
 10
4268.187602265546
 20
1649.447911038345
 30
0.0
 10
4268.18723091562
 20
1649.44709711508
 30
0.0
 10
4268.187061842311
 20
1649.446726540888
 30
0.0
  0
SPLINE
  5
1205
330
1F
100
AcDbEntity
  8
SANINDUSA
100
AcDbSpline
210
0.0
220
0.0
230
1.0
 70
    24
 71
     3
 72
     9
 73
     5
 74
     0
 42
0.0000000001
 43
0.0000000001
 40
0.0
 40
0.0
 40
0.0
 40
0.0
 40
0.2501706949261555
 40
1.0
 40
1.0
 40
1.0
 40
1.0
 10
4268.187082256902
 20
1649.446694026554
 30
0.0
 10
4268.187051385171
 20
1649.446628134144
 30
0.0
 10
4268.1869279825
 20
1649.446364744338
 30
0.0
 10
4268.186805603759
 20
1649.446111091236
 30
0.0
 10
4268.186713840593
 20
1649.445920894707
 30
0.0
  0
SPLINE
  5
1206
330
1F
100
AcDbEntity
  8
SANINDUSA
100
AcDbSpline
210
0.0
220
0.0
230
1.0
 70
    24
 71
     3
 72
     9
 73
     5
 74
     0
 42
0.0000000001
 43
0.0000000001
 40
0.0
 40
0.0
 40
0.0
 40
0.0
 40
0.2498376861945944
 40
1.0
 40
1.0
 40
1.0
 40
1.0
 10
4267.922051753629
 20
1649.445920894707
 30
0.0
 10
4267.922021234364
 20
1649.445983846017
 30
0.0
 10
4267.921899077996
 20
1649.446235814847
 30
0.0
 10
4267.921775809042
 20
1649.446497625826
 30
0.0
 10
4267.92168333732
 20
1649.446694026554
 30
0.0
  0
LINE
  5
1207
330
1F
100
AcDbEntity
  8
SANINDUSA
100
AcDbLine
 10
4268.002533782055
 20
1648.955813790525
 30
0.0
 11
4268.106231812168
 21
1648.955813790525
 31
0.0
  0
LINE
  5
1208
330
1F
100
AcDbEntity
  8
SANINDUSA
100
AcDbLine
 10
4268.137560050715
 20
1648.955119307006
 30
0.0
 11
4268.13759488963
 21
1648.955113048519
 31
0.0
  0
LINE
  5
1209
330
1F
100
AcDbEntity
  8
SANINDUSA
100
AcDbLine
 10
4267.971174057353
 20
1648.955113733972
 30
0.0
 11
4267.971201371182
 21
1648.955118770565
 31
0.0
  0
LINE
  5
120A
330
1F
100
AcDbEntity
  8
SANINDUSA
100
AcDbLine
 10
4268.137340437402
 20
1648.955166752304
 30
0.0
 11
4268.138736884822
 21
1648.954119588102
 31
0.0
  0
LINE
  5
120B
330
1F
100
AcDbEntity
  8
SANINDUSA
100
AcDbLine
 10
4267.970028709402
 20
1648.954119588102
 30
0.0
 11
4267.971425156821
 21
1648.955166752304
 31
0.0
  0
LINE
  5
120C
330
1F
100
AcDbEntity
  8
SANINDUSA
100
AcDbLine
 10
4267.855803977479
 20
1649.66856088754
 30
0.0
 11
4267.855803977479
 21
1648.958718682492
 31
0.0
  0
LINE
  5
120D
330
1F
100
AcDbEntity
  8
SANINDUSA
100
AcDbLine
 10
4268.252961616744
 20
1648.958718682492
 30
0.0
 11
4268.252961616744
 21
1649.66856088754
 31
0.0
  0
LINE
  5
120E
330
1F
100
AcDbEntity
  8
SANINDUSA
100
AcDbLine
 10
4268.139937665094
 20
1648.953719372715
 30
0.0
 11
4268.247962306966
 21
1648.953719372715
 31
0.0
  0
LINE
  5
120F
330
1F
100
AcDbEntity
  8
SANINDUSA
100
AcDbLine
 10
4267.860803287257
 20
1648.953719372715
 30
0.0
 11
4267.968827929128
 21
1648.953719372715
 31
0.0
  0
LINE
  5
1210
330
1F
100
AcDbEntity
  8
SANINDUSA
100
AcDbLine
 10
4267.969546515275
 20
1648.953861261571
 30
0.0
 11
4267.970028709402
 21
1648.954119588102
 31
0.0
  0
SPLINE
  5
1211
330
1F
100
AcDbEntity
  8
SANINDUSA
100
AcDbSpline
210
0.0
220
0.0
230
1.0
 70
     8
 71
     3
 72
     9
 73
     5
 74
     0
 42
0.0000000001
 43
0.0000000001
 40
0.0
 40
0.0
 40
0.0
 40
0.0
 40
0.9414959891420412
 40
1.0
 40
1.0
 40
1.0
 40
1.0
 10
4268.138736884822
 20
1648.954119588102
 30
0.0
 10
4268.138963652595
 20
1648.953960370053
 30
0.0
 10
4268.139204511586
 20
1648.953791258287
 30
0.0
 10
4268.139485423792
 20
1648.953776784308
 30
0.0
 10
4268.139501858283
 20
1648.953775937522
 30
0.0
  0
LINE
  5
1212
330
1F
100
AcDbEntity
  8
SANINDUSA
100
AcDbLine
 10
4268.247962306966
 20
1649.673560197319
 30
0.0
 11
4267.860803287257
 21
1649.673560197319
 31
0.0
  0
LINE
  5
1213
330
1F
100
AcDbEntity
  8
SANINDUSA
100
AcDbLine
 10
4268.119080301155
 20
1649.268970114964
 30
0.0
 11
4267.989685293068
 21
1649.268970114964
 31
0.0
  0
ELLIPSE
  5
1214
330
1F
100
AcDbEntity
  8
SANINDUSA
100
AcDbEllipse
 10
4267.989968736801
 20
1649.282203317612
 30
0.0
 11
0.0203579070495198
 21
-0.0014760849796409
 31
0.0
210
0.0
220
0.0
230
0.9999999999999998
 40
0.647986095106134
 41
3.497538920236092
 42
4.745429594684264
  0
ELLIPSE
  5
1215
330
1F
100
AcDbEntity
  8
SANINDUSA
100
AcDbEllipse
 10
4268.118796857421
 20
1649.282203317612
 30
0.0
 11
0.0203579070495198
 21
0.0014760849796409
 31
0.0
210
0.0
220
0.0
230
0.9999999999999998
 40
0.647986095106134
 41
4.679348366085133
 42
5.927239040533325
  0
ELLIPSE
  5
1216
330
1F
100
AcDbEntity
  8
SANINDUSA
100
AcDbEllipse
 10
4267.911542175384
 20
1649.058891711305
 30
0.0
 11
0.012836241090411
 21
0.0365498826549185
 31
0.0
210
0.0
220
0.0
230
1.0
 40
0.5162836921269085
 41
2.101058919731134
 42
3.348949594179347
  0
LINE
  5
1217
330
1F
100
AcDbEntity
  8
SANINDUSA
100
AcDbLine
 10
4267.970553610254
 20
1649.27898988765
 30
0.0
 11
4267.888771366108
 21
1649.04612330612
 31
0.0
  0
LINE
  5
1218
330
1F
100
AcDbEntity
  8
SANINDUSA
100
AcDbLine
 10
4267.902865778435
 20
1649.021760429109
 30
0.0
 11
4267.989685293068
 21
1649.268970114964
 31
0.0
  0
LINE
  5
1219
330
1F
100
AcDbEntity
  8
SANINDUSA
100
AcDbLine
 10
4268.138211983968
 20
1649.27898988765
 30
0.0
 11
4268.219994228114
 21
1649.04612330612
 31
0.0
  0
ELLIPSE
  5
121A
330
1F
100
AcDbEntity
  8
SANINDUSA
100
AcDbEllipse
 10
4268.197223418837
 20
1649.058891711305
 30
0.0
 11
-0.0128362410904112
 21
0.0365498826549185
 31
0.0
210
0.0
220
0.0
230
1.0
 40
0.5162836921269147
 41
2.934235713000253
 42
4.182126387448451
  0
LINE
  5
121B
330
1F
100
AcDbEntity
  8
SANINDUSA
100
AcDbLine
 10
4268.205899815787
 20
1649.021760429109
 30
0.0
 11
4268.119080301155
 21
1649.268970114964
 31
0.0
  0
LINE
  5
121C
330
1F
100
AcDbEntity
  8
SANINDUSA
100
AcDbLine
 10
4267.902865778435
 20
1649.021760429109
 30
0.0
 11
4268.205899815787
 21
1649.021760429109
 31
0.0
  0
LINE
  5
121D
330
1F
100
AcDbEntity
  8
SANINDUSA
100
AcDbLine
 10
4267.890473913182
 20
1649.44373502847
 30
0.0
 11
4267.970553610254
 21
1649.27898988765
 31
0.0
  0
LINE
  5
121E
330
1F
100
AcDbEntity
  8
SANINDUSA
100
AcDbLine
 10
4268.21829168104
 20
1649.44373502847
 30
0.0
 11
4268.138211983968
 21
1649.27898988765
 31
0.0
  0
LINE
  5
121F
330
1F
100
AcDbEntity
  8
SANINDUSA
100
AcDbLine
 10
4267.888771366108
 20
1649.04612330612
 30
0.0
 11
4267.888771366108
 21
1649.447976450289
 31
0.0
  0
ELLIPSE
  5
1220
330
1F
100
AcDbEntity
  8
SANINDUSA
100
AcDbEllipse
 10
4267.899423408116
 20
1649.46590995411
 30
0.0
 11
0.0
 21
0.03
 31
0.0
210
0.0
220
0.0
230
1.0
 40
0.442917602687255
 41
2.211529895929134
 42
2.402624651901811
  0
ELLIPSE
  5
1221
330
1F
100
AcDbEntity
  8
SANINDUSA
100
AcDbEllipse
 10
4268.209342186105
 20
1649.46590995411
 30
0.0
 11
0.0
 21
0.03
 31
0.0
210
0.0
220
0.0
230
1.0
 40
0.4429176026872503
 41
3.8805606552778
 42
4.071655411250484
  0
LINE
  5
1222
330
1F
100
AcDbEntity
  8
SANINDUSA
100
AcDbLine
 10
4268.219994228114
 20
1649.04612330612
 30
0.0
 11
4268.219994228114
 21
1649.447976450289
 31
0.0
  0
LINE
  5
1223
330
1F
100
AcDbEntity
  8
SANINDUSA
100
AcDbLine
 10
4267.920066531528
 20
1649.453235129679
 30
0.0
 11
4267.920016567934
 21
1649.453755657042
 31
0.0
  0
LINE
  5
1224
330
1F
100
AcDbEntity
  8
SANINDUSA
100
AcDbLine
 10
4268.188700508107
 20
1649.453250194753
 30
0.0
 11
4268.188749026288
 21
1649.453755657042
 31
0.0
  0
SPLINE
  5
1225
330
1F
100
AcDbEntity
  8
SANINDUSA
100
AcDbSpline
210
0.0
220
0.0
230
1.0
 70
     8
 71
     3
 72
    38
 73
    34
 74
     0
 42
0.0000000001
 43
0.0000000001
 40
0.0
 40
0.0
 40
0.0
 40
0.0
 40
0.2499999999999987
 40
0.2499999999999987
 40
0.4999999999999974
 40
0.4999999999999974
 40
0.6249999999999981
 40
0.6249999999999981
 40
0.7499999999999987
 40
0.7499999999999987
 40
0.8124999999999976
 40
0.8124999999999976
 40
0.8749999999999966
 40
0.8749999999999966
 40
0.906249999999996
 40
0.906249999999996
 40
0.9374999999999957
 40
0.9374999999999957
 40
0.9531249999999955
 40
0.9531249999999955
 40
0.9687499999999953
 40
0.9687499999999953
 40
0.9765624999999962
 40
0.9765624999999962
 40
0.9843749999999971
 40
0.9843749999999971
 40
0.992187499999998
 40
0.992187499999998
 40
0.9960937499999985
 40
0.9960937499999985
 40
0.9980468749999992
 40
0.9980468749999992
 40
1.0
 40
1.0
 40
1.0
 40
1.0
 10
4268.189077100158
 20
1649.547050560843
 30
0.0
 10
4268.189117866169
 20
1649.552413118825
 30
0.0
 10
4268.189117100268
 20
1649.55777674834
 30
0.0
 10
4268.189017153622
 20
1649.568498316571
 30
0.0
 10
4268.188919274077
 20
1649.573857437297
 30
0.0
 10
4268.188664207611
 20
1649.581892545332
 30
0.0
 10
4268.188560914862
 20
1649.584570343115
 30
0.0
 10
4268.188301614904
 20
1649.589919970212
 30
0.0
 10
4268.188146660619
 20
1649.592592318974
 30
0.0
 10
4268.187844863988
 20
1649.596594690297
 30
0.0
 10
4268.187732536843
 20
1649.597927776283
 30
0.0
 10
4268.187470906975
 20
1649.600590855089
 30
0.0
 10
4268.187322483071
 20
1649.601920912118
 30
0.0
 10
4268.187047617636
 20
1649.603911863861
 30
0.0
 10
4268.186947047588
 20
1649.604575363231
 30
0.0
 10
4268.186717907941
 20
1649.605895422945
 30
0.0
 10
4268.186589998946
 20
1649.606552440652
 30
0.0
 10
4268.186357904603
 20
1649.607528978268
 30
0.0
 10
4268.186273737255
 20
1649.607852971129
 30
0.0
 10
4268.186082938766
 20
1649.608495959811
 30
0.0
 10
4268.185976293351
 20
1649.608816571499
 30
0.0
 10
4268.185785712661
 20
1649.609283048548
 30
0.0
 10
4268.185717031723
 20
1649.609436105991
 30
0.0
 10
4268.185562901166
 20
1649.609734304616
 30
0.0
 10
4268.185477088744
 20
1649.609880727433
 30
0.0
 10
4268.185276482712
 20
1649.610153207896
 30
0.0
 10
4268.185164472401
 20
1649.610278448638
 30
0.0
 10
4268.184951692334
 20
1649.610424262097
 30
0.0
 10
4268.184875808997
 20
1649.610463253451
 30
0.0
 10
4268.184751870641
 20
1649.610500789071
 30
0.0
 10
4268.184710088179
 20
1649.61050938216
 30
0.0
 10
4268.184625703198
 20
1649.610518632079
 30
0.0
 10
4268.184581839149
 20
1649.610519197614
 30
0.0
 10
4268.184540024431
 20
1649.610515971044
 30
0.0
  0
SPLINE
  5
1226
330
1F
100
AcDbEntity
  8
SANINDUSA
100
AcDbSpline
210
0.0
220
0.0
230
1.0
 70
     8
 71
     3
 72
    38
 73
    34
 74
     0
 42
0.0000000001
 43
0.0000000001
 40
0.0
 40
0.0
 40
0.0
 40
0.0
 40
0.2499999999999987
 40
0.2499999999999987
 40
0.4999999999999974
 40
0.4999999999999974
 40
0.6249999999999981
 40
0.6249999999999981
 40
0.7499999999999987
 40
0.7499999999999987
 40
0.8124999999999976
 40
0.8124999999999976
 40
0.8749999999999966
 40
0.8749999999999966
 40
0.906249999999996
 40
0.906249999999996
 40
0.9374999999999957
 40
0.9374999999999957
 40
0.9531249999999955
 40
0.9531249999999955
 40
0.9687499999999953
 40
0.9687499999999953
 40
0.9765624999999962
 40
0.9765624999999962
 40
0.9843749999999971
 40
0.9843749999999971
 40
0.992187499999998
 40
0.992187499999998
 40
0.9960937499999985
 40
0.9960937499999985
 40
0.9980468749999992
 40
0.9980468749999992
 40
1.0
 40
1.0
 40
1.0
 40
1.0
 10
4267.919688494065
 20
1649.547050560843
 30
0.0
 10
4267.919647728144
 20
1649.552413118827
 30
0.0
 10
4267.919648493953
 20
1649.55777674834
 30
0.0
 10
4267.9197484406
 20
1649.568498316571
 30
0.0
 10
4267.919846320144
 20
1649.573857437297
 30
0.0
 10
4267.92010138661
 20
1649.581892545332
 30
0.0
 10
4267.920204679359
 20
1649.584570343115
 30
0.0
 10
4267.920463979319
 20
1649.589919970212
 30
0.0
 10
4267.920618933603
 20
1649.592592318974
 30
0.0
 10
4267.920920730233
 20
1649.596594690297
 30
0.0
 10
4267.921033057378
 20
1649.597927776283
 30
0.0
 10
4267.921294687247
 20
1649.600590855089
 30
0.0
 10
4267.921443111151
 20
1649.601920912118
 30
0.0
 10
4267.921717976586
 20
1649.603911863861
 30
0.0
 10
4267.921818546633
 20
1649.604575363231
 30
0.0
 10
4267.922047686281
 20
1649.605895422945
 30
0.0
 10
4267.922175595276
 20
1649.606552440652
 30
0.0
 10
4267.922407689619
 20
1649.607528978268
 30
0.0
 10
4267.922491856967
 20
1649.607852971129
 30
0.0
 10
4267.922682655456
 20
1649.608495959811
 30
0.0
 10
4267.92278930087
 20
1649.608816571499
 30
0.0
 10
4267.922979881561
 20
1649.609283048548
 30
0.0
 10
4267.923048562498
 20
1649.609436105991
 30
0.0
 10
4267.923202693055
 20
1649.609734304616
 30
0.0
 10
4267.923288505477
 20
1649.609880727433
 30
0.0
 10
4267.923489111511
 20
1649.610153207896
 30
0.0
 10
4267.923601121821
 20
1649.610278448638
 30
0.0
 10
4267.923813901887
 20
1649.610424262097
 30
0.0
 10
4267.923889785225
 20
1649.610463253451
 30
0.0
 10
4267.92401372358
 20
1649.610500789071
 30
0.0
 10
4267.924055506043
 20
1649.61050938216
 30
0.0
 10
4267.924139891023
 20
1649.610518632079
 30
0.0
 10
4267.924183755076
 20
1649.610519197573
 30
0.0
 10
4267.924225569791
 20
1649.610515971044
 30
0.0
  0
ELLIPSE
  5
1227
330
1F
100
AcDbEntity
  8
SANINDUSA
100
AcDbEllipse
 10
4267.914936960962
 20
1649.46590995411
 30
0.0
 11
0.0
 21
0.03
 31
0.0
210
0.0
220
0.0
230
1.0
 40
0.1583844403245346
 41
4.606514932290174
 42
4.712388980384691
  0
ELLIPSE
  5
1228
330
1F
100
AcDbEntity
  8
SANINDUSA
100
AcDbEllipse
 10
4268.193828633259
 20
1649.46590995411
 30
0.0
 11
0.0
 21
0.03
 31
0.0
210
0.0
220
0.0
230
1.0
 40
0.1583844403245394
 41
1.570796326794896
 42
1.676670374889423
  0
LINE
  5
1229
330
1F
100
AcDbEntity
  8
SANINDUSA
100
AcDbLine
 10
4268.184540029396
 20
1649.61051597711
 30
0.0
 11
4267.924225564827
 21
1649.61051597711
 31
0.0
  0
ARC
  5
122A
330
1F
100
AcDbEntity
  8
SANINDUSA
100
AcDbCircle
 10
4267.863217763966
 20
1649.666146395942
 30
0.0
 40
0.0050022884590736
100
AcDbArc
 50
90.04587600808392
 51
179.95429479621
  0
ARC
  5
122B
330
1F
100
AcDbEntity
  8
SANINDUSA
100
AcDbCircle
 10
4267.863217793958
 20
1648.961133174281
 30
0.0
 40
0.0050023184751848
100
AcDbArc
 50
180.046048453828
 51
269.9537807418675
  0
ARC
  5
122C
330
1F
100
AcDbEntity
  8
SANINDUSA
100
AcDbCircle
 10
4268.245547800264
 20
1648.961133174281
 30
0.0
 40
0.0050023184751845
100
AcDbArc
 50
270.0462192581325
 51
359.953951546172
  0
LINE
  5
122D
330
1F
100
AcDbEntity
  8
SANINDUSA
100
AcDbLine
 10
4268.250550117124
 20
1649.666150386299
 30
0.0
 11
4268.250550117124
 21
1648.961129153932
 31
0.0
  0
LINE
  5
122E
330
1F
100
AcDbEntity
  8
SANINDUSA
100
AcDbLine
 10
4268.245551835526
 20
1648.956130857433
 30
0.0
 11
4267.863213758697
 21
1648.956130857433
 31
0.0
  0
LINE
  5
122F
330
1F
100
AcDbEntity
  8
SANINDUSA
100
AcDbLine
 10
4267.919688489069
 20
1649.465909953083
 30
0.0
 11
4267.919688489069
 21
1649.547050560678
 31
0.0
  0
LINE
  5
1230
330
1F
100
AcDbEntity
  8
SANINDUSA
100
AcDbLine
 10
4268.189077105154
 20
1649.465909953083
 30
0.0
 11
4268.189077105154
 21
1649.547050560678
 31
0.0
  0
LINE
  5
1231
330
1F
100
AcDbEntity
  8
SANINDUSA
100
AcDbLine
 10
4267.858215477098
 20
1649.666150386299
 30
0.0
 11
4267.858215477098
 21
1648.961129153932
 31
0.0
  0
ARC
  5
1232
330
1F
100
AcDbEntity
  8
SANINDUSA
100
AcDbCircle
 10
4268.245547830257
 20
1649.666146395942
 30
0.0
 40
0.0050022884590731
100
AcDbArc
 50
0.0457052037900041
 51
89.95412399191607
  0
LINE
  5
1233
330
1F
100
AcDbEntity
  8
SANINDUSA
100
AcDbLine
 10
4267.863213758697
 20
1649.671148682798
 30
0.0
 11
4268.245551835526
 21
1649.671148682798
 31
0.0
  0
LWPOLYLINE
  5
1234
330
1F
100
AcDbEntity
  8
SANINDUSA
100
AcDbPolyline
 90
       35
 70
   128
 43
0.0
 10
4268.054382797111
 20
1649.553514922822
 10
4268.052407489871
 20
1649.55333575126
 10
4268.050499449265
 20
1649.552804316248
 10
4268.048723651342
 20
1649.551938707794
 10
4268.047140568741
 20
1649.550768430198
 10
4268.045804111999
 20
1649.549333329166
 10
4268.044759792057
 20
1649.547682250704
 10
4268.044043171
 20
1649.545871431793
 10
4268.04367865507
 20
1649.543962563242
 10
4268.04367865507
 20
1649.542020614112
 10
4268.044043171
 20
1649.540111745561
 10
4268.044759792057
 20
1649.538300926651
 10
4268.045804111999
 20
1649.536649848188
 10
4268.047140568741
 20
1649.535214717353
 10
4268.048723651342
 20
1649.534044439758
 10
4268.050499449265
 20
1649.533178861106
 10
4268.052407489871
 20
1649.532647396291
 10
4268.054382797111
 20
1649.532468224729
 10
4268.056358104352
 20
1649.532647396291
 10
4268.058266144958
 20
1649.533178861106
 10
4268.06004194288
 20
1649.534044439758
 10
4268.061625025481
 20
1649.535214717353
 10
4268.062961482224
 20
1649.536649848188
 10
4268.064005802166
 20
1649.538300926651
 10
4268.064722423222
 20
1649.540111745561
 10
4268.065086939152
 20
1649.542020614112
 10
4268.065086939152
 20
1649.543962563242
 10
4268.064722423222
 20
1649.545871431793
 10
4268.064005802166
 20
1649.547682250704
 10
4268.062961482224
 20
1649.549333329166
 10
4268.061625025481
 20
1649.550768430198
 10
4268.06004194288
 20
1649.551938707794
 10
4268.058266144958
 20
1649.552804316248
 10
4268.056358104352
 20
1649.55333575126
 10
4268.054382797111
 20
1649.553514922822
  0
ELLIPSE
  5
1235
330
1F
100
AcDbEntity
  8
SANINDUSA
100
AcDbEllipse
 10
4267.860804658106
 20
1648.958720045912
 30
0.0
 11
0.0035355339059339
 21
-0.0035355339059316
 31
0.0
210
0.0
220
0.0
230
0.9999999999999996
 40
0.9998631882152331
 41
3.927333433325179
 42
5.497444527443641
  0
LINE
  5
1236
330
1F
100
AcDbEntity
  8
SANINDUSA
100
AcDbLine
 10
4267.858215477098
 20
1648.961129153932
 30
0.0
 11
4267.855805005659
 21
1648.958718682492
 31
0.0
  0
LINE
  5
1237
330
1F
100
AcDbEntity
  8
SANINDUSA
100
AcDbLine
 10
4267.860803287257
 20
1648.953720385993
 30
0.0
 11
4267.863213758697
 21
1648.956130857433
 31
0.0
  0
LINE
  5
1238
330
1F
100
AcDbEntity
  8
SANINDUSA
100
AcDbLine
 10
4268.245551835526
 20
1649.671148682798
 30
0.0
 11
4268.247962306966
 21
1649.673559154237
 31
0.0
  0
ELLIPSE
  5
1239
330
1F
100
AcDbEntity
  8
SANINDUSA
100
AcDbEllipse
 10
4268.247960936116
 20
1649.668559502458
 30
0.0
 11
-0.0035355339059302
 21
0.003535533905935
 31
0.0
210
0.0
220
0.0
230
1.0
 40
0.9998631882152729
 41
3.92733343332605
 42
5.497444527444609
  0
LINE
  5
123A
330
1F
100
AcDbEntity
  8
SANINDUSA
100
AcDbLine
 10
4268.252960588564
 20
1649.66856088754
 30
0.0
 11
4268.250550117124
 21
1649.666150386299
 31
0.0
  0
ELLIPSE
  5
123B
330
1F
100
AcDbEntity
  8
SANINDUSA
100
AcDbEllipse
 10
4267.860804658106
 20
1649.668559502458
 30
0.0
 11
0.0035355339059305
 21
0.003535533905935
 31
0.0
210
0.0
220
0.0
230
0.9999999999999998
 40
0.999863188215253
 41
0.7857407797349842
 42
2.35585187385358
  0
LINE
  5
123C
330
1F
100
AcDbEntity
  8
SANINDUSA
100
AcDbLine
 10
4267.863213758697
 20
1649.671148682798
 30
0.0
 11
4267.860803287257
 21
1649.673559154237
 31
0.0
  0
LINE
  5
123D
330
1F
100
AcDbEntity
  8
SANINDUSA
100
AcDbLine
 10
4267.855805005659
 20
1649.66856088754
 30
0.0
 11
4267.858215477098
 21
1649.666150386299
 31
0.0
  0
LINE
  5
123E
330
1F
100
AcDbEntity
  8
SANINDUSA
100
AcDbLine
 10
4268.250550117124
 20
1648.961129153932
 30
0.0
 11
4268.252960588564
 21
1648.958718682492
 31
0.0
  0
ELLIPSE
  5
123F
330
1F
100
AcDbEntity
  8
SANINDUSA
100
AcDbEllipse
 10
4268.247960936116
 20
1648.958720045912
 30
0.0
 11
0.0035355339059342
 21
0.0035355339059313
 31
0.0
210
0.0
220
0.0
230
0.9999999999999996
 40
0.9998631882151526
 41
3.927333433325943
 42
5.497444527444268
  0
LINE
  5
1240
330
1F
100
AcDbEntity
  8
SANINDUSA
100
AcDbLine
 10
4268.247962306966
 20
1648.953720385993
 30
0.0
 11
4268.245551835526
 21
1648.956130857433
 31
0.0
  0
LINE
  5
1241
330
1F
100
AcDbEntity
  8
SANINDUSA
100
AcDbLine
 10
4268.139936748672
 20
1648.953720385993
 30
0.0
 11
4268.247962306966
 21
1648.953720385993
 31
0.0
  0
LINE
  5
1242
330
1F
100
AcDbEntity
  8
SANINDUSA
100
AcDbLine
 10
4268.138236876358
 20
1648.954995061124
 30
0.0
 11
4268.139936748672
 21
1648.953720385993
 31
0.0
  0
ELLIPSE
  5
1243
330
1F
100
AcDbEntity
  8
SANINDUSA
100
AcDbEllipse
 10
4268.106256508924
 20
1648.954965719069
 30
0.0
 11
0.0320003667510408
 21
-0.0000006555035804
 31
0.0
210
0.0
220
0.0
230
0.9999999999999998
 40
0.0265235154025277
 41
0.1365671033631598
 42
1.571568631963547
  0
LINE
  5
1244
330
1F
100
AcDbEntity
  8
SANINDUSA
100
AcDbLine
 10
4268.002533782055
 20
1648.955814475979
 30
0.0
 11
4268.106231812168
 21
1648.955814475979
 31
0.0
  0
ELLIPSE
  5
1245
330
1F
100
AcDbEntity
  8
SANINDUSA
100
AcDbEllipse
 10
4268.002509085298
 20
1648.954965719069
 30
0.0
 11
0.0320003667510408
 21
0.0000006555035799
 31
0.0
210
0.0
220
0.0
230
0.9999999999999998
 40
0.0265235154025188
 41
1.570024021626246
 42
3.005623339362394
  0
LINE
  5
1246
330
1F
100
AcDbEntity
  8
SANINDUSA
100
AcDbLine
 10
4267.970528717865
 20
1648.954995061124
 30
0.0
 11
4267.96882884555
 21
1648.953720385993
 31
0.0
  0
LINE
  5
1247
330
1F
100
AcDbEntity
  8
SANINDUSA
100
AcDbLine
 10
4267.96882884555
 20
1648.953720385993
 30
0.0
 11
4267.860803287257
 21
1648.953720385993
 31
0.0
  0
ELLIPSE
  5
1248
330
1F
100
AcDbEntity
  8
SANINDUSA
100
AcDbEllipse
 10
4268.194041207844
 20
1648.954428945137
 30
0.0
 11
0.0139999999999998
 21
0.0
 31
0.0
210
0.0
220
0.0
230
0.9999999999999998
 40
0.0261859215691885
 41
0.0
 42
6.283185307179586
  0
ELLIPSE
  5
1249
330
1F
100
AcDbEntity
  8
SANINDUSA
100
AcDbEllipse
 10
4267.856693265477
 20
1649.316035643135
 30
0.0
 11
0.0
 21
0.0059999999999999
 31
0.0
210
0.0
220
0.0
230
1.0
 40
0.026185921569185
 41
0.0
 42
6.283185307179586
  0
LINE
  5
124A
330
1F
100
AcDbEntity
  8
SANINDUSA
100
AcDbLine
 10
4267.855805005659
 20
1648.958718682492
 30
0.0
 11
4267.855805005659
 21
1649.66856088754
 31
0.0
  0
ELLIPSE
  5
124B
330
1F
100
AcDbEntity
  8
SANINDUSA
100
AcDbEllipse
 10
4268.252072328746
 20
1649.316035643135
 30
0.0
 11
0.0
 21
0.0059999999999999
 31
0.0
210
0.0
220
0.0
230
1.0
 40
0.0261859215692087
 41
0.0
 42
6.283185307179586
  0
LINE
  5
124C
330
1F
100
AcDbEntity
  8
SANINDUSA
100
AcDbLine
 10
4268.252960588564
 20
1648.958718682492
 30
0.0
 11
4268.252960588564
 21
1649.66856088754
 31
0.0
  0
LINE
  5
124D
330
1F
100
AcDbEntity
  8
SANINDUSA
100
AcDbLine
 10
4268.247962306966
 20
1649.673559154237
 30
0.0
 11
4267.860803287257
 21
1649.673559154237
 31
0.0
  0
ARC
  5
124E
330
1F
100
AcDbEntity
  8
SANINDUSA
100
AcDbCircle
 10
4268.054382797111
 20
1649.545245652603
 30
0.0
 40
0.0107700374480141
100
AcDbArc
 50
186.5725586690921
 51
353.4274413309079
  0
LINE
  5
124F
330
1F
100
AcDbEntity
  8
SANINDUSA
100
AcDbLine
 10
4268.002533782055
 20
1648.955813790525
 30
0.0
 11
4268.002533782055
 21
1648.955814475979
 31
0.0
  0
LINE
  5
1250
330
1F
100
AcDbEntity
  8
SANINDUSA
100
AcDbLine
 10
4268.106231812168
 20
1648.955813790525
 30
0.0
 11
4268.106231812168
 21
1648.955814475979
 31
0.0
  0
ARC
  5
1251
330
1F
100
AcDbEntity
  8
SANINDUSA
100
AcDbCircle
 10
4268.139934927359
 20
1648.955717701254
 30
0.0
 40
0.0019973160911947
100
AcDbArc
 50
233.1425482963826
 51
270.0522469523221
  0
ARC
  5
1252
330
1F
100
AcDbEntity
  8
SANINDUSA
100
AcDbCircle
 10
4267.968830654791
 20
1648.955717737541
 30
0.0
 40
0.0019973523666828
100
AcDbArc
 50
269.9481003623542
 51
306.8571044437898
  0
LINE
  5
1253
330
1F
100
AcDbEntity
  8
SANINDUSA
100
AcDbLine
 10
4267.860803287257
 20
1648.953719372715
 30
0.0
 11
4267.860803287257
 21
1648.953720385993
 31
0.0
  0
LINE
  5
1254
330
1F
100
AcDbEntity
  8
SANINDUSA
100
AcDbLine
 10
4267.855803977479
 20
1648.958718682492
 30
0.0
 11
4267.855805005659
 21
1648.958718682492
 31
0.0
  0
LINE
  5
1255
330
1F
100
AcDbEntity
  8
SANINDUSA
100
AcDbLine
 10
4268.247962306966
 20
1648.953719372715
 30
0.0
 11
4268.247962306966
 21
1648.953720385993
 31
0.0
  0
LINE
  5
1256
330
1F
100
AcDbEntity
  8
SANINDUSA
100
AcDbLine
 10
4268.252961616744
 20
1648.958718682492
 30
0.0
 11
4268.252960588564
 21
1648.958718682492
 31
0.0
  0
LINE
  5
1257
330
1F
100
AcDbEntity
  8
SANINDUSA
100
AcDbLine
 10
4268.252961616744
 20
1649.66856088754
 30
0.0
 11
4268.252960588564
 21
1649.66856088754
 31
0.0
  0
LINE
  5
1258
330
1F
100
AcDbEntity
  8
SANINDUSA
100
AcDbLine
 10
4268.247962306966
 20
1649.673560197319
 30
0.0
 11
4268.247962306966
 21
1649.673559154237
 31
0.0
  0
LINE
  5
1259
330
1F
100
AcDbEntity
  8
SANINDUSA
100
AcDbLine
 10
4267.855803977479
 20
1649.66856088754
 30
0.0
 11
4267.855805005659
 21
1649.66856088754
 31
0.0
  0
LINE
  5
125A
330
1F
100
AcDbEntity
  8
SANINDUSA
100
AcDbLine
 10
4267.860803287257
 20
1649.673560197319
 30
0.0
 11
4267.860803287257
 21
1649.673559154237
 31
0.0
  0
SPLINE
  5
125B
330
1F
100
AcDbEntity
  8
SANINDUSA
100
AcDbSpline
210
0.0
220
0.0
230
1.0
 70
     8
 71
     3
 72
    10
 73
     6
 74
     0
 42
0.0000000001
 43
0.0000000001
 40
0.0
 40
0.0
 40
0.0
 40
0.0
 40
0.2671456146375929
 40
0.7233068974978072
 40
1.0
 40
1.0
 40
1.0
 40
1.0
 10
4267.920016567934
 20
1649.453755657042
 30
0.0
 10
4267.919934567999
 20
1649.454516830994
 30
0.0
 10
4267.91971255006
 20
1649.456577738377
 30
0.0
 10
4267.919656719776
 20
1649.459635654489
 30
0.0
 10
4267.919660473324
 20
1649.461888922946
 30
0.0
 10
4267.919661890496
 20
1649.462739656533
 30
0.0
  0
SPLINE
  5
125C
330
1F
100
AcDbEntity
  8
SANINDUSA
100
AcDbSpline
210
0.0
220
0.0
230
1.0
 70
     8
 71
     3
 72
    10
 73
     6
 74
     0
 42
0.0000000001
 43
0.0000000001
 40
0.0
 40
0.0
 40
0.0
 40
0.0
 40
0.2671456146375929
 40
0.7233068974978072
 40
1.0
 40
1.0
 40
1.0
 40
1.0
 10
4268.188749026288
 20
1649.453755657042
 30
0.0
 10
4268.188831026223
 20
1649.454516830994
 30
0.0
 10
4268.189053044161
 20
1649.456577738377
 30
0.0
 10
4268.189108874445
 20
1649.459635654489
 30
0.0
 10
4268.189105120899
 20
1649.461888922946
 30
0.0
 10
4268.189103703726
 20
1649.462739656533
 30
0.0
  0
ELLIPSE
  5
125D
330
1F
100
AcDbEntity
  8
SANINDUSA
100
AcDbEllipse
 10
4268.106256508924
 20
1648.954965719069
 30
0.0
 11
0.0320003667510408
 21
-0.0000006555035804
 31
0.0
210
0.0
220
0.0
230
0.9999999999999998
 40
0.0265235154025277
 41
0.0353577424534458
 42
0.1365671033631598
  0
ELLIPSE
  5
125E
330
1F
100
AcDbEntity
  8
SANINDUSA
100
AcDbEllipse
 10
4268.002509085298
 20
1648.954965719069
 30
0.0
 11
0.0320003667510408
 21
0.0000006555035799
 31
0.0
210
0.0
220
0.0
230
0.9999999999999998
 40
0.0265235154025188
 41
3.005623339362394
 42
3.106234911137006
  0
ARC
  5
125F
330
1F
100
AcDbEntity
  8
SANINDUSA
100
AcDbCircle
 10
4268.138234073324
 20
1648.956987605752
 30
0.0
 40
0.0019925465995863
100
AcDbArc
 50
246.960294205169
 51
270.0806013864407
  0
ARC
  5
1260
330
1F
100
AcDbEntity
  8
SANINDUSA
100
AcDbCircle
 10
4267.970531520898
 20
1648.956987605752
 30
0.0
 40
0.0019925465995863
100
AcDbArc
 50
269.9193986135593
 51
293.0397057948311
  0
LINE
  5
1261
330
1F
100
AcDbEntity
  8
SANINDUSA
100
AcDbLine
 10
4268.589512897132
 20
1649.66856088754
 30
0.0
 11
4268.589512897132
 21
1648.958718682492
 31
0.0
  0
LINE
  5
1262
330
1F
100
AcDbEntity
  8
SANINDUSA
100
AcDbLine
 10
4268.589512897132
 20
1649.670560176337
 30
0.0
 11
4268.589512897132
 21
1649.66856088754
 31
0.0
  0
ARC
  5
1263
330
1F
100
AcDbEntity
  8
SANINDUSA
100
AcDbCircle
 10
4268.592512897131
 20
1649.670560188043
 30
0.0
 40
0.003
100
AcDbArc
 50
88.50000000216311
 51
180.0
  0
ARC
  5
1264
330
1F
100
AcDbEntity
  8
SANINDUSA
100
AcDbCircle
 10
4268.592512897131
 20
1648.956719360327
 30
0.0
 40
0.003
100
AcDbArc
 50
180.0
 51
271.4999999978369
  0
LINE
  5
1265
330
1F
100
AcDbEntity
  8
SANINDUSA
100
AcDbLine
 10
4268.589512897132
 20
1648.958718682492
 30
0.0
 11
4268.589512897132
 21
1648.956719363893
 31
0.0
  0
LINE
  5
1266
330
1F
100
AcDbEntity
  8
SANINDUSA
100
AcDbLine
 10
4268.684643780289
 20
1649.671148682798
 30
0.0
 11
4268.592591427906
 21
1649.673559154237
 31
0.0
  0
LINE
  5
1267
330
1F
100
AcDbEntity
  8
SANINDUSA
100
AcDbLine
 10
4268.592591427906
 20
1648.953720385993
 30
0.0
 11
4268.684643780289
 21
1648.956130857433
 31
0.0
  0
CIRCLE
  5
1268
330
1F
100
AcDbEntity
  8
SANINDUSA
100
AcDbCircle
 10
4268.626512897132
 20
1649.316035643135
 30
0.0
 40
0.0059999999999999
  0
ARC
  5
1269
330
1F
100
AcDbEntity
  8
SANINDUSA
100
AcDbCircle
 10
4268.684512897132
 20
1649.666150397673
 30
0.0
 40
0.0050000000000002
100
AcDbArc
 50
0.0
 51
88.50000000216311
  0
LINE
  5
126A
330
1F
100
AcDbEntity
  8
SANINDUSA
100
AcDbLine
 10
4268.689512898621
 20
1648.961129153932
 30
0.0
 11
4268.689512898621
 21
1649.666150386299
 31
0.0
  0
ARC
  5
126B
330
1F
100
AcDbEntity
  8
SANINDUSA
100
AcDbCircle
 10
4268.684512897132
 20
1648.961129150696
 30
0.0
 40
0.0050000000000002
100
AcDbArc
 50
271.4999999978369
 51
0.0
  0
ARC
  5
126C
330
1F
100
AcDbEntity
  8
SANINDUSA
100
AcDbCircle
 10
4268.694512897132
 20
1649.018653895217
 30
0.0
 40
0.005
100
AcDbArc
 50
141.5884253854751
 51
180.0
  0
ARC
  5
126D
330
1F
100
AcDbEntity
  8
SANINDUSA
100
AcDbCircle
 10
4268.714512897131
 20
1649.46590995411
 30
0.0
 40
0.025
100
AcDbArc
 50
180.0
 51
227.6602522931091
  0
LINE
  5
126E
330
1F
100
AcDbEntity
  8
SANINDUSA
100
AcDbLine
 10
4268.6905950582
 20
1649.021760429109
 30
0.0
 11
4268.886612368223
 21
1649.268970114964
 31
0.0
  0
LINE
  5
126F
330
1F
100
AcDbEntity
  8
SANINDUSA
100
AcDbLine
 10
4268.878475171921
 20
1649.282685708108
 30
0.0
 11
4268.697674763796
 21
1649.447430859173
 31
0.0
  0
ARC
  5
1270
330
1F
100
AcDbEntity
  8
SANINDUSA
100
AcDbCircle
 10
4268.882694528261
 20
1649.272076645349
 30
0.0
 40
0.005
100
AcDbArc
 50
321.5884253854751
 51
47.66025229310912
  0
LWPOLYLINE
  5
1271
330
1F
100
AcDbEntity
  8
SANINDUSA
100
AcDbPolyline
 90
        9
 70
   128
 43
0.0
 10
4268.886062157747
 20
1649.275772465479
 10
4268.885927212831
 20
1649.275895415659
 10
4268.885525715944
 20
1649.27626128061
 10
4268.884867352841
 20
1649.276861176214
 10
4268.883968127368
 20
1649.277680535654
 10
4268.882849914429
 20
1649.278699462621
 10
4268.881539804337
 20
1649.279893215599
 10
4268.880069685575
 20
1649.281232806707
 10
4268.878475171921
 20
1649.282685708108
  0
SPLINE
  5
1272
330
1F
100
AcDbEntity
  8
SANINDUSA
100
AcDbSpline
210
0.0
220
0.0
230
1.0
 70
     8
 71
     3
 72
    17
 73
    13
 74
     0
 42
0.0000000001
 43
0.0000000001
 40
0.0
 40
0.0
 40
0.0
 40
0.0
 40
0.0597829952168485
 40
0.1667509693019116
 40
0.2736204042183226
 40
0.3802969144984254
 40
0.4867114551559744
 40
0.5927111357327779
 40
0.6980110493211745
 40
0.8021901842949151
 40
0.9047719458444666
 40
1.0
 40
1.0
 40
1.0
 40
1.0
 10
4267.492851634801
 20
1649.131414182504
 30
0.0
 10
4267.493336591052
 20
1649.131422093229
 30
0.0
 10
4267.494689265416
 20
1649.131444158383
 30
0.0
 10
4267.496896191182
 20
1649.131682268798
 30
0.0
 10
4267.499420923456
 20
1649.132200688851
 30
0.0
 10
4267.501843460211
 20
1649.132971165886
 30
0.0
 10
4267.50412431887
 20
1649.133981749245
 30
0.0
 10
4267.506223807951
 20
1649.135222892622
 30
0.0
 10
4267.508105000547
 20
1649.136677054742
 30
0.0
 10
4267.509722418343
 20
1649.138323837602
 30
0.0
 10
4267.511048821185
 20
1649.140089027026
 30
0.0
 10
4267.511679635783
 20
1649.141362978713
 30
0.0
 10
4267.511983317614
 20
1649.141976274569
 30
0.0
  0
SPLINE
  5
1273
330
1F
100
AcDbEntity
  8
SANINDUSA
100
AcDbSpline
210
0.0
220
0.0
230
1.0
 70
     8
 71
     3
 72
    18
 73
    14
 74
     0
 42
0.0000000001
 43
0.0000000001
 40
0.0
 40
0.0
 40
0.0
 40
0.0
 40
0.0624695103550559
 40
0.1589576657439445
 40
0.2565485605796398
 40
0.3559873534700805
 40
0.457258972665968
 40
0.5601395856392785
 40
0.664309654746238
 40
0.7694593679965493
 40
0.8753550755955778
 40
0.9766497921622699
 40
1.0
 40
1.0
 40
1.0
 40
1.0
 10
4267.344324943901
 20
1649.141976274569
 30
0.0
 10
4267.344518186823
 20
1649.141571848084
 30
0.0
 10
4267.3450099058
 20
1649.140542759019
 30
0.0
 10
4267.346049242392
 20
1649.138993331143
 30
0.0
 10
4267.347471589141
 20
1649.137371524731
 30
0.0
 10
4267.349149185017
 20
1649.135903922417
 30
0.0
 10
4267.351059041695
 20
1649.134608044957
 30
0.0
 10
4267.353176734853
 20
1649.133506579983
 30
0.0
 10
4267.355469285226
 20
1649.132618994558
 30
0.0
 10
4267.357900056992
 20
1649.131960722842
 30
0.0
 10
4267.36038809077
 20
1649.131552032486
 30
0.0
 10
4267.362256192746
 20
1649.131422196871
 30
0.0
 10
4267.363267226008
 20
1649.131415446986
 30
0.0
 10
4267.363456626714
 20
1649.131414182504
 30
0.0
  0
LINE
  5
1274
330
1F
100
AcDbEntity
  8
SANINDUSA
100
AcDbLine
 10
4267.363456626714
 20
1649.131414182504
 30
0.0
 11
4267.492851634801
 21
1649.131414182504
 31
0.0
  0
LINE
  5
1275
330
1F
100
AcDbEntity
  8
SANINDUSA
100
AcDbLine
 10
4267.621733640612
 20
1649.429595805724
 30
0.0
 11
4267.623732959212
 21
1649.429595805724
 31
0.0
  0
ARC
  5
1276
330
1F
100
AcDbEntity
  8
SANINDUSA
100
AcDbCircle
 10
4267.623732955349
 20
1649.426595805724
 30
0.0
 40
0.0030000000000001
100
AcDbArc
 50
358.5000000028452
 51
90.0
  0
ARC
  5
1277
330
1F
100
AcDbEntity
  8
SANINDUSA
100
AcDbCircle
 10
4267.232575306167
 20
1649.426595805724
 30
0.0
 40
0.0030000000000001
100
AcDbArc
 50
90.0
 51
181.4999999971548
  0
LINE
  5
1278
330
1F
100
AcDbEntity
  8
SANINDUSA
100
AcDbLine
 10
4267.234574620903
 20
1649.429595805724
 30
0.0
 11
4267.232575302304
 21
1649.429595805724
 31
0.0
  0
LINE
  5
1279
330
1F
100
AcDbEntity
  8
SANINDUSA
100
AcDbLine
 10
4267.234574620903
 20
1649.429595805724
 30
0.0
 11
4267.621733640612
 21
1649.429595805724
 31
0.0
  0
LINE
  5
127A
330
1F
100
AcDbEntity
  8
SANINDUSA
100
AcDbLine
 10
4267.62673192221
 20
1649.426517274949
 30
0.0
 11
4267.624321450771
 21
1649.334464922567
 31
0.0
  0
LINE
  5
127C
330
1F
100
AcDbEntity
  8
SANINDUSA
100
AcDbLine
 10
4267.229576339306
 20
1649.426517274949
 30
0.0
 11
4267.231986810744
 21
1649.334464922567
 31
0.0
  0
ARC
  5
127D
330
1F
100
AcDbEntity
  8
SANINDUSA
100
AcDbCircle
 10
4267.619323164979
 20
1649.334595805724
 30
0.0
 40
0.005
100
AcDbArc
 50
270.0
 51
358.5000000028452
  0
LINE
  5
127E
330
1F
100
AcDbEntity
  8
SANINDUSA
100
AcDbLine
 10
4267.619323169173
 20
1649.329595804234
 30
0.0
 11
4267.236985092343
 21
1649.329595804234
 31
0.0
  0
ARC
  5
127F
330
1F
100
AcDbEntity
  8
SANINDUSA
100
AcDbCircle
 10
4267.236985096537
 20
1649.334595805724
 30
0.0
 40
0.005
100
AcDbArc
 50
181.4999999971548
 51
270.0
  0
LWPOLYLINE
  5
1280
330
1F
100
AcDbEntity
  8
SANINDUSA
100
AcDbPolyline
 90
        4
 70
   128
 43
0.0
 10
4267.262542699755
 20
1649.326620668192
 10
4267.263069917739
 20
1649.325430333634
 10
4267.263638203324
 20
1649.3241472766
 10
4267.264245246829
 20
1649.322776705046
  0
LWPOLYLINE
  5
1281
330
1F
100
AcDbEntity
  8
SANINDUSA
100
AcDbPolyline
 90
        4
 70
   128
 43
0.0
 10
4267.593765561761
 20
1649.326620668192
 10
4267.593238343777
 20
1649.325430333634
 10
4267.592670058192
 20
1649.3241472766
 10
4267.592063014688
 20
1649.322776705046
  0
ARC
  5
1282
330
1F
100
AcDbEntity
  8
SANINDUSA
100
AcDbCircle
 10
4267.257971051172
 20
1649.324595805724
 30
0.0
 40
0.005
100
AcDbArc
 50
23.88939594941937
 51
90.0
  0
ARC
  5
1283
330
1F
100
AcDbEntity
  8
SANINDUSA
100
AcDbCircle
 10
4267.598337210343
 20
1649.324595805724
 30
0.0
 40
0.005
100
AcDbArc
 50
90.0
 51
156.1106040505806
  0
ELLIPSE
  5
1284
330
1F
100
AcDbEntity
  8
SANINDUSA
100
AcDbEllipse
 10
4267.561335472116
 20
1649.305627489273
 30
0.0
 11
0.0069114382919312
 21
0.0299556845685531
 31
0.0
210
0.0
220
0.0
230
1.0
 40
0.2358436780373266
 41
0.8454236248754266
 42
0.8861890622039197
  0
ELLIPSE
  5
1285
330
1F
100
AcDbEntity
  8
SANINDUSA
100
AcDbEllipse
 10
4267.294972789399
 20
1649.305627489273
 30
0.0
 11
-0.006911438291931
 21
0.0299556845685531
 31
0.0
210
0.0
220
0.0
230
1.0
 40
0.2358436780373226
 41
5.3969962449757
 42
5.43776168230417
  0
LINE
  5
1286
330
1F
100
AcDbEntity
  8
SANINDUSA
100
AcDbLine
 10
4267.489382391156
 20
1649.165869541486
 30
0.0
 11
4267.560233135999
 21
1649.325833253582
 31
0.0
  0
LINE
  5
1287
330
1F
100
AcDbEntity
  8
SANINDUSA
100
AcDbLine
 10
4267.36692587036
 20
1649.165869541486
 30
0.0
 11
4267.296075125517
 21
1649.325833253582
 31
0.0
  0
LINE
  5
1288
330
1F
100
AcDbEntity
  8
SANINDUSA
100
AcDbLine
 10
4267.592063014688
 20
1649.322776705046
 30
0.0
 11
4267.511983317614
 21
1649.141976274569
 31
0.0
  0
LINE
  5
1289
330
1F
100
AcDbEntity
  8
SANINDUSA
100
AcDbLine
 10
4267.264245246829
 20
1649.322776705046
 30
0.0
 11
4267.344324943901
 21
1649.141976274569
 31
0.0
  0
ELLIPSE
  5
128A
330
1F
100
AcDbEntity
  8
SANINDUSA
100
AcDbEllipse
 10
4267.385960755444
 20
1649.170567858049
 30
0.0
 11
0.0200292106517958
 21
0.0002739926152108
 31
0.0
210
0.0
220
0.0
230
1.0
 40
0.7341515627095613
 41
3.448121399124825
 42
4.703741947848564
  0
ELLIPSE
  5
128B
330
1F
100
AcDbEntity
  8
SANINDUSA
100
AcDbEllipse
 10
4267.470347506072
 20
1649.170567858049
 30
0.0
 11
0.0200292106517959
 21
-0.0002739926152108
 31
0.0
210
0.0
220
0.0
230
1.0
 40
0.7341515627095491
 41
4.721036012920834
 42
5.976656561644583
  0
LINE
  5
128C
330
1F
100
AcDbEntity
  8
SANINDUSA
100
AcDbLine
 10
4267.385988709809
 20
1649.155861564
 30
0.0
 11
4267.470319551708
 21
1649.155861564
 31
0.0
  0
SPLINE
  5
128D
330
1F
100
AcDbEntity
  8
SANINDUSA
100
AcDbSpline
210
0.0
220
0.0
230
1.0
 70
     8
 71
     3
 72
    20
 73
    16
 74
     0
 42
0.0000000001
 43
0.0000000001
 40
0.0
 40
0.0
 40
0.0
 40
0.0
 40
0.1250000000000002
 40
0.1250000000000002
 40
0.2500000000000004
 40
0.2500000000000004
 40
0.3750000000000005
 40
0.3750000000000005
 40
0.5000000000000008
 40
0.5000000000000008
 40
0.7500000000000011
 40
0.7500000000000011
 40
0.8750000000000005
 40
0.8750000000000005
 40
1.0
 40
1.0
 40
1.0
 40
1.0
 10
4267.427154130758
 20
1649.269008966275
 30
0.0
 10
4267.426953674056
 20
1649.269008966275
 30
0.0
 10
4267.426756747867
 20
1649.269028855103
 30
0.0
 10
4267.42636963822
 20
1649.269106631487
 30
0.0
 10
4267.426177353978
 20
1649.269165541721
 30
0.0
 10
4267.425812338788
 20
1649.269318473685
 30
0.0
 10
4267.425639564449
 20
1649.269411882171
 30
0.0
 10
4267.425313159585
 20
1649.26963208132
 30
0.0
 10
4267.425159533564
 20
1649.269759582572
 30
0.0
 10
4267.424747320498
 20
1649.270175978433
 30
0.0
 10
4267.424526830224
 20
1649.270509800808
 30
0.0
 10
4267.424305781137
 20
1649.271047480064
 30
0.0
 10
4267.424249031379
 20
1649.271235273397
 30
0.0
 10
4267.424173201002
 20
1649.271618760091
 30
0.0
 10
4267.424154130758
 20
1649.271812732402
 30
0.0
 10
4267.424154130758
 20
1649.272008966275
 30
0.0
  0
SPLINE
  5
128E
330
1F
100
AcDbEntity
  8
SANINDUSA
100
AcDbSpline
210
0.0
220
0.0
230
1.0
 70
     8
 71
     3
 72
    20
 73
    16
 74
     0
 42
0.0000000001
 43
0.0000000001
 40
0.0
 40
0.0
 40
0.0
 40
0.0
 40
0.1250000000000002
 40
0.1250000000000002
 40
0.2500000000000004
 40
0.2500000000000004
 40
0.3750000000000005
 40
0.3750000000000005
 40
0.5000000000000008
 40
0.5000000000000008
 40
0.7500000000000011
 40
0.7500000000000011
 40
0.8750000000000005
 40
0.8750000000000005
 40
1.0
 40
1.0
 40
1.0
 40
1.0
 10
4267.429154130758
 20
1649.269008966275
 30
0.0
 10
4267.42935458746
 20
1649.269008966275
 30
0.0
 10
4267.429551513649
 20
1649.269028855103
 30
0.0
 10
4267.429938623296
 20
1649.269106631487
 30
0.0
 10
4267.430130907537
 20
1649.269165541721
 30
0.0
 10
4267.430495922728
 20
1649.269318473685
 30
0.0
 10
4267.430668697067
 20
1649.269411882171
 30
0.0
 10
4267.430995101931
 20
1649.26963208132
 30
0.0
 10
4267.431148727953
 20
1649.269759582572
 30
0.0
 10
4267.431560941018
 20
1649.270175978433
 30
0.0
 10
4267.431781431292
 20
1649.270509800808
 30
0.0
 10
4267.432002480378
 20
1649.271047480064
 30
0.0
 10
4267.432059230137
 20
1649.271235273397
 30
0.0
 10
4267.432135060513
 20
1649.271618760091
 30
0.0
 10
4267.432154130758
 20
1649.271812732402
 30
0.0
 10
4267.432154130758
 20
1649.272008966275
 30
0.0
  0
LINE
  5
128F
330
1F
100
AcDbEntity
  8
SANINDUSA
100
AcDbLine
 10
4267.42715413071
 20
1649.26900897177
 30
0.0
 11
4267.429154130805
 21
1649.26900897177
 31
0.0
  0
LINE
  5
1290
330
1F
100
AcDbEntity
  8
SANINDUSA
100
AcDbLine
 10
4267.432154130948
 20
1649.326008968075
 30
0.0
 11
4267.432154130948
 21
1649.329595804234
 31
0.0
  0
LINE
  5
1291
330
1F
100
AcDbEntity
  8
SANINDUSA
100
AcDbLine
 10
4267.424154130568
 20
1649.326008968075
 30
0.0
 11
4267.424154130568
 21
1649.329595804234
 31
0.0
  0
LINE
  5
1292
330
1F
100
AcDbEntity
  8
SANINDUSA
100
AcDbLine
 10
4267.432154130948
 20
1649.272008962949
 30
0.0
 11
4267.432154130948
 21
1649.281008966287
 31
0.0
  0
LINE
  5
1293
330
1F
100
AcDbEntity
  8
SANINDUSA
100
AcDbLine
 10
4267.424154130568
 20
1649.272008962949
 30
0.0
 11
4267.424154130568
 21
1649.281008966287
 31
0.0
  0
SPLINE
  5
1294
330
1F
100
AcDbEntity
  8
SANINDUSA
100
AcDbSpline
210
0.0
220
0.0
230
1.0
 70
     8
 71
     3
 72
    22
 73
    18
 74
     0
 42
0.0000000001
 43
0.0000000001
 40
0.0
 40
0.0
 40
0.0
 40
0.0
 40
0.125
 40
0.125
 40
0.25
 40
0.25
 40
0.375
 40
0.375
 40
0.5
 40
0.5
 40
0.625
 40
0.625
 40
0.75
 40
0.75
 40
0.875
 40
0.875
 40
1.0
 40
1.0
 40
1.0
 40
1.0
 10
4267.429154130758
 20
1649.323008966275
 30
0.0
 10
4267.429353407757
 20
1649.323008966275
 30
0.0
 10
4267.429549287837
 20
1649.323028624546
 30
0.0
 10
4267.429934539527
 20
1649.32310559787
 30
0.0
 10
4267.430125954894
 20
1649.323163883219
 30
0.0
 10
4267.4304902524
 20
1649.323315693413
 30
0.0
 10
4267.43066288349
 20
1649.323408522737
 30
0.0
 10
4267.430989313009
 20
1649.323627633139
 30
0.0
 10
4267.431143466787
 20
1649.323754898457
 30
0.0
 10
4267.431419378875
 20
1649.324032370583
 30
0.0
 10
4267.431543048841
 20
1649.32418362512
 30
0.0
 10
4267.431761210729
 20
1649.324511657367
 30
0.0
 10
4267.431853416268
 20
1649.324685459301
 30
0.0
 10
4267.432001687074
 20
1649.325044997397
 30
0.0
 10
4267.432058696038
 20
1649.325233086224
 30
0.0
 10
4267.432135004783
 20
1649.325617968361
 30
0.0
 10
4267.432154130758
 20
1649.325812446197
 30
0.0
 10
4267.432154130758
 20
1649.326008966275
 30
0.0
  0
SPLINE
  5
1295
330
1F
100
AcDbEntity
  8
SANINDUSA
100
AcDbSpline
210
0.0
220
0.0
230
1.0
 70
     8
 71
     3
 72
    22
 73
    18
 74
     0
 42
0.0000000001
 43
0.0000000001
 40
0.0
 40
0.0
 40
0.0
 40
0.0
 40
0.125
 40
0.125
 40
0.25
 40
0.25
 40
0.375
 40
0.375
 40
0.5
 40
0.5
 40
0.625
 40
0.625
 40
0.75
 40
0.75
 40
0.875
 40
0.875
 40
1.0
 40
1.0
 40
1.0
 40
1.0
 10
4267.427154130758
 20
1649.323008966275
 30
0.0
 10
4267.42695485376
 20
1649.323008966275
 30
0.0
 10
4267.426758973679
 20
1649.323028624546
 30
0.0
 10
4267.426373721988
 20
1649.32310559787
 30
0.0
 10
4267.426182306621
 20
1649.323163883219
 30
0.0
 10
4267.425818009116
 20
1649.323315693413
 30
0.0
 10
4267.425645378026
 20
1649.323408522737
 30
0.0
 10
4267.425318948506
 20
1649.323627633139
 30
0.0
 10
4267.425164794729
 20
1649.323754898457
 30
0.0
 10
4267.42488888264
 20
1649.324032370583
 30
0.0
 10
4267.424765212675
 20
1649.32418362512
 30
0.0
 10
4267.424547050787
 20
1649.324511657367
 30
0.0
 10
4267.424454845249
 20
1649.324685459301
 30
0.0
 10
4267.424306574442
 20
1649.325044997397
 30
0.0
 10
4267.424249565478
 20
1649.325233086224
 30
0.0
 10
4267.424173256733
 20
1649.325617968361
 30
0.0
 10
4267.424154130758
 20
1649.325812446197
 30
0.0
 10
4267.424154130758
 20
1649.326008966275
 30
0.0
  0
SPLINE
  5
1296
330
1F
100
AcDbEntity
  8
SANINDUSA
100
AcDbSpline
210
0.0
220
0.0
230
1.0
 70
     8
 71
     3
 72
    20
 73
    16
 74
     0
 42
0.0000000001
 43
0.0000000001
 40
0.0
 40
0.0
 40
0.0
 40
0.0
 40
0.1249999999999991
 40
0.1249999999999991
 40
0.2499999999999982
 40
0.2499999999999982
 40
0.3749999999999973
 40
0.3749999999999973
 40
0.4999999999999965
 40
0.4999999999999965
 40
0.6249999999999956
 40
0.6249999999999956
 40
0.7499999999999947
 40
0.7499999999999947
 40
1.0
 40
1.0
 40
1.0
 40
1.0
 10
4267.432154130758
 20
1649.281008966275
 30
0.0
 10
4267.432154130758
 20
1649.281205883756
 30
0.0
 10
4267.432134929904
 20
1649.281399656097
 30
0.0
 10
4267.432059565778
 20
1649.281781138162
 30
0.0
 10
4267.432002520958
 20
1649.281970777835
 30
0.0
 10
4267.431853182841
 20
1649.282333173985
 30
0.0
 10
4267.431761706941
 20
1649.282505229135
 30
0.0
 10
4267.431545354303
 20
1649.282831136974
 30
0.0
 10
4267.431419177472
 20
1649.282985802287
 30
0.0
 10
4267.431143091841
 20
1649.283263373303
 30
0.0
 10
4267.430992340734
 20
1649.283388029192
 30
0.0
 10
4267.430664802622
 20
1649.283608355972
 30
0.0
 10
4267.430489729294
 20
1649.283702394495
 30
0.0
 10
4267.429947298263
 20
1649.283928624031
 30
0.0
 10
4267.429552040536
 20
1649.284008966275
 30
0.0
 10
4267.429154130758
 20
1649.284008966275
 30
0.0
  0
SPLINE
  5
1297
330
1F
100
AcDbEntity
  8
SANINDUSA
100
AcDbSpline
210
0.0
220
0.0
230
1.0
 70
     8
 71
     3
 72
    20
 73
    16
 74
     0
 42
0.0000000001
 43
0.0000000001
 40
0.0
 40
0.0
 40
0.0
 40
0.0
 40
0.1249999999999991
 40
0.1249999999999991
 40
0.2499999999999982
 40
0.2499999999999982
 40
0.3749999999999973
 40
0.3749999999999973
 40
0.4999999999999965
 40
0.4999999999999965
 40
0.6249999999999956
 40
0.6249999999999956
 40
0.7499999999999947
 40
0.7499999999999947
 40
1.0
 40
1.0
 40
1.0
 40
1.0
 10
4267.424154130758
 20
1649.281008966275
 30
0.0
 10
4267.424154130758
 20
1649.281205883756
 30
0.0
 10
4267.424173331613
 20
1649.281399656097
 30
0.0
 10
4267.424248695738
 20
1649.281781138162
 30
0.0
 10
4267.424305740557
 20
1649.281970777835
 30
0.0
 10
4267.424455078674
 20
1649.282333173985
 30
0.0
 10
4267.424546554575
 20
1649.282505229135
 30
0.0
 10
4267.424762907213
 20
1649.282831136974
 30
0.0
 10
4267.424889084044
 20
1649.282985802287
 30
0.0
 10
4267.425165169675
 20
1649.283263373303
 30
0.0
 10
4267.425315920783
 20
1649.283388029192
 30
0.0
 10
4267.425643458894
 20
1649.283608355972
 30
0.0
 10
4267.425818532222
 20
1649.283702394495
 30
0.0
 10
4267.426360963253
 20
1649.283928624031
 30
0.0
 10
4267.42675622098
 20
1649.284008966275
 30
0.0
 10
4267.427154130758
 20
1649.284008966275
 30
0.0
  0
LINE
  5
1298
330
1F
100
AcDbEntity
  8
SANINDUSA
100
AcDbLine
 10
4267.42715413071
 20
1649.323008969446
 30
0.0
 11
4267.429154130805
 21
1649.323008969446
 31
0.0
  0
LINE
  5
1299
330
1F
100
AcDbEntity
  8
SANINDUSA
100
AcDbLine
 10
4267.429154130805
 20
1649.284008972366
 30
0.0
 11
4267.42715413071
 21
1649.284008972366
 31
0.0
  0
SPLINE
  5
129A
330
1F
100
AcDbEntity
  8
SANINDUSA
100
AcDbSpline
210
0.0
220
0.0
230
1.0
 70
     8
 71
     3
 72
    20
 73
    16
 74
     0
 42
0.0000000001
 43
0.0000000001
 40
0.0
 40
0.0
 40
0.0
 40
0.0
 40
0.1249999999999999
 40
0.1249999999999999
 40
0.2499999999999999
 40
0.2499999999999999
 40
0.3749999999999998
 40
0.3749999999999998
 40
0.5
 40
0.5
 40
0.6249999999999999
 40
0.6249999999999999
 40
0.7499999999999997
 40
0.7499999999999997
 40
1.0
 40
1.0
 40
1.0
 40
1.0
 10
4267.424154130758
 20
1649.308008966275
 30
0.0
 10
4267.424154130758
 20
1649.308207016986
 30
0.0
 10
4267.424173550131
 20
1649.308401740137
 30
0.0
 10
4267.424249617251
 20
1649.308784809986
 30
0.0
 10
4267.424307181311
 20
1649.308975129898
 30
0.0
 10
4267.424457489396
 20
1649.309338145971
 30
0.0
 10
4267.424549467149
 20
1649.309510326707
 30
0.0
 10
4267.424766765529
 20
1649.309836216376
 30
0.0
 10
4267.424893267844
 20
1649.309990568117
 30
0.0
 10
4267.425169668093
 20
1649.310267318529
 30
0.0
 10
4267.425320493884
 20
1649.310391534558
 30
0.0
 10
4267.425648011923
 20
1649.310610977394
 30
0.0
 10
4267.425822563037
 20
1649.310704348804
 30
0.0
 10
4267.426363734699
 20
1649.310929225231
 30
0.0
 10
4267.426757661933
 20
1649.311008966275
 30
0.0
 10
4267.427154130758
 20
1649.311008966275
 30
0.0
  0
SPLINE
  5
129B
330
1F
100
AcDbEntity
  8
SANINDUSA
100
AcDbSpline
210
0.0
220
0.0
230
1.0
 70
     8
 71
     3
 72
    20
 73
    16
 74
     0
 42
0.0000000001
 43
0.0000000001
 40
0.0
 40
0.0
 40
0.0
 40
0.0
 40
0.1249999999999999
 40
0.1249999999999999
 40
0.2499999999999999
 40
0.2499999999999999
 40
0.3749999999999998
 40
0.3749999999999998
 40
0.5
 40
0.5
 40
0.6249999999999999
 40
0.6249999999999999
 40
0.7499999999999997
 40
0.7499999999999997
 40
1.0
 40
1.0
 40
1.0
 40
1.0
 10
4267.432154130758
 20
1649.308008966275
 30
0.0
 10
4267.432154130758
 20
1649.308207016986
 30
0.0
 10
4267.432134711384
 20
1649.308401740137
 30
0.0
 10
4267.432058644265
 20
1649.308784809986
 30
0.0
 10
4267.432001080204
 20
1649.308975129898
 30
0.0
 10
4267.43185077212
 20
1649.309338145971
 30
0.0
 10
4267.431758794367
 20
1649.309510326707
 30
0.0
 10
4267.431541495986
 20
1649.309836216376
 30
0.0
 10
4267.431414993671
 20
1649.309990568117
 30
0.0
 10
4267.431138593423
 20
1649.310267318529
 30
0.0
 10
4267.430987767632
 20
1649.310391534558
 30
0.0
 10
4267.430660249593
 20
1649.310610977394
 30
0.0
 10
4267.430485698478
 20
1649.310704348804
 30
0.0
 10
4267.429944526816
 20
1649.310929225231
 30
0.0
 10
4267.429550599583
 20
1649.311008966275
 30
0.0
 10
4267.429154130758
 20
1649.311008966275
 30
0.0
  0
SPLINE
  5
129C
330
1F
100
AcDbEntity
  8
SANINDUSA
100
AcDbSpline
210
0.0
220
0.0
230
1.0
 70
     8
 71
     3
 72
    20
 73
    16
 74
     0
 42
0.0000000001
 43
0.0000000001
 40
0.0
 40
0.0
 40
0.0
 40
0.0
 40
0.1250000000000002
 40
0.1250000000000002
 40
0.2500000000000003
 40
0.2500000000000003
 40
0.3750000000000003
 40
0.3750000000000003
 40
0.5000000000000002
 40
0.5000000000000002
 40
0.6250000000000001
 40
0.6250000000000001
 40
0.7500000000000001
 40
0.7500000000000001
 40
1.0
 40
1.0
 40
1.0
 40
1.0
 10
4267.429154130758
 20
1649.296008966275
 30
0.0
 10
4267.429352263236
 20
1649.296008966275
 30
0.0
 10
4267.42954708014
 20
1649.296028401676
 30
0.0
 10
4267.429930355524
 20
1649.296104547287
 30
0.0
 10
4267.430120798952
 20
1649.296162181505
 30
0.0
 10
4267.430483960615
 20
1649.296312638499
 30
0.0
 10
4267.430656199436
 20
1649.296404704345
 30
0.0
 10
4267.430982171802
 20
1649.296622199329
 30
0.0
 10
4267.431136509839
 20
1649.296748784101
 30
0.0
 10
4267.431413176441
 20
1649.297025292188
 30
0.0
 10
4267.43153733862
 20
1649.297176161994
 30
0.0
 10
4267.431756655471
 20
1649.297503736603
 30
0.0
 10
4267.431849892919
 20
1649.29767818175
 30
0.0
 10
4267.432074516992
 20
1649.298219138087
 30
0.0
 10
4267.432154130758
 20
1649.298612778161
 30
0.0
 10
4267.432154130758
 20
1649.299008966275
 30
0.0
  0
SPLINE
  5
129D
330
1F
100
AcDbEntity
  8
SANINDUSA
100
AcDbSpline
210
0.0
220
0.0
230
1.0
 70
     8
 71
     3
 72
    20
 73
    16
 74
     0
 42
0.0000000001
 43
0.0000000001
 40
0.0
 40
0.0
 40
0.0
 40
0.0
 40
0.1250000000000002
 40
0.1250000000000002
 40
0.2500000000000003
 40
0.2500000000000003
 40
0.3750000000000003
 40
0.3750000000000003
 40
0.5000000000000002
 40
0.5000000000000002
 40
0.6250000000000001
 40
0.6250000000000001
 40
0.7500000000000001
 40
0.7500000000000001
 40
1.0
 40
1.0
 40
1.0
 40
1.0
 10
4267.427154130758
 20
1649.296008966275
 30
0.0
 10
4267.42695599828
 20
1649.296008966275
 30
0.0
 10
4267.426761181376
 20
1649.296028401676
 30
0.0
 10
4267.426377905991
 20
1649.296104547287
 30
0.0
 10
4267.426187462564
 20
1649.296162181505
 30
0.0
 10
4267.4258243009
 20
1649.296312638499
 30
0.0
 10
4267.425652062081
 20
1649.296404704345
 30
0.0
 10
4267.425326089713
 20
1649.296622199329
 30
0.0
 10
4267.425171751678
 20
1649.296748784101
 30
0.0
 10
4267.424895085075
 20
1649.297025292188
 30
0.0
 10
4267.424770922895
 20
1649.297176161994
 30
0.0
 10
4267.424551606044
 20
1649.297503736603
 30
0.0
 10
4267.424458368597
 20
1649.29767818175
 30
0.0
 10
4267.424233744524
 20
1649.298219138087
 30
0.0
 10
4267.424154130758
 20
1649.298612778161
 30
0.0
 10
4267.424154130758
 20
1649.299008966275
 30
0.0
  0
LINE
  5
129E
330
1F
100
AcDbEntity
  8
SANINDUSA
100
AcDbLine
 10
4267.429154130805
 20
1649.311008967479
 30
0.0
 11
4267.42715413071
 21
1649.311008967479
 31
0.0
  0
LINE
  5
129F
330
1F
100
AcDbEntity
  8
SANINDUSA
100
AcDbLine
 10
4267.42715413071
 20
1649.296008966883
 30
0.0
 11
4267.429154130805
 21
1649.296008966883
 31
0.0
  0
LINE
  5
12A0
330
1F
100
AcDbEntity
  8
SANINDUSA
100
AcDbLine
 10
4267.432154130948
 20
1649.299008972963
 30
0.0
 11
4267.432154130948
 21
1649.30800896885
 31
0.0
  0
LINE
  5
12A1
330
1F
100
AcDbEntity
  8
SANINDUSA
100
AcDbLine
 10
4267.424154130568
 20
1649.299008972963
 30
0.0
 11
4267.424154130568
 21
1649.30800896885
 31
0.0
  0
SPLINE
  5
12A2
330
1F
100
AcDbEntity
  8
SANINDUSA
100
AcDbSpline
210
0.0
220
0.0
230
1.0
 70
     8
 71
     3
 72
     9
 73
     5
 74
     0
 42
0.0000000001
 43
0.0000000001
 40
0.0
 40
0.0
 40
0.0
 40
0.0
 40
0.803710076909458
 40
0.9999999999999998
 40
0.9999999999999998
 40
0.9999999999999998
 40
0.9999999999999998
 10
4267.560634319962
 20
1649.326720185598
 30
0.0
 10
4267.561032794145
 20
1649.327583574783
 30
0.0
 10
4267.561528587585
 20
1649.328657829306
 30
0.0
 10
4267.56179176994
 20
1649.329441899213
 30
0.0
 10
4267.561843429984
 20
1649.329595804234
 30
0.0
  0
SPLINE
  5
12A3
330
1F
100
AcDbEntity
  8
SANINDUSA
100
AcDbSpline
210
0.0
220
0.0
230
1.0
 70
     8
 71
     3
 72
     9
 73
     5
 74
     0
 42
0.0000000001
 43
0.0000000001
 40
0.0
 40
0.0
 40
0.0
 40
0.0
 40
0.803710076909458
 40
0.9999999999999998
 40
0.9999999999999998
 40
0.9999999999999998
 40
0.9999999999999998
 10
4267.295673941553
 20
1649.326720185598
 30
0.0
 10
4267.295275467371
 20
1649.327583574783
 30
0.0
 10
4267.294779673931
 20
1649.328657829306
 30
0.0
 10
4267.294516491577
 20
1649.329441899213
 30
0.0
 10
4267.294464831532
 20
1649.329595804234
 30
0.0
  0
SPLINE
  5
12A4
330
1F
100
AcDbEntity
  8
SANINDUSA
100
AcDbSpline
210
0.0
220
0.0
230
1.0
 70
     8
 71
     3
 72
    12
 73
     8
 74
     0
 42
0.0000000001
 43
0.0000000001
 40
0.0
 40
0.0
 40
0.0
 40
0.0
 40
0.1657969489885011
 40
0.3064317163552559
 40
0.5073612524038622
 40
0.7599776334507915
 40
1.0
 40
1.0
 40
1.0
 40
1.0
 10
4269.127389360971
 20
1649.188971283699
 30
0.0
 10
4269.127428591003
 20
1649.188955871057
 30
0.0
 10
4269.127501097319
 20
1649.188927384873
 30
0.0
 10
4269.127784474669
 20
1649.188800405986
 30
0.0
 10
4269.128214564843
 20
1649.188562129872
 30
0.0
 10
4269.128711514895
 20
1649.18822505986
 30
0.0
 10
4269.129001291039
 20
1649.187907519576
 30
0.0
 10
4269.129142475136
 20
1649.187752808298
 30
0.0
  0
SPLINE
  5
12A5
330
1F
100
AcDbEntity
  8
SANINDUSA
100
AcDbSpline
210
0.0
220
0.0
230
1.0
 70
     8
 71
     3
 72
    16
 73
    12
 74
     0
 42
0.0000000001
 43
0.0000000001
 40
0.0
 40
0.0
 40
0.0
 40
0.0
 40
0.0922259788674264
 40
0.3031316603388686
 40
0.492314446061102
 40
0.6579184825013838
 40
0.7967240349284943
 40
0.9033367603157367
 40
0.9628166446656265
 40
0.9960211433106607
 40
0.9999999999999998
 40
0.9999999999999998
 40
0.9999999999999998
 40
0.9999999999999998
 10
4269.239758771664
 20
1649.185133623744
 30
0.0
 10
4269.239808527938
 20
1649.185249781465
 30
0.0
 10
4269.239972068645
 20
1649.185631572835
 30
0.0
 10
4269.240381664513
 20
1649.186175912405
 30
0.0
 10
4269.240919372344
 20
1649.186733475941
 30
0.0
 10
4269.241460316132
 20
1649.187142480668
 30
0.0
 10
4269.241946687136
 20
1649.187424271877
 30
0.0
 10
4269.242327908366
 20
1649.187596125949
 30
0.0
 10
4269.242572856201
 20
1649.187686996939
 30
0.0
 10
4269.24267410542
 20
1649.187720883885
 30
0.0
 10
4269.242696924976
 20
1649.187728151505
 30
0.0
 10
4269.242699366815
 20
1649.187728929187
 30
0.0
  0
SPLINE
  5
12A6
330
1F
100
AcDbEntity
  8
SANINDUSA
100
AcDbSpline
210
0.0
220
0.0
230
1.0
 70
     8
 71
     3
 72
     9
 73
     5
 74
     0
 42
0.0000000001
 43
0.0000000001
 40
0.0
 40
0.0
 40
0.0
 40
0.0
 40
0.5592259209360352
 40
1.0
 40
1.0
 40
1.0
 40
1.0
 10
4269.074178919017
 20
1649.251547326187
 30
0.0
 10
4269.074119279387
 20
1649.251338576116
 30
0.0
 10
4269.07401263263
 20
1649.250965292145
 30
0.0
 10
4269.073931071693
 20
1649.250837357287
 30
0.0
 10
4269.073895121745
 20
1649.250780966918
 30
0.0
  0
ARC
  5
12A7
330
1F
100
AcDbEntity
  8
SANINDUSA
100
AcDbCircle
 10
4269.220988899965
 20
1649.192011479534
 30
0.0
 40
0.0009999999999999
100
AcDbArc
 50
99.9405678997944
 51
180.0
  0
ARC
  5
12A8
330
1F
100
AcDbEntity
  8
SANINDUSA
100
AcDbCircle
 10
4269.187192412147
 20
1649.384850364184
 30
0.0
 40
0.1947780325311864
100
AcDbArc
 50
279.9405678997944
 51
288.5752765336643
  0
ARC
  5
12A9
330
1F
100
AcDbEntity
  8
SANINDUSA
100
AcDbCircle
 10
4269.238089754288
 20
1649.233395815746
 30
0.0
 40
0.0349999999999999
100
AcDbArc
 50
288.5752765336643
 51
319.0872293219269
  0
LINE
  5
12AA
330
1F
100
AcDbEntity
  8
SANINDUSA
100
AcDbLine
 10
4269.26453952194
 20
1649.210473990853
 30
0.0
 11
4269.33313630224
 21
1649.289628631288
 31
0.0
  0
ARC
  5
12AB
330
1F
100
AcDbEntity
  8
SANINDUSA
100
AcDbCircle
 10
4269.336914841526
 20
1649.286354084423
 30
0.0
 40
0.0050000000000003
100
AcDbArc
 50
47.66025229310912
 51
139.0872293219269
  0
LINE
  5
12AC
330
1F
100
AcDbEntity
  8
SANINDUSA
100
AcDbLine
 10
4269.355951321132
 20
1649.275772465479
 30
0.0
 11
4269.340282481915
 21
1649.29004990388
 31
0.0
  0
ARC
  5
12AD
330
1F
100
AcDbEntity
  8
SANINDUSA
100
AcDbCircle
 10
4269.352583691644
 20
1649.272076645349
 30
0.0
 40
0.005
100
AcDbArc
 50
321.5884253854751
 51
47.66025229310912
  0
LINE
  5
12AE
330
1F
100
AcDbEntity
  8
SANINDUSA
100
AcDbLine
 10
4269.160484221584
 20
1649.021760429109
 30
0.0
 11
4269.356501531608
 21
1649.268970114964
 31
0.0
  0
ARC
  5
12AF
330
1F
100
AcDbEntity
  8
SANINDUSA
100
AcDbCircle
 10
4269.164402060515
 20
1649.018653895217
 30
0.0
 40
0.005
100
AcDbArc
 50
141.5884253854751
 51
180.0
  0
LINE
  5
12B0
330
1F
100
AcDbEntity
  8
SANINDUSA
100
AcDbLine
 10
4269.159402062006
 20
1648.961129153932
 30
0.0
 11
4269.159402062006
 21
1649.018653894628
 31
0.0
  0
ARC
  5
12B1
330
1F
100
AcDbEntity
  8
SANINDUSA
100
AcDbCircle
 10
4269.154402060514
 20
1648.961129150696
 30
0.0
 40
0.0050000000000002
100
AcDbArc
 50
271.4999999978369
 51
0.0
  0
LINE
  5
12B2
330
1F
100
AcDbEntity
  8
SANINDUSA
100
AcDbLine
 10
4269.154532943672
 20
1648.956130857433
 30
0.0
 11
4269.142450784154
 21
1648.955814475979
 31
0.0
  0
ARC
  5
12B3
330
1F
100
AcDbEntity
  8
SANINDUSA
100
AcDbCircle
 10
4269.142398430036
 20
1648.957813796192
 30
0.0
 40
0.0019999999999999
100
AcDbArc
 50
172.223524956097
 51
271.4999999978369
  0
LINE
  5
12B4
330
1F
100
AcDbEntity
  8
SANINDUSA
100
AcDbLine
 10
4269.140416820355
 20
1648.958084399665
 30
0.0
 11
4269.149402064092
 21
1649.023879150713
 31
0.0
  0
LINE
  5
12B5
330
1F
100
AcDbEntity
  8
SANINDUSA
100
AcDbLine
 10
4269.149402064092
 20
1649.023879150713
 30
0.0
 11
4269.272100177414
 21
1649.178621421421
 31
0.0
  0
LINE
  5
12B6
330
1F
100
AcDbEntity
  8
SANINDUSA
100
AcDbLine
 10
4269.272100177414
 20
1649.178621421421
 30
0.0
 11
4269.264589053399
 21
1649.1952618536
 31
0.0
  0
ARC
  5
12B7
330
1F
100
AcDbEntity
  8
SANINDUSA
100
AcDbCircle
 10
4269.187192412147
 20
1649.384850364184
 30
0.0
 40
0.2047780325311865
100
AcDbArc
 50
285.7903934537039
 51
292.2069934031912
  0
ARC
  5
12B8
330
1F
100
AcDbEntity
  8
SANINDUSA
100
AcDbCircle
 10
4269.244276982178
 20
1649.182988592674
 30
0.0
 40
0.0050000000000001
100
AcDbArc
 50
105.7903934537039
 51
154.6329698911569
  0
SPLINE
  5
12B9
330
1F
100
AcDbEntity
  8
SANINDUSA
100
AcDbSpline
210
0.0
220
0.0
230
1.0
 70
     8
 71
     3
 72
     8
 73
     4
 74
     0
 42
0.0000000001
 43
0.0000000001
 40
0.1584786942538987
 40
0.1584786942538987
 40
0.1584786942538987
 40
0.1584786942538987
 40
1.0
 40
1.0
 40
1.0
 40
1.0
 10
4269.239759072345
 20
1649.185130668941
 30
0.0
 10
4269.213985603726
 20
1649.130771163087
 30
0.0
 10
4269.185078968192
 20
1649.084484780142
 30
0.0
 10
4269.136402060516
 20
1649.089139774185
 30
0.0
  0
LINE
  5
12BA
330
1F
100
AcDbEntity
  8
SANINDUSA
100
AcDbLine
 10
4269.136402060098
 20
1649.096639777387
 30
0.0
 11
4269.136402060098
 21
1649.089139769639
 31
0.0
  0
LINE
  5
12BB
330
1F
100
AcDbEntity
  8
SANINDUSA
100
AcDbLine
 10
4269.136402060098
 20
1649.096639777387
 30
0.0
 11
4269.104402062303
 21
1649.096639777387
 31
0.0
  0
LINE
  5
12BC
330
1F
100
AcDbEntity
  8
SANINDUSA
100
AcDbLine
 10
4269.104402062303
 20
1649.10663976785
 30
0.0
 11
4269.104402062303
 21
1649.096639777387
 31
0.0
  0
LINE
  5
12BD
330
1F
100
AcDbEntity
  8
SANINDUSA
100
AcDbLine
 10
4269.146402058012
 20
1649.10663976785
 30
0.0
 11
4269.104402062303
 21
1649.10663976785
 31
0.0
  0
LINE
  5
12BE
330
1F
100
AcDbEntity
  8
SANINDUSA
100
AcDbLine
 10
4269.146402058012
 20
1649.10663976785
 30
0.0
 11
4269.146402058012
 21
1649.09891439494
 31
0.0
  0
SPLINE
  5
12BF
330
1F
100
AcDbEntity
  8
SANINDUSA
100
AcDbSpline
210
0.0
220
0.0
230
1.0
 70
     8
 71
     3
 72
    20
 73
    16
 74
     0
 42
0.0000000001
 43
0.0000000001
 40
0.0
 40
0.0
 40
0.0
 40
0.0
 40
0.2500000000000004
 40
0.2500000000000004
 40
0.3750000000000005
 40
0.3750000000000005
 40
0.5000000000000007
 40
0.5000000000000007
 40
0.6250000000000008
 40
0.6250000000000008
 40
0.7500000000000006
 40
0.7500000000000006
 40
0.8750000000000003
 40
0.8750000000000003
 40
1.0
 40
1.0
 40
1.0
 40
1.0
 10
4269.228241569307
 20
1649.184228806759
 30
0.0
 10
4269.222519797586
 20
1649.17238810171
 30
0.0
 10
4269.216660144563
 20
1649.161108292565
 30
0.0
 10
4269.207465215183
 20
1649.145784792976
 30
0.0
 10
4269.204333461346
 20
1649.140943322621
 30
0.0
 10
4269.19791752853
 20
1649.131917477017
 30
0.0
 10
4269.194633349467
 20
1649.127733538727
 30
0.0
 10
4269.187906499825
 20
1649.120137060718
 30
0.0
 10
4269.184464405748
 20
1649.116725253679
 30
0.0
 10
4269.177422260465
 20
1649.11075911351
 30
0.0
 10
4269.173823961707
 20
1649.108205004372
 30
0.0
 10
4269.166443304253
 20
1649.103993102749
 30
0.0
 10
4269.162662490192
 20
1649.102333124631
 30
0.0
 10
4269.154805232447
 20
1649.099923729939
 30
0.0
 10
4269.150726249031
 20
1649.099171369674
 30
0.0
 10
4269.146402060515
 20
1649.098914401898
 30
0.0
  0
ARC
  5
12C0
330
1F
100
AcDbEntity
  8
SANINDUSA
100
AcDbCircle
 10
4269.187192412147
 20
1649.384850364184
 30
0.0
 40
0.2047780325311862
100
AcDbArc
 50
279.2159673772766
 51
281.5636750311524
  0
LINE
  5
12C1
330
1F
100
AcDbEntity
  8
SANINDUSA
100
AcDbLine
 10
4269.219988894469
 20
1649.192011478211
 30
0.0
 11
4269.219988894469
 21
1649.182715671922
 31
0.0
  0
LINE
  5
12C2
330
1F
100
AcDbEntity
  8
SANINDUSA
100
AcDbLine
 10
4269.279091697938
 20
1649.187438863183
 30
0.0
 11
4269.345765334374
 21
1649.271525137213
 31
0.0
  0
LINE
  5
12C3
330
1F
100
AcDbEntity
  8
SANINDUSA
100
AcDbLine
 10
4269.345765334374
 20
1649.271525137213
 30
0.0
 11
4269.337336254127
 21
1649.279205702564
 31
0.0
  0
LINE
  5
12C4
330
1F
100
AcDbEntity
  8
SANINDUSA
100
AcDbLine
 10
4269.271803107865
 20
1649.20358624574
 30
0.0
 11
4269.337336254127
 21
1649.279205702564
 31
0.0
  0
LINE
  5
12C5
330
1F
100
AcDbEntity
  8
SANINDUSA
100
AcDbLine
 10
4269.271803107865
 20
1649.20358624574
 30
0.0
 11
4269.279091697938
 21
1649.187438863183
 31
0.0
  0
SPLINE
  5
12C6
330
1F
100
AcDbEntity
  8
SANINDUSA
100
AcDbSpline
210
0.0
220
0.0
230
1.0
 70
     8
 71
     3
 72
    16
 73
    12
 74
     0
 42
0.0000000001
 43
0.0000000001
 40
0.0
 40
0.0
 40
0.0
 40
0.0
 40
0.5000000000000007
 40
0.5000000000000007
 40
0.6250000000000005
 40
0.6250000000000005
 40
0.7500000000000004
 40
0.7500000000000004
 40
0.8750000000000001
 40
0.8750000000000001
 40
1.0
 40
1.0
 40
1.0
 40
1.0
 10
4269.146402060515
 20
1649.153603005953
 30
0.0
 10
4269.146958508422
 20
1649.15898633162
 30
0.0
 10
4269.146836246603
 20
1649.164331641222
 30
0.0
 10
4269.145819731053
 20
1649.170964901093
 30
0.0
 10
4269.145573350604
 20
1649.172289140208
 30
0.0
 10
4269.144994616445
 20
1649.174932802881
 30
0.0
 10
4269.144663192902
 20
1649.176247255507
 30
0.0
 10
4269.143923739673
 20
1649.178847220437
 30
0.0
 10
4269.14351520523
 20
1649.180135092688
 30
0.0
 10
4269.142624826349
 20
1649.182687960369
 30
0.0
 10
4269.1421422178
 20
1649.183954747312
 30
0.0
 10
4269.141627196368
 20
1649.185206046163
 30
0.0
  0
LINE
  5
12C7
330
1F
100
AcDbEntity
  8
SANINDUSA
100
AcDbLine
 10
4269.079195319496
 20
1649.21794857722
 30
0.0
 11
4269.061332261476
 21
1649.21857236963
 31
0.0
  0
ARC
  5
12C8
330
1F
100
AcDbEntity
  8
SANINDUSA
100
AcDbCircle
 10
4269.061402060515
 20
1649.220571151734
 30
0.0
 40
0.0020000000000003
100
AcDbArc
 50
180.0
 51
268.0000000222857
  0
LINE
  5
12C9
330
1F
100
AcDbEntity
  8
SANINDUSA
100
AcDbLine
 10
4269.059402060515
 20
1649.23970839646
 30
0.0
 11
4269.059402060515
 21
1649.220571151788
 31
0.0
  0
ARC
  5
12CA
330
1F
100
AcDbEntity
  8
SANINDUSA
100
AcDbCircle
 10
4269.061402060515
 20
1649.239708396635
 30
0.0
 40
0.0020000000000002
100
AcDbArc
 50
91.99999997771437
 51
180.0
  0
LINE
  5
12CB
330
1F
100
AcDbEntity
  8
SANINDUSA
100
AcDbLine
 10
4269.061332261476
 20
1649.241707178617
 30
0.0
 11
4269.068466107182
 21
1649.241956298093
 31
0.0
  0
ARC
  5
12CC
330
1F
100
AcDbEntity
  8
SANINDUSA
100
AcDbCircle
 10
4269.068291609589
 20
1649.2469532518
 30
0.0
 40
0.005
100
AcDbArc
 50
271.9999999777144
 51
353.0116766117981
  0
ARC
  5
12CD
330
1F
100
AcDbEntity
  8
SANINDUSA
100
AcDbCircle
 10
4269.11792015796
 20
1649.240869898567
 30
0.0
 40
0.0450000000000002
100
AcDbArc
 50
168.2137816651796
 51
173.011676611798
  0
LINE
  5
12CE
330
1F
100
AcDbEntity
  8
SANINDUSA
100
AcDbLine
 10
4269.095043734468
 20
1649.351541708077
 30
0.0
 11
4269.073868913397
 21
1649.250061624537
 31
0.0
  0
ARC
  5
12CF
330
1F
100
AcDbEntity
  8
SANINDUSA
100
AcDbCircle
 10
4269.090149151447
 20
1649.352563014388
 30
0.0
 40
0.0050000000000001
100
AcDbArc
 50
348.2137816651797
 51
88.00000002228562
  0
LINE
  5
12D0
330
1F
100
AcDbEntity
  8
SANINDUSA
100
AcDbLine
 10
4269.090323648236
 20
1649.357559966708
 30
0.0
 11
4269.061332261476
 21
1649.358572366501
 31
0.0
  0
ARC
  5
12D1
330
1F
100
AcDbEntity
  8
SANINDUSA
100
AcDbCircle
 10
4269.061402060515
 20
1649.360571151734
 30
0.0
 40
0.0020000000000002
100
AcDbArc
 50
180.0
 51
268.0000000222857
  0
LINE
  5
12D2
330
1F
100
AcDbEntity
  8
SANINDUSA
100
AcDbLine
 10
4269.059402060515
 20
1649.379708397056
 30
0.0
 11
4269.059402060515
 21
1649.360571148658
 31
0.0
  0
ARC
  5
12D3
330
1F
100
AcDbEntity
  8
SANINDUSA
100
AcDbCircle
 10
4269.061402060515
 20
1649.379708396635
 30
0.0
 40
0.0020000000000002
100
AcDbArc
 50
91.99999997771437
 51
180.0
  0
LINE
  5
12D4
330
1F
100
AcDbEntity
  8
SANINDUSA
100
AcDbLine
 10
4269.061332261476
 20
1649.381707179214
 30
0.0
 11
4269.097712618119
 21
1649.382977607513
 31
0.0
  0
ARC
  5
12D5
330
1F
100
AcDbEntity
  8
SANINDUSA
100
AcDbCircle
 10
4269.09753812024
 20
1649.387974562457
 30
0.0
 40
0.0050000000000001
100
AcDbArc
 50
271.9999999777144
 51
348.2137816651797
  0
LINE
  5
12D6
330
1F
100
AcDbEntity
  8
SANINDUSA
100
AcDbLine
 10
4269.115551628924
 20
1649.449825565184
 30
0.0
 11
4269.102432702489
 21
1649.386953259672
 31
0.0
  0
ARC
  5
12D7
330
1F
100
AcDbEntity
  8
SANINDUSA
100
AcDbCircle
 10
4269.110657045884
 20
1649.450846862934
 30
0.0
 40
0.0050000000000001
100
AcDbArc
 50
348.2137816651797
 51
88.00000002228562
  0
LINE
  5
12D8
330
1F
100
AcDbEntity
  8
SANINDUSA
100
AcDbLine
 10
4269.110831544555
 20
1649.455843816365
 30
0.0
 11
4269.061332261476
 21
1649.457572365965
 31
0.0
  0
ARC
  5
12D9
330
1F
100
AcDbEntity
  8
SANINDUSA
100
AcDbCircle
 10
4269.061402060515
 20
1649.459571151734
 30
0.0
 40
0.0020000000000002
100
AcDbArc
 50
180.0
 51
268.0000000222857
  0
LINE
  5
12DA
330
1F
100
AcDbEntity
  8
SANINDUSA
100
AcDbLine
 10
4269.059402060515
 20
1649.475708390439
 30
0.0
 11
4269.059402060515
 21
1649.459571148122
 31
0.0
  0
ARC
  5
12DB
330
1F
100
AcDbEntity
  8
SANINDUSA
100
AcDbCircle
 10
4269.061402060515
 20
1649.475708396635
 30
0.0
 40
0.0020000000000002
100
AcDbArc
 50
91.99999997771437
 51
180.0
  0
LINE
  5
12DC
330
1F
100
AcDbEntity
  8
SANINDUSA
100
AcDbLine
 10
4269.061332261476
 20
1649.477707172598
 30
0.0
 11
4269.117890995747
 21
1649.479682247008
 31
0.0
  0
ARC
  5
12DD
330
1F
100
AcDbEntity
  8
SANINDUSA
100
AcDbCircle
 10
4269.117716498171
 20
1649.484679206941
 30
0.0
 40
0.0050000000000001
100
AcDbArc
 50
271.9999999777144
 51
348.2137816651797
  0
LINE
  5
12DE
330
1F
100
AcDbEntity
  8
SANINDUSA
100
AcDbLine
 10
4269.133222047991
 20
1649.534510846103
 30
0.0
 11
4269.122611080117
 21
1649.483657906617
 31
0.0
  0
LINE
  5
12DF
330
1F
100
AcDbEntity
  8
SANINDUSA
100
AcDbLine
 10
4269.143011209376
 20
1649.532468224729
 30
0.0
 11
4269.133222047991
 21
1649.534510846103
 31
0.0
  0
LINE
  5
12E0
330
1F
100
AcDbEntity
  8
SANINDUSA
100
AcDbLine
 10
4269.143011209376
 20
1649.532468224729
 30
0.0
 11
4269.083658079437
 21
1649.248019019927
 31
0.0
  0
ARC
  5
12E1
330
1F
100
AcDbEntity
  8
SANINDUSA
100
AcDbCircle
 10
4269.11792015796
 20
1649.240869898567
 30
0.0
 40
0.0350000000000002
100
AcDbArc
 50
168.2137816651796
 51
244.3067417512987
  0
ARC
  5
12E2
330
1F
100
AcDbEntity
  8
SANINDUSA
100
AcDbCircle
 10
4269.187192412147
 20
1649.384850364184
 30
0.0
 40
0.1947780325311866
100
AcDbArc
 50
244.3067417512987
 51
259.0455208503173
  0
ARC
  5
12E3
330
1F
100
AcDbEntity
  8
SANINDUSA
100
AcDbCircle
 10
4269.149988899965
 20
1649.192639707083
 30
0.0
 40
0.0009999999999999
100
AcDbArc
 50
0.0
 51
79.04552085031729
  0
LINE
  5
12E4
330
1F
100
AcDbEntity
  8
SANINDUSA
100
AcDbLine
 10
4269.150988903649
 20
1649.183298016752
 30
0.0
 11
4269.150988903649
 21
1649.192639703716
 31
0.0
  0
LINE
  5
12E5
330
1F
100
AcDbEntity
  8
SANINDUSA
100
AcDbLine
 10
4269.104402062303
 20
1649.136639769043
 30
0.0
 11
4269.146402058012
 21
1649.136639769043
 31
0.0
  0
LINE
  5
12E6
330
1F
100
AcDbEntity
  8
SANINDUSA
100
AcDbLine
 10
4269.104402062303
 20
1649.146639774407
 30
0.0
 11
4269.104402062303
 21
1649.136639769043
 31
0.0
  0
LINE
  5
12E7
330
1F
100
AcDbEntity
  8
SANINDUSA
100
AcDbLine
 10
4269.104402062303
 20
1649.146639774407
 30
0.0
 11
4269.136402060098
 21
1649.146639774407
 31
0.0
  0
LINE
  5
12E8
330
1F
100
AcDbEntity
  8
SANINDUSA
100
AcDbLine
 10
4269.136402060098
 20
1649.154139774705
 30
0.0
 11
4269.136402060098
 21
1649.146639774407
 31
0.0
  0
SPLINE
  5
12E9
330
1F
100
AcDbEntity
  8
SANINDUSA
100
AcDbSpline
210
0.0
220
0.0
230
1.0
 70
     8
 71
     3
 72
     8
 73
     4
 74
     0
 42
0.0000000001
 43
0.0000000001
 40
0.518603155374313
 40
0.518603155374313
 40
0.518603155374313
 40
0.518603155374313
 40
1.0
 40
1.0
 40
1.0
 40
1.0
 10
4269.136402060516
 20
1649.154139774185
 30
0.0
 10
4269.137760706344
 20
1649.166235215029
 30
0.0
 10
4269.134953915609
 20
1649.176812507012
 30
0.0
 10
4269.129986916329
 20
1649.186602482206
 30
0.0
  0
ARC
  5
12EA
330
1F
100
AcDbEntity
  8
SANINDUSA
100
AcDbCircle
 10
4269.125527976718
 20
1649.184340213978
 30
0.0
 40
0.0049999999999999
100
AcDbArc
 50
26.90121662740166
 51
72.90536231196731
  0
ARC
  5
12EB
330
1F
100
AcDbEntity
  8
SANINDUSA
100
AcDbCircle
 10
4269.187192412147
 20
1649.384850364184
 30
0.0
 40
0.2047780325311865
100
AcDbArc
 50
244.3067417512987
 51
252.9053623119673
  0
ARC
  5
12EC
330
1F
100
AcDbEntity
  8
SANINDUSA
100
AcDbCircle
 10
4269.11792015796
 20
1649.240869898567
 30
0.0
 40
0.0450000000000001
100
AcDbArc
 50
210.6213869474624
 51
244.3067417512987
  0
LINE
  5
12ED
330
1F
100
AcDbEntity
  8
SANINDUSA
100
AcDbLine
 10
4269.146402058012
 20
1649.153603005077
 30
0.0
 11
4269.146402058012
 21
1649.136639769043
 31
0.0
  0
ARC
  5
12EE
330
1F
100
AcDbEntity
  8
SANINDUSA
100
AcDbCircle
 10
4269.187192412147
 20
1649.384850364184
 30
0.0
 40
0.2047780325311864
100
AcDbArc
 50
257.1434837042464
 51
259.8169295702713
  0
LINE
  5
12EF
330
1F
100
AcDbEntity
  8
SANINDUSA
100
AcDbLine
 10
4269.059402060515
 20
1649.475708390439
 30
0.0
 11
4269.059402060515
 21
1649.496594871248
 31
0.0
  0
LINE
  5
12F0
330
1F
100
AcDbEntity
  8
SANINDUSA
100
AcDbLine
 10
4269.062480591291
 20
1649.673559154237
 30
0.0
 11
4269.091902059323
 21
1649.672788734401
 31
0.0
  0
LINE
  5
12F2
330
1F
100
AcDbEntity
  8
SANINDUSA
100
AcDbLine
 10
4269.061164714333
 20
1649.646429116691
 30
0.0
 11
4269.091902059323
 21
1649.642755444015
 31
0.0
  0
ARC
  5
12F3
330
1F
100
AcDbEntity
  8
SANINDUSA
100
AcDbCircle
 10
4269.061402060515
 20
1649.648414972673
 30
0.0
 40
0.0020000000000002
100
AcDbArc
 50
180.0
 51
263.1844714666444
  0
LINE
  5
12F4
330
1F
100
AcDbEntity
  8
SANINDUSA
100
AcDbLine
 10
4269.059402060515
 20
1649.670560176337
 30
0.0
 11
4269.059402060515
 21
1649.648414964641
 31
0.0
  0
ARC
  5
12F5
330
1F
100
AcDbEntity
  8
SANINDUSA
100
AcDbCircle
 10
4269.062402060515
 20
1649.670560188043
 30
0.0
 40
0.003
100
AcDbArc
 50
88.50000000216311
 51
180.0
  0
LINE
  5
12F6
330
1F
100
AcDbEntity
  8
SANINDUSA
100
AcDbLine
 10
4269.059402060515
 20
1649.23970839646
 30
0.0
 11
4269.059402060515
 21
1649.246204069669
 31
0.0
  0
LWPOLYLINE
  5
12F8
330
1F
100
AcDbEntity
  8
SANINDUSA
100
AcDbPolyline
 90
       23
 70
   128
 43
0.0
 10
4269.091902059323
 20
1649.672788734401
 10
4269.092080184079
 20
1649.672784055437
 10
4269.092610933639
 20
1649.672770167554
 10
4269.093483500935
 20
1649.672747309173
 10
4269.094680123783
 20
1649.672715986932
 10
4269.096176442511
 20
1649.672676796878
 10
4269.097941999144
 20
1649.672630573476
 10
4269.099940844632
 20
1649.672578240598
 10
4269.102132298804
 20
1649.672520841325
 10
4269.104471740134
 20
1649.672459597553
 10
4269.106911551959
 20
1649.672395701374
 10
4269.10940206126
 20
1649.67233046409
 10
4269.111892570562
 20
1649.672265256608
 10
4269.114332378662
 20
1649.672201360429
 10
4269.116671823717
 20
1649.672140116657
 10
4269.118863274164
 20
1649.672082717384
 10
4269.120862123378
 20
1649.672030384506
 10
4269.122627680011
 20
1649.671984161104
 10
4269.124123995013
 20
1649.67194497105
 10
4269.125320617861
 20
1649.671913648809
 10
4269.126193185157
 20
1649.671890790427
 10
4269.126723934717
 20
1649.671876902545
 10
4269.126902063198
 20
1649.671872223581
  0
LWPOLYLINE
  5
12F9
330
1F
100
AcDbEntity
  8
SANINDUSA
100
AcDbPolyline
 90
       23
 70
   128
 43
0.0
 10
4269.091902059323
 20
1649.642755444015
 10
4269.092080184079
 20
1649.642734165157
 10
4269.092610933639
 20
1649.642670716012
 10
4269.093483500935
 20
1649.642566437686
 10
4269.094680123783
 20
1649.642423416341
 10
4269.096176442511
 20
1649.642244572605
 10
4269.097941999144
 20
1649.642033572162
 10
4269.099940844632
 20
1649.641794676746
 10
4269.102132298804
 20
1649.641532744135
 10
4269.104471740134
 20
1649.641253138746
 10
4269.106911551959
 20
1649.640961552823
 10
4269.10940206126
 20
1649.640663887227
 10
4269.111892570562
 20
1649.640366221631
 10
4269.114332378662
 20
1649.640074635709
 10
4269.116671823717
 20
1649.639795030321
 10
4269.118863274164
 20
1649.639533097709
 10
4269.120862123378
 20
1649.639294202293
 10
4269.122627680011
 20
1649.63908320185
 10
4269.124123995013
 20
1649.638904358114
 10
4269.125320617861
 20
1649.638761336769
 10
4269.126193185157
 20
1649.638657058442
 10
4269.126723934717
 20
1649.638593609298
 10
4269.126902063198
 20
1649.63857233044
  0
LINE
  5
12FA
330
1F
100
AcDbEntity
  8
SANINDUSA
100
AcDbLine
 10
4269.104402062303
 20
1649.136639769043
 30
0.0
 11
4269.104402062303
 21
1649.10663976785
 31
0.0
  0
LINE
  5
12FB
330
1F
100
AcDbEntity
  8
SANINDUSA
100
AcDbLine
 10
4269.146402058012
 20
1649.10663976785
 30
0.0
 11
4269.146402058012
 21
1649.136639769043
 31
0.0
  0
LINE
  5
12FC
330
1F
100
AcDbEntity
  8
SANINDUSA
100
AcDbLine
 10
4269.137613651163
 20
1649.555557544197
 30
0.0
 11
4269.147402812548
 21
1649.553514922822
 31
0.0
  0
LINE
  5
12FD
330
1F
100
AcDbEntity
  8
SANINDUSA
100
AcDbLine
 10
4269.149402064092
 20
1649.612053359712
 30
0.0
 11
4269.149402064092
 21
1649.631445194448
 31
0.0
  0
ARC
  5
12FE
330
1F
100
AcDbEntity
  8
SANINDUSA
100
AcDbCircle
 10
4269.144402060516
 20
1649.631445187944
 30
0.0
 40
0.005
100
AcDbArc
 50
0.0
 51
83.18447146664437
  0
ARC
  5
12FF
330
1F
100
AcDbEntity
  8
SANINDUSA
100
AcDbCircle
 10
4269.154402060514
 20
1649.666150397673
 30
0.0
 40
0.0050000000000002
100
AcDbArc
 50
0.0
 51
88.50000000216311
  0
LINE
  5
1300
330
1F
100
AcDbEntity
  8
SANINDUSA
100
AcDbLine
 10
4269.159402062006
 20
1649.611537272895
 30
0.0
 11
4269.159402062006
 21
1649.666150386299
 31
0.0
  0
ARC
  5
1301
330
1F
100
AcDbEntity
  8
SANINDUSA
100
AcDbCircle
 10
4269.154402060514
 20
1649.611537274012
 30
0.0
 40
0.005
100
AcDbArc
 50
348.2137816651797
 51
0.0
  0
LINE
  5
1302
330
1F
100
AcDbEntity
  8
SANINDUSA
100
AcDbLine
 10
4269.149402064092
 20
1649.612053359712
 30
0.0
 11
4269.137613651163
 21
1649.555557544197
 31
0.0
  0
LINE
  5
1303
330
1F
100
AcDbEntity
  8
SANINDUSA
100
AcDbLine
 10
4269.126902063198
 20
1649.671872223581
 30
0.0
 11
4269.154532943672
 21
1649.671148682798
 31
0.0
  0
LINE
  5
1304
330
1F
100
AcDbEntity
  8
SANINDUSA
100
AcDbLine
 10
4269.126902063198
 20
1649.63857233044
 30
0.0
 11
4269.144995425648
 21
1649.636409844125
 31
0.0
  0
LINE
  5
1305
330
1F
100
AcDbEntity
  8
SANINDUSA
100
AcDbLine
 10
4269.159296643741
 20
1649.61051597711
 30
0.0
 11
4269.147402812548
 21
1649.553514922822
 31
0.0
  0
LWPOLYLINE
  5
1306
330
1F
100
AcDbEntity
  8
SANINDUSA
100
AcDbPolyline
 90
       18
 70
   128
 43
0.0
 10
4269.133222047991
 20
1649.534510846103
 10
4269.133259435005
 20
1649.534690017665
 10
4269.133370321996
 20
1649.535221452678
 10
4269.13355093897
 20
1649.536087061132
 10
4269.133795131749
 20
1649.537257338727
 10
4269.134094585485
 20
1649.53869243976
 10
4269.134439092882
 20
1649.540343518222
 10
4269.134816941625
 20
1649.542154337133
 10
4269.135215242214
 20
1649.544063205684
 10
4269.135620449491
 20
1649.546005154813
 10
4269.136018757529
 20
1649.547914053167
 10
4269.136396598823
 20
1649.549724842275
 10
4269.136741113669
 20
1649.551375920738
 10
4269.137040567405
 20
1649.552811051572
 10
4269.137284752734
 20
1649.553981329168
 10
4269.137465369708
 20
1649.554846937621
 10
4269.137576264149
 20
1649.555378372635
 10
4269.137613651163
 20
1649.555557544197
  0
LWPOLYLINE
  5
1307
330
1F
100
AcDbEntity
  8
SANINDUSA
100
AcDbPolyline
 90
       18
 70
   128
 43
0.0
 10
4269.143011209376
 20
1649.532468224729
 10
4269.143048596389
 20
1649.532647396291
 10
4269.14315949083
 20
1649.533178861106
 10
4269.143340107805
 20
1649.534044439758
 10
4269.143584293134
 20
1649.535214717353
 10
4269.14388374687
 20
1649.536649848188
 10
4269.144228261716
 20
1649.538300926651
 10
4269.14460610301
 20
1649.540111745561
 10
4269.145004411049
 20
1649.542020614112
 10
4269.145409618325
 20
1649.543962563242
 10
4269.145807926364
 20
1649.545871431793
 10
4269.146185767658
 20
1649.547682250704
 10
4269.146530282504
 20
1649.549333329166
 10
4269.146829728788
 20
1649.550768430198
 10
4269.147073921568
 20
1649.551938707794
 10
4269.147254538543
 20
1649.552804316248
 10
4269.147365425534
 20
1649.55333575126
 10
4269.147402812548
 20
1649.553514922822
  0
LINE
  5
1308
330
1F
100
AcDbEntity
  8
SANINDUSA
100
AcDbLine
 10
4269.165988896793
 20
1649.190117585326
 30
0.0
 11
4269.165988896793
 21
1649.18117303666
 31
0.0
  0
ARC
  5
1309
330
1F
100
AcDbEntity
  8
SANINDUSA
100
AcDbCircle
 10
4269.176988899965
 20
1649.189338404547
 30
0.0
 40
0.0010000000000001
100
AcDbArc
 50
0.0
 51
87.01251892028446
  0
LINE
  5
130A
330
1F
100
AcDbEntity
  8
SANINDUSA
100
AcDbLine
 10
4269.177988898761
 20
1649.180279257561
 30
0.0
 11
4269.177988898761
 21
1649.189338403607
 31
0.0
  0
ARC
  5
130B
330
1F
100
AcDbEntity
  8
SANINDUSA
100
AcDbCircle
 10
4269.166988899964
 20
1649.190117582872
 30
0.0
 40
0.0010000000000002
100
AcDbArc
 50
84.07675898349278
 51
180.0
  0
ARC
  5
130C
330
1F
100
AcDbEntity
  8
SANINDUSA
100
AcDbCircle
 10
4269.187192412147
 20
1649.384850364184
 30
0.0
 40
0.1947780325311865
100
AcDbArc
 50
264.0767589834928
 51
267.0125189202845
  0
ARC
  5
130D
330
1F
100
AcDbEntity
  8
SANINDUSA
100
AcDbCircle
 10
4269.187192412147
 20
1649.384850364184
 30
0.0
 40
0.2047780325311863
100
AcDbArc
 50
264.0567202102781
 51
267.4240396602105
  0
ARC
  5
130E
330
1F
100
AcDbEntity
  8
SANINDUSA
100
AcDbCircle
 10
4269.203988899964
 20
1649.189794177359
 30
0.0
 40
0.0010000000000002
100
AcDbArc
 50
0.0
 51
94.92165728540305
  0
LINE
  5
130F
330
1F
100
AcDbEntity
  8
SANINDUSA
100
AcDbLine
 10
4269.204988893874
 20
1649.180847111011
 30
0.0
 11
4269.204988893874
 21
1649.189794177974
 31
0.0
  0
LINE
  5
1310
330
1F
100
AcDbEntity
  8
SANINDUSA
100
AcDbLine
 10
4269.192988899357
 20
1649.189190338219
 30
0.0
 11
4269.192988899357
 21
1649.18015438583
 31
0.0
  0
ARC
  5
1311
330
1F
100
AcDbEntity
  8
SANINDUSA
100
AcDbCircle
 10
4269.193988899965
 20
1649.189190338182
 30
0.0
 40
0.001
100
AcDbArc
 50
91.98943834243756
 51
180.0
  0
ARC
  5
1312
330
1F
100
AcDbEntity
  8
SANINDUSA
100
AcDbCircle
 10
4269.187192412147
 20
1649.384850364184
 30
0.0
 40
0.1947780325311864
100
AcDbArc
 50
271.9894383424375
 51
274.921657285403
  0
ARC
  5
1313
330
1F
100
AcDbEntity
  8
SANINDUSA
100
AcDbCircle
 10
4269.187192412147
 20
1649.384850364184
 30
0.0
 40
0.2047780325311866
100
AcDbArc
 50
271.6220423968037
 51
274.9856498137857
  0
SPLINE
  5
1314
330
1F
100
AcDbEntity
  8
SANINDUSA
100
AcDbSpline
210
0.0
220
0.0
230
1.0
 70
    24
 71
     3
 72
    20
 73
    16
 74
     0
 42
0.0000000001
 43
0.0000000001
 40
0.0
 40
0.0
 40
0.0
 40
0.0
 40
0.2500000000000023
 40
0.2500000000000023
 40
0.3750000000000019
 40
0.3750000000000019
 40
0.5000000000000016
 40
0.5000000000000016
 40
0.6250000000000013
 40
0.6250000000000013
 40
0.7500000000000008
 40
0.7500000000000008
 40
0.8750000000000003
 40
0.8750000000000003
 40
1.0
 40
1.0
 40
1.0
 40
1.0
 10
4269.150178929008
 20
1649.193621485553
 30
0.0
 10
4269.150178929008
 20
1649.193621485553
 30
0.0
 10
4269.150285803945
 20
1649.193600721459
 30
0.0
 10
4269.150586316034
 20
1649.193543056201
 30
0.0
 10
4269.150711549595
 20
1649.193519105114
 30
0.0
 10
4269.151003476377
 20
1649.193463674579
 30
0.0
 10
4269.151168667213
 20
1649.193432478888
 30
0.0
 10
4269.151536725781
 20
1649.193363578634
 30
0.0
 10
4269.151741720579
 20
1649.193325487027
 30
0.0
 10
4269.152173324756
 20
1649.193246101128
 30
0.0
 10
4269.152401301517
 20
1649.193204544516
 30
0.0
 10
4269.152881893377
 20
1649.19311792072
 30
0.0
 10
4269.15313326103
 20
1649.193073091742
 30
0.0
 10
4269.153639438949
 20
1649.192983884595
 30
0.0
 10
4269.153896757472
 20
1649.192939051664
 30
0.0
 10
4269.154158497706
 20
1649.192894008589
 30
0.0
  0
SPLINE
  5
1315
330
1F
100
AcDbEntity
  8
SANINDUSA
100
AcDbSpline
210
0.0
220
0.0
230
1.0
 70
    24
 71
     3
 72
    22
 73
    18
 74
     0
 42
0.0000000001
 43
0.0000000001
 40
0.0
 40
0.0
 40
0.0
 40
0.0
 40
0.1249999999999999
 40
0.1249999999999999
 40
0.2499999999999999
 40
0.2499999999999999
 40
0.3749999999999999
 40
0.3749999999999999
 40
0.5
 40
0.5
 40
0.625
 40
0.625
 40
0.75
 40
0.75
 40
0.8749999999999998
 40
0.8749999999999998
 40
1.0
 40
1.0
 40
1.0
 40
1.0
 10
4269.203903106439
 20
1649.190790490297
 30
0.0
 10
4269.203903106439
 20
1649.190790490297
 30
0.0
 10
4269.203928871319
 20
1649.190792703807
 30
0.0
 10
4269.204031634759
 20
1649.19080159403
 30
0.0
 10
4269.204107998365
 20
1649.190808217101
 30
0.0
 10
4269.204306683302
 20
1649.190825639924
 30
0.0
 10
4269.204430574621
 20
1649.190836578498
 30
0.0
 10
4269.204721470994
 20
1649.190862644527
 30
0.0
 10
4269.204886212138
 20
1649.190877568658
 30
0.0
 10
4269.205253468302
 20
1649.190911419634
 30
0.0
 10
4269.205458368877
 20
1649.190930576748
 30
0.0
 10
4269.20589081806
 20
1649.190971797161
 30
0.0
 10
4269.206119333378
 20
1649.190993942525
 30
0.0
 10
4269.206601168647
 20
1649.191041590552
 30
0.0
 10
4269.206853703299
 20
1649.191067029445
 30
0.0
 10
4269.207361851528
 20
1649.191119259538
 30
0.0
 10
4269.207620093926
 20
1649.191146307671
 30
0.0
 10
4269.207882675137
 20
1649.191174359026
 30
0.0
  0
SPLINE
  5
1316
330
1F
100
AcDbEntity
  8
SANINDUSA
100
AcDbSpline
210
0.0
220
0.0
230
1.0
 70
    24
 71
     3
 72
    22
 73
    18
 74
     0
 42
0.0000000001
 43
0.0000000001
 40
0.0
 40
0.0
 40
0.0
 40
0.0
 40
0.125
 40
0.125
 40
0.25
 40
0.25
 40
0.375
 40
0.375
 40
0.5
 40
0.5
 40
0.625
 40
0.625
 40
0.75
 40
0.75
 40
0.875
 40
0.875
 40
1.0
 40
1.0
 40
1.0
 40
1.0
 10
4269.177041017723
 20
1649.190337045494
 30
0.0
 10
4269.177041017723
 20
1649.190337045494
 30
0.0
 10
4269.177066677985
 20
1649.190335701271
 30
0.0
 10
4269.177168984613
 20
1649.190330402533
 30
0.0
 10
4269.177245128067
 20
1649.19032647536
 30
0.0
 10
4269.177443135752
 20
1649.190316450962
 30
0.0
 10
4269.177566469021
 20
1649.190310280161
 30
0.0
 10
4269.177856750229
 20
1649.190296133983
 30
0.0
 10
4269.178021173697
 20
1649.190288281508
 30
0.0
 10
4269.178387787234
 20
1649.190271346276
 30
0.0
 10
4269.178592424842
 20
1649.190262160483
 30
0.0
 10
4269.179024894573
 20
1649.190243528596
 30
0.0
 10
4269.179253508273
 20
1649.190234039072
 30
0.0
 10
4269.179735781746
 20
1649.190214964378
 30
0.0
 10
4269.179988837013
 20
1649.190205417151
 30
0.0
 10
4269.180498192616
 20
1649.190187233815
 30
0.0
 10
4269.180757153264
 20
1649.190178489311
 30
0.0
 10
4269.181020586422
 20
1649.190170137854
 30
0.0
  0
SPLINE
  5
1317
330
1F
100
AcDbEntity
  8
SANINDUSA
100
AcDbSpline
210
0.0
220
0.0
230
1.0
 70
    24
 71
     3
 72
    22
 73
    18
 74
     0
 42
0.0000000001
 43
0.0000000001
 40
0.0
 40
0.0
 40
0.0
 40
0.0
 40
0.125
 40
0.125
 40
0.2500000000000001
 40
0.2500000000000001
 40
0.3750000000000002
 40
0.3750000000000002
 40
0.5000000000000002
 40
0.5000000000000002
 40
0.6250000000000001
 40
0.6250000000000001
 40
0.7500000000000001
 40
0.7500000000000001
 40
0.875
 40
0.875
 40
1.0
 40
1.0
 40
1.0
 40
1.0
 10
4269.189974615993
 20
1649.190092203127
 30
0.0
 10
4269.190238076418
 20
1649.190095966772
 30
0.0
 10
4269.190498615897
 20
1649.190100223298
 30
0.0
 10
4269.191013900399
 20
1649.190109653017
 30
0.0
 10
4269.19126453519
 20
1649.190114755788
 30
0.0
 10
4269.19174361084
 20
1649.19012536334
 30
0.0
 10
4269.191975296793
 20
1649.190130942414
 30
0.0
 10
4269.192409864762
 20
1649.190142101934
 30
0.0
 10
4269.192609875167
 20
1649.190147599352
 30
0.0
 10
4269.192976230686
 20
1649.190158137884
 30
0.0
 10
4269.193143792391
 20
1649.190163220949
 30
0.0
 10
4269.193431477662
 20
1649.190172227946
 30
0.0
 10
4269.193553175571
 20
1649.190176194004
 30
0.0
 10
4269.193751960775
 20
1649.190182790694
 30
0.0
 10
4269.193828030447
 20
1649.190185387737
 30
0.0
 10
4269.193928543024
 20
1649.190188839927
 30
0.0
 10
4269.193954184692
 20
1649.190189735425
 30
0.0
 10
4269.193954184692
 20
1649.190189735425
 30
0.0
  0
SPLINE
  5
1318
330
1F
100
AcDbEntity
  8
SANINDUSA
100
AcDbSpline
210
0.0
220
0.0
230
1.0
 70
    24
 71
     3
 72
    22
 73
    18
 74
     0
 42
0.0000000001
 43
0.0000000001
 40
0.0
 40
0.0
 40
0.0
 40
0.0
 40
0.1249999999999999
 40
0.1249999999999999
 40
0.2499999999999998
 40
0.2499999999999998
 40
0.3749999999999996
 40
0.3749999999999996
 40
0.4999999999999996
 40
0.4999999999999996
 40
0.6249999999999997
 40
0.6249999999999997
 40
0.7499999999999999
 40
0.7499999999999999
 40
0.8749999999999998
 40
0.8749999999999998
 40
1.0
 40
1.0
 40
1.0
 40
1.0
 10
4269.216836704709
 20
1649.192341408872
 30
0.0
 10
4269.217098731785
 20
1649.192381758202
 30
0.0
 10
4269.217357698563
 20
1649.192422183817
 30
0.0
 10
4269.217869594384
 20
1649.192503127151
 30
0.0
 10
4269.218119991186
 20
1649.192543252274
 30
0.0
 10
4269.218597411125
 20
1649.192620640999
 30
0.0
 10
4269.218827497947
 20
1649.19265839781
 30
0.0
 10
4269.219262628848
 20
1649.192730527122
 30
0.0
 10
4269.21946296856
 20
1649.192764113223
 30
0.0
 10
4269.219830123069
 20
1649.192826156217
 30
0.0
 10
4269.219998359182
 20
1649.192854860549
 30
0.0
 10
4269.220288198084
 20
1649.19290461005
 30
0.0
 10
4269.220410909002
 20
1649.192925837904
 30
0.0
 10
4269.220611519389
 20
1649.192960667764
 30
0.0
 10
4269.220688562523
 20
1649.19297412143
 30
0.0
 10
4269.220790298759
 20
1649.192991909487
 30
0.0
 10
4269.220816273406
 20
1649.19299646688
 30
0.0
 10
4269.220816273406
 20
1649.19299646688
 30
0.0
  0
SPLINE
  5
1319
330
1F
100
AcDbEntity
  8
SANINDUSA
100
AcDbSpline
210
0.0
220
0.0
230
1.0
 70
    24
 71
     3
 72
    22
 73
    18
 74
     0
 42
0.0000000001
 43
0.0000000001
 40
0.0
 40
0.0
 40
0.0
 40
0.0
 40
0.125
 40
0.125
 40
0.25
 40
0.25
 40
0.3750000000000001
 40
0.3750000000000001
 40
0.5000000000000001
 40
0.5000000000000001
 40
0.6250000000000001
 40
0.6250000000000001
 40
0.7500000000000002
 40
0.7500000000000002
 40
0.8750000000000001
 40
0.8750000000000001
 40
1.0
 40
1.0
 40
1.0
 40
1.0
 10
4269.163112527277
 20
1649.191566528591
 30
0.0
 10
4269.1633747886
 20
1649.191533855282
 30
0.0
 10
4269.16363419591
 20
1649.191502079504
 30
0.0
 10
4269.164147336622
 20
1649.191440247502
 30
0.0
 10
4269.164397770341
 20
1649.191410595206
 30
0.0
 10
4269.164876030741
 20
1649.191354837006
 30
0.0
 10
4269.165107103012
 20
1649.191328352516
 30
0.0
 10
4269.165542160553
 20
1649.191279197722
 30
0.0
 10
4269.165742484575
 20
1649.191256932851
 30
0.0
 10
4269.166109553101
 20
1649.191216614279
 30
0.0
 10
4269.166277618602
 20
1649.191198422603
 30
0.0
 10
4269.166566550842
 20
1649.191167435374
 30
0.0
 10
4269.166688818745
 20
1649.191154482186
 30
0.0
 10
4269.166888599566
 20
1649.191133438645
 30
0.0
 10
4269.166965160844
 20
1649.191125448786
 30
0.0
 10
4269.167066290622
 20
1649.191114916282
 30
0.0
 10
4269.167092095977
 20
1649.191112243912
 30
0.0
 10
4269.167092095977
 20
1649.191112243912
 30
0.0
  0
SPLINE
  5
131A
330
1F
100
AcDbEntity
  8
SANINDUSA
100
AcDbSpline
210
0.0
220
0.0
230
1.0
 70
    24
 71
     3
 72
    20
 73
    16
 74
     0
 42
0.0000000001
 43
0.0000000001
 40
0.0
 40
0.0
 40
0.0
 40
0.0
 40
0.125
 40
0.125
 40
0.25
 40
0.25
 40
0.3750000000000001
 40
0.3750000000000001
 40
0.5000000000000002
 40
0.5000000000000002
 40
0.6250000000000004
 40
0.6250000000000004
 40
0.7500000000000004
 40
0.7500000000000004
 40
1.0
 40
1.0
 40
1.0
 40
1.0
 10
4269.153988899964
 20
1649.182782134652
 30
0.0
 10
4269.153792029958
 20
1649.182814484001
 30
0.0
 10
4269.153598426789
 20
1649.182846591818
 30
0.0
 10
4269.153217481766
 20
1649.182910313654
 30
0.0
 10
4269.153028266539
 20
1649.182942247799
 30
0.0
 10
4269.1526663174
 20
1649.183003825723
 30
0.0
 10
4269.152494527992
 20
1649.183033301724
 30
0.0
 10
4269.152169150898
 20
1649.183089513084
 30
0.0
 10
4269.152014534539
 20
1649.183116431958
 30
0.0
 10
4269.151736788059
 20
1649.183165061782
 30
0.0
 10
4269.151612056949
 20
1649.183187047069
 30
0.0
 10
4269.151391533188
 20
1649.183226079407
 30
0.0
 10
4269.151296914994
 20
1649.183242919364
 30
0.0
 10
4269.151069768382
 20
1649.183283450043
 30
0.0
 10
4269.150988899965
 20
1649.183298017849
 30
0.0
 10
4269.150988899965
 20
1649.183298017849
 30
0.0
  0
SPLINE
  5
131B
330
1F
100
AcDbEntity
  8
SANINDUSA
100
AcDbSpline
210
0.0
220
0.0
230
1.0
 70
    24
 71
     3
 72
    20
 73
    16
 74
     0
 42
0.0000000001
 43
0.0000000001
 40
0.0
 40
0.0
 40
0.0
 40
0.0
 40
0.125
 40
0.125
 40
0.25
 40
0.25
 40
0.375
 40
0.375
 40
0.5
 40
0.5
 40
0.625
 40
0.625
 40
0.75
 40
0.75
 40
1.0
 40
1.0
 40
1.0
 40
1.0
 10
4269.207988899965
 20
1649.181131075206
 30
0.0
 10
4269.207791398172
 20
1649.181110913425
 30
0.0
 10
4269.207597134706
 20
1649.181091372228
 30
0.0
 10
4269.207214831618
 20
1649.181053450016
 30
0.0
 10
4269.207024839826
 20
1649.181034882377
 30
0.0
 10
4269.206662078643
 20
1649.180999909441
 30
0.0
 10
4269.206489950921
 20
1649.180983558673
 30
0.0
 10
4269.206164062007
 20
1649.180952973584
 30
0.0
 10
4269.206009532843
 20
1649.180938672652
 30
0.0
 10
4269.205732360783
 20
1649.180913284968
 30
0.0
 10
4269.205607945699
 20
1649.180902030265
 30
0.0
 10
4269.205388130255
 20
1649.180882301422
 30
0.0
 10
4269.205294399755
 20
1649.180873977448
 30
0.0
 10
4269.205068901384
 20
1649.180854049227
 30
0.0
 10
4269.204988899964
 20
1649.180847110218
 30
0.0
 10
4269.204988899964
 20
1649.180847110218
 30
0.0
  0
SPLINE
  5
131C
330
1F
100
AcDbEntity
  8
SANINDUSA
100
AcDbSpline
210
0.0
220
0.0
230
1.0
 70
    24
 71
     3
 72
    22
 73
    18
 74
     0
 42
0.0000000001
 43
0.0000000001
 40
0.0
 40
0.0
 40
0.0
 40
0.0
 40
0.125
 40
0.125
 40
0.25
 40
0.25
 40
0.3750000000000001
 40
0.3750000000000001
 40
0.5000000000000001
 40
0.5000000000000001
 40
0.6250000000000001
 40
0.6250000000000001
 40
0.7500000000000002
 40
0.7500000000000002
 40
0.8750000000000001
 40
0.8750000000000001
 40
1.0
 40
1.0
 40
1.0
 40
1.0
 10
4269.219988899965
 20
1649.182715673954
 30
0.0
 10
4269.219988899965
 20
1649.182715673954
 30
0.0
 10
4269.219969245162
 20
1649.182712482172
 30
0.0
 10
4269.219892289717
 20
1649.182700018813
 30
0.0
 10
4269.21983401136
 20
1649.182690589479
 30
0.0
 10
4269.219682338066
 20
1649.182666158022
 30
0.0
 10
4269.2195895936
 20
1649.182651260499
 30
0.0
 10
4269.219370646625
 20
1649.182616301467
 30
0.0
 10
4269.219243597681
 20
1649.18259610889
 30
0.0
 10
4269.218966515839
 20
1649.182552394315
 30
0.0
 10
4269.218815404586
 20
1649.182528698266
 30
0.0
 10
4269.218487420041
 20
1649.182477706367
 30
0.0
 10
4269.218314013128
 20
1649.182450953035
 30
0.0
 10
4269.217954465515
 20
1649.182395994625
 30
0.0
 10
4269.217766033326
 20
1649.182367440879
 30
0.0
 10
4269.21738080622
 20
1649.182309648757
 30
0.0
 10
4269.217185974981
 20
1649.182280700921
 30
0.0
 10
4269.216988899965
 20
1649.182251716802
 30
0.0
  0
SPLINE
  5
131D
330
1F
100
AcDbEntity
  8
SANINDUSA
100
AcDbSpline
210
0.0
220
0.0
230
1.0
 70
    24
 71
     3
 72
    20
 73
    16
 74
     0
 42
0.0000000001
 43
0.0000000001
 40
0.0
 40
0.0
 40
0.0
 40
0.0
 40
0.125
 40
0.125
 40
0.2500000000000002
 40
0.2500000000000002
 40
0.3750000000000002
 40
0.3750000000000002
 40
0.5000000000000001
 40
0.5000000000000001
 40
0.6250000000000001
 40
0.6250000000000001
 40
0.7500000000000001
 40
0.7500000000000001
 40
1.0
 40
1.0
 40
1.0
 40
1.0
 10
4269.180988899965
 20
1649.180166317312
 30
0.0
 10
4269.180790842356
 20
1649.180172319992
 30
0.0
 10
4269.180596100002
 20
1649.180178509718
 30
0.0
 10
4269.180212972124
 20
1649.180191216425
 30
0.0
 10
4269.180022609481
 20
1649.180197806082
 30
0.0
 10
4269.17965952155
 20
1649.180210849018
 30
0.0
 10
4269.179487307662
 20
1649.18021727651
 30
0.0
 10
4269.179161364633
 20
1649.180229809297
 30
0.0
 10
4269.179006998056
 20
1649.180235944403
 30
0.0
 10
4269.178730252162
 20
1649.180247202834
 30
0.0
 10
4269.178606050786
 20
1649.180252394837
 30
0.0
 10
4269.178386657371
 20
1649.18026171996
 30
0.0
 10
4269.178293330652
 20
1649.180265773904
 30
0.0
 10
4269.178068567291
 20
1649.180275633197
 30
0.0
 10
4269.177988899964
 20
1649.180279256813
 30
0.0
 10
4269.177988899964
 20
1649.180279256813
 30
0.0
  0
SPLINE
  5
131E
330
1F
100
AcDbEntity
  8
SANINDUSA
100
AcDbSpline
210
0.0
220
0.0
230
1.0
 70
    24
 71
     3
 72
    22
 73
    18
 74
     0
 42
0.0000000001
 43
0.0000000001
 40
0.0
 40
0.0
 40
0.0
 40
0.0
 40
0.125
 40
0.125
 40
0.25
 40
0.25
 40
0.375
 40
0.375
 40
0.5
 40
0.5
 40
0.625
 40
0.625
 40
0.75
 40
0.75
 40
0.875
 40
0.875
 40
1.0
 40
1.0
 40
1.0
 40
1.0
 10
4269.165988899964
 20
1649.181173036829
 30
0.0
 10
4269.165988899964
 20
1649.181173036829
 30
0.0
 10
4269.165969351244
 20
1649.181175069229
 30
0.0
 10
4269.165892777582
 20
1649.181183062791
 30
0.0
 10
4269.165834802136
 20
1649.181189123698
 30
0.0
 10
4269.165683659678
 20
1649.181205030457
 30
0.0
 10
4269.165591200979
 20
1649.181214801625
 30
0.0
 10
4269.165372843589
 20
1649.181238082897
 30
0.0
 10
4269.165245920005
 20
1649.18125170629
 30
0.0
 10
4269.164968932686
 20
1649.181281754192
 30
0.0
 10
4269.164817850521
 20
1649.181298285318
 30
0.0
 10
4269.164489937492
 20
1649.181334597072
 30
0.0
 10
4269.164315939738
 20
1649.181354068281
 30
0.0
 10
4269.16395587059
 20
1649.181394868872
 30
0.0
 10
4269.163767400276
 20
1649.181416470279
 30
0.0
 10
4269.163381340078
 20
1649.181461295605
 30
0.0
 10
4269.163186187812
 20
1649.181484233094
 30
0.0
 10
4269.162988899965
 20
1649.181507715914
 30
0.0
  0
SPLINE
  5
131F
330
1F
100
AcDbEntity
  8
SANINDUSA
100
AcDbSpline
210
0.0
220
0.0
230
1.0
 70
    24
 71
     3
 72
    20
 73
    16
 74
     0
 42
0.0000000001
 43
0.0000000001
 40
0.0
 40
0.0
 40
0.0
 40
0.0
 40
0.125
 40
0.125
 40
0.25
 40
0.25
 40
0.375
 40
0.375
 40
0.5
 40
0.5
 40
0.625
 40
0.625
 40
0.75
 40
0.75
 40
1.0
 40
1.0
 40
1.0
 40
1.0
 10
4269.192988899964
 20
1649.180154386362
 30
0.0
 10
4269.192988899964
 20
1649.180154386362
 30
0.0
 10
4269.192969470405
 20
1649.180153833546
 30
0.0
 10
4269.192893343507
 20
1649.180151699218
 30
0.0
 10
4269.192835723635
 20
1649.180150092312
 30
0.0
 10
4269.192685289652
 20
1649.180146000366
 30
0.0
 10
4269.192593233948
 20
1649.180143535857
 30
0.0
 10
4269.192375752697
 20
1649.180137913609
 30
0.0
 10
4269.192249167041
 20
1649.180134729793
 30
0.0
 10
4269.191972646507
 20
1649.180128086223
 30
0.0
 10
4269.19182176739
 20
1649.180124600002
 30
0.0
 10
4269.191494172607
 20
1649.180117454503
 30
0.0
 10
4269.191319705447
 20
1649.180113849149
 30
0.0
 10
4269.190778712999
 20
1649.180103419936
 30
0.0
 10
4269.190385065384
 20
1649.180096837843
 30
0.0
 10
4269.189988899965
 20
1649.180091427228
 30
0.0
  0
ARC
  5
1320
330
1F
100
AcDbEntity
  8
SANINDUSA
100
AcDbCircle
 10
4269.187192412147
 20
1649.384850364184
 30
0.0
 40
0.2047780325311866
100
AcDbArc
 50
260.6686412651807
 51
263.2121217388652
  0
ARC
  5
1321
330
1F
100
AcDbEntity
  8
SANINDUSA
100
AcDbCircle
 10
4269.187192412147
 20
1649.384850364184
 30
0.0
 40
0.1947780325311864
100
AcDbArc
 50
260.235568262969
 51
262.8985082055617
  0
ARC
  5
1322
330
1F
100
AcDbEntity
  8
SANINDUSA
100
AcDbCircle
 10
4269.187192412147
 20
1649.384850364184
 30
0.0
 40
0.1947780325311864
100
AcDbArc
 50
268.1841958011704
 51
270.8184391273635
  0
ARC
  5
1323
330
1F
100
AcDbEntity
  8
SANINDUSA
100
AcDbCircle
 10
4269.187192412147
 20
1649.384850364184
 30
0.0
 40
0.2047780325311864
100
AcDbArc
 50
268.264025457256
 51
270.7824663888668
  0
ARC
  5
1324
330
1F
100
AcDbEntity
  8
SANINDUSA
100
AcDbCircle
 10
4269.187192412147
 20
1649.384850364184
 30
0.0
 40
0.2047780325311864
100
AcDbArc
 50
275.8287929671649
 51
278.3665972671989
  0
ARC
  5
1325
330
1F
100
AcDbEntity
  8
SANINDUSA
100
AcDbCircle
 10
4269.187192412147
 20
1649.384850364184
 30
0.0
 40
0.1947780325311866
100
AcDbArc
 50
276.0977386949448
 51
278.7541663664539
  0
LWPOLYLINE
  5
1326
330
1F
100
AcDbEntity
  8
SANINDUSA
100
AcDbPolyline
 90
       11
 70
   128
 43
0.0
 10
4269.327527624375
 20
1649.301672099943
 10
4269.329683405167
 20
1649.299707771132
 10
4269.331714999682
 20
1649.297856579388
 10
4269.333590430028
 20
1649.296147671381
 10
4269.335280221707
 20
1649.294607953022
 10
4269.336757701642
 20
1649.293261670361
 10
4269.337999624021
 20
1649.292130018438
 10
4269.338986468322
 20
1649.291230813454
 10
4269.339702677734
 20
1649.290578218962
 10
4269.340136957175
 20
1649.290182505588
 10
4269.340282481915
 20
1649.29004990388
  0
LINE
  5
1327
330
1F
100
AcDbEntity
  8
SANINDUSA
100
AcDbLine
 10
4269.149402064092
 20
1649.023879150713
 30
0.0
 11
4269.149402272709
 21
1649.023880670632
 31
0.0
  0
LWPOLYLINE
  5
1328
330
1F
100
AcDbEntity
  8
SANINDUSA
100
AcDbPolyline
 90
       15
 70
   128
 43
0.0
 10
4269.142450784154
 20
1648.955814475979
 10
4269.142255847163
 20
1648.955809379781
 10
4269.141673375673
 20
1648.955794120992
 10
4269.14071037323
 20
1648.955768908227
 10
4269.139378432936
 20
1648.95573403951
 10
4269.137693573542
 20
1648.955689902271
 10
4269.135676053173
 20
1648.955637092555
 10
4269.133350145824
 20
1648.955576176609
 10
4269.130743828423
 20
1648.95550792929
 10
4269.127888453014
 20
1648.955433155263
 10
4269.124818359322
 20
1648.955352748598
 10
4269.121570479877
 20
1648.955267722572
 10
4269.118183881796
 20
1648.955179030861
 10
4269.114699297405
 20
1648.955087776149
 10
4269.11115864367
 20
1648.954995061124
  0
LINE
  5
1329
330
1F
100
AcDbEntity
  8
SANINDUSA
100
AcDbLine
 10
4269.16756392718
 20
1649.447430859173
 30
0.0
 11
4269.327527624375
 21
1649.301672099943
 31
0.0
  0
LINE
  5
132A
330
1F
100
AcDbEntity
  8
SANINDUSA
100
AcDbLine
 10
4269.059402060515
 20
1649.379708397056
 30
0.0
 11
4269.059402060515
 21
1649.401694993342
 31
0.0
  0
LINE
  5
132B
330
1F
100
AcDbEntity
  8
SANINDUSA
100
AcDbLine
 10
4269.059402060515
 20
1649.200583333934
 30
0.0
 11
4269.059402060515
 21
1649.220571151788
 31
0.0
  0
LINE
  5
132C
330
1F
100
AcDbEntity
  8
SANINDUSA
100
AcDbLine
 10
4269.059402060515
 20
1649.34058333453
 30
0.0
 11
4269.059402060515
 21
1649.360571148658
 31
0.0
  0
LINE
  5
132D
330
1F
100
AcDbEntity
  8
SANINDUSA
100
AcDbLine
 10
4269.059402060515
 20
1649.439583341445
 30
0.0
 11
4269.059402060515
 21
1649.459571148122
 31
0.0
  0
SPLINE
  5
132E
330
1F
100
AcDbEntity
  8
SANINDUSA
100
AcDbSpline
210
0.0
220
0.0
230
1.0
 70
    24
 71
     3
 72
    28
 73
    24
 74
     0
 42
0.0000000001
 43
0.0000000001
 40
0.0
 40
0.0
 40
0.0
 40
0.0
 40
0.1250000000000011
 40
0.1250000000000011
 40
0.1875000000000016
 40
0.1875000000000016
 40
0.2500000000000021
 40
0.2500000000000021
 40
0.3750000000000019
 40
0.3750000000000019
 40
0.4375000000000013
 40
0.4375000000000013
 40
0.5000000000000005
 40
0.5000000000000005
 40
0.6249999999999997
 40
0.6249999999999997
 40
0.6874999999999996
 40
0.6874999999999996
 40
0.7499999999999995
 40
0.7499999999999995
 40
0.8749999999999998
 40
0.8749999999999998
 40
1.0
 40
1.0
 40
1.0
 40
1.0
 10
4269.059402060515
 20
1649.246204069258
 30
0.0
 10
4269.059402060515
 20
1649.246446555146
 30
0.0
 10
4269.059402060515
 20
1649.246793732658
 30
0.0
 10
4269.059402060515
 20
1649.247465025093
 30
0.0
 10
4269.059402060515
 20
1649.247714023417
 30
0.0
 10
4269.059402060515
 20
1649.24826311294
 30
0.0
 10
4269.059402060515
 20
1649.248563951558
 30
0.0
 10
4269.059402060515
 20
1649.249540966819
 30
0.0
 10
4269.059402060515
 20
1649.250277816164
 30
0.0
 10
4269.059402060515
 20
1649.251506492422
 30
0.0
 10
4269.059402060515
 20
1649.251936737124
 30
0.0
 10
4269.059402060515
 20
1649.252839188221
 30
0.0
 10
4269.059402060515
 20
1649.253313315356
 30
0.0
 10
4269.059402060515
 20
1649.254787365888
 30
0.0
 10
4269.059402060515
 20
1649.255826853998
 30
0.0
 10
4269.059402060515
 20
1649.257468346692
 30
0.0
 10
4269.059402060515
 20
1649.258029299521
 30
0.0
 10
4269.059402060515
 20
1649.259179226877
 30
0.0
 10
4269.059402060515
 20
1649.259771211346
 30
0.0
 10
4269.059402060515
 20
1649.261566723832
 30
0.0
 10
4269.059402060515
 20
1649.262783993143
 30
0.0
 10
4269.059402060515
 20
1649.265257504735
 30
0.0
 10
4269.059402060515
 20
1649.266513743715
 30
0.0
 10
4269.059402060515
 20
1649.267790469622
 30
0.0
  0
CIRCLE
  5
132F
330
1F
100
AcDbEntity
  8
SANINDUSA
100
AcDbCircle
 10
4269.095402060516
 20
1649.036731377693
 30
0.0
 40
0.02
  0
SPLINE
  5
1330
330
1F
100
AcDbEntity
  8
SANINDUSA
100
AcDbSpline
210
0.0
220
0.0
230
1.0
 70
    24
 71
     3
 72
    24
 73
    20
 74
     0
 42
0.0000000001
 43
0.0000000001
 40
0.0
 40
0.0
 40
0.0
 40
0.0
 40
0.1250000000000002
 40
0.1250000000000002
 40
0.2500000000000004
 40
0.2500000000000004
 40
0.3124999999999996
 40
0.3124999999999996
 40
0.3749999999999988
 40
0.3749999999999988
 40
0.4999999999999991
 40
0.4999999999999991
 40
0.6249999999999993
 40
0.6249999999999993
 40
0.7499999999999996
 40
0.7499999999999996
 40
0.8749999999999998
 40
0.8749999999999998
 40
1.0
 40
1.0
 40
1.0
 40
1.0
 10
4269.059402060515
 20
1649.496594872148
 30
0.0
 10
4269.059402060515
 20
1649.497493161782
 30
0.0
 10
4269.059402060515
 20
1649.498494978847
 30
0.0
 10
4269.059402060515
 20
1649.500697368672
 30
0.0
 10
4269.059402060515
 20
1649.501897966192
 30
0.0
 10
4269.059402060515
 20
1649.503850037264
 30
0.0
 10
4269.059402060515
 20
1649.504526006441
 30
0.0
 10
4269.059402060515
 20
1649.505929919874
 30
0.0
 10
4269.059402060515
 20
1649.50664976134
 30
0.0
 10
4269.059402060515
 20
1649.508861348678
 30
0.0
 10
4269.059402060515
 20
1649.510404989489
 30
0.0
 10
4269.059402060515
 20
1649.513628898617
 30
0.0
 10
4269.059402060515
 20
1649.515309149662
 30
0.0
 10
4269.059402060515
 20
1649.51881197794
 30
0.0
 10
4269.059402060515
 20
1649.520594271656
 30
0.0
 10
4269.059402060515
 20
1649.524217654311
 30
0.0
 10
4269.059402060515
 20
1649.526058829745
 30
0.0
 10
4269.059402060515
 20
1649.529800940927
 30
0.0
 10
4269.059402060515
 20
1649.53170880889
 30
0.0
 10
4269.059402060515
 20
1649.533614711166
 30
0.0
  0
LINE
  5
1331
330
1F
100
AcDbEntity
  8
SANINDUSA
100
AcDbLine
 10
4269.11115864367
 20
1648.954995061124
 30
0.0
 11
4269.062480591291
 21
1648.953720385993
 31
0.0
  0
ARC
  5
1332
330
1F
100
AcDbEntity
  8
SANINDUSA
100
AcDbCircle
 10
4269.062402060515
 20
1648.956719360327
 30
0.0
 40
0.0029999999999998
100
AcDbArc
 50
180.0
 51
271.4999999978369
  0
LINE
  5
1333
330
1F
100
AcDbEntity
  8
SANINDUSA
100
AcDbLine
 10
4269.059402060515
 20
1648.956719363893
 30
0.0
 11
4269.059402060515
 21
1649.200583333934
 31
0.0
  0
LINE
  5
1334
330
1F
100
AcDbEntity
  8
SANINDUSA
100
AcDbLine
 10
4269.059402060515
 20
1649.26779046966
 30
0.0
 11
4269.059402060515
 21
1649.34058333453
 31
0.0
  0
LINE
  5
1335
330
1F
100
AcDbEntity
  8
SANINDUSA
100
AcDbLine
 10
4269.059402060515
 20
1649.401694993342
 30
0.0
 11
4269.059402060515
 21
1649.439583341445
 31
0.0
  0
LINE
  5
1336
330
1F
100
AcDbEntity
  8
SANINDUSA
100
AcDbLine
 10
4269.059402060515
 20
1649.628356064523
 30
0.0
 11
4269.059402060515
 21
1649.648414964641
 31
0.0
  0
CIRCLE
  5
1337
330
1F
100
AcDbEntity
  8
SANINDUSA
100
AcDbCircle
 10
4269.095402060516
 20
1649.578894308745
 30
0.0
 40
0.02
  0
LINE
  5
1338
330
1F
100
AcDbEntity
  8
SANINDUSA
100
AcDbLine
 10
4269.059402060515
 20
1649.533614720071
 30
0.0
 11
4269.059402060515
 21
1649.628356064523
 31
0.0
  0
SPLINE
  5
1339
330
1F
100
AcDbEntity
  8
SANINDUSA
100
AcDbSpline
210
0.0
220
0.0
230
1.0
 70
    24
 71
     3
 72
    15
 73
    11
 74
     0
 42
0.0000000001
 43
0.0000000001
 40
0.0
 40
0.0
 40
0.0
 40
0.0
 40
0.0159560819031144
 40
0.0553951471568819
 40
0.0950300997308208
 40
0.2150536600897352
 40
0.335564868226591
 40
0.4560972439577402
 40
0.728017369784303
 40
1.0
 40
1.0
 40
1.0
 40
1.0
 10
4269.159402062006
 20
1649.610422219003
 30
0.0
 10
4269.159402062006
 20
1649.610171457224
 30
0.0
 10
4269.159402062006
 20
1649.609300880992
 30
0.0
 10
4269.159402062006
 20
1649.607405953798
 30
0.0
 10
4269.159402062006
 20
1649.603381897132
 30
0.0
 10
4269.159402062006
 20
1649.597485610434
 30
0.0
 10
4269.159402062006
 20
1649.589797720929
 30
0.0
 10
4269.159402062006
 20
1649.578818842853
 30
0.0
 10
4269.159402062006
 20
1649.564569540995
 30
0.0
 10
4269.159402062006
 20
1649.552890668156
 30
0.0
 10
4269.159402062006
 20
1649.547050560678
 30
0.0
  0
SPLINE
  5
133A
330
1F
100
AcDbEntity
  8
SANINDUSA
100
AcDbSpline
210
0.0
220
0.0
230
1.0
 70
     8
 71
     3
 72
    16
 73
    12
 74
     0
 42
0.0000000001
 43
0.0000000001
 40
0.0
 40
0.0
 40
0.0
 40
0.0
 40
0.2499999999999978
 40
0.2499999999999978
 40
0.4999999999999956
 40
0.4999999999999956
 40
0.6249999999999964
 40
0.6249999999999964
 40
0.7499999999999972
 40
0.7499999999999972
 40
1.0
 40
1.0
 40
1.0
 40
1.0
 10
4269.159542046106
 20
1649.463268045035
 30
0.0
 10
4269.159696722499
 20
1649.461812560663
 30
0.0
 10
4269.159980898631
 20
1649.460368968004
 30
0.0
 10
4269.160783689279
 20
1649.457587201264
 30
0.0
 10
4269.161301865258
 20
1649.456242143876
 30
0.0
 10
4269.162252027321
 20
1649.454295419104
 30
0.0
 10
4269.16259961782
 20
1649.453655769656
 30
0.0
 10
4269.163335862591
 20
1649.452429343995
 30
0.0
 10
4269.163725788222
 20
1649.451839348781
 30
0.0
 10
4269.164955607428
 20
1649.450136681034
 30
0.0
 10
4269.165855268988
 20
1649.449091051193
 30
0.0
 10
4269.166824813205
 20
1649.44813242962
 30
0.0
  0
ARC
  5
133B
330
1F
100
AcDbEntity
  8
SANINDUSA
100
AcDbCircle
 10
4269.184402060516
 20
1649.46590995411
 30
0.0
 40
0.0250000000000002
100
AcDbArc
 50
225.3245647980852
 51
227.6602522931091
  0
LINE
  5
133C
330
1F
100
AcDbEntity
  8
SANINDUSA
100
AcDbLine
 10
4269.159402062006
 20
1649.547050560678
 30
0.0
 11
4269.159402062006
 21
1649.465909953083
 31
0.0
  0
ARC
  5
133D
330
1F
100
AcDbEntity
  8
SANINDUSA
100
AcDbCircle
 10
4269.184402060516
 20
1649.46590995411
 30
0.0
 40
0.0249999999999998
100
AcDbArc
 50
180.0
 51
186.0661361223906
  0
LINE
  5
133E
330
1F
100
AcDbEntity
  8
SANINDUSA
100
AcDbLine
 10
4269.239342209703
 20
1649.184273260499
 30
0.0
 11
4269.241732415564
 21
1649.187287698353
 31
0.0
  0
ENDSEC
  0
SECTION
  2
OBJECTS
  0
DICTIONARY
  5
C
330
0
100
AcDbDictionary
281
     1
  3
ACAD_2007HEADERVARS_RT
350
147B
  3
ACAD_COLOR
350
EE6
  3
ACAD_GROUP
350
D
  3
ACAD_LAYOUT
350
1A
  3
ACAD_MATERIAL
350
EE5
  3
ACAD_MLEADERSTYLE
350
10A8
  3
ACAD_MLINESTYLE
350
17
  3
ACAD_PLOTSETTINGS
350
19
  3
ACAD_PLOTSTYLENAME
350
E
  3
ACAD_SCALELIST
350
1096
  3
ACAD_TABLESTYLE
350
EE7
  3
ACAD_VISUALSTYLE
350
1082
  3
ACDB_RECOMPOSE_DATA
350
1479
  3
AcDbVariableDictionary
350
3D
  3
AEC_PROPERTY_SET_DEFS
350
11F9
  3
ASE_INDEX_DICTIONARY
350
1066
  3
Autodesk_PNP
350
10B2
  3
DWGPROPS
350
147A
  0
DICTIONARY
  5
1437
330
8
100
AcDbDictionary
280
     1
281
     1
  0
DICTIONARY
  5
1051
330
2
100
AcDbDictionary
280
     1
281
     1
  3
ACAD_LAYERFILTERS
360
1065
  3
ACLYDICTIONARY
360
1064
  0
DICTIONARY
  5
1357
330
10
100
AcDbDictionary
280
     1
281
     1
  3
ADSK_XREC_LAYER_RECONCILED
360
1358
  0
DICTIONARY
  5
1359
330
2F
100
AcDbDictionary
280
     1
281
     1
  3
ADSK_XREC_LAYER_RECONCILED
360
135A
  0
DICTIONARY
  5
135B
330
30
100
AcDbDictionary
280
     1
281
     1
  3
ADSK_XREC_LAYER_RECONCILED
360
135C
  0
DICTIONARY
  5
135D
330
31
100
AcDbDictionary
280
     1
281
     1
  3
ADSK_XREC_LAYER_RECONCILED
360
135E
  0
DICTIONARY
  5
135F
330
32
100
AcDbDictionary
280
     1
281
     1
  3
ADSK_XREC_LAYER_RECONCILED
360
1360
  0
DICTIONARY
  5
1361
330
33
100
AcDbDictionary
280
     1
281
     1
  3
ADSK_XREC_LAYER_RECONCILED
360
1362
  0
DICTIONARY
  5
1363
330
34
100
AcDbDictionary
280
     1
281
     1
  3
ADSK_XREC_LAYER_RECONCILED
360
1364
  0
DICTIONARY
  5
1365
330
35
100
AcDbDictionary
280
     1
281
     1
  3
ADSK_XREC_LAYER_RECONCILED
360
1366
  0
DICTIONARY
  5
1367
330
36
100
AcDbDictionary
280
     1
281
     1
  3
ADSK_XREC_LAYER_RECONCILED
360
1368
  0
DICTIONARY
  5
1369
330
37
100
AcDbDictionary
280
     1
281
     1
  3
ADSK_XREC_LAYER_RECONCILED
360
136A
  0
DICTIONARY
  5
136B
330
5D6
100
AcDbDictionary
280
     1
281
     1
  3
ADSK_XREC_LAYER_RECONCILED
360
136C
  0
DICTIONARY
  5
136D
330
8AF
100
AcDbDictionary
280
     1
281
     1
  3
ADSK_XREC_LAYER_RECONCILED
360
136E
  0
DICTIONARY
  5
136F
330
8F8
100
AcDbDictionary
280
     1
281
     1
  3
ADSK_XREC_LAYER_RECONCILED
360
1370
  0
DICTIONARY
  5
1371
330
91D
100
AcDbDictionary
280
     1
281
     1
  3
ADSK_XREC_LAYER_RECONCILED
360
1372
  0
DICTIONARY
  5
1373
330
C7B
100
AcDbDictionary
280
     1
281
     1
  3
ADSK_XREC_LAYER_RECONCILED
360
1374
  0
DICTIONARY
  5
1375
330
1060
100
AcDbDictionary
280
     1
281
     1
  3
ADSK_XREC_LAYER_RECONCILED
360
1376
  0
DICTIONARY
  5
147B
102
{ACAD_REACTORS
330
C
102
}
330
C
100
AcDbDictionary
281
     1
  3
DIMJOGANG
350
147C
  0
DICTIONARY
  5
EE6
102
{ACAD_REACTORS
330
C
102
}
330
C
100
AcDbDictionary
281
     1
  0
DICTIONARY
  5
D
102
{ACAD_REACTORS
330
C
102
}
330
C
100
AcDbDictionary
281
     1
  0
DICTIONARY
  5
1A
102
{ACAD_REACTORS
330
C
102
}
330
C
100
AcDbDictionary
281
     1
  3
Layout1
350
1E
  3
Layout2
350
26
  3
Model
350
22
  0
DICTIONARY
  5
EE5
102
{ACAD_REACTORS
330
C
102
}
330
C
100
AcDbDictionary
281
     1
  3
ByBlock
350
1072
  3
ByLayer
350
106A
  3
Global
350
107A
  0
DICTIONARY
  5
10A8
102
{ACAD_REACTORS
330
C
102
}
330
C
100
AcDbDictionary
281
     1
  3
Standard
350
10A9
  0
DICTIONARY
  5
17
102
{ACAD_REACTORS
330
C
102
}
330
C
100
AcDbDictionary
281
     1
  3
Standard
350
18
  0
DICTIONARY
  5
19
102
{ACAD_REACTORS
330
C
102
}
330
C
100
AcDbDictionary
281
     1
  0
ACDBDICTIONARYWDFLT
  5
E
102
{ACAD_REACTORS
330
C
102
}
330
C
100
AcDbDictionary
281
     1
  3
Normal
350
F
100
AcDbDictionaryWithDefault
340
F
  0
DICTIONARY
  5
1096
102
{ACAD_REACTORS
330
C
102
}
330
C
100
AcDbDictionary
281
     1
  3
A0
350
1097
  3
A1
350
1098
  3
A2
350
1099
  3
A3
350
109A
  3
A4
350
109B
  3
A5
350
109C
  3
A6
350
109D
  3
A7
350
109E
  3
A8
350
109F
  3
A9
350
10A0
  3
B0
350
10A1
  3
B1
350
10A2
  3
B2
350
10A3
  3
B3
350
10A4
  3
B4
350
10A5
  3
B5
350
10A6
  3
B6
350
10A7
  0
DICTIONARY
  5
EE7
102
{ACAD_REACTORS
330
C
102
}
330
C
100
AcDbDictionary
281
     1
  3
Standard
350
EE8
  0
DICTIONARY
  5
1082
102
{ACAD_REACTORS
330
C
102
}
330
C
100
AcDbDictionary
281
     1
  3
2dWireframe
350
1088
  3
3D Hidden
350
108A
  3
3dWireframe
350
1089
  3
Basic
350
1087
  3
Brighten
350
108E
  3
ColorChange
350
1092
  3
Conceptual
350
108B
  3
Dim
350
108D
  3
EdgeColorOff
350
1095
  3
Facepattern
350
1091
  3
Flat
350
1083
  3
FlatWithEdges
350
1084
  3
Gouraud
350
1085
  3
GouraudWithEdges
350
1086
  3
JitterOff
350
1093
  3
Linepattern
350
1090
  3
OverhangOff
350
1094
  3
Realistic
350
108C
  3
Thicken
350
108F
  0
XRECORD
  5
1479
102
{ACAD_REACTORS
330
C
102
}
330
C
100
AcDbXrecord
280
     1
 90
        1
330
EE8
  0
DICTIONARY
  5
3D
102
{ACAD_REACTORS
330
C
102
}
330
C
100
AcDbDictionary
281
     1
  3
CANNOSCALE
350
146B
  3
CMLEADERSTYLE
350
146A
  3
CTABLESTYLE
350
1049
  3
DIMASSOC
350
3F
  3
HIDETEXT
350
3E
  3
INDEXCTL
350
146D
  3
SORTENTS
350
146C
  3
XCLIPFRAME
350
1477
  0
DICTIONARY
  5
11F9
102
{ACAD_REACTORS
330
C
102
}
330
C
100
AcDbDictionary
281
     1
  0
DICTIONARY
  5
1066
102
{ACAD_REACTORS
330
C
102
}
330
C
100
AcDbDictionary
281
     1
  3
ASEBlockHierarchyIndexRecord
350
1067
1001
DCO15
1040
1602247867.484
  0
DICTIONARY
  5
10B2
102
{ACAD_REACTORS
330
C
102
}
330
C
100
AcDbDictionary
281
     1
  0
XRECORD
  5
147A
102
{ACAD_REACTORS
330
C
102
}
330
C
100
AcDbXrecord
280
     1
  1
DWGPROPS COOKIE
  2

  3

  4

  6

  7

  8
Julio
  9

300
=
301
=
302
=
303
=
304
=
305
=
306
=
307
=
308
=
309
=
 40
0.0017598032407407
 41
2456276.40590331
 42
2456276.415206158
  1

 90
        0
  0
DICTIONARY
  5
1065
102
{ACAD_REACTORS
330
1051
102
}
330
1051
100
AcDbDictionary
281
     1
  0
DICTIONARY
  5
1064
102
{ACAD_REACTORS
330
1051
102
}
330
1051
100
AcDbDictionary
281
     1
1001
ACAD
1000
<All
  0
XRECORD
  5
1358
102
{ACAD_REACTORS
330
1357
102
}
330
1357
100
AcDbXrecord
280
     1
290
     1
  0
XRECORD
  5
135A
102
{ACAD_REACTORS
330
1359
102
}
330
1359
100
AcDbXrecord
280
     1
290
     1
  0
XRECORD
  5
135C
102
{ACAD_REACTORS
330
135B
102
}
330
135B
100
AcDbXrecord
280
     1
290
     1
  0
XRECORD
  5
135E
102
{ACAD_REACTORS
330
135D
102
}
330
135D
100
AcDbXrecord
280
     1
290
     1
  0
XRECORD
  5
1360
102
{ACAD_REACTORS
330
135F
102
}
330
135F
100
AcDbXrecord
280
     1
290
     1
  0
XRECORD
  5
1362
102
{ACAD_REACTORS
330
1361
102
}
330
1361
100
AcDbXrecord
280
     1
290
     1
  0
XRECORD
  5
1364
102
{ACAD_REACTORS
330
1363
102
}
330
1363
100
AcDbXrecord
280
     1
290
     1
  0
XRECORD
  5
1366
102
{ACAD_REACTORS
330
1365
102
}
330
1365
100
AcDbXrecord
280
     1
290
     1
  0
XRECORD
  5
1368
102
{ACAD_REACTORS
330
1367
102
}
330
1367
100
AcDbXrecord
280
     1
290
     1
  0
XRECORD
  5
136A
102
{ACAD_REACTORS
330
1369
102
}
330
1369
100
AcDbXrecord
280
     1
290
     1
  0
XRECORD
  5
136C
102
{ACAD_REACTORS
330
136B
102
}
330
136B
100
AcDbXrecord
280
     1
290
     1
  0
XRECORD
  5
136E
102
{ACAD_REACTORS
330
136D
102
}
330
136D
100
AcDbXrecord
280
     1
290
     1
  0
XRECORD
  5
1370
102
{ACAD_REACTORS
330
136F
102
}
330
136F
100
AcDbXrecord
280
     1
290
     1
  0
XRECORD
  5
1372
102
{ACAD_REACTORS
330
1371
102
}
330
1371
100
AcDbXrecord
280
     1
290
     1
  0
XRECORD
  5
1374
102
{ACAD_REACTORS
330
1373
102
}
330
1373
100
AcDbXrecord
280
     1
290
     1
  0
XRECORD
  5
1376
102
{ACAD_REACTORS
330
1375
102
}
330
1375
100
AcDbXrecord
280
     1
290
     1
  0
XRECORD
  5
147C
102
{ACAD_REACTORS
330
147B
102
}
330
147B
100
AcDbXrecord
280
     1
 40
1.570796326794896
  0
LAYOUT
  5
1E
102
{ACAD_XDICTIONARY
360
147D
102
}
102
{ACAD_REACTORS
330
1A
102
}
330
1A
100
AcDbPlotSettings
  1

  2
Ploter HP500
  4

  6

 40
0.0
 41
0.0
 42
0.0
 43
0.0
 44
0.0
 45
0.0
 46
0.0
 47
0.0
 48
0.0
 49
0.0
140
0.0
141
0.0
142
1.0
143
1.0
 70
   688
 72
     0
 73
     0
 74
     5
  7
sanindusa.ctb
 75
    16
147
1.0
148
0.0
149
0.0
100
AcDbLayout
  1
Layout1
 70
     1
 71
     1
 10
0.0
 20
0.0
 11
420.0
 21
297.0
 12
0.0
 22
0.0
 32
0.0
 14
1.000000000000000E+20
 24
1.000000000000000E+20
 34
1.000000000000000E+20
 15
-1.000000000000000E+20
 25
-1.000000000000000E+20
 35
-1.000000000000000E+20
146
0.0
 13
0.0
 23
0.0
 33
0.0
 16
1.0
 26
0.0
 36
0.0
 17
0.0
 27
1.0
 37
0.0
 76
     0
330
1B
  0
LAYOUT
  5
26
102
{ACAD_XDICTIONARY
360
1481
102
}
102
{ACAD_REACTORS
330
1A
102
}
330
1A
100
AcDbPlotSettings
  1

  2
Ploter HP500
  4

  6

 40
0.0
 41
0.0
 42
0.0
 43
0.0
 44
0.0
 45
0.0
 46
0.0
 47
0.0
 48
0.0
 49
0.0
140
0.0
141
0.0
142
1.0
143
1.0
 70
   688
 72
     0
 73
     0
 74
     5
  7
sanindusa.ctb
 75
    16
147
1.0
148
0.0
149
0.0
100
AcDbLayout
  1
Layout2
 70
     1
 71
     2
 10
0.0
 20
0.0
 11
12.0
 21
9.0
 12
0.0
 22
0.0
 32
0.0
 14
0.0
 24
0.0
 34
0.0
 15
0.0
 25
0.0
 35
0.0
146
0.0
 13
0.0
 23
0.0
 33
0.0
 16
1.0
 26
0.0
 36
0.0
 17
0.0
 27
1.0
 37
0.0
 76
     0
330
23
  0
LAYOUT
  5
22
102
{ACAD_XDICTIONARY
360
147F
102
}
102
{ACAD_REACTORS
330
1A
102
}
330
1A
100
AcDbPlotSettings
  1

  2
Ploter HP500
  4
User268
  6

 40
4.995333194732666
 41
16.97565841674804
 42
4.995330810546875
 43
16.97567749023437
 44
209.9733276367187
 45
296.9259948730469
 46
0.0
 47
0.0
 48
0.0
 49
0.0
140
0.0
141
0.0
142
1.0
143
1.0
 70
 11952
 72
     1
 73
     1
 74
     0
  7
sanindusa.ctb
 75
     0
147
1.0
148
-427.5957866592534
149
7.362384574453926
100
AcDbLayout
  1
Model
 70
     1
 71
     0
 10
0.0
 20
0.0
 11
12.0
 21
9.0
 12
0.0
 22
0.0
 32
0.0
 14
0.0
 24
0.0
 34
0.0
 15
0.0
 25
0.0
 35
0.0
146
0.0
 13
0.0
 23
0.0
 33
0.0
 16
1.0
 26
0.0
 36
0.0
 17
0.0
 27
1.0
 37
0.0
 76
     0
330
1F
331
1068
  0
MATERIAL
  5
1072
102
{ACAD_XDICTIONARY
360
1073
102
}
102
{ACAD_REACTORS
330
EE5
102
}
330
EE5
100
AcDbMaterial
  1
ByBlock
 72
     0
 43
0.0008202099737533
 43
0.0
 43
0.0
 43
0.0
 43
0.0
 43
0.0008202099737533
 43
0.0
 43
0.0
 43
0.0
 43
0.0
 43
1.0
 43
0.0
 43
0.0
 43
0.0
 43
0.0
 43
1.0
 77
     0
 47
0.0008202099737533
 47
0.0
 47
0.0
 47
0.0
 47
0.0
 47
0.0008202099737533
 47
0.0
 47
0.0
 47
0.0
 47
0.0
 47
1.0
 47
0.0
 47
0.0
 47
0.0
 47
0.0
 47
1.0
171
     0
 49
0.0008202099737533
 49
0.0
 49
0.0
 49
0.0
 49
0.0
 49
0.0008202099737533
 49
0.0
 49
0.0
 49
0.0
 49
0.0
 49
1.0
 49
0.0
 49
0.0
 49
0.0
 49
0.0
 49
1.0
175
     0
142
0.0008202099737533
142
0.0
142
0.0
142
0.0
142
0.0
142
0.0008202099737533
142
0.0
142
0.0
142
0.0
142
0.0
142
1.0
142
0.0
142
0.0
142
0.0
142
0.0
142
1.0
179
     0
144
0.0008202099737533
144
0.0
144
0.0
144
0.0
144
0.0
144
0.0008202099737533
144
0.0
144
0.0
144
0.0
144
0.0
144
1.0
144
0.0
144
0.0
144
0.0
144
0.0
144
1.0
147
0.0008202099737533
147
0.0
147
0.0
147
0.0
147
0.0
147
0.0008202099737533
147
0.0
147
0.0
147
0.0
147
0.0
147
1.0
147
0.0
147
0.0
147
0.0
147
0.0
147
1.0
  0
MATERIAL
  5
106A
102
{ACAD_XDICTIONARY
360
106B
102
}
102
{ACAD_REACTORS
330
EE5
102
}
330
EE5
100
AcDbMaterial
  1
ByLayer
 72
     0
 43
0.0008202099737533
 43
0.0
 43
0.0
 43
0.0
 43
0.0
 43
0.0008202099737533
 43
0.0
 43
0.0
 43
0.0
 43
0.0
 43
1.0
 43
0.0
 43
0.0
 43
0.0
 43
0.0
 43
1.0
 77
     0
 47
0.0008202099737533
 47
0.0
 47
0.0
 47
0.0
 47
0.0
 47
0.0008202099737533
 47
0.0
 47
0.0
 47
0.0
 47
0.0
 47
1.0
 47
0.0
 47
0.0
 47
0.0
 47
0.0
 47
1.0
171
     0
 49
0.0008202099737533
 49
0.0
 49
0.0
 49
0.0
 49
0.0
 49
0.0008202099737533
 49
0.0
 49
0.0
 49
0.0
 49
0.0
 49
1.0
 49
0.0
 49
0.0
 49
0.0
 49
0.0
 49
1.0
175
     0
142
0.0008202099737533
142
0.0
142
0.0
142
0.0
142
0.0
142
0.0008202099737533
142
0.0
142
0.0
142
0.0
142
0.0
142
1.0
142
0.0
142
0.0
142
0.0
142
0.0
142
1.0
179
     0
144
0.0008202099737533
144
0.0
144
0.0
144
0.0
144
0.0
144
0.0008202099737533
144
0.0
144
0.0
144
0.0
144
0.0
144
1.0
144
0.0
144
0.0
144
0.0
144
0.0
144
1.0
147
0.0008202099737533
147
0.0
147
0.0
147
0.0
147
0.0
147
0.0008202099737533
147
0.0
147
0.0
147
0.0
147
0.0
147
1.0
147
0.0
147
0.0
147
0.0
147
0.0
147
1.0
  0
MATERIAL
  5
107A
102
{ACAD_XDICTIONARY
360
107B
102
}
102
{ACAD_REACTORS
330
EE5
102
}
330
EE5
100
AcDbMaterial
  1
Global
 72
     0
 43
0.0008202099737533
 43
0.0
 43
0.0
 43
0.0
 43
0.0
 43
0.0008202099737533
 43
0.0
 43
0.0
 43
0.0
 43
0.0
 43
1.0
 43
0.0
 43
0.0
 43
0.0
 43
0.0
 43
1.0
 77
     0
 47
0.0008202099737533
 47
0.0
 47
0.0
 47
0.0
 47
0.0
 47
0.0008202099737533
 47
0.0
 47
0.0
 47
0.0
 47
0.0
 47
1.0
 47
0.0
 47
0.0
 47
0.0
 47
0.0
 47
1.0
171
     0
 49
0.0008202099737533
 49
0.0
 49
0.0
 49
0.0
 49
0.0
 49
0.0008202099737533
 49
0.0
 49
0.0
 49
0.0
 49
0.0
 49
1.0
 49
0.0
 49
0.0
 49
0.0
 49
0.0
 49
1.0
175
     0
142
0.0008202099737533
142
0.0
142
0.0
142
0.0
142
0.0
142
0.0008202099737533
142
0.0
142
0.0
142
0.0
142
0.0
142
1.0
142
0.0
142
0.0
142
0.0
142
0.0
142
1.0
179
     0
144
0.0008202099737533
144
0.0
144
0.0
144
0.0
144
0.0
144
0.0008202099737533
144
0.0
144
0.0
144
0.0
144
0.0
144
1.0
144
0.0
144
0.0
144
0.0
144
0.0
144
1.0
147
0.0008202099737533
147
0.0
147
0.0
147
0.0
147
0.0
147
0.0008202099737533
147
0.0
147
0.0
147
0.0
147
0.0
147
1.0
147
0.0
147
0.0
147
0.0
147
0.0
147
1.0
  0
MLEADERSTYLE
  5
10A9
102
{ACAD_REACTORS
330
10A8
102
}
330
10A8
100
AcDbMLeaderStyle
170
     2
171
     1
172
     0
 90
        2
 40
0.0
 41
0.0
173
     1
 91
-1056964608
340
14
 92
       -2
290
     1
 42
2.0
291
     1
 43
0.36
  3
Standard
 44
4.0
300

342
11
174
     1
178
     6
175
     1
176
     0
 93
-1056964608
 45
4.0
292
     0
297
     0
 46
4.0
 94
-1056964608
 47
1.0
 49
1.0
140
1.0
293
     1
141
0.0
294
     1
177
     0
142
1.0
295
     0
296
     0
143
0.125
1001
ACAD_MLEADERVER
1070
     2
  0
MLINESTYLE
  5
18
102
{ACAD_REACTORS
330
17
102
}
330
17
100
AcDbMlineStyle
  2
STANDARD
 70
     0
  3

 62
   256
 51
90.0
 52
90.0
 71
     2
 49
0.5
 62
   256
  6
BYLAYER
 49
-0.5
 62
   256
  6
BYLAYER
  0
ACDBPLACEHOLDER
  5
F
102
{ACAD_REACTORS
330
E
102
}
330
E
  0
SCALE
  5
1097
102
{ACAD_REACTORS
330
1096
102
}
330
1096
100
AcDbScale
 70
     0
300
1:1
140
1.0
141
1.0
290
     1
  0
SCALE
  5
1098
102
{ACAD_REACTORS
330
1096
102
}
330
1096
100
AcDbScale
 70
     0
300
1:2
140
1.0
141
2.0
290
     0
  0
SCALE
  5
1099
102
{ACAD_REACTORS
330
1096
102
}
330
1096
100
AcDbScale
 70
     0
300
1:4
140
1.0
141
4.0
290
     0
  0
SCALE
  5
109A
102
{ACAD_REACTORS
330
1096
102
}
330
1096
100
AcDbScale
 70
     0
300
1:5
140
1.0
141
5.0
290
     0
  0
SCALE
  5
109B
102
{ACAD_REACTORS
330
1096
102
}
330
1096
100
AcDbScale
 70
     0
300
1:8
140
1.0
141
8.0
290
     0
  0
SCALE
  5
109C
102
{ACAD_REACTORS
330
1096
102
}
330
1096
100
AcDbScale
 70
     0
300
1:10
140
1.0
141
10.0
290
     0
  0
SCALE
  5
109D
102
{ACAD_REACTORS
330
1096
102
}
330
1096
100
AcDbScale
 70
     0
300
1:16
140
1.0
141
16.0
290
     0
  0
SCALE
  5
109E
102
{ACAD_REACTORS
330
1096
102
}
330
1096
100
AcDbScale
 70
     0
300
1:20
140
1.0
141
20.0
290
     0
  0
SCALE
  5
109F
102
{ACAD_REACTORS
330
1096
102
}
330
1096
100
AcDbScale
 70
     0
300
1:30
140
1.0
141
30.0
290
     0
  0
SCALE
  5
10A0
102
{ACAD_REACTORS
330
1096
102
}
330
1096
100
AcDbScale
 70
     0
300
1:40
140
1.0
141
40.0
290
     0
  0
SCALE
  5
10A1
102
{ACAD_REACTORS
330
1096
102
}
330
1096
100
AcDbScale
 70
     0
300
1:50
140
1.0
141
50.0
290
     0
  0
SCALE
  5
10A2
102
{ACAD_REACTORS
330
1096
102
}
330
1096
100
AcDbScale
 70
     0
300
1:100
140
1.0
141
100.0
290
     0
  0
SCALE
  5
10A3
102
{ACAD_REACTORS
330
1096
102
}
330
1096
100
AcDbScale
 70
     0
300
2:1
140
2.0
141
1.0
290
     0
  0
SCALE
  5
10A4
102
{ACAD_REACTORS
330
1096
102
}
330
1096
100
AcDbScale
 70
     0
300
4:1
140
4.0
141
1.0
290
     0
  0
SCALE
  5
10A5
102
{ACAD_REACTORS
330
1096
102
}
330
1096
100
AcDbScale
 70
     0
300
8:1
140
8.0
141
1.0
290
     0
  0
SCALE
  5
10A6
102
{ACAD_REACTORS
330
1096
102
}
330
1096
100
AcDbScale
 70
     0
300
10:1
140
10.0
141
1.0
290
     0
  0
SCALE
  5
10A7
102
{ACAD_REACTORS
330
1096
102
}
330
1096
100
AcDbScale
 70
     0
300
100:1
140
100.0
141
1.0
290
     0
  0
TABLESTYLE
  5
EE8
102
{ACAD_XDICTIONARY
360
1431
102
}
102
{ACAD_REACTORS
330
EE7
102
}
330
EE7
100
AcDbTableStyle
  3
Standard
 70
     0
 71
     0
 40
1.5
 41
1.5
280
     0
281
     0
  7
Standard
140
4.5
170
     2
 62
     0
 63
     7
283
     0
274
    -2
284
     1
 64
     0
275
    -2
285
     1
 65
     0
276
    -2
286
     1
 66
     0
277
    -2
287
     1
 67
     0
278
    -2
288
     1
 68
     0
279
    -2
289
     1
 69
     0
  7
Standard
140
6.0
170
     5
 62
     0
 63
     7
283
     0
274
    -2
284
     1
 64
     0
275
    -2
285
     1
 65
     0
276
    -2
286
     1
 66
     0
277
    -2
287
     1
 67
     0
278
    -2
288
     1
 68
     0
279
    -2
289
     1
 69
     0
  7
Standard
140
4.5
170
     5
 62
     0
 63
     7
283
     0
274
    -2
284
     1
 64
     0
275
    -2
285
     1
 65
     0
276
    -2
286
     1
 66
     0
277
    -2
287
     1
 67
     0
278
    -2
288
     1
 68
     0
279
    -2
289
     1
 69
     0
  0
VISUALSTYLE
  5
1088
102
{ACAD_XDICTIONARY
360
1491
102
}
102
{ACAD_REACTORS
330
1082
102
}
330
1082
100
AcDbVisualStyle
  2
2dWireframe
 70
     4
 71
     0
 72
     2
 73
     0
 90
        0
 40
-0.6
 41
-30.0
 62
     5
 63
     7
 74
     1
 91
        4
 64
     7
 65
   257
 75
     1
175
     1
 42
1.0
 92
        0
 66
   257
 43
1.0
 76
     1
 77
     6
 78
     2
 67
     7
 79
     5
170
     0
171
     0
290
     0
174
     0
 93
        1
 44
0.0
173
     0
291
     0
 45
0.0
1001
ACAD
1000
AcDbSavedByObjectVersion
1070
     0
  0
VISUALSTYLE
  5
108A
102
{ACAD_XDICTIONARY
360
1495
102
}
102
{ACAD_REACTORS
330
1082
102
}
330
1082
100
AcDbVisualStyle
  2
3D Hidden
 70
     6
 71
     1
 72
     2
 73
     2
 90
        0
 40
-0.6
 41
-30.0
 62
     5
 63
     7
 74
     2
 91
        2
 64
     7
 65
   257
 75
     2
175
     1
 42
179.0
 92
        0
 66
   257
 43
1.0
 76
     1
 77
     6
 78
     2
 67
     7
 79
     3
170
     0
171
     0
290
     0
174
     0
 93
        1
 44
0.0
173
     0
291
     0
 45
0.0
1001
ACAD
1000
AcDbSavedByObjectVersion
1070
     0
  0
VISUALSTYLE
  5
1089
102
{ACAD_XDICTIONARY
360
1493
102
}
102
{ACAD_REACTORS
330
1082
102
}
330
1082
100
AcDbVisualStyle
  2
3dWireframe
 70
     5
 71
     0
 72
     2
 73
     0
 90
        0
 40
-0.6
 41
-30.0
 62
     5
 63
     7
 74
     1
 91
        4
 64
     7
 65
   257
 75
     1
175
     1
 42
1.0
 92
        0
 66
   257
 43
1.0
 76
     1
 77
     6
 78
     2
 67
     7
 79
     5
170
     0
171
     0
290
     0
174
     0
 93
        1
 44
0.0
173
     0
291
     0
 45
0.0
1001
ACAD
1000
AcDbSavedByObjectVersion
1070
     0
  0
VISUALSTYLE
  5
1087
102
{ACAD_XDICTIONARY
360
148F
102
}
102
{ACAD_REACTORS
330
1082
102
}
330
1082
100
AcDbVisualStyle
  2
Basic
 70
     7
 71
     1
 72
     0
 73
     1
 90
        0
 40
-0.6
 41
-30.0
 62
     5
 63
     7
 74
     0
 91
        4
 64
     7
 65
   257
 75
     1
175
     1
 42
1.0
 92
        8
 66
     7
 43
1.0
 76
     1
 77
     6
 78
     2
 67
     7
 79
     5
170
     0
171
     0
290
     0
174
     0
 93
        1
 44
0.0
173
     0
291
     1
 45
0.0
1001
ACAD
1000
AcDbSavedByObjectVersion
1070
     0
  0
VISUALSTYLE
  5
108E
102
{ACAD_XDICTIONARY
360
149D
102
}
102
{ACAD_REACTORS
330
1082
102
}
330
1082
100
AcDbVisualStyle
  2
Brighten
 70
    12
 71
     2
 72
     2
 73
     0
 90
        0
 40
-0.6
 41
-30.0
 62
     5
 63
     7
 74
     1
 91
        4
 64
     7
 65
   257
 75
     1
175
     1
 42
1.0
 92
        8
 66
     7
 43
1.0
 76
     1
 77
     6
 78
     2
 67
     7
 79
     5
170
     0
171
     0
290
     0
174
     0
 93
        1
 44
50.0
173
     0
291
     1
 45
0.0
1001
ACAD
1000
AcDbSavedByObjectVersion
1070
     0
  0
VISUALSTYLE
  5
1092
102
{ACAD_XDICTIONARY
360
14A5
102
}
102
{ACAD_REACTORS
330
1082
102
}
330
1082
100
AcDbVisualStyle
  2
ColorChange
 70
    16
 71
     2
 72
     2
 73
     3
 90
        0
 40
-0.6
 41
-30.0
 62
     5
 63
     8
 74
     1
 91
        4
 64
     7
 65
   257
 75
     1
175
     1
 42
1.0
 92
        8
 66
     8
 43
1.0
 76
     1
 77
     6
 78
     2
 67
     7
 79
     5
170
     0
171
     0
290
     0
174
     0
 93
        1
 44
0.0
173
     0
291
     1
 45
0.0
1001
ACAD
1000
AcDbSavedByObjectVersion
1070
     0
  0
VISUALSTYLE
  5
108B
102
{ACAD_XDICTIONARY
360
1497
102
}
102
{ACAD_REACTORS
330
1082
102
}
330
1082
100
AcDbVisualStyle
  2
Conceptual
 70
     9
 71
     3
 72
     2
 73
     0
 90
        0
 40
-0.6
 41
-30.0
 62
     5
 63
     7
 74
     2
 91
        2
 64
     7
 65
   257
 75
     1
175
     1
 42
179.0
 92
        8
 66
     7
 43
1.0
 76
     1
 77
     6
 78
     2
 67
     7
 79
     3
170
     0
171
     0
290
     0
174
     0
 93
        1
 44
0.0
173
     0
291
     0
 45
0.0
1001
ACAD
1000
AcDbSavedByObjectVersion
1070
     0
  0
VISUALSTYLE
  5
108D
102
{ACAD_XDICTIONARY
360
149B
102
}
102
{ACAD_REACTORS
330
1082
102
}
330
1082
100
AcDbVisualStyle
  2
Dim
 70
    11
 71
     2
 72
     2
 73
     0
 90
        0
 40
-0.6
 41
-30.0
 62
     5
 63
     7
 74
     1
 91
        4
 64
     7
 65
   257
 75
     1
175
     1
 42
1.0
 92
        8
 66
     7
 43
1.0
 76
     1
 77
     6
 78
     2
 67
     7
 79
     5
170
     0
171
     0
290
     0
174
     0
 93
        1
 44
-50.0
173
     0
291
     1
 45
0.0
1001
ACAD
1000
AcDbSavedByObjectVersion
1070
     0
  0
VISUALSTYLE
  5
1095
102
{ACAD_XDICTIONARY
360
14AB
102
}
102
{ACAD_REACTORS
330
1082
102
}
330
1082
100
AcDbVisualStyle
  2
EdgeColorOff
 70
    22
 71
     2
 72
     2
 73
     0
 90
        0
 40
-0.6
 41
-30.0
 62
     5
 63
     7
 74
     1
 91
        4
 64
     7
 65
   257
 75
     1
175
     1
 42
1.0
 92
        8
 66
     7
 43
1.0
 76
     1
 77
     6
 78
     2
 67
     7
 79
     5
170
     0
171
     0
290
     0
174
     0
 93
        1
 44
0.0
173
     0
291
     1
 45
0.0
1001
ACAD
1000
AcDbSavedByObjectVersion
1070
     0
  0
VISUALSTYLE
  5
1091
102
{ACAD_XDICTIONARY
360
14A3
102
}
102
{ACAD_REACTORS
330
1082
102
}
330
1082
100
AcDbVisualStyle
  2
Facepattern
 70
    15
 71
     2
 72
     2
 73
     0
 90
        0
 40
-0.6
 41
-30.0
 62
     5
 63
     7
 74
     1
 91
        4
 64
     7
 65
   257
 75
     1
175
     1
 42
1.0
 92
        8
 66
     7
 43
1.0
 76
     1
 77
     6
 78
     2
 67
     7
 79
     5
170
     0
171
     0
290
     0
174
     0
 93
        1
 44
0.0
173
     0
291
     1
 45
0.0
1001
ACAD
1000
AcDbSavedByObjectVersion
1070
     0
  0
VISUALSTYLE
  5
1083
102
{ACAD_XDICTIONARY
360
1487
102
}
102
{ACAD_REACTORS
330
1082
102
}
330
1082
100
AcDbVisualStyle
  2
Flat
 70
     0
 71
     2
 72
     1
 73
     1
 90
        2
 40
-0.6
 41
30.0
 62
     5
 63
     7
 74
     0
 91
        4
 64
     7
 65
   257
 75
     1
175
     1
 42
1.0
 92
        8
 66
     7
 43
1.0
 76
     1
 77
     6
 78
     2
 67
     7
 79
     5
170
     0
171
     0
290
     0
174
     0
 93
       13
 44
0.0
173
     0
291
     1
 45
0.0
1001
ACAD
1000
AcDbSavedByObjectVersion
1070
     0
  0
VISUALSTYLE
  5
1084
102
{ACAD_XDICTIONARY
360
1489
102
}
102
{ACAD_REACTORS
330
1082
102
}
330
1082
100
AcDbVisualStyle
  2
FlatWithEdges
 70
     1
 71
     2
 72
     1
 73
     1
 90
        2
 40
-0.6
 41
30.0
 62
     5
 63
     7
 74
     1
 91
        4
 64
     7
 65
   257
 75
     1
175
     1
 42
1.0
 92
        0
 66
   257
 43
1.0
 76
     1
 77
     6
 78
     2
 67
     7
 79
     5
170
     0
171
     0
290
     0
174
     0
 93
       13
 44
0.0
173
     0
291
     1
 45
0.0
1001
ACAD
1000
AcDbSavedByObjectVersion
1070
     0
  0
VISUALSTYLE
  5
1085
102
{ACAD_XDICTIONARY
360
148B
102
}
102
{ACAD_REACTORS
330
1082
102
}
330
1082
100
AcDbVisualStyle
  2
Gouraud
 70
     2
 71
     2
 72
     2
 73
     1
 90
        2
 40
-0.6
 41
30.0
 62
     5
 63
     7
 74
     0
 91
        4
 64
     7
 65
   257
 75
     1
175
     1
 42
1.0
 92
        0
 66
     7
 43
1.0
 76
     1
 77
     6
 78
     2
 67
     7
 79
     5
170
     0
171
     0
290
     0
174
     0
 93
       13
 44
0.0
173
     0
291
     1
 45
0.0
1001
ACAD
1000
AcDbSavedByObjectVersion
1070
     0
  0
VISUALSTYLE
  5
1086
102
{ACAD_XDICTIONARY
360
148D
102
}
102
{ACAD_REACTORS
330
1082
102
}
330
1082
100
AcDbVisualStyle
  2
GouraudWithEdges
 70
     3
 71
     2
 72
     2
 73
     1
 90
        2
 40
-0.6
 41
30.0
 62
     5
 63
     7
 74
     1
 91
        4
 64
     7
 65
   257
 75
     1
175
     1
 42
1.0
 92
        0
 66
   257
 43
1.0
 76
     1
 77
     6
 78
     2
 67
     7
 79
     5
170
     0
171
     0
290
     0
174
     0
 93
       13
 44
0.0
173
     0
291
     1
 45
0.0
1001
ACAD
1000
AcDbSavedByObjectVersion
1070
     0
  0
VISUALSTYLE
  5
1093
102
{ACAD_XDICTIONARY
360
14A7
102
}
102
{ACAD_REACTORS
330
1082
102
}
330
1082
100
AcDbVisualStyle
  2
JitterOff
 70
    20
 71
     2
 72
     2
 73
     0
 90
        0
 40
-0.6
 41
-30.0
 62
     5
 63
     7
 74
     1
 91
        4
 64
     7
 65
   257
 75
     1
175
     1
 42
1.0
 92
       10
 66
     7
 43
1.0
 76
     1
 77
     6
 78
     2
 67
     7
 79
     5
170
     0
171
     0
290
     0
174
     0
 93
        1
 44
0.0
173
     0
291
     1
 45
0.0
1001
ACAD
1000
AcDbSavedByObjectVersion
1070
     0
  0
VISUALSTYLE
  5
1090
102
{ACAD_XDICTIONARY
360
14A1
102
}
102
{ACAD_REACTORS
330
1082
102
}
330
1082
100
AcDbVisualStyle
  2
Linepattern
 70
    14
 71
     2
 72
     2
 73
     0
 90
        0
 40
-0.6
 41
-30.0
 62
     5
 63
     7
 74
     1
 91
        4
 64
     7
 65
   257
 75
     7
175
     7
 42
1.0
 92
        8
 66
     7
 43
1.0
 76
     1
 77
     6
 78
     2
 67
     7
 79
     5
170
     0
171
     0
290
     0
174
     0
 93
        1
 44
0.0
173
     0
291
     1
 45
0.0
1001
ACAD
1000
AcDbSavedByObjectVersion
1070
     0
  0
VISUALSTYLE
  5
1094
102
{ACAD_XDICTIONARY
360
14A9
102
}
102
{ACAD_REACTORS
330
1082
102
}
330
1082
100
AcDbVisualStyle
  2
OverhangOff
 70
    21
 71
     2
 72
     2
 73
     0
 90
        0
 40
-0.6
 41
-30.0
 62
     5
 63
     7
 74
     1
 91
        4
 64
     7
 65
   257
 75
     1
175
     1
 42
1.0
 92
        9
 66
     7
 43
1.0
 76
     1
 77
     6
 78
     2
 67
     7
 79
     5
170
     0
171
     0
290
     0
174
     0
 93
        1
 44
0.0
173
     0
291
     1
 45
0.0
1001
ACAD
1000
AcDbSavedByObjectVersion
1070
     0
  0
VISUALSTYLE
  5
108C
102
{ACAD_XDICTIONARY
360
1499
102
}
102
{ACAD_REACTORS
330
1082
102
}
330
1082
100
AcDbVisualStyle
  2
Realistic
 70
     8
 71
     2
 72
     2
 73
     0
 90
        0
 40
-0.6
 41
-30.0
 62
     5
 63
     7
 74
     1
 91
        0
 64
     7
 65
   257
 75
     1
175
     1
 42
1.0
 92
        8
 66
     8
 43
1.0
 76
     1
 77
     6
 78
     2
 67
     7
 79
     5
170
     0
171
     0
290
     0
174
     0
 93
       13
 44
0.0
173
     0
291
     0
 45
0.0
1001
ACAD
1000
AcDbSavedByObjectVersion
1070
     0
  0
VISUALSTYLE
  5
108F
102
{ACAD_XDICTIONARY
360
149F
102
}
102
{ACAD_REACTORS
330
1082
102
}
330
1082
100
AcDbVisualStyle
  2
Thicken
 70
    13
 71
     2
 72
     2
 73
     0
 90
        0
 40
-0.6
 41
-30.0
 62
     5
 63
     7
 74
     1
 91
        4
 64
     7
 65
   257
 75
     1
175
     1
 42
1.0
 92
       12
 66
     7
 43
1.0
 76
     1
 77
     6
 78
     2
 67
     7
 79
     5
170
     0
171
     0
290
     0
174
     0
 93
        1
 44
0.0
173
     0
291
     1
 45
0.0
1001
ACAD
1000
AcDbSavedByObjectVersion
1070
     0
  0
DICTIONARYVAR
  5
146B
102
{ACAD_REACTORS
330
3D
102
}
330
3D
100
DictionaryVariables
280
     0
  1
1:1
  0
DICTIONARYVAR
  5
146A
102
{ACAD_REACTORS
330
3D
102
}
330
3D
100
DictionaryVariables
280
     0
  1
STANDARD
  0
DICTIONARYVAR
  5
1049
102
{ACAD_REACTORS
330
3D
102
}
330
3D
100
DictionaryVariables
280
     0
  1
STANDARD
  0
DICTIONARYVAR
  5
3F
102
{ACAD_REACTORS
330
3D
102
}
330
3D
100
DictionaryVariables
280
     0
  1
2
  0
DICTIONARYVAR
  5
3E
102
{ACAD_REACTORS
330
3D
102
}
330
3D
100
DictionaryVariables
280
     0
  1
1
  0
DICTIONARYVAR
  5
146D
102
{ACAD_REACTORS
330
3D
102
}
330
3D
100
DictionaryVariables
280
     0
  1
0
  0
DICTIONARYVAR
  5
146C
102
{ACAD_REACTORS
330
3D
102
}
330
3D
100
DictionaryVariables
280
     0
  1
127
  0
DICTIONARYVAR
  5
1477
102
{ACAD_REACTORS
330
3D
102
}
330
3D
100
DictionaryVariables
280
     0
  1
2
  0
XRECORD
  5
1067
102
{ACAD_REACTORS
330
1066
102
}
330
1066
100
AcDbXrecord
280
     1
  0
DICTIONARY
  5
147D
330
1E
100
AcDbDictionary
280
     1
281
     1
  3
ACAD_XREC_ROUNDTRIP
360
147E
  0
DICTIONARY
  5
1481
330
26
100
AcDbDictionary
280
     1
281
     1
  3
ACAD_XREC_ROUNDTRIP
360
1482
  0
DICTIONARY
  5
147F
330
22
100
AcDbDictionary
280
     1
281
     1
  3
ACAD_XREC_ROUNDTRIP
360
1480
  0
DICTIONARY
  5
1073
330
1072
100
AcDbDictionary
280
     1
281
     1
  3
ACAD_XREC_ROUNDTRIP
360
1485
  3
BUMPTILE
360
1075
  3
DIFFUSETILE
360
1074
  3
OPACITYTILE
360
1078
  3
REFLECTIONTILE
360
1077
  3
REFRACTIONTILE
360
1079
  3
SPECULARTILE
360
1076
  0
DICTIONARY
  5
106B
330
106A
100
AcDbDictionary
280
     1
281
     1
  3
ACAD_XREC_ROUNDTRIP
360
1484
  3
BUMPTILE
360
106D
  3
DIFFUSETILE
360
106C
  3
OPACITYTILE
360
1070
  3
REFLECTIONTILE
360
106F
  3
REFRACTIONTILE
360
1071
  3
SPECULARTILE
360
106E
  0
DICTIONARY
  5
107B
330
107A
100
AcDbDictionary
280
     1
281
     1
  3
ACAD_XREC_ROUNDTRIP
360
1486
  3
BUMPTILE
360
107D
  3
DIFFUSETILE
360
107C
  3
OPACITYTILE
360
1080
  3
REFLECTIONTILE
360
107F
  3
REFRACTIONTILE
360
1081
  3
SPECULARTILE
360
107E
  0
DICTIONARY
  5
1431
330
EE8
100
AcDbDictionary
280
     1
281
     1
  3
ACAD_ROUNDTRIP_2008_TABLESTYLE_CELLSTYLEMAP
360
1478
  3
ACAD_XREC_ROUNDTRIP
360
1483
  0
DICTIONARY
  5
1491
330
1088
100
AcDbDictionary
280
     1
281
     1
  3
ACAD_XREC_ROUNDTRIP
360
1492
  0
DICTIONARY
  5
1495
330
108A
100
AcDbDictionary
280
     1
281
     1
  3
ACAD_XREC_ROUNDTRIP
360
1496
  0
DICTIONARY
  5
1493
330
1089
100
AcDbDictionary
280
     1
281
     1
  3
ACAD_XREC_ROUNDTRIP
360
1494
  0
DICTIONARY
  5
148F
330
1087
100
AcDbDictionary
280
     1
281
     1
  3
ACAD_XREC_ROUNDTRIP
360
1490
  0
DICTIONARY
  5
149D
330
108E
100
AcDbDictionary
280
     1
281
     1
  3
ACAD_XREC_ROUNDTRIP
360
149E
  0
DICTIONARY
  5
14A5
330
1092
100
AcDbDictionary
280
     1
281
     1
  3
ACAD_XREC_ROUNDTRIP
360
14A6
  0
DICTIONARY
  5
1497
330
108B
100
AcDbDictionary
280
     1
281
     1
  3
ACAD_XREC_ROUNDTRIP
360
1498
  0
DICTIONARY
  5
149B
330
108D
100
AcDbDictionary
280
     1
281
     1
  3
ACAD_XREC_ROUNDTRIP
360
149C
  0
DICTIONARY
  5
14AB
330
1095
100
AcDbDictionary
280
     1
281
     1
  3
ACAD_XREC_ROUNDTRIP
360
14AC
  0
DICTIONARY
  5
14A3
330
1091
100
AcDbDictionary
280
     1
281
     1
  3
ACAD_XREC_ROUNDTRIP
360
14A4
  0
DICTIONARY
  5
1487
330
1083
100
AcDbDictionary
280
     1
281
     1
  3
ACAD_XREC_ROUNDTRIP
360
1488
  0
DICTIONARY
  5
1489
330
1084
100
AcDbDictionary
280
     1
281
     1
  3
ACAD_XREC_ROUNDTRIP
360
148A
  0
DICTIONARY
  5
148B
330
1085
100
AcDbDictionary
280
     1
281
     1
  3
ACAD_XREC_ROUNDTRIP
360
148C
  0
DICTIONARY
  5
148D
330
1086
100
AcDbDictionary
280
     1
281
     1
  3
ACAD_XREC_ROUNDTRIP
360
148E
  0
DICTIONARY
  5
14A7
330
1093
100
AcDbDictionary
280
     1
281
     1
  3
ACAD_XREC_ROUNDTRIP
360
14A8
  0
DICTIONARY
  5
14A1
330
1090
100
AcDbDictionary
280
     1
281
     1
  3
ACAD_XREC_ROUNDTRIP
360
14A2
  0
DICTIONARY
  5
14A9
330
1094
100
AcDbDictionary
280
     1
281
     1
  3
ACAD_XREC_ROUNDTRIP
360
14AA
  0
DICTIONARY
  5
1499
330
108C
100
AcDbDictionary
280
     1
281
     1
  3
ACAD_XREC_ROUNDTRIP
360
149A
  0
DICTIONARY
  5
149F
330
108F
100
AcDbDictionary
280
     1
281
     1
  3
ACAD_XREC_ROUNDTRIP
360
14A0
  0
XRECORD
  5
147E
102
{ACAD_REACTORS
330
147D
102
}
330
147D
100
AcDbXrecord
280
     1
102
SHADEPLOT
 70
     0
102
SHADEPLOTRESLEVEL
 70
     2
102
SHADEPLOTCUSTOMDPI
 70
   300
  0
XRECORD
  5
1482
102
{ACAD_REACTORS
330
1481
102
}
330
1481
100
AcDbXrecord
280
     1
102
SHADEPLOT
 70
     0
102
SHADEPLOTRESLEVEL
 70
     2
102
SHADEPLOTCUSTOMDPI
 70
   300
  0
XRECORD
  5
1480
102
{ACAD_REACTORS
330
147F
102
}
330
147F
100
AcDbXrecord
280
     1
102
SHADEPLOT
 70
     0
102
SHADEPLOTRESLEVEL
 70
     2
102
SHADEPLOTCUSTOMDPI
 70
   300
  0
XRECORD
  5
1485
102
{ACAD_REACTORS
330
1073
102
}
330
1073
100
AcDbXrecord
280
     1
102
MATERIAL
148
0.0
149
0.0
149
0.0
 93
        0
 94
      127
282
     0
 72
     0
 77
     0
171
     0
175
     0
179
     0
273
     0
  0
XRECORD
  5
1075
102
{ACAD_REACTORS
330
1073
102
}
330
1073
100
AcDbXrecord
280
     1
270
     1
271
     1
  0
XRECORD
  5
1074
102
{ACAD_REACTORS
330
1073
102
}
330
1073
100
AcDbXrecord
280
     1
270
     1
271
     1
  0
XRECORD
  5
1078
102
{ACAD_REACTORS
330
1073
102
}
330
1073
100
AcDbXrecord
280
     1
270
     1
271
     1
  0
XRECORD
  5
1077
102
{ACAD_REACTORS
330
1073
102
}
330
1073
100
AcDbXrecord
280
     1
270
     1
271
     1
  0
XRECORD
  5
1079
102
{ACAD_REACTORS
330
1073
102
}
330
1073
100
AcDbXrecord
280
     1
270
     1
271
     1
  0
XRECORD
  5
1076
102
{ACAD_REACTORS
330
1073
102
}
330
1073
100
AcDbXrecord
280
     1
270
     1
271
     1
  0
XRECORD
  5
1484
102
{ACAD_REACTORS
330
106B
102
}
330
106B
100
AcDbXrecord
280
     1
102
MATERIAL
148
0.0
149
0.0
149
0.0
 93
        0
 94
      127
282
     0
 72
     0
 77
     0
171
     0
175
     0
179
     0
273
     0
  0
XRECORD
  5
106D
102
{ACAD_REACTORS
330
106B
102
}
330
106B
100
AcDbXrecord
280
     1
270
     1
271
     1
  0
XRECORD
  5
106C
102
{ACAD_REACTORS
330
106B
102
}
330
106B
100
AcDbXrecord
280
     1
270
     1
271
     1
  0
XRECORD
  5
1070
102
{ACAD_REACTORS
330
106B
102
}
330
106B
100
AcDbXrecord
280
     1
270
     1
271
     1
  0
XRECORD
  5
106F
102
{ACAD_REACTORS
330
106B
102
}
330
106B
100
AcDbXrecord
280
     1
270
     1
271
     1
  0
XRECORD
  5
1071
102
{ACAD_REACTORS
330
106B
102
}
330
106B
100
AcDbXrecord
280
     1
270
     1
271
     1
  0
XRECORD
  5
106E
102
{ACAD_REACTORS
330
106B
102
}
330
106B
100
AcDbXrecord
280
     1
270
     1
271
     1
  0
XRECORD
  5
1486
102
{ACAD_REACTORS
330
107B
102
}
330
107B
100
AcDbXrecord
280
     1
102
MATERIAL
148
0.0
149
0.0
149
0.0
 93
        0
 94
      127
282
     0
 72
     0
 77
     0
171
     0
175
     0
179
     0
273
     0
  0
XRECORD
  5
107D
102
{ACAD_REACTORS
330
107B
102
}
330
107B
100
AcDbXrecord
280
     1
270
     1
271
     1
  0
XRECORD
  5
107C
102
{ACAD_REACTORS
330
107B
102
}
330
107B
100
AcDbXrecord
280
     1
270
     1
271
     1
  0
XRECORD
  5
1080
102
{ACAD_REACTORS
330
107B
102
}
330
107B
100
AcDbXrecord
280
     1
270
     1
271
     1
  0
XRECORD
  5
107F
102
{ACAD_REACTORS
330
107B
102
}
330
107B
100
AcDbXrecord
280
     1
270
     1
271
     1
  0
XRECORD
  5
1081
102
{ACAD_REACTORS
330
107B
102
}
330
107B
100
AcDbXrecord
280
     1
270
     1
271
     1
  0
XRECORD
  5
107E
102
{ACAD_REACTORS
330
107B
102
}
330
107B
100
AcDbXrecord
280
     1
270
     1
271
     1
  0
CELLSTYLEMAP
  5
1478
102
{ACAD_REACTORS
330
1431
102
}
330
1431
100
AcDbCellStyleMap
 90
        3
300
CELLSTYLE
  1
TABLEFORMAT_BEGIN
 90
        5
170
     1
 91
        0
 92
    32768
 62
   257
 93
        1
300
CONTENTFORMAT
  1
CONTENTFORMAT_BEGIN
 90
        0
 91
        0
 92
        4
 93
        0
300

 40
0.0
140
1.0
 94
        5
 62
     0
340
11
144
6.0
309
CONTENTFORMAT_END
171
     1
301
MARGIN
  1
CELLMARGIN_BEGIN
 40
1.5
 40
1.5
 40
1.5
 40
1.5
 40
0.18
 40
0.18
309
CELLMARGIN_END
 94
        6
 95
        1
302
GRIDFORMAT
  1
GRIDFORMAT_BEGIN
 90
        0
 91
        1
 62
     0
 92
       -2
340
0
 93
        0
 40
0.045
309
GRIDFORMAT_END
 95
        2
302
GRIDFORMAT
  1
GRIDFORMAT_BEGIN
 90
        0
 91
        1
 62
     0
 92
       -2
340
0
 93
        0
 40
0.045
309
GRIDFORMAT_END
 95
        4
302
GRIDFORMAT
  1
GRIDFORMAT_BEGIN
 90
        0
 91
        1
 62
     0
 92
       -2
340
0
 93
        0
 40
0.045
309
GRIDFORMAT_END
 95
        8
302
GRIDFORMAT
  1
GRIDFORMAT_BEGIN
 90
        0
 91
        1
 62
     0
 92
       -2
340
0
 93
        0
 40
0.045
309
GRIDFORMAT_END
 95
       16
302
GRIDFORMAT
  1
GRIDFORMAT_BEGIN
 90
        0
 91
        1
 62
     0
 92
       -2
340
0
 93
        0
 40
0.045
309
GRIDFORMAT_END
 95
       32
302
GRIDFORMAT
  1
GRIDFORMAT_BEGIN
 90
        0
 91
        1
 62
     0
 92
       -2
340
0
 93
        0
 40
0.045
309
GRIDFORMAT_END
309
TABLEFORMAT_END
  1
CELLSTYLE_BEGIN
 90
        1
 91
        1
300
_TITLE
309
CELLSTYLE_END
300
CELLSTYLE
  1
TABLEFORMAT_BEGIN
 90
        5
170
     1
 91
        0
 92
        0
 62
   257
 93
        1
300
CONTENTFORMAT
  1
CONTENTFORMAT_BEGIN
 90
        0
 91
        0
 92
        4
 93
        0
300

 40
0.0
140
1.0
 94
        5
 62
     0
340
11
144
4.5
309
CONTENTFORMAT_END
171
     1
301
MARGIN
  1
CELLMARGIN_BEGIN
 40
1.5
 40
1.5
 40
1.5
 40
1.5
 40
0.18
 40
0.18
309
CELLMARGIN_END
 94
        6
 95
        1
302
GRIDFORMAT
  1
GRIDFORMAT_BEGIN
 90
        0
 91
        1
 62
     0
 92
       -2
340
0
 93
        0
 40
0.045
309
GRIDFORMAT_END
 95
        2
302
GRIDFORMAT
  1
GRIDFORMAT_BEGIN
 90
        0
 91
        1
 62
     0
 92
       -2
340
0
 93
        0
 40
0.045
309
GRIDFORMAT_END
 95
        4
302
GRIDFORMAT
  1
GRIDFORMAT_BEGIN
 90
        0
 91
        1
 62
     0
 92
       -2
340
0
 93
        0
 40
0.045
309
GRIDFORMAT_END
 95
        8
302
GRIDFORMAT
  1
GRIDFORMAT_BEGIN
 90
        0
 91
        1
 62
     0
 92
       -2
340
0
 93
        0
 40
0.045
309
GRIDFORMAT_END
 95
       16
302
GRIDFORMAT
  1
GRIDFORMAT_BEGIN
 90
        0
 91
        1
 62
     0
 92
       -2
340
0
 93
        0
 40
0.045
309
GRIDFORMAT_END
 95
       32
302
GRIDFORMAT
  1
GRIDFORMAT_BEGIN
 90
        0
 91
        1
 62
     0
 92
       -2
340
0
 93
        0
 40
0.045
309
GRIDFORMAT_END
309
TABLEFORMAT_END
  1
CELLSTYLE_BEGIN
 90
        2
 91
        1
300
_HEADER
309
CELLSTYLE_END
300
CELLSTYLE
  1
TABLEFORMAT_BEGIN
 90
        5
170
     1
 91
        0
 92
        0
 62
   257
 93
        1
300
CONTENTFORMAT
  1
CONTENTFORMAT_BEGIN
 90
        0
 91
        0
 92
        4
 93
        0
300

 40
0.0
140
1.0
 94
        2
 62
     0
340
11
144
4.5
309
CONTENTFORMAT_END
171
     1
301
MARGIN
  1
CELLMARGIN_BEGIN
 40
1.5
 40
1.5
 40
1.5
 40
1.5
 40
0.18
 40
0.18
309
CELLMARGIN_END
 94
        6
 95
        1
302
GRIDFORMAT
  1
GRIDFORMAT_BEGIN
 90
        0
 91
        1
 62
     0
 92
       -2
340
0
 93
        0
 40
0.045
309
GRIDFORMAT_END
 95
        2
302
GRIDFORMAT
  1
GRIDFORMAT_BEGIN
 90
        0
 91
        1
 62
     0
 92
       -2
340
0
 93
        0
 40
0.045
309
GRIDFORMAT_END
 95
        4
302
GRIDFORMAT
  1
GRIDFORMAT_BEGIN
 90
        0
 91
        1
 62
     0
 92
       -2
340
0
 93
        0
 40
0.045
309
GRIDFORMAT_END
 95
        8
302
GRIDFORMAT
  1
GRIDFORMAT_BEGIN
 90
        0
 91
        1
 62
     0
 92
       -2
340
0
 93
        0
 40
0.045
309
GRIDFORMAT_END
 95
       16
302
GRIDFORMAT
  1
GRIDFORMAT_BEGIN
 90
        0
 91
        1
 62
     0
 92
       -2
340
0
 93
        0
 40
0.045
309
GRIDFORMAT_END
 95
       32
302
GRIDFORMAT
  1
GRIDFORMAT_BEGIN
 90
        0
 91
        1
 62
     0
 92
       -2
340
0
 93
        0
 40
0.045
309
GRIDFORMAT_END
309
TABLEFORMAT_END
  1
CELLSTYLE_BEGIN
 90
        3
 91
        2
300
_DATA
309
CELLSTYLE_END
  0
XRECORD
  5
1483
102
{ACAD_REACTORS
330
1431
102
}
330
1431
100
AcDbXrecord
280
     1
102
ACAD_ROUNDTRIP_PRE2007_TABLESTYLE
 90
        4
 91
        0
  1

 92
        4
 93
        0
  2

 94
        4
 95
        0
  3

  0
XRECORD
  5
1492
102
{ACAD_REACTORS
330
1491
102
}
330
1491
100
AcDbXrecord
280
     1
102
RTVSPropertyOp0
 70
     1
102
RTVSPropertyOp1
 70
     1
102
RTVSPropertyOp2
 70
     1
102
RTVSPropertyOp3
 70
     1
102
RTVSPropertyOp4
 70
     1
102
RTVSPropertyOp5
 70
     1
102
RTVSPropertyOp6
 70
     1
102
RTVSPropertyOp7
 70
     1
102
RTVSPropertyOp8
 70
     1
102
RTVSPropertyOp9
 70
     1
102
RTVSPropertyOp10
 70
     1
102
RTVSPropertyOp11
 70
     1
102
RTVSPropertyOp12
 70
     1
102
RTVSPropertyOp13
 70
     1
102
RTVSPropertyOp14
 70
     1
102
RTVSPropertyOp15
 70
     1
102
RTVSPropertyOp16
 70
     1
102
RTVSPropertyOp17
 70
     1
102
RTVSPropertyOp18
 70
     1
102
RTVSPropertyOp19
 70
     1
102
RTVSPropertyOp20
 70
     1
102
RTVSPropertyOp21
 70
     1
102
RTVSPropertyOp22
 70
     1
102
RTVSPropertyOp23
 70
     1
102
RTVSPropertyOp24
 70
     1
102
RTVSPropertyOp25
 70
     1
102
RTVSPropertyOp26
 70
     1
102
RTVSPropertyOp27
 70
     1
  0
XRECORD
  5
1496
102
{ACAD_REACTORS
330
1495
102
}
330
1495
100
AcDbXrecord
280
     1
102
RTVSPropertyOp0
 70
     1
102
RTVSPropertyOp1
 70
     1
102
RTVSPropertyOp2
 70
     1
102
RTVSPropertyOp3
 70
     1
102
RTVSPropertyOp4
 70
     1
102
RTVSPropertyOp5
 70
     1
102
RTVSPropertyOp6
 70
     1
102
RTVSPropertyOp7
 70
     1
102
RTVSPropertyOp8
 70
     1
102
RTVSPropertyOp9
 70
     1
102
RTVSPropertyOp10
 70
     1
102
RTVSPropertyOp11
 70
     1
102
RTVSPropertyOp12
 70
     1
102
RTVSPropertyOp13
 70
     1
102
RTVSPropertyOp14
 70
     1
102
RTVSPropertyOp15
 70
     1
102
RTVSPropertyOp16
 70
     1
102
RTVSPropertyOp17
 70
     1
102
RTVSPropertyOp18
 70
     1
102
RTVSPropertyOp19
 70
     1
102
RTVSPropertyOp20
 70
     1
102
RTVSPropertyOp21
 70
     1
102
RTVSPropertyOp22
 70
     1
102
RTVSPropertyOp23
 70
     1
102
RTVSPropertyOp24
 70
     1
102
RTVSPropertyOp25
 70
     1
102
RTVSPropertyOp26
 70
     1
102
RTVSPropertyOp27
 70
     1
  0
XRECORD
  5
1494
102
{ACAD_REACTORS
330
1493
102
}
330
1493
100
AcDbXrecord
280
     1
102
RTVSPropertyOp0
 70
     1
102
RTVSPropertyOp1
 70
     1
102
RTVSPropertyOp2
 70
     1
102
RTVSPropertyOp3
 70
     1
102
RTVSPropertyOp4
 70
     1
102
RTVSPropertyOp5
 70
     1
102
RTVSPropertyOp6
 70
     1
102
RTVSPropertyOp7
 70
     1
102
RTVSPropertyOp8
 70
     1
102
RTVSPropertyOp9
 70
     1
102
RTVSPropertyOp10
 70
     1
102
RTVSPropertyOp11
 70
     1
102
RTVSPropertyOp12
 70
     1
102
RTVSPropertyOp13
 70
     1
102
RTVSPropertyOp14
 70
     1
102
RTVSPropertyOp15
 70
     1
102
RTVSPropertyOp16
 70
     1
102
RTVSPropertyOp17
 70
     1
102
RTVSPropertyOp18
 70
     1
102
RTVSPropertyOp19
 70
     1
102
RTVSPropertyOp20
 70
     1
102
RTVSPropertyOp21
 70
     1
102
RTVSPropertyOp22
 70
     1
102
RTVSPropertyOp23
 70
     1
102
RTVSPropertyOp24
 70
     1
102
RTVSPropertyOp25
 70
     1
102
RTVSPropertyOp26
 70
     1
102
RTVSPropertyOp27
 70
     1
  0
XRECORD
  5
1490
102
{ACAD_REACTORS
330
148F
102
}
330
148F
100
AcDbXrecord
280
     1
102
RTVSPropertyOp0
 70
     1
102
RTVSPropertyOp1
 70
     1
102
RTVSPropertyOp2
 70
     1
102
RTVSPropertyOp3
 70
     1
102
RTVSPropertyOp4
 70
     1
102
RTVSPropertyOp5
 70
     1
102
RTVSPropertyOp6
 70
     1
102
RTVSPropertyOp7
 70
     1
102
RTVSPropertyOp8
 70
     1
102
RTVSPropertyOp9
 70
     1
102
RTVSPropertyOp10
 70
     1
102
RTVSPropertyOp11
 70
     1
102
RTVSPropertyOp12
 70
     1
102
RTVSPropertyOp13
 70
     1
102
RTVSPropertyOp14
 70
     1
102
RTVSPropertyOp15
 70
     1
102
RTVSPropertyOp16
 70
     1
102
RTVSPropertyOp17
 70
     1
102
RTVSPropertyOp18
 70
     1
102
RTVSPropertyOp19
 70
     1
102
RTVSPropertyOp20
 70
     1
102
RTVSPropertyOp21
 70
     1
102
RTVSPropertyOp22
 70
     1
102
RTVSPropertyOp23
 70
     1
102
RTVSPropertyOp24
 70
     1
102
RTVSPropertyOp25
 70
     1
102
RTVSPropertyOp26
 70
     1
102
RTVSPropertyOp27
 70
     1
  0
XRECORD
  5
149E
102
{ACAD_REACTORS
330
149D
102
}
330
149D
100
AcDbXrecord
280
     1
102
RTVSPropertyOp0
 70
     1
102
RTVSPropertyOp1
 70
     1
102
RTVSPropertyOp2
 70
     1
102
RTVSPropertyOp3
 70
     1
102
RTVSPropertyOp4
 70
     1
102
RTVSPropertyOp5
 70
     1
102
RTVSPropertyOp6
 70
     1
102
RTVSPropertyOp7
 70
     1
102
RTVSPropertyOp8
 70
     1
102
RTVSPropertyOp9
 70
     1
102
RTVSPropertyOp10
 70
     1
102
RTVSPropertyOp11
 70
     1
102
RTVSPropertyOp12
 70
     1
102
RTVSPropertyOp13
 70
     1
102
RTVSPropertyOp14
 70
     1
102
RTVSPropertyOp15
 70
     1
102
RTVSPropertyOp16
 70
     1
102
RTVSPropertyOp17
 70
     1
102
RTVSPropertyOp18
 70
     1
102
RTVSPropertyOp19
 70
     1
102
RTVSPropertyOp20
 70
     1
102
RTVSPropertyOp21
 70
     1
102
RTVSPropertyOp22
 70
     1
102
RTVSPropertyOp23
 70
     1
102
RTVSPropertyOp24
 70
     1
102
RTVSPropertyOp25
 70
     1
102
RTVSPropertyOp26
 70
     1
102
RTVSPropertyOp27
 70
     1
  0
XRECORD
  5
14A6
102
{ACAD_REACTORS
330
14A5
102
}
330
14A5
100
AcDbXrecord
280
     1
102
RTVSPropertyOp0
 70
     1
102
RTVSPropertyOp1
 70
     1
102
RTVSPropertyOp2
 70
     1
102
RTVSPropertyOp3
 70
     1
102
RTVSPropertyOp4
 70
     1
102
RTVSPropertyOp5
 70
     1
102
RTVSPropertyOp6
 70
     1
102
RTVSPropertyOp7
 70
     1
102
RTVSPropertyOp8
 70
     1
102
RTVSPropertyOp9
 70
     1
102
RTVSPropertyOp10
 70
     1
102
RTVSPropertyOp11
 70
     1
102
RTVSPropertyOp12
 70
     1
102
RTVSPropertyOp13
 70
     1
102
RTVSPropertyOp14
 70
     1
102
RTVSPropertyOp15
 70
     1
102
RTVSPropertyOp16
 70
     1
102
RTVSPropertyOp17
 70
     1
102
RTVSPropertyOp18
 70
     1
102
RTVSPropertyOp19
 70
     1
102
RTVSPropertyOp20
 70
     1
102
RTVSPropertyOp21
 70
     1
102
RTVSPropertyOp22
 70
     1
102
RTVSPropertyOp23
 70
     1
102
RTVSPropertyOp24
 70
     1
102
RTVSPropertyOp25
 70
     1
102
RTVSPropertyOp26
 70
     1
102
RTVSPropertyOp27
 70
     1
  0
XRECORD
  5
1498
102
{ACAD_REACTORS
330
1497
102
}
330
1497
100
AcDbXrecord
280
     1
102
RTVSPropertyOp0
 70
     1
102
RTVSPropertyOp1
 70
     1
102
RTVSPropertyOp2
 70
     1
102
RTVSPropertyOp3
 70
     1
102
RTVSPropertyOp4
 70
     1
102
RTVSPropertyOp5
 70
     1
102
RTVSPropertyOp6
 70
     1
102
RTVSPropertyOp7
 70
     1
102
RTVSPropertyOp8
 70
     1
102
RTVSPropertyOp9
 70
     1
102
RTVSPropertyOp10
 70
     1
102
RTVSPropertyOp11
 70
     1
102
RTVSPropertyOp12
 70
     1
102
RTVSPropertyOp13
 70
     1
102
RTVSPropertyOp14
 70
     1
102
RTVSPropertyOp15
 70
     1
102
RTVSPropertyOp16
 70
     1
102
RTVSPropertyOp17
 70
     1
102
RTVSPropertyOp18
 70
     1
102
RTVSPropertyOp19
 70
     1
102
RTVSPropertyOp20
 70
     1
102
RTVSPropertyOp21
 70
     1
102
RTVSPropertyOp22
 70
     1
102
RTVSPropertyOp23
 70
     1
102
RTVSPropertyOp24
 70
     1
102
RTVSPropertyOp25
 70
     1
102
RTVSPropertyOp26
 70
     1
102
RTVSPropertyOp27
 70
     1
  0
XRECORD
  5
149C
102
{ACAD_REACTORS
330
149B
102
}
330
149B
100
AcDbXrecord
280
     1
102
RTVSPropertyOp0
 70
     1
102
RTVSPropertyOp1
 70
     1
102
RTVSPropertyOp2
 70
     1
102
RTVSPropertyOp3
 70
     1
102
RTVSPropertyOp4
 70
     1
102
RTVSPropertyOp5
 70
     1
102
RTVSPropertyOp6
 70
     1
102
RTVSPropertyOp7
 70
     1
102
RTVSPropertyOp8
 70
     1
102
RTVSPropertyOp9
 70
     1
102
RTVSPropertyOp10
 70
     1
102
RTVSPropertyOp11
 70
     1
102
RTVSPropertyOp12
 70
     1
102
RTVSPropertyOp13
 70
     1
102
RTVSPropertyOp14
 70
     1
102
RTVSPropertyOp15
 70
     1
102
RTVSPropertyOp16
 70
     1
102
RTVSPropertyOp17
 70
     1
102
RTVSPropertyOp18
 70
     1
102
RTVSPropertyOp19
 70
     1
102
RTVSPropertyOp20
 70
     1
102
RTVSPropertyOp21
 70
     1
102
RTVSPropertyOp22
 70
     1
102
RTVSPropertyOp23
 70
     1
102
RTVSPropertyOp24
 70
     1
102
RTVSPropertyOp25
 70
     1
102
RTVSPropertyOp26
 70
     1
102
RTVSPropertyOp27
 70
     1
  0
XRECORD
  5
14AC
102
{ACAD_REACTORS
330
14AB
102
}
330
14AB
100
AcDbXrecord
280
     1
102
RTVSPropertyOp0
 70
     0
102
RTVSPropertyOp1
 70
     0
102
RTVSPropertyOp2
 70
     0
102
RTVSPropertyOp3
 70
     0
102
RTVSPropertyOp4
 70
     0
102
RTVSPropertyOp5
 70
     0
102
RTVSPropertyOp6
 70
     0
102
RTVSPropertyOp7
 70
     0
102
RTVSPropertyOp8
 70
     0
102
RTVSPropertyOp9
 70
     0
102
RTVSPropertyOp10
 70
     0
102
RTVSPropertyOp11
 70
     0
102
RTVSPropertyOp12
 70
     0
102
RTVSPropertyOp13
 70
     0
102
RTVSPropertyOp14
 70
     2
102
RTVSPropertyOp15
 70
     0
102
RTVSPropertyOp16
 70
     0
102
RTVSPropertyOp17
 70
     0
102
RTVSPropertyOp18
 70
     0
102
RTVSPropertyOp19
 70
     0
102
RTVSPropertyOp20
 70
     0
102
RTVSPropertyOp21
 70
     0
102
RTVSPropertyOp22
 70
     0
102
RTVSPropertyOp23
 70
     0
102
RTVSPropertyOp24
 70
     0
102
RTVSPropertyOp25
 70
     0
102
RTVSPropertyOp26
 70
     0
102
RTVSPropertyOp27
 70
     0
  0
XRECORD
  5
14A4
102
{ACAD_REACTORS
330
14A3
102
}
330
14A3
100
AcDbXrecord
280
     1
102
RTVSPropertyOp0
 70
     1
102
RTVSPropertyOp1
 70
     1
102
RTVSPropertyOp2
 70
     1
102
RTVSPropertyOp3
 70
     1
102
RTVSPropertyOp4
 70
     1
102
RTVSPropertyOp5
 70
     1
102
RTVSPropertyOp6
 70
     1
102
RTVSPropertyOp7
 70
     1
102
RTVSPropertyOp8
 70
     1
102
RTVSPropertyOp9
 70
     1
102
RTVSPropertyOp10
 70
     1
102
RTVSPropertyOp11
 70
     1
102
RTVSPropertyOp12
 70
     1
102
RTVSPropertyOp13
 70
     1
102
RTVSPropertyOp14
 70
     1
102
RTVSPropertyOp15
 70
     1
102
RTVSPropertyOp16
 70
     1
102
RTVSPropertyOp17
 70
     1
102
RTVSPropertyOp18
 70
     1
102
RTVSPropertyOp19
 70
     1
102
RTVSPropertyOp20
 70
     1
102
RTVSPropertyOp21
 70
     1
102
RTVSPropertyOp22
 70
     1
102
RTVSPropertyOp23
 70
     1
102
RTVSPropertyOp24
 70
     1
102
RTVSPropertyOp25
 70
     1
102
RTVSPropertyOp26
 70
     1
102
RTVSPropertyOp27
 70
     1
  0
XRECORD
  5
1488
102
{ACAD_REACTORS
330
1487
102
}
330
1487
100
AcDbXrecord
280
     1
102
RTVSPropertyOp0
 70
     1
102
RTVSPropertyOp1
 70
     1
102
RTVSPropertyOp2
 70
     1
102
RTVSPropertyOp3
 70
     1
102
RTVSPropertyOp4
 70
     1
102
RTVSPropertyOp5
 70
     1
102
RTVSPropertyOp6
 70
     1
102
RTVSPropertyOp7
 70
     1
102
RTVSPropertyOp8
 70
     1
102
RTVSPropertyOp9
 70
     1
102
RTVSPropertyOp10
 70
     1
102
RTVSPropertyOp11
 70
     1
102
RTVSPropertyOp12
 70
     1
102
RTVSPropertyOp13
 70
     1
102
RTVSPropertyOp14
 70
     1
102
RTVSPropertyOp15
 70
     1
102
RTVSPropertyOp16
 70
     1
102
RTVSPropertyOp17
 70
     1
102
RTVSPropertyOp18
 70
     1
102
RTVSPropertyOp19
 70
     1
102
RTVSPropertyOp20
 70
     1
102
RTVSPropertyOp21
 70
     1
102
RTVSPropertyOp22
 70
     1
102
RTVSPropertyOp23
 70
     1
102
RTVSPropertyOp24
 70
     1
102
RTVSPropertyOp25
 70
     1
102
RTVSPropertyOp26
 70
     1
102
RTVSPropertyOp27
 70
     1
  0
XRECORD
  5
148A
102
{ACAD_REACTORS
330
1489
102
}
330
1489
100
AcDbXrecord
280
     1
102
RTVSPropertyOp0
 70
     1
102
RTVSPropertyOp1
 70
     1
102
RTVSPropertyOp2
 70
     1
102
RTVSPropertyOp3
 70
     1
102
RTVSPropertyOp4
 70
     1
102
RTVSPropertyOp5
 70
     1
102
RTVSPropertyOp6
 70
     1
102
RTVSPropertyOp7
 70
     1
102
RTVSPropertyOp8
 70
     1
102
RTVSPropertyOp9
 70
     1
102
RTVSPropertyOp10
 70
     1
102
RTVSPropertyOp11
 70
     1
102
RTVSPropertyOp12
 70
     1
102
RTVSPropertyOp13
 70
     1
102
RTVSPropertyOp14
 70
     1
102
RTVSPropertyOp15
 70
     1
102
RTVSPropertyOp16
 70
     1
102
RTVSPropertyOp17
 70
     1
102
RTVSPropertyOp18
 70
     1
102
RTVSPropertyOp19
 70
     1
102
RTVSPropertyOp20
 70
     1
102
RTVSPropertyOp21
 70
     1
102
RTVSPropertyOp22
 70
     1
102
RTVSPropertyOp23
 70
     1
102
RTVSPropertyOp24
 70
     1
102
RTVSPropertyOp25
 70
     1
102
RTVSPropertyOp26
 70
     1
102
RTVSPropertyOp27
 70
     1
  0
XRECORD
  5
148C
102
{ACAD_REACTORS
330
148B
102
}
330
148B
100
AcDbXrecord
280
     1
102
RTVSPropertyOp0
 70
     1
102
RTVSPropertyOp1
 70
     1
102
RTVSPropertyOp2
 70
     1
102
RTVSPropertyOp3
 70
     1
102
RTVSPropertyOp4
 70
     1
102
RTVSPropertyOp5
 70
     1
102
RTVSPropertyOp6
 70
     1
102
RTVSPropertyOp7
 70
     1
102
RTVSPropertyOp8
 70
     1
102
RTVSPropertyOp9
 70
     1
102
RTVSPropertyOp10
 70
     1
102
RTVSPropertyOp11
 70
     1
102
RTVSPropertyOp12
 70
     1
102
RTVSPropertyOp13
 70
     1
102
RTVSPropertyOp14
 70
     1
102
RTVSPropertyOp15
 70
     1
102
RTVSPropertyOp16
 70
     1
102
RTVSPropertyOp17
 70
     1
102
RTVSPropertyOp18
 70
     1
102
RTVSPropertyOp19
 70
     1
102
RTVSPropertyOp20
 70
     1
102
RTVSPropertyOp21
 70
     1
102
RTVSPropertyOp22
 70
     1
102
RTVSPropertyOp23
 70
     1
102
RTVSPropertyOp24
 70
     1
102
RTVSPropertyOp25
 70
     1
102
RTVSPropertyOp26
 70
     1
102
RTVSPropertyOp27
 70
     1
  0
XRECORD
  5
148E
102
{ACAD_REACTORS
330
148D
102
}
330
148D
100
AcDbXrecord
280
     1
102
RTVSPropertyOp0
 70
     1
102
RTVSPropertyOp1
 70
     1
102
RTVSPropertyOp2
 70
     1
102
RTVSPropertyOp3
 70
     1
102
RTVSPropertyOp4
 70
     1
102
RTVSPropertyOp5
 70
     1
102
RTVSPropertyOp6
 70
     1
102
RTVSPropertyOp7
 70
     1
102
RTVSPropertyOp8
 70
     1
102
RTVSPropertyOp9
 70
     1
102
RTVSPropertyOp10
 70
     1
102
RTVSPropertyOp11
 70
     1
102
RTVSPropertyOp12
 70
     1
102
RTVSPropertyOp13
 70
     1
102
RTVSPropertyOp14
 70
     1
102
RTVSPropertyOp15
 70
     1
102
RTVSPropertyOp16
 70
     1
102
RTVSPropertyOp17
 70
     1
102
RTVSPropertyOp18
 70
     1
102
RTVSPropertyOp19
 70
     1
102
RTVSPropertyOp20
 70
     1
102
RTVSPropertyOp21
 70
     1
102
RTVSPropertyOp22
 70
     1
102
RTVSPropertyOp23
 70
     1
102
RTVSPropertyOp24
 70
     1
102
RTVSPropertyOp25
 70
     1
102
RTVSPropertyOp26
 70
     1
102
RTVSPropertyOp27
 70
     1
  0
XRECORD
  5
14A8
102
{ACAD_REACTORS
330
14A7
102
}
330
14A7
100
AcDbXrecord
280
     1
102
RTVSPropertyOp0
 70
     0
102
RTVSPropertyOp1
 70
     0
102
RTVSPropertyOp2
 70
     0
102
RTVSPropertyOp3
 70
     0
102
RTVSPropertyOp4
 70
     0
102
RTVSPropertyOp5
 70
     0
102
RTVSPropertyOp6
 70
     0
102
RTVSPropertyOp7
 70
     0
102
RTVSPropertyOp8
 70
     0
102
RTVSPropertyOp9
 70
     0
102
RTVSPropertyOp10
 70
     0
102
RTVSPropertyOp11
 70
     0
102
RTVSPropertyOp12
 70
     0
102
RTVSPropertyOp13
 70
     0
102
RTVSPropertyOp14
 70
     2
102
RTVSPropertyOp15
 70
     0
102
RTVSPropertyOp16
 70
     0
102
RTVSPropertyOp17
 70
     0
102
RTVSPropertyOp18
 70
     0
102
RTVSPropertyOp19
 70
     0
102
RTVSPropertyOp20
 70
     0
102
RTVSPropertyOp21
 70
     0
102
RTVSPropertyOp22
 70
     0
102
RTVSPropertyOp23
 70
     0
102
RTVSPropertyOp24
 70
     0
102
RTVSPropertyOp25
 70
     0
102
RTVSPropertyOp26
 70
     0
102
RTVSPropertyOp27
 70
     0
  0
XRECORD
  5
14A2
102
{ACAD_REACTORS
330
14A1
102
}
330
14A1
100
AcDbXrecord
280
     1
102
RTVSPropertyOp0
 70
     1
102
RTVSPropertyOp1
 70
     1
102
RTVSPropertyOp2
 70
     1
102
RTVSPropertyOp3
 70
     1
102
RTVSPropertyOp4
 70
     1
102
RTVSPropertyOp5
 70
     1
102
RTVSPropertyOp6
 70
     1
102
RTVSPropertyOp7
 70
     1
102
RTVSPropertyOp8
 70
     1
102
RTVSPropertyOp9
 70
     1
102
RTVSPropertyOp10
 70
     1
102
RTVSPropertyOp11
 70
     1
102
RTVSPropertyOp12
 70
     1
102
RTVSPropertyOp13
 70
     1
102
RTVSPropertyOp14
 70
     1
102
RTVSPropertyOp15
 70
     1
102
RTVSPropertyOp16
 70
     1
102
RTVSPropertyOp17
 70
     1
102
RTVSPropertyOp18
 70
     1
102
RTVSPropertyOp19
 70
     1
102
RTVSPropertyOp20
 70
     1
102
RTVSPropertyOp21
 70
     1
102
RTVSPropertyOp22
 70
     1
102
RTVSPropertyOp23
 70
     1
102
RTVSPropertyOp24
 70
     1
102
RTVSPropertyOp25
 70
     1
102
RTVSPropertyOp26
 70
     1
102
RTVSPropertyOp27
 70
     1
  0
XRECORD
  5
14AA
102
{ACAD_REACTORS
330
14A9
102
}
330
14A9
100
AcDbXrecord
280
     1
102
RTVSPropertyOp0
 70
     0
102
RTVSPropertyOp1
 70
     0
102
RTVSPropertyOp2
 70
     0
102
RTVSPropertyOp3
 70
     0
102
RTVSPropertyOp4
 70
     0
102
RTVSPropertyOp5
 70
     0
102
RTVSPropertyOp6
 70
     0
102
RTVSPropertyOp7
 70
     0
102
RTVSPropertyOp8
 70
     0
102
RTVSPropertyOp9
 70
     0
102
RTVSPropertyOp10
 70
     0
102
RTVSPropertyOp11
 70
     0
102
RTVSPropertyOp12
 70
     0
102
RTVSPropertyOp13
 70
     0
102
RTVSPropertyOp14
 70
     2
102
RTVSPropertyOp15
 70
     0
102
RTVSPropertyOp16
 70
     0
102
RTVSPropertyOp17
 70
     0
102
RTVSPropertyOp18
 70
     0
102
RTVSPropertyOp19
 70
     0
102
RTVSPropertyOp20
 70
     0
102
RTVSPropertyOp21
 70
     0
102
RTVSPropertyOp22
 70
     0
102
RTVSPropertyOp23
 70
     0
102
RTVSPropertyOp24
 70
     0
102
RTVSPropertyOp25
 70
     0
102
RTVSPropertyOp26
 70
     0
102
RTVSPropertyOp27
 70
     0
  0
XRECORD
  5
149A
102
{ACAD_REACTORS
330
1499
102
}
330
1499
100
AcDbXrecord
280
     1
102
RTVSPropertyOp0
 70
     1
102
RTVSPropertyOp1
 70
     1
102
RTVSPropertyOp2
 70
     1
102
RTVSPropertyOp3
 70
     1
102
RTVSPropertyOp4
 70
     1
102
RTVSPropertyOp5
 70
     1
102
RTVSPropertyOp6
 70
     1
102
RTVSPropertyOp7
 70
     1
102
RTVSPropertyOp8
 70
     1
102
RTVSPropertyOp9
 70
     1
102
RTVSPropertyOp10
 70
     1
102
RTVSPropertyOp11
 70
     1
102
RTVSPropertyOp12
 70
     1
102
RTVSPropertyOp13
 70
     1
102
RTVSPropertyOp14
 70
     1
102
RTVSPropertyOp15
 70
     1
102
RTVSPropertyOp16
 70
     1
102
RTVSPropertyOp17
 70
     1
102
RTVSPropertyOp18
 70
     1
102
RTVSPropertyOp19
 70
     1
102
RTVSPropertyOp20
 70
     1
102
RTVSPropertyOp21
 70
     1
102
RTVSPropertyOp22
 70
     1
102
RTVSPropertyOp23
 70
     1
102
RTVSPropertyOp24
 70
     1
102
RTVSPropertyOp25
 70
     1
102
RTVSPropertyOp26
 70
     1
102
RTVSPropertyOp27
 70
     1
  0
XRECORD
  5
14A0
102
{ACAD_REACTORS
330
149F
102
}
330
149F
100
AcDbXrecord
280
     1
102
RTVSPropertyOp0
 70
     1
102
RTVSPropertyOp1
 70
     1
102
RTVSPropertyOp2
 70
     1
102
RTVSPropertyOp3
 70
     1
102
RTVSPropertyOp4
 70
     1
102
RTVSPropertyOp5
 70
     1
102
RTVSPropertyOp6
 70
     1
102
RTVSPropertyOp7
 70
     1
102
RTVSPropertyOp8
 70
     1
102
RTVSPropertyOp9
 70
     1
102
RTVSPropertyOp10
 70
     1
102
RTVSPropertyOp11
 70
     1
102
RTVSPropertyOp12
 70
     1
102
RTVSPropertyOp13
 70
     1
102
RTVSPropertyOp14
 70
     1
102
RTVSPropertyOp15
 70
     1
102
RTVSPropertyOp16
 70
     1
102
RTVSPropertyOp17
 70
     1
102
RTVSPropertyOp18
 70
     1
102
RTVSPropertyOp19
 70
     1
102
RTVSPropertyOp20
 70
     1
102
RTVSPropertyOp21
 70
     1
102
RTVSPropertyOp22
 70
     1
102
RTVSPropertyOp23
 70
     1
102
RTVSPropertyOp24
 70
     1
102
RTVSPropertyOp25
 70
     1
102
RTVSPropertyOp26
 70
     1
102
RTVSPropertyOp27
 70
     1
  0
ENDSEC
  0
EOF
