  0
SECTION
  2
HEADER
  9
$ACADVER
  1
AC1015
  9
$ACADMAINTVER
 70
    20
  9
$DWGCODEPAGE
  3
ANSI_1252
  9
$INSBASE
 10
0.0
 20
0.0
 30
0.0
  9
$EXTMIN
 10
-14.06430393519701
 20
678.8071601649868
 30
0.0
  9
$EXTMAX
 10
-11.69974540425581
 20
679.5847753313023
 30
0.0
  9
$LIMMIN
 10
0.0
 20
0.0
  9
$LIMMAX
 10
420.0
 20
297.0
  9
$ORTHOMODE
 70
     1
  9
$REGENMODE
 70
     1
  9
$FILLMODE
 70
     1
  9
$QTEXTMODE
 70
     0
  9
$MIRRTEXT
 70
     1
  9
$LTSCALE
 40
1.0
  9
$ATTMODE
 70
     1
  9
$TEXTSIZE
 40
2.5
  9
$TRACEWID
 40
1.0
  9
$TEXTSTYLE
  7
SANINDUSA
  9
$CLAYER
  8
0
  9
$CELTYPE
  6
ByLayer
  9
$CECOLOR
 62
   256
  9
$CELTSCALE
 40
1.0
  9
$DISPSILH
 70
     0
  9
$DIMSCALE
 40
1.0
  9
$DIMASZ
 40
2.0
  9
$DIMEXO
 40
1.0
  9
$DIMDLI
 40
1.0
  9
$DIMRND
 40
0.0
  9
$DIMDLE
 40
0.0
  9
$DIMEXE
 40
1.0
  9
$DIMTP
 40
0.0
  9
$DIMTM
 40
0.0
  9
$DIMTXT
 40
2.0
  9
$DIMCEN
 40
0.0
  9
$DIMTSZ
 40
0.0
  9
$DIMTOL
 70
     0
  9
$DIMLIM
 70
     0
  9
$DIMTIH
 70
     0
  9
$DIMTOH
 70
     0
  9
$DIMSE1
 70
     0
  9
$DIMSE2
 70
     0
  9
$DIMTAD
 70
     1
  9
$DIMZIN
 70
     8
  9
$DIMBLK
  1

  9
$DIMASO
 70
     1
  9
$DIMSHO
 70
     1
  9
$DIMPOST
  1

  9
$DIMAPOST
  1

  9
$DIMALT
 70
     0
  9
$DIMALTD
 70
     3
  9
$DIMALTF
 40
0.03937007874016
  9
$DIMLFAC
 40
1.0
  9
$DIMTOFL
 70
     1
  9
$DIMTVP
 40
0.0
  9
$DIMTIX
 70
     0
  9
$DIMSOXD
 70
     0
  9
$DIMSAH
 70
     0
  9
$DIMBLK1
  1

  9
$DIMBLK2
  1

  9
$DIMSTYLE
  2
SANINDUSA
  9
$DIMCLRD
 70
   256
  9
$DIMCLRE
 70
   256
  9
$DIMCLRT
 70
   256
  9
$DIMTFAC
 40
1.0
  9
$DIMGAP
 40
1.0
  9
$DIMJUST
 70
     0
  9
$DIMSD1
 70
     0
  9
$DIMSD2
 70
     0
  9
$DIMTOLJ
 70
     0
  9
$DIMTZIN
 70
     8
  9
$DIMALTZ
 70
     0
  9
$DIMALTTZ
 70
     0
  9
$DIMUPT
 70
     0
  9
$DIMDEC
 70
     1
  9
$DIMTDEC
 70
     1
  9
$DIMALTU
 70
     2
  9
$DIMALTTD
 70
     3
  9
$DIMTXSTY
  7
SANINDUSA
  9
$DIMAUNIT
 70
     0
  9
$DIMADEC
 70
     1
  9
$DIMALTRND
 40
0.0
  9
$DIMAZIN
 70
     0
  9
$DIMDSEP
 70
    44
  9
$DIMATFIT
 70
     3
  9
$DIMFRAC
 70
     0
  9
$DIMLDRBLK
  1

  9
$DIMLUNIT
 70
     2
  9
$DIMLWD
 70
    -1
  9
$DIMLWE
 70
    -1
  9
$DIMTMOVE
 70
     0
  9
$LUNITS
 70
     2
  9
$LUPREC
 70
     4
  9
$SKETCHINC
 40
1.0
  9
$FILLETRAD
 40
3.0
  9
$AUNITS
 70
     0
  9
$AUPREC
 70
     0
  9
$MENU
  1
.
  9
$ELEVATION
 40
0.0
  9
$PELEVATION
 40
0.0
  9
$THICKNESS
 40
0.0
  9
$LIMCHECK
 70
     0
  9
$CHAMFERA
 40
10.0
  9
$CHAMFERB
 40
10.0
  9
$CHAMFERC
 40
20.0
  9
$CHAMFERD
 40
0.0
  9
$SKPOLY
 70
     0
  9
$TDCREATE
 40
2453501.465108507
  9
$TDUCREATE
 40
2453501.423441840
  9
$TDUPDATE
 40
2454650.511090672
  9
$TDUUPDATE
 40
2454650.469424005
  9
$TDINDWG
 40
0.0012820139
  9
$TDUSRTIMER
 40
0.0012820139
  9
$USRTIMER
 70
     1
  9
$ANGBASE
 50
0.0
  9
$ANGDIR
 70
     0
  9
$PDMODE
 70
     0
  9
$PDSIZE
 40
0.0
  9
$PLINEWID
 40
0.0
  9
$SPLFRAME
 70
     0
  9
$SPLINETYPE
 70
     6
  9
$SPLINESEGS
 70
     8
  9
$HANDSEED
  5
108E
  9
$SURFTAB1
 70
     6
  9
$SURFTAB2
 70
     6
  9
$SURFTYPE
 70
     6
  9
$SURFU
 70
     6
  9
$SURFV
 70
     6
  9
$UCSBASE
  2

  9
$UCSNAME
  2

  9
$UCSORG
 10
0.0
 20
0.0
 30
0.0
  9
$UCSXDIR
 10
1.0
 20
0.0
 30
0.0
  9
$UCSYDIR
 10
0.0
 20
1.0
 30
0.0
  9
$UCSORTHOREF
  2

  9
$UCSORTHOVIEW
 70
     0
  9
$UCSORGTOP
 10
0.0
 20
0.0
 30
0.0
  9
$UCSORGBOTTOM
 10
0.0
 20
0.0
 30
0.0
  9
$UCSORGLEFT
 10
0.0
 20
0.0
 30
0.0
  9
$UCSORGRIGHT
 10
0.0
 20
0.0
 30
0.0
  9
$UCSORGFRONT
 10
0.0
 20
0.0
 30
0.0
  9
$UCSORGBACK
 10
0.0
 20
0.0
 30
0.0
  9
$PUCSBASE
  2

  9
$PUCSNAME
  2

  9
$PUCSORG
 10
0.0
 20
0.0
 30
0.0
  9
$PUCSXDIR
 10
1.0
 20
0.0
 30
0.0
  9
$PUCSYDIR
 10
0.0
 20
1.0
 30
0.0
  9
$PUCSORTHOREF
  2

  9
$PUCSORTHOVIEW
 70
     0
  9
$PUCSORGTOP
 10
0.0
 20
0.0
 30
0.0
  9
$PUCSORGBOTTOM
 10
0.0
 20
0.0
 30
0.0
  9
$PUCSORGLEFT
 10
0.0
 20
0.0
 30
0.0
  9
$PUCSORGRIGHT
 10
0.0
 20
0.0
 30
0.0
  9
$PUCSORGFRONT
 10
0.0
 20
0.0
 30
0.0
  9
$PUCSORGBACK
 10
0.0
 20
0.0
 30
0.0
  9
$USERI1
 70
     0
  9
$USERI2
 70
     0
  9
$USERI3
 70
     0
  9
$USERI4
 70
     0
  9
$USERI5
 70
     0
  9
$USERR1
 40
0.0
  9
$USERR2
 40
0.0
  9
$USERR3
 40
0.0
  9
$USERR4
 40
0.0
  9
$USERR5
 40
0.0
  9
$WORLDVIEW
 70
     1
  9
$SHADEDGE
 70
     3
  9
$SHADEDIF
 70
    70
  9
$TILEMODE
 70
     1
  9
$MAXACTVP
 70
    64
  9
$PINSBASE
 10
0.0
 20
0.0
 30
0.0
  9
$PLIMCHECK
 70
     0
  9
$PEXTMIN
 10
1.000000000000000E+20
 20
1.000000000000000E+20
 30
1.000000000000000E+20
  9
$PEXTMAX
 10
-1.000000000000000E+20
 20
-1.000000000000000E+20
 30
-1.000000000000000E+20
  9
$PLIMMIN
 10
0.0
 20
0.0
  9
$PLIMMAX
 10
420.0
 20
297.0
  9
$UNITMODE
 70
     0
  9
$VISRETAIN
 70
     1
  9
$PLINEGEN
 70
     0
  9
$PSLTSCALE
 70
     1
  9
$TREEDEPTH
 70
  3020
  9
$CMLSTYLE
  2
Standard
  9
$CMLJUST
 70
     0
  9
$CMLSCALE
 40
20.0
  9
$PROXYGRAPHICS
 70
     1
  9
$MEASUREMENT
 70
     1
  9
$CELWEIGHT
370
    -1
  9
$ENDCAPS
280
     0
  9
$JOINSTYLE
280
     0
  9
$LWDISPLAY
290
     0
  9
$INSUNITS
 70
     4
  9
$HYPERLINKBASE
  1

  9
$STYLESHEET
  1
monochrome.ctb
  9
$XEDIT
290
     1
  9
$CEPSNTYPE
380
     0
  9
$PSTYLEMODE
290
     1
  9
$FINGERPRINTGUID
  2
{B98A73AA-52AA-4C10-B469-C0E7150AC31F}
  9
$VERSIONGUID
  2
{0C9771F5-9E5C-480E-B63A-A865A4EFD064}
  9
$EXTNAMES
290
     1
  9
$PSVPSCALE
 40
0.0
  9
$OLESTARTUP
290
     0
  0
ENDSEC
  0
SECTION
  2
CLASSES
  0
CLASS
  1
ACDBDICTIONARYWDFLT
  2
AcDbDictionaryWithDefault
  3
ObjectDBX Classes
 90
        0
280
     0
281
     0
  0
CLASS
  1
ACDBPLACEHOLDER
  2
AcDbPlaceHolder
  3
ObjectDBX Classes
 90
        0
280
     0
281
     0
  0
CLASS
  1
LAYOUT
  2
AcDbLayout
  3
ObjectDBX Classes
 90
        0
280
     0
281
     0
  0
CLASS
  1
DICTIONARYVAR
  2
AcDbDictionaryVar
  3
ObjectDBX Classes
 90
        0
280
     0
281
     0
  0
CLASS
  1
DIMASSOC
  2
AcDbDimAssoc
  3
"AcDbDimAssoc|Product Desc:     AcDim ARX App For Dimension|Company:          Autodesk, Inc.|WEB Address:      www.autodesk.com"
 90
    32768
280
     0
281
     0
  0
CLASS
  1
TABLESTYLE
  2
AcDbTableStyle
  3
ObjectDBX Classes
 90
     2047
280
     0
281
     0
  0
ENDSEC
  0
SECTION
  2
TABLES
  0
TABLE
  2
VPORT
  5
8
330
0
100
AcDbSymbolTable
 70
     2
  0
VPORT
  5
1086
330
8
100
AcDbSymbolTableRecord
100
AcDbViewportTableRecord
  2
*Active
 70
     0
 10
0.0
 20
0.0
 11
1.0
 21
1.0
 12
-12.86224494569387
 22
679.2570891912446
 13
0.0
 23
0.0
 14
10.0
 24
10.0
 15
10.0
 25
10.0
 16
0.0
 26
0.0
 36
1.0
 17
0.0
 27
0.0
 37
0.0
 40
2.220409678648131
 41
1.493506493506493
 42
50.0
 43
0.0
 44
0.0
 50
0.0
 51
0.0
 71
     0
 72
   100
 73
     1
 74
     2
 75
     0
 76
     0
 77
     0
 78
     0
281
     0
 65
     1
110
0.0
120
0.0
130
0.0
111
1.0
121
0.0
131
0.0
112
0.0
122
1.0
132
0.0
 79
     0
146
0.0
  0
ENDTAB
  0
TABLE
  2
LTYPE
  5
5
330
0
100
AcDbSymbolTable
 70
     3
  0
LTYPE
  5
14
330
5
100
AcDbSymbolTableRecord
100
AcDbLinetypeTableRecord
  2
ByBlock
 70
     0
  3

 72
    65
 73
     0
 40
0.0
  0
LTYPE
  5
15
330
5
100
AcDbSymbolTableRecord
100
AcDbLinetypeTableRecord
  2
ByLayer
 70
     0
  3

 72
    65
 73
     0
 40
0.0
  0
LTYPE
  5
16
330
5
100
AcDbSymbolTableRecord
100
AcDbLinetypeTableRecord
  2
Continuous
 70
     0
  3
Solid line
 72
    65
 73
     0
 40
0.0
  0
LTYPE
  5
2D
330
5
100
AcDbSymbolTableRecord
100
AcDbLinetypeTableRecord
  2
DASHDOT
 70
     0
  3
Dash dot __ . __ . __ . __ . __ . __ . __ . __
 72
    65
 73
     4
 40
25.4
 49
12.7
 74
     0
 49
-6.349999999999999
 74
     0
 49
0.0
 74
     0
 49
-6.349999999999999
 74
     0
  0
LTYPE
  5
2E
330
5
100
AcDbSymbolTableRecord
100
AcDbLinetypeTableRecord
  2
HIDDEN
 70
     0
  3
Hidden __ __ __ __ __ __ __ __ __ __ __ __ __ _
 72
    65
 73
     2
 40
9.524999999999998
 49
6.349999999999999
 74
     0
 49
-3.174999999999999
 74
     0
  0
ENDTAB
  0
TABLE
  2
LAYER
  5
2
330
0
100
AcDbSymbolTable
 70
    16
  0
LAYER
  5
10
330
2
100
AcDbSymbolTableRecord
100
AcDbLayerTableRecord
  2
0
 70
     0
 62
     7
  6
Continuous
370
    -3
390
F
  0
LAYER
  5
2F
330
2
100
AcDbSymbolTableRecord
100
AcDbLayerTableRecord
  2
1
 70
     0
 62
     1
  6
Continuous
370
    -3
390
F
  0
LAYER
  5
30
330
2
100
AcDbSymbolTableRecord
100
AcDbLayerTableRecord
  2
2
 70
     0
 62
     2
  6
Continuous
370
    -3
390
F
  0
LAYER
  5
31
330
2
100
AcDbSymbolTableRecord
100
AcDbLayerTableRecord
  2
3
 70
     0
 62
     3
  6
Continuous
370
    -3
390
F
  0
LAYER
  5
32
330
2
100
AcDbSymbolTableRecord
100
AcDbLayerTableRecord
  2
4
 70
     0
 62
     4
  6
Continuous
370
    -3
390
F
  0
LAYER
  5
33
330
2
100
AcDbSymbolTableRecord
100
AcDbLayerTableRecord
  2
5
 70
     0
 62
     5
  6
Continuous
370
    -3
390
F
  0
LAYER
  5
34
330
2
100
AcDbSymbolTableRecord
100
AcDbLayerTableRecord
  2
6
 70
     0
 62
     6
  6
Continuous
370
    -3
390
F
  0
LAYER
  5
35
330
2
100
AcDbSymbolTableRecord
100
AcDbLayerTableRecord
  2
7
 70
     0
 62
     7
  6
Continuous
370
    -3
390
F
  0
LAYER
  5
36
330
2
100
AcDbSymbolTableRecord
100
AcDbLayerTableRecord
  2
cen
 70
     0
 62
     7
  6
DASHDOT
370
    -3
390
F
  0
LAYER
  5
37
330
2
100
AcDbSymbolTableRecord
100
AcDbLayerTableRecord
  2
hid
 70
     0
 62
     7
  6
HIDDEN
370
    -3
390
F
  0
LAYER
  5
5D6
330
2
100
AcDbSymbolTableRecord
100
AcDbLayerTableRecord
  2
hatch
 70
     0
 62
     9
  6
Continuous
370
    -3
390
F
  0
LAYER
  5
8AF
330
2
100
AcDbSymbolTableRecord
100
AcDbLayerTableRecord
  2
9
 70
     0
 62
     9
  6
Continuous
370
    -3
390
F
  0
LAYER
  5
8F8
330
2
100
AcDbSymbolTableRecord
100
AcDbLayerTableRecord
  2
leg fin
 70
     0
 62
     9
  6
Continuous
370
    -3
390
F
  0
LAYER
  5
91D
330
2
100
AcDbSymbolTableRecord
100
AcDbLayerTableRecord
  2
cotas
 70
     0
 62
     1
  6
Continuous
370
    -3
390
F
  0
LAYER
  5
92F
330
2
100
AcDbSymbolTableRecord
100
AcDbLayerTableRecord
  2
Defpoints
 70
     0
 62
     7
  6
Continuous
290
     0
370
    -3
390
F
  0
LAYER
  5
BA5
330
2
100
AcDbSymbolTableRecord
100
AcDbLayerTableRecord
  2
SANINDUSA
 70
     0
 62
     3
  6
Continuous
370
    -3
390
F
  0
ENDTAB
  0
TABLE
  2
STYLE
  5
3
330
0
100
AcDbSymbolTable
 70
     3
  0
STYLE
  5
11
330
3
100
AcDbSymbolTableRecord
100
AcDbTextStyleTableRecord
  2
Standard
 70
     0
 40
0.0
 41
1.0
 50
0.0
 71
     0
 42
2.5
  3
Avgardn.ttf
  4

1001
ACAD
1000
AvantGarde Bk BT
1071
       34
  0
STYLE
  5
2C
330
3
100
AcDbSymbolTableRecord
100
AcDbTextStyleTableRecord
  2

 70
     1
 40
0.0
 41
1.0
 50
0.0
 71
     0
 42
2.5
  3
ltypeshp.shx
  4

  0
STYLE
  5
91F
330
3
100
AcDbSymbolTableRecord
100
AcDbTextStyleTableRecord
  2
SANINDUSA
 70
     0
 40
0.0
 41
1.0
 50
0.0
 71
     0
 42
2.5
  3
verdana.TTF
  4

1001
ACAD
1000
Verdana
1071
       34
  0
ENDTAB
  0
TABLE
  2
VIEW
  5
6
330
0
100
AcDbSymbolTable
 70
     0
  0
ENDTAB
  0
TABLE
  2
UCS
  5
7
330
0
100
AcDbSymbolTable
 70
     0
  0
ENDTAB
  0
TABLE
  2
APPID
  5
9
330
0
100
AcDbSymbolTable
 70
     2
  0
APPID
  5
12
330
9
100
AcDbSymbolTableRecord
100
AcDbRegAppTableRecord
  2
ACAD
 70
     0
  0
APPID
  5
3A
330
9
100
AcDbSymbolTableRecord
100
AcDbRegAppTableRecord
  2
DCO15
 70
     0
  0
ENDTAB
  0
TABLE
  2
DIMSTYLE
  5
A
330
0
100
AcDbSymbolTable
 70
     2
100
AcDbDimStyleTable
 71
     1
340
921
  0
DIMSTYLE
105
45
330
A
100
AcDbSymbolTableRecord
100
AcDbDimStyleTableRecord
  2
STANDARD
 70
     0
289
     0
340
11
  0
DIMSTYLE
105
921
330
A
100
AcDbSymbolTableRecord
100
AcDbDimStyleTableRecord
  2
SANINDUSA
 70
     0
 41
2.0
 42
1.0
 43
1.0
 44
1.0
 73
     0
 74
     0
 77
     1
 78
     8
140
2.0
141
0.0
143
0.03937007874016
147
1.0
171
     3
172
     1
176
   256
177
   256
178
   256
179
     1
271
     1
272
     1
274
     3
278
    44
283
     0
284
     8
340
91F
371
    -1
372
    -1
  0
ENDTAB
  0
TABLE
  2
BLOCK_RECORD
  5
1
330
0
100
AcDbSymbolTable
 70
    46
  0
BLOCK_RECORD
  5
1F
330
1
100
AcDbSymbolTableRecord
100
AcDbBlockTableRecord
  2
*Model_Space
340
22
  0
BLOCK_RECORD
  5
1B
330
1
100
AcDbSymbolTableRecord
100
AcDbBlockTableRecord
  2
*Paper_Space
340
1E
  0
BLOCK_RECORD
  5
23
330
1
100
AcDbSymbolTableRecord
100
AcDbBlockTableRecord
  2
*Paper_Space0
340
26
  0
BLOCK_RECORD
  5
919
330
1
100
AcDbSymbolTableRecord
100
AcDbBlockTableRecord
  2
_DotSmall
340
0
  0
BLOCK_RECORD
  5
922
330
1
100
AcDbSymbolTableRecord
100
AcDbBlockTableRecord
  2
base para cotas
340
0
310
2800000020000000200000000100080000000000000400000000000000000000000000000000000000000000000080000080000000808000800000008000800080800000C0C0C000C0DCC000F0CAA6000020400000206000002080000020A0000020C0000020E00000400000004020000040400000406000004080000040A0
310
000040C0000040E00000600000006020000060400000606000006080000060A0000060C0000060E00000800000008020000080400000806000008080000080A0000080C0000080E00000A0000000A0200000A0400000A0600000A0800000A0A00000A0C00000A0E00000C0000000C0200000C0400000C0600000C0800000C0
310
A00000C0C00000C0E00000E0000000E0200000E0400000E0600000E0800000E0A00000E0C00000E0E00040000000400020004000400040006000400080004000A0004000C0004000E00040200000402020004020400040206000402080004020A0004020C0004020E000404000004040200040404000404060004040800040
310
40A0004040C0004040E00040600000406020004060400040606000406080004060A0004060C0004060E00040800000408020004080400040806000408080004080A0004080C0004080E00040A0000040A0200040A0400040A0600040A0800040A0A00040A0C00040A0E00040C0000040C0200040C0400040C0600040C08000
310
40C0A00040C0C00040C0E00040E0000040E0200040E0400040E0600040E0800040E0A00040E0C00040E0E00080000000800020008000400080006000800080008000A0008000C0008000E00080200000802020008020400080206000802080008020A0008020C0008020E00080400000804020008040400080406000804080
310
008040A0008040C0008040E00080600000806020008060400080606000806080008060A0008060C0008060E00080800000808020008080400080806000808080008080A0008080C0008080E00080A0000080A0200080A0400080A0600080A0800080A0A00080A0C00080A0E00080C0000080C0200080C0400080C0600080C0
310
800080C0A00080C0C00080C0E00080E0000080E0200080E0400080E0600080E0800080E0A00080E0C00080E0E000C0000000C0002000C0004000C0006000C0008000C000A000C000C000C000E000C0200000C0202000C0204000C0206000C0208000C020A000C020C000C020E000C0400000C0402000C0404000C0406000C0
310
408000C040A000C040C000C040E000C0600000C0602000C0604000C0606000C0608000C060A000C060C000C060E000C0800000C0802000C0804000C0806000C0808000C080A000C080C000C080E000C0A00000C0A02000C0A04000C0A06000C0A08000C0A0A000C0A0C000C0A0E000C0C00000C0C02000C0C04000C0C06000
310
C0C08000C0C0A000F0FBFF00A4A0A000808080000000FF0000FF000000FFFF00FF000000FF00FF00FFFF0000FFFFFF00A4A4A4A4A4A4A4A4A4A4A4A4A4A4A4A4A4A4A4A4A4A4A4A4A4A4A4A4A4A4A4A4A4A4A4A4A4A4A4A4A4A4A4A4A4A4A4A4A4A4A4A4A4A4A4A4A4A4A4A4A4A4A4A4A4A4A4A4A4A4A4A4A4A4A4A4A4A4A4
310
A4A4A4A4A4A4A4A4A4A4A4A4A4A4A4A4A4A4A4A4A4A4A4A4A4A4A4A4A4A4A4A4A4A4A4A4A4A4A4A4A4A4A4A4A4A4A4A4A4A4A4A4A4A4A4A4A4A4A4A4A4A4A4A4A4A4A4A4A4A4A4A4A4A4A4A4A4A4A4A4A4A4A4A4A4A4A4A4A4A4A4A4A4A4A4A4A4A4A4A4A4A4A4A4A4A4A4A4A4A4A4A4A4A4A4A4A4A4A4A4A4A4A4A4A4A4A4
310
A4A4A4A4A4A4A4A4A4A4A4A4A4A4A4A4A4A4A4A4A4A4A4A4A4A4A4A4A4A4A4A4A4A4A4A4A4A4A4A4A4A4A4A4A4A4A4A4A4A4A4A4A4A4A4A4A4A4A4A4A4A4A4A4A4A4A4A4A4A4A4A4A4A4A4A4A4A4A4A4A4A4A4A4A4A4A4A4A4A4A4A4A4A4A4A4A4A4A4A4A4A4A4A4A4A4A4A4A4A4A4A4A4A4A4A4A4A4A4A4A4A4A4A4A4A4A4
310
A4A4A4A4A4A4A4A4A4A4A4A4A4A4A4A4A4A4A4A4A4A4A4A4A4A4A4A4A4A4A4A4A4A4A4A4A4A4A4A4A4A4A4A4A4A4A4A4A4A4A4A4A4A4A4A4A4A4A4A4A4A4A4A4A4A4A4A4A4A4A4A4A4A4A4A4A4A4A4A4A4A4A4A4A4A4A4A4A4A4A4A4A4A4A4A4A4A4A4A4A4A4A4A4A4A4A4A4A4A4A4A4A4A4A4A4F9F9F9F9F9F9F9F9F9F9F9
310
F9F9F9F9F9F9F9F9F9F9F9F9F9F9F9F9F9F9F9A4A4F9F9F9F9F9F9F9F9F9F9F9F9F9F9F9F9F9F9F9F9F9F9F9F9F9F9F9F9F9F9A4A4F9F9F9F9F9F9F9F9F9F9F9F9F9F9F9F9F9F9F9F9F9F9F9F9F9F9F9F9F9F9A4A4F9A4A4A4A4A4A4A4A4A4A4A4A4A4A4A4A4A4A4A4A4A4A4A4A4A4A4A4A4F9A4A4A4A4A4A4A4A4A4A4A4A4
310
A4A4A4A4A4A4A4A4A4A4A4A4A4A4A4A4A4A4A4A4A4A4A4A4A4A4A4A4A4A4A4A4A4A4A4A4A4A4A4A4A4A4A4A4A4A4A4A4A4A4A4A4A4A4A4A4A4A4A4A4A4A4A4A4A4A4A4A4A4A4A4A4A4A4A4A4A4A4A4A4A4A4A4A4A4A4A4A4A4A4A4A4A4A4A4A4A4A4A4A4A4A4A4A4A4A4A4A4A4A4A4A4A4A4A4A4A4A4A4A4A4A4A4A4A4A4A4
310
A4A4A4A4A4A4A4A4A4A4A4A4A4A4A4A4A4A4A4A4A4A4A4A4A4A4A4A4A4A4A4A4A4A4A4A4A4A4A4A4A4A4A4A4A4A4A4A4A4A4A4A4A4A4A4A4A4A4A4A4A4A4A4A4A4A4A4A4A4A4A4A4A4A4A4A4A4A4A4A4A4A4A4A4A4A4A4A4A4A4A4A4A4A4A4A4A4A4A4A4A4A4A4A4A4A4A4A4A4A4A4A4A4A4A4A4A4A4A4A4A4A4A4A4A4A4A4
310
A4A4A4A4A4A4A4A4A4A4A4A4A4A4A4A4A4A4A4A4A4A4A4A4A4A4A4A4A4A4A4A4A4A4A4A4A4A4A4A4A4A4A4A4A4A4A4A4A4A4A4A4A4A4A4A4A4A4A4A4A4A4A4A4A4A4A4A4A4A4A4A4A4A4A4A4A4A4A4A4A4A4A4A4A4A4A4A4A4A4A4A4A4A4A4A4A4A4A4A4A4A4A4A4A4A4A4A4A4A4A4A4A4A4A4A4A4A4A4A4A4A4A4A4A4A4A4
310
A4A4A4A4A4A4A4A4A4A4A4A4A4A4A4A4A4A4A4A4A4A4A4A4A4A4A4A4A4A4A4A4A4A4A4A4A4A4A4A4A4A4A4A4A4A4A4A4A4A4A4A4A4A4A4A4
1001
ACAD
1000
DesignCenter Data
1002
{
1070
     1
1070
     4
1002
}
  0
BLOCK_RECORD
  5
AA8
330
1
100
AcDbSymbolTableRecord
100
AcDbBlockTableRecord
  2
_CLOSED
340
0
  0
ENDTAB
  0
ENDSEC
  0
SECTION
  2
BLOCKS
  0
BLOCK
  5
20
330
1F
100
AcDbEntity
  8
0
100
AcDbBlockBegin
  2
*Model_Space
 70
     0
 10
0.0
 20
0.0
 30
0.0
  3
*Model_Space
  1

  0
ENDBLK
  5
21
330
1F
100
AcDbEntity
  8
0
100
AcDbBlockEnd
  0
BLOCK
  5
1C
330
1B
100
AcDbEntity
 67
     1
  8
0
100
AcDbBlockBegin
  2
*Paper_Space
 70
     0
 10
0.0
 20
0.0
 30
0.0
  3
*Paper_Space
  1

  0
ENDBLK
  5
1D
330
1B
100
AcDbEntity
 67
     1
  8
0
100
AcDbBlockEnd
  0
BLOCK
  5
24
330
23
100
AcDbEntity
 67
     1
  8
0
100
AcDbBlockBegin
  2
*Paper_Space0
 70
     0
 10
0.0
 20
0.0
 30
0.0
  3
*Paper_Space0
  1

  0
ENDBLK
  5
25
330
23
100
AcDbEntity
 67
     1
  8
0
100
AcDbBlockEnd
  0
BLOCK
  5
91B
330
919
100
AcDbEntity
  8
0
100
AcDbBlockBegin
  2
_DotSmall
 70
     0
 10
0.0
 20
0.0
 30
0.0
  3
_DotSmall
  1

  0
LWPOLYLINE
  5
91A
330
919
100
AcDbEntity
  8
0
  6
ByBlock
 62
     0
100
AcDbPolyline
 90
        2
 70
     1
 43
0.5
 10
-0.0625
 20
0.0
 42
1.0
 10
0.0625
 20
0.0
 42
1.0
  0
ENDBLK
  5
91C
330
919
100
AcDbEntity
  8
0
100
AcDbBlockEnd
  0
BLOCK
  5
92A
330
922
100
AcDbEntity
  8
0
100
AcDbBlockBegin
  2
base para cotas
 70
     0
 10
0.0
 20
0.0
 30
0.0
  3
base para cotas
  1

  0
LINE
  5
B36
330
922
100
AcDbEntity
  8
cotas
100
AcDbLine
 10
0.0
 20
-30.0
 30
0.0
 11
327.1260136525398
 21
-30.0
 31
0.0
  0
LINE
  5
B37
330
922
100
AcDbEntity
  8
cotas
100
AcDbLine
 10
0.0
 20
-25.0
 30
0.0
 11
327.1260136525398
 21
-25.0
 31
0.0
  0
LINE
  5
B38
330
922
100
AcDbEntity
  8
cotas
100
AcDbLine
 10
0.0
 20
-20.0
 30
0.0
 11
327.1260136525398
 21
-20.0
 31
0.0
  0
LINE
  5
B39
330
922
100
AcDbEntity
  8
cotas
100
AcDbLine
 10
0.0
 20
-15.0
 30
0.0
 11
327.1260136525398
 21
-15.0
 31
0.0
  0
LINE
  5
B3A
330
922
100
AcDbEntity
  8
cotas
100
AcDbLine
 10
0.0
 20
-10.0
 30
0.0
 11
327.1260136525398
 21
-10.0
 31
0.0
  0
LINE
  5
B3B
330
922
100
AcDbEntity
  8
cotas
100
AcDbLine
 10
0.0
 20
0.0
 30
0.0
 11
0.0
 21
-30.0
 31
0.0
  0
LINE
  5
B3C
330
922
100
AcDbEntity
  8
cotas
100
AcDbLine
 10
327.1260136525398
 20
-30.0
 30
0.0
 11
327.1260136525398
 21
0.0
 31
0.0
  0
ENDBLK
  5
92B
330
922
100
AcDbEntity
  8
0
100
AcDbBlockEnd
  0
BLOCK
  5
AAD
330
AA8
100
AcDbEntity
  8
0
100
AcDbBlockBegin
  2
_CLOSED
 70
     0
 10
0.0
 20
0.0
 30
0.0
  3
_CLOSED
  1

  0
LINE
  5
AA9
330
AA8
100
AcDbEntity
  8
0
100
AcDbLine
 10
-1.0
 20
0.166667
 30
0.0
 11
0.0
 21
0.0
 31
0.0
  0
LINE
  5
AAA
330
AA8
100
AcDbEntity
  8
0
100
AcDbLine
 10
0.0
 20
0.0
 30
0.0
 11
-1.0
 21
-0.166667
 31
0.0
  0
LINE
  5
AAB
330
AA8
100
AcDbEntity
  8
0
100
AcDbLine
 10
-1.0
 20
0.166667
 30
0.0
 11
-1.0
 21
-0.166667
 31
0.0
  0
LINE
  5
AAC
330
AA8
100
AcDbEntity
  8
0
100
AcDbLine
 10
0.0
 20
0.0
 30
0.0
 11
-1.0
 21
0.0
 31
0.0
  0
ENDBLK
  5
AAE
330
AA8
100
AcDbEntity
  8
0
100
AcDbBlockEnd
  0
ENDSEC
  0
SECTION
  2
ENTITIES
  0
LINE
  5
E12
330
1F
100
AcDbEntity
  8
SANINDUSA
100
AcDbLine
 10
-13.33261196990563
 20
679.5641787325497
 30
0.0
 11
-13.33261196990563
 21
678.8097067325497
 31
0.0
  0
LINE
  5
E13
330
1F
100
AcDbEntity
  8
SANINDUSA
100
AcDbLine
 10
-13.02160596990561
 20
679.0008237325497
 30
0.0
 11
-13.08620796990565
 21
679.5408637325497
 31
0.0
  0
LWPOLYLINE
  5
E17
330
1F
100
AcDbEntity
  8
SANINDUSA
100
AcDbPolyline
 90
       11
 70
     0
 43
0.0
 10
-12.40613073304291
 20
679.0164819372663
 42
0.1157231116147702
 10
-12.37153465741808
 20
679.0686967749439
 42
0.000001944640797
 10
-12.37153464661074
 20
679.068696804121
 10
-12.35578664798708
 20
679.1112128004051
 42
0.2035268487640674
 10
-12.36857863970246
 20
679.3841495565025
 42
0.3162345598623682
 10
-12.51280760334
 20
679.4791810107185
 42
0.3162345734676913
 10
-12.65703656970359
 20
679.3841495495895
 42
0.2035268487011089
 10
-12.66982755613908
 20
679.1112127935107
 10
-12.65407956006916
 20
679.068696804121
 42
0.0000019446372078
 10
-12.65407954926183
 20
679.0686967749439
 42
0.1157258830213684
 10
-12.61948238140939
 20
679.0164809090755
 42
0.1157258830213684
  0
LWPOLYLINE
  5
E18
330
1F
100
AcDbEntity
  8
SANINDUSA
100
AcDbPolyline
 90
       19
 70
     0
 43
0.0
 10
-12.55461750656773
 20
679.4745408343997
 10
-12.68362860333999
 20
679.4857781649868
 42
0.327519
 10
-12.70081660333991
 20
679.4753321649868
 42
0.133716
 10
-12.72209960333995
 20
679.3070381649869
 10
-12.70908160333996
 20
679.2147041649869
 42
0.050711
 10
-12.68828060333996
 20
679.1302151649869
 10
-12.67727460333989
 20
679.0993701649869
 42
0.096776
 10
-12.63208160333996
 20
679.0232331649868
 42
0.132563
 10
-12.52993360333991
 20
678.9956661649869
 10
-12.51280760333995
 20
678.9956661649869
 10
-12.49568160333998
 20
678.9956661649869
 42
0.132563
 10
-12.39353360333993
 20
679.0232331649868
 42
0.096776
 10
-12.34834060333989
 20
679.0993701649869
 10
-12.33733460333994
 20
679.1302151649869
 42
0.050711
 10
-12.31653360333993
 20
679.2147041649869
 10
-12.30351560333994
 20
679.3070381649869
 42
0.133716
 10
-12.32479860333998
 20
679.4753321649868
 42
0.327519
 10
-12.3419866033399
 20
679.4857781649868
 10
-12.47099747102081
 20
679.4745407756523
  0
LWPOLYLINE
  5
E19
330
1F
100
AcDbEntity
  8
SANINDUSA
100
AcDbPolyline
 90
       15
 70
     0
 43
0.0
 10
-12.68997554515912
 20
679.4892695508998
 42
0.1312497416828247
 10
-12.69228860333996
 20
679.5074371649868
 42
0.371347
 10
-12.69810260333994
 20
679.5104041649868
 42
0.210024
 10
-12.73440260333992
 20
679.4826281649868
 42
0.116548
 10
-12.75780760333995
 20
679.3530841649868
 42
0.092863
 10
-12.70532760333989
 20
679.0717691649868
 42
0.163884
 10
-12.63218960333992
 20
678.9715751649869
 42
0.09377
 10
-12.51280760333995
 20
678.9494811649868
 42
0.09377
 10
-12.39342560333997
 20
678.9715751649869
 42
0.163884
 10
-12.32028660333989
 20
679.0717691649868
 42
0.092863
 10
-12.26780760333994
 20
679.3530841649868
 42
0.116548
 10
-12.29121160333997
 20
679.4826281649868
 42
0.210024
 10
-12.32751260333995
 20
679.5104041649868
 42
0.371347
 10
-12.33332560333994
 20
679.5074371649868
 42
0.1312515238908929
 10
-12.33563862820428
 20
679.4892693044568
 42
0.1312515238908929
  0
LWPOLYLINE
  5
E1A
330
1F
100
AcDbEntity
  8
SANINDUSA
100
AcDbPolyline
 90
        9
 70
     0
 43
0.0
 10
-12.38771760333994
 20
678.9757681649868
 42
0.181738
 10
-12.40825760333993
 20
678.9429651649868
 10
-12.43025360333999
 20
678.8343931649868
 42
-0.230399
 10
-12.43663160333991
 20
678.8260511649869
 42
-0.111474
 10
-12.51280760333995
 20
678.8071601649868
 42
-0.111474
 10
-12.58898260333998
 20
678.8260511649869
 42
-0.230399
 10
-12.5953616033399
 20
678.8343931649868
 10
-12.61735660333997
 20
678.9429651649868
 42
0.181738
 10
-12.63789760333995
 20
678.9757681649868
  0
LWPOLYLINE
  5
E1C
330
1F
100
AcDbEntity
  8
SANINDUSA
100
AcDbPolyline
 90
       11
 70
     0
 43
0.0
 10
-12.43676361838149
 20
678.9581471293261
 42
0.1018963003376472
 10
-12.45047762282332
 20
678.9281876937105
 10
-12.46407823899846
 20
678.827084558474
 42
-0.0000110258240863
 10
-12.46407826840282
 20
678.8270843399268
 42
-0.3239088252477742
 10
-12.47862346521486
 20
678.8117886261337
 42
-0.0442592507577715
 10
-12.51280760333991
 20
678.8085100335633
 42
-0.0442593357065652
 10
-12.54699180626365
 20
678.8117886381983
 42
-0.0000047613698777
 10
-12.54699189988205
 20
678.8117886556297
 42
-0.3239094555168497
 10
-12.56153596524111
 20
678.827084540333
 10
-12.57514573477556
 20
678.9282482974597
 42
0.1639952178342982
 10
-12.59314661972342
 20
678.9591877388435
 42
0.1290352234743164
  0
LWPOLYLINE
  5
E28
330
1F
100
AcDbEntity
  8
SANINDUSA
100
AcDbPolyline
 90
        4
 70
     0
 43
0.0
 10
-12.3282516033399
 20
679.0508241649868
 42
-0.444478
 10
-12.33390060333996
 20
679.0489941649869
 10
-12.35997560333996
 20
679.0640371649868
 42
-0.402987
 10
-12.36151560333993
 20
679.0693661649868
  0
LWPOLYLINE
  5
E29
330
1F
100
AcDbEntity
  8
SANINDUSA
100
AcDbPolyline
 90
        4
 70
     0
 43
0.0
 10
-12.33101096316679
 20
679.045937948228
 42
-0.444478
 10
-12.33665996316685
 20
679.0441079482279
 10
-12.36273496316684
 20
679.0591509482279
 42
-0.402987
 10
-12.36427496316682
 20
679.0644799482279
  0
CIRCLE
  5
E2E
330
1F
100
AcDbEntity
  8
SANINDUSA
100
AcDbCircle
 10
-12.59030760333993
 20
678.9121601649868
 30
0.0
 40
0.0085
  0
CIRCLE
  5
E32
330
1F
100
AcDbEntity
  8
SANINDUSA
100
AcDbCircle
 10
-12.43530760333996
 20
678.9121601649868
 30
0.0
 40
0.0085
  0
LWPOLYLINE
  5
E36
330
1F
100
AcDbEntity
  8
SANINDUSA
100
AcDbPolyline
 90
        4
 70
     0
 43
0.0
 10
-12.69736360333999
 20
679.0508241649868
 42
0.444478
 10
-12.69171360333993
 20
679.0489941649869
 10
-12.66563960333993
 20
679.0640371649868
 42
0.402987
 10
-12.66409960333996
 20
679.0693661649868
  0
LINE
  5
E3A
330
1F
100
AcDbEntity
  8
SANINDUSA
100
AcDbLine
 10
-13.14682696990562
 20
678.8254257325498
 30
0.0
 11
-13.13814096990561
 21
678.9207717325496
 31
0.0
  0
LWPOLYLINE
  5
E3F
330
1F
100
AcDbEntity
  8
SANINDUSA
100
AcDbPolyline
 90
        2
 70
     0
 43
0.0
 10
-13.31505496990562
 20
678.8265135511673
 10
-13.31505496990562
 20
678.9791387325498
  0
LINE
  5
E40
330
1F
100
AcDbEntity
  8
SANINDUSA
100
AcDbLine
 10
-13.33261196990563
 20
678.8097067325497
 30
0.0
 11
-13.15793296990566
 21
678.8149747325498
 31
0.0
  0
LINE
  5
E48
330
1F
100
AcDbEntity
  8
SANINDUSA
100
AcDbLine
 10
-13.33061196990563
 20
678.8097670489015
 30
0.0
 11
-13.33061196990563
 21
678.8097067325497
 31
0.0
  0
LWPOLYLINE
  5
E49
330
1F
100
AcDbEntity
  8
SANINDUSA
100
AcDbPolyline
 90
        2
 70
     0
 43
0.0
 10
-13.31505496990562
 20
678.8102357325498
 10
-13.31505496990562
 20
678.8102362196432
  0
ARC
  5
E4A
330
1F
100
AcDbEntity
  8
SANINDUSA
100
AcDbCircle
 10
-13.15827935782478
 20
678.8264693553351
 30
0.0
 40
0.0114998407627731
100
AcDbArc
 50
271.7260733034289
 51
354.7931832847564
  0
LINE
  5
E4D
330
1F
100
AcDbEntity
  8
SANINDUSA
100
AcDbLine
 10
-13.12858896990563
 20
678.9314407325497
 30
0.0
 11
-13.00261196990559
 21
678.9586687325497
 31
0.0
  0
ARC
  5
E4F
330
1F
100
AcDbEntity
  8
SANINDUSA
100
AcDbCircle
 10
-13.17729098724881
 20
679.2021942337878
 30
0.0
 40
0.2621693990890841
100
AcDbArc
 50
272.2826754752822
 51
304.7232220489108
  0
ARC
  5
E51
330
1F
100
AcDbEntity
  8
SANINDUSA
100
AcDbCircle
 10
-13.17729098724881
 20
679.2021942337878
 30
0.0
 40
0.2621693990890841
100
AcDbArc
 50
233.6692855769893
 51
260.3146953426353
  0
LWPOLYLINE
  5
E55
330
1F
100
AcDbEntity
  8
SANINDUSA
100
AcDbPolyline
 90
        2
 70
     0
 43
0.0
 10
-13.08847869034757
 20
678.940109955438
 42
-0.0853765186520667
 10
-13.20579796990566
 20
678.9409527325497
  0
LINE
  5
E56
330
1F
100
AcDbEntity
  8
SANINDUSA
100
AcDbLine
 10
-13.20579796990566
 20
678.9409527325497
 30
0.0
 11
-13.22139746475234
 21
678.943761626594
 31
0.0
  0
LWPOLYLINE
  5
E58
330
1F
100
AcDbEntity
  8
SANINDUSA
100
AcDbPolyline
 90
        2
 70
     0
 43
0.0
 10
-13.08847396990561
 20
678.9401107325497
 10
-13.14045355049443
 20
678.8953865945321
  0
ARC
  5
E59
330
1F
100
AcDbEntity
  8
SANINDUSA
100
AcDbCircle
 10
-13.12619021276921
 20
678.9196826426944
 30
0.0
 40
0.0120002796986711
100
AcDbArc
 50
101.530630046728
 51
174.7929353990243
  0
LWPOLYLINE
  5
E5A
330
1F
100
AcDbEntity
  8
SANINDUSA
100
AcDbPolyline
 90
        2
 70
     0
 43
0.0
 10
-13.08847396990561
 20
678.9401107325497
 42
-0.0000034561544789
 10
-13.08847869034757
 20
678.940109955438
 42
-0.0000034561544789
  0
ARC
  5
E5C
330
1F
100
AcDbEntity
  8
SANINDUSA
100
AcDbCircle
 10
-13.40341309450624
 20
678.9408917739183
 30
0.0
 40
0.4011951666450272
100
AcDbArc
 50
2.539607601086994
 51
8.745057074533512
  0
ARC
  5
E5E
330
1F
100
AcDbEntity
  8
SANINDUSA
100
AcDbCircle
 10
-13.03649965467027
 20
678.9990425559555
 30
0.0
 40
0.0149998145298136
100
AcDbArc
 50
304.7213632053941
 51
6.819769362978213
  0
ARC
  5
E60
330
1F
100
AcDbEntity
  8
SANINDUSA
100
AcDbCircle
 10
-13.02151297679117
 20
678.9840092719994
 30
0.0
 40
0.0231028455402516
100
AcDbArc
 50
50.70606836041807
 51
92.09111349206443
  0
LWPOLYLINE
  5
E79
330
1F
100
AcDbEntity
  8
SANINDUSA
100
AcDbPolyline
 90
        2
 70
     0
 43
0.0
 10
-12.69086560333991
 20
679.4848361649869
 42
0.0000011873151786
 10
-12.69086555970762
 20
679.4848363277696
 42
0.0000011873151786
  0
LWPOLYLINE
  5
E7B
330
1F
100
AcDbEntity
  8
SANINDUSA
100
AcDbPolyline
 90
        5
 70
     0
 43
0.0
 10
-12.33111460333995
 20
679.5099231649868
 42
0.104464
 10
-12.50430460333993
 20
679.5465071649869
 10
-12.51280760333995
 20
679.5465071649869
 10
-12.52131060333997
 20
679.5465071649869
 42
0.104464
 10
-12.69450060333994
 20
679.5099231649868
 42
0.104464
  0
LWPOLYLINE
  5
E7C
330
1F
100
AcDbEntity
  8
SANINDUSA
100
AcDbPolyline
 90
        5
 70
     0
 43
0.0
 10
-12.31993160333999
 20
679.5079821649868
 42
0.23924
 10
-12.4193456033399
 20
679.5634721649868
 10
-12.51280760333995
 20
679.5671601649868
 10
-12.60626960333999
 20
679.5634721649868
 42
0.23924
 10
-12.7056826033399
 20
679.5079821649868
  0
LINE
  5
E8A
330
1F
100
AcDbEntity
  8
SANINDUSA
100
AcDbLine
 10
-13.09084996990564
 20
679.5454117325498
 30
0.0
 11
-13.32711196990565
 21
679.5691537325498
 31
0.0
  0
ARC
  5
E8D
330
1F
100
AcDbEntity
  8
SANINDUSA
100
AcDbCircle
 10
-13.3276119136034
 20
679.5641787331202
 30
0.0
 40
0.0050000563022341
100
AcDbArc
 50
84.26154278343158
 51
180.0000065368185
  0
ARC
  5
E8E
330
1F
100
AcDbEntity
  8
SANINDUSA
100
AcDbCircle
 10
-13.0913700493192
 20
679.5402379324976
 30
0.0
 40
0.0051998739962722
100
AcDbArc
 50
6.912249404972247
 51
84.25981054142658
  0
LWPOLYLINE
  5
E98
330
1F
100
AcDbEntity
  8
SANINDUSA
100
AcDbPolyline
 90
       11
 70
     1
 43
0.0
 10
-13.61270993272496
 20
679.1302363150329
 42
0.327511
 10
-13.59858193272493
 20
679.1409773150329
 42
0.099554
 10
-13.57782293272493
 20
679.372966315033
 10
-14.06078493272497
 20
679.372966315033
 42
0.099554
 10
-14.04002593272497
 20
679.1409773150329
 42
0.327511
 10
-14.02589793272495
 20
679.1302363150329
 10
-13.99805993272497
 20
679.1297603150329
 42
0.258393
 10
-13.98950493272497
 20
679.1343083150329
 42
-0.252838
 10
-13.81930393272495
 20
679.2270823150329
 42
-0.252838
 10
-13.64910293272493
 20
679.1343083150329
 42
0.258393
 10
-13.64054793272493
 20
679.1297603150329
  0
LINE
  5
E99
330
1F
100
AcDbEntity
  8
SANINDUSA
100
AcDbLine
 10
-13.66595093272491
 20
679.1505373150329
 30
0.0
 11
-13.66168793272499
 21
679.1443893150329
 31
0.0
  0
LWPOLYLINE
  5
E9C
330
1F
100
AcDbEntity
  8
SANINDUSA
100
AcDbPolyline
 90
        7
 70
     0
 43
0.0
 10
-13.943563932725
 20
679.1840323150329
 42
-0.230262
 10
-13.916727932725
 20
679.1685793150329
 42
0.01728
 10
-13.88108993272493
 20
679.1210853150329
 42
0.230919
 10
-13.81930393272495
 20
679.088907315033
 42
0.230919
 10
-13.75751793272497
 20
679.1210853150329
 42
0.01728
 10
-13.7218799327249
 20
679.1685793150329
 42
-0.230262
 10
-13.6950439327249
 20
679.1840323150329
  0
ARC
  5
E9E
330
1F
100
AcDbEntity
  8
SANINDUSA
100
AcDbCircle
 10
-13.66742871615391
 20
679.2539910436529
 30
0.0
 40
0.2830559380554128
100
AcDbArc
 50
202.4620819701306
 51
220.5318453994314
  0
ARC
  5
EA0
330
1F
100
AcDbEntity
  8
SANINDUSA
100
AcDbCircle
 10
-13.97117914929599
 20
679.2539910436529
 30
0.0
 40
0.2830559380554127
100
AcDbArc
 50
319.4681546005686
 51
337.5379180298694
  0
ARC
  5
EA2
330
1F
100
AcDbEntity
  8
SANINDUSA
100
AcDbCircle
 10
-13.82225588104127
 20
679.1373035952908
 30
0.0
 40
0.0943834542986241
100
AcDbArc
 50
271.7922820017295
 51
314.5491388424201
  0
ARC
  5
EA4
330
1F
100
AcDbEntity
  8
SANINDUSA
100
AcDbCircle
 10
-13.81635198440864
 20
679.1373035952908
 30
0.0
 40
0.0943834542986242
100
AcDbArc
 50
225.4508611575799
 51
268.2077179982705
  0
ARC
  5
EA9
330
1F
100
AcDbEntity
  8
SANINDUSA
100
AcDbCircle
 10
-13.95211307014383
 20
679.1362916498385
 30
0.0
 40
0.0249997853307199
100
AcDbArc
 50
22.46195538425579
 51
145.2615233726431
  0
LINE
  5
EAA
330
1F
100
AcDbEntity
  8
SANINDUSA
100
AcDbLine
 10
-13.97691993272492
 20
679.1443893150329
 30
0.0
 11
-13.97265693272499
 21
679.1505373150329
 31
0.0
  0
LINE
  5
EAD
330
1F
100
AcDbEntity
  8
SANINDUSA
100
AcDbLine
 10
-13.98696493272491
 20
679.1381203150329
 30
0.0
 11
-13.97691993272492
 21
679.1443893150329
 31
0.0
  0
ARC
  5
EAF
330
1F
100
AcDbEntity
  8
SANINDUSA
100
AcDbCircle
 10
-13.68649479530608
 20
679.1362916498385
 30
0.0
 40
0.0249997853307196
100
AcDbArc
 50
34.73847662735689
 51
157.5380446157442
  0
CIRCLE
  5
EB2
330
1F
100
AcDbEntity
  8
SANINDUSA
100
AcDbCircle
 10
-13.80551593272498
 20
679.214635315033
 30
0.0
 40
0.005264
  0
CIRCLE
  5
EB4
330
1F
100
AcDbEntity
  8
SANINDUSA
100
AcDbCircle
 10
-13.82956693272496
 20
679.2157423150329
 30
0.0
 40
0.005264
  0
LINE
  5
EBA
330
1F
100
AcDbEntity
  8
SANINDUSA
100
AcDbLine
 10
-13.66168793272499
 20
679.1443893150329
 30
0.0
 11
-13.651642932725
 21
679.1381203150329
 31
0.0
  0
CIRCLE
  5
EC7
330
1F
100
AcDbEntity
  8
SANINDUSA
100
AcDbCircle
 10
-13.81930393272495
 20
679.3379663150329
 30
0.0
 40
0.015
  0
LINE
  5
ECA
330
1F
100
AcDbEntity
  8
SANINDUSA
100
AcDbLine
 10
-12.01218840425584
 20
678.8279651649868
 30
0.0
 11
-12.01218840425584
 21
678.8971601649868
 31
0.0
  0
LINE
  5
ECB
330
1F
100
AcDbEntity
  8
SANINDUSA
100
AcDbLine
 10
-11.84396040425584
 20
678.8228791649868
 30
0.0
 11
-11.83527440425583
 21
678.9182251649868
 31
0.0
  0
LINE
  5
ECF
330
1F
100
AcDbEntity
  8
SANINDUSA
100
AcDbLine
 10
-12.02974540425585
 20
678.8707581649868
 30
0.0
 11
-12.02974540425585
 21
678.8231541649868
 31
0.0
  0
ARC
  5
ED0
330
1F
100
AcDbEntity
  8
SANINDUSA
100
AcDbCircle
 10
-12.03203773626566
 20
678.8308190541729
 30
0.0
 40
0.0080003320105987
100
AcDbArc
 50
286.6503024331107
 51
0.0007936123070347
  0
ARC
  5
ED1
330
1F
100
AcDbEntity
  8
SANINDUSA
100
AcDbCircle
 10
-11.86513329738883
 20
678.8338869124842
 30
0.0
 40
0.010000721187228
100
AcDbArc
 50
271.615226143856
 51
354.8209610922455
  0
LINE
  5
ED2
330
1F
100
AcDbEntity
  8
SANINDUSA
100
AcDbLine
 10
-12.02974540425585
 20
678.8071601649868
 30
0.0
 11
-11.85506640425588
 21
678.8124281649868
 31
0.0
  0
LINE
  5
ED3
330
1F
100
AcDbEntity
  8
SANINDUSA
100
AcDbLine
 10
-11.86485140425585
 20
678.8238901649869
 30
0.0
 11
-12.0039634042558
 21
678.8199681649867
 31
0.0
  0
LINE
  5
ED4
330
1F
100
AcDbEntity
  8
SANINDUSA
100
AcDbLine
 10
-12.02974540425585
 20
678.8231541649868
 30
0.0
 11
-12.02974540425585
 21
678.8071601649868
 31
0.0
  0
ARC
  5
ED6
330
1F
100
AcDbEntity
  8
SANINDUSA
100
AcDbCircle
 10
-12.00418854232281
 20
678.8279648582967
 30
0.0
 40
0.0079998619389069
100
AcDbArc
 50
179.9978034556098
 51
271.6126733826412
  0
ARC
  5
ED7
330
1F
100
AcDbEntity
  8
SANINDUSA
100
AcDbCircle
 10
-11.855412792175
 20
678.8239227877721
 30
0.0
 40
0.0114998407627724
100
AcDbArc
 50
271.726073303455
 51
354.7931832847597
  0
LINE
  5
EE2
330
1F
100
AcDbEntity
  8
SANINDUSA
100
AcDbLine
 10
-11.71982324108561
 20
679.0073374919357
 30
0.0
 11
-11.78334140425587
 21
679.5383171649867
 31
0.0
  0
LINE
  5
EE4
330
1F
100
AcDbEntity
  8
SANINDUSA
100
AcDbLine
 10
-12.02974540425585
 20
679.5616321649868
 30
0.0
 11
-12.02974540425585
 21
678.8844351649868
 31
0.0
  0
ARC
  5
EE5
330
1F
100
AcDbEntity
  8
SANINDUSA
100
AcDbCircle
 10
-11.2429872307403
 20
679.1981306706632
 30
0.0
 40
0.7712601003049218
100
AcDbArc
 50
159.607975117878
 51
189.4166196067073
  0
ARC
  5
EE6
330
1F
100
AcDbEntity
  8
SANINDUSA
100
AcDbCircle
 10
-11.2072720415552
 20
679.1891180227669
 30
0.0
 40
0.8197064742355511
100
AcDbArc
 50
159.8605486657565
 51
187.7824984665728
  0
ARC
  5
EEB
330
1F
100
AcDbEntity
  8
SANINDUSA
100
AcDbCircle
 10
-11.87053132112694
 20
679.1443449517979
 30
0.0
 40
0.2140677552262845
100
AcDbArc
 50
296.1668188178645
 51
313.2277106472984
  0
ARC
  5
EEC
330
1F
100
AcDbEntity
  8
SANINDUSA
100
AcDbCircle
 10
-12.10054652885645
 20
678.9383452063553
 30
0.0
 40
0.401195166645015
100
AcDbArc
 50
2.539607601086994
 51
7.804847032855971
  0
LINE
  5
EED
330
1F
100
AcDbEntity
  8
SANINDUSA
100
AcDbLine
 10
-11.7155144042559
 20
678.9851941649868
 30
0.0
 11
-11.7141124042558
 21
678.9703431649869
 31
0.0
  0
ARC
  5
EEE
330
1F
100
AcDbEntity
  8
SANINDUSA
100
AcDbCircle
 10
-11.83937628190627
 20
679.1004757277453
 30
0.0
 40
0.1669345975800558
100
AcDbArc
 50
189.841349399202
 51
236.6764998778027
  0
ARC
  5
EEF
330
1F
100
AcDbEntity
  8
SANINDUSA
100
AcDbCircle
 10
-12.08890738705548
 20
679.1174253959674
 30
0.0
 40
0.1471300647763342
100
AcDbArc
 50
293.7099438350094
 51
310.2850718727093
  0
LINE
  5
EF0
330
1F
100
AcDbEntity
  8
SANINDUSA
100
AcDbLine
 10
-11.9896464042558
 20
678.9880841649868
 30
0.0
 11
-12.0093224042558
 21
678.9778151649868
 31
0.0
  0
LINE
  5
EF1
330
1F
100
AcDbEntity
  8
SANINDUSA
100
AcDbLine
 10
-11.96834840425579
 20
678.9702931649868
 30
0.0
 11
-11.9823054042558
 21
678.9866581649867
 31
0.0
  0
ARC
  5
EF2
330
1F
100
AcDbEntity
  8
SANINDUSA
100
AcDbCircle
 10
-11.88695495328444
 20
679.1801353092637
 30
0.0
 40
0.2349792734800479
100
AcDbArc
 50
276.1455383380446
 51
312.2996749251344
  0
LINE
  5
EF3
330
1F
100
AcDbEntity
  8
SANINDUSA
100
AcDbLine
 10
-11.82572240425584
 20
678.9288941649868
 30
0.0
 11
-11.69974540425581
 21
678.9561221649868
 31
0.0
  0
LINE
  5
EF5
330
1F
100
AcDbEntity
  8
SANINDUSA
100
AcDbLine
 10
-11.78634740425589
 20
678.9369281649868
 30
0.0
 11
-11.83758698658622
 21
678.8928400078519
 31
0.0
  0
LINE
  5
EF6
330
1F
100
AcDbEntity
  8
SANINDUSA
100
AcDbLine
 10
-11.91959387897293
 20
678.845789222605
 30
0.0
 11
-11.9029244042559
 21
678.9271201649868
 31
0.0
  0
LINE
  5
EF7
330
1F
100
AcDbEntity
  8
SANINDUSA
100
AcDbLine
 10
-11.90721840425586
 20
678.8442871649867
 30
0.0
 11
-11.89020340425585
 21
678.9211061649868
 31
0.0
  0
LINE
  5
EF8
330
1F
100
AcDbEntity
  8
SANINDUSA
100
AcDbLine
 10
-11.84770440425582
 20
678.9153861649867
 30
0.0
 11
-11.85517340425584
 21
678.8329841649868
 31
0.0
  0
ARC
  5
EFB
330
1F
100
AcDbEntity
  8
SANINDUSA
100
AcDbCircle
 10
-12.0368429161802
 20
678.8600253354116
 30
0.0
 40
0.012867334852391
100
AcDbArc
 50
5.618781617447482
 51
56.52373807420847
  0
LINE
  5
EFC
330
1F
100
AcDbEntity
  8
SANINDUSA
100
AcDbLine
 10
-12.02403740425582
 20
678.8612851649868
 30
0.0
 11
-12.02403740425582
 21
678.8308191649868
 31
0.0
  0
LINE
  5
EFE
330
1F
100
AcDbEntity
  8
SANINDUSA
100
AcDbLine
 10
-12.02974540425585
 20
678.8844351649868
 30
0.0
 11
-12.02974540425585
 21
678.8707581649868
 31
0.0
  0
LINE
  5
F00
330
1F
100
AcDbEntity
  8
SANINDUSA
100
AcDbLine
 10
-12.01218840425584
 20
678.8971601649868
 30
0.0
 11
-12.0233458700953
 21
678.8971601649868
 31
0.0
  0
LINE
  5
F02
330
1F
100
AcDbEntity
  8
SANINDUSA
100
AcDbLine
 10
-11.91959387897293
 20
678.845789222605
 30
0.0
 11
-11.90721840425586
 21
678.8442871649867
 31
0.0
  0
ARC
  5
F03
330
1F
100
AcDbEntity
  8
SANINDUSA
100
AcDbCircle
 10
-11.86215613121979
 20
679.1177807014295
 30
0.0
 40
0.1712746516792978
100
AcDbArc
 50
246.269012938375
 51
268.1620435748647
  0
ARC
  5
F04
330
1F
100
AcDbEntity
  8
SANINDUSA
100
AcDbCircle
 10
-11.89553816792909
 20
679.0269648664771
 30
0.0
 40
0.0893332594649806
100
AcDbArc
 50
236.0218820422749
 51
260.0392828579358
  0
LINE
  5
F06
330
1F
100
AcDbEntity
  8
SANINDUSA
100
AcDbLine
 10
-12.01218840425584
 20
678.9472411649868
 30
0.0
 11
-12.01218840425584
 21
678.9371601649868
 31
0.0
  0
LINE
  5
F08
330
1F
100
AcDbEntity
  8
SANINDUSA
100
AcDbLine
 10
-12.01218840425584
 20
678.9371601649868
 30
0.0
 11
-12.0233458700953
 21
678.9371601649868
 31
0.0
  0
LINE
  5
F09
330
1F
100
AcDbEntity
  8
SANINDUSA
100
AcDbLine
 10
-12.00673840425585
 20
678.9664991649869
 30
0.0
 11
-11.97072640425582
 21
678.9653481649868
 31
0.0
  0
LINE
  5
F0A
330
1F
100
AcDbEntity
  8
SANINDUSA
100
AcDbLine
 10
-11.94546440425582
 20
678.9528851649868
 30
0.0
 11
-12.00502940425584
 21
678.9542391649868
 31
0.0
  0
ARC
  5
F0B
330
1F
100
AcDbEntity
  8
SANINDUSA
100
AcDbCircle
 10
-12.00654660302119
 20
678.972495989871
 30
0.0
 40
0.0059998913661682
100
AcDbArc
 50
117.5577173146734
 51
268.1680878615533
  0
LINE
  5
F0C
330
1F
100
AcDbEntity
  8
SANINDUSA
100
AcDbLine
 10
-12.02974540425585
 20
678.9508231649867
 30
0.0
 11
-12.02654540425586
 21
678.9508231649867
 31
0.0
  0
ARC
  5
F0D
330
1F
100
AcDbEntity
  8
SANINDUSA
100
AcDbCircle
 10
-12.02654579418349
 20
678.9476232409223
 30
0.0
 40
0.0031999240881864
100
AcDbArc
 50
358.2257265577409
 51
89.99301820700173
  0
ARC
  5
F0E
330
1F
100
AcDbEntity
  8
SANINDUSA
100
AcDbCircle
 10
-12.00518857167242
 20
678.947241142271
 30
0.0
 40
0.0069998325834594
100
AcDbArc
 50
88.69705351314316
 51
179.9998140643393
  0
ARC
  5
F0F
330
1F
100
AcDbEntity
  8
SANINDUSA
100
AcDbCircle
 10
-11.97063075580303
 20
678.9683464465801
 30
0.0
 40
0.0029998068504237
100
AcDbArc
 50
268.1728218054164
 51
40.46232620364501
  0
LINE
  5
F10
330
1F
100
AcDbEntity
  8
SANINDUSA
100
AcDbLine
 10
-11.86764940425583
 20
678.9349381649868
 30
0.0
 11
-11.86764940425583
 21
678.9465941649869
 31
0.0
  0
LINE
  5
F11
330
1F
100
AcDbEntity
  8
SANINDUSA
100
AcDbLine
 10
-11.86179940425582
 20
678.9352021649868
 30
0.0
 11
-11.86179940425582
 21
678.946506421242
 31
0.0
  0
LINE
  5
F12
330
1F
100
AcDbEntity
  8
SANINDUSA
100
AcDbLine
 10
-11.87409240425582
 20
678.9346481649868
 30
0.0
 11
-11.86764940425583
 21
678.9349381649868
 31
0.0
  0
ARC
  5
F13
330
1F
100
AcDbEntity
  8
SANINDUSA
100
AcDbCircle
 10
-11.91272090350518
 20
678.9291287412269
 30
0.0
 40
0.0100002887984973
100
AcDbArc
 50
348.4132242394409
 51
80.03509500093564
  0
ARC
  5
F14
330
1F
100
AcDbEntity
  8
SANINDUSA
100
AcDbCircle
 10
-11.87331270475245
 20
678.9173658742469
 30
0.0
 40
0.0172998700727052
100
AcDbArc
 50
92.58317712867345
 51
167.5138622547395
  0
ARC
  5
F15
330
1F
100
AcDbEntity
  8
SANINDUSA
100
AcDbCircle
 10
-11.85817347592262
 20
678.9240586640999
 30
0.0
 40
0.0099999536858436
100
AcDbArc
 50
13.92497808034099
 51
60.07212221047772
  0
ARC
  5
F16
330
1F
100
AcDbEntity
  8
SANINDUSA
100
AcDbCircle
 10
-11.8795613910134
 20
678.9187579786977
 30
0.0
 40
0.0320349298886982
100
AcDbArc
 50
353.9581826734583
 51
13.92118559866589
  0
ARC
  5
F17
330
1F
100
AcDbEntity
  8
SANINDUSA
100
AcDbCircle
 10
-11.86249927875366
 20
678.9165480286128
 30
0.0
 40
0.018667260864263
100
AcDbArc
 50
60.06645150565237
 51
87.85135829034119
  0
ARC
  5
F18
330
1F
100
AcDbEntity
  8
SANINDUSA
100
AcDbCircle
 10
-11.82332364711943
 20
678.9171360751314
 30
0.0
 40
0.0120002796986711
100
AcDbArc
 50
101.530630046728
 51
174.7929353990243
  0
LINE
  5
F19
330
1F
100
AcDbEntity
  8
SANINDUSA
100
AcDbLine
 10
-11.71727740425589
 20
678.9660511649868
 30
0.0
 11
-11.77613040425588
 21
678.9522161649868
 31
0.0
  0
ARC
  5
F1A
330
1F
100
AcDbEntity
  8
SANINDUSA
100
AcDbCircle
 10
-11.71809462671123
 20
678.9699667646074
 30
0.0
 40
0.0039999716161582
100
AcDbArc
 50
281.7889382248996
 51
5.399565446443084
  0
ARC
  5
F1B
330
1F
100
AcDbEntity
  8
SANINDUSA
100
AcDbCircle
 10
-11.83937705730858
 20
679.1004773296186
 30
0.0
 40
0.181434216903076
100
AcDbArc
 50
187.0785602815913
 51
211.6813050906365
  0
ARC
  5
F1C
330
1F
100
AcDbEntity
  8
SANINDUSA
100
AcDbCircle
 10
-11.9868706618147
 20
678.9827649831917
 30
0.0
 40
0.0059998700876124
100
AcDbArc
 50
40.45703726120646
 51
117.5571900555804
  0
ARC
  5
F23
330
1F
100
AcDbEntity
  8
SANINDUSA
100
AcDbCircle
 10
-11.72049202674234
 20
678.9847241940976
 30
0.0
 40
0.0049997598196524
100
AcDbArc
 50
5.393691262466612
 51
133.2284039907269
  0
ARC
  5
F24
330
1F
100
AcDbEntity
  8
SANINDUSA
100
AcDbCircle
 10
-11.72443187413502
 20
679.000616525598
 30
0.0
 40
0.0072043324396612
100
AcDbArc
 50
88.47735360633704
 51
127.443423545076
  0
ARC
  5
F25
330
1F
100
AcDbEntity
  8
SANINDUSA
100
AcDbCircle
 10
-11.72448698211143
 20
678.9850231053146
 30
0.0
 40
0.0227965420761414
100
AcDbArc
 50
20.01947729868039
 51
89.38034069169024
  0
LINE
  5
F2F
330
1F
100
AcDbEntity
  8
SANINDUSA
100
AcDbLine
 10
-11.78798340425586
 20
679.5428651649869
 30
0.0
 11
-11.98168598334922
 21
679.562330363084
 31
0.0
  0
LINE
  5
F32
330
1F
100
AcDbEntity
  8
SANINDUSA
100
AcDbLine
 10
-11.89661040425581
 20
679.5000001649868
 30
0.0
 11
-11.90066402208254
 21
679.5424367125045
 31
0.0
  0
LINE
  5
F33
330
1F
100
AcDbEntity
  8
SANINDUSA
100
AcDbLine
 10
-11.88631240425589
 20
679.5343941649868
 30
0.0
 11
-11.88764740425582
 21
679.5065611649867
 31
0.0
  0
LINE
  5
F34
330
1F
100
AcDbEntity
  8
SANINDUSA
100
AcDbLine
 10
-11.91435108230995
 20
679.543696596722
 30
0.0
 11
-11.90800504304454
 21
679.4857625465949
 31
0.0
  0
LINE
  5
F35
330
1F
100
AcDbEntity
  8
SANINDUSA
100
AcDbLine
 10
-11.87759536332869
 20
679.4882151937842
 30
0.0
 11
-11.87201340425584
 21
679.5513091649868
 31
0.0
  0
ARC
  5
F36
330
1F
100
AcDbEntity
  8
SANINDUSA
100
AcDbCircle
 10
-11.88832688918988
 20
679.4836056643039
 30
0.0
 40
0.0774838701675395
100
AcDbArc
 50
126.883365791146
 51
152.4398898317171
  0
LINE
  5
F37
330
1F
100
AcDbEntity
  8
SANINDUSA
100
AcDbLine
 10
-11.99668598334922
 20
679.5847753313023
 30
0.0
 11
-11.99668598334922
 21
679.5175967719875
 31
0.0
  0
LINE
  5
F38
330
1F
100
AcDbEntity
  8
SANINDUSA
100
AcDbLine
 10
-11.98168598334922
 20
679.5847753313023
 30
0.0
 11
-11.98168598334922
 21
679.5175967719875
 31
0.0
  0
ARC
  5
F39
330
1F
100
AcDbEntity
  8
SANINDUSA
100
AcDbCircle
 10
-11.88723907733945
 20
679.4819477162016
 30
0.0
 40
0.0674387504261187
100
AcDbArc
 50
113.7047777492429
 51
151.8882543229169
  0
ARC
  5
F3A
330
1F
100
AcDbEntity
  8
SANINDUSA
100
AcDbCircle
 10
-11.94668598334922
 20
679.5175967719875
 30
0.0
 40
0.05
100
AcDbArc
 50
180.0
 51
249.2898050306215
  0
ARC
  5
F3B
330
1F
100
AcDbEntity
  8
SANINDUSA
100
AcDbCircle
 10
-11.94668598334922
 20
679.5175967719875
 30
0.0
 40
0.035
100
AcDbArc
 50
180.0
 51
249.5515076039849
  0
ARC
  5
F3C
330
1F
100
AcDbEntity
  8
SANINDUSA
100
AcDbCircle
 10
-11.2429872307403
 20
679.1981306706632
 30
0.0
 40
0.7712601003049218
100
AcDbArc
 50
155.8458936667196
 51
157.7504364719244
  0
LINE
  5
F3D
330
1F
100
AcDbEntity
  8
SANINDUSA
100
AcDbLine
 10
-11.95568103357704
 20
679.4929351579432
 30
0.0
 11
-11.96695230320277
 21
679.464056818638
 31
0.0
  0
LINE
  5
F3E
330
1F
100
AcDbEntity
  8
SANINDUSA
100
AcDbLine
 10
-11.96772859315439
 20
679.4946237452444
 30
0.0
 11
-11.95682191738174
 21
679.4901618033697
 31
0.0
  0
LINE
  5
F40
330
1F
100
AcDbEntity
  8
SANINDUSA
100
AcDbLine
 10
-11.95568103357704
 20
679.4929351579432
 30
0.0
 11
-11.94450232158794
 21
679.48857208583
 31
0.0
  0
LINE
  5
F41
330
1F
100
AcDbEntity
  8
SANINDUSA
100
AcDbLine
 10
-11.96695230320276
 20
679.464056818638
 30
0.0
 11
-11.95577359121367
 21
679.4596937465248
 31
0.0
  0
LINE
  5
F44
330
1F
100
AcDbEntity
  8
SANINDUSA
100
AcDbLine
 10
-11.97685953126288
 20
679.4713480700495
 30
0.0
 11
-11.96591284532165
 21
679.4668697599385
 31
0.0
  0
LINE
  5
F45
330
1F
100
AcDbEntity
  8
SANINDUSA
100
AcDbLine
 10
-11.95577359121367
 20
679.4596937465248
 30
0.0
 11
-11.94450232158794
 21
679.48857208583
 31
0.0
  0
ARC
  5
F46
330
1F
100
AcDbEntity
  8
SANINDUSA
100
AcDbCircle
 10
-11.24603078675232
 20
679.198076234216
 30
0.0
 40
0.7802487744704831
100
AcDbArc
 50
155.6761478420049
 51
157.6621115690603
  0
LINE
  5
F47
330
1F
100
AcDbEntity
  8
SANINDUSA
100
AcDbLine
 10
-11.88244987941017
 20
679.4836574141522
 30
0.0
 11
-11.90494726261154
 21
679.4830901628979
 31
0.0
  0
ARC
  5
F48
330
1F
100
AcDbEntity
  8
SANINDUSA
100
AcDbCircle
 10
-11.90502288087613
 20
679.4860892097261
 30
0.0
 40
0.003
100
AcDbArc
 50
186.2512009279094
 51
271.4443554435179
  0
ARC
  5
F49
330
1F
100
AcDbEntity
  8
SANINDUSA
100
AcDbCircle
 10
-11.88257590985114
 20
679.4886558255328
 30
0.0
 40
0.005
100
AcDbArc
 50
271.4443554435179
 51
354.9441735025502
  0
LINE
  5
F4A
330
1F
100
AcDbEntity
  8
SANINDUSA
100
AcDbLine
 10
-11.88764740425582
 20
679.5065611649867
 30
0.0
 11
-11.89086940425587
 21
679.4990961649867
 31
0.0
  0
ARC
  5
F4B
330
1F
100
AcDbEntity
  8
SANINDUSA
100
AcDbCircle
 10
-11.89362382901632
 20
679.5002853197988
 30
0.0
 40
0.0030001574838442
100
AcDbArc
 50
185.4540027681375
 51
336.6489214287742
  0
LINE
  5
F4D
330
1F
100
AcDbEntity
  8
SANINDUSA
100
AcDbLine
 10
-12.02974540425585
 20
679.5539463675902
 30
0.0
 11
-12.00554508426713
 21
679.5517187452444
 31
0.0
  0
LINE
  5
F4E
330
1F
100
AcDbEntity
  8
SANINDUSA
100
AcDbLine
 10
-12.00554508426713
 20
679.5517187452444
 30
0.0
 11
-12.00450408426714
 21
679.5646237452444
 31
0.0
  0
LINE
  5
F50
330
1F
100
AcDbEntity
  8
SANINDUSA
100
AcDbLine
 10
-11.99668598334922
 20
679.5638377150915
 30
0.0
 11
-12.02424540425587
 21
679.5666071649868
 31
0.0
  0
ARC
  5
F51
330
1F
100
AcDbEntity
  8
SANINDUSA
100
AcDbCircle
 10
-12.02474534795362
 20
679.5616321655573
 30
0.0
 40
0.0050000563022345
100
AcDbArc
 50
84.26154278343158
 51
180.000006536812
  0
LINE
  5
F52
330
1F
100
AcDbEntity
  8
SANINDUSA
100
AcDbLine
 10
-11.9706590842671
 20
679.5612227452444
 30
0.0
 11
-11.9716480842671
 21
679.5489707452444
 31
0.0
  0
LINE
  5
F54
330
1F
100
AcDbEntity
  8
SANINDUSA
100
AcDbLine
 10
-11.9716480842671
 20
679.5489707452444
 30
0.0
 11
-11.93483178090837
 21
679.5455818305486
 31
0.0
  0
LINE
  5
F55
330
1F
100
AcDbEntity
  8
SANINDUSA
100
AcDbLine
 10
-11.99668598334922
 20
679.5847753313023
 30
0.0
 11
-11.98168598334922
 21
679.5847753313023
 31
0.0
  0
LINE
  5
F56
330
1F
100
AcDbEntity
  8
SANINDUSA
100
AcDbLine
 10
-11.90066402208254
 20
679.5424367125045
 30
0.0
 11
-11.89273840425581
 21
679.5417071649868
 31
0.0
  0
ARC
  5
F57
330
1F
100
AcDbEntity
  8
SANINDUSA
100
AcDbCircle
 10
-11.8933043287184
 20
679.5347300894916
 30
0.0
 40
0.0069999894973102
100
AcDbArc
 50
357.2493599295645
 51
85.36277731733635
  0
ARC
  5
F5C
330
1F
100
AcDbEntity
  8
SANINDUSA
100
AcDbCircle
 10
-11.78850348366942
 20
679.5376913649346
 30
0.0
 40
0.0051998739962715
100
AcDbArc
 50
6.912249404972247
 51
84.25981054142658
  0
ARC
  5
F5D
330
1F
100
AcDbEntity
  8
SANINDUSA
100
AcDbCircle
 10
-11.78911147992379
 20
679.5360120409011
 30
0.0
 40
0.002
100
AcDbArc
 50
6.821561751159395
 51
84.26160365937041
  0
ENDSEC
  0
SECTION
  2
OBJECTS
  0
DICTIONARY
  5
C
330
0
100
AcDbDictionary
281
     1
  3
ACAD_COLOR
350
107D
  3
ACAD_GROUP
350
D
  3
ACAD_LAYOUT
350
1A
  3
ACAD_MATERIAL
350
107C
  3
ACAD_MLINESTYLE
350
17
  3
ACAD_PLOTSETTINGS
350
19
  3
ACAD_PLOTSTYLENAME
350
E
  3
ACAD_TABLESTYLE
350
107E
  3
ACDBHEADERROUNDTRIPXREC
350
1087
  3
AcDbVariableDictionary
350
3D
  3
ASE_INDEX_DICTIONARY
350
1078
  0
DICTIONARY
  5
107D
102
{ACAD_REACTORS
330
C
102
}
330
C
100
AcDbDictionary
281
     1
  0
DICTIONARY
  5
D
102
{ACAD_REACTORS
330
C
102
}
330
C
100
AcDbDictionary
281
     1
  0
DICTIONARY
  5
1A
102
{ACAD_REACTORS
330
C
102
}
330
C
100
AcDbDictionary
281
     1
  3
Layout1
350
1E
  3
Layout2
350
26
  3
Model
350
22
  0
DICTIONARY
  5
107C
102
{ACAD_REACTORS
330
C
102
}
330
C
100
AcDbDictionary
281
     1
  0
DICTIONARY
  5
17
102
{ACAD_REACTORS
330
C
102
}
330
C
100
AcDbDictionary
281
     1
  3
Standard
350
18
  0
DICTIONARY
  5
19
102
{ACAD_REACTORS
330
C
102
}
330
C
100
AcDbDictionary
281
     1
  0
ACDBDICTIONARYWDFLT
  5
E
102
{ACAD_REACTORS
330
C
102
}
330
C
100
AcDbDictionary
281
     1
  3
Normal
350
F
100
AcDbDictionaryWithDefault
340
F
  0
DICTIONARY
  5
107E
102
{ACAD_REACTORS
330
C
102
}
330
C
100
AcDbDictionary
281
     1
  3
Standard
350
107F
  0
DICTIONARY
  5
1087
102
{ACAD_REACTORS
330
C
102
}
330
C
100
AcDbDictionary
281
     1
  0
DICTIONARY
  5
3D
102
{ACAD_REACTORS
330
C
102
}
330
C
100
AcDbDictionary
281
     1
  3
CTABLESTYLE
350
1084
  3
DIMASSOC
350
3F
  3
HIDETEXT
350
3E
  3
PROJECTNAME
350
1085
  0
DICTIONARY
  5
1078
102
{ACAD_REACTORS
330
C
102
}
330
C
100
AcDbDictionary
281
     1
  3
ASEBlockHierarchyIndexRecord
350
1079
1001
DCO15
1040
1529129172.0
  0
LAYOUT
  5
1E
102
{ACAD_XDICTIONARY
360
1088
102
}
102
{ACAD_REACTORS
330
1A
102
}
330
1A
100
AcDbPlotSettings
  1

  2
Ploter HP500
  4

  6

 40
0.0
 41
0.0
 42
0.0
 43
0.0
 44
0.0
 45
0.0
 46
0.0
 47
0.0
 48
0.0
 49
0.0
140
0.0
141
0.0
142
1.0
143
1.0
 70
   688
 72
     0
 73
     0
 74
     5
  7
monochrome.ctb
 75
    16
147
1.0
148
0.0
149
0.0
100
AcDbLayout
  1
Layout1
 70
     1
 71
     1
 10
0.0
 20
0.0
 11
420.0
 21
297.0
 12
0.0
 22
0.0
 32
0.0
 14
1.000000000000000E+20
 24
1.000000000000000E+20
 34
1.000000000000000E+20
 15
-1.000000000000000E+20
 25
-1.000000000000000E+20
 35
-1.000000000000000E+20
146
0.0
 13
0.0
 23
0.0
 33
0.0
 16
1.0
 26
0.0
 36
0.0
 17
0.0
 27
1.0
 37
0.0
 76
     0
330
1B
  0
LAYOUT
  5
26
102
{ACAD_XDICTIONARY
360
108C
102
}
102
{ACAD_REACTORS
330
1A
102
}
330
1A
100
AcDbPlotSettings
  1

  2
Ploter HP500
  4

  6

 40
0.0
 41
0.0
 42
0.0
 43
0.0
 44
0.0
 45
0.0
 46
0.0
 47
0.0
 48
0.0
 49
0.0
140
0.0
141
0.0
142
1.0
143
1.0
 70
   688
 72
     0
 73
     0
 74
     5
  7
monochrome.ctb
 75
    16
147
1.0
148
0.0
149
0.0
100
AcDbLayout
  1
Layout2
 70
     1
 71
     2
 10
0.0
 20
0.0
 11
12.0
 21
9.0
 12
0.0
 22
0.0
 32
0.0
 14
0.0
 24
0.0
 34
0.0
 15
0.0
 25
0.0
 35
0.0
146
0.0
 13
0.0
 23
0.0
 33
0.0
 16
1.0
 26
0.0
 36
0.0
 17
0.0
 27
1.0
 37
0.0
 76
     0
330
23
  0
LAYOUT
  5
22
102
{ACAD_XDICTIONARY
360
108A
102
}
102
{ACAD_REACTORS
330
1A
102
}
330
1A
100
AcDbPlotSettings
  1

  2
Ploter HP500
  4
User268
  6

 40
4.995333194732666
 41
16.97565841674804
 42
4.995330810546875
 43
16.97567749023437
 44
209.9733276367187
 45
296.9259948730469
 46
0.0
 47
0.0
 48
0.0
 49
0.0
140
0.0
141
0.0
142
1.0
143
1.0
 70
 11952
 72
     1
 73
     1
 74
     0
  7

 75
     0
147
1.0
148
-427.5957866592534
149
7.362384574453926
100
AcDbLayout
  1
Model
 70
     1
 71
     0
 10
0.0
 20
0.0
 11
12.0
 21
9.0
 12
0.0
 22
0.0
 32
0.0
 14
0.0
 24
0.0
 34
0.0
 15
0.0
 25
0.0
 35
0.0
146
0.0
 13
0.0
 23
0.0
 33
0.0
 16
1.0
 26
0.0
 36
0.0
 17
0.0
 27
1.0
 37
0.0
 76
     0
330
1F
  0
MLINESTYLE
  5
18
102
{ACAD_REACTORS
330
17
102
}
330
17
100
AcDbMlineStyle
  2
STANDARD
 70
     0
  3

 62
   256
 51
90.0
 52
90.0
 71
     2
 49
0.5
 62
   256
  6
BYLAYER
 49
-0.5
 62
   256
  6
BYLAYER
  0
ACDBPLACEHOLDER
  5
F
102
{ACAD_REACTORS
330
E
102
}
330
E
  0
TABLESTYLE
  5
107F
102
{ACAD_REACTORS
330
107E
102
}
330
107E
100
AcDbTableStyle
  3
Standard
 70
     0
 71
     0
 40
1.5
 41
1.5
280
     0
281
     0
  7
Standard
140
4.5
170
     2
 62
     0
 63
     7
283
     0
274
    -2
284
     1
 64
     0
275
    -2
285
     1
 65
     0
276
    -2
286
     1
 66
     0
277
    -2
287
     1
 67
     0
278
    -2
288
     1
 68
     0
279
    -2
289
     1
 69
     0
  7
Standard
140
6.0
170
     5
 62
     0
 63
     7
283
     0
274
    -2
284
     1
 64
     0
275
    -2
285
     1
 65
     0
276
    -2
286
     1
 66
     0
277
    -2
287
     1
 67
     0
278
    -2
288
     1
 68
     0
279
    -2
289
     1
 69
     0
  7
Standard
140
4.5
170
     5
 62
     0
 63
     7
283
     0
274
    -2
284
     1
 64
     0
275
    -2
285
     1
 65
     0
276
    -2
286
     1
 66
     0
277
    -2
287
     1
 67
     0
278
    -2
288
     1
 68
     0
279
    -2
289
     1
 69
     0
  0
DICTIONARYVAR
  5
1084
102
{ACAD_REACTORS
330
3D
102
}
330
3D
100
DictionaryVariables
280
     0
  1
STANDARD
  0
DICTIONARYVAR
  5
3F
102
{ACAD_REACTORS
330
3D
102
}
330
3D
100
DictionaryVariables
280
     0
  1
2
  0
DICTIONARYVAR
  5
3E
102
{ACAD_REACTORS
330
3D
102
}
330
3D
100
DictionaryVariables
280
     0
  1
1
  0
DICTIONARYVAR
  5
1085
102
{ACAD_REACTORS
330
3D
102
}
330
3D
100
DictionaryVariables
280
     0
  1

  0
XRECORD
  5
1079
102
{ACAD_REACTORS
330
1078
102
}
330
1078
100
AcDbXrecord
280
     1
  0
DICTIONARY
  5
1088
330
1E
100
AcDbDictionary
280
     1
281
     1
  3
ACAD_XREC_ROUNDTRIP
360
1089
  0
DICTIONARY
  5
108C
330
26
100
AcDbDictionary
280
     1
281
     1
  3
ACAD_XREC_ROUNDTRIP
360
108D
  0
DICTIONARY
  5
108A
330
22
100
AcDbDictionary
280
     1
281
     1
  3
ACAD_XREC_ROUNDTRIP
360
108B
  0
XRECORD
  5
1089
102
{ACAD_REACTORS
330
1088
102
}
330
1088
100
AcDbXrecord
280
     1
102
SHADEPLOT
 70
     0
102
SHADEPLOTRESLEVEL
 70
     2
102
SHADEPLOTCUSTOMDPI
 70
   300
  0
XRECORD
  5
108D
102
{ACAD_REACTORS
330
108C
102
}
330
108C
100
AcDbXrecord
280
     1
102
SHADEPLOT
 70
     0
102
SHADEPLOTRESLEVEL
 70
     2
102
SHADEPLOTCUSTOMDPI
 70
   300
  0
XRECORD
  5
108B
102
{ACAD_REACTORS
330
108A
102
}
330
108A
100
AcDbXrecord
280
     1
102
SHADEPLOT
 70
     0
102
SHADEPLOTRESLEVEL
 70
     2
102
SHADEPLOTCUSTOMDPI
 70
   300
  0
ENDSEC
  0
EOF
