  0
SECTION
  2
HEADER
  9
$ACADVER
  1
AC1015
  9
$ACADMAINTVER
 70
    20
  9
$DWGCODEPAGE
  3
ANSI_1252
  9
$INSBASE
 10
0.0
 20
0.0
 30
0.0
  9
$EXTMIN
 10
4258.839233397019
 20
2419.748069083582
 30
0.0
  9
$EXTMAX
 10
4261.602280726894
 20
2420.213069083582
 30
0.0
  9
$LIMMIN
 10
0.0
 20
0.0
  9
$LIMMAX
 10
420.0
 20
297.0
  9
$ORTHOMODE
 70
     1
  9
$REGENMODE
 70
     1
  9
$FILLMODE
 70
     1
  9
$QTEXTMODE
 70
     0
  9
$MIRRTEXT
 70
     1
  9
$LTSCALE
 40
1.0
  9
$ATTMODE
 70
     1
  9
$TEXTSIZE
 40
2.5
  9
$TRACEWID
 40
1.0
  9
$TEXTSTYLE
  7
SANINDUSA
  9
$CLAYER
  8
0
  9
$CELTYPE
  6
ByLayer
  9
$CECOLOR
 62
   256
  9
$CELTSCALE
 40
1.0
  9
$DISPSILH
 70
     0
  9
$DIMSCALE
 40
1.0
  9
$DIMASZ
 40
2.0
  9
$DIMEXO
 40
1.0
  9
$DIMDLI
 40
1.0
  9
$DIMRND
 40
0.0
  9
$DIMDLE
 40
0.0
  9
$DIMEXE
 40
1.0
  9
$DIMTP
 40
0.0
  9
$DIMTM
 40
0.0
  9
$DIMTXT
 40
2.0
  9
$DIMCEN
 40
0.0
  9
$DIMTSZ
 40
0.0
  9
$DIMTOL
 70
     0
  9
$DIMLIM
 70
     0
  9
$DIMTIH
 70
     0
  9
$DIMTOH
 70
     0
  9
$DIMSE1
 70
     0
  9
$DIMSE2
 70
     0
  9
$DIMTAD
 70
     1
  9
$DIMZIN
 70
     8
  9
$DIMBLK
  1

  9
$DIMASO
 70
     1
  9
$DIMSHO
 70
     1
  9
$DIMPOST
  1

  9
$DIMAPOST
  1

  9
$DIMALT
 70
     0
  9
$DIMALTD
 70
     3
  9
$DIMALTF
 40
0.03937007874016
  9
$DIMLFAC
 40
1.0
  9
$DIMTOFL
 70
     1
  9
$DIMTVP
 40
0.0
  9
$DIMTIX
 70
     0
  9
$DIMSOXD
 70
     0
  9
$DIMSAH
 70
     0
  9
$DIMBLK1
  1

  9
$DIMBLK2
  1

  9
$DIMSTYLE
  2
SANINDUSA
  9
$DIMCLRD
 70
   256
  9
$DIMCLRE
 70
   256
  9
$DIMCLRT
 70
   256
  9
$DIMTFAC
 40
1.0
  9
$DIMGAP
 40
1.0
  9
$DIMJUST
 70
     0
  9
$DIMSD1
 70
     0
  9
$DIMSD2
 70
     0
  9
$DIMTOLJ
 70
     0
  9
$DIMTZIN
 70
     8
  9
$DIMALTZ
 70
     0
  9
$DIMALTTZ
 70
     0
  9
$DIMUPT
 70
     0
  9
$DIMDEC
 70
     1
  9
$DIMTDEC
 70
     1
  9
$DIMALTU
 70
     2
  9
$DIMALTTD
 70
     3
  9
$DIMTXSTY
  7
SANINDUSA
  9
$DIMAUNIT
 70
     0
  9
$DIMADEC
 70
     1
  9
$DIMALTRND
 40
0.0
  9
$DIMAZIN
 70
     0
  9
$DIMDSEP
 70
    44
  9
$DIMATFIT
 70
     3
  9
$DIMFRAC
 70
     0
  9
$DIMLDRBLK
  1

  9
$DIMLUNIT
 70
     2
  9
$DIMLWD
 70
    -1
  9
$DIMLWE
 70
    -1
  9
$DIMTMOVE
 70
     0
  9
$LUNITS
 70
     2
  9
$LUPREC
 70
     4
  9
$SKETCHINC
 40
1.0
  9
$FILLETRAD
 40
0.0
  9
$AUNITS
 70
     0
  9
$AUPREC
 70
     0
  9
$MENU
  1
.
  9
$ELEVATION
 40
0.0
  9
$PELEVATION
 40
0.0
  9
$THICKNESS
 40
0.0
  9
$LIMCHECK
 70
     0
  9
$CHAMFERA
 40
10.0
  9
$CHAMFERB
 40
10.0
  9
$CHAMFERC
 40
20.0
  9
$CHAMFERD
 40
0.0
  9
$SKPOLY
 70
     0
  9
$TDCREATE
 40
2455782.413615081
  9
$TDUCREATE
 40
2455782.371948414
  9
$TDUPDATE
 40
2456111.662803634
  9
$TDUUPDATE
 40
2456111.621136968
  9
$TDINDWG
 40
0.0134449074
  9
$TDUSRTIMER
 40
0.0134447338
  9
$USRTIMER
 70
     1
  9
$ANGBASE
 50
0.0
  9
$ANGDIR
 70
     0
  9
$PDMODE
 70
     0
  9
$PDSIZE
 40
0.0
  9
$PLINEWID
 40
0.0
  9
$SPLFRAME
 70
     0
  9
$SPLINETYPE
 70
     6
  9
$SPLINESEGS
 70
     8
  9
$HANDSEED
  5
3C27
  9
$SURFTAB1
 70
     6
  9
$SURFTAB2
 70
     6
  9
$SURFTYPE
 70
     6
  9
$SURFU
 70
     6
  9
$SURFV
 70
     6
  9
$UCSBASE
  2

  9
$UCSNAME
  2

  9
$UCSORG
 10
0.0
 20
0.0
 30
0.0
  9
$UCSXDIR
 10
1.0
 20
0.0
 30
0.0
  9
$UCSYDIR
 10
0.0
 20
1.0
 30
0.0
  9
$UCSORTHOREF
  2

  9
$UCSORTHOVIEW
 70
     0
  9
$UCSORGTOP
 10
0.0
 20
0.0
 30
0.0
  9
$UCSORGBOTTOM
 10
0.0
 20
0.0
 30
0.0
  9
$UCSORGLEFT
 10
0.0
 20
0.0
 30
0.0
  9
$UCSORGRIGHT
 10
0.0
 20
0.0
 30
0.0
  9
$UCSORGFRONT
 10
0.0
 20
0.0
 30
0.0
  9
$UCSORGBACK
 10
0.0
 20
0.0
 30
0.0
  9
$PUCSBASE
  2

  9
$PUCSNAME
  2

  9
$PUCSORG
 10
0.0
 20
0.0
 30
0.0
  9
$PUCSXDIR
 10
1.0
 20
0.0
 30
0.0
  9
$PUCSYDIR
 10
0.0
 20
1.0
 30
0.0
  9
$PUCSORTHOREF
  2

  9
$PUCSORTHOVIEW
 70
     0
  9
$PUCSORGTOP
 10
0.0
 20
0.0
 30
0.0
  9
$PUCSORGBOTTOM
 10
0.0
 20
0.0
 30
0.0
  9
$PUCSORGLEFT
 10
0.0
 20
0.0
 30
0.0
  9
$PUCSORGRIGHT
 10
0.0
 20
0.0
 30
0.0
  9
$PUCSORGFRONT
 10
0.0
 20
0.0
 30
0.0
  9
$PUCSORGBACK
 10
0.0
 20
0.0
 30
0.0
  9
$USERI1
 70
     0
  9
$USERI2
 70
     0
  9
$USERI3
 70
     0
  9
$USERI4
 70
     0
  9
$USERI5
 70
     0
  9
$USERR1
 40
0.0
  9
$USERR2
 40
0.0
  9
$USERR3
 40
0.0
  9
$USERR4
 40
0.0
  9
$USERR5
 40
0.0
  9
$WORLDVIEW
 70
     1
  9
$SHADEDGE
 70
     3
  9
$SHADEDIF
 70
    70
  9
$TILEMODE
 70
     1
  9
$MAXACTVP
 70
    64
  9
$PINSBASE
 10
0.0
 20
0.0
 30
0.0
  9
$PLIMCHECK
 70
     0
  9
$PEXTMIN
 10
1.000000000000000E+20
 20
1.000000000000000E+20
 30
1.000000000000000E+20
  9
$PEXTMAX
 10
-1.000000000000000E+20
 20
-1.000000000000000E+20
 30
-1.000000000000000E+20
  9
$PLIMMIN
 10
0.0
 20
0.0
  9
$PLIMMAX
 10
420.0
 20
297.0
  9
$UNITMODE
 70
     0
  9
$VISRETAIN
 70
     1
  9
$PLINEGEN
 70
     0
  9
$PSLTSCALE
 70
     1
  9
$TREEDEPTH
 70
  3020
  9
$CMLSTYLE
  2
Standard
  9
$CMLJUST
 70
     0
  9
$CMLSCALE
 40
20.0
  9
$PROXYGRAPHICS
 70
     1
  9
$MEASUREMENT
 70
     1
  9
$CELWEIGHT
370
    -1
  9
$ENDCAPS
280
     0
  9
$JOINSTYLE
280
     0
  9
$LWDISPLAY
290
     0
  9
$INSUNITS
 70
     4
  9
$HYPERLINKBASE
  1

  9
$STYLESHEET
  1
sanindusa.ctb
  9
$XEDIT
290
     1
  9
$CEPSNTYPE
380
     0
  9
$PSTYLEMODE
290
     1
  9
$FINGERPRINTGUID
  2
{C543DB63-BEA6-4FB3-8BFD-B38609965B64}
  9
$VERSIONGUID
  2
{0E60EEC3-CF74-4D9B-AF99-93392ADFAB4B}
  9
$EXTNAMES
290
     1
  9
$PSVPSCALE
 40
0.0
  9
$OLESTARTUP
290
     0
  0
ENDSEC
  0
SECTION
  2
CLASSES
  0
CLASS
  1
ACDBDICTIONARYWDFLT
  2
AcDbDictionaryWithDefault
  3
ObjectDBX Classes
 90
        0
280
     0
281
     0
  0
CLASS
  1
ACDBPLACEHOLDER
  2
AcDbPlaceHolder
  3
ObjectDBX Classes
 90
        0
280
     0
281
     0
  0
CLASS
  1
LAYOUT
  2
AcDbLayout
  3
ObjectDBX Classes
 90
        0
280
     0
281
     0
  0
CLASS
  1
DICTIONARYVAR
  2
AcDbDictionaryVar
  3
ObjectDBX Classes
 90
        0
280
     0
281
     0
  0
CLASS
  1
DIMASSOC
  2
AcDbDimAssoc
  3
"AcDbDimAssoc|Product Desc:     AcDim ARX App For Dimension|Company:          Autodesk, Inc.|WEB Address:      www.autodesk.com"
 90
    32768
280
     0
281
     0
  0
CLASS
  1
TABLESTYLE
  2
AcDbTableStyle
  3
ObjectDBX Classes
 90
     4095
280
     0
281
     0
  0
CLASS
  1
MATERIAL
  2
AcDbMaterial
  3
ObjectDBX Classes
 90
     1153
280
     0
281
     0
  0
CLASS
  1
VISUALSTYLE
  2
AcDbVisualStyle
  3
ObjectDBX Classes
 90
     4095
280
     0
281
     0
  0
CLASS
  1
SCALE
  2
AcDbScale
  3
ObjectDBX Classes
 90
     1153
280
     0
281
     0
  0
CLASS
  1
MLEADERSTYLE
  2
AcDbMLeaderStyle
  3
ACDB_MLEADERSTYLE_CLASS
 90
     4095
280
     0
281
     0
  0
CLASS
  1
SORTENTSTABLE
  2
AcDbSortentsTable
  3
ObjectDBX Classes
 90
    32768
280
     0
281
     0
  0
CLASS
  1
AEC_REFEDIT_STATUS_TRACKER
  2
AecDbRefEditStatusTracker
  3
AecArchBase60|Product Desc: Autodesk Architectural Desktop 2007 |Company: Autodesk,Inc. |WEB Address: www.autodesk.com
 90
    32897
280
     0
281
     0
  0
CLASS
  1
NPOCOLLECTION
  2
AcDbImpNonPersistentObjectsCollection
  3
ObjectDBX Classes
 90
    33921
280
     0
281
     0
  0
CLASS
  1
CELLSTYLEMAP
  2
AcDbCellStyleMap
  3
ObjectDBX Classes
 90
     1152
280
     0
281
     0
  0
CLASS
  1
SOLID_BACKGROUND
  2
AcDbSolidBackground
  3
SCENEOE
 90
    36863
280
     0
281
     0
  0
ENDSEC
  0
SECTION
  2
TABLES
  0
TABLE
  2
VPORT
  5
8
102
{ACAD_XDICTIONARY
360
3BA5
102
}
330
0
100
AcDbSymbolTable
 70
     1
  0
VPORT
  5
1068
330
8
100
AcDbSymbolTableRecord
100
AcDbViewportTableRecord
  2
*Active
 70
     0
 10
0.0
 20
0.0
 11
1.0
 21
1.0
 12
4260.220757061957
 22
2419.980569083583
 13
0.0
 23
0.0
 14
10.0
 24
10.0
 15
10.0
 25
10.0
 16
0.0
 26
0.0
 36
1.0
 17
0.0
 27
0.0
 37
0.0
 40
1.685568464243138
 41
1.645464025026068
 42
50.0
 43
0.0
 44
0.0
 50
0.0
 51
0.0
 71
     0
 72
   100
 73
     1
 74
     2
 75
     0
 76
     0
 77
     0
 78
     0
281
     0
 65
     1
110
0.0
120
0.0
130
0.0
111
1.0
121
0.0
131
0.0
112
0.0
122
1.0
132
0.0
 79
     0
146
0.0
  0
ENDTAB
  0
TABLE
  2
LTYPE
  5
5
330
0
100
AcDbSymbolTable
 70
     5
  0
LTYPE
  5
14
330
5
100
AcDbSymbolTableRecord
100
AcDbLinetypeTableRecord
  2
ByBlock
 70
     0
  3

 72
    65
 73
     0
 40
0.0
  0
LTYPE
  5
15
330
5
100
AcDbSymbolTableRecord
100
AcDbLinetypeTableRecord
  2
ByLayer
 70
     0
  3

 72
    65
 73
     0
 40
0.0
  0
LTYPE
  5
16
330
5
100
AcDbSymbolTableRecord
100
AcDbLinetypeTableRecord
  2
Continuous
 70
     0
  3
Solid line
 72
    65
 73
     0
 40
0.0
  0
LTYPE
  5
2D
330
5
100
AcDbSymbolTableRecord
100
AcDbLinetypeTableRecord
  2
DASHDOT
 70
     0
  3
Dash dot __ . __ . __ . __ . __ . __ . __ . __
 72
    65
 73
     4
 40
25.4
 49
12.7
 74
     0
 49
-6.349999999999999
 74
     0
 49
0.0
 74
     0
 49
-6.349999999999999
 74
     0
  0
LTYPE
  5
2E
330
5
100
AcDbSymbolTableRecord
100
AcDbLinetypeTableRecord
  2
HIDDEN
 70
     0
  3
Hidden __ __ __ __ __ __ __ __ __ __ __ __ __ _
 72
    65
 73
     2
 40
9.524999999999998
 49
6.349999999999999
 74
     0
 49
-3.174999999999999
 74
     0
  0
LTYPE
  5
C75
330
5
100
AcDbSymbolTableRecord
100
AcDbLinetypeTableRecord
  2
AM_ISO02W050
 70
     0
  3
__ __ __ __ __ __ __ __ __ __ __ __ __ __ __
 72
    65
 73
     2
 40
7.5
 49
6.0
 74
     0
 49
-1.5
 74
     0
  0
LTYPE
  5
C76
330
5
100
AcDbSymbolTableRecord
100
AcDbLinetypeTableRecord
  2
AM_ISO08W050
 70
     0
  3
____ . ____ . ____ . ____ . ____ . ____ . ____
 72
    65
 73
     4
 40
18.0
 49
12.0
 74
     0
 49
-1.5
 74
     0
 49
3.0
 74
     0
 49
-1.5
 74
     0
  0
ENDTAB
  0
TABLE
  2
LAYER
  5
2
102
{ACAD_XDICTIONARY
360
1051
102
}
330
0
100
AcDbSymbolTable
 70
    17
  0
LAYER
  5
10
102
{ACAD_XDICTIONARY
360
3AF9
102
}
330
2
100
AcDbSymbolTableRecord
100
AcDbLayerTableRecord
  2
0
 70
     0
 62
     7
  6
Continuous
370
    -3
390
F
  0
LAYER
  5
2F
102
{ACAD_XDICTIONARY
360
3AFB
102
}
330
2
100
AcDbSymbolTableRecord
100
AcDbLayerTableRecord
  2
1
 70
     0
 62
     1
  6
Continuous
370
    -3
390
F
  0
LAYER
  5
30
102
{ACAD_XDICTIONARY
360
3AFD
102
}
330
2
100
AcDbSymbolTableRecord
100
AcDbLayerTableRecord
  2
2
 70
     0
 62
     2
  6
Continuous
370
    -3
390
F
  0
LAYER
  5
31
102
{ACAD_XDICTIONARY
360
3AFF
102
}
330
2
100
AcDbSymbolTableRecord
100
AcDbLayerTableRecord
  2
3
 70
     0
 62
     3
  6
Continuous
370
    -3
390
F
  0
LAYER
  5
32
102
{ACAD_XDICTIONARY
360
3B01
102
}
330
2
100
AcDbSymbolTableRecord
100
AcDbLayerTableRecord
  2
4
 70
     0
 62
     4
  6
Continuous
370
    -3
390
F
  0
LAYER
  5
33
102
{ACAD_XDICTIONARY
360
3B03
102
}
330
2
100
AcDbSymbolTableRecord
100
AcDbLayerTableRecord
  2
5
 70
     0
 62
     5
  6
Continuous
370
    -3
390
F
  0
LAYER
  5
34
102
{ACAD_XDICTIONARY
360
3B05
102
}
330
2
100
AcDbSymbolTableRecord
100
AcDbLayerTableRecord
  2
6
 70
     0
 62
     6
  6
Continuous
370
    -3
390
F
  0
LAYER
  5
35
102
{ACAD_XDICTIONARY
360
3B07
102
}
330
2
100
AcDbSymbolTableRecord
100
AcDbLayerTableRecord
  2
7
 70
     0
 62
     7
  6
Continuous
370
    -3
390
F
  0
LAYER
  5
36
102
{ACAD_XDICTIONARY
360
3B09
102
}
330
2
100
AcDbSymbolTableRecord
100
AcDbLayerTableRecord
  2
cen
 70
     0
 62
     7
  6
DASHDOT
370
    -3
390
F
  0
LAYER
  5
37
102
{ACAD_XDICTIONARY
360
3B0B
102
}
330
2
100
AcDbSymbolTableRecord
100
AcDbLayerTableRecord
  2
hid
 70
     0
 62
     7
  6
HIDDEN
370
    -3
390
F
  0
LAYER
  5
5D6
102
{ACAD_XDICTIONARY
360
3B0D
102
}
330
2
100
AcDbSymbolTableRecord
100
AcDbLayerTableRecord
  2
hatch
 70
     0
 62
     9
  6
Continuous
370
    -3
390
F
  0
LAYER
  5
8AF
102
{ACAD_XDICTIONARY
360
3B0F
102
}
330
2
100
AcDbSymbolTableRecord
100
AcDbLayerTableRecord
  2
9
 70
     0
 62
     9
  6
Continuous
370
    -3
390
F
  0
LAYER
  5
8F8
102
{ACAD_XDICTIONARY
360
3B11
102
}
330
2
100
AcDbSymbolTableRecord
100
AcDbLayerTableRecord
  2
leg fin
 70
     0
 62
     9
  6
Continuous
370
    -3
390
F
  0
LAYER
  5
91D
102
{ACAD_XDICTIONARY
360
3B13
102
}
330
2
100
AcDbSymbolTableRecord
100
AcDbLayerTableRecord
  2
cotas
 70
     0
 62
     1
  6
Continuous
370
    -3
390
F
  0
LAYER
  5
92F
330
2
100
AcDbSymbolTableRecord
100
AcDbLayerTableRecord
  2
Defpoints
 70
     0
 62
     7
  6
Continuous
290
     0
370
    -3
390
F
  0
LAYER
  5
C7B
102
{ACAD_XDICTIONARY
360
3B15
102
}
330
2
100
AcDbSymbolTableRecord
100
AcDbLayerTableRecord
  2
SANINDUSA
 70
     0
 62
     3
  6
Continuous
370
    -3
390
F
  0
LAYER
  5
1060
102
{ACAD_XDICTIONARY
360
3B17
102
}
330
2
100
AcDbSymbolTableRecord
100
AcDbLayerTableRecord
  2
hid1
 70
     0
 62
     9
  6
HIDDEN
370
    -3
390
F
1001
AcAecLayerStandard
1000

1000

  0
ENDTAB
  0
TABLE
  2
STYLE
  5
3
330
0
100
AcDbSymbolTable
 70
     4
  0
STYLE
  5
11
330
3
100
AcDbSymbolTableRecord
100
AcDbTextStyleTableRecord
  2
Standard
 70
     0
 40
0.0
 41
1.0
 50
0.0
 71
     0
 42
2.5
  3
Avgardn.ttf
  4

1001
ACAD
1000
AvantGarde Bk BT
1071
       34
  0
STYLE
  5
2C
330
3
100
AcDbSymbolTableRecord
100
AcDbTextStyleTableRecord
  2

 70
     1
 40
0.0
 41
1.0
 50
0.0
 71
     0
 42
2.5
  3
ltypeshp.shx
  4

  0
STYLE
  5
91F
330
3
100
AcDbSymbolTableRecord
100
AcDbTextStyleTableRecord
  2
SANINDUSA
 70
     0
 40
0.0
 41
1.0
 50
0.0
 71
     0
 42
2.5
  3
verdana.TTF
  4

1001
ACAD
1000
Verdana
1071
       34
  0
STYLE
  5
C7C
330
3
100
AcDbSymbolTableRecord
100
AcDbTextStyleTableRecord
  2
futura
 70
     0
 40
0.0
 41
1.0
 50
0.0
 71
     0
 42
2.5
  3
ZURCHN.TTF
  4

1001
ACAD
1000
Zurich BT
1071
       34
  0
ENDTAB
  0
TABLE
  2
VIEW
  5
6
330
0
100
AcDbSymbolTable
 70
     0
  0
ENDTAB
  0
TABLE
  2
UCS
  5
7
330
0
100
AcDbSymbolTable
 70
     0
  0
ENDTAB
  0
TABLE
  2
APPID
  5
9
330
0
100
AcDbSymbolTable
 70
    15
  0
APPID
  5
12
330
9
100
AcDbSymbolTableRecord
100
AcDbRegAppTableRecord
  2
ACAD
 70
     0
  0
APPID
  5
3A
330
9
100
AcDbSymbolTableRecord
100
AcDbRegAppTableRecord
  2
DCO15
 70
     0
  0
APPID
  5
EEE
330
9
100
AcDbSymbolTableRecord
100
AcDbRegAppTableRecord
  2
ACAD_DSTYLE_DIMTEXT_FILL
 70
     0
  0
APPID
  5
EEF
330
9
100
AcDbSymbolTableRecord
100
AcDbRegAppTableRecord
  2
ACAD_DSTYLE_DIMEXT_LENGTH
 70
     0
  0
APPID
  5
EF0
330
9
100
AcDbSymbolTableRecord
100
AcDbRegAppTableRecord
  2
ACAD_DSTYLE_DIMEXT_ENABLED
 70
     0
  0
APPID
  5
EF1
330
9
100
AcDbSymbolTableRecord
100
AcDbRegAppTableRecord
  2
ACAD_DSTYLE_DIM_LINETYPE
 70
     0
  0
APPID
  5
EF2
330
9
100
AcDbSymbolTableRecord
100
AcDbRegAppTableRecord
  2
ACAD_DSTYLE_DIM_EXT1_LINETYPE
 70
     0
  0
APPID
  5
EF3
330
9
100
AcDbSymbolTableRecord
100
AcDbRegAppTableRecord
  2
ACAD_DSTYLE_DIM_EXT2_LINETYPE
 70
     0
  0
APPID
  5
FAF
330
9
100
AcDbSymbolTableRecord
100
AcDbRegAppTableRecord
  2
ACAD_DSTYLE_DIMJOGGED_JOGANGLE_SYMBOL
 70
     0
  0
APPID
  5
1013
330
9
100
AcDbSymbolTableRecord
100
AcDbRegAppTableRecord
  2
ACAD_DSTYLE_DIMARC_LENGTH_SYMBOL
 70
     0
  0
APPID
  5
1061
330
9
100
AcDbSymbolTableRecord
100
AcDbRegAppTableRecord
  2
AcAecLayerStandard
 70
     0
  0
APPID
  5
11F5
330
9
100
AcDbSymbolTableRecord
100
AcDbRegAppTableRecord
  2
ACAD_DSTYLE_DIMJAG
 70
     0
  0
APPID
  5
11F6
330
9
100
AcDbSymbolTableRecord
100
AcDbRegAppTableRecord
  2
ACAD_DSTYLE_DIMTALN
 70
     0
  0
APPID
  5
11F7
330
9
100
AcDbSymbolTableRecord
100
AcDbRegAppTableRecord
  2
ACAD_DSTYLE_DIMRADIAL_EXTENSION
 70
     0
  0
APPID
  5
3BD7
330
9
100
AcDbSymbolTableRecord
100
AcDbRegAppTableRecord
  2
ACAD_MLEADERVER
 70
     0
  0
ENDTAB
  0
TABLE
  2
DIMSTYLE
  5
A
330
0
100
AcDbSymbolTable
 70
     3
100
AcDbDimStyleTable
 71
     1
340
921
  0
DIMSTYLE
105
45
330
A
100
AcDbSymbolTableRecord
100
AcDbDimStyleTableRecord
  2
STANDARD
 70
     0
289
     0
340
11
  0
DIMSTYLE
105
921
330
A
100
AcDbSymbolTableRecord
100
AcDbDimStyleTableRecord
  2
SANINDUSA
 70
     0
 41
2.0
 42
1.0
 43
1.0
 44
1.0
 73
     0
 74
     0
 77
     1
 78
     8
140
2.0
141
0.0
143
0.03937007874016
147
1.0
171
     3
172
     1
176
   256
177
   256
178
   256
179
     1
271
     1
272
     1
274
     3
278
    44
283
     0
284
     8
340
91F
371
    -1
372
    -1
1001
ACAD_DSTYLE_DIMJOGGED_JOGANGLE_SYMBOL
1070
   384
1040
1.570796326794896
  0
DIMSTYLE
105
C7D
330
A
100
AcDbSymbolTableRecord
100
AcDbDimStyleTableRecord
  2
AM_ISO
 70
     0
  4
"
 41
2.5
 42
1.0
 43
10.0
 44
1.0
 47
0.1
 48
0.1
 73
     0
 74
     0
 77
     1
 78
     8
 79
     2
140
3.5
141
0.0
143
0.0393701
146
0.71
147
1.5
172
     1
176
   256
177
   256
178
     2
271
     2
272
     3
274
     4
283
     0
284
     8
340
11
371
    -1
372
    -1
  0
ENDTAB
  0
TABLE
  2
BLOCK_RECORD
  5
1
330
0
100
AcDbSymbolTable
 70
    63
  0
BLOCK_RECORD
  5
1F
330
1
100
AcDbSymbolTableRecord
100
AcDbBlockTableRecord
  2
*Model_Space
340
22
  0
BLOCK_RECORD
  5
1B
330
1
100
AcDbSymbolTableRecord
100
AcDbBlockTableRecord
  2
*Paper_Space
340
1E
  0
BLOCK_RECORD
  5
23
330
1
100
AcDbSymbolTableRecord
100
AcDbBlockTableRecord
  2
*Paper_Space0
340
26
  0
BLOCK_RECORD
  5
919
330
1
100
AcDbSymbolTableRecord
100
AcDbBlockTableRecord
  2
_DotSmall
340
0
  0
BLOCK_RECORD
  5
922
330
1
100
AcDbSymbolTableRecord
100
AcDbBlockTableRecord
  2
base para cotas
340
0
310
2800000020000000200000000100080000000000000400000000000000000000000000000000000000000000000080000080000000808000800000008000800080800000C0C0C000C0DCC000F0CAA6000020400000206000002080000020A0000020C0000020E00000400000004020000040400000406000004080000040A0
310
000040C0000040E00000600000006020000060400000606000006080000060A0000060C0000060E00000800000008020000080400000806000008080000080A0000080C0000080E00000A0000000A0200000A0400000A0600000A0800000A0A00000A0C00000A0E00000C0000000C0200000C0400000C0600000C0800000C0
310
A00000C0C00000C0E00000E0000000E0200000E0400000E0600000E0800000E0A00000E0C00000E0E00040000000400020004000400040006000400080004000A0004000C0004000E00040200000402020004020400040206000402080004020A0004020C0004020E000404000004040200040404000404060004040800040
310
40A0004040C0004040E00040600000406020004060400040606000406080004060A0004060C0004060E00040800000408020004080400040806000408080004080A0004080C0004080E00040A0000040A0200040A0400040A0600040A0800040A0A00040A0C00040A0E00040C0000040C0200040C0400040C0600040C08000
310
40C0A00040C0C00040C0E00040E0000040E0200040E0400040E0600040E0800040E0A00040E0C00040E0E00080000000800020008000400080006000800080008000A0008000C0008000E00080200000802020008020400080206000802080008020A0008020C0008020E00080400000804020008040400080406000804080
310
008040A0008040C0008040E00080600000806020008060400080606000806080008060A0008060C0008060E00080800000808020008080400080806000808080008080A0008080C0008080E00080A0000080A0200080A0400080A0600080A0800080A0A00080A0C00080A0E00080C0000080C0200080C0400080C0600080C0
310
800080C0A00080C0C00080C0E00080E0000080E0200080E0400080E0600080E0800080E0A00080E0C00080E0E000C0000000C0002000C0004000C0006000C0008000C000A000C000C000C000E000C0200000C0202000C0204000C0206000C0208000C020A000C020C000C020E000C0400000C0402000C0404000C0406000C0
310
408000C040A000C040C000C040E000C0600000C0602000C0604000C0606000C0608000C060A000C060C000C060E000C0800000C0802000C0804000C0806000C0808000C080A000C080C000C080E000C0A00000C0A02000C0A04000C0A06000C0A08000C0A0A000C0A0C000C0A0E000C0C00000C0C02000C0C04000C0C06000
310
C0C08000C0C0A000F0FBFF00A4A0A000808080000000FF0000FF000000FFFF00FF000000FF00FF00FFFF0000FFFFFF00A4A4A4A4A4A4A4A4A4A4A4A4A4A4A4A4A4A4A4A4A4A4A4A4A4A4A4A4A4A4A4A4A4A4A4A4A4A4A4A4A4A4A4A4A4A4A4A4A4A4A4A4A4A4A4A4A4A4A4A4A4A4A4A4A4A4A4A4A4A4A4A4A4A4A4A4A4A4A4
310
A4A4A4A4A4A4A4A4A4A4A4A4A4A4A4A4A4A4A4A4A4A4A4A4A4A4A4A4A4A4A4A4A4A4A4A4A4A4A4A4A4A4A4A4A4A4A4A4A4A4A4A4A4A4A4A4A4A4A4A4A4A4A4A4A4A4A4A4A4A4A4A4A4A4A4A4A4A4A4A4A4A4A4A4A4A4A4A4A4A4A4A4A4A4A4A4A4A4A4A4A4A4A4A4A4A4A4A4A4A4A4A4A4A4A4A4A4A4A4A4A4A4A4A4A4A4A4
310
A4A4A4A4A4A4A4A4A4A4A4A4A4A4A4A4A4A4A4A4A4A4A4A4A4A4A4A4A4A4A4A4A4A4A4A4A4A4A4A4A4A4A4A4A4A4A4A4A4A4A4A4A4A4A4A4A4A4A4A4A4A4A4A4A4A4A4A4A4A4A4A4A4A4A4A4A4A4A4A4A4A4A4A4A4A4A4A4A4A4A4A4A4A4A4A4A4A4A4A4A4A4A4A4A4A4A4A4A4A4A4A4A4A4A4A4A4A4A4A4A4A4A4A4A4A4A4
310
A4A4A4A4A4A4A4A4A4A4A4A4A4A4A4A4A4A4A4A4A4A4A4A4A4A4A4A4A4A4A4A4A4A4A4A4A4A4A4A4A4A4A4A4A4A4A4A4A4A4A4A4A4A4A4A4A4A4A4A4A4A4A4A4A4A4A4A4A4A4A4A4A4A4A4A4A4A4A4A4A4A4A4A4A4A4A4A4A4A4A4A4A4A4A4A4A4A4A4A4A4A4A4A4A4A4A4A4A4A4A4A4A4A4A4A4F9F9F9F9F9F9F9F9F9F9F9
310
F9F9F9F9F9F9F9F9F9F9F9F9F9F9F9F9F9F9F9A4A4F9F9F9F9F9F9F9F9F9F9F9F9F9F9F9F9F9F9F9F9F9F9F9F9F9F9F9F9F9F9A4A4F9F9F9F9F9F9F9F9F9F9F9F9F9F9F9F9F9F9F9F9F9F9F9F9F9F9F9F9F9F9A4A4F9A4A4A4A4A4A4A4A4A4A4A4A4A4A4A4A4A4A4A4A4A4A4A4A4A4A4A4A4F9A4A4A4A4A4A4A4A4A4A4A4A4
310
A4A4A4A4A4A4A4A4A4A4A4A4A4A4A4A4A4A4A4A4A4A4A4A4A4A4A4A4A4A4A4A4A4A4A4A4A4A4A4A4A4A4A4A4A4A4A4A4A4A4A4A4A4A4A4A4A4A4A4A4A4A4A4A4A4A4A4A4A4A4A4A4A4A4A4A4A4A4A4A4A4A4A4A4A4A4A4A4A4A4A4A4A4A4A4A4A4A4A4A4A4A4A4A4A4A4A4A4A4A4A4A4A4A4A4A4A4A4A4A4A4A4A4A4A4A4A4
310
A4A4A4A4A4A4A4A4A4A4A4A4A4A4A4A4A4A4A4A4A4A4A4A4A4A4A4A4A4A4A4A4A4A4A4A4A4A4A4A4A4A4A4A4A4A4A4A4A4A4A4A4A4A4A4A4A4A4A4A4A4A4A4A4A4A4A4A4A4A4A4A4A4A4A4A4A4A4A4A4A4A4A4A4A4A4A4A4A4A4A4A4A4A4A4A4A4A4A4A4A4A4A4A4A4A4A4A4A4A4A4A4A4A4A4A4A4A4A4A4A4A4A4A4A4A4A4
310
A4A4A4A4A4A4A4A4A4A4A4A4A4A4A4A4A4A4A4A4A4A4A4A4A4A4A4A4A4A4A4A4A4A4A4A4A4A4A4A4A4A4A4A4A4A4A4A4A4A4A4A4A4A4A4A4A4A4A4A4A4A4A4A4A4A4A4A4A4A4A4A4A4A4A4A4A4A4A4A4A4A4A4A4A4A4A4A4A4A4A4A4A4A4A4A4A4A4A4A4A4A4A4A4A4A4A4A4A4A4A4A4A4A4A4A4A4A4A4A4A4A4A4A4A4A4A4
310
A4A4A4A4A4A4A4A4A4A4A4A4A4A4A4A4A4A4A4A4A4A4A4A4A4A4A4A4A4A4A4A4A4A4A4A4A4A4A4A4A4A4A4A4A4A4A4A4A4A4A4A4A4A4A4A4
1001
ACAD
1000
DesignCenter Data
1002
{
1070
     1
1070
     4
1002
}
  0
BLOCK_RECORD
  5
AA8
330
1
100
AcDbSymbolTableRecord
100
AcDbBlockTableRecord
  2
_CLOSED
340
0
  0
BLOCK_RECORD
  5
B79
330
1
100
AcDbSymbolTableRecord
100
AcDbBlockTableRecord
  2
nota revisoes
340
0
1001
ACAD
1000
DesignCenter Data
1002
{
1070
     1
1070
     4
1002
}
  0
BLOCK_RECORD
  5
B8E
330
1
100
AcDbSymbolTableRecord
100
AcDbBlockTableRecord
  2
a3l
340
0
1001
ACAD
1000
DesignCenter Data
1002
{
1070
     1
1070
     4
1002
}
  0
BLOCK_RECORD
  5
B9E
330
1
100
AcDbSymbolTableRecord
100
AcDbBlockTableRecord
  2
legenda desenvolvimento
340
0
1001
ACAD
1000
DesignCenter Data
1002
{
1070
     1
1070
     4
1002
}
  0
ENDTAB
  0
ENDSEC
  0
SECTION
  2
BLOCKS
  0
BLOCK
  5
20
330
1F
100
AcDbEntity
  8
0
100
AcDbBlockBegin
  2
*Model_Space
 70
     0
 10
0.0
 20
0.0
 30
0.0
  3
*Model_Space
  1

  0
ENDBLK
  5
21
330
1F
100
AcDbEntity
  8
0
100
AcDbBlockEnd
  0
BLOCK
  5
1C
330
1B
100
AcDbEntity
 67
     1
  8
0
100
AcDbBlockBegin
  2
*Paper_Space
 70
     0
 10
0.0
 20
0.0
 30
0.0
  3
*Paper_Space
  1

  0
ENDBLK
  5
1D
330
1B
100
AcDbEntity
 67
     1
  8
0
100
AcDbBlockEnd
  0
BLOCK
  5
24
330
23
100
AcDbEntity
 67
     1
  8
0
100
AcDbBlockBegin
  2
*Paper_Space0
 70
     0
 10
0.0
 20
0.0
 30
0.0
  3
*Paper_Space0
  1

  0
ENDBLK
  5
25
330
23
100
AcDbEntity
 67
     1
  8
0
100
AcDbBlockEnd
  0
BLOCK
  5
91B
330
919
100
AcDbEntity
  8
0
100
AcDbBlockBegin
  2
_DotSmall
 70
     0
 10
0.0
 20
0.0
 30
0.0
  3
_DotSmall
  1

  0
LWPOLYLINE
  5
91A
330
919
100
AcDbEntity
  8
0
  6
ByBlock
 62
     0
100
AcDbPolyline
 90
        2
 70
     1
 43
0.5
 10
-0.0625
 20
0.0
 42
1.0
 10
0.0625
 20
0.0
 42
1.0
  0
ENDBLK
  5
91C
330
919
100
AcDbEntity
  8
0
100
AcDbBlockEnd
  0
BLOCK
  5
92A
330
922
100
AcDbEntity
  8
0
100
AcDbBlockBegin
  2
base para cotas
 70
     0
 10
0.0
 20
0.0
 30
0.0
  3
base para cotas
  1

  0
LINE
  5
B36
330
922
100
AcDbEntity
  8
cotas
100
AcDbLine
 10
0.0
 20
-30.0
 30
0.0
 11
327.1260136525398
 21
-30.0
 31
0.0
  0
LINE
  5
B37
330
922
100
AcDbEntity
  8
cotas
100
AcDbLine
 10
0.0
 20
-25.0
 30
0.0
 11
327.1260136525398
 21
-25.0
 31
0.0
  0
LINE
  5
B38
330
922
100
AcDbEntity
  8
cotas
100
AcDbLine
 10
0.0
 20
-20.0
 30
0.0
 11
327.1260136525398
 21
-20.0
 31
0.0
  0
LINE
  5
B39
330
922
100
AcDbEntity
  8
cotas
100
AcDbLine
 10
0.0
 20
-15.0
 30
0.0
 11
327.1260136525398
 21
-15.0
 31
0.0
  0
LINE
  5
B3A
330
922
100
AcDbEntity
  8
cotas
100
AcDbLine
 10
0.0
 20
-10.0
 30
0.0
 11
327.1260136525398
 21
-10.0
 31
0.0
  0
LINE
  5
B3B
330
922
100
AcDbEntity
  8
cotas
100
AcDbLine
 10
0.0
 20
0.0
 30
0.0
 11
0.0
 21
-30.0
 31
0.0
  0
LINE
  5
B3C
330
922
100
AcDbEntity
  8
cotas
100
AcDbLine
 10
327.1260136525398
 20
-30.0
 30
0.0
 11
327.1260136525398
 21
0.0
 31
0.0
  0
ENDBLK
  5
92B
330
922
100
AcDbEntity
  8
0
100
AcDbBlockEnd
  0
BLOCK
  5
AAD
330
AA8
100
AcDbEntity
  8
0
100
AcDbBlockBegin
  2
_CLOSED
 70
     0
 10
0.0
 20
0.0
 30
0.0
  3
_CLOSED
  1

  0
LINE
  5
AA9
330
AA8
100
AcDbEntity
  8
0
100
AcDbLine
 10
-1.0
 20
0.166667
 30
0.0
 11
0.0
 21
0.0
 31
0.0
  0
LINE
  5
AAA
330
AA8
100
AcDbEntity
  8
0
100
AcDbLine
 10
0.0
 20
0.0
 30
0.0
 11
-1.0
 21
-0.166667
 31
0.0
  0
LINE
  5
AAB
330
AA8
100
AcDbEntity
  8
0
100
AcDbLine
 10
-1.0
 20
0.166667
 30
0.0
 11
-1.0
 21
-0.166667
 31
0.0
  0
LINE
  5
AAC
330
AA8
100
AcDbEntity
  8
0
100
AcDbLine
 10
0.0
 20
0.0
 30
0.0
 11
-1.0
 21
0.0
 31
0.0
  0
ENDBLK
  5
AAE
330
AA8
100
AcDbEntity
  8
0
100
AcDbBlockEnd
  0
BLOCK
  5
B7C
330
B79
100
AcDbEntity
  8
0
100
AcDbBlockBegin
  2
nota revisoes
 70
     0
 10
0.0
 20
0.0
 30
0.0
  3
nota revisoes
  1

  0
CIRCLE
  5
B7A
330
B79
100
AcDbEntity
  8
4
100
AcDbCircle
 10
0.0
 20
0.0
 30
0.0
 40
13.69426055101189
  0
TEXT
  5
B7B
330
B79
100
AcDbEntity
  8
4
100
AcDbText
 10
-5.496248358154345
 20
-5.354545554066362
 30
0.0
 40
12.0
  1
1
  7
SANINDUSA
 72
     1
 11
-0.249774214433728
 21
-5.354545554066362
 31
0.0
100
AcDbText
  0
ENDBLK
  5
B7D
330
B79
100
AcDbEntity
  8
0
100
AcDbBlockEnd
  0
BLOCK
  5
B9C
330
B8E
100
AcDbEntity
  8
0
100
AcDbBlockBegin
  2
a3l
 70
     0
 10
0.0
 20
0.0
 30
0.0
  3
a3l
  1

  0
LINE
  5
B8F
330
B8E
100
AcDbEntity
  8
1
100
AcDbLine
 10
-364.2925296599447
 20
-362.1188951399395
 30
0.0
 11
-364.2925296599447
 21
-65.11889513993946
 31
0.0
  0
LINE
  5
B90
330
B8E
100
AcDbEntity
  8
4
100
AcDbLine
 10
-369.2925296599447
 20
-357.1188951399395
 30
0.0
 11
-369.2925296599447
 21
-70.11889513993946
 31
0.0
  0
LINE
  5
B91
330
B8E
100
AcDbEntity
  8
1
100
AcDbLine
 10
-784.2925296599446
 20
-65.11889513993946
 30
0.0
 11
-784.2925296599446
 21
-362.1188951399395
 31
0.0
  0
LINE
  5
B92
330
B8E
100
AcDbEntity
  8
4
100
AcDbLine
 10
-759.2925296599446
 20
-357.1188951399395
 30
0.0
 11
-759.2925296599446
 21
-70.11889513993946
 31
0.0
  0
LINE
  5
B93
330
B8E
100
AcDbEntity
  8
1
100
AcDbLine
 10
-784.2925296599446
 20
-362.1188951399395
 30
0.0
 11
-364.2925296599447
 21
-362.1188951399395
 31
0.0
  0
LINE
  5
B94
330
B8E
100
AcDbEntity
  8
4
100
AcDbLine
 10
-759.2925296599446
 20
-357.1188951399395
 30
0.0
 11
-369.2925296599447
 21
-357.1188951399395
 31
0.0
  0
LINE
  5
B95
330
B8E
100
AcDbEntity
  8
1
100
AcDbLine
 10
-654.2925296599446
 20
-357.1188951399395
 30
0.0
 11
-654.2925296599446
 21
-362.1188951399395
 31
0.0
  0
LINE
  5
B96
330
B8E
100
AcDbEntity
  8
1
100
AcDbLine
 10
-364.2925296599447
 20
-65.11889513993946
 30
0.0
 11
-784.2925296599446
 21
-65.11889513993946
 31
0.0
  0
LINE
  5
B97
330
B8E
100
AcDbEntity
  8
4
100
AcDbLine
 10
-369.2925296599447
 20
-70.11889513993946
 30
0.0
 11
-759.2925296599446
 21
-70.11889513993946
 31
0.0
  0
LINE
  5
B98
330
B8E
100
AcDbEntity
  8
1
100
AcDbLine
 10
-654.2925296599446
 20
-65.11889513993946
 30
0.0
 11
-654.2925296599446
 21
-70.11889513993946
 31
0.0
  0
LINE
  5
B99
330
B8E
100
AcDbEntity
  8
1
100
AcDbLine
 10
-549.2925296599446
 20
-70.11889513993946
 30
0.0
 11
-549.2925296599446
 21
-65.11889513993946
 31
0.0
  0
LINE
  5
B9A
330
B8E
100
AcDbEntity
  8
1
100
AcDbLine
 10
-369.2925296599447
 20
-65.11889513993946
 30
0.0
 11
-364.2925296599447
 21
-65.11889513993946
 31
0.0
  0
LINE
  5
B9B
330
B8E
100
AcDbEntity
  8
1
100
AcDbLine
 10
-549.2925296599446
 20
-357.1188951399395
 30
0.0
 11
-549.2925296599446
 21
-362.1188951399395
 31
0.0
  0
ENDBLK
  5
B9D
330
B8E
100
AcDbEntity
  8
0
100
AcDbBlockEnd
  0
BLOCK
  5
C13
330
B9E
100
AcDbEntity
  8
0
100
AcDbBlockBegin
  2
legenda desenvolvimento
 70
     2
 10
0.0
 20
0.0
 30
0.0
  3
legenda desenvolvimento
  1

  0
ATTDEF
  5
B9F
330
B9E
100
AcDbEntity
  8
1
100
AcDbText
 10
-108.606245802552
 20
55.5
 30
0.0
 40
4.0
  1
XXXXXXXXXXXXXX
 41
0.8
  7
SANINDUSA
 72
     4
 11
-87.5
 21
57.5
 31
0.0
100
AcDbAttributeDefinition
  3
Nome do Produto:
  2
PRODUTO
 70
     0
  0
ATTDEF
  5
BA0
330
B9E
100
AcDbEntity
  8
1
100
AcDbText
 10
-97.9997966101695
 20
41.25
 30
0.0
 40
3.0
  1
XXXXXXXXX
 41
0.8
  7
futura
 72
     4
 11
-87.5
 21
42.75
 31
0.0
100
AcDbAttributeDefinition
  3
Nome da Peça:
  2
PECA
 70
     0
  0
ATTDEF
  5
BA1
330
B9E
100
AcDbEntity
  8
1
100
AcDbText
 10
-133.4422431161853
 20
21.11745296763252
 30
0.0
 40
2.5
  1
X
 41
0.8
  7
SANINDUSA
 72
     4
 11
-132.5
 21
22.36745296763252
 31
0.0
100
AcDbAttributeDefinition
  3
Cod. TESTE:
  2
TESTE
 70
     0
  0
ATTDEF
  5
BA2
330
B9E
100
AcDbEntity
  8
1
100
AcDbText
 10
-124.3844862323707
 20
21.11745296763252
 30
0.0
 40
2.5
  1
XX
 41
0.8
  7
SANINDUSA
 72
     4
 11
-122.5
 21
22.36745296763252
 31
0.0
100
AcDbAttributeDefinition
  3
Cod. Ano:
  2
ANO
 70
     0
  0
ATTDEF
  5
BA3
330
B9E
100
AcDbEntity
  8
1
100
AcDbText
 10
-112.526889953052
 20
21.11745296763252
 30
0.0
 40
2.5
  1
XXX
 41
0.8
  7
SANINDUSA
 72
     4
 11
-109.700160604496
 21
22.36745296763252
 31
0.0
100
AcDbAttributeDefinition
  3
Cod. Sequência:
  2
SEQUENCIA
 70
     0
  0
ATTDEF
  5
BA4
330
B9E
100
AcDbEntity
  8
1
100
AcDbText
 10
-99.35382430979316
 20
21.11745296763252
 30
0.0
 40
2.5
  1
XX
 41
0.8
  7
SANINDUSA
 72
     4
 11
-97.46933807742244
 21
22.36745296763252
 31
0.0
100
AcDbAttributeDefinition
  3
Cod. Tipo:
  2
TIPO
 70
     0
  0
ATTDEF
  5
BA5
330
B9E
100
AcDbEntity
  8
1
100
AcDbText
 10
-87.42035911468438
 20
21.11745296763252
 30
0.0
 40
2.5
  1
XXX
 41
0.8
  7
SANINDUSA
 72
     4
 11
-84.59362976612828
 21
22.36745296763252
 31
0.0
100
AcDbAttributeDefinition
  3
Cod. Produto:
  2
PRODUTO
 70
     0
  0
ATTDEF
  5
BA6
330
B9E
100
AcDbEntity
  8
1
100
AcDbText
 10
-74.62051971917853
 20
21.11745296763252
 30
0.0
 40
2.5
  1
XXX
 41
0.8
  7
SANINDUSA
 72
     4
 11
-71.79379037062244
 21
22.36745296763252
 31
0.0
100
AcDbAttributeDefinition
  3
Cod. Peça:
  2
PECA
 70
     0
  0
ATTDEF
  5
BA7
330
B9E
100
AcDbEntity
  8
1
100
AcDbText
 10
-61.10603446650329
 20
21.11745296763252
 30
0.0
 40
2.5
  1
XX
 41
0.8
  7
SANINDUSA
 72
     4
 11
-59.22154823413257
 21
22.36745296763252
 31
0.0
100
AcDbAttributeDefinition
  3
Cod. Revisão:
  2
REV
 70
     0
  0
ATTDEF
  5
BA8
330
B9E
100
AcDbEntity
  8
1
100
AcDbText
 10
-48.43615325006194
 20
21.11745296763252
 30
0.0
 40
2.5
  1
XX
 41
0.8
  7
SANINDUSA
 72
     4
 11
-46.55166701769121
 21
22.36745296763252
 31
0.0
100
AcDbAttributeDefinition
  3
Cod. Alteração:
  2
ALT
 70
     0
  0
ATTDEF
  5
BA9
330
B9E
100
AcDbEntity
  8
1
100
AcDbText
 10
-35.19086635325722
 20
23.98875083948959
 30
0.0
 40
3.0
  1
1/XXX
 41
0.8
  7
SANINDUSA
 72
     4
 11
-30.0
 21
25.25
 31
0.0
100
AcDbAttributeDefinition
  3
Escala geral:
  2
ESCALA
 70
     0
  0
ATTDEF
  5
BAA
330
B9E
100
AcDbEntity
  8
1
100
AcDbText
 10
-15.65345869711215
 20
23.75
 30
0.0
 40
3.0
  1
XXXXX
 41
0.8
  7
SANINDUSA
 72
     4
 11
-10.0
 21
25.25
 31
0.0
100
AcDbAttributeDefinition
  3
Folha:
  2
FOLHA
 70
     0
  0
ATTDEF
  5
BAB
330
B9E
100
AcDbEntity
  8
1
100
AcDbText
 10
-178.5146998822042
 20
56.9531347542807
 30
0.0
 40
2.0
  1
xx
 41
0.8
  7
SANINDUSA
 72
     4
 11
-177.2123493113513
 21
57.70330265219877
 31
0.0
100
AcDbAttributeDefinition
  3
revisão
  2
REV.
 70
     0
  0
ATTDEF
  5
BAC
330
B9E
100
AcDbEntity
  8
1
100
AcDbText
 10
-172.7849640077129
 20
56.9531347542807
 30
0.0
 40
2.0
  1
xx
 41
0.8
  7
SANINDUSA
 72
     4
 11
-171.48261343686
 21
57.70330265219877
 31
0.0
100
AcDbAttributeDefinition
  3
alteração
  2
ALT.
 70
     0
  0
ATTDEF
  5
BAD
330
B9E
100
AcDbEntity
  8
1
100
AcDbText
 10
-168.007199951307
 20
56.70330265219877
 30
0.0
 40
2.0
  1
xx/xx/xxxx
 41
0.8
  7
SANINDUSA
 11
-168.007199951307
 21
57.70330265219877
 31
0.0
100
AcDbAttributeDefinition
  3
data
  2
DATA
 70
     0
 74
     2
  0
ATTDEF
  5
BAE
330
B9E
100
AcDbEntity
  8
1
100
AcDbText
 10
-168.5396372253371
 20
13.15916722632639
 30
0.0
 40
2.0
  1
XX/XX/XXXX
 41
0.8
  7
SANINDUSA
 72
     4
 11
-161.5099528734231
 21
14.0
 31
0.0
100
AcDbAttributeDefinition
  3
Data projecto
  2
DATA_PROJ
 70
     0
  0
ATTDEF
  5
BAF
330
B9E
100
AcDbEntity
  8
1
100
AcDbText
 10
-150.8658110728766
 20
13.24983210208193
 30
0.0
 40
2.0
  1
xxxxxxxx
 41
0.8
  7
SANINDUSA
 72
     4
 11
-145.6564087894649
 21
14.0
 31
0.0
100
AcDbAttributeDefinition
  3
nome de quem projectou
  2
NOME
 70
     0
  0
ATTDEF
  5
BB0
330
B9E
100
AcDbEntity
  8
1
100
AcDbText
 10
-168.5396372253371
 20
9.159167226326394
 30
0.0
 40
2.0
  1
XX/XX/XXXX
 41
0.8
  7
SANINDUSA
 72
     4
 11
-161.5099528734231
 21
10.0
 31
0.0
100
AcDbAttributeDefinition
  3
Data desenhou
  2
DATA_DES
 70
     0
  0
ATTDEF
  5
BB1
330
B9E
100
AcDbEntity
  8
1
100
AcDbText
 10
-151.516986358303
 20
9.249832102081933
 30
0.0
 40
2.0
  1
xxxxxxxxx
 41
0.8
  7
SANINDUSA
 72
     4
 11
-145.6564087894649
 21
10.0
 31
0.0
100
AcDbAttributeDefinition
  3
nome
  2
NOME
 70
     0
  0
ATTDEF
  5
BB2
330
B9E
100
AcDbEntity
  8
1
100
AcDbText
 10
-127.2924214135946
 20
14.1979876583216
 30
0.0
 40
2.0
  1
Vitreous China
 41
0.8
  7
SANINDUSA
 72
     4
 11
-119.231709526422
 21
15.22216495852308
 31
0.0
100
AcDbAttributeDefinition
  3
Nome do Material:
  2
MATERIAL
 70
     0
  0
ATTDEF
  5
BB3
330
B9E
100
AcDbEntity
  8
1
100
AcDbText
 10
-103.1563452122093
 20
14.38019043949261
 30
0.0
 40
2.0
  1
Branco
 41
0.8
  7
SANINDUSA
 72
     4
 11
-99.33418268702462
 21
15.35937109765245
 31
0.0
100
AcDbAttributeDefinition
  3
cor da peça
  2
COR
 70
     0
  0
ATTDEF
  5
BB4
330
B9E
100
AcDbEntity
  8
1
100
AcDbText
 10
-116.7235057085292
 20
5.975822699798522
 30
0.0
 40
2.0
  1
Vidrado
 41
0.8
  7
SANINDUSA
 72
     4
 11
-112.5
 21
7.0
 31
0.0
100
AcDbAttributeDefinition
  3
Tipo de acabamento:
  2
ACABAMENTO
 70
     0
  0
ATTDEF
  5
BB5
330
B9E
100
AcDbEntity
  8
1
100
AcDbText
 10
-79.18527869967246
 20
16.65066409850533
 30
0.0
 40
2.0
  1
XXXXXXX
 41
0.8
  7
SANINDUSA
 72
     4
 11
-73.90871724903445
 21
17.65066409850533
 31
0.0
100
AcDbAttributeDefinition
  3
Normas
  2
NORMAS
 70
     0
  0
ATTDEF
  5
BB6
330
B9E
100
AcDbEntity
  8
1
100
AcDbText
 10
-30.55312290127603
 20
14.0
 30
0.0
 40
2.0
  1
XXXXXXXXXXXXXX
 41
0.8
  7
SANINDUSA
 72
     4
 11
-20.0
 21
15.0
 31
0.0
100
AcDbAttributeDefinition
  3
Substitui o desenho:
  2
SUBSTITUI
 70
     0
  0
ATTDEF
  5
BB7
330
B9E
100
AcDbEntity
  8
1
100
AcDbText
 10
-31.30691739422431
 20
6.0
 30
0.0
 40
2.0
  1
XXXXXXXXXXXXXXX
 41
0.8
  7
SANINDUSA
 72
     4
 11
-20.0
 21
7.0
 31
0.0
100
AcDbAttributeDefinition
  3
Substituido por:
  2
SUBSTITUIDO
 70
     0
  0
ATTDEF
  5
BB8
330
B9E
100
AcDbEntity
  8
1
100
AcDbText
 10
-110.0220608548302
 20
1.478208457928303
 30
0.0
 40
2.0
  1
XXXXXXXXXXXXXXXXXXXXXXXXXXXXXXXXXX
 41
0.8
  7
SANINDUSA
 11
-110.0220608548302
 21
2.478208457928303
 31
0.0
100
AcDbAttributeDefinition
  3
Localização do desenho:
  2
LOC-DWG
 70
     0
 74
     2
  0
LINE
  5
BB9
330
B9E
100
AcDbEntity
  8
3
100
AcDbLine
 10
-135.0
 20
4.0
 30
0.0
 11
0.0000000000004547
 21
4.0
 31
0.0
  0
LINE
  5
BBA
330
B9E
100
AcDbEntity
  8
3
100
AcDbLine
 10
-90.00000000000046
 20
12.0
 30
0.0
 11
-135.0
 21
12.0
 31
0.0
  0
LINE
  5
BBB
330
B9E
100
AcDbEntity
  8
3
100
AcDbLine
 10
-135.0
 20
32.5
 30
0.0
 11
-40.0
 21
32.5
 31
0.0
  0
TEXT
  5
BBC
330
B9E
100
AcDbEntity
  8
1
100
AcDbText
 10
-134.0
 20
1.25
 30
0.0
 40
2.0
  1
Localização do des.:
 41
0.8
  7
SANINDUSA
 11
-134.0
 21
2.25
 31
0.0
100
AcDbText
 73
     2
  0
LINE
  5
BBD
330
B9E
100
AcDbEntity
  8
3
100
AcDbLine
 10
-180.0
 20
65.0
 30
0.0
 11
0.0
 21
65.0
 31
0.0
  0
LINE
  5
BBE
330
B9E
100
AcDbEntity
  8
leg fin
100
AcDbLine
 10
-40.0
 20
25.05956924886846
 30
0.0
 11
-135.0
 21
25.05956924886846
 31
0.0
  0
LINE
  5
BBF
330
B9E
100
AcDbEntity
  8
leg fin
100
AcDbLine
 10
-40.0
 20
28.5
 30
0.0
 11
-135.0
 21
28.5
 31
0.0
  0
LINE
  5
BC0
330
B9E
100
AcDbEntity
  8
3
100
AcDbLine
 10
-135.0
 20
50.0
 30
0.0
 11
-40.0
 21
50.0
 31
0.0
  0
TEXT
  5
BC1
330
B9E
100
AcDbEntity
  8
1
100
AcDbText
 10
-134.0
 20
29.75
 30
0.0
 40
2.0
  1
Desenho nº:
 41
0.8
  7
SANINDUSA
 11
-134.0
 21
30.75
 31
0.0
100
AcDbText
 73
     2
  0
TEXT
  5
BC2
330
B9E
100
AcDbEntity
  8
1
100
AcDbText
 10
-134.0
 20
9.25
 30
0.0
 40
2.0
  1
Acabamento:
 41
0.8
  7
SANINDUSA
 11
-134.0
 21
10.25
 31
0.0
100
AcDbText
 73
     2
  0
LINE
  5
BC3
330
B9E
100
AcDbEntity
  8
3
100
AcDbLine
 10
-180.0
 20
20.0
 30
0.0
 11
0.0
 21
20.0
 31
0.0
  0
LINE
  5
BC4
330
B9E
100
AcDbEntity
  8
1
100
AcDbLine
 10
-174.5810776056337
 20
55.5
 30
0.0
 11
-174.5810776056337
 21
65.0
 31
0.0
  0
LINE
  5
BC5
330
B9E
100
AcDbEntity
  8
1
100
AcDbLine
 10
-168.9210461879161
 20
55.5
 30
0.0
 11
-168.9210461879161
 21
65.0
 31
0.0
  0
LINE
  5
BC6
330
B9E
100
AcDbEntity
  8
1
100
AcDbLine
 10
-154.0988595589306
 20
55.5
 30
0.0
 11
-154.0988595589306
 21
65.0
 31
0.0
  0
LINE
  5
BC7
330
B9E
100
AcDbEntity
  8
3
100
AcDbLine
 10
-180.0
 20
65.0
 30
0.0
 11
-180.0
 21
0.0
 31
0.0
  0
LINE
  5
BC8
330
B9E
100
AcDbEntity
  8
3
100
AcDbLine
 10
-135.0
 20
0.0
 30
0.0
 11
-135.0
 21
65.0
 31
0.0
  0
TEXT
  5
BC9
330
B9E
100
AcDbEntity
  8
1
100
AcDbText
 10
-179.0
 20
9.75
 30
0.0
 40
1.5
  1
Des.
 41
0.8
  7
SANINDUSA
 11
-179.0
 21
10.5
 31
0.0
100
AcDbText
 73
     2
  0
LINE
  5
BCA
330
B9E
100
AcDbEntity
  8
1
100
AcDbLine
 10
-168.9210461879161
 20
20.0
 30
0.0
 11
-168.9210461879161
 21
0.0
 31
0.0
  0
LINE
  5
BCB
330
B9E
100
AcDbEntity
  8
1
100
AcDbLine
 10
-154.0988595589306
 20
20.0
 30
0.0
 11
-154.0988595589306
 21
0.0
 31
0.0
  0
LINE
  5
BCC
330
B9E
100
AcDbEntity
  8
1
100
AcDbLine
 10
-180.0
 20
4.0
 30
0.0
 11
-135.0
 21
4.0
 31
0.0
  0
LINE
  5
BCD
330
B9E
100
AcDbEntity
  8
1
100
AcDbLine
 10
-180.0
 20
8.0
 30
0.0
 11
-135.0
 21
8.0
 31
0.0
  0
TEXT
  5
BCE
330
B9E
100
AcDbEntity
  8
1
100
AcDbText
 10
-179.0
 20
1.73257823687436
 30
0.0
 40
1.5
  1
Aprov.
 41
0.8
  7
SANINDUSA
 11
-179.0
 21
2.48257823687436
 31
0.0
100
AcDbText
 73
     2
  0
TEXT
  5
BCF
330
B9E
100
AcDbEntity
  8
1
100
AcDbText
 10
-179.0
 20
5.75
 30
0.0
 40
1.5
  1
Ver.
 41
0.8
  7
SANINDUSA
 11
-179.0
 21
6.5
 31
0.0
100
AcDbText
 73
     2
  0
LINE
  5
BD0
330
B9E
100
AcDbEntity
  8
1
100
AcDbLine
 10
-180.0
 20
16.0
 30
0.0
 11
-135.0
 21
16.0
 31
0.0
  0
LINE
  5
BD1
330
B9E
100
AcDbEntity
  8
1
100
AcDbLine
 10
-180.0
 20
12.0
 30
0.0
 11
-135.0
 21
12.0
 31
0.0
  0
TEXT
  5
BD2
330
B9E
100
AcDbEntity
  8
1
100
AcDbText
 10
-179.0
 20
13.75
 30
0.0
 40
1.5
  1
Proj.
 41
0.8
  7
SANINDUSA
 11
-179.0
 21
14.5
 31
0.0
100
AcDbText
 73
     2
  0
TEXT
  5
BD3
330
B9E
100
AcDbEntity
  8
1
100
AcDbText
 10
-167.9210461879161
 20
17.75
 30
0.0
 40
1.5
  1
Data
 41
0.8
  7
SANINDUSA
 11
-167.9210461879161
 21
18.5
 31
0.0
100
AcDbText
 73
     2
  0
TEXT
  5
BD4
330
B9E
100
AcDbEntity
  8
1
100
AcDbText
 10
-153.0988595589306
 20
17.75
 30
0.0
 40
1.5
  1
Nome
 41
0.8
  7
SANINDUSA
 11
-153.0988595589306
 21
18.5
 31
0.0
100
AcDbText
 73
     2
  0
LINE
  5
BD5
330
B9E
100
AcDbEntity
  8
leg fin
100
AcDbLine
 10
-130.0
 20
20.0
 30
0.0
 11
-130.0
 21
28.5
 31
0.0
  0
TEXT
  5
BD6
330
B9E
100
AcDbEntity
  8
1
100
AcDbText
 10
-134.0
 20
17.25
 30
0.0
 40
2.0
  1
Material:
 41
0.8
  7
SANINDUSA
 11
-134.0
 21
18.25
 31
0.0
100
AcDbText
 73
     2
  0
TEXT
  5
BD7
330
B9E
100
AcDbEntity
  8
1
100
AcDbText
 10
-129.0
 20
26.43288406845113
 30
0.0
 40
1.5
  1
Ano:
 41
0.8
  7
SANINDUSA
 11
-129.0
 21
27.18288406845113
 31
0.0
100
AcDbText
 73
     2
  0
LINE
  5
BD8
330
B9E
100
AcDbEntity
  8
1
100
AcDbLine
 10
-180.0
 20
55.5
 30
0.0
 11
-135.0
 21
55.5
 31
0.0
  0
TEXT
  5
BD9
330
B9E
100
AcDbEntity
  8
1
100
AcDbText
 10
-179.0
 20
52.67772246885193
 30
0.0
 40
1.5
  1
descrição
 41
0.8
  7
SANINDUSA
 11
-179.0
 21
53.42772246885193
 31
0.0
100
AcDbText
 73
     2
  0
TEXT
  5
BDA
330
B9E
100
AcDbEntity
  8
1
100
AcDbText
 10
-134.0
 20
47.25
 30
0.0
 40
2.0
  1
Peça:
 41
0.8
  7
SANINDUSA
 11
-134.0
 21
48.25
 31
0.0
100
AcDbText
 73
     2
  0
LINE
  5
BDB
330
B9E
100
AcDbEntity
  8
1
100
AcDbLine
 10
-180.0
 20
59.5
 30
0.0
 11
-135.0
 21
59.5
 31
0.0
  0
TEXT
  5
BDC
330
B9E
100
AcDbEntity
  8
1
100
AcDbText
 10
-173.5810776056337
 20
62.75
 30
0.0
 40
1.5
  1
Alt.
 41
0.8
  7
SANINDUSA
 11
-173.5810776056337
 21
63.5
 31
0.0
100
AcDbText
 73
     2
  0
TEXT
  5
BDD
330
B9E
100
AcDbEntity
  8
1
100
AcDbText
 10
-179.0
 20
62.75
 30
0.0
 40
1.5
  1
Rev.
 41
0.8
  7
SANINDUSA
 11
-179.0
 21
63.5
 31
0.0
100
AcDbText
 73
     2
  0
TEXT
  5
BDE
330
B9E
100
AcDbEntity
  8
1
100
AcDbText
 10
-167.9210461879161
 20
62.75
 30
0.0
 40
1.5
  1
Data
 41
0.8
  7
SANINDUSA
 11
-167.9210461879161
 21
63.5
 31
0.0
100
AcDbText
 73
     2
  0
TEXT
  5
BDF
330
B9E
100
AcDbEntity
  8
1
100
AcDbText
 10
-153.0988595589306
 20
62.75
 30
0.0
 40
1.5
  1
Nome
 41
0.8
  7
SANINDUSA
 11
-153.0988595589306
 21
63.5
 31
0.0
100
AcDbText
 73
     2
  0
TEXT
  5
BE0
330
B9E
100
AcDbEntity
  8
1
100
AcDbText
 10
-134.0
 20
62.25
 30
0.0
 40
2.0
  1
Produto:
 41
0.8
  7
SANINDUSA
 11
-134.0
 21
63.25
 31
0.0
100
AcDbText
 73
     2
  0
LINE
  5
BE1
330
B9E
100
AcDbEntity
  8
3
100
AcDbLine
 10
-40.0
 20
4.0
 30
0.0
 11
-40.0
 21
65.0
 31
0.0
  0
LWPOLYLINE
  5
BE2
102
{ACAD_REACTORS
330
BEC
102
}
330
B9E
100
AcDbEntity
  8
9
100
AcDbPolyline
 90
       12
 70
     1
 43
0.0
 10
-3.038714600644652
 20
58.90010174665076
 10
-5.726962862472191
 20
58.90010174665076
 10
-5.726962862472191
 20
58.5001017466509
 10
-3.038748516195028
 20
58.5001017466509
 42
-0.4142135623731731
 10
-2.638748516194482
 20
58.1001017466508
 10
-2.638748516194482
 20
57.42799728675596
 10
-5.21497371544865
 20
57.42799728675596
 42
0.4142135623731289
 10
-6.014973715448377
 20
56.627997286756
 10
-6.014973715448377
 20
55.92380871629643
 42
0.4142135623731132
 10
-5.21497371544865
 20
55.12380871629648
 10
-2.23871460064447
 20
55.12380871629648
 10
-2.23871460064447
 20
58.10010174665103
 42
0.4142135623730717
  0
LWPOLYLINE
  5
BE3
102
{ACAD_REACTORS
330
BEC
102
}
330
B9E
100
AcDbEntity
  8
9
100
AcDbPolyline
 90
       20
 70
     1
 43
0.0
 10
-10.01531287095122
 20
57.82799728675581
 10
-10.01531287095122
 20
58.10010174665103
 42
-0.4142135623730744
 10
-9.615312870951584
 20
58.5001017466509
 10
-6.92703069357276
 20
58.5001017466509
 10
-6.92703069357276
 20
58.90010174665076
 10
-9.615346786501959
 20
58.90010174665076
 42
0.4142135623730883
 10
-10.41534678650168
 20
58.1001017466508
 10
-10.41534678650168
 20
57.82796337120567
 42
0.4142135623730717
 10
-9.615346786501959
 20
57.02796337120571
 10
-7.423079531965413
 20
57.02796337120571
 42
-0.4142135623730847
 10
-7.023079531965322
 20
56.62796337120562
 10
-7.023079531965322
 20
55.90786840766487
 42
-0.4142135623730744
 10
-7.423079531965413
 20
55.507868407665
 10
-10.41534678650168
 20
55.507868407665
 10
-10.41534678650168
 20
55.12380871629648
 10
-7.445787917283723
 20
55.12380871629648
 42
0.4114777732064574
 10
-6.645822882998345
 20
55.9163291493976
 10
-6.639238813324936
 20
56.62051771985716
 42
0.4169546541682913
 10
-7.439203847610315
 20
57.42799728675596
 10
-9.615312870951584
 20
57.42799728675596
 42
-0.4142135623731576
  0
LWPOLYLINE
  5
BE4
102
{ACAD_REACTORS
330
BEC
102
}
330
B9E
100
AcDbEntity
  8
9
100
AcDbPolyline
 90
       12
 70
     1
 43
0.0
 10
-14.41561811090378
 20
58.90010174665076
 10
-14.79964388672215
 20
58.90010174665076
 10
-14.79964388672215
 20
55.92380871629643
 42
0.4142135623731133
 10
-13.99964388672242
 20
55.12380871629648
 10
-11.8233508563676
 20
55.12380871629648
 42
0.4142135623730872
 10
-11.02335085636741
 20
55.92380871629643
 10
-11.02335085636741
 20
58.90010174665076
 10
-11.42338477191788
 20
58.90010174665076
 10
-11.42338477191788
 20
55.91567577726095
 42
-0.4131711701795318
 10
-11.82196067063523
 20
55.51567831234956
 10
-14.0141940096214
 20
55.50787335710947
 42
-0.4152567234624407
 10
-14.41561811090378
 20
55.90787082202087
  0
LWPOLYLINE
  5
BE5
102
{ACAD_REACTORS
330
BEC
102
}
330
B9E
100
AcDbEntity
  8
9
100
AcDbPolyline
 90
        6
 70
     1
 43
0.0
 10
-15.80771578768872
 20
55.507868407665
 10
-18.39994912667453
 20
55.507868407665
 42
-0.4142135623731731
 10
-18.79994912667462
 20
55.90786840766487
 10
-18.79994912667462
 20
58.10010174665103
 42
-0.4142135623730744
 10
-18.39994912667453
 20
58.5001017466509
 10
-15.80771578768872
 20
58.5001017466509
  0
LWPOLYLINE
  5
BE6
102
{ACAD_REACTORS
330
BEC
102
}
330
B9E
100
AcDbEntity
  8
9
100
AcDbPolyline
 90
        8
 70
     1
 43
0.0
 10
-15.4236900118708
 20
59.87619128370352
 10
-15.80771578768872
 20
59.87619128370352
 10
-15.80771578768872
 20
58.90010174665076
 10
-18.39176256411201
 20
58.90010174665076
 42
0.4131164467977967
 10
-19.19175694739761
 20
58.1030995310698
 10
-19.1999120763262
 20
55.92680650071542
 42
0.4153115297271718
 10
-18.39991769304061
 20
55.12380871629648
 10
-15.4236900118708
 20
55.12380871629648
  0
LWPOLYLINE
  5
BE7
102
{ACAD_REACTORS
330
BEC
102
}
330
B9E
100
AcDbEntity
  8
9
100
AcDbPolyline
 90
       10
 70
     1
 43
0.0
 10
-20.59201288790928
 20
58.90010174665076
 10
-23.56830591826338
 20
58.90010174665076
 10
-23.56830591826338
 20
55.12380871629648
 10
-23.18424622689509
 20
55.12380871629648
 10
-23.18424622689509
 20
58.5001017466509
 10
-20.59204680345965
 20
58.5001017466509
 42
-0.4142135623730898
 10
-20.19204680345956
 20
58.1001017466508
 10
-20.19204680345956
 20
55.12380871629648
 10
-19.79201288790909
 20
55.12380871629648
 10
-19.79201288790909
 20
58.10010174665103
 42
0.4142135623731132
  0
LWPOLYLINE
  5
BE8
102
{ACAD_REACTORS
330
BEC
102
}
330
B9E
100
AcDbEntity
  8
9
100
AcDbPolyline
 90
        4
 70
     1
 43
0.0
 10
-24.19231812786165
 20
58.90010174665076
 10
-24.57637781922995
 20
58.90010174665076
 10
-24.57637781922995
 20
55.12380871629648
 10
-24.19231812786165
 20
55.12380871629648
  0
LWPOLYLINE
  5
BE9
102
{ACAD_REACTORS
330
BEC
102
}
330
B9E
100
AcDbEntity
  8
9
100
AcDbPolyline
 90
       10
 70
     1
 43
0.0
 10
-28.57661522808212
 20
58.5001017466509
 10
-25.98444972019706
 20
58.5001017466509
 42
-0.4142135623731731
 10
-25.58444972019652
 20
58.1001017466508
 10
-25.58444972019652
 20
55.12380871629648
 10
-25.2004239443786
 20
55.12380871629648
 10
-25.2004239443786
 20
58.10010174665103
 42
0.4142135623730717
 10
-26.00042394437833
 20
58.90010174665076
 10
-28.97664914363259
 20
58.90010174665076
 10
-28.97664914363259
 20
55.12380871629648
 10
-28.57661522808212
 20
55.12380871629648
  0
LWPOLYLINE
  5
BEA
102
{ACAD_REACTORS
330
BEC
102
}
330
B9E
100
AcDbEntity
  8
9
100
AcDbPolyline
 90
       12
 70
     1
 43
0.0
 10
-29.58465321349832
 20
58.10010174665103
 42
0.4142135623730716
 10
-30.3846532134985
 20
58.90010174665076
 10
-33.07296930642724
 20
58.90010174665076
 10
-33.07296930642724
 20
58.5001017466509
 10
-30.38468712904842
 20
58.5001017466509
 42
-0.4142135623730067
 10
-29.98468712904878
 20
58.1001017466508
 10
-29.98468712904878
 20
57.42799728675618
 10
-32.56098015940324
 20
57.42799728675596
 42
0.4142135623731289
 10
-33.36098015940343
 20
56.627997286756
 10
-33.36098015940343
 20
55.92380871629643
 42
0.4142135623731132
 10
-32.56098015940324
 20
55.12380871629648
 10
-29.58465321349832
 20
55.12380871629648
  0
LWPOLYLINE
  5
BEB
102
{ACAD_REACTORS
330
BEC
102
}
330
B9E
100
AcDbEntity
  8
9
100
AcDbPolyline
 90
       20
 70
     1
 43
0.0
 10
-34.7850262845518
 20
57.42799728675596
 10
-36.96125148380543
 20
57.42799728675596
 42
-0.4142135623730898
 10
-37.36125148380552
 20
57.82799728675604
 10
-37.36125148380552
 20
58.10010174665103
 42
-0.4142135623730744
 10
-36.96125148380543
 20
58.5001017466509
 10
-34.27303713752781
 20
58.50010174665067
 10
-34.27303713752781
 20
58.90010174665076
 10
-36.96128539935535
 20
58.90010174665076
 42
0.4142135623731289
 10
-37.76128539935553
 20
58.1001017466508
 10
-37.76128539935553
 20
57.82796337120567
 42
0.4142135623730716
 10
-36.9612853993558
 20
57.02796337120571
 10
-34.76901814481926
 20
57.02796337120571
 42
-0.414213562373168
 10
-34.36901814481962
 20
56.62796337120562
 10
-34.36901814481962
 20
55.90786840766487
 42
-0.4142135623730744
 10
-34.76901814481926
 20
55.507868407665
 10
-37.76128539935553
 20
55.507868407665
 10
-37.76128539935553
 20
55.12380871629648
 10
-34.7850262845518
 20
55.12380871629648
 42
0.4142135623731289
 10
-33.98502628455162
 20
55.92380871629643
 10
-33.98502628455162
 20
56.627997286756
 42
0.4142135623731132
  0
HATCH
  5
BEC
330
B9E
100
AcDbEntity
  8
9
100
AcDbHatch
 10
0.0
 20
0.0
 30
0.0
210
0.0
220
0.0
230
1.0
  2
SOLID
 70
     1
 71
     1
 91
       13
 92
        7
 72
     1
 73
     1
 93
       20
 10
-34.36901814481962
 20
55.90786840766487
 42
-0.414213562372991
 10
-34.76901814481926
 20
55.507868407665
 42
0.0
 10
-37.76128539935553
 20
55.507868407665
 42
0.0
 10
-37.76128539935553
 20
55.12380871629648
 42
0.0
 10
-34.7850262845518
 20
55.12380871629648
 42
0.4142135623731705
 10
-33.98502628455162
 20
55.92380871629666
 42
0.0
 10
-33.98502628455162
 20
56.627997286756
 42
0.4142135623731547
 10
-34.7850262845518
 20
57.42799728675596
 42
0.0
 10
-36.96125148380543
 20
57.42799728675596
 42
-0.4142135623730898
 10
-37.36125148380552
 20
57.82799728675604
 42
0.0
 10
-37.36125148380552
 20
58.1001017466508
 42
-0.4142135623731575
 10
-36.96125148380543
 20
58.5001017466509
 42
0.0
 10
-34.27303713752781
 20
58.50010174665067
 42
0.0
 10
-34.27303713752781
 20
58.90010174665076
 42
0.0
 10
-36.96128539935535
 20
58.90010174665076
 42
0.4142135623731705
 10
-37.76128539935553
 20
58.10010174665058
 42
0.0
 10
-37.76128539935553
 20
57.82796337120544
 42
0.4142135623730299
 10
-36.9612853993558
 20
57.02796337120571
 42
0.0
 10
-34.76901814481926
 20
57.02796337120571
 42
-0.4142135623730015
 10
-34.36901814481962
 20
56.62796337120608
 42
0.0
 97
        1
330
BEB
 92
        7
 72
     1
 73
     1
 93
       12
 10
-33.36098015940343
 20
55.92380871629666
 42
0.4142135623731547
 10
-32.56098015940324
 20
55.12380871629648
 42
0.0
 10
-29.58465321349877
 20
55.12380871629648
 42
0.0
 10
-29.58465321349832
 20
58.10010174665058
 42
0.4142135623731964
 10
-30.3846532134985
 20
58.90010174665076
 42
0.0
 10
-33.07296930642724
 20
58.90010174665076
 42
0.0
 10
-33.07296930642724
 20
58.50010174665067
 42
0.0
 10
-30.38468712904887
 20
58.5001017466509
 42
-0.4142135623732564
 10
-29.98468712904878
 20
58.10010174665103
 42
0.0
 10
-29.98468712904923
 20
57.42799728675596
 42
0.0
 10
-32.56098015940324
 20
57.42799728675596
 42
0.4142135623731705
 10
-33.36098015940343
 20
56.627997286756
 42
0.0
 97
        1
330
BEA
 92
       22
 72
     1
 73
     1
 93
        6
 10
-32.97692046803468
 20
56.62796337120562
 42
-0.4142135623731576
 10
-32.57692046803459
 20
57.02796337120571
 42
0.0
 10
-29.98468712904878
 20
57.02796337120571
 42
0.0
 10
-29.98468712904878
 20
55.507868407665
 42
0.0
 10
-32.57692046803459
 20
55.507868407665
 42
-0.4142135623731731
 10
-32.97692046803468
 20
55.90786840766487
 42
0.0
 97
        1
330
C11
 92
        7
 72
     1
 73
     1
 93
       10
 10
-28.57661522808212
 20
58.5001017466509
 42
0.0
 10
-25.98444972019661
 20
58.5001017466509
 42
-0.4142135623730067
 10
-25.58444972019652
 20
58.10010174665058
 42
0.0
 10
-25.58444972019606
 20
55.12380871629648
 42
0.0
 10
-25.20042394437906
 20
55.12380871629648
 42
0.0
 10
-25.2004239443786
 20
58.1001017466508
 42
0.4142135623731134
 10
-26.00042394437833
 20
58.90010174665076
 42
0.0
 10
-28.97664914363259
 20
58.90010174665076
 42
0.0
 10
-28.97664914363259
 20
55.12380871629648
 42
0.0
 10
-28.57661522808212
 20
55.12380871629648
 42
0.0
 97
        1
330
BE9
 92
        7
 72
     0
 73
     1
 93
        4
 10
-24.57637781922995
 20
55.12380871629648
 10
-24.19231812786165
 20
55.12380871629648
 10
-24.19231812786165
 20
58.90010174665076
 10
-24.57637781922995
 20
58.90010174665076
 97
        1
330
BE8
 92
        7
 72
     0
 73
     1
 93
        4
 10
-24.19231812786165
 20
59.87619128370352
 10
-24.5763778192304
 20
59.87619128370352
 10
-24.5763778192304
 20
59.28412752246913
 10
-24.1923181278612
 20
59.28412752246913
 97
        1
330
C12
 92
        7
 72
     1
 73
     1
 93
       10
 10
-23.18424622689509
 20
58.5001017466509
 42
0.0
 10
-20.59204680345965
 20
58.5001017466509
 42
-0.4142135623730898
 10
-20.19204680345956
 20
58.1001017466508
 42
0.0
 10
-20.19204680345956
 20
55.12380871629648
 42
0.0
 10
-19.79201288790909
 20
55.12380871629648
 42
0.0
 10
-19.79201288790909
 20
58.1001017466508
 42
0.4142135623731547
 10
-20.59201288790928
 20
58.90010174665076
 42
0.0
 10
-23.56830591826338
 20
58.90010174665076
 42
0.0
 10
-23.56830591826338
 20
55.12380871629648
 42
0.0
 10
-23.18424622689463
 20
55.12380871629648
 42
0.0
 97
        1
330
BE7
 92
        7
 72
     1
 73
     1
 93
        8
 10
-19.1999120763262
 20
55.92680650071542
 42
0.4153115297271299
 10
-18.39991769304061
 20
55.12380871629648
 42
0.0
 10
-15.4236900118708
 20
55.12380871629648
 42
0.0
 10
-15.4236900118708
 20
59.87619128370352
 42
0.0
 10
-15.80771578768872
 20
59.87619128370352
 42
0.0
 10
-15.80771578768872
 20
58.90010174665076
 42
0.0
 10
-18.39176256411201
 20
58.90010174665076
 42
0.4131164467977965
 10
-19.19175694739761
 20
58.1030995310698
 42
0.0
 97
        1
330
BE6
 92
       22
 72
     1
 73
     1
 93
        6
 10
-18.79994912667462
 20
58.1001017466508
 42
-0.4142135623731575
 10
-18.39994912667453
 20
58.5001017466509
 42
0.0
 10
-15.80771578768872
 20
58.50010174665067
 42
0.0
 10
-15.80771578768827
 20
55.507868407665
 42
0.0
 10
-18.39994912667453
 20
55.507868407665
 42
-0.4142135623731731
 10
-18.79994912667462
 20
55.90786840766487
 42
0.0
 97
        1
330
BE5
 92
        7
 72
     1
 73
     1
 93
       12
 10
-14.79964388672215
 20
55.92380871629621
 42
0.4142135623729885
 10
-13.99964388672242
 20
55.12380871629648
 42
0.0
 10
-11.8233508563676
 20
55.12380871629648
 42
0.4142135623731289
 10
-11.02335085636741
 20
55.92380871629666
 42
0.0
 10
-11.02335085636741
 20
58.90010174665076
 42
0.0
 10
-11.42338477191788
 20
58.90010174665076
 42
0.0
 10
-11.42338477191788
 20
55.91567577726095
 42
-0.4131711701795319
 10
-11.82196067063523
 20
55.51567831234956
 42
0.0
 10
-14.01419400962095
 20
55.50787335710947
 42
-0.4152567234626918
 10
-14.41561811090378
 20
55.90787082202087
 42
0.0
 10
-14.41561811090378
 20
58.90010174665076
 42
0.0
 10
-14.7996438867226
 20
58.90010174665076
 42
0.0
 97
        1
330
BE4
 92
        7
 72
     1
 73
     1
 93
       20
 10
-7.423079531965413
 20
57.02796337120571
 42
-0.414213562373168
 10
-7.023079531965322
 20
56.62796337120562
 42
0.0
 10
-7.023079531965322
 20
55.90786840766487
 42
-0.4142135623731575
 10
-7.423079531965413
 20
55.507868407665
 42
0.0
 10
-10.41534678650168
 20
55.507868407665
 42
0.0
 10
-10.41534678650168
 20
55.12380871629648
 42
0.0
 10
-7.445787917283723
 20
55.12380871629648
 42
0.4114777732065809
 10
-6.645822882998345
 20
55.91632914939783
 42
0.0
 10
-6.639238813324936
 20
56.62051771985716
 42
0.4169546541682913
 10
-7.439203847610315
 20
57.42799728675596
 42
0.0
 10
-9.615312870951584
 20
57.42799728675596
 42
-0.4142135623729911
 10
-10.01531287095122
 20
57.82799728675581
 42
0.0
 10
-10.01531287095122
 20
58.10010174665103
 42
-0.414213562372991
 10
-9.615312870951584
 20
58.5001017466509
 42
0.0
 10
-6.92703069357276
 20
58.50010174665067
 42
0.0
 10
-6.927030693572305
 20
58.90010174665076
 42
0.0
 10
-9.615346786501959
 20
58.90010174665076
 42
0.4142135623730467
 10
-10.41534678650168
 20
58.10010174665103
 42
0.0
 10
-10.41534678650168
 20
57.82796337120544
 42
0.4142135623730301
 10
-9.615346786501959
 20
57.02796337120571
 42
0.0
 97
        1
330
BE3
 92
        7
 72
     1
 73
     1
 93
       12
 10
-5.21497371544865
 20
57.42799728675596
 42
0.4142135623730871
 10
-6.014973715448377
 20
56.627997286756
 42
0.0
 10
-6.014973715448377
 20
55.92380871629621
 42
0.4142135623730715
 10
-5.21497371544865
 20
55.12380871629648
 42
0.0
 10
-2.23871460064447
 20
55.12380871629648
 42
0.0
 10
-2.23871460064447
 20
58.10010174665058
 42
0.414213562373155
 10
-3.038714600644652
 20
58.90010174665076
 42
0.0
 10
-5.726962862471737
 20
58.90010174665076
 42
0.0
 10
-5.726962862472191
 20
58.5001017466509
 42
0.0
 10
-3.038748516194573
 20
58.5001017466509
 42
-0.4142135623730067
 10
-2.638748516194482
 20
58.10010174665058
 42
0.0
 10
-2.638748516194482
 20
57.42799728675596
 42
0.0
 97
        1
330
BE2
 92
       22
 72
     1
 73
     1
 93
        6
 10
-2.638748516194937
 20
57.02796337120571
 42
0.0
 10
-2.638748516194482
 20
55.50786840766477
 42
0.0
 10
-5.21497371544865
 20
55.507868407665
 42
-0.4142135623731731
 10
-5.614973715448741
 20
55.90786840766509
 42
0.0
 10
-5.614973715448741
 20
56.62796337120562
 42
-0.4142135623731576
 10
-5.21497371544865
 20
57.02796337120571
 42
0.0
 97
        1
330
C0D
 75
     0
 76
     1
 47
0.0407044778999864
 98
       13
 10
-34.18710075113677
 20
56.16907953933765
 10
-33.12851374392494
 20
56.49471602641233
 10
-33.12851374392494
 20
56.49471602641233
 10
-28.77202873835904
 20
57.51232930166111
 10
-24.41554807250941
 20
57.91937341678636
 10
-24.41554807250941
 20
59.384734621186
 10
-23.31624584658039
 20
58.3264175319116
 10
-19.04119127844888
 20
57.75655517324913
 10
-19.04119127844888
 20
57.75655517324913
 10
-14.64399105416578
 20
57.43091868617466
 10
-8.048195057457178
 20
57.22739662861204
 10
-4.017427461911665
 20
57.18669281458665
 10
-4.017427461911665
 20
57.18669281458665
  0
TEXT
  5
BED
330
B9E
100
AcDbEntity
  8
leg fin
100
AcDbText
 10
3.391127401597259
 20
2.107634911895729
 30
0.0
 40
1.5
  1
Este desenho é propriedade da Sanindusa, S.A., e não pode ser copiado nem divulgado sem nossa autorização.
 50
90.0
 41
0.8
  7
SANINDUSA
100
AcDbText
  0
LINE
  5
BEE
330
B9E
100
AcDbEntity
  8
3
100
AcDbLine
 10
-90.0
 20
4.0
 30
0.0
 11
-90.0
 21
12.0
 31
0.0
  0
TEXT
  5
BEF
330
B9E
100
AcDbEntity
  8
1
100
AcDbText
 10
-39.0
 20
9.25
 30
0.0
 40
2.0
  1
Substituido por:
 41
0.8
  7
SANINDUSA
 11
-39.0
 21
10.25
 31
0.0
100
AcDbText
 73
     2
  0
POINT
  5
BF0
330
B9E
100
AcDbEntity
  8
SANINDUSA
100
AcDbPoint
 10
0.0
 20
0.0
 30
0.0
  0
TEXT
  5
BF1
330
B9E
100
AcDbEntity
  8
1
100
AcDbText
 10
-89.0
 20
16.74927010445663
 30
0.0
 40
2.0
  1
Normas:
 41
0.8
  7
SANINDUSA
 11
-89.0
 21
17.74927010445663
 31
0.0
100
AcDbText
 73
     2
  0
LINE
  5
BF2
330
B9E
100
AcDbEntity
  8
3
100
AcDbLine
 10
-90.0
 20
12.0
 30
0.0
 11
-90.0
 21
20.0
 31
0.0
  0
LINE
  5
BF3
330
B9E
100
AcDbEntity
  8
3
100
AcDbLine
 10
-110.546019464768
 20
12.0
 30
0.0
 11
-110.546019464768
 21
20.0
 31
0.0
  0
TEXT
  5
BF4
330
B9E
100
AcDbEntity
  8
1
100
AcDbText
 10
-109.6177520618648
 20
17.25
 30
0.0
 40
2.0
  1
Cor:
 41
0.8
  7
SANINDUSA
 11
-109.6177520618648
 21
18.25
 31
0.0
100
AcDbText
 73
     2
  0
LINE
  5
BF5
330
B9E
100
AcDbEntity
  8
leg fin
100
AcDbLine
 10
-91.42857142857156
 20
20.0
 30
0.0
 11
-91.42857142857156
 21
28.5
 31
0.0
  0
LINE
  5
BF6
330
B9E
100
AcDbEntity
  8
leg fin
100
AcDbLine
 10
-104.2857142857142
 20
20.0
 30
0.0
 11
-104.2857142857142
 21
28.5
 31
0.0
  0
LINE
  5
BF7
330
B9E
100
AcDbEntity
  8
leg fin
100
AcDbLine
 10
-117.1428571428573
 20
20.0
 30
0.0
 11
-117.1428571428573
 21
28.5
 31
0.0
  0
POINT
  5
BF8
330
B9E
100
AcDbEntity
  8
SANINDUSA
100
AcDbPoint
 10
-117.1428571428573
 20
28.5
 30
0.0
  0
POINT
  5
BF9
330
B9E
100
AcDbEntity
  8
SANINDUSA
100
AcDbPoint
 10
-104.2857142857142
 20
28.5
 30
0.0
  0
POINT
  5
BFA
330
B9E
100
AcDbEntity
  8
SANINDUSA
100
AcDbPoint
 10
-91.42857142857156
 20
28.5
 30
0.0
  0
TEXT
  5
BFB
330
B9E
100
AcDbEntity
  8
1
100
AcDbText
 10
-116.200160604496
 20
26.43288406845113
 30
0.0
 40
1.5
  1
Nº Seq.:
 41
0.8
  7
SANINDUSA
 11
-116.200160604496
 21
27.18288406845113
 31
0.0
100
AcDbText
 73
     2
  0
TEXT
  5
BFC
330
B9E
100
AcDbEntity
  8
1
100
AcDbText
 10
-103.2106584078738
 20
26.43288406845113
 30
0.0
 40
1.5
  1
Tipo:
 41
0.8
  7
SANINDUSA
 11
-103.2106584078738
 21
27.18288406845113
 31
0.0
100
AcDbText
 73
     2
  0
TEXT
  5
BFD
330
B9E
100
AcDbEntity
  8
1
100
AcDbText
 10
-90.22114672289353
 20
26.43288406845113
 30
0.0
 40
1.5
  1
Prod.:
 41
0.8
  7
SANINDUSA
 11
-90.22114672289353
 21
27.18288406845113
 31
0.0
100
AcDbText
 73
     2
  0
TEXT
  5
BFE
330
B9E
100
AcDbEntity
  8
1
100
AcDbText
 10
-64.77320576346574
 20
26.43288406845113
 30
0.0
 40
1.5
  1
Rev.:
 41
0.8
  7
SANINDUSA
 11
-64.77320576346574
 21
27.18288406845113
 31
0.0
100
AcDbText
 73
     2
  0
LINE
  5
BFF
330
B9E
100
AcDbEntity
  8
leg fin
100
AcDbLine
 10
-52.85714285714266
 20
20.0
 30
0.0
 11
-52.85714285714266
 21
28.5
 31
0.0
  0
LINE
  5
C00
330
B9E
100
AcDbEntity
  8
leg fin
100
AcDbLine
 10
-65.71428571428578
 20
20.0
 30
0.0
 11
-65.71428571428578
 21
28.5
 31
0.0
  0
LINE
  5
C01
330
B9E
100
AcDbEntity
  8
leg fin
100
AcDbLine
 10
-78.57142857142844
 20
20.0
 30
0.0
 11
-78.57142857142844
 21
28.5
 31
0.0
  0
POINT
  5
C02
330
B9E
100
AcDbEntity
  8
SANINDUSA
100
AcDbPoint
 10
-78.57142857142844
 20
28.5
 30
0.0
  0
POINT
  5
C03
330
B9E
100
AcDbEntity
  8
SANINDUSA
100
AcDbPoint
 10
-65.71428571428578
 20
28.5
 30
0.0
  0
POINT
  5
C04
330
B9E
100
AcDbEntity
  8
SANINDUSA
100
AcDbPoint
 10
-52.85714285714266
 20
28.5
 30
0.0
  0
TEXT
  5
C05
330
B9E
100
AcDbEntity
  8
1
100
AcDbText
 10
-77.61097961686573
 20
26.43288406845113
 30
0.0
 40
1.5
  1
Peça:
 41
0.8
  7
SANINDUSA
 11
-77.61097961686573
 21
27.18288406845113
 31
0.0
100
AcDbText
 73
     2
  0
TEXT
  5
C06
330
B9E
100
AcDbEntity
  8
1
100
AcDbText
 10
-52.06538060077036
 20
26.43288406845113
 30
0.0
 40
1.5
  1
Alt.:
 41
0.8
  7
SANINDUSA
 11
-52.06538060077036
 21
27.18288406845113
 31
0.0
100
AcDbText
 73
     2
  0
LINE
  5
C07
330
B9E
100
AcDbEntity
  8
3
100
AcDbLine
 10
0.0
 20
12.0
 30
0.0
 11
-40.0
 21
12.0
 31
0.0
  0
LINE
  5
C08
330
B9E
100
AcDbEntity
  8
3
100
AcDbLine
 10
-40.0
 20
32.5
 30
0.0
 11
0.0
 21
32.5
 31
0.0
  0
TEXT
  5
C09
330
B9E
100
AcDbEntity
  8
1
100
AcDbText
 10
-19.0
 20
29.75
 30
0.0
 40
2.0
  1
Folha:
 41
0.8
  7
SANINDUSA
 11
-19.0
 21
30.75
 31
0.0
100
AcDbText
 73
     2
  0
LINE
  5
C0A
330
B9E
100
AcDbEntity
  8
3
100
AcDbLine
 10
-20.0
 20
32.5
 30
0.0
 11
-20.0
 21
20.0
 31
0.0
  0
TEXT
  5
C0B
330
B9E
100
AcDbEntity
  8
1
100
AcDbText
 10
-39.0
 20
29.75
 30
0.0
 40
2.0
  1
Escala:
 41
0.8
  7
SANINDUSA
 11
-39.0
 21
30.75
 31
0.0
100
AcDbText
 73
     2
  0
TEXT
  5
C0C
330
B9E
100
AcDbEntity
  8
1
100
AcDbText
 10
-39.0
 20
17.25
 30
0.0
 40
2.0
  1
Substitui:
 41
0.8
  7
SANINDUSA
 11
-39.0
 21
18.25
 31
0.0
100
AcDbText
 73
     2
  0
LWPOLYLINE
  5
C0D
102
{ACAD_REACTORS
330
BEC
102
}
330
B9E
100
AcDbEntity
  8
9
100
AcDbPolyline
 90
        6
 70
     1
 43
0.0
 10
-2.638748516194482
 20
57.02796337120571
 10
-2.638748516194482
 20
55.50786840766477
 10
-5.21497371544865
 20
55.507868407665
 42
-0.4142135623730898
 10
-5.614973715448741
 20
55.90786840766487
 10
-5.614973715448741
 20
56.62796337120562
 42
-0.4142135623731576
 10
-5.21497371544865
 20
57.02796337120571
  0
LINE
  5
C0E
330
B9E
100
AcDbEntity
  8
3
100
AcDbLine
 10
-40.0
 20
50.0
 30
0.0
 11
0.0
 21
50.0
 31
0.0
  0
ATTDEF
  5
C0F
330
B9E
100
AcDbEntity
  8
1
100
AcDbText
 10
-31.30691739422431
 20
40.25
 30
0.0
 40
2.0
  1
XXXXXXXXXXXXXXX
 41
0.8
  7
SANINDUSA
 72
     4
 11
-20.0
 21
41.25
 31
0.0
100
AcDbAttributeDefinition
  3
Observações:
  2
OBS
 70
     0
  0
TEXT
  5
C10
330
B9E
100
AcDbEntity
  8
1
100
AcDbText
 10
-39.0
 20
47.25
 30
0.0
 40
2.0
  1
Observações:
 41
0.8
  7
SANINDUSA
 11
-39.0
 21
48.25
 31
0.0
100
AcDbText
 73
     2
  0
LWPOLYLINE
  5
C11
102
{ACAD_REACTORS
330
BEC
102
}
330
B9E
100
AcDbEntity
  8
9
100
AcDbPolyline
 90
        6
 70
     1
 43
0.0
 10
-29.98468712904878
 20
57.02796337120571
 10
-29.98468712904878
 20
55.507868407665
 10
-32.57692046803459
 20
55.507868407665
 42
-0.4142135623731731
 10
-32.97692046803468
 20
55.90786840766487
 10
-32.97692046803468
 20
56.62796337120562
 42
-0.4142135623731576
 10
-32.57692046803459
 20
57.02796337120571
  0
LWPOLYLINE
  5
C12
102
{ACAD_REACTORS
330
BEC
102
}
330
B9E
100
AcDbEntity
  8
9
100
AcDbPolyline
 90
        4
 70
     1
 43
0.0
 10
-24.19231812786165
 20
59.87619128370352
 10
-24.57637781922995
 20
59.87619128370352
 10
-24.57637781922995
 20
59.28412752246913
 10
-24.19231812786165
 20
59.28412752246913
  0
ENDBLK
  5
C14
330
B9E
100
AcDbEntity
  8
0
100
AcDbBlockEnd
  0
ENDSEC
  0
SECTION
  2
ENTITIES
  0
SPLINE
  5
1495
330
1F
100
AcDbEntity
  8
SANINDUSA
100
AcDbSpline
210
0.0
220
0.0
230
1.0
 70
    24
 71
     1
 72
     4
 73
     2
 74
     0
 42
0.0000000001
 43
0.0000000001
 40
0.0
 40
0.0
 40
1.0
 40
1.0
 10
4260.737225245637
 20
2419.915869141
 30
0.0
 10
4260.737673830194
 20
2419.903023581954
 30
0.0
  0
SPLINE
  5
1496
330
1F
100
AcDbEntity
  8
SANINDUSA
100
AcDbSpline
210
0.0
220
0.0
230
1.0
 70
    24
 71
     1
 72
     4
 73
     2
 74
     0
 42
0.0000000001
 43
0.0000000001
 40
0.0
 40
0.0
 40
1.0
 40
1.0
 10
4260.85608243565
 20
2419.903023581954
 30
0.0
 10
4260.856509562535
 20
2419.915254956113
 30
0.0
  0
ARC
  5
1497
330
1F
100
AcDbEntity
  8
SANINDUSA
100
AcDbCircle
 10
4260.752664691508
 20
2419.90354707419
 30
0.0
 40
0.0150000000000002
100
AcDbArc
 50
182.0000000037536
 51
267.1053279345509
  0
ARC
  5
1498
330
1F
100
AcDbEntity
  8
SANINDUSA
100
AcDbCircle
 10
4260.841091577316
 20
2419.90354707419
 30
0.0
 40
0.015
100
AcDbArc
 50
272.8946720654491
 51
357.9999999962464
  0
SPLINE
  5
1499
330
1F
100
AcDbEntity
  8
SANINDUSA
100
AcDbSpline
210
0.0
220
0.0
230
1.0
 70
    24
 71
     1
 72
     4
 73
     2
 74
     0
 42
0.0000000001
 43
0.0000000001
 40
0.0
 40
0.0
 40
1.0
 40
1.0
 10
4260.751907180948
 20
2419.888566213429
 30
0.0
 10
4260.757974456949
 20
2419.888259425063
 30
0.0
  0
SPLINE
  5
149A
330
1F
100
AcDbEntity
  8
SANINDUSA
100
AcDbSpline
210
0.0
220
0.0
230
1.0
 70
    24
 71
     1
 72
     4
 73
     2
 74
     0
 42
0.0000000001
 43
0.0000000001
 40
0.0
 40
0.0
 40
1.0
 40
1.0
 10
4260.835781823797
 20
2419.888259425063
 30
0.0
 10
4260.841849084896
 20
2419.888566213429
 30
0.0
  0
ARC
  5
149B
330
1F
100
AcDbEntity
  8
SANINDUSA
100
AcDbCircle
 10
4260.836034322343
 20
2419.883265804731
 30
0.0
 40
0.0050000000000004
100
AcDbArc
 50
92.89467206544911
 51
175.0000000037089
  0
ARC
  5
149C
330
1F
100
AcDbEntity
  8
SANINDUSA
100
AcDbCircle
 10
4260.757721946482
 20
2419.883265804731
 30
0.0
 40
0.0050000000000004
100
AcDbArc
 50
4.999999996291116
 51
87.10532793455088
  0
SPLINE
  5
149D
330
1F
100
AcDbEntity
  8
SANINDUSA
100
AcDbSpline
210
0.0
220
0.0
230
1.0
 70
    24
 71
     1
 72
     4
 73
     2
 74
     0
 42
0.0000000001
 43
0.0000000001
 40
0.0
 40
0.0
 40
1.0
 40
1.0
 10
4260.762702923222
 20
2419.883701583373
 30
0.0
 10
4260.763378124638
 20
2419.875983847307
 30
0.0
  0
SPLINE
  5
149E
330
1F
100
AcDbEntity
  8
SANINDUSA
100
AcDbSpline
210
0.0
220
0.0
230
1.0
 70
    24
 71
     1
 72
     4
 73
     2
 74
     0
 42
0.0000000001
 43
0.0000000001
 40
0.0
 40
0.0
 40
1.0
 40
1.0
 10
4260.830378141207
 20
2419.875983847307
 30
0.0
 10
4260.831053342624
 20
2419.883701583373
 30
0.0
  0
ARC
  5
14A0
330
1F
100
AcDbEntity
  8
SANINDUSA
100
AcDbCircle
 10
4260.575878134413
 20
2420.011983847084
 30
0.0
 40
0.0040000000000001
100
AcDbArc
 50
90.0
 51
180.0
  0
LINE
  5
14A1
330
1F
100
AcDbEntity
  8
SANINDUSA
100
AcDbLine
 10
4260.575878124638
 20
2420.015983842315
 30
0.0
 11
4260.581878136797
 21
2420.015983842315
 31
0.0
  0
LINE
  5
14A3
330
1F
100
AcDbEntity
  8
SANINDUSA
100
AcDbLine
 10
4260.581878136797
 20
2419.985983848574
 30
0.0
 11
4260.573878120584
 21
2419.985983848574
 31
0.0
  0
ARC
  5
14A4
330
1F
100
AcDbEntity
  8
SANINDUSA
100
AcDbCircle
 10
4260.573878134413
 20
2419.987983847084
 30
0.0
 40
0.002
100
AcDbArc
 50
180.0
 51
270.0
  0
LINE
  5
14AC
330
1F
100
AcDbEntity
  8
SANINDUSA
100
AcDbLine
 10
4261.036878134077
 20
2420.01198384911
 30
0.0
 11
4261.036878134077
 21
2419.987983845176
 31
0.0
  0
LINE
  5
14AE
330
1F
100
AcDbEntity
  8
SANINDUSA
100
AcDbLine
 10
4260.571878146333
 20
2419.987983845176
 30
0.0
 11
4260.571878146333
 21
2420.01198384911
 31
0.0
  0
LINE
  5
14AF
330
1F
100
AcDbEntity
  8
SANINDUSA
100
AcDbLine
 10
4261.026878134301
 20
2419.985983848574
 30
0.0
 11
4260.581878136797
 21
2419.985983848574
 31
0.0
  0
LINE
  5
14B1
330
1F
100
AcDbEntity
  8
SANINDUSA
100
AcDbLine
 10
4260.581878136797
 20
2420.015983842315
 30
0.0
 11
4261.026878134301
 21
2420.015983842315
 31
0.0
  0
LINE
  5
14B3
330
1F
100
AcDbEntity
  8
SANINDUSA
100
AcDbLine
 10
4261.026878134301
 20
2420.015983842315
 30
0.0
 11
4261.032878134353
 21
2420.015983842315
 31
0.0
  0
ARC
  5
14B4
330
1F
100
AcDbEntity
  8
SANINDUSA
100
AcDbCircle
 10
4261.032878134412
 20
2420.011983847084
 30
0.0
 40
0.0040000000000001
100
AcDbArc
 50
0.0
 51
90.0
  0
LINE
  5
14B5
330
1F
100
AcDbEntity
  8
SANINDUSA
100
AcDbLine
 10
4261.034878134681
 20
2419.985983848574
 30
0.0
 11
4261.026878134301
 21
2419.985983848574
 31
0.0
  0
ARC
  5
14B6
330
1F
100
AcDbEntity
  8
SANINDUSA
100
AcDbCircle
 10
4261.034878134412
 20
2419.987983847084
 30
0.0
 40
0.0020000000000002
100
AcDbArc
 50
270.0
 51
0.0
  0
LINE
  5
14BB
330
1F
100
AcDbEntity
  8
SANINDUSA
100
AcDbLine
 10
4260.986984293861
 20
2419.985983848574
 30
0.0
 11
4260.981730584009
 21
2419.956188574435
 31
0.0
  0
LINE
  5
14BE
330
1F
100
AcDbEntity
  8
SANINDUSA
100
AcDbLine
 10
4260.571878146333
 20
2419.910983847456
 30
0.0
 11
4260.571878146333
 21
2419.987983845176
 31
0.0
  0
LINE
  5
14C0
330
1F
100
AcDbEntity
  8
SANINDUSA
100
AcDbLine
 10
4260.977415889455
 20
2419.952094085517
 30
0.0
 11
4260.601878147525
 21
2419.905983846637
 31
0.0
  0
ARC
  5
14C3
330
1F
100
AcDbEntity
  8
SANINDUSA
100
AcDbCircle
 10
4260.976806543816
 20
2419.957056816329
 30
0.0
 40
0.0050000000000001
100
AcDbArc
 50
276.9999999915293
 51
350.0000000033014
  0
ARC
  5
14C4
330
1F
100
AcDbEntity
  8
SANINDUSA
100
AcDbCircle
 10
4260.576878134412
 20
2419.910983847084
 30
0.0
 40
0.005
100
AcDbArc
 50
180.0
 51
270.0
  0
LINE
  5
14C6
330
1F
100
AcDbEntity
  8
SANINDUSA
100
AcDbLine
 10
4260.60187808792
 20
2419.905983846637
 30
0.0
 11
4260.576878141566
 21
2419.905983846637
 31
0.0
  0
SPLINE
  5
14C7
330
1F
100
AcDbEntity
  8
SANINDUSA
100
AcDbSpline
210
0.0
220
0.0
230
1.0
 70
     8
 71
     3
 72
    11
 73
     7
 74
     0
 42
0.0000000001
 43
0.0000000001
 40
0.0
 40
0.0
 40
0.0
 40
0.0
 40
0.3138375761227068
 40
0.6277359862868012
 40
0.9482303919365119
 40
0.9999999999999998
 40
0.9999999999999998
 40
0.9999999999999998
 40
0.9999999999999998
 10
4260.859779205127
 20
2419.919772617521
 30
0.0
 10
4260.864728535804
 20
2419.921733901779
 30
0.0
 10
4260.874628156535
 20
2419.925656850468
 30
0.0
 10
4260.88886761416
 20
2419.933154396707
 30
0.0
 10
4260.898891727129
 20
2419.939081610371
 30
0.0
 10
4260.904077577082
 20
2419.942677722727
 30
0.0
 10
4260.904798757239
 20
2419.943177822979
 30
0.0
  0
SPLINE
  5
14C9
330
1F
100
AcDbEntity
  8
SANINDUSA
100
AcDbSpline
210
0.0
220
0.0
230
1.0
 70
    24
 71
     1
 72
     4
 73
     2
 74
     0
 42
0.0000000001
 43
0.0000000001
 40
0.0
 40
0.0
 40
1.0
 40
1.0
 10
4260.731022220059
 20
2419.921840745958
 30
0.0
 10
4260.734241764946
 20
2419.920271322133
 30
0.0
  0
SPLINE
  5
14CB
330
1F
100
AcDbEntity
  8
SANINDUSA
100
AcDbSpline
210
0.0
220
0.0
230
1.0
 70
     8
 71
     3
 72
    19
 73
    15
 74
     0
 42
0.0000000001
 43
0.0000000001
 40
0.0
 40
0.0
 40
0.0
 40
0.0
 40
0.2500000000000013
 40
0.2500000000000013
 40
0.3750000000000011
 40
0.3750000000000011
 40
0.5000000000000009
 40
0.5000000000000009
 40
0.6250000000000007
 40
0.6250000000000007
 40
0.7500000000000005
 40
0.8750000000000001
 40
0.8750000000000001
 40
1.0
 40
1.0
 40
1.0
 40
1.0
 10
4260.737225252302
 20
2419.915869140607
 30
0.0
 10
4260.737208802252
 20
2419.916340208436
 30
0.0
 10
4260.737127429386
 20
2419.916797872856
 30
0.0
 10
4260.736910325655
 20
2419.917464747426
 30
0.0
 10
4260.736821289945
 20
2419.917684316962
 30
0.0
 10
4260.736616171207
 20
2419.918103158358
 30
0.0
 10
4260.736499645349
 20
2419.91830418889
 30
0.0
 10
4260.736238845075
 20
2419.918689580411
 30
0.0
 10
4260.736093546179
 20
2419.918875044649
 30
0.0
 10
4260.735778594971
 20
2419.919223168121
 30
0.0
 10
4260.735442428026
 20
2419.919545714814
 30
0.0
 10
4260.735065113475
 20
2419.919818655739
 30
0.0
 10
4260.734666637187
 20
2419.920066084987
 30
0.0
 10
4260.734457487014
 20
2419.920176412969
 30
0.0
 10
4260.734241763169
 20
2419.920271318629
 30
0.0
  0
ARC
  5
14CC
330
1F
100
AcDbEntity
  8
SANINDUSA
100
AcDbCircle
 10
4260.861506522892
 20
2419.91508045947
 30
0.0
 40
0.0050000000000204
100
AcDbArc
 50
110.2101516591625
 51
177.9999999962464
  0
LINE
  5
14CD
330
1F
100
AcDbEntity
  8
SANINDUSA
100
AcDbLine
 10
4260.830378141207
 20
2419.875983847307
 30
0.0
 11
4260.763378124638
 21
2419.875983847307
 31
0.0
  0
SPLINE
  5
14D1
330
1F
100
AcDbEntity
  8
SANINDUSA
100
AcDbSpline
210
0.0
220
0.0
230
1.0
 70
     8
 71
     3
 72
    43
 73
    39
 74
     0
 42
0.0000000001
 43
0.0000000001
 40
0.0
 40
0.0
 40
0.0
 40
0.0
 40
0.0338953579311506
 40
0.0681692951787951
 40
0.094479091970843
 40
0.1207888811610275
 40
0.1478217465527145
 40
0.1748546269588194
 40
0.2012481928969739
 40
0.2276415243071387
 40
0.2547770442080494
 40
0.2819122805185097
 40
0.3084877881530025
 40
0.3350628942187298
 40
0.3624244904804131
 40
0.3897855321205229
 40
0.4165297233932488
 40
0.4432732884407428
 40
0.4708719225918863
 40
0.4984710886907764
 40
0.5249341368726072
 40
0.5513966741276529
 40
0.57868935650129
 40
0.6059827389777563
 40
0.632533855065651
 40
0.6590855269139159
 40
0.6864247839937239
 40
0.7137644151793803
 40
0.7403571607800325
 40
0.766950151016105
 40
0.7943033074656026
 40
0.8216568294314651
 40
0.8481793013721151
 40
0.8747017307769137
 40
0.9019660947436664
 40
0.9292304463909047
 40
0.9653203096938597
 40
1.0
 40
1.0
 40
1.0
 40
1.0
 10
4260.734241764946
 20
2419.920271322133
 30
0.0
 10
4260.734309888514
 20
2419.920267249351
 30
0.0
 10
4260.734446896525
 20
2419.920259058298
 30
0.0
 10
4260.735467188548
 20
2419.920193300899
 30
0.0
 10
4260.736885396272
 20
2419.920096589353
 30
0.0
 10
4260.738600902309
 20
2419.919977383718
 30
0.0
 10
4260.740737193585
 20
2419.91982793054
 30
0.0
 10
4260.743271961162
 20
2419.919653529691
 30
0.0
 10
4260.746160682447
 20
2419.919461197285
 30
0.0
 10
4260.749402400507
 20
2419.9192536006
 30
0.0
 10
4260.753014948276
 20
2419.919031678793
 30
0.0
 10
4260.75695371719
 20
2419.918799631595
 30
0.0
 10
4260.761154270783
 20
2419.918562280781
 30
0.0
 10
4260.76562298397
 20
2419.918322717161
 30
0.0
 10
4260.770369884117
 20
2419.918085453087
 30
0.0
 10
4260.775328683432
 20
2419.917862762155
 30
0.0
 10
4260.780414759901
 20
2419.917667348792
 30
0.0
 10
4260.785641480646
 20
2419.917508163207
 30
0.0
 10
4260.791014441327
 20
2419.917397471317
 30
0.0
 10
4260.796416231817
 20
2419.917343115694
 30
0.0
 10
4260.801746423127
 20
2419.917349522834
 30
0.0
 10
4260.807020986816
 20
2419.917410121153
 30
0.0
 10
4260.812272288422
 20
2419.917522849693
 30
0.0
 10
4260.817410540526
 20
2419.917676627894
 30
0.0
 10
4260.822346814223
 20
2419.917857691924
 30
0.0
 10
4260.827101121423
 20
2419.918056359482
 30
0.0
 10
4260.831677917062
 20
2419.918264599691
 30
0.0
 10
4260.835999389064
 20
2419.918473780445
 30
0.0
 10
4260.839997047066
 20
2419.91867601642
 30
0.0
 10
4260.843692010473
 20
2419.918870834996
 30
0.0
 10
4260.847083253132
 20
2419.91905682012
 30
0.0
 10
4260.850109749036
 20
2419.919228718571
 30
0.0
 10
4260.852729802677
 20
2419.919381038113
 30
0.0
 10
4260.854962643406
 20
2419.919511435713
 30
0.0
 10
4260.85680759084
 20
2419.919616807205
 30
0.0
 10
4260.85838046191
 20
2419.919703291354
 30
0.0
 10
4260.859524405943
 20
2419.919760796084
 30
0.0
 10
4260.859681247122
 20
2419.919768047202
 30
0.0
 10
4260.859758105083
 20
2419.919771600517
 30
0.0
  0
LINE
  5
14D4
330
1F
100
AcDbEntity
  8
SANINDUSA
100
AcDbLine
 10
4260.835781823797
 20
2419.888259425063
 30
0.0
 11
4260.757974456949
 21
2419.888259425063
 31
0.0
  0
SPLINE
  5
14E1
330
1F
100
AcDbEntity
  8
SANINDUSA
100
AcDbSpline
210
0.0
220
0.0
230
1.0
 70
     8
 71
     3
 72
    14
 73
    10
 74
     0
 42
0.0000000001
 43
0.0000000001
 40
0.0
 40
0.0
 40
0.0
 40
0.0
 40
0.0736745472587865
 40
0.2769507284623434
 40
0.4612323628374157
 40
0.6273625370685137
 40
0.7760779462512195
 40
0.9079480300170594
 40
1.0
 40
1.0
 40
1.0
 40
1.0
 10
4259.953423437794
 20
2419.931694012137
 30
0.0
 10
4259.954686724864
 20
2419.931165147242
 30
0.0
 10
4259.959435559937
 20
2419.929177085917
 30
0.0
 10
4259.967536844964
 20
2419.926366530587
 30
0.0
 10
4259.977360558455
 20
2419.923340272771
 30
0.0
 10
4259.986329064215
 20
2419.921041975601
 30
0.0
 10
4259.994415803276
 20
2419.91933012291
 30
0.0
 10
4260.0011930129
 20
2419.918141266064
 30
0.0
 10
4260.005262779603
 20
2419.917602364927
 30
0.0
 10
4260.006935817322
 20
2419.917380828412
 30
0.0
  0
SPLINE
  5
14E2
330
1F
100
AcDbEntity
  8
SANINDUSA
100
AcDbSpline
210
0.0
220
0.0
230
1.0
 70
     8
 71
     3
 72
    14
 73
    10
 74
     0
 42
0.0000000001
 43
0.0000000001
 40
0.0
 40
0.0
 40
0.0
 40
0.0
 40
0.0921364446144806
 40
0.2240138612892999
 40
0.3727377877870992
 40
0.5388778230094406
 40
0.7231706191305127
 40
0.926459312174029
 40
1.0
 40
1.0
 40
1.0
 40
1.0
 10
4260.133882266601
 20
2419.917380794885
 30
0.0
 10
4260.135556862319
 20
2419.917602568771
 30
0.0
 10
4260.139628352755
 20
2419.918141773695
 30
0.0
 10
4260.146407447856
 20
2419.919331106523
 30
0.0
 10
4260.15449471282
 20
2419.921043305956
 30
0.0
 10
4260.16346379234
 20
2419.923342017728
 30
0.0
 10
4260.17328811505
 20
2419.926368816315
 30
0.0
 10
4260.181387496682
 20
2419.929178915892
 30
0.0
 10
4260.186134256398
 20
2419.93116624017
 30
0.0
 10
4260.187395249626
 20
2419.931694179775
 30
0.0
  0
SPLINE
  5
14E7
330
1F
100
AcDbEntity
  8
SANINDUSA
100
AcDbSpline
210
0.0
220
0.0
230
1.0
 70
     8
 71
     3
 72
    16
 73
    12
 74
     0
 42
0.0000000001
 43
0.0000000001
 40
0.0
 40
0.0
 40
0.0
 40
0.0
 40
0.029031995282659
 40
0.2111586354055233
 40
0.3726837465320832
 40
0.5184744061180551
 40
0.6512647849041344
 40
0.7716493909446771
 40
0.8787800838817979
 40
0.9697722265785632
 40
1.0
 40
1.0
 40
1.0
 40
1.0
 10
4260.129966967871
 20
2419.912574792283
 30
0.0
 10
4260.12996307205
 20
2419.91264301133
 30
0.0
 10
4260.129934736549
 20
2419.913139189455
 30
0.0
 10
4260.130173879498
 20
2419.914007705933
 30
0.0
 10
4260.130658162008
 20
2419.915052896735
 30
0.0
 10
4260.131306035362
 20
2419.915871942668
 30
0.0
 10
4260.132019452225
 20
2419.916484035669
 30
0.0
 10
4260.132752495485
 20
2419.916913157243
 30
0.0
 10
4260.133435747014
 20
2419.917177216881
 30
0.0
 10
4260.133952712453
 20
2419.917305060458
 30
0.0
 10
4260.134178710837
 20
2419.91733248901
 30
0.0
 10
4260.134235066494
 20
2419.917339328679
 30
0.0
  0
SPLINE
  5
14E8
330
1F
100
AcDbEntity
  8
SANINDUSA
100
AcDbSpline
210
0.0
220
0.0
230
1.0
 70
     8
 71
     3
 72
    15
 73
    11
 74
     0
 42
0.0000000001
 43
0.0000000001
 40
0.0
 40
0.0
 40
0.0
 40
0.0
 40
0.0678013673045722
 40
0.176614034785156
 40
0.3027346963131147
 40
0.4415116899976431
 40
0.5969894692828283
 40
0.7614934676708995
 40
0.9298925594922081
 40
1.0
 40
1.0
 40
1.0
 40
1.0
 10
4260.006582302173
 20
2419.917337898167
 30
0.0
 10
4260.00671745842
 20
2419.917318034569
 30
0.0
 10
4260.007069523446
 20
2419.917266292394
 30
0.0
 10
4260.007749162154
 20
2419.917053521221
 30
0.0
 10
4260.008529298381
 20
2419.91666662748
 30
0.0
 10
4260.009320928256
 20
2419.916066992175
 30
0.0
 10
4260.010036342524
 20
2419.915247252538
 30
0.0
 10
4260.010566553768
 20
2419.914224231189
 30
0.0
 10
4260.010850287183
 20
2419.913299307619
 30
0.0
 10
4260.010837292716
 20
2419.912737136745
 30
0.0
 10
4260.010833473077
 20
2419.912571890282
 30
0.0
  0
SPLINE
  5
14E9
330
1F
100
AcDbEntity
  8
SANINDUSA
100
AcDbSpline
210
0.0
220
0.0
230
1.0
 70
    24
 71
     1
 72
     4
 73
     2
 74
     0
 42
0.0000000001
 43
0.0000000001
 40
0.0
 40
0.0
 40
1.0
 40
1.0
 10
4260.010871314576
 20
2419.912571918221
 30
0.0
 10
4260.011204750409
 20
2419.903023581954
 30
0.0
  0
SPLINE
  5
14EA
330
1F
100
AcDbEntity
  8
SANINDUSA
100
AcDbSpline
210
0.0
220
0.0
230
1.0
 70
    24
 71
     1
 72
     4
 73
     2
 74
     0
 42
0.0000000001
 43
0.0000000001
 40
0.0
 40
0.0
 40
1.0
 40
1.0
 10
4260.129613363316
 20
2419.903023581954
 30
0.0
 10
4260.129946821501
 20
2419.912572570147
 30
0.0
  0
ARC
  5
14EB
330
1F
100
AcDbEntity
  8
SANINDUSA
100
AcDbCircle
 10
4260.026195613958
 20
2419.90354707419
 30
0.0
 40
0.015
100
AcDbArc
 50
182.0000000037536
 51
267.1053279345509
  0
ARC
  5
14EC
330
1F
100
AcDbEntity
  8
SANINDUSA
100
AcDbCircle
 10
4260.114622499766
 20
2419.90354707419
 30
0.0
 40
0.015
100
AcDbArc
 50
272.8946720654491
 51
357.9999999962464
  0
SPLINE
  5
14ED
330
1F
100
AcDbEntity
  8
SANINDUSA
100
AcDbSpline
210
0.0
220
0.0
230
1.0
 70
    24
 71
     1
 72
     4
 73
     2
 74
     0
 42
0.0000000001
 43
0.0000000001
 40
0.0
 40
0.0
 40
1.0
 40
1.0
 10
4260.025438112339
 20
2419.888566213429
 30
0.0
 10
4260.031505369712
 20
2419.888259425063
 30
0.0
  0
SPLINE
  5
14EE
330
1F
100
AcDbEntity
  8
SANINDUSA
100
AcDbSpline
210
0.0
220
0.0
230
1.0
 70
    24
 71
     1
 72
     4
 73
     2
 74
     0
 42
0.0000000001
 43
0.0000000001
 40
0.0
 40
0.0
 40
1.0
 40
1.0
 10
4260.109312744011
 20
2419.888259425063
 30
0.0
 10
4260.115380001386
 20
2419.888566213429
 30
0.0
  0
ARC
  5
14EF
330
1F
100
AcDbEntity
  8
SANINDUSA
100
AcDbCircle
 10
4260.109565244793
 20
2419.883265804731
 30
0.0
 40
0.0050000000000004
100
AcDbArc
 50
92.89467206544911
 51
175.0000000037089
  0
ARC
  5
14F0
330
1F
100
AcDbEntity
  8
SANINDUSA
100
AcDbCircle
 10
4260.031252868933
 20
2419.883265804731
 30
0.0
 40
0.0050000000000004
100
AcDbArc
 50
4.999999996291116
 51
87.10532793455088
  0
SPLINE
  5
14F1
330
1F
100
AcDbEntity
  8
SANINDUSA
100
AcDbSpline
210
0.0
220
0.0
230
1.0
 70
    24
 71
     1
 72
     4
 73
     2
 74
     0
 42
0.0000000001
 43
0.0000000001
 40
0.0
 40
0.0
 40
1.0
 40
1.0
 10
4260.036233843435
 20
2419.883701583373
 30
0.0
 10
4260.036909056028
 20
2419.875983847307
 30
0.0
  0
SPLINE
  5
14F2
330
1F
100
AcDbEntity
  8
SANINDUSA
100
AcDbSpline
210
0.0
220
0.0
230
1.0
 70
    24
 71
     1
 72
     4
 73
     2
 74
     0
 42
0.0000000001
 43
0.0000000001
 40
0.0
 40
0.0
 40
1.0
 40
1.0
 10
4260.103909057696
 20
2419.875983847307
 30
0.0
 10
4260.104584270289
 20
2419.883701583373
 30
0.0
  0
LINE
  5
1502
330
1F
100
AcDbEntity
  8
SANINDUSA
100
AcDbLine
 10
4260.385409054478
 20
2420.01198384911
 30
0.0
 11
4260.385409054478
 21
2419.987983845176
 31
0.0
  0
LINE
  5
1506
330
1F
100
AcDbEntity
  8
SANINDUSA
100
AcDbLine
 10
4260.375409064015
 20
2420.015983842315
 30
0.0
 11
4260.381409046372
 21
2420.015983842315
 31
0.0
  0
ARC
  5
1507
330
1F
100
AcDbEntity
  8
SANINDUSA
100
AcDbCircle
 10
4260.381409056861
 20
2420.011983847084
 30
0.0
 40
0.0040000000000001
100
AcDbArc
 50
0.0
 51
90.0
  0
LINE
  5
1508
330
1F
100
AcDbEntity
  8
SANINDUSA
100
AcDbLine
 10
4260.383409050425
 20
2419.985983848574
 30
0.0
 11
4260.375409064015
 21
2419.985983848574
 31
0.0
  0
ARC
  5
150A
330
1F
100
AcDbEntity
  8
SANINDUSA
100
AcDbCircle
 10
4260.383409056863
 20
2419.987983847084
 30
0.0
 40
0.002
100
AcDbArc
 50
270.0
 51
0.0
  0
LINE
  5
150F
330
1F
100
AcDbEntity
  8
SANINDUSA
100
AcDbLine
 10
4259.680409071168
 20
2420.015983842315
 30
0.0
 11
4260.375409064015
 21
2420.015983842315
 31
0.0
  0
LINE
  5
1510
330
1F
100
AcDbEntity
  8
SANINDUSA
100
AcDbLine
 10
4260.375409064015
 20
2419.985983848574
 30
0.0
 11
4259.680409071168
 21
2419.985983848574
 31
0.0
  0
LINE
  5
1512
330
1F
100
AcDbEntity
  8
SANINDUSA
100
AcDbLine
 10
4259.680409071168
 20
2419.985983848574
 30
0.0
 11
4259.672409054955
 21
2419.985983848574
 31
0.0
  0
ARC
  5
1513
330
1F
100
AcDbEntity
  8
SANINDUSA
100
AcDbCircle
 10
4259.672409056862
 20
2419.987983847084
 30
0.0
 40
0.0020000000000001
100
AcDbArc
 50
180.0
 51
270.0
  0
LINE
  5
1516
330
1F
100
AcDbEntity
  8
SANINDUSA
100
AcDbLine
 10
4259.670409050902
 20
2419.987983845176
 30
0.0
 11
4259.670409050902
 21
2420.01198384911
 31
0.0
  0
ARC
  5
1517
330
1F
100
AcDbEntity
  8
SANINDUSA
100
AcDbCircle
 10
4259.674409056862
 20
2420.011983847084
 30
0.0
 40
0.0040000000000001
100
AcDbArc
 50
90.0
 51
180.0
  0
LINE
  5
1518
330
1F
100
AcDbEntity
  8
SANINDUSA
100
AcDbLine
 10
4259.674409059008
 20
2420.015983842315
 30
0.0
 11
4259.680409071168
 21
2420.015983842315
 31
0.0
  0
LINE
  5
151A
330
1F
100
AcDbEntity
  8
SANINDUSA
100
AcDbLine
 10
4260.335515228232
 20
2419.985983848574
 30
0.0
 11
4260.330261496028
 21
2419.956188574435
 31
0.0
  0
LINE
  5
151D
330
1F
100
AcDbEntity
  8
SANINDUSA
100
AcDbLine
 10
4259.810556617697
 20
2419.956188574435
 30
0.0
 11
4259.805302885492
 21
2419.985983848574
 31
0.0
  0
ARC
  5
151F
330
1F
100
AcDbEntity
  8
SANINDUSA
100
AcDbCircle
 10
4260.325366922273
 20
2419.957066723729
 30
0.0
 40
0.0049727254508261
100
AcDbArc
 50
269.6606131420826
 51
349.8286165754668
  0
LINE
  5
1520
330
1F
100
AcDbEntity
  8
SANINDUSA
100
AcDbLine
 10
4260.325337466915
 20
2419.952094085517
 30
0.0
 11
4259.81548064681
 21
2419.952094085517
 31
0.0
  0
ARC
  5
1522
330
1F
100
AcDbEntity
  8
SANINDUSA
100
AcDbCircle
 10
4259.81545119145
 20
2419.957066723729
 30
0.0
 40
0.004972725450826
100
AcDbArc
 50
190.1713834245332
 51
270.3393868579174
  0
ARC
  5
1524
330
1F
100
AcDbEntity
  8
SANINDUSA
100
AcDbCircle
 10
4260.317213558706
 20
2419.910983847084
 30
0.0
 40
0.005
100
AcDbArc
 50
270.0
 51
350.0000000033014
  0
LINE
  5
1526
330
1F
100
AcDbEntity
  8
SANINDUSA
100
AcDbLine
 10
4260.330261496028
 20
2419.956188574435
 30
0.0
 11
4260.32213759156
 21
2419.910115607085
 31
0.0
  0
SPLINE
  5
1527
330
1F
100
AcDbEntity
  8
SANINDUSA
100
AcDbSpline
210
0.0
220
0.0
230
1.0
 70
    24
 71
     1
 72
     4
 73
     2
 74
     0
 42
0.0000000001
 43
0.0000000001
 40
0.0
 40
0.0
 40
1.0
 40
1.0
 10
4260.182640907486
 20
2419.925939802082
 30
0.0
 10
4260.179944326302
 20
2419.924943912776
 30
0.0
  0
SPLINE
  5
1528
330
1F
100
AcDbEntity
  8
SANINDUSA
100
AcDbSpline
210
0.0
220
0.0
230
1.0
 70
     8
 71
     3
 72
    16
 73
    12
 74
     0
 42
0.0000000001
 43
0.0000000001
 40
0.0
 40
0.0
 40
0.0
 40
0.0
 40
0.2500000000000001
 40
0.2500000000000001
 40
0.5000000000000005
 40
0.5000000000000005
 40
0.7500000000000008
 40
0.7500000000000008
 40
0.8750000000000003
 40
0.8750000000000003
 40
1.0
 40
1.0
 40
1.0
 40
1.0
 10
4260.201694840082
 20
2419.932420810187
 30
0.0
 10
4260.199917001922
 20
2419.931889322189
 30
0.0
 10
4260.198200307136
 20
2419.931354806423
 30
0.0
 10
4260.1948476535
 20
2419.930282317148
 30
0.0
 10
4260.193214494935
 20
2419.929744155473
 30
0.0
 10
4260.19003202047
 20
2419.928664108797
 30
0.0
 10
4260.188482590017
 20
2419.928122225432
 30
0.0
 10
4260.186226150442
 20
2419.927306404101
 30
0.0
 10
4260.185485471405
 20
2419.92703401152
 30
0.0
 10
4260.184034847743
 20
2419.926488019961
 30
0.0
 10
4260.183324191081
 20
2419.92621444824
 30
0.0
 10
4260.182640905758
 20
2419.925939800839
 30
0.0
  0
SPLINE
  5
1529
330
1F
100
AcDbEntity
  8
SANINDUSA
100
AcDbSpline
210
0.0
220
0.0
230
1.0
 70
     8
 71
     3
 72
    18
 73
    14
 74
     0
 42
0.0000000001
 43
0.0000000001
 40
0.0
 40
0.0
 40
0.0
 40
0.0
 40
0.2500000000000018
 40
0.2500000000000018
 40
0.3750000000000014
 40
0.3750000000000014
 40
0.5000000000000011
 40
0.5000000000000011
 40
0.6250000000000008
 40
0.6250000000000008
 40
0.7500000000000005
 40
0.7500000000000005
 40
1.0
 40
1.0
 40
1.0
 40
1.0
 10
4260.200993873101
 20
2419.933605646265
 30
0.0
 10
4260.201421428867
 20
2419.93351639543
 30
0.0
 10
4260.201759310001
 20
2419.93342267104
 30
0.0
 10
4260.202133819124
 20
2419.933275483836
 30
0.0
 10
4260.202236421202
 20
2419.933225120909
 30
0.0
 10
4260.202392094405
 20
2419.933124434989
 30
0.0
 10
4260.202445985409
 20
2419.93307386018
 30
0.0
 10
4260.202506593132
 20
2419.932972253802
 30
0.0
 10
4260.202513311319
 20
2419.932921222249
 30
0.0
 10
4260.202478419125
 20
2419.932818691208
 30
0.0
 10
4260.202436322592
 20
2419.932767042812
 30
0.0
 10
4260.202239364008
 20
2419.932615077082
 30
0.0
 10
4260.202015005055
 20
2419.932516524097
 30
0.0
 10
4260.201694840082
 20
2419.932420810187
 30
0.0
  0
SPLINE
  5
152A
330
1F
100
AcDbEntity
  8
SANINDUSA
100
AcDbSpline
210
0.0
220
0.0
230
1.0
 70
     8
 71
     3
 72
    18
 73
    14
 74
     0
 42
0.0000000001
 43
0.0000000001
 40
0.0
 40
0.0
 40
0.0
 40
0.0
 40
0.1250000000000004
 40
0.1250000000000004
 40
0.2500000000000009
 40
0.2500000000000009
 40
0.5000000000000007
 40
0.5000000000000007
 40
0.7500000000000005
 40
0.7500000000000005
 40
0.8750000000000003
 40
0.8750000000000003
 40
1.0
 40
1.0
 40
1.0
 40
1.0
 10
4260.168541764825
 20
2419.941107894754
 30
0.0
 10
4260.169770222517
 20
2419.940787637423
 30
0.0
 10
4260.17103317543
 20
2419.940469437837
 30
0.0
 10
4260.173591471554
 20
2419.939834970846
 30
0.0
 10
4260.174887974045
 20
2419.939518767979
 30
0.0
 10
4260.17881318981
 20
2419.938572318055
 30
0.0
 10
4260.181476316724
 20
2419.937944349077
 30
0.0
 10
4260.186886277071
 20
2419.93669382868
 30
0.0
 10
4260.189634347123
 20
2419.936071357296
 30
0.0
 10
4260.193829913275
 20
2419.935142404685
 30
0.0
 10
4260.19524071816
 20
2419.93483352564
 30
0.0
 10
4260.198091691647
 20
2419.934217806268
 30
0.0
 10
4260.199531391107
 20
2419.933910934481
 30
0.0
 10
4260.200993873101
 20
2419.933605646265
 30
0.0
  0
SPLINE
  5
152B
330
1F
100
AcDbEntity
  8
SANINDUSA
100
AcDbSpline
210
0.0
220
0.0
230
1.0
 70
     8
 71
     3
 72
     8
 73
     4
 74
     0
 42
0.0000000001
 43
0.0000000001
 40
0.0
 40
0.0
 40
0.0
 40
0.0
 40
1.0
 40
1.0
 40
1.0
 40
1.0
 10
4260.163973713104
 20
2419.942227383732
 30
0.0
 10
4260.165584448967
 20
2419.941859557026
 30
0.0
 10
4260.167093150458
 20
2419.941485546645
 30
0.0
 10
4260.168541764825
 20
2419.941107894754
 30
0.0
  0
LINE
  5
152C
330
1F
100
AcDbEntity
  8
SANINDUSA
100
AcDbLine
 10
4260.141757753809
 20
2419.947300605478
 30
0.0
 11
4260.16397371622
 21
2419.942227382215
 31
0.0
  0
ELLIPSE
  5
152D
330
1F
100
AcDbEntity
  8
SANINDUSA
100
AcDbEllipse
 10
4260.1355789615
 20
2419.946899544456
 30
0.0
 11
0.0070062037113044
 21
-0.0000019093984315
 31
0.0
210
0.0
220
0.0
230
1.0
 40
0.1219282272495556
 41
0.4909448904402535
 42
1.573031487830712
  0
LINE
  5
152E
330
1F
100
AcDbEntity
  8
SANINDUSA
100
AcDbLine
 10
4260.005254578908
 20
2419.947753801944
 30
0.0
 11
4260.135563534816
 21
2419.947753801944
 31
0.0
  0
ELLIPSE
  5
152F
330
1F
100
AcDbEntity
  8
SANINDUSA
100
AcDbEllipse
 10
4260.005239152226
 20
2419.946899544456
 30
0.0
 11
0.0070062037113044
 21
0.0000019093984312
 31
0.0
210
0.0
220
0.0
230
1.0
 40
0.1219282272495556
 41
1.568561165759085
 42
2.650647763149804
  0
LINE
  5
1530
330
1F
100
AcDbEntity
  8
SANINDUSA
100
AcDbLine
 10
4259.976844397505
 20
2419.942227382215
 30
0.0
 11
4259.999060359915
 21
2419.947300605478
 31
0.0
  0
SPLINE
  5
1531
330
1F
100
AcDbEntity
  8
SANINDUSA
100
AcDbSpline
210
0.0
220
0.0
230
1.0
 70
     8
 71
     3
 72
     8
 73
     4
 74
     0
 42
0.0000000001
 43
0.0000000001
 40
0.0
 40
0.0
 40
0.0
 40
0.0
 40
1.0
 40
1.0
 40
1.0
 40
1.0
 10
4259.972276348899
 20
2419.941107894754
 30
0.0
 10
4259.973724963265
 20
2419.941485546645
 30
0.0
 10
4259.975233664758
 20
2419.941859557026
 30
0.0
 10
4259.97684440062
 20
2419.942227383732
 30
0.0
  0
SPLINE
  5
1532
330
1F
100
AcDbEntity
  8
SANINDUSA
100
AcDbSpline
210
0.0
220
0.0
230
1.0
 70
     8
 71
     3
 72
    18
 73
    14
 74
     0
 42
0.0000000001
 43
0.0000000001
 40
0.0
 40
0.0
 40
0.0
 40
0.0
 40
0.1250000000000004
 40
0.1250000000000004
 40
0.2500000000000009
 40
0.2500000000000009
 40
0.5000000000000007
 40
0.5000000000000007
 40
0.7500000000000006
 40
0.7500000000000006
 40
0.8750000000000003
 40
0.8750000000000003
 40
1.0
 40
1.0
 40
1.0
 40
1.0
 10
4259.939824240625
 20
2419.933605646265
 30
0.0
 10
4259.941286704583
 20
2419.933910930716
 30
0.0
 10
4259.942726364663
 20
2419.934217794086
 30
0.0
 10
4259.945577234716
 20
2419.934833490684
 30
0.0
 10
4259.946988046216
 20
2419.935142370715
 30
0.0
 10
4259.951183756227
 20
2419.936071354638
 30
0.0
 10
4259.953931885492
 20
2419.936693839718
 30
0.0
 10
4259.959341905826
 20
2419.937944374482
 30
0.0
 10
4259.962005034184
 20
2419.938572344328
 30
0.0
 10
4259.965930208814
 20
2419.939518784806
 30
0.0
 10
4259.967226696569
 20
2419.93983498422
 30
0.0
 10
4259.969784964925
 20
2419.940469444558
 30
0.0
 10
4259.971047904178
 20
2419.940787640804
 30
0.0
 10
4259.972276348899
 20
2419.941107894754
 30
0.0
  0
SPLINE
  5
1533
330
1F
100
AcDbEntity
  8
SANINDUSA
100
AcDbSpline
210
0.0
220
0.0
230
1.0
 70
     8
 71
     3
 72
    18
 73
    14
 74
     0
 42
0.0000000001
 43
0.0000000001
 40
0.0
 40
0.0
 40
0.0
 40
0.0
 40
0.249999999999998
 40
0.249999999999998
 40
0.3749999999999971
 40
0.3749999999999971
 40
0.4999999999999961
 40
0.4999999999999961
 40
0.6249999999999952
 40
0.6249999999999952
 40
0.7499999999999943
 40
0.7499999999999943
 40
1.0
 40
1.0
 40
1.0
 40
1.0
 10
4259.939123273642
 20
2419.932420810187
 30
0.0
 10
4259.938803059887
 20
2419.93251653868
 30
0.0
 10
4259.938579209587
 20
2419.932614947543
 30
0.0
 10
4259.938382443719
 20
2419.932766427419
 30
0.0
 10
4259.938340196036
 20
2419.932817828398
 30
0.0
 10
4259.938304749013
 20
2419.932920776192
 30
0.0
 10
4259.938311414225
 20
2419.932971935554
 30
0.0
 10
4259.938371917472
 20
2419.933073645904
 30
0.0
 10
4259.938425759835
 20
2419.933124196836
 30
0.0
 10
4259.938580912889
 20
2419.933224686513
 30
0.0
 10
4259.938682924
 20
2419.933274884194
 30
0.0
 10
4259.939058111704
 20
2419.933422520188
 30
0.0
 10
4259.939396623319
 20
2419.933516382584
 30
0.0
 10
4259.939824240625
 20
2419.933605646265
 30
0.0
  0
SPLINE
  5
1534
330
1F
100
AcDbEntity
  8
SANINDUSA
100
AcDbSpline
210
0.0
220
0.0
230
1.0
 70
     8
 71
     3
 72
    16
 73
    12
 74
     0
 42
0.0000000001
 43
0.0000000001
 40
0.0
 40
0.0
 40
0.0
 40
0.0
 40
0.1250000000000008
 40
0.1250000000000008
 40
0.2500000000000002
 40
0.2500000000000002
 40
0.5000000000000002
 40
0.5000000000000002
 40
0.7500000000000002
 40
0.7500000000000002
 40
1.0
 40
1.0
 40
1.0
 40
1.0
 10
4259.958177207967
 20
2419.925939800839
 30
0.0
 10
4259.957493920256
 20
2419.926214449199
 30
0.0
 10
4259.956783261024
 20
2419.926488021872
 30
0.0
 10
4259.955332632076
 20
2419.92703401533
 30
0.0
 10
4259.954591947002
 20
2419.927306410053
 30
0.0
 10
4259.952335509249
 20
2419.928122230528
 30
0.0
 10
4259.950786094766
 20
2419.928664108241
 30
0.0
 10
4259.947603629775
 20
2419.929744151787
 30
0.0
 10
4259.945970473228
 20
2419.930282312913
 30
0.0
 10
4259.942617817073
 20
2419.931354803144
 30
0.0
 10
4259.940901116784
 20
2419.9318893207
 30
0.0
 10
4259.939123273642
 20
2419.932420810187
 30
0.0
  0
SPLINE
  5
1535
330
1F
100
AcDbEntity
  8
SANINDUSA
100
AcDbSpline
210
0.0
220
0.0
230
1.0
 70
    24
 71
     1
 72
     4
 73
     2
 74
     0
 42
0.0000000001
 43
0.0000000001
 40
0.0
 40
0.0
 40
1.0
 40
1.0
 10
4259.960873787423
 20
2419.924943912776
 30
0.0
 10
4259.958177206239
 20
2419.925939802082
 30
0.0
  0
LINE
  5
1536
330
1F
100
AcDbEntity
  8
SANINDUSA
100
AcDbLine
 10
4259.989864145537
 20
2419.905983846637
 30
0.0
 11
4260.011101377329
 21
2419.905983846637
 31
0.0
  0
ELLIPSE
  5
1538
330
1F
100
AcDbEntity
  8
SANINDUSA
100
AcDbEllipse
 10
4259.984985710024
 20
2419.906651976758
 30
0.0
 11
0.0070366664332575
 21
-0.0000171679636094
 31
0.0
210
0.0
220
0.0
230
1.0
 40
0.1234793150816174
 41
5.440797110196578
 42
6.654198352357123
  0
LINE
  5
1539
330
1F
100
AcDbEntity
  8
SANINDUSA
100
AcDbLine
 10
4259.926576164683
 20
2419.927746772768
 30
0.0
 11
4259.991544370671
 21
2419.906950999053
 31
0.0
  0
ELLIPSE
  5
153A
330
1F
100
AcDbEntity
  8
SANINDUSA
100
AcDbEllipse
 10
4259.920034585778
 20
2419.927442279134
 30
0.0
 11
0.0070004032364165
 21
0.0000004332379035
 31
0.0
210
0.0
220
0.0
230
0.9999999999999998
 40
0.1219946179464891
 41
0.3640580790242549
 42
2.650825208237234
  0
LINE
  5
153B
330
1F
100
AcDbEntity
  8
SANINDUSA
100
AcDbLine
 10
4259.849427578171
 20
2419.913130553441
 30
0.0
 11
4259.91386040779
 21
2419.927844394
 31
0.0
  0
ELLIPSE
  5
153C
330
1F
100
AcDbEntity
  8
SANINDUSA
100
AcDbEllipse
 10
4259.860024023646
 20
2419.912443981818
 30
0.0
 11
0.0120296179288742
 21
0.0000109564713824
 31
0.0
210
0.0
220
0.0
230
1.0
 40
0.122237189242353
 41
2.648366380834822
 42
3.132933329004235
  0
LINE
  5
153D
330
1F
100
AcDbEntity
  8
SANINDUSA
100
AcDbLine
 10
4259.847632599195
 20
2419.907265478747
 30
0.0
 11
4259.847994846423
 21
2419.912445759403
 31
0.0
  0
ELLIPSE
  5
153E
330
1F
100
AcDbEntity
  8
SANINDUSA
100
AcDbEllipse
 10
4259.859662414383
 20
2419.907272728432
 30
0.0
 11
0.0120302604974164
 21
0.0000204636333419
 31
0.0
210
0.0
220
0.0
230
1.0
 40
0.1238263683797913
 41
3.132722417649235
 42
4.158955376123947
  0
LINE
  5
1540
330
1F
100
AcDbEntity
  8
SANINDUSA
100
AcDbLine
 10
4259.853090313395
 20
2419.905983846637
 30
0.0
 11
4259.823611122688
 21
2419.905983846637
 31
0.0
  0
LINE
  5
1542
330
1F
100
AcDbEntity
  8
SANINDUSA
100
AcDbLine
 10
4260.28772780033
 20
2419.905983846637
 30
0.0
 11
4260.317206991037
 21
2419.905983846637
 31
0.0
  0
ELLIPSE
  5
1544
330
1F
100
AcDbEntity
  8
SANINDUSA
100
AcDbEllipse
 10
4260.281155699342
 20
2419.907272728432
 30
0.0
 11
0.0120302604974163
 21
-0.0000204636333419
 31
0.0
210
0.0
220
0.0
230
0.9999999999999998
 40
0.1238263683797916
 41
5.265822584645491
 42
6.292055543120254
  0
LINE
  5
1545
330
1F
100
AcDbEntity
  8
SANINDUSA
100
AcDbLine
 10
4260.292823267302
 20
2419.912445759403
 30
0.0
 11
4260.293185514529
 21
2419.907265478747
 31
0.0
  0
ELLIPSE
  5
1546
330
1F
100
AcDbEntity
  8
SANINDUSA
100
AcDbEllipse
 10
4260.280794090077
 20
2419.912443981818
 30
0.0
 11
0.0120296179288741
 21
-0.0000109564713823
 31
0.0
210
0.0
220
0.0
230
1.0
 40
0.1222371892423541
 41
0.0086593245854624
 42
0.4932262727548894
  0
LINE
  5
1547
330
1F
100
AcDbEntity
  8
SANINDUSA
100
AcDbLine
 10
4260.226957705935
 20
2419.927844394
 30
0.0
 11
4260.291390535553
 21
2419.913130553441
 31
0.0
  0
ELLIPSE
  5
1548
330
1F
100
AcDbEntity
  8
SANINDUSA
100
AcDbEllipse
 10
4260.220783527945
 20
2419.927442279134
 30
0.0
 11
0.0070004032364165
 21
-0.0000004332379032
 31
0.0
210
0.0
220
0.0
230
0.9999999999999998
 40
0.1219946179464897
 41
0.4907674453523006
 42
2.777534574565247
  0
LINE
  5
1549
330
1F
100
AcDbEntity
  8
SANINDUSA
100
AcDbLine
 10
4260.149273743053
 20
2419.906950999053
 30
0.0
 11
4260.214241949042
 21
2419.927746772768
 31
0.0
  0
ELLIPSE
  5
154A
330
1F
100
AcDbEntity
  8
SANINDUSA
100
AcDbEllipse
 10
4260.155832403702
 20
2419.906651976758
 30
0.0
 11
0.0070366664332575
 21
0.0000171679636092
 31
0.0
210
0.0
220
0.0
230
1.0
 40
0.1234793150816187
 41
2.770579608412504
 42
3.983980850572964
  0
LINE
  5
154C
330
1F
100
AcDbEntity
  8
SANINDUSA
100
AcDbLine
 10
4260.150953968188
 20
2419.905983846637
 30
0.0
 11
4260.129716736396
 21
2419.905983846637
 31
0.0
  0
ELLIPSE
  5
154D
330
1F
100
AcDbEntity
  8
SANINDUSA
100
AcDbEllipse
 10
4260.285105552862
 20
2419.922465126598
 30
0.0
 11
0.0070186160920184
 21
-0.0000265108400704
 31
0.0
210
0.0
220
0.0
230
1.0
 40
0.1317553798700206
 41
3.656367091558443
 42
6.292898469717641
  0
LINE
  5
154E
330
1F
100
AcDbEntity
  8
SANINDUSA
100
AcDbLine
 10
4260.290413734635
 20
2419.946903701874
 30
0.0
 11
4260.292123866399
 21
2419.922447599473
 31
0.0
  0
ELLIPSE
  5
154F
330
1F
100
AcDbEntity
  8
SANINDUSA
100
AcDbEllipse
 10
4260.28339693192
 20
2419.946899544456
 30
0.0
 11
0.0070170568645229
 21
-0.000003162248678
 31
0.0
210
0.0
220
0.0
230
0.9999999999999998
 40
0.1217391130940576
 41
0.0085677503573788
 42
1.574498092320559
  0
LINE
  5
1550
330
1F
100
AcDbEntity
  8
SANINDUSA
100
AcDbLine
 10
4260.182012465913
 20
2419.947753801944
 30
0.0
 11
4260.283371341546
 21
2419.947753801944
 31
0.0
  0
ELLIPSE
  5
1551
330
1F
100
AcDbEntity
  8
SANINDUSA
100
AcDbEllipse
 10
4260.181970014455
 20
2419.946899544456
 30
0.0
 11
0.0070468340380125
 21
0.0000052226838002
 31
0.0
210
0.0
220
0.0
230
0.9999999999999998
 40
0.1212232560611484
 41
1.564682567537768
 42
3.613198318600388
  0
LINE
  5
1552
330
1F
100
AcDbEntity
  8
SANINDUSA
100
AcDbLine
 10
4260.278994795998
 20
2419.922032915058
 30
0.0
 11
4260.175692697187
 21
2419.946506794544
 31
0.0
  0
ELLIPSE
  5
1553
330
1F
100
AcDbEntity
  8
SANINDUSA
100
AcDbEllipse
 10
4259.857421181805
 20
2419.946899544456
 30
0.0
 11
0.0070170568645228
 21
0.000003162248678
 31
0.0
210
0.0
220
0.0
230
0.9999999999999998
 40
0.1217391130940582
 41
1.567094561269248
 42
3.133024903232414
  0
LINE
  5
1554
330
1F
100
AcDbEntity
  8
SANINDUSA
100
AcDbLine
 10
4259.848694247326
 20
2419.922447599473
 30
0.0
 11
4259.85040437909
 21
2419.946903701874
 31
0.0
  0
ELLIPSE
  5
1555
330
1F
100
AcDbEntity
  8
SANINDUSA
100
AcDbEllipse
 10
4259.855712560862
 20
2419.922465126598
 30
0.0
 11
0.0070186160920185
 21
0.0000265108400701
 31
0.0
210
0.0
220
0.0
230
1.0
 40
0.1317553798700194
 41
3.131879491052152
 42
5.768410869211188
  0
LINE
  5
1556
330
1F
100
AcDbEntity
  8
SANINDUSA
100
AcDbLine
 10
4259.965125416537
 20
2419.946506794544
 30
0.0
 11
4259.861823317726
 21
2419.922032915058
 31
0.0
  0
ELLIPSE
  5
1557
330
1F
100
AcDbEntity
  8
SANINDUSA
100
AcDbEllipse
 10
4259.95884809927
 20
2419.946899544456
 30
0.0
 11
0.0070468340380125
 21
-0.0000052226838002
 31
0.0
210
0.0
220
0.0
230
0.9999999999999998
 40
0.1212232560611484
 41
5.811579642169175
 42
7.860095393231617
  0
LINE
  5
1558
330
1F
100
AcDbEntity
  8
SANINDUSA
100
AcDbLine
 10
4259.857446772178
 20
2419.947753801944
 30
0.0
 11
4259.95880564781
 21
2419.947753801944
 31
0.0
  0
ARC
  5
155A
330
1F
100
AcDbEntity
  8
SANINDUSA
100
AcDbCircle
 10
4259.823604555019
 20
2419.910983847084
 30
0.0
 40
0.005
100
AcDbArc
 50
189.9999999966986
 51
270.0
  0
LINE
  5
155B
330
1F
100
AcDbEntity
  8
SANINDUSA
100
AcDbLine
 10
4259.818680522164
 20
2419.910115607085
 30
0.0
 11
4259.810556617697
 21
2419.956188574435
 31
0.0
  0
LINE
  5
156D
330
1F
100
AcDbEntity
  8
SANINDUSA
100
AcDbLine
 10
4260.070409056862
 20
2419.875983847307
 30
0.0
 11
4260.036909056028
 21
2419.875983847307
 31
0.0
  0
LINE
  5
156E
330
1F
100
AcDbEntity
  8
SANINDUSA
100
AcDbLine
 10
4260.103909057696
 20
2419.875983847307
 30
0.0
 11
4260.070409056862
 21
2419.875983847307
 31
0.0
  0
LINE
  5
158C
330
1F
100
AcDbEntity
  8
SANINDUSA
100
AcDbLine
 10
4260.28772780033
 20
2419.905983846637
 30
0.0
 11
4260.281303313692
 21
2419.905983846637
 31
0.0
  0
LINE
  5
158D
330
1F
100
AcDbEntity
  8
SANINDUSA
100
AcDbLine
 10
4259.859514800032
 20
2419.905983846637
 30
0.0
 11
4259.853090313395
 21
2419.905983846637
 31
0.0
  0
LINE
  5
1590
330
1F
100
AcDbEntity
  8
SANINDUSA
100
AcDbLine
 10
4260.155717280825
 20
2419.905983846637
 30
0.0
 11
4260.150953968188
 21
2419.905983846637
 31
0.0
  0
LINE
  5
1591
330
1F
100
AcDbEntity
  8
SANINDUSA
100
AcDbLine
 10
4259.989864145537
 20
2419.905983846637
 30
0.0
 11
4259.985100832899
 21
2419.905983846637
 31
0.0
  0
LINE
  5
1593
330
1F
100
AcDbEntity
  8
SANINDUSA
100
AcDbLine
 10
4260.281303313692
 20
2419.905983846637
 30
0.0
 11
4260.155717280825
 21
2419.905983846637
 31
0.0
  0
LINE
  5
1594
330
1F
100
AcDbEntity
  8
SANINDUSA
100
AcDbLine
 10
4259.985100832899
 20
2419.905983846637
 30
0.0
 11
4259.859514800032
 21
2419.905983846637
 31
0.0
  0
LINE
  5
1597
330
1F
100
AcDbEntity
  8
SANINDUSA
100
AcDbLine
 10
4260.179944326302
 20
2419.924943912776
 30
0.0
 11
4260.129790076186
 21
2419.908084044235
 31
0.0
  0
LINE
  5
1598
330
1F
100
AcDbEntity
  8
SANINDUSA
100
AcDbLine
 10
4260.011028037538
 20
2419.908084044235
 30
0.0
 11
4259.960873787423
 21
2419.924943912776
 31
0.0
  0
SPLINE
  5
15A1
330
1F
100
AcDbEntity
  8
SANINDUSA
100
AcDbSpline
210
0.0
220
0.0
230
1.0
 70
     8
 71
     3
 72
    24
 73
    20
 74
     0
 42
0.0000000001
 43
0.0000000001
 40
0.0
 40
0.0
 40
0.0
 40
0.0
 40
0.037775223249854
 40
0.096073216990432
 40
0.1543727061717953
 40
0.2110866919320441
 40
0.2678018648132268
 40
0.3261993435326595
 40
0.3845976213534817
 40
0.4414005290101177
 40
0.4982039592153992
 40
0.556631127408225
 40
0.6150590763550446
 40
0.6717118773517767
 40
0.728364587490645
 40
0.7866020922589527
 40
0.8448395707124054
 40
0.9219286085772317
 40
1.0
 40
1.0
 40
1.0
 40
1.0
 10
4260.006935429891
 20
2419.917378138753
 30
0.0
 10
4260.007059124482
 20
2419.917389429301
 30
0.0
 10
4260.007373715273
 20
2419.917418144398
 30
0.0
 10
4260.008411972535
 20
2419.917524168519
 30
0.0
 10
4260.009965919793
 20
2419.917676285219
 30
0.0
 10
4260.011958187659
 20
2419.917857782586
 30
0.0
 10
4260.014353451747
 20
2419.918056334385
 30
0.0
 10
4260.017174646034
 20
2419.918264606505
 30
0.0
 10
4260.020377332335
 20
2419.918473778677
 30
0.0
 10
4260.023901540756
 20
2419.918676016884
 30
0.0
 10
4260.027743472856
 20
2419.918870834881
 30
0.0
 10
4260.031921982483
 20
2419.919056820096
 30
0.0
 10
4260.036366567101
 20
2419.91922871878
 30
0.0
 10
4260.040999430943
 20
2419.919381037328
 30
0.0
 10
4260.045824573707
 20
2419.919511438689
 30
0.0
 10
4260.050865618444
 20
2419.919616795749
 30
0.0
 10
4260.056653780503
 20
2419.919703339915
 30
0.0
 10
4260.063182105936
 20
2419.919761644046
 30
0.0
 10
4260.067989926776
 20
2419.919768944289
 30
0.0
 10
4260.070409056862
 20
2419.919772617521
 30
0.0
  0
SPLINE
  5
15A2
330
1F
100
AcDbEntity
  8
SANINDUSA
100
AcDbSpline
210
0.0
220
0.0
230
1.0
 70
     8
 71
     3
 72
    10
 73
     6
 74
     0
 42
0.0000000001
 43
0.0000000001
 40
0.0
 40
0.0
 40
0.0
 40
0.0
 40
0.3065150847616385
 40
0.7662530141831608
 40
1.0
 40
1.0
 40
1.0
 40
1.0
 10
4259.947640230079
 20
2419.935227729382
 30
0.0
 10
4259.948212074001
 20
2419.934761413741
 30
0.0
 10
4259.949641619072
 20
2419.933595677425
 30
0.0
 10
4259.95147359909
 20
2419.932448099512
 30
0.0
 10
4259.952930045057
 20
2419.931879608452
 30
0.0
 10
4259.95342095675
 20
2419.931687992068
 30
0.0
  0
SPLINE
  5
15A3
330
1F
100
AcDbEntity
  8
SANINDUSA
100
AcDbSpline
210
0.0
220
0.0
230
1.0
 70
     8
 71
     3
 72
    24
 73
    20
 74
     0
 42
0.0000000001
 43
0.0000000001
 40
0.0
 40
0.0
 40
0.0
 40
0.0
 40
0.037771959352494
 40
0.0960701508417399
 40
0.1543698377768437
 40
0.2110840159127544
 40
0.2677993811736259
 40
0.3261970579791828
 40
0.3845955338888397
 40
0.4413986342227636
 40
0.4982022571071055
 40
0.5566296234867632
 40
0.6150577706230629
 40
0.6717107637879164
 40
0.7283636660945977
 40
0.786601368406393
 40
0.8448390444032439
 40
0.9219283437565636
 40
1.0
 40
1.0
 40
1.0
 40
1.0
 10
4260.13388264658
 20
2419.917378142478
 30
0.0
 10
4260.133758961947
 20
2419.917389432043
 30
0.0
 10
4260.133444379341
 20
2419.917418146206
 30
0.0
 10
4260.132406140024
 20
2419.917524168683
 30
0.0
 10
4260.130852194236
 20
2419.917676285177
 30
0.0
 10
4260.128859925986
 20
2419.917857782598
 30
0.0
 10
4260.126464662
 20
2419.918056334382
 30
0.0
 10
4260.123643467685
 20
2419.918264606506
 30
0.0
 10
4260.120440781392
 20
2419.918473778676
 30
0.0
 10
4260.116916572968
 20
2419.918676016884
 30
0.0
 10
4260.113074640869
 20
2419.918870834881
 30
0.0
 10
4260.10889613124
 20
2419.919056820096
 30
0.0
 10
4260.104451546623
 20
2419.91922871878
 30
0.0
 10
4260.099818682783
 20
2419.919381037328
 30
0.0
 10
4260.094993540016
 20
2419.919511438689
 30
0.0
 10
4260.08995249528
 20
2419.919616795749
 30
0.0
 10
4260.084164333223
 20
2419.919703339915
 30
0.0
 10
4260.077636007788
 20
2419.919761644046
 30
0.0
 10
4260.072828186948
 20
2419.919768944289
 30
0.0
 10
4260.070409056862
 20
2419.919772617521
 30
0.0
  0
SPLINE
  5
15A4
330
1F
100
AcDbEntity
  8
SANINDUSA
100
AcDbSpline
210
0.0
220
0.0
230
1.0
 70
     8
 71
     3
 72
    10
 73
     6
 74
     0
 42
0.0000000001
 43
0.0000000001
 40
0.0
 40
0.0
 40
0.0
 40
0.0
 40
0.2236185612974837
 40
0.6887271025189788
 40
1.0
 40
1.0
 40
1.0
 40
1.0
 10
4260.187398222407
 20
2419.931686971338
 30
0.0
 10
4260.187868099438
 20
2419.931869446733
 30
0.0
 10
4260.189315282734
 20
2419.932431456206
 30
0.0
 10
4260.191146900335
 20
2419.933573863793
 30
0.0
 10
4260.19259452525
 20
2419.934753355649
 30
0.0
 10
4260.193174918314
 20
2419.935226246717
 30
0.0
  0
LINE
  5
15B3
330
1F
100
AcDbEntity
  8
SANINDUSA
100
AcDbLine
 10
4260.070409056862
 20
2419.888259425063
 30
0.0
 11
4260.031505369712
 21
2419.888259425063
 31
0.0
  0
LINE
  5
15B4
330
1F
100
AcDbEntity
  8
SANINDUSA
100
AcDbLine
 10
4260.109312744011
 20
2419.888259425063
 30
0.0
 11
4260.070409056862
 21
2419.888259425063
 31
0.0
  0
SPLINE
  5
15D1
330
1F
100
AcDbEntity
  8
SANINDUSA
100
AcDbSpline
210
0.0
220
0.0
230
1.0
 70
    24
 71
     1
 72
     4
 73
     2
 74
     0
 42
0.0000000001
 43
0.0000000001
 40
0.0
 40
0.0
 40
1.0
 40
1.0
 10
4258.923327891601
 20
2420.143069078813
 30
0.0
 10
4258.923327891601
 20
2419.818069083284
 30
0.0
  0
SPLINE
  5
15D2
330
1F
100
AcDbEntity
  8
SANINDUSA
100
AcDbSpline
210
0.0
220
0.0
230
1.0
 70
     8
 71
     3
 72
    30
 73
    26
 74
     0
 42
0.0000000001
 43
0.0000000001
 40
0.0
 40
0.0
 40
0.0
 40
0.0
 40
0.053252918435721
 40
0.106483027601706
 40
0.1596869892793603
 40
0.2130740718316088
 40
0.2662598725095873
 40
0.3178520303967543
 40
0.3695734248935056
 40
0.4211418552321201
 40
0.4590073836660647
 40
0.4969487275412338
 40
0.5347687601604577
 40
0.5682035069978846
 40
0.6040803260384516
 40
0.6400809579194392
 40
0.6759627485868834
 40
0.7085821401534957
 40
0.7543905369028173
 40
0.8004124227200524
 40
0.8462455305590699
 40
0.890865002026349
 40
0.9356605997449662
 40
0.9802942472299667
 40
1.0
 40
1.0
 40
1.0
 40
1.0
 10
4259.23923340298
 20
2420.06791966189
 30
0.0
 10
4259.235575430901
 20
2420.067891146635
 30
0.0
 10
4259.228261053523
 20
2420.067834128338
 30
0.0
 10
4259.217310572165
 20
2420.067711709617
 30
0.0
 10
4259.206451383596
 20
2420.068304924252
 30
0.0
 10
4259.195862358487
 20
2420.069832978103
 30
0.0
 10
4259.185794588328
 20
2420.072311862445
 30
0.0
 10
4259.176354166706
 20
2420.075661455079
 30
0.0
 10
4259.167545782665
 20
2420.079725559601
 30
0.0
 10
4259.160110113998
 20
2420.084158481026
 30
0.0
 10
4259.153978325518
 20
2420.08876569675
 30
0.0
 10
4259.149040037327
 20
2420.093378938872
 30
0.0
 10
4259.14490314389
 20
2420.0983110553
 30
0.0
 10
4259.141510951287
 20
2420.10360796673
 30
0.0
 10
4259.13888854886
 20
2420.109223904303
 30
0.0
 10
4259.136982302261
 20
2420.115319350689
 30
0.0
 10
4259.135902800103
 20
2420.121491505401
 30
0.0
 10
4259.135541150064
 20
2420.128429214765
 30
0.0
 10
4259.136127071632
 20
2420.13611703356
 30
0.0
 10
4259.137965897398
 20
2420.144619229482
 30
0.0
 10
4259.140903766595
 20
2420.15290447824
 30
0.0
 10
4259.144896972617
 20
2420.160824311896
 30
0.0
 10
4259.149816881325
 20
2420.168257345596
 30
0.0
 10
4259.154509924068
 20
2420.173909665941
 30
0.0
 10
4259.157594616676
 20
2420.176979464085
 30
0.0
 10
4259.158539390636
 20
2420.177919676195
 30
0.0
  0
SPLINE
  5
15D4
330
1F
100
AcDbEntity
  8
SANINDUSA
100
AcDbSpline
210
0.0
220
0.0
230
1.0
 70
     8
 71
     3
 72
    17
 73
    13
 74
     0
 42
0.0000000001
 43
0.0000000001
 40
0.0
 40
0.0
 40
0.0
 40
0.0
 40
0.0935786838159154
 40
0.1881758668694366
 40
0.2827431835932397
 40
0.3931104429407412
 40
0.5034424041894951
 40
0.6045278356434114
 40
0.7056317085473069
 40
0.8064514012868896
 40
0.9072858502856149
 40
1.0
 40
1.0
 40
1.0
 40
1.0
 10
4259.23923340298
 20
2420.112870981585
 30
0.0
 10
4259.237227376677
 20
2420.11294456265
 30
0.0
 10
4259.23319349072
 20
2420.113092525629
 30
0.0
 10
4259.227242228546
 20
2420.114349691763
 30
0.0
 10
4259.221184161004
 20
2420.116501653409
 30
0.0
 10
4259.215272111374
 20
2420.119823124438
 30
0.0
 10
4259.209944650742
 20
2420.124239341274
 30
0.0
 10
4259.20565250569
 20
2420.129404198981
 30
0.0
 10
4259.202365404576
 20
2420.135029298287
 30
0.0
 10
4259.200086359411
 20
2420.141121040875
 30
0.0
 10
4259.198765719201
 20
2420.147324231972
 30
0.0
 10
4259.198695771328
 20
2420.151476096604
 30
0.0
 10
4259.198662264718
 20
2420.153464933525
 30
0.0
  0
SPLINE
  5
15D7
330
1F
100
AcDbEntity
  8
SANINDUSA
100
AcDbSpline
210
0.0
220
0.0
230
1.0
 70
     8
 71
     3
 72
    30
 73
    26
 74
     0
 42
0.0000000001
 43
0.0000000001
 40
0.0
 40
0.0
 40
0.0
 40
0.0
 40
0.0532529184357843
 40
0.1064830276017658
 40
0.1596869892794165
 40
0.2130740718316613
 40
0.2662598725096363
 40
0.3178520303967999
 40
0.3695734248935477
 40
0.4211418552321588
 40
0.4590073836661008
 40
0.4969487275412674
 40
0.5347687601604888
 40
0.5682035069979135
 40
0.6040803260384781
 40
0.6400809579194632
 40
0.6759627485869051
 40
0.7085821401535151
 40
0.7543905369028338
 40
0.8004124227200657
 40
0.8462455305590802
 40
0.8908650020263563
 40
0.9356605997449706
 40
0.9802942472299681
 40
1.0
 40
1.0
 40
1.0
 40
1.0
 10
4259.23923340298
 20
2420.06791966189
 30
0.0
 10
4259.24289137506
 20
2420.067891146635
 30
0.0
 10
4259.250205752437
 20
2420.067834128338
 30
0.0
 10
4259.261156233795
 20
2420.067711709617
 30
0.0
 10
4259.272015422363
 20
2420.068304924252
 30
0.0
 10
4259.282604447473
 20
2420.069832978103
 30
0.0
 10
4259.292672217632
 20
2420.072311862445
 30
0.0
 10
4259.302112639255
 20
2420.075661455079
 30
0.0
 10
4259.310921023295
 20
2420.079725559601
 30
0.0
 10
4259.318356691962
 20
2420.084158481026
 30
0.0
 10
4259.324488480442
 20
2420.08876569675
 30
0.0
 10
4259.329426768634
 20
2420.093378938872
 30
0.0
 10
4259.33356366207
 20
2420.0983110553
 30
0.0
 10
4259.336955854673
 20
2420.10360796673
 30
0.0
 10
4259.339578257101
 20
2420.109223904303
 30
0.0
 10
4259.341484503699
 20
2420.115319350689
 30
0.0
 10
4259.342564005858
 20
2420.121491505401
 30
0.0
 10
4259.342925655897
 20
2420.128429214765
 30
0.0
 10
4259.342339734329
 20
2420.13611703356
 30
0.0
 10
4259.340500908562
 20
2420.144619229482
 30
0.0
 10
4259.337563039365
 20
2420.15290447824
 30
0.0
 10
4259.333569833342
 20
2420.160824311896
 30
0.0
 10
4259.328649924635
 20
2420.168257345596
 30
0.0
 10
4259.323956881892
 20
2420.173909665941
 30
0.0
 10
4259.320872189284
 20
2420.176979464085
 30
0.0
 10
4259.319927415324
 20
2420.177919676195
 30
0.0
  0
SPLINE
  5
15D8
330
1F
100
AcDbEntity
  8
SANINDUSA
100
AcDbSpline
210
0.0
220
0.0
230
1.0
 70
     8
 71
     3
 72
    17
 73
    13
 74
     0
 42
0.0000000001
 43
0.0000000001
 40
0.0
 40
0.0
 40
0.0
 40
0.0
 40
0.0936276288508904
 40
0.1883520726549966
 40
0.2830647579464761
 40
0.3884321370480572
 40
0.4937780100367543
 40
0.5949419550965515
 40
0.6961282646966395
 40
0.7965048408139141
 40
0.8969196279875013
 40
1.0
 40
1.0
 40
1.0
 40
1.0
 10
4259.279804541242
 20
2420.153464933525
 30
0.0
 10
4259.279770231455
 20
2420.151456363187
 30
0.0
 10
4259.279701209953
 20
2420.147415692812
 30
0.0
 10
4259.278454485429
 20
2420.141449448379
 30
0.0
 10
4259.276313938263
 20
2420.135492129202
 30
0.0
 10
4259.273084983554
 20
2420.129770020576
 30
0.0
 10
4259.26884285413
 20
2420.124577433463
 30
0.0
 10
4259.263809204634
 20
2420.120292456787
 30
0.0
 10
4259.258226215203
 20
2420.116952928786
 30
0.0
 10
4259.25218001947
 20
2420.114610332299
 30
0.0
 10
4259.245806957464
 20
2420.113135956864
 30
0.0
 10
4259.24144363952
 20
2420.112960074638
 30
0.0
 10
4259.23923340298
 20
2420.112870981585
 30
0.0
  0
ARC
  5
15DC
330
1F
100
AcDbEntity
  8
SANINDUSA
100
AcDbCircle
 10
4256.909094461437
 20
2420.209990201732
 30
0.0
 40
2.282321172877321
100
AcDbArc
 50
359.9735133444123
 51
0.0772924893347371
  0
SPLINE
  5
15DD
330
1F
100
AcDbEntity
  8
SANINDUSA
100
AcDbSpline
210
0.0
220
0.0
230
1.0
 70
    24
 71
     3
 72
     9
 73
     5
 74
     0
 42
0.0000000001
 43
0.0000000001
 40
0.0
 40
0.0
 40
0.0
 40
0.0
 40
0.4985086036619773
 40
1.0
 40
1.0
 40
1.0
 40
1.0
 10
4259.191413557601
 20
2420.213069071661
 30
0.0
 10
4259.194225295604
 20
2420.213069071661
 30
0.0
 10
4259.199865595454
 20
2420.213069071661
 30
0.0
 10
4259.205455954328
 20
2420.213069071661
 30
0.0
 10
4259.208259471205
 20
2420.213069071661
 30
0.0
  0
SPLINE
  5
15DE
330
1F
100
AcDbEntity
  8
SANINDUSA
100
AcDbSpline
210
0.0
220
0.0
230
1.0
 70
     8
 71
     3
 72
    14
 73
    10
 74
     0
 42
0.0000000001
 43
0.0000000001
 40
0.0
 40
0.0
 40
0.0
 40
0.0
 40
0.0390718482916634
 40
0.0902829838654535
 40
0.1894222697460429
 40
0.3510995152992122
 40
0.5133907941697626
 40
0.7568102497324438
 40
1.0
 40
1.0
 40
1.0
 40
1.0
 10
4259.19913063429
 20
2420.209067960869
 30
0.0
 10
4259.19914760174
 20
2420.209211165212
 30
0.0
 10
4259.19918680828
 20
2420.209542066257
 30
0.0
 10
4259.199575046512
 20
2420.210134027512
 30
0.0
 10
4259.200434968147
 20
2420.210864182306
 30
0.0
 10
4259.201758085406
 20
2420.211605379885
 30
0.0
 10
4259.203619344063
 20
2420.212323411027
 30
0.0
 10
4259.205795755643
 20
2420.212931064819
 30
0.0
 10
4259.207438491171
 20
2420.21302308386
 30
0.0
 10
4259.208259471205
 20
2420.213069071661
 30
0.0
  0
SPLINE
  5
15E5
330
1F
100
AcDbEntity
  8
SANINDUSA
100
AcDbSpline
210
0.0
220
0.0
230
1.0
 70
     8
 71
     3
 72
    15
 73
    11
 74
     0
 42
0.0000000001
 43
0.0000000001
 40
0.0
 40
0.0
 40
0.0
 40
0.0
 40
0.23923925979964
 40
0.478703039456075
 40
0.6439037697852019
 40
0.803343896867171
 40
0.8873052714627359
 40
0.9442009711258585
 40
0.9827476648785502
 40
0.9999999999999998
 40
0.9999999999999998
 40
0.9999999999999998
 40
0.9999999999999998
 10
4259.270207334754
 20
2420.213069071661
 30
0.0
 10
4259.271014850553
 20
2420.21302400685
 30
0.0
 10
4259.272630639983
 20
2420.212933834937
 30
0.0
 10
4259.274793785221
 20
2420.21234587328
 30
0.0
 10
4259.276640210104
 20
2420.211622908433
 30
0.0
 10
4259.277925627531
 20
2420.210927138894
 30
0.0
 10
4259.278771621553
 20
2420.210246377489
 30
0.0
 10
4259.279174120645
 20
2420.209728217796
 30
0.0
 10
4259.279322655094
 20
2420.209335067918
 30
0.0
 10
4259.279332979498
 20
2420.209131042789
 30
0.0
 10
4259.279336171669
 20
2420.209067960869
 30
0.0
  0
ARC
  5
15E7
330
1F
100
AcDbEntity
  8
SANINDUSA
100
AcDbCircle
 10
4261.569372344524
 20
2420.209990201732
 30
0.0
 40
2.282321172877231
100
AcDbArc
 50
179.9227075106652
 51
180.0264866555877
  0
SPLINE
  5
15E9
330
1F
100
AcDbEntity
  8
SANINDUSA
100
AcDbSpline
210
0.0
220
0.0
230
1.0
 70
    24
 71
     3
 72
     9
 73
     5
 74
     0
 42
0.0000000001
 43
0.0000000001
 40
0.0
 40
0.0
 40
0.0
 40
0.0
 40
0.4983918069414317
 40
1.0
 40
1.0
 40
1.0
 40
1.0
 10
4259.270207334754
 20
2420.213069071661
 30
0.0
 10
4259.272993454344
 20
2420.213069071661
 30
0.0
 10
4259.278583673828
 20
2420.213069071661
 30
0.0
 10
4259.284224009682
 20
2420.213069071661
 30
0.0
 10
4259.287053248359
 20
2420.213069071661
 30
0.0
  0
SPLINE
  5
15EA
330
1F
100
AcDbEntity
  8
SANINDUSA
100
AcDbSpline
210
0.0
220
0.0
230
1.0
 70
     8
 71
     3
 72
    12
 73
     8
 74
     0
 42
0.0000000001
 43
0.0000000001
 40
0.0
 40
0.0
 40
0.0
 40
0.0
 40
0.3141751964432703
 40
0.629069801021493
 40
0.7602911977632378
 40
0.8916091144031197
 40
0.9999999999999998
 40
0.9999999999999998
 40
0.9999999999999998
 40
0.9999999999999998
 10
4259.319927415324
 20
2420.177919676195
 30
0.0
 10
4259.316515791683
 20
2420.18115922702
 30
0.0
 10
4259.309684732357
 20
2420.187645746694
 30
0.0
 10
4259.301113652493
 20
2420.19527494815
 30
0.0
 10
4259.294660102515
 20
2420.201151252494
 30
0.0
 10
4259.290501788189
 20
2420.204938798811
 30
0.0
 10
4259.288125788642
 20
2420.207690758252
 30
0.0
 10
4259.287051415515
 20
2420.208935131918
 30
0.0
  0
SPLINE
  5
15EB
330
1F
100
AcDbEntity
  8
SANINDUSA
100
AcDbSpline
210
0.0
220
0.0
230
1.0
 70
     8
 71
     3
 72
    12
 73
     8
 74
     0
 42
0.0000000001
 43
0.0000000001
 40
0.0
 40
0.0
 40
0.0
 40
0.0
 40
0.2499999999999992
 40
0.2499999999999992
 40
0.4999999999999984
 40
0.4999999999999984
 40
1.0
 40
1.0
 40
1.0
 40
1.0
 10
4259.279336172727
 20
2420.209067970234
 30
0.0
 10
4259.279354652842
 20
2420.204434186795
 30
0.0
 10
4259.279397104122
 20
2420.199800551614
 30
0.0
 10
4259.279479846314
 20
2420.19053333852
 30
0.0
 10
4259.279523295154
 20
2420.185899764437
 30
0.0
 10
4259.279650740666
 20
2420.1719990566
 30
0.0
 10
4259.279732512507
 20
2420.162731984954
 30
0.0
 10
4259.279804540986
 20
2420.153464933524
 30
0.0
  0
SPLINE
  5
15EC
330
1F
100
AcDbEntity
  8
SANINDUSA
100
AcDbSpline
210
0.0
220
0.0
230
1.0
 70
     8
 71
     3
 72
    12
 73
     8
 74
     0
 42
0.0000000001
 43
0.0000000001
 40
0.0
 40
0.0
 40
0.0
 40
0.0
 40
0.3141751964432703
 40
0.629069801021493
 40
0.7602911977632378
 40
0.8916091144031197
 40
0.9999999999999998
 40
0.9999999999999998
 40
0.9999999999999998
 40
0.9999999999999998
 10
4259.158539390636
 20
2420.177919676195
 30
0.0
 10
4259.161951014278
 20
2420.18115922702
 30
0.0
 10
4259.168782073603
 20
2420.187645746694
 30
0.0
 10
4259.177353153467
 20
2420.19527494815
 30
0.0
 10
4259.183806703446
 20
2420.201151252494
 30
0.0
 10
4259.187965017772
 20
2420.204938798811
 30
0.0
 10
4259.190341017318
 20
2420.207690758252
 30
0.0
 10
4259.191415390445
 20
2420.208935131918
 30
0.0
  0
SPLINE
  5
15ED
330
1F
100
AcDbEntity
  8
SANINDUSA
100
AcDbSpline
210
0.0
220
0.0
230
1.0
 70
     8
 71
     3
 72
    12
 73
     8
 74
     0
 42
0.0000000001
 43
0.0000000001
 40
0.0
 40
0.0
 40
0.0
 40
0.0
 40
0.4999999999999984
 40
0.4999999999999984
 40
0.7499999999999992
 40
0.7499999999999992
 40
1.0
 40
1.0
 40
1.0
 40
1.0
 10
4259.198662264974
 20
2420.153464933524
 30
0.0
 10
4259.198734293447
 20
2420.162731984176
 30
0.0
 10
4259.198816065327
 20
2420.171999060389
 30
0.0
 10
4259.198943510829
 20
2420.18589976683
 30
0.0
 10
4259.198986959713
 20
2420.190533345924
 30
0.0
 10
4259.199069701846
 20
2420.199800552652
 30
0.0
 10
4259.199112153003
 20
2420.204434157874
 30
0.0
 10
4259.199130633233
 20
2420.209067970234
 30
0.0
  0
LINE
  5
15F1
330
1F
100
AcDbEntity
  8
SANINDUSA
100
AcDbLine
 10
4259.208259471205
 20
2420.213069071661
 30
0.0
 11
4259.270207334754
 21
2420.213069071661
 31
0.0
  0
CIRCLE
  5
15F2
330
1F
100
AcDbEntity
  8
SANINDUSA
100
AcDbCircle
 10
4259.23923340298
 20
2420.153069083582
 30
0.0
 40
0.0175
  0
SPLINE
  5
1603
330
1F
100
AcDbEntity
  8
SANINDUSA
100
AcDbSpline
210
0.0
220
0.0
230
1.0
 70
    24
 71
     1
 72
     4
 73
     2
 74
     0
 42
0.0000000001
 43
0.0000000001
 40
0.0
 40
0.0
 40
1.0
 40
1.0
 10
4258.954233406556
 20
2420.213069071661
 30
0.0
 10
4259.191413557601
 20
2420.213069071661
 30
0.0
  0
SPLINE
  5
1605
330
1F
100
AcDbEntity
  8
SANINDUSA
100
AcDbSpline
210
0.0
220
0.0
230
1.0
 70
    24
 71
     1
 72
     4
 73
     2
 74
     0
 42
0.0000000001
 43
0.0000000001
 40
0.0
 40
0.0
 40
1.0
 40
1.0
 10
4259.287053248359
 20
2420.213069071661
 30
0.0
 10
4259.524230866206
 20
2420.213069071661
 30
0.0
  0
LINE
  5
1618
330
1F
100
AcDbEntity
  8
SANINDUSA
100
AcDbLine
 10
4258.849233417286
 20
2420.213069071661
 30
0.0
 11
4258.954233406556
 21
2420.213069071661
 31
0.0
  0
LINE
  5
161A
330
1F
100
AcDbEntity
  8
SANINDUSA
100
AcDbLine
 10
4259.524230866206
 20
2420.213069071661
 30
0.0
 11
4259.544233410132
 21
2420.213069071661
 31
0.0
  0
ARC
  5
161C
330
1F
100
AcDbEntity
  8
SANINDUSA
100
AcDbCircle
 10
4258.849233402981
 20
2420.203069083582
 30
0.0
 40
0.01
100
AcDbArc
 50
90.0
 51
180.0
  0
ARC
  5
161E
330
1F
100
AcDbEntity
  8
SANINDUSA
100
AcDbCircle
 10
4259.54423340298
 20
2420.203069083582
 30
0.0
 40
0.01
100
AcDbArc
 50
0.0
 51
90.0
  0
LINE
  5
1620
330
1F
100
AcDbEntity
  8
SANINDUSA
100
AcDbLine
 10
4259.554233400596
 20
2420.203069081198
 30
0.0
 11
4259.554233400596
 21
2419.758069083694
 31
0.0
  0
LINE
  5
1622
330
1F
100
AcDbEntity
  8
SANINDUSA
100
AcDbLine
 10
4258.839233397019
 20
2419.758069083694
 30
0.0
 11
4258.839233397019
 21
2420.203069081198
 31
0.0
  0
ARC
  5
1625
330
1F
100
AcDbEntity
  8
SANINDUSA
100
AcDbCircle
 10
4258.889233402981
 20
2420.143069083582
 30
0.0
 40
0.01
100
AcDbArc
 50
90.0
 51
180.0
  0
LINE
  5
1628
330
1F
100
AcDbEntity
  8
SANINDUSA
100
AcDbLine
 10
4258.913319377673
 20
2420.153069069277
 30
0.0
 11
4258.88923340894
 21
2420.153069069277
 31
0.0
  0
LINE
  5
1629
330
1F
100
AcDbEntity
  8
SANINDUSA
100
AcDbLine
 10
4258.879233388674
 20
2420.143069078813
 30
0.0
 11
4258.879233388674
 21
2419.818069083284
 31
0.0
  0
ELLIPSE
  5
162B
330
1F
100
AcDbEntity
  8
SANINDUSA
100
AcDbEllipse
 10
4258.913319367531
 20
2419.818069083582
 30
0.0
 11
0.0100109703121072
 21
0.0000000000000002
 31
0.0
210
0.0
220
0.0
230
1.0
 40
0.998904170947951
 41
4.712388980384693
 42
6.283185307179586
  0
ARC
  5
162D
330
1F
100
AcDbEntity
  8
SANINDUSA
100
AcDbCircle
 10
4258.889233402981
 20
2419.818069083582
 30
0.0
 40
0.01
100
AcDbArc
 50
180.0
 51
270.0
  0
LINE
  5
162F
330
1F
100
AcDbEntity
  8
SANINDUSA
100
AcDbLine
 10
4258.88923340894
 20
2419.80806908537
 30
0.0
 11
4258.913319377673
 21
2419.80806908537
 31
0.0
  0
ARC
  5
1630
330
1F
100
AcDbEntity
  8
SANINDUSA
100
AcDbCircle
 10
4259.54423340298
 20
2419.758069083582
 30
0.0
 40
0.01
100
AcDbArc
 50
270.0
 51
0.0
  0
ARC
  5
1632
330
1F
100
AcDbEntity
  8
SANINDUSA
100
AcDbCircle
 10
4258.849233402981
 20
2419.758069083582
 30
0.0
 40
0.01
100
AcDbArc
 50
180.0
 51
270.0
  0
LINE
  5
1634
330
1F
100
AcDbEntity
  8
SANINDUSA
100
AcDbLine
 10
4259.544233410132
 20
2419.748069083917
 30
0.0
 11
4258.849233417286
 21
2419.748069083917
 31
0.0
  0
SPLINE
  5
1635
330
1F
100
AcDbEntity
  8
SANINDUSA
100
AcDbSpline
210
0.0
220
0.0
230
1.0
 70
     8
 71
     3
 72
    72
 73
    68
 74
     0
 42
0.0000000001
 43
0.0000000001
 40
0.0
 40
0.0
 40
0.0
 40
0.0
 40
0.0625000000000043
 40
0.0625000000000043
 40
0.0781250000000053
 40
0.0781250000000053
 40
0.0937500000000063
 40
0.0937500000000063
 40
0.1250000000000083
 40
0.1250000000000083
 40
0.1562500000000102
 40
0.1562500000000102
 40
0.1718750000000112
 40
0.1718750000000112
 40
0.1875000000000122
 40
0.1875000000000122
 40
0.250000000000015
 40
0.250000000000015
 40
0.2812500000000165
 40
0.2812500000000165
 40
0.2968750000000168
 40
0.2968750000000168
 40
0.3125000000000171
 40
0.3125000000000171
 40
0.375000000000018
 40
0.375000000000018
 40
0.4062500000000185
 40
0.4062500000000185
 40
0.4375000000000189
 40
0.4375000000000189
 40
0.4687500000000194
 40
0.4687500000000194
 40
0.4843750000000194
 40
0.4843750000000194
 40
0.5000000000000192
 40
0.5000000000000192
 40
0.5625000000000176
 40
0.5625000000000176
 40
0.5937500000000164
 40
0.5937500000000164
 40
0.6093750000000158
 40
0.6093750000000158
 40
0.6250000000000151
 40
0.6250000000000151
 40
0.6875000000000129
 40
0.6875000000000129
 40
0.7031250000000125
 40
0.7031250000000125
 40
0.718750000000012
 40
0.718750000000012
 40
0.7500000000000107
 40
0.7500000000000107
 40
0.8125000000000083
 40
0.8125000000000083
 40
0.8281250000000076
 40
0.8281250000000076
 40
0.8437500000000071
 40
0.8437500000000071
 40
0.8750000000000056
 40
0.8750000000000056
 40
0.9062500000000046
 40
0.9062500000000046
 40
0.9218750000000039
 40
0.9218750000000039
 40
0.9375000000000031
 40
0.9375000000000031
 40
1.0
 40
1.0
 40
1.0
 40
1.0
 10
4259.23923340298
 20
2420.037952442287
 30
0.0
 10
4259.235940643407
 20
2420.037952442236
 30
0.0
 10
4259.232682866506
 20
2420.037629156878
 30
0.0
 10
4259.228654127245
 20
2420.036823165375
 30
0.0
 10
4259.227850320909
 20
2420.036641504751
 30
0.0
 10
4259.226261722779
 20
2420.036241066102
 30
0.0
 10
4259.225475071035
 20
2420.036021952248
 30
0.0
 10
4259.223137677826
 20
2420.035308867636
 30
0.0
 10
4259.22160944713
 20
2420.034759283204
 30
0.0
 10
4259.218612327781
 20
2420.033513468648
 30
0.0
 10
4259.21714343594
 20
2420.03281724302
 30
0.0
 10
4259.214985346613
 20
2420.031661046232
 30
0.0
 10
4259.214273538479
 20
2420.031256970898
 30
0.0
 10
4259.212865329366
 20
2420.030410729093
 30
0.0
 10
4259.212170280108
 20
2420.029969229727
 30
0.0
 10
4259.208771328434
 20
2420.027690897556
 30
0.0
 10
4259.206265029098
 20
2420.025626458203
 30
0.0
 10
4259.202818575684
 20
2420.022174246101
 30
0.0
 10
4259.201722294817
 20
2420.020963829006
 30
0.0
 10
4259.200159373136
 20
2420.019055619744
 30
0.0
 10
4259.199654550464
 20
2420.018407080134
 30
0.0
 10
4259.198681968746
 20
2420.017092255297
 30
0.0
 10
4259.198213345931
 20
2420.016424921696
 30
0.0
 10
4259.195957262099
 20
2420.013039380271
 30
0.0
 10
4259.194428417014
 20
2420.010175951246
 30
0.0
 10
4259.192554249501
 20
2420.005645309849
 30
0.0
 10
4259.191998486929
 20
2420.004088685383
 30
0.0
 10
4259.191052414137
 20
2420.000959825508
 30
0.0
 10
4259.190658813488
 20
2419.999381368152
 30
0.0
 10
4259.190027180263
 20
2419.996196959937
 30
0.0
 10
4259.189789151668
 20
2419.994591008068
 30
0.0
 10
4259.189549721084
 20
2419.992161284867
 30
0.0
 10
4259.189489548989
 20
2419.99134790535
 30
0.0
 10
4259.189409052961
 20
2419.989714095291
 30
0.0
 10
4259.18938873208
 20
2419.988892281972
 30
0.0
 10
4259.189388888043
 20
2419.984780550953
 30
0.0
 10
4259.189710597654
 20
2419.981544066831
 30
0.0
 10
4259.190657988866
 20
2419.976765672508
 30
0.0
 10
4259.191051814822
 20
2419.975185690589
 30
0.0
 10
4259.191762499074
 20
2419.972835409669
 30
0.0
 10
4259.192020161889
 20
2419.972053257561
 30
0.0
 10
4259.19257270581
 20
2419.970506048239
 30
0.0
 10
4259.192866988153
 20
2419.969742292767
 30
0.0
 10
4259.194426710993
 20
2419.965971799891
 30
0.0
 10
4259.195954589578
 20
2419.96310854238
 30
0.0
 10
4259.198212694257
 20
2419.959719757262
 30
0.0
 10
4259.198681883487
 20
2419.959051600083
 30
0.0
 10
4259.19965598953
 20
2419.957734807342
 30
0.0
 10
4259.200162403303
 20
2419.957084408408
 30
0.0
 10
4259.201722776716
 20
2419.955179626319
 30
0.0
 10
4259.202817770977
 20
2419.953970556613
 30
0.0
 10
4259.206262109568
 20
2419.950520275837
 30
0.0
 10
4259.208769292636
 20
2419.94845430904
 30
0.0
 10
4259.212174086549
 20
2419.946172497748
 30
0.0
 10
4259.212870374063
 20
2419.945730394032
 30
0.0
 10
4259.214276236742
 20
2419.944885786086
 30
0.0
 10
4259.214987053105
 20
2419.944482337301
 30
0.0
 10
4259.217142741887
 20
2419.943327559459
 30
0.0
 10
4259.218610798501
 20
2419.942631666979
 30
0.0
 10
4259.221607959587
 20
2419.941385817819
 30
0.0
 10
4259.223137066954
 20
2419.940835864226
 30
0.0
 10
4259.225477227488
 20
2419.940122068885
 30
0.0
 10
4259.226265044175
 20
2419.939902691932
 30
0.0
 10
4259.227856492982
 20
2419.939501740431
 30
0.0
 10
4259.228660792719
 20
2419.939320139127
 30
0.0
 10
4259.232684834215
 20
2419.938515659523
 30
0.0
 10
4259.235940656618
 20
2419.938192413857
 30
0.0
 10
4259.23923340298
 20
2419.938192413801
 30
0.0
  0
SPLINE
  5
1636
330
1F
100
AcDbEntity
  8
SANINDUSA
100
AcDbSpline
210
0.0
220
0.0
230
1.0
 70
     8
 71
     3
 72
    72
 73
    68
 74
     0
 42
0.0000000001
 43
0.0000000001
 40
0.0
 40
0.0
 40
0.0
 40
0.0
 40
0.0625000000000043
 40
0.0625000000000043
 40
0.0781250000000053
 40
0.0781250000000053
 40
0.0937500000000063
 40
0.0937500000000063
 40
0.1250000000000083
 40
0.1250000000000083
 40
0.1562500000000102
 40
0.1562500000000102
 40
0.1718750000000112
 40
0.1718750000000112
 40
0.1875000000000122
 40
0.1875000000000122
 40
0.250000000000015
 40
0.250000000000015
 40
0.2812500000000165
 40
0.2812500000000165
 40
0.2968750000000168
 40
0.2968750000000168
 40
0.3125000000000171
 40
0.3125000000000171
 40
0.375000000000018
 40
0.375000000000018
 40
0.4062500000000185
 40
0.4062500000000185
 40
0.4375000000000189
 40
0.4375000000000189
 40
0.4687500000000194
 40
0.4687500000000194
 40
0.4843750000000194
 40
0.4843750000000194
 40
0.5000000000000192
 40
0.5000000000000192
 40
0.5625000000000176
 40
0.5625000000000176
 40
0.5937500000000164
 40
0.5937500000000164
 40
0.6093750000000158
 40
0.6093750000000158
 40
0.6250000000000151
 40
0.6250000000000151
 40
0.6875000000000129
 40
0.6875000000000129
 40
0.7031250000000125
 40
0.7031250000000125
 40
0.718750000000012
 40
0.718750000000012
 40
0.7500000000000107
 40
0.7500000000000107
 40
0.8125000000000083
 40
0.8125000000000083
 40
0.8281250000000076
 40
0.8281250000000076
 40
0.8437500000000071
 40
0.8437500000000071
 40
0.8750000000000056
 40
0.8750000000000056
 40
0.9062500000000046
 40
0.9062500000000046
 40
0.9218750000000039
 40
0.9218750000000039
 40
0.9375000000000031
 40
0.9375000000000031
 40
1.0
 40
1.0
 40
1.0
 40
1.0
 10
4259.23923340298
 20
2420.037952442287
 30
0.0
 10
4259.242526162553
 20
2420.037952442236
 30
0.0
 10
4259.245783939454
 20
2420.037629156878
 30
0.0
 10
4259.249812678715
 20
2420.036823165375
 30
0.0
 10
4259.250616485052
 20
2420.036641504751
 30
0.0
 10
4259.252205083182
 20
2420.036241066102
 30
0.0
 10
4259.252991734926
 20
2420.036021952248
 30
0.0
 10
4259.255329128134
 20
2420.035308867636
 30
0.0
 10
4259.25685735883
 20
2420.034759283204
 30
0.0
 10
4259.259854478179
 20
2420.033513468648
 30
0.0
 10
4259.26132337002
 20
2420.03281724302
 30
0.0
 10
4259.263481459347
 20
2420.031661046232
 30
0.0
 10
4259.264193267481
 20
2420.031256970898
 30
0.0
 10
4259.265601476595
 20
2420.030410729093
 30
0.0
 10
4259.266296525853
 20
2420.029969229727
 30
0.0
 10
4259.269695477525
 20
2420.027690897556
 30
0.0
 10
4259.272201776862
 20
2420.025626458203
 30
0.0
 10
4259.275648230276
 20
2420.022174246101
 30
0.0
 10
4259.276744511143
 20
2420.020963829006
 30
0.0
 10
4259.278307432825
 20
2420.019055619744
 30
0.0
 10
4259.278812255495
 20
2420.018407080134
 30
0.0
 10
4259.279784837215
 20
2420.017092255297
 30
0.0
 10
4259.280253460029
 20
2420.016424921696
 30
0.0
 10
4259.282509543861
 20
2420.013039380271
 30
0.0
 10
4259.284038388946
 20
2420.010175951246
 30
0.0
 10
4259.285912556459
 20
2420.005645309849
 30
0.0
 10
4259.28646831903
 20
2420.004088685383
 30
0.0
 10
4259.287414391822
 20
2420.000959825508
 30
0.0
 10
4259.287807992473
 20
2419.999381368152
 30
0.0
 10
4259.288439625698
 20
2419.996196959937
 30
0.0
 10
4259.288677654292
 20
2419.994591008068
 30
0.0
 10
4259.288917084876
 20
2419.992161284867
 30
0.0
 10
4259.288977256971
 20
2419.99134790535
 30
0.0
 10
4259.289057752999
 20
2419.989714095291
 30
0.0
 10
4259.28907807388
 20
2419.988892281972
 30
0.0
 10
4259.289077917917
 20
2419.984780550953
 30
0.0
 10
4259.288756208306
 20
2419.981544066831
 30
0.0
 10
4259.287808817094
 20
2419.976765672508
 30
0.0
 10
4259.287414991139
 20
2419.975185690589
 30
0.0
 10
4259.286704306886
 20
2419.972835409669
 30
0.0
 10
4259.286446644071
 20
2419.972053257561
 30
0.0
 10
4259.285894100149
 20
2419.970506048239
 30
0.0
 10
4259.285599817807
 20
2419.969742292767
 30
0.0
 10
4259.284040094967
 20
2419.965971799891
 30
0.0
 10
4259.282512216382
 20
2419.96310854238
 30
0.0
 10
4259.280254111703
 20
2419.959719757262
 30
0.0
 10
4259.279784922474
 20
2419.959051600083
 30
0.0
 10
4259.27881081643
 20
2419.957734807342
 30
0.0
 10
4259.278304402657
 20
2419.957084408408
 30
0.0
 10
4259.276744029245
 20
2419.955179626319
 30
0.0
 10
4259.275649034984
 20
2419.953970556613
 30
0.0
 10
4259.272204696393
 20
2419.950520275837
 30
0.0
 10
4259.269697513324
 20
2419.94845430904
 30
0.0
 10
4259.26629271941
 20
2419.946172497748
 30
0.0
 10
4259.265596431897
 20
2419.945730394032
 30
0.0
 10
4259.264190569218
 20
2419.944885786086
 30
0.0
 10
4259.263479752855
 20
2419.944482337301
 30
0.0
 10
4259.261324064072
 20
2419.943327559459
 30
0.0
 10
4259.25985600746
 20
2419.942631666979
 30
0.0
 10
4259.256858846373
 20
2419.941385817819
 30
0.0
 10
4259.255329739006
 20
2419.940835864226
 30
0.0
 10
4259.252989578473
 20
2419.940122068885
 30
0.0
 10
4259.252201761785
 20
2419.939902691932
 30
0.0
 10
4259.250610312979
 20
2419.939501740431
 30
0.0
 10
4259.249806013241
 20
2419.939320139127
 30
0.0
 10
4259.245781971745
 20
2419.938515659523
 30
0.0
 10
4259.242526149342
 20
2419.938192413857
 30
0.0
 10
4259.23923340298
 20
2419.938192413801
 30
0.0
  0
CIRCLE
  5
1639
330
1F
100
AcDbEntity
  8
SANINDUSA
100
AcDbCircle
 10
4259.23923340298
 20
2419.988069083581
 30
0.0
 40
0.0359490476548638
  0
CIRCLE
  5
163A
330
1F
100
AcDbEntity
  8
SANINDUSA
100
AcDbCircle
 10
4259.23923340298
 20
2419.988069083581
 30
0.0
 40
0.0235
  0
SPLINE
  5
163E
330
1F
100
AcDbEntity
  8
SANINDUSA
100
AcDbSpline
210
0.0
220
0.0
230
1.0
 70
     8
 71
     3
 72
    28
 73
    24
 74
     0
 42
0.0000000001
 43
0.0000000001
 40
0.0
 40
0.0
 40
0.0
 40
0.0
 40
0.1249999999999968
 40
0.1249999999999968
 40
0.2499999999999936
 40
0.2499999999999936
 40
0.3124999999999927
 40
0.3124999999999927
 40
0.3437499999999927
 40
0.3437499999999927
 40
0.3749999999999927
 40
0.3749999999999927
 40
0.499999999999994
 40
0.499999999999994
 40
0.6249999999999952
 40
0.6249999999999952
 40
0.6874999999999958
 40
0.6874999999999958
 40
0.7499999999999964
 40
0.7499999999999964
 40
0.8749999999999982
 40
0.8749999999999982
 40
1.0
 40
1.0
 40
1.0
 40
1.0
 10
4261.282430147198
 20
2419.940495745303
 30
0.0
 10
4261.279251748296
 20
2419.942446446047
 30
0.0
 10
4261.276219554993
 20
2419.944564133235
 30
0.0
 10
4261.270436434106
 20
2419.949120750866
 30
0.0
 10
4261.267685542042
 20
2419.951559721877
 30
0.0
 10
4261.263770668388
 20
2419.955459699208
 30
0.0
 10
4261.262501042383
 20
2419.956800045408
 30
0.0
 10
4261.260650478043
 20
2419.958872096817
 30
0.0
 10
4261.260042608231
 20
2419.959573042662
 30
0.0
 10
4261.258845058161
 20
2419.960995709266
 30
0.0
 10
4261.25825451279
 20
2419.961718562295
 30
0.0
 10
4261.255364687608
 20
2419.965364002077
 30
0.0
 10
4261.253244874906
 20
2419.968388860007
 30
0.0
 10
4261.249376377643
 20
2419.974648261912
 30
0.0
 10
4261.247627728444
 20
2419.977882825867
 30
0.0
 10
4261.245284986584
 20
2419.982893001821
 30
0.0
 10
4261.244550893996
 20
2419.984589514374
 30
0.0
 10
4261.243178115029
 20
2419.988036443638
 30
0.0
 10
4261.242537939382
 20
2419.989791939454
 30
0.0
 10
4261.240782807109
 20
2419.995083683233
 30
0.0
 10
4261.239827190842
 20
2419.998655357042
 30
0.0
 10
4261.238335926921
 20
2420.005884559095
 30
0.0
 10
4261.237800281086
 20
2420.009542087711
 30
0.0
 10
4261.237478838867
 20
2420.013243406101
 30
0.0
  0
SPLINE
  5
163F
330
1F
100
AcDbEntity
  8
SANINDUSA
100
AcDbSpline
210
0.0
220
0.0
230
1.0
 70
     8
 71
     3
 72
     8
 73
     4
 74
     0
 42
0.0000000001
 43
0.0000000001
 40
0.0
 40
0.0
 40
0.0
 40
0.0
 40
1.0
 40
1.0
 40
1.0
 40
1.0
 10
4261.277199362441
 20
2419.931972900072
 30
0.0
 10
4261.284407979388
 20
2419.927548705729
 30
0.0
 10
4261.291842990138
 20
2419.92350343375
 30
0.0
 10
4261.299644344996
 20
2419.920071323317
 30
0.0
  0
SPLINE
  5
1641
330
1F
100
AcDbEntity
  8
SANINDUSA
100
AcDbSpline
210
0.0
220
0.0
230
1.0
 70
    24
 71
     1
 72
     4
 73
     2
 74
     0
 42
0.0000000001
 43
0.0000000001
 40
0.0
 40
0.0
 40
1.0
 40
1.0
 10
4261.425160683263
 20
2419.9195715994
 30
0.0
 10
4261.425181792995
 20
2419.91957261861
 30
0.0
  0
SPLINE
  5
1642
330
1F
100
AcDbEntity
  8
SANINDUSA
100
AcDbSpline
210
0.0
220
0.0
230
1.0
 70
     8
 71
     3
 72
    16
 73
    12
 74
     0
 42
0.0000000001
 43
0.0000000001
 40
0.0
 40
0.0
 40
0.0
 40
0.0
 40
0.2500000000000002
 40
0.2500000000000002
 40
0.5000000000000005
 40
0.5000000000000005
 40
0.7500000000000002
 40
0.7500000000000002
 40
0.8750000000000001
 40
0.8750000000000001
 40
1.0
 40
1.0
 40
1.0
 40
1.0
 10
4261.425181792995
 20
2419.91957261861
 30
0.0
 10
4261.43173587249
 20
2419.921985368868
 30
0.0
 10
4261.438103058023
 20
2419.924748720867
 30
0.0
 10
4261.450504114978
 20
2419.930900701928
 30
0.0
 10
4261.456537384645
 20
2419.934290459844
 30
0.0
 10
4261.468337486927
 20
2419.941569795429
 30
0.0
 10
4261.474102497344
 20
2419.945462791436
 30
0.0
 10
4261.482617692966
 20
2419.951550509745
 30
0.0
 10
4261.485432276676
 20
2419.953619049311
 30
0.0
 10
4261.491022278515
 20
2419.957801303114
 30
0.0
 10
4261.49379928243
 20
2419.959916182497
 30
0.0
 10
4261.496569021665
 20
2419.962040649817
 30
0.0
  0
SPLINE
  5
1643
330
1F
100
AcDbEntity
  8
SANINDUSA
100
AcDbSpline
210
0.0
220
0.0
230
1.0
 70
     8
 71
     3
 72
    19
 73
    15
 74
     0
 42
0.0000000001
 43
0.0000000001
 40
0.0
 40
0.0
 40
0.0
 40
0.0
 40
0.2499999999999918
 40
0.2499999999999918
 40
0.3749999999999932
 40
0.3749999999999932
 40
0.4999999999999946
 40
0.4999999999999946
 40
0.624999999999996
 40
0.624999999999996
 40
0.7499999999999973
 40
0.8749999999999985
 40
0.8749999999999985
 40
1.0
 40
1.0
 40
1.0
 40
1.0
 10
4261.302627844785
 20
2419.915669140607
 30
0.0
 10
4261.302611394699
 20
2419.916140209406
 30
0.0
 10
4261.302530021538
 20
2419.916597874741
 30
0.0
 10
4261.302312916961
 20
2419.917264750601
 30
0.0
 10
4261.302223880911
 20
2419.917484320514
 30
0.0
 10
4261.302018761405
 20
2419.917903162564
 30
0.0
 10
4261.301902235108
 20
2419.918104193391
 30
0.0
 10
4261.301641433838
 20
2419.918489585429
 30
0.0
 10
4261.301496134342
 20
2419.91867504993
 30
0.0
 10
4261.301181182049
 20
2419.919023173588
 30
0.0
 10
4261.300845014203
 20
2419.919345720697
 30
0.0
 10
4261.300467698062
 20
2419.919618661201
 30
0.0
 10
4261.300069220342
 20
2419.91986609022
 30
0.0
 10
4261.299860069533
 20
2419.919976417951
 30
0.0
 10
4261.299644344996
 20
2419.920071323317
 30
0.0
  0
ARC
  5
1644
330
1F
100
AcDbEntity
  8
SANINDUSA
100
AcDbCircle
 10
4261.426909115374
 20
2419.91488045947
 30
0.0
 40
0.0050000000000203
100
AcDbArc
 50
110.2101516591625
 51
177.9999999962464
  0
LINE
  5
1645
330
1F
100
AcDbEntity
  8
SANINDUSA
100
AcDbLine
 10
4261.421912161238
 20
2419.915054956953
 30
0.0
 11
4261.421485032204
 21
2419.90282358174
 31
0.0
  0
LINE
  5
1646
330
1F
100
AcDbEntity
  8
SANINDUSA
100
AcDbLine
 10
4261.303076421585
 20
2419.90282358174
 30
0.0
 11
4261.302627844785
 21
2419.915669140607
 31
0.0
  0
SPLINE
  5
164A
330
1F
100
AcDbEntity
  8
SANINDUSA
100
AcDbSpline
210
0.0
220
0.0
230
1.0
 70
     8
 71
     3
 72
    32
 73
    28
 74
     0
 42
0.0000000001
 43
0.0000000001
 40
0.0
 40
0.0
 40
0.0
 40
0.0
 40
0.1249999999999973
 40
0.1249999999999973
 40
0.1562499999999978
 40
0.1562499999999978
 40
0.1874999999999983
 40
0.1874999999999983
 40
0.2499999999999993
 40
0.2499999999999993
 40
0.3749999999999998
 40
0.3749999999999998
 40
0.5000000000000004
 40
0.5000000000000004
 40
0.5625
 40
0.5625
 40
0.59375
 40
0.59375
 40
0.625
 40
0.625
 40
0.75
 40
0.75
 40
0.8750000000000001
 40
0.8750000000000001
 40
0.9375000000000001
 40
0.9375000000000001
 40
1.0
 40
1.0
 40
1.0
 40
1.0
 10
4261.277199362441
 20
2419.931972900072
 30
0.0
 10
4261.274175482665
 20
2419.933828766724
 30
0.0
 10
4261.271240000057
 20
2419.935840812245
 30
0.0
 10
4261.267684101627
 20
2419.938556319545
 30
0.0
 10
4261.266978608893
 20
2419.93910946863
 30
0.0
 10
4261.265579130157
 20
2419.940236096735
 30
0.0
 10
4261.264885891858
 20
2419.940809019837
 30
0.0
 10
4261.262835171548
 20
2419.942548481078
 30
0.0
 10
4261.261502953188
 20
2419.943738656825
 30
0.0
 10
4261.257609111162
 20
2419.947399064446
 30
0.0
 10
4261.255150040129
 20
2419.949958949043
 30
0.0
 10
4261.250501637758
 20
2419.955314527858
 30
0.0
 10
4261.248312304894
 20
2419.958110220744
 30
0.0
 10
4261.245233987649
 20
2419.962483569744
 30
0.0
 10
4261.244242227617
 20
2419.963971378176
 30
0.0
 10
4261.242807154202
 20
2419.966249045191
 30
0.0
 10
4261.24233710597
 20
2419.967016749197
 30
0.0
 10
4261.241419756818
 20
2419.96855909934
 30
0.0
 10
4261.240971887326
 20
2419.969334602813
 30
0.0
 10
4261.238785972409
 20
2419.973233524689
 30
0.0
 10
4261.237207800186
 20
2419.976420986599
 30
0.0
 10
4261.234384416471
 20
2419.982929290954
 30
0.0
 10
4261.233139220017
 20
2419.986250139424
 30
0.0
 10
4261.231522876699
 20
2419.991332140874
 30
0.0
 10
4261.231026083733
 20
2419.993042961362
 30
0.0
 10
4261.230117751744
 20
2419.99649875416
 30
0.0
 10
4261.229705727033
 20
2419.998246089194
 30
0.0
 10
4261.229338409299
 20
2420.000005616534
 30
0.0
  0
SPLINE
  5
164C
330
1F
100
AcDbEntity
  8
SANINDUSA
100
AcDbSpline
210
0.0
220
0.0
230
1.0
 70
     8
 71
     3
 72
    14
 73
    10
 74
     0
 42
0.0000000001
 43
0.0000000001
 40
0.0
 40
0.0
 40
0.0
 40
0.0
 40
0.25
 40
0.25
 40
0.5
 40
0.5
 40
0.75
 40
0.75
 40
1.0
 40
1.0
 40
1.0
 40
1.0
 10
4261.224443923913
 20
2420.003983847084
 30
0.0
 10
4261.22501826187
 20
2420.003983847084
 30
0.0
 10
4261.225576956489
 20
2420.003887484311
 30
0.0
 10
4261.226658624877
 20
2420.003503196652
 30
0.0
 10
4261.227153466616
 20
2420.003224998777
 30
0.0
 10
4261.228043490427
 20
2420.002501248149
 30
0.0
 10
4261.22841714789
 20
2420.002072859528
 30
0.0
 10
4261.229013091759
 20
2420.00109363661
 30
0.0
 10
4261.229221041103
 20
2420.000567834282
 30
0.0
 10
4261.229338409299
 20
2420.000005616534
 30
0.0
  0
ARC
  5
164E
330
1F
100
AcDbEntity
  8
SANINDUSA
100
AcDbCircle
 10
4261.307400414054
 20
2419.922269179936
 30
0.0
 40
0.0050000000000086
100
AcDbArc
 50
2.000000003753602
 51
68.78725703840219
  0
SPLINE
  5
164F
330
1F
100
AcDbEntity
  8
SANINDUSA
100
AcDbSpline
210
0.0
220
0.0
230
1.0
 70
    24
 71
     3
 72
    10
 73
     6
 74
     0
 42
0.0000000001
 43
0.0000000001
 40
0.0
 40
0.0
 40
0.0
 40
0.0
 40
0.3428434764915571
 40
0.6856931715571682
 40
1.0
 40
1.0
 40
1.0
 40
1.0
 10
4261.415603486033
 20
2419.926831034924
 30
0.0
 10
4261.415535243428
 20
2419.92682967571
 30
0.0
 10
4261.415398756981
 20
2419.926826957257
 30
0.0
 10
4261.414430263428
 20
2419.926809383156
 30
0.0
 10
4261.413295849374
 20
2419.926787952021
 30
0.0
 10
4261.412753278357
 20
2419.926777701872
 30
0.0
  0
SPLINE
  5
1650
330
1F
100
AcDbEntity
  8
SANINDUSA
100
AcDbSpline
210
0.0
220
0.0
230
1.0
 70
    24
 71
     3
 72
    11
 73
     7
 74
     0
 42
0.0000000001
 43
0.0000000001
 40
0.0
 40
0.0
 40
0.0
 40
0.0
 40
0.0021362079523797
 40
0.3450702368884675
 40
0.6725385733801732
 40
1.0
 40
1.0
 40
1.0
 40
1.0
 10
4261.311957312929
 20
2419.926875794355
 30
0.0
 10
4261.31195281471
 20
2419.926875884375
 30
0.0
 10
4261.311226199349
 20
2419.926890425728
 30
0.0
 10
4261.310361600181
 20
2419.926907261887
 30
0.0
 10
4261.309372577634
 20
2419.926926713795
 30
0.0
 10
4261.30926390792
 20
2419.926929169065
 30
0.0
 10
4261.309209573636
 20
2419.926930396688
 30
0.0
  0
ARC
  5
1651
330
1F
100
AcDbEntity
  8
SANINDUSA
100
AcDbCircle
 10
4261.41715435081
 20
2419.9220776342
 30
0.0
 40
0.0050000000000004
100
AcDbArc
 50
108.0696538879467
 51
177.9999999962464
  0
LINE
  5
1652
330
1F
100
AcDbEntity
  8
SANINDUSA
100
AcDbLine
 10
4261.4114927407
 20
2419.903218874828
 30
0.0
 11
4261.412157396675
 21
2419.922252131684
 31
0.0
  0
LINE
  5
1654
330
1F
100
AcDbEntity
  8
SANINDUSA
100
AcDbLine
 10
4261.312397368189
 20
2419.92244367742
 30
0.0
 11
4261.313068713088
 21
2419.903218874828
 31
0.0
  0
ARC
  5
1655
330
1F
100
AcDbEntity
  8
SANINDUSA
100
AcDbCircle
 10
4261.23449008844
 20
2420.012983847084
 30
0.0
 40
0.0030000000000276
100
AcDbArc
 50
4.963417669679506
 51
90.0
  0
SPLINE
  5
1656
330
1F
100
AcDbEntity
  8
SANINDUSA
100
AcDbSpline
210
0.0
220
0.0
230
1.0
 70
     8
 71
     3
 72
    42
 73
    38
 74
     0
 42
0.0000000001
 43
0.0000000001
 40
0.0
 40
0.0
 40
0.0
 40
0.0
 40
0.03125
 40
0.03125
 40
0.046875
 40
0.046875
 40
0.0625
 40
0.0625
 40
0.1249999999999999
 40
0.1249999999999999
 40
0.25
 40
0.25
 40
0.3125
 40
0.3125
 40
0.375
 40
0.375
 40
0.4375
 40
0.4375
 40
0.5
 40
0.5
 40
0.6250000000000002
 40
0.6250000000000002
 40
0.6875000000000002
 40
0.6875000000000002
 40
0.7187500000000002
 40
0.7187500000000002
 40
0.7500000000000002
 40
0.7500000000000002
 40
0.8750000000000005
 40
0.8750000000000005
 40
0.8906250000000003
 40
0.8906250000000003
 40
0.9062500000000003
 40
0.9062500000000003
 40
0.9375000000000001
 40
0.9375000000000001
 40
1.0
 40
1.0
 40
1.0
 40
1.0
 10
4261.415603486033
 20
2419.926831034924
 30
0.0
 10
4261.417546338797
 20
2419.927464918346
 30
0.0
 10
4261.419483086508
 20
2419.928135328774
 30
0.0
 10
4261.422379138007
 20
2419.929195211356
 30
0.0
 10
4261.42334339678
 20
2419.929557740758
 30
0.0
 10
4261.425261025159
 20
2419.930297761656
 30
0.0
 10
4261.42621535232
 20
2419.930675593875
 30
0.0
 10
4261.430964974098
 20
2419.932603129723
 30
0.0
 10
4261.434694150416
 20
2419.934268090489
 30
0.0
 10
4261.445686711139
 20
2419.939602840575
 30
0.0
 10
4261.452753345072
 20
2419.943615604478
 30
0.0
 10
4261.463063272759
 20
2419.950140317554
 30
0.0
 10
4261.46645147819
 20
2419.952399657314
 30
0.0
 10
4261.473152978271
 20
2419.957048920986
 30
0.0
 10
4261.476466333166
 20
2419.959438739878
 30
0.0
 10
4261.483044207316
 20
2419.964303507744
 30
0.0
 10
4261.486306337345
 20
2419.966776666809
 30
0.0
 10
4261.49280616507
 20
2419.971753647462
 30
0.0
 10
4261.496044547125
 20
2419.974258138572
 30
0.0
 10
4261.505782589178
 20
2419.981739843061
 30
0.0
 10
4261.512303450677
 20
2419.98668763862
 30
0.0
 10
4261.522406575612
 20
2419.993662777919
 30
0.0
 10
4261.52582830838
 20
2419.995912863541
 30
0.0
 10
4261.53108307169
 20
2419.999118484959
 30
0.0
 10
4261.532857970748
 20
2420.000160250635
 30
0.0
 10
4261.536437960563
 20
2420.002166522746
 30
0.0
 10
4261.538243274262
 20
2420.003131301146
 30
0.0
 10
4261.547356367914
 20
2420.00773853758
 30
0.0
 10
4261.554925696035
 20
2420.01072608929
 30
0.0
 10
4261.563873782145
 20
2420.013003891698
 30
0.0
 10
4261.564873952647
 20
2420.013242110551
 30
0.0
 10
4261.566886454097
 20
2420.013688098983
 30
0.0
 10
4261.567898376255
 20
2420.013895721538
 30
0.0
 10
4261.570934015201
 20
2420.014468449259
 30
0.0
 10
4261.57296370349
 20
2420.014784432054
 30
0.0
 10
4261.579070199283
 20
2420.015538826971
 30
0.0
 10
4261.583164339731
 20
2420.015784773596
 30
0.0
 10
4261.587280726894
 20
2420.015783692115
 30
0.0
  0
SPLINE
  5
1657
330
1F
100
AcDbEntity
  8
SANINDUSA
100
AcDbSpline
210
0.0
220
0.0
230
1.0
 70
     8
 71
     3
 72
    16
 73
    12
 74
     0
 42
0.0000000001
 43
0.0000000001
 40
0.5154532498298873
 40
0.5154532498298873
 40
0.5154532498298873
 40
0.5154532498298873
 40
0.5850052842827573
 40
0.5850052842827573
 40
0.6519657599235088
 40
0.6519657599235088
 40
0.6931338505412739
 40
0.6931338505412739
 40
0.7293408359873537
 40
0.7293408359873537
 40
0.7452680269331547
 40
0.7452680269331547
 40
0.7452680269331547
 40
0.7452680269331547
 10
4261.507775919648
 20
2419.970657099482
 30
0.0
 10
4261.511361884628
 20
2419.973400294022
 30
0.0
 10
4261.514932029974
 20
2419.976096953028
 30
0.0
 10
4261.521967710323
 20
2419.981215679066
 30
0.0
 10
4261.525433073413
 20
2419.983646090175
 30
0.0
 10
4261.531084227626
 20
2419.987369995913
 30
0.0
 10
4261.533249362276
 20
2419.988740960782
 30
0.0
 10
4261.537358288651
 20
2419.991212540411
 30
0.0
 10
4261.539296469728
 20
2419.9923250104
 30
0.0
 10
4261.542096018374
 20
2419.993843355927
 30
0.0
 10
4261.542952778791
 20
2419.994296231426
 30
0.0
 10
4261.543811426384
 20
2419.994737707382
 30
0.0
  0
SPLINE
  5
1658
330
1F
100
AcDbEntity
  8
SANINDUSA
100
AcDbSpline
210
0.0
220
0.0
230
1.0
 70
     8
 71
     3
 72
    12
 73
     8
 74
     0
 42
0.0000000001
 43
0.0000000001
 40
0.0
 40
0.0
 40
0.0
 40
0.0
 40
0.25
 40
0.25
 40
0.5
 40
0.5
 40
1.0
 40
1.0
 40
1.0
 40
1.0
 10
4261.282430147198
 20
2419.940495745303
 30
0.0
 10
4261.284576920449
 20
2419.939178191306
 30
0.0
 10
4261.286742506821
 20
2419.937896820253
 30
0.0
 10
4261.291111761474
 20
2419.935425104379
 30
0.0
 10
4261.293316389752
 20
2419.934234099426
 30
0.0
 10
4261.299999162566
 20
2419.930815568765
 30
0.0
 10
4261.304545384667
 20
2419.928740709878
 30
0.0
 10
4261.309209573636
 20
2419.926930396688
 30
0.0
  0
ARC
  5
1659
330
1F
100
AcDbEntity
  8
SANINDUSA
100
AcDbCircle
 10
4261.406494169799
 20
2419.90334707419
 30
0.0
 40
0.015
100
AcDbArc
 50
272.8946720654491
 51
357.9999999962464
  0
LINE
  5
165A
330
1F
100
AcDbEntity
  8
SANINDUSA
100
AcDbLine
 10
4261.407251670837
 20
2419.888366213328
 30
0.0
 11
4261.401184414479
 21
2419.888059425018
 31
0.0
  0
ARC
  5
165B
330
1F
100
AcDbEntity
  8
SANINDUSA
100
AcDbCircle
 10
4261.401436914824
 20
2419.883065804731
 30
0.0
 40
0.0050000000000003
100
AcDbArc
 50
92.89467206544911
 51
175.0000000037089
  0
LINE
  5
165C
330
1F
100
AcDbEntity
  8
SANINDUSA
100
AcDbLine
 10
4261.396455941334
 20
2419.883501583445
 30
0.0
 11
4261.395780726894
 21
2419.875783847083
 31
0.0
  0
LINE
  5
165D
330
1F
100
AcDbEntity
  8
SANINDUSA
100
AcDbLine
 10
4261.395780726894
 20
2419.875783847083
 30
0.0
 11
4261.385780726894
 21
2419.875783847083
 31
0.0
  0
LINE
  5
165E
330
1F
100
AcDbEntity
  8
SANINDUSA
100
AcDbLine
 10
4261.385780726894
 20
2419.875783847083
 30
0.0
 11
4261.385780726894
 21
2419.88719243415
 31
0.0
  0
LINE
  5
165F
330
1F
100
AcDbEntity
  8
SANINDUSA
100
AcDbLine
 10
4261.385780726894
 20
2419.88719243415
 30
0.0
 11
4261.39822977455
 21
2419.898014226175
 31
0.0
  0
LINE
  5
1660
330
1F
100
AcDbEntity
  8
SANINDUSA
100
AcDbLine
 10
4261.39822977455
 20
2419.898014226175
 30
0.0
 11
4261.406721801066
 21
2419.898398483179
 31
0.0
  0
ARC
  5
1661
330
1F
100
AcDbEntity
  8
SANINDUSA
100
AcDbCircle
 10
4261.406495786565
 20
2419.903393372312
 30
0.0
 40
0.005
100
AcDbArc
 50
272.5908181991662
 51
357.9999999962464
  0
LINE
  5
1662
330
1F
100
AcDbEntity
  8
SANINDUSA
100
AcDbLine
 10
4261.598280726895
 20
2420.015783847084
 30
0.0
 11
4261.587280726894
 21
2420.015783847084
 31
0.0
  0
ARC
  5
1663
330
1F
100
AcDbEntity
  8
SANINDUSA
100
AcDbCircle
 10
4261.598280726895
 20
2420.011783847084
 30
0.0
 40
0.0040000000000001
100
AcDbArc
 50
0.0
 51
90.0
  0
LINE
  5
1664
330
1F
100
AcDbEntity
  8
SANINDUSA
100
AcDbLine
 10
4261.602280726894
 20
2419.987783847084
 30
0.0
 11
4261.602280726894
 21
2420.011783847084
 31
0.0
  0
ARC
  5
1665
330
1F
100
AcDbEntity
  8
SANINDUSA
100
AcDbCircle
 10
4261.600280726894
 20
2419.987783847084
 30
0.0
 40
0.0020000000000002
100
AcDbArc
 50
270.0
 51
0.0
  0
LINE
  5
1666
330
1F
100
AcDbEntity
  8
SANINDUSA
100
AcDbLine
 10
4261.600280726894
 20
2419.985783847084
 30
0.0
 11
4261.592280726894
 21
2419.985783847084
 31
0.0
  0
LINE
  5
1667
330
1F
100
AcDbEntity
  8
SANINDUSA
100
AcDbLine
 10
4261.592280726894
 20
2419.985783847084
 30
0.0
 11
4261.591652159178
 21
2420.003783671413
 31
0.0
  0
LINE
  5
1668
330
1F
100
AcDbEntity
  8
SANINDUSA
100
AcDbLine
 10
4261.568416286604
 20
2420.003783671413
 30
0.0
 11
4261.591652159178
 21
2420.003783671413
 31
0.0
  0
SPLINE
  5
1669
330
1F
100
AcDbEntity
  8
SANINDUSA
100
AcDbSpline
210
0.0
220
0.0
230
1.0
 70
     8
 71
     3
 72
    10
 73
     6
 74
     0
 42
0.0000000001
 43
0.0000000001
 40
0.0
 40
0.0
 40
0.0
 40
0.0
 40
0.5
 40
0.5
 40
1.0
 40
1.0
 40
1.0
 40
1.0
 10
4261.554841087056
 20
2419.999702316595
 30
0.0
 10
4261.557052949797
 20
2420.000552315428
 30
0.0
 10
4261.559288621793
 20
2420.001322540665
 30
0.0
 10
4261.563812581793
 20
2420.002686699685
 30
0.0
 10
4261.566100759853
 20
2420.003281001838
 30
0.0
 10
4261.568416286604
 20
2420.003783671413
 30
0.0
  0
LINE
  5
166A
330
1F
100
AcDbEntity
  8
SANINDUSA
100
AcDbLine
 10
4261.554841087056
 20
2419.999702316595
 30
0.0
 11
4261.547133175063
 21
2419.955988575441
 31
0.0
  0
LINE
  5
166B
330
1F
100
AcDbEntity
  8
SANINDUSA
100
AcDbLine
 10
4261.543811426384
 20
2419.994737707382
 30
0.0
 11
4261.537927561994
 21
2419.961368654236
 31
0.0
  0
ARC
  5
166C
330
1F
100
AcDbEntity
  8
SANINDUSA
100
AcDbCircle
 10
4261.542209136297
 20
2419.95685681633
 30
0.0
 40
0.005
100
AcDbArc
 50
276.9999999915293
 51
350.0000000033014
  0
LINE
  5
166D
330
1F
100
AcDbEntity
  8
SANINDUSA
100
AcDbLine
 10
4261.542818483015
 20
2419.951894085571
 30
0.0
 11
4261.507469698517
 21
2419.947553800588
 31
0.0
  0
LINE
  5
166E
330
1F
100
AcDbEntity
  8
SANINDUSA
100
AcDbLine
 10
4261.537927561994
 20
2419.961368654236
 30
0.0
 11
4261.514618408347
 21
2419.95850665004
 31
0.0
  0
ARC
  5
166F
330
1F
100
AcDbEntity
  8
SANINDUSA
100
AcDbCircle
 10
4261.507225959831
 20
2419.949538892892
 30
0.0
 40
0.002
100
AcDbArc
 50
183.9999999992485
 51
276.9999999915293
  0
LINE
  5
1670
330
1F
100
AcDbEntity
  8
SANINDUSA
100
AcDbLine
 10
4261.504599902205
 20
2419.958422092512
 30
0.0
 11
4261.50523083173
 21
2419.949399379945
 31
0.0
  0
LINE
  5
1671
330
1F
100
AcDbEntity
  8
SANINDUSA
100
AcDbLine
 10
4261.514575542708
 20
2419.95911965725
 30
0.0
 11
4261.514618408347
 21
2419.95850665004
 31
0.0
  0
ARC
  5
1672
330
1F
100
AcDbEntity
  8
SANINDUSA
100
AcDbCircle
 10
4261.499612081954
 20
2419.958073310144
 30
0.0
 40
0.0050000000000345
100
AcDbArc
 50
3.999999999248528
 51
127.4892132056109
  0
ARC
  5
1673
330
1F
100
AcDbEntity
  8
SANINDUSA
100
AcDbCircle
 10
4261.499612081954
 20
2419.958073310144
 30
0.0
 40
0.0150000000000345
100
AcDbArc
 50
3.999999999248528
 51
57.02617458412222
  0
ARC
  5
1674
330
1F
100
AcDbEntity
  8
SANINDUSA
100
AcDbCircle
 10
4261.318065667224
 20
2419.903393372312
 30
0.0
 40
0.005
100
AcDbArc
 50
182.0000000037536
 51
267.4091818008339
  0
LINE
  5
1675
330
1F
100
AcDbEntity
  8
SANINDUSA
100
AcDbLine
 10
4261.317839652723
 20
2419.898398483179
 30
0.0
 11
4261.32633167924
 21
2419.898014226175
 31
0.0
  0
LINE
  5
1676
330
1F
100
AcDbEntity
  8
SANINDUSA
100
AcDbLine
 10
4261.32633167924
 20
2419.898014226175
 30
0.0
 11
4261.338780726894
 21
2419.88719243415
 31
0.0
  0
LINE
  5
1677
330
1F
100
AcDbEntity
  8
SANINDUSA
100
AcDbLine
 10
4261.338780726894
 20
2419.88719243415
 30
0.0
 11
4261.338780726894
 21
2419.875783847083
 31
0.0
  0
LINE
  5
1678
330
1F
100
AcDbEntity
  8
SANINDUSA
100
AcDbLine
 10
4261.338780726894
 20
2419.875783847083
 30
0.0
 11
4261.328780726894
 21
2419.875783847083
 31
0.0
  0
LINE
  5
1679
330
1F
100
AcDbEntity
  8
SANINDUSA
100
AcDbLine
 10
4261.328780726894
 20
2419.875783847083
 30
0.0
 11
4261.328105512455
 21
2419.883501583445
 31
0.0
  0
ARC
  5
167A
330
1F
100
AcDbEntity
  8
SANINDUSA
100
AcDbCircle
 10
4261.323124538964
 20
2419.883065804731
 30
0.0
 40
0.0050000000000003
100
AcDbArc
 50
4.999999996291116
 51
87.10532793455088
  0
LINE
  5
167B
330
1F
100
AcDbEntity
  8
SANINDUSA
100
AcDbLine
 10
4261.323377039309
 20
2419.888059425018
 30
0.0
 11
4261.317309782952
 21
2419.888366213328
 31
0.0
  0
ARC
  5
167C
330
1F
100
AcDbEntity
  8
SANINDUSA
100
AcDbCircle
 10
4261.31806728399
 20
2419.90334707419
 30
0.0
 40
0.015
100
AcDbArc
 50
182.0000000037536
 51
267.1053279345509
  0
LINE
  5
167D
330
1F
100
AcDbEntity
  8
SANINDUSA
100
AcDbLine
 10
4261.214780726894
 20
2420.003983847084
 30
0.0
 11
4261.214780726894
 21
2420.015983847084
 31
0.0
  0
LINE
  5
167E
330
1F
100
AcDbEntity
  8
SANINDUSA
100
AcDbLine
 10
4261.214780726894
 20
2420.015983847084
 30
0.0
 11
4261.23449008844
 21
2420.015983847084
 31
0.0
  0
LINE
  5
167F
330
1F
100
AcDbEntity
  8
SANINDUSA
100
AcDbLine
 10
4261.214780726894
 20
2420.003983847084
 30
0.0
 11
4261.224443923913
 21
2420.003983847084
 31
0.0
  0
LINE
  5
1681
330
1F
100
AcDbEntity
  8
SANINDUSA
100
AcDbLine
 10
4261.32633167924
 20
2419.898014226175
 30
0.0
 11
4261.39822977455
 21
2419.898014226175
 31
0.0
  0
LINE
  5
1682
330
1F
100
AcDbEntity
  8
SANINDUSA
100
AcDbLine
 10
4261.338780726894
 20
2419.88719243415
 30
0.0
 11
4261.385780726894
 21
2419.88719243415
 31
0.0
  0
LINE
  5
1683
330
1F
100
AcDbEntity
  8
SANINDUSA
100
AcDbLine
 10
4261.338780726894
 20
2419.875783847083
 30
0.0
 11
4261.385780726894
 21
2419.875783847083
 31
0.0
  0
LINE
  5
1685
330
1F
100
AcDbEntity
  8
SANINDUSA
100
AcDbLine
 10
4261.158410824822
 20
2419.907644334136
 30
0.0
 11
4261.164822295007
 21
2419.999332629452
 31
0.0
  0
LINE
  5
1686
330
1F
100
AcDbEntity
  8
SANINDUSA
100
AcDbLine
 10
4261.149278290944
 20
2419.920398885331
 30
0.0
 11
4261.154846654505
 21
2420.00003019419
 31
0.0
  0
ARC
  5
1687
330
1F
100
AcDbEntity
  8
SANINDUSA
100
AcDbCircle
 10
4261.156415696722
 20
2419.907783847083
 30
0.0
 40
0.0020000000000001
100
AcDbArc
 50
270.0
 51
356.0000000007515
  0
LINE
  5
1688
330
1F
100
AcDbEntity
  8
SANINDUSA
100
AcDbLine
 10
4261.156415696722
 20
2419.905783847084
 30
0.0
 11
4261.142280726894
 21
2419.905783847084
 31
0.0
  0
ARC
  5
1689
330
1F
100
AcDbEntity
  8
SANINDUSA
100
AcDbCircle
 10
4261.142280726894
 20
2419.910783847084
 30
0.0
 40
0.005
100
AcDbArc
 50
180.0
 51
270.0
  0
LINE
  5
168A
330
1F
100
AcDbEntity
  8
SANINDUSA
100
AcDbLine
 10
4261.137280726894
 20
2419.910783847084
 30
0.0
 11
4261.137280726894
 21
2420.012983847084
 31
0.0
  0
LINE
  5
168B
330
1F
100
AcDbEntity
  8
SANINDUSA
100
AcDbLine
 10
4261.147280726894
 20
2419.920468641805
 30
0.0
 11
4261.147280726894
 21
2420.005983847083
 31
0.0
  0
ARC
  5
168C
330
1F
100
AcDbEntity
  8
SANINDUSA
100
AcDbCircle
 10
4261.148280726895
 20
2419.920468641805
 30
0.0
 40
0.001
100
AcDbArc
 50
180.0
 51
356.0000000007515
  0
ARC
  5
168D
330
1F
100
AcDbEntity
  8
SANINDUSA
100
AcDbCircle
 10
4261.140280726894
 20
2420.012983847084
 30
0.0
 40
0.003
100
AcDbArc
 50
90.0
 51
180.0
  0
LINE
  5
168E
330
1F
100
AcDbEntity
  8
SANINDUSA
100
AcDbLine
 10
4261.179780726894
 20
2420.015983847084
 30
0.0
 11
4261.179780726894
 21
2420.003983847084
 31
0.0
  0
ARC
  5
168F
330
1F
100
AcDbEntity
  8
SANINDUSA
100
AcDbCircle
 10
4261.169810115258
 20
2419.998983847083
 30
0.0
 40
0.005
100
AcDbArc
 50
90.0
 51
176.0000000007514
  0
ARC
  5
1690
330
1F
100
AcDbEntity
  8
SANINDUSA
100
AcDbCircle
 10
4261.169810115258
 20
2419.998983847083
 30
0.0
 40
0.015
100
AcDbArc
 50
152.1818607174891
 51
176.0000000007514
  0
LINE
  5
1691
330
1F
100
AcDbEntity
  8
SANINDUSA
100
AcDbLine
 10
4261.140280726894
 20
2420.015983847084
 30
0.0
 11
4261.179780726894
 21
2420.015983847084
 31
0.0
  0
LINE
  5
1692
330
1F
100
AcDbEntity
  8
SANINDUSA
100
AcDbLine
 10
4261.147280726894
 20
2420.005983847083
 30
0.0
 11
4261.156543616096
 21
2420.005983847083
 31
0.0
  0
LINE
  5
1693
330
1F
100
AcDbEntity
  8
SANINDUSA
100
AcDbLine
 10
4261.169810115258
 20
2420.003983847084
 30
0.0
 11
4261.179780726894
 21
2420.003983847084
 31
0.0
  0
LINE
  5
1698
330
1F
100
AcDbEntity
  8
SANINDUSA
100
AcDbLine
 10
4261.163902948095
 20
2419.905783847084
 30
0.0
 11
4261.156415696722
 21
2419.905783847084
 31
0.0
  0
LINE
  5
169A
330
1F
100
AcDbEntity
  8
SANINDUSA
100
AcDbLine
 10
4261.214780726894
 20
2420.015983847084
 30
0.0
 11
4261.179780726894
 21
2420.015983847084
 31
0.0
  0
LINE
  5
169B
330
1F
100
AcDbEntity
  8
SANINDUSA
100
AcDbLine
 10
4261.179780726894
 20
2420.003983847084
 30
0.0
 11
4261.214780726894
 21
2420.003983847084
 31
0.0
  0
SPLINE
  5
16AB
330
1F
100
AcDbEntity
  8
SANINDUSA
100
AcDbSpline
210
0.0
220
0.0
230
1.0
 70
    24
 71
     3
 72
    12
 73
     8
 74
     0
 42
0.0000000001
 43
0.0000000001
 40
0.0
 40
0.0
 40
0.0
 40
0.0
 40
0.25
 40
0.25
 40
0.5
 40
0.5
 40
1.0
 40
1.0
 40
1.0
 40
1.0
 10
4261.167280726894
 20
2419.905783847084
 30
0.0
 10
4261.166889594164
 20
2419.905783847084
 30
0.0
 10
4261.16652394776
 20
2419.905783847084
 30
0.0
 10
4261.165843080545
 20
2419.905783847084
 30
0.0
 10
4261.165527469817
 20
2419.905783847084
 30
0.0
 10
4261.164677002371
 20
2419.905783847084
 30
0.0
 10
4261.164228837142
 20
2419.905783847084
 30
0.0
 10
4261.163902948095
 20
2419.905783847084
 30
0.0
  0
SPLINE
  5
16AD
330
1F
100
AcDbEntity
  8
SANINDUSA
100
AcDbSpline
210
0.0
220
0.0
230
1.0
 70
    24
 71
     3
 72
    12
 73
     8
 74
     0
 42
0.0000000001
 43
0.0000000001
 40
0.0
 40
0.0
 40
0.0
 40
0.0
 40
0.500000000000015
 40
0.500000000000015
 40
0.7500000000000075
 40
0.7500000000000075
 40
1.0
 40
1.0
 40
1.0
 40
1.0
 10
4261.17135817944
 20
2419.906284495304
 30
0.0
 10
4261.170610525752
 20
2419.906192694974
 30
0.0
 10
4261.169901689065
 20
2419.906105660773
 30
0.0
 10
4261.168894879115
 20
2419.905982040055
 30
0.0
 10
4261.168568751905
 20
2419.905941996669
 30
0.0
 10
4261.167935990612
 20
2419.905864303351
 30
0.0
 10
4261.16762898652
 20
2419.905826607989
 30
0.0
 10
4261.167336132912
 20
2419.905790650088
 30
0.0
  0
LINE
  5
16AE
330
1F
100
AcDbEntity
  8
SANINDUSA
100
AcDbLine
 10
4261.296282095606
 20
2419.921623223497
 30
0.0
 11
4261.17135817944
 21
2419.906284495304
 31
0.0
  0
LINE
  5
16B1
330
1F
100
AcDbEntity
  8
SANINDUSA
100
AcDbLine
 10
4261.507469698517
 20
2419.947553800588
 30
0.0
 11
4261.503778730054
 21
2419.947100606647
 31
0.0
  0
LINE
  5
16B2
330
1F
100
AcDbEntity
  8
SANINDUSA
100
AcDbLine
 10
4261.503778730054
 20
2419.947100606647
 30
0.0
 11
4261.470166731642
 21
2419.94297357218
 31
0.0
  0
LINE
  5
16B3
330
1F
100
AcDbEntity
  8
SANINDUSA
100
AcDbLine
 10
4261.552386885351
 20
2419.985783847084
 30
0.0
 11
4261.592280726894
 21
2419.985783847084
 31
0.0
  0
SPLINE
  5
16B6
330
1F
100
AcDbEntity
  8
SANINDUSA
100
AcDbSpline
210
0.0
220
0.0
230
1.0
 70
     8
 71
     3
 72
    30
 73
    26
 74
     0
 42
0.0000000001
 43
0.0000000001
 40
0.0
 40
0.0
 40
0.0
 40
0.0
 40
0.0033442554702018
 40
0.0484316222180735
 40
0.093382598851313
 40
0.1385363184366069
 40
0.1838307701235245
 40
0.2289825206006216
 40
0.2745214725433246
 40
0.3202069753119772
 40
0.3657393799883555
 40
0.4112300886084573
 40
0.4568761729412375
 40
0.5023595040115336
 40
0.5478236485722404
 40
0.593450164419922
 40
0.6389213761205437
 40
0.6842743864728131
 40
0.7297788472430176
 40
0.7751378097633051
 40
0.8202081638967875
 40
0.8654211297829764
 40
0.9104936881318808
 40
0.9553186148597863
 40
1.0
 40
1.0
 40
1.0
 40
1.0
 10
4261.412753278357
 20
2419.926777701872
 30
0.0
 10
4261.412713201405
 20
2419.926776948273
 30
0.0
 10
4261.41213280562
 20
2419.926766034613
 30
0.0
 10
4261.410432282406
 20
2419.926733259231
 30
0.0
 10
4261.407634728431
 20
2419.92668188449
 30
0.0
 10
4261.404181841615
 20
2419.926621612761
 30
0.0
 10
4261.400216187313
 20
2419.926554767763
 30
0.0
 10
4261.395753058244
 20
2419.926482371006
 30
0.0
 10
4261.390833854835
 20
2419.926404341447
 30
0.0
 10
4261.385529435879
 20
2419.926325056553
 30
0.0
 10
4261.379918395371
 20
2419.926250396886
 30
0.0
 10
4261.374063465842
 20
2419.926186464568
 30
0.0
 10
4261.368052087038
 20
2419.926143689932
 30
0.0
 10
4261.361961132066
 20
2419.926132787022
 30
0.0
 10
4261.355876971313
 20
2419.926163699823
 30
0.0
 10
4261.349885073109
 20
2419.926223514463
 30
0.0
 10
4261.344067051445
 20
2419.926302437904
 30
0.0
 10
4261.338509187714
 20
2419.926389713687
 30
0.0
 10
4261.333271778005
 20
2419.926479340407
 30
0.0
 10
4261.32842156328
 20
2419.926565780691
 30
0.0
 10
4261.324032408508
 20
2419.926644705745
 30
0.0
 10
4261.320135290612
 20
2419.926716603375
 30
0.0
 10
4261.316787270886
 20
2419.926779897734
 30
0.0
 10
4261.313991869213
 20
2419.926834890584
 30
0.0
 10
4261.312634772898
 20
2419.92686217435
 30
0.0
 10
4261.311957312929
 20
2419.926875794355
 30
0.0
  0
LINE
  5
16BD
330
1F
100
AcDbEntity
  8
SANINDUSA
100
AcDbLine
 10
4261.23449008844
 20
2420.015983847084
 30
0.0
 11
4261.587280726894
 21
2420.015783847084
 31
0.0
  0
ARC
  5
16BE
330
1F
100
AcDbEntity
  8
SANINDUSA
100
AcDbCircle
 10
4258.913324871978
 20
2420.143063603421
 30
0.0
 40
0.0100054673642176
100
AcDbArc
 50
0.0313818630772636
 51
90.03146284235674
  0
ENDSEC
  0
SECTION
  2
OBJECTS
  0
DICTIONARY
  5
C
330
0
100
AcDbDictionary
281
     1
  3
ACAD_2007HEADERVARS_RT
350
3BED
  3
ACAD_BACKGROUND
350
3B9D
  3
ACAD_COLOR
350
EE6
  3
ACAD_GROUP
350
D
  3
ACAD_LAYOUT
350
1A
  3
ACAD_MATERIAL
350
EE5
  3
ACAD_MLEADERSTYLE
350
10A8
  3
ACAD_MLINESTYLE
350
17
  3
ACAD_PLOTSETTINGS
350
19
  3
ACAD_PLOTSTYLENAME
350
E
  3
ACAD_SCALELIST
350
1096
  3
ACAD_TABLESTYLE
350
EE7
  3
ACAD_VISUALSTYLE
350
1082
  3
ACDB_RECOMPOSE_DATA
350
3BEB
  3
AcDbVariableDictionary
350
3D
  3
AEC_PROPERTY_SET_DEFS
350
145E
  3
ASE_INDEX_DICTIONARY
350
1066
  3
Autodesk_PNP
350
10B2
  3
DWGPROPS
350
3BEC
  0
DICTIONARY
  5
3BA5
330
8
100
AcDbDictionary
280
     1
281
     1
  0
DICTIONARY
  5
1051
330
2
100
AcDbDictionary
280
     1
281
     1
  3
ACAD_LAYERFILTERS
360
1065
  3
ACAD_LAYERSTATES
360
11F8
  3
ACLYDICTIONARY
360
1064
  0
DICTIONARY
  5
3AF9
330
10
100
AcDbDictionary
280
     1
281
     1
  3
ADSK_XREC_LAYER_RECONCILED
360
3AFA
  0
DICTIONARY
  5
3AFB
330
2F
100
AcDbDictionary
280
     1
281
     1
  3
ADSK_XREC_LAYER_RECONCILED
360
3AFC
  0
DICTIONARY
  5
3AFD
330
30
100
AcDbDictionary
280
     1
281
     1
  3
ADSK_XREC_LAYER_RECONCILED
360
3AFE
  0
DICTIONARY
  5
3AFF
330
31
100
AcDbDictionary
280
     1
281
     1
  3
ADSK_XREC_LAYER_RECONCILED
360
3B00
  0
DICTIONARY
  5
3B01
330
32
100
AcDbDictionary
280
     1
281
     1
  3
ADSK_XREC_LAYER_RECONCILED
360
3B02
  0
DICTIONARY
  5
3B03
330
33
100
AcDbDictionary
280
     1
281
     1
  3
ADSK_XREC_LAYER_RECONCILED
360
3B04
  0
DICTIONARY
  5
3B05
330
34
100
AcDbDictionary
280
     1
281
     1
  3
ADSK_XREC_LAYER_RECONCILED
360
3B06
  0
DICTIONARY
  5
3B07
330
35
100
AcDbDictionary
280
     1
281
     1
  3
ADSK_XREC_LAYER_RECONCILED
360
3B08
  0
DICTIONARY
  5
3B09
330
36
100
AcDbDictionary
280
     1
281
     1
  3
ADSK_XREC_LAYER_RECONCILED
360
3B0A
  0
DICTIONARY
  5
3B0B
330
37
100
AcDbDictionary
280
     1
281
     1
  3
ADSK_XREC_LAYER_RECONCILED
360
3B0C
  0
DICTIONARY
  5
3B0D
330
5D6
100
AcDbDictionary
280
     1
281
     1
  3
ADSK_XREC_LAYER_RECONCILED
360
3B0E
  0
DICTIONARY
  5
3B0F
330
8AF
100
AcDbDictionary
280
     1
281
     1
  3
ADSK_XREC_LAYER_RECONCILED
360
3B10
  0
DICTIONARY
  5
3B11
330
8F8
100
AcDbDictionary
280
     1
281
     1
  3
ADSK_XREC_LAYER_RECONCILED
360
3B12
  0
DICTIONARY
  5
3B13
330
91D
100
AcDbDictionary
280
     1
281
     1
  3
ADSK_XREC_LAYER_RECONCILED
360
3B14
  0
DICTIONARY
  5
3B15
330
C7B
100
AcDbDictionary
280
     1
281
     1
  3
ADSK_XREC_LAYER_RECONCILED
360
3B16
  0
DICTIONARY
  5
3B17
330
1060
100
AcDbDictionary
280
     1
281
     1
  3
ADSK_XREC_LAYER_RECONCILED
360
3B18
  0
DICTIONARY
  5
3BED
102
{ACAD_REACTORS
330
C
102
}
330
C
100
AcDbDictionary
281
     1
  3
DIMJOGANG
350
3BEE
  0
DICTIONARY
  5
3B9D
102
{ACAD_REACTORS
330
C
102
}
330
C
100
AcDbDictionary
281
     1
  0
DICTIONARY
  5
EE6
102
{ACAD_REACTORS
330
C
102
}
330
C
100
AcDbDictionary
281
     1
  0
DICTIONARY
  5
D
102
{ACAD_REACTORS
330
C
102
}
330
C
100
AcDbDictionary
281
     1
  0
DICTIONARY
  5
1A
102
{ACAD_REACTORS
330
C
102
}
330
C
100
AcDbDictionary
281
     1
  3
Layout1
350
1E
  3
Layout2
350
26
  3
Model
350
22
  0
DICTIONARY
  5
EE5
102
{ACAD_REACTORS
330
C
102
}
330
C
100
AcDbDictionary
281
     1
  3
ByBlock
350
1072
  3
ByLayer
350
106A
  3
Global
350
107A
  0
DICTIONARY
  5
10A8
102
{ACAD_REACTORS
330
C
102
}
330
C
100
AcDbDictionary
281
     1
  3
Standard
350
10A9
  0
DICTIONARY
  5
17
102
{ACAD_REACTORS
330
C
102
}
330
C
100
AcDbDictionary
281
     1
  3
Standard
350
18
  0
DICTIONARY
  5
19
102
{ACAD_REACTORS
330
C
102
}
330
C
100
AcDbDictionary
281
     1
  0
ACDBDICTIONARYWDFLT
  5
E
102
{ACAD_REACTORS
330
C
102
}
330
C
100
AcDbDictionary
281
     1
  3
Normal
350
F
100
AcDbDictionaryWithDefault
340
F
  0
DICTIONARY
  5
1096
102
{ACAD_REACTORS
330
C
102
}
330
C
100
AcDbDictionary
281
     1
  3
A0
350
1097
  3
A1
350
1098
  3
A2
350
1099
  3
A3
350
109A
  3
A4
350
109B
  3
A5
350
109C
  3
A6
350
109D
  3
A7
350
109E
  3
A8
350
109F
  3
A9
350
10A0
  3
B0
350
10A1
  3
B1
350
10A2
  3
B2
350
10A3
  3
B3
350
10A4
  3
B4
350
10A5
  3
B5
350
10A6
  3
B6
350
10A7
  0
DICTIONARY
  5
EE7
102
{ACAD_REACTORS
330
C
102
}
330
C
100
AcDbDictionary
281
     1
  3
Standard
350
EE8
  0
DICTIONARY
  5
1082
102
{ACAD_REACTORS
330
C
102
}
330
C
100
AcDbDictionary
281
     1
  3
2dWireframe
350
1088
  3
3D Hidden
350
108A
  3
3dWireframe
350
1089
  3
Basic
350
1087
  3
Brighten
350
108E
  3
ColorChange
350
1092
  3
Conceptual
350
108B
  3
Dim
350
108D
  3
EdgeColorOff
350
1095
  3
Facepattern
350
1091
  3
Flat
350
1083
  3
FlatWithEdges
350
1084
  3
Gouraud
350
1085
  3
GouraudWithEdges
350
1086
  3
JitterOff
350
1093
  3
Linepattern
350
1090
  3
OverhangOff
350
1094
  3
Realistic
350
108C
  3
Thicken
350
108F
  0
XRECORD
  5
3BEB
102
{ACAD_REACTORS
330
C
102
}
330
C
100
AcDbXrecord
280
     1
 90
        1
330
EE8
  0
DICTIONARY
  5
3D
102
{ACAD_REACTORS
330
C
102
}
330
C
100
AcDbDictionary
281
     1
  3
CANNOSCALE
350
3BDD
  3
CMLEADERSTYLE
350
3BDC
  3
CTABLESTYLE
350
1049
  3
DIMASSOC
350
3F
  3
HIDETEXT
350
3E
  3
INDEXCTL
350
3BDF
  3
SORTENTS
350
3BDE
  3
XCLIPFRAME
350
3BE9
  0
DICTIONARY
  5
145E
102
{ACAD_REACTORS
330
C
102
}
330
C
100
AcDbDictionary
281
     1
  0
DICTIONARY
  5
1066
102
{ACAD_REACTORS
330
C
102
}
330
C
100
AcDbDictionary
281
     1
  3
ASEBlockHierarchyIndexRecord
350
1067
1001
DCO15
1040
1602247867.484
  0
DICTIONARY
  5
10B2
102
{ACAD_REACTORS
330
C
102
}
330
C
100
AcDbDictionary
281
     1
  0
XRECORD
  5
3BEC
102
{ACAD_REACTORS
330
C
102
}
330
C
100
AcDbXrecord
280
     1
  1
DWGPROPS COOKIE
  2

  3

  4

  6

  7

  8
Julio
  9

300
=
301
=
302
=
303
=
304
=
305
=
306
=
307
=
308
=
309
=
 40
0.0134447337962963
 41
2455782.413615081
 42
2456111.662803634
  1

 90
        0
  0
DICTIONARY
  5
1065
102
{ACAD_REACTORS
330
1051
102
}
330
1051
100
AcDbDictionary
281
     1
  0
DICTIONARY
  5
11F8
102
{ACAD_REACTORS
330
1051
102
}
330
1051
100
AcDbDictionary
281
     1
  0
DICTIONARY
  5
1064
102
{ACAD_REACTORS
330
1051
102
}
330
1051
100
AcDbDictionary
281
     1
1001
ACAD
1000
<All
  0
XRECORD
  5
3AFA
102
{ACAD_REACTORS
330
3AF9
102
}
330
3AF9
100
AcDbXrecord
280
     1
290
     1
  0
XRECORD
  5
3AFC
102
{ACAD_REACTORS
330
3AFB
102
}
330
3AFB
100
AcDbXrecord
280
     1
290
     1
  0
XRECORD
  5
3AFE
102
{ACAD_REACTORS
330
3AFD
102
}
330
3AFD
100
AcDbXrecord
280
     1
290
     1
  0
XRECORD
  5
3B00
102
{ACAD_REACTORS
330
3AFF
102
}
330
3AFF
100
AcDbXrecord
280
     1
290
     1
  0
XRECORD
  5
3B02
102
{ACAD_REACTORS
330
3B01
102
}
330
3B01
100
AcDbXrecord
280
     1
290
     1
  0
XRECORD
  5
3B04
102
{ACAD_REACTORS
330
3B03
102
}
330
3B03
100
AcDbXrecord
280
     1
290
     1
  0
XRECORD
  5
3B06
102
{ACAD_REACTORS
330
3B05
102
}
330
3B05
100
AcDbXrecord
280
     1
290
     1
  0
XRECORD
  5
3B08
102
{ACAD_REACTORS
330
3B07
102
}
330
3B07
100
AcDbXrecord
280
     1
290
     1
  0
XRECORD
  5
3B0A
102
{ACAD_REACTORS
330
3B09
102
}
330
3B09
100
AcDbXrecord
280
     1
290
     1
  0
XRECORD
  5
3B0C
102
{ACAD_REACTORS
330
3B0B
102
}
330
3B0B
100
AcDbXrecord
280
     1
290
     1
  0
XRECORD
  5
3B0E
102
{ACAD_REACTORS
330
3B0D
102
}
330
3B0D
100
AcDbXrecord
280
     1
290
     1
  0
XRECORD
  5
3B10
102
{ACAD_REACTORS
330
3B0F
102
}
330
3B0F
100
AcDbXrecord
280
     1
290
     1
  0
XRECORD
  5
3B12
102
{ACAD_REACTORS
330
3B11
102
}
330
3B11
100
AcDbXrecord
280
     1
290
     1
  0
XRECORD
  5
3B14
102
{ACAD_REACTORS
330
3B13
102
}
330
3B13
100
AcDbXrecord
280
     1
290
     1
  0
XRECORD
  5
3B16
102
{ACAD_REACTORS
330
3B15
102
}
330
3B15
100
AcDbXrecord
280
     1
290
     1
  0
XRECORD
  5
3B18
102
{ACAD_REACTORS
330
3B17
102
}
330
3B17
100
AcDbXrecord
280
     1
290
     1
  0
XRECORD
  5
3BEE
102
{ACAD_REACTORS
330
3BED
102
}
330
3BED
100
AcDbXrecord
280
     1
 40
1.570796326794896
  0
LAYOUT
  5
1E
102
{ACAD_XDICTIONARY
360
3BEF
102
}
102
{ACAD_REACTORS
330
1A
102
}
330
1A
100
AcDbPlotSettings
  1

  2
Ploter HP500
  4

  6

 40
0.0
 41
0.0
 42
0.0
 43
0.0
 44
0.0
 45
0.0
 46
0.0
 47
0.0
 48
0.0
 49
0.0
140
0.0
141
0.0
142
1.0
143
1.0
 70
   688
 72
     0
 73
     0
 74
     5
  7
sanindusa.ctb
 75
    16
147
1.0
148
0.0
149
0.0
100
AcDbLayout
  1
Layout1
 70
     1
 71
     1
 10
0.0
 20
0.0
 11
420.0
 21
297.0
 12
0.0
 22
0.0
 32
0.0
 14
1.000000000000000E+20
 24
1.000000000000000E+20
 34
1.000000000000000E+20
 15
-1.000000000000000E+20
 25
-1.000000000000000E+20
 35
-1.000000000000000E+20
146
0.0
 13
0.0
 23
0.0
 33
0.0
 16
1.0
 26
0.0
 36
0.0
 17
0.0
 27
1.0
 37
0.0
 76
     0
330
1B
  0
LAYOUT
  5
26
102
{ACAD_XDICTIONARY
360
3BF3
102
}
102
{ACAD_REACTORS
330
1A
102
}
330
1A
100
AcDbPlotSettings
  1

  2
Ploter HP500
  4

  6

 40
0.0
 41
0.0
 42
0.0
 43
0.0
 44
0.0
 45
0.0
 46
0.0
 47
0.0
 48
0.0
 49
0.0
140
0.0
141
0.0
142
1.0
143
1.0
 70
   688
 72
     0
 73
     0
 74
     5
  7
sanindusa.ctb
 75
    16
147
1.0
148
0.0
149
0.0
100
AcDbLayout
  1
Layout2
 70
     1
 71
     2
 10
0.0
 20
0.0
 11
12.0
 21
9.0
 12
0.0
 22
0.0
 32
0.0
 14
0.0
 24
0.0
 34
0.0
 15
0.0
 25
0.0
 35
0.0
146
0.0
 13
0.0
 23
0.0
 33
0.0
 16
1.0
 26
0.0
 36
0.0
 17
0.0
 27
1.0
 37
0.0
 76
     0
330
23
  0
LAYOUT
  5
22
102
{ACAD_XDICTIONARY
360
3BF1
102
}
102
{ACAD_REACTORS
330
1A
102
}
330
1A
100
AcDbPlotSettings
  1

  2
Ploter HP500
  4
User268
  6

 40
4.995333194732666
 41
16.97565841674804
 42
4.995330810546875
 43
16.97567749023437
 44
209.9733276367187
 45
296.9259948730469
 46
0.0
 47
0.0
 48
0.0
 49
0.0
140
0.0
141
0.0
142
1.0
143
1.0
 70
 11952
 72
     1
 73
     1
 74
     0
  7
sanindusa.ctb
 75
     0
147
1.0
148
-427.5957866592534
149
7.362384574453926
100
AcDbLayout
  1
Model
 70
     1
 71
     0
 10
0.0
 20
0.0
 11
12.0
 21
9.0
 12
0.0
 22
0.0
 32
0.0
 14
0.0
 24
0.0
 34
0.0
 15
0.0
 25
0.0
 35
0.0
146
0.0
 13
0.0
 23
0.0
 33
0.0
 16
1.0
 26
0.0
 36
0.0
 17
0.0
 27
1.0
 37
0.0
 76
     0
330
1F
331
1068
  0
MATERIAL
  5
1072
102
{ACAD_XDICTIONARY
360
1073
102
}
102
{ACAD_REACTORS
330
EE5
102
}
330
EE5
100
AcDbMaterial
  1
ByBlock
 72
     0
 43
0.0008202099737533
 43
0.0
 43
0.0
 43
0.0
 43
0.0
 43
0.0008202099737533
 43
0.0
 43
0.0
 43
0.0
 43
0.0
 43
1.0
 43
0.0
 43
0.0
 43
0.0
 43
0.0
 43
1.0
 77
     0
 47
0.0008202099737533
 47
0.0
 47
0.0
 47
0.0
 47
0.0
 47
0.0008202099737533
 47
0.0
 47
0.0
 47
0.0
 47
0.0
 47
1.0
 47
0.0
 47
0.0
 47
0.0
 47
0.0
 47
1.0
171
     0
 49
0.0008202099737533
 49
0.0
 49
0.0
 49
0.0
 49
0.0
 49
0.0008202099737533
 49
0.0
 49
0.0
 49
0.0
 49
0.0
 49
1.0
 49
0.0
 49
0.0
 49
0.0
 49
0.0
 49
1.0
175
     0
142
0.0008202099737533
142
0.0
142
0.0
142
0.0
142
0.0
142
0.0008202099737533
142
0.0
142
0.0
142
0.0
142
0.0
142
1.0
142
0.0
142
0.0
142
0.0
142
0.0
142
1.0
179
     0
144
0.0008202099737533
144
0.0
144
0.0
144
0.0
144
0.0
144
0.0008202099737533
144
0.0
144
0.0
144
0.0
144
0.0
144
1.0
144
0.0
144
0.0
144
0.0
144
0.0
144
1.0
147
0.0008202099737533
147
0.0
147
0.0
147
0.0
147
0.0
147
0.0008202099737533
147
0.0
147
0.0
147
0.0
147
0.0
147
1.0
147
0.0
147
0.0
147
0.0
147
0.0
147
1.0
  0
MATERIAL
  5
106A
102
{ACAD_XDICTIONARY
360
106B
102
}
102
{ACAD_REACTORS
330
EE5
102
}
330
EE5
100
AcDbMaterial
  1
ByLayer
 72
     0
 43
0.0008202099737533
 43
0.0
 43
0.0
 43
0.0
 43
0.0
 43
0.0008202099737533
 43
0.0
 43
0.0
 43
0.0
 43
0.0
 43
1.0
 43
0.0
 43
0.0
 43
0.0
 43
0.0
 43
1.0
 77
     0
 47
0.0008202099737533
 47
0.0
 47
0.0
 47
0.0
 47
0.0
 47
0.0008202099737533
 47
0.0
 47
0.0
 47
0.0
 47
0.0
 47
1.0
 47
0.0
 47
0.0
 47
0.0
 47
0.0
 47
1.0
171
     0
 49
0.0008202099737533
 49
0.0
 49
0.0
 49
0.0
 49
0.0
 49
0.0008202099737533
 49
0.0
 49
0.0
 49
0.0
 49
0.0
 49
1.0
 49
0.0
 49
0.0
 49
0.0
 49
0.0
 49
1.0
175
     0
142
0.0008202099737533
142
0.0
142
0.0
142
0.0
142
0.0
142
0.0008202099737533
142
0.0
142
0.0
142
0.0
142
0.0
142
1.0
142
0.0
142
0.0
142
0.0
142
0.0
142
1.0
179
     0
144
0.0008202099737533
144
0.0
144
0.0
144
0.0
144
0.0
144
0.0008202099737533
144
0.0
144
0.0
144
0.0
144
0.0
144
1.0
144
0.0
144
0.0
144
0.0
144
0.0
144
1.0
147
0.0008202099737533
147
0.0
147
0.0
147
0.0
147
0.0
147
0.0008202099737533
147
0.0
147
0.0
147
0.0
147
0.0
147
1.0
147
0.0
147
0.0
147
0.0
147
0.0
147
1.0
  0
MATERIAL
  5
107A
102
{ACAD_XDICTIONARY
360
107B
102
}
102
{ACAD_REACTORS
330
EE5
102
}
330
EE5
100
AcDbMaterial
  1
Global
 72
     0
 43
0.0008202099737533
 43
0.0
 43
0.0
 43
0.0
 43
0.0
 43
0.0008202099737533
 43
0.0
 43
0.0
 43
0.0
 43
0.0
 43
1.0
 43
0.0
 43
0.0
 43
0.0
 43
0.0
 43
1.0
 77
     0
 47
0.0008202099737533
 47
0.0
 47
0.0
 47
0.0
 47
0.0
 47
0.0008202099737533
 47
0.0
 47
0.0
 47
0.0
 47
0.0
 47
1.0
 47
0.0
 47
0.0
 47
0.0
 47
0.0
 47
1.0
171
     0
 49
0.0008202099737533
 49
0.0
 49
0.0
 49
0.0
 49
0.0
 49
0.0008202099737533
 49
0.0
 49
0.0
 49
0.0
 49
0.0
 49
1.0
 49
0.0
 49
0.0
 49
0.0
 49
0.0
 49
1.0
175
     0
142
0.0008202099737533
142
0.0
142
0.0
142
0.0
142
0.0
142
0.0008202099737533
142
0.0
142
0.0
142
0.0
142
0.0
142
1.0
142
0.0
142
0.0
142
0.0
142
0.0
142
1.0
179
     0
144
0.0008202099737533
144
0.0
144
0.0
144
0.0
144
0.0
144
0.0008202099737533
144
0.0
144
0.0
144
0.0
144
0.0
144
1.0
144
0.0
144
0.0
144
0.0
144
0.0
144
1.0
147
0.0008202099737533
147
0.0
147
0.0
147
0.0
147
0.0
147
0.0008202099737533
147
0.0
147
0.0
147
0.0
147
0.0
147
1.0
147
0.0
147
0.0
147
0.0
147
0.0
147
1.0
  0
MLEADERSTYLE
  5
10A9
102
{ACAD_REACTORS
330
10A8
102
}
330
10A8
100
AcDbMLeaderStyle
170
     2
171
     1
172
     0
 90
        2
 40
0.0
 41
0.0
173
     1
 91
-1056964608
340
14
 92
       -2
290
     1
 42
2.0
291
     1
 43
0.36
  3
Standard
 44
4.0
300

342
11
174
     1
178
     6
175
     1
176
     0
 93
-1056964608
 45
4.0
292
     0
297
     0
 46
4.0
 94
-1056964608
 47
1.0
 49
1.0
140
1.0
293
     1
141
0.0
294
     1
177
     0
142
1.0
295
     0
296
     0
143
0.125
1001
ACAD_MLEADERVER
1070
     2
  0
MLINESTYLE
  5
18
102
{ACAD_REACTORS
330
17
102
}
330
17
100
AcDbMlineStyle
  2
STANDARD
 70
     0
  3

 62
   256
 51
90.0
 52
90.0
 71
     2
 49
0.5
 62
   256
  6
BYLAYER
 49
-0.5
 62
   256
  6
BYLAYER
  0
ACDBPLACEHOLDER
  5
F
102
{ACAD_REACTORS
330
E
102
}
330
E
  0
SCALE
  5
1097
102
{ACAD_REACTORS
330
1096
102
}
330
1096
100
AcDbScale
 70
     0
300
1:1
140
1.0
141
1.0
290
     1
  0
SCALE
  5
1098
102
{ACAD_REACTORS
330
1096
102
}
330
1096
100
AcDbScale
 70
     0
300
1:2
140
1.0
141
2.0
290
     0
  0
SCALE
  5
1099
102
{ACAD_REACTORS
330
1096
102
}
330
1096
100
AcDbScale
 70
     0
300
1:4
140
1.0
141
4.0
290
     0
  0
SCALE
  5
109A
102
{ACAD_REACTORS
330
1096
102
}
330
1096
100
AcDbScale
 70
     0
300
1:5
140
1.0
141
5.0
290
     0
  0
SCALE
  5
109B
102
{ACAD_REACTORS
330
1096
102
}
330
1096
100
AcDbScale
 70
     0
300
1:8
140
1.0
141
8.0
290
     0
  0
SCALE
  5
109C
102
{ACAD_REACTORS
330
1096
102
}
330
1096
100
AcDbScale
 70
     0
300
1:10
140
1.0
141
10.0
290
     0
  0
SCALE
  5
109D
102
{ACAD_REACTORS
330
1096
102
}
330
1096
100
AcDbScale
 70
     0
300
1:16
140
1.0
141
16.0
290
     0
  0
SCALE
  5
109E
102
{ACAD_REACTORS
330
1096
102
}
330
1096
100
AcDbScale
 70
     0
300
1:20
140
1.0
141
20.0
290
     0
  0
SCALE
  5
109F
102
{ACAD_REACTORS
330
1096
102
}
330
1096
100
AcDbScale
 70
     0
300
1:30
140
1.0
141
30.0
290
     0
  0
SCALE
  5
10A0
102
{ACAD_REACTORS
330
1096
102
}
330
1096
100
AcDbScale
 70
     0
300
1:40
140
1.0
141
40.0
290
     0
  0
SCALE
  5
10A1
102
{ACAD_REACTORS
330
1096
102
}
330
1096
100
AcDbScale
 70
     0
300
1:50
140
1.0
141
50.0
290
     0
  0
SCALE
  5
10A2
102
{ACAD_REACTORS
330
1096
102
}
330
1096
100
AcDbScale
 70
     0
300
1:100
140
1.0
141
100.0
290
     0
  0
SCALE
  5
10A3
102
{ACAD_REACTORS
330
1096
102
}
330
1096
100
AcDbScale
 70
     0
300
2:1
140
2.0
141
1.0
290
     0
  0
SCALE
  5
10A4
102
{ACAD_REACTORS
330
1096
102
}
330
1096
100
AcDbScale
 70
     0
300
4:1
140
4.0
141
1.0
290
     0
  0
SCALE
  5
10A5
102
{ACAD_REACTORS
330
1096
102
}
330
1096
100
AcDbScale
 70
     0
300
8:1
140
8.0
141
1.0
290
     0
  0
SCALE
  5
10A6
102
{ACAD_REACTORS
330
1096
102
}
330
1096
100
AcDbScale
 70
     0
300
10:1
140
10.0
141
1.0
290
     0
  0
SCALE
  5
10A7
102
{ACAD_REACTORS
330
1096
102
}
330
1096
100
AcDbScale
 70
     0
300
100:1
140
100.0
141
1.0
290
     0
  0
TABLESTYLE
  5
EE8
102
{ACAD_XDICTIONARY
360
3B9F
102
}
102
{ACAD_REACTORS
330
EE7
102
}
330
EE7
100
AcDbTableStyle
  3
Standard
 70
     0
 71
     0
 40
1.5
 41
1.5
280
     0
281
     0
  7
Standard
140
4.5
170
     2
 62
     0
 63
     7
283
     0
274
    -2
284
     1
 64
     0
275
    -2
285
     1
 65
     0
276
    -2
286
     1
 66
     0
277
    -2
287
     1
 67
     0
278
    -2
288
     1
 68
     0
279
    -2
289
     1
 69
     0
  7
Standard
140
6.0
170
     5
 62
     0
 63
     7
283
     0
274
    -2
284
     1
 64
     0
275
    -2
285
     1
 65
     0
276
    -2
286
     1
 66
     0
277
    -2
287
     1
 67
     0
278
    -2
288
     1
 68
     0
279
    -2
289
     1
 69
     0
  7
Standard
140
4.5
170
     5
 62
     0
 63
     7
283
     0
274
    -2
284
     1
 64
     0
275
    -2
285
     1
 65
     0
276
    -2
286
     1
 66
     0
277
    -2
287
     1
 67
     0
278
    -2
288
     1
 68
     0
279
    -2
289
     1
 69
     0
  0
VISUALSTYLE
  5
1088
102
{ACAD_XDICTIONARY
360
3C03
102
}
102
{ACAD_REACTORS
330
1082
102
}
330
1082
100
AcDbVisualStyle
  2
2dWireframe
 70
     4
 71
     0
 72
     2
 73
     0
 90
        0
 40
-0.6
 41
-30.0
 62
     5
 63
     7
 74
     1
 91
        4
 64
     7
 65
   257
 75
     1
175
     1
 42
1.0
 92
        0
 66
   257
 43
1.0
 76
     1
 77
     6
 78
     2
 67
     7
 79
     5
170
     0
171
     0
290
     0
174
     0
 93
        1
 44
0.0
173
     0
291
     0
 45
0.0
1001
ACAD
1000
AcDbSavedByObjectVersion
1070
     0
  0
VISUALSTYLE
  5
108A
102
{ACAD_XDICTIONARY
360
3C07
102
}
102
{ACAD_REACTORS
330
1082
102
}
330
1082
100
AcDbVisualStyle
  2
3D Hidden
 70
     6
 71
     1
 72
     2
 73
     2
 90
        0
 40
-0.6
 41
-30.0
 62
     5
 63
     7
 74
     2
 91
        2
 64
     7
 65
   257
 75
     2
175
     1
 42
179.0
 92
        0
 66
   257
 43
1.0
 76
     1
 77
     6
 78
     2
 67
     7
 79
     3
170
     0
171
     0
290
     0
174
     0
 93
        1
 44
0.0
173
     0
291
     0
 45
0.0
1001
ACAD
1000
AcDbSavedByObjectVersion
1070
     0
  0
VISUALSTYLE
  5
1089
102
{ACAD_XDICTIONARY
360
3C05
102
}
102
{ACAD_REACTORS
330
1082
102
}
330
1082
100
AcDbVisualStyle
  2
3dWireframe
 70
     5
 71
     0
 72
     2
 73
     0
 90
        0
 40
-0.6
 41
-30.0
 62
     5
 63
     7
 74
     1
 91
        4
 64
     7
 65
   257
 75
     1
175
     1
 42
1.0
 92
        0
 66
   257
 43
1.0
 76
     1
 77
     6
 78
     2
 67
     7
 79
     5
170
     0
171
     0
290
     0
174
     0
 93
        1
 44
0.0
173
     0
291
     0
 45
0.0
1001
ACAD
1000
AcDbSavedByObjectVersion
1070
     0
  0
VISUALSTYLE
  5
1087
102
{ACAD_XDICTIONARY
360
3C01
102
}
102
{ACAD_REACTORS
330
1082
102
}
330
1082
100
AcDbVisualStyle
  2
Basic
 70
     7
 71
     1
 72
     0
 73
     1
 90
        0
 40
-0.6
 41
-30.0
 62
     5
 63
     7
 74
     0
 91
        4
 64
     7
 65
   257
 75
     1
175
     1
 42
1.0
 92
        8
 66
     7
 43
1.0
 76
     1
 77
     6
 78
     2
 67
     7
 79
     5
170
     0
171
     0
290
     0
174
     0
 93
        1
 44
0.0
173
     0
291
     1
 45
0.0
1001
ACAD
1000
AcDbSavedByObjectVersion
1070
     0
  0
VISUALSTYLE
  5
108E
102
{ACAD_XDICTIONARY
360
3C0F
102
}
102
{ACAD_REACTORS
330
1082
102
}
330
1082
100
AcDbVisualStyle
  2
Brighten
 70
    12
 71
     2
 72
     2
 73
     0
 90
        0
 40
-0.6
 41
-30.0
 62
     5
 63
     7
 74
     1
 91
        4
 64
     7
 65
   257
 75
     1
175
     1
 42
1.0
 92
        8
 66
     7
 43
1.0
 76
     1
 77
     6
 78
     2
 67
     7
 79
     5
170
     0
171
     0
290
     0
174
     0
 93
        1
 44
50.0
173
     0
291
     1
 45
0.0
1001
ACAD
1000
AcDbSavedByObjectVersion
1070
     0
  0
VISUALSTYLE
  5
1092
102
{ACAD_XDICTIONARY
360
3C17
102
}
102
{ACAD_REACTORS
330
1082
102
}
330
1082
100
AcDbVisualStyle
  2
ColorChange
 70
    16
 71
     2
 72
     2
 73
     3
 90
        0
 40
-0.6
 41
-30.0
 62
     5
 63
     8
 74
     1
 91
        4
 64
     7
 65
   257
 75
     1
175
     1
 42
1.0
 92
        8
 66
     8
 43
1.0
 76
     1
 77
     6
 78
     2
 67
     7
 79
     5
170
     0
171
     0
290
     0
174
     0
 93
        1
 44
0.0
173
     0
291
     1
 45
0.0
1001
ACAD
1000
AcDbSavedByObjectVersion
1070
     0
  0
VISUALSTYLE
  5
108B
102
{ACAD_XDICTIONARY
360
3C09
102
}
102
{ACAD_REACTORS
330
1082
102
}
330
1082
100
AcDbVisualStyle
  2
Conceptual
 70
     9
 71
     3
 72
     2
 73
     0
 90
        0
 40
-0.6
 41
-30.0
 62
     5
 63
     7
 74
     2
 91
        2
 64
     7
 65
   257
 75
     1
175
     1
 42
179.0
 92
        8
 66
     7
 43
1.0
 76
     1
 77
     6
 78
     2
 67
     7
 79
     3
170
     0
171
     0
290
     0
174
     0
 93
        1
 44
0.0
173
     0
291
     0
 45
0.0
1001
ACAD
1000
AcDbSavedByObjectVersion
1070
     0
  0
VISUALSTYLE
  5
108D
102
{ACAD_XDICTIONARY
360
3C0D
102
}
102
{ACAD_REACTORS
330
1082
102
}
330
1082
100
AcDbVisualStyle
  2
Dim
 70
    11
 71
     2
 72
     2
 73
     0
 90
        0
 40
-0.6
 41
-30.0
 62
     5
 63
     7
 74
     1
 91
        4
 64
     7
 65
   257
 75
     1
175
     1
 42
1.0
 92
        8
 66
     7
 43
1.0
 76
     1
 77
     6
 78
     2
 67
     7
 79
     5
170
     0
171
     0
290
     0
174
     0
 93
        1
 44
-50.0
173
     0
291
     1
 45
0.0
1001
ACAD
1000
AcDbSavedByObjectVersion
1070
     0
  0
VISUALSTYLE
  5
1095
102
{ACAD_XDICTIONARY
360
3C1D
102
}
102
{ACAD_REACTORS
330
1082
102
}
330
1082
100
AcDbVisualStyle
  2
EdgeColorOff
 70
    22
 71
     2
 72
     2
 73
     0
 90
        0
 40
-0.6
 41
-30.0
 62
     5
 63
     7
 74
     1
 91
        4
 64
     7
 65
   257
 75
     1
175
     1
 42
1.0
 92
        8
 66
     7
 43
1.0
 76
     1
 77
     6
 78
     2
 67
     7
 79
     5
170
     0
171
     0
290
     0
174
     0
 93
        1
 44
0.0
173
     0
291
     1
 45
0.0
1001
ACAD
1000
AcDbSavedByObjectVersion
1070
     0
  0
VISUALSTYLE
  5
1091
102
{ACAD_XDICTIONARY
360
3C15
102
}
102
{ACAD_REACTORS
330
1082
102
}
330
1082
100
AcDbVisualStyle
  2
Facepattern
 70
    15
 71
     2
 72
     2
 73
     0
 90
        0
 40
-0.6
 41
-30.0
 62
     5
 63
     7
 74
     1
 91
        4
 64
     7
 65
   257
 75
     1
175
     1
 42
1.0
 92
        8
 66
     7
 43
1.0
 76
     1
 77
     6
 78
     2
 67
     7
 79
     5
170
     0
171
     0
290
     0
174
     0
 93
        1
 44
0.0
173
     0
291
     1
 45
0.0
1001
ACAD
1000
AcDbSavedByObjectVersion
1070
     0
  0
VISUALSTYLE
  5
1083
102
{ACAD_XDICTIONARY
360
3BF9
102
}
102
{ACAD_REACTORS
330
1082
102
}
330
1082
100
AcDbVisualStyle
  2
Flat
 70
     0
 71
     2
 72
     1
 73
     1
 90
        2
 40
-0.6
 41
30.0
 62
     5
 63
     7
 74
     0
 91
        4
 64
     7
 65
   257
 75
     1
175
     1
 42
1.0
 92
        8
 66
     7
 43
1.0
 76
     1
 77
     6
 78
     2
 67
     7
 79
     5
170
     0
171
     0
290
     0
174
     0
 93
       13
 44
0.0
173
     0
291
     1
 45
0.0
1001
ACAD
1000
AcDbSavedByObjectVersion
1070
     0
  0
VISUALSTYLE
  5
1084
102
{ACAD_XDICTIONARY
360
3BFB
102
}
102
{ACAD_REACTORS
330
1082
102
}
330
1082
100
AcDbVisualStyle
  2
FlatWithEdges
 70
     1
 71
     2
 72
     1
 73
     1
 90
        2
 40
-0.6
 41
30.0
 62
     5
 63
     7
 74
     1
 91
        4
 64
     7
 65
   257
 75
     1
175
     1
 42
1.0
 92
        0
 66
   257
 43
1.0
 76
     1
 77
     6
 78
     2
 67
     7
 79
     5
170
     0
171
     0
290
     0
174
     0
 93
       13
 44
0.0
173
     0
291
     1
 45
0.0
1001
ACAD
1000
AcDbSavedByObjectVersion
1070
     0
  0
VISUALSTYLE
  5
1085
102
{ACAD_XDICTIONARY
360
3BFD
102
}
102
{ACAD_REACTORS
330
1082
102
}
330
1082
100
AcDbVisualStyle
  2
Gouraud
 70
     2
 71
     2
 72
     2
 73
     1
 90
        2
 40
-0.6
 41
30.0
 62
     5
 63
     7
 74
     0
 91
        4
 64
     7
 65
   257
 75
     1
175
     1
 42
1.0
 92
        0
 66
     7
 43
1.0
 76
     1
 77
     6
 78
     2
 67
     7
 79
     5
170
     0
171
     0
290
     0
174
     0
 93
       13
 44
0.0
173
     0
291
     1
 45
0.0
1001
ACAD
1000
AcDbSavedByObjectVersion
1070
     0
  0
VISUALSTYLE
  5
1086
102
{ACAD_XDICTIONARY
360
3BFF
102
}
102
{ACAD_REACTORS
330
1082
102
}
330
1082
100
AcDbVisualStyle
  2
GouraudWithEdges
 70
     3
 71
     2
 72
     2
 73
     1
 90
        2
 40
-0.6
 41
30.0
 62
     5
 63
     7
 74
     1
 91
        4
 64
     7
 65
   257
 75
     1
175
     1
 42
1.0
 92
        0
 66
   257
 43
1.0
 76
     1
 77
     6
 78
     2
 67
     7
 79
     5
170
     0
171
     0
290
     0
174
     0
 93
       13
 44
0.0
173
     0
291
     1
 45
0.0
1001
ACAD
1000
AcDbSavedByObjectVersion
1070
     0
  0
VISUALSTYLE
  5
1093
102
{ACAD_XDICTIONARY
360
3C19
102
}
102
{ACAD_REACTORS
330
1082
102
}
330
1082
100
AcDbVisualStyle
  2
JitterOff
 70
    20
 71
     2
 72
     2
 73
     0
 90
        0
 40
-0.6
 41
-30.0
 62
     5
 63
     7
 74
     1
 91
        4
 64
     7
 65
   257
 75
     1
175
     1
 42
1.0
 92
       10
 66
     7
 43
1.0
 76
     1
 77
     6
 78
     2
 67
     7
 79
     5
170
     0
171
     0
290
     0
174
     0
 93
        1
 44
0.0
173
     0
291
     1
 45
0.0
1001
ACAD
1000
AcDbSavedByObjectVersion
1070
     0
  0
VISUALSTYLE
  5
1090
102
{ACAD_XDICTIONARY
360
3C13
102
}
102
{ACAD_REACTORS
330
1082
102
}
330
1082
100
AcDbVisualStyle
  2
Linepattern
 70
    14
 71
     2
 72
     2
 73
     0
 90
        0
 40
-0.6
 41
-30.0
 62
     5
 63
     7
 74
     1
 91
        4
 64
     7
 65
   257
 75
     7
175
     7
 42
1.0
 92
        8
 66
     7
 43
1.0
 76
     1
 77
     6
 78
     2
 67
     7
 79
     5
170
     0
171
     0
290
     0
174
     0
 93
        1
 44
0.0
173
     0
291
     1
 45
0.0
1001
ACAD
1000
AcDbSavedByObjectVersion
1070
     0
  0
VISUALSTYLE
  5
1094
102
{ACAD_XDICTIONARY
360
3C1B
102
}
102
{ACAD_REACTORS
330
1082
102
}
330
1082
100
AcDbVisualStyle
  2
OverhangOff
 70
    21
 71
     2
 72
     2
 73
     0
 90
        0
 40
-0.6
 41
-30.0
 62
     5
 63
     7
 74
     1
 91
        4
 64
     7
 65
   257
 75
     1
175
     1
 42
1.0
 92
        9
 66
     7
 43
1.0
 76
     1
 77
     6
 78
     2
 67
     7
 79
     5
170
     0
171
     0
290
     0
174
     0
 93
        1
 44
0.0
173
     0
291
     1
 45
0.0
1001
ACAD
1000
AcDbSavedByObjectVersion
1070
     0
  0
VISUALSTYLE
  5
108C
102
{ACAD_XDICTIONARY
360
3C0B
102
}
102
{ACAD_REACTORS
330
1082
102
}
330
1082
100
AcDbVisualStyle
  2
Realistic
 70
     8
 71
     2
 72
     2
 73
     0
 90
        0
 40
-0.6
 41
-30.0
 62
     5
 63
     7
 74
     1
 91
        0
 64
     7
 65
   257
 75
     1
175
     1
 42
1.0
 92
        8
 66
     8
 43
1.0
 76
     1
 77
     6
 78
     2
 67
     7
 79
     5
170
     0
171
     0
290
     0
174
     0
 93
       13
 44
0.0
173
     0
291
     0
 45
0.0
1001
ACAD
1000
AcDbSavedByObjectVersion
1070
     0
  0
VISUALSTYLE
  5
108F
102
{ACAD_XDICTIONARY
360
3C11
102
}
102
{ACAD_REACTORS
330
1082
102
}
330
1082
100
AcDbVisualStyle
  2
Thicken
 70
    13
 71
     2
 72
     2
 73
     0
 90
        0
 40
-0.6
 41
-30.0
 62
     5
 63
     7
 74
     1
 91
        4
 64
     7
 65
   257
 75
     1
175
     1
 42
1.0
 92
       12
 66
     7
 43
1.0
 76
     1
 77
     6
 78
     2
 67
     7
 79
     5
170
     0
171
     0
290
     0
174
     0
 93
        1
 44
0.0
173
     0
291
     1
 45
0.0
1001
ACAD
1000
AcDbSavedByObjectVersion
1070
     0
  0
DICTIONARYVAR
  5
3BDD
102
{ACAD_REACTORS
330
3D
102
}
330
3D
100
DictionaryVariables
280
     0
  1
1:1
  0
DICTIONARYVAR
  5
3BDC
102
{ACAD_REACTORS
330
3D
102
}
330
3D
100
DictionaryVariables
280
     0
  1
STANDARD
  0
DICTIONARYVAR
  5
1049
102
{ACAD_REACTORS
330
3D
102
}
330
3D
100
DictionaryVariables
280
     0
  1
STANDARD
  0
DICTIONARYVAR
  5
3F
102
{ACAD_REACTORS
330
3D
102
}
330
3D
100
DictionaryVariables
280
     0
  1
2
  0
DICTIONARYVAR
  5
3E
102
{ACAD_REACTORS
330
3D
102
}
330
3D
100
DictionaryVariables
280
     0
  1
1
  0
DICTIONARYVAR
  5
3BDF
102
{ACAD_REACTORS
330
3D
102
}
330
3D
100
DictionaryVariables
280
     0
  1
0
  0
DICTIONARYVAR
  5
3BDE
102
{ACAD_REACTORS
330
3D
102
}
330
3D
100
DictionaryVariables
280
     0
  1
127
  0
DICTIONARYVAR
  5
3BE9
102
{ACAD_REACTORS
330
3D
102
}
330
3D
100
DictionaryVariables
280
     0
  1
2
  0
XRECORD
  5
1067
102
{ACAD_REACTORS
330
1066
102
}
330
1066
100
AcDbXrecord
280
     1
  0
DICTIONARY
  5
3BEF
330
1E
100
AcDbDictionary
280
     1
281
     1
  3
ACAD_XREC_ROUNDTRIP
360
3BF0
  0
DICTIONARY
  5
3BF3
330
26
100
AcDbDictionary
280
     1
281
     1
  3
ACAD_XREC_ROUNDTRIP
360
3BF4
  0
DICTIONARY
  5
3BF1
330
22
100
AcDbDictionary
280
     1
281
     1
  3
ACAD_XREC_ROUNDTRIP
360
3BF2
  0
DICTIONARY
  5
1073
330
1072
100
AcDbDictionary
280
     1
281
     1
  3
ACAD_XREC_ROUNDTRIP
360
3BF7
  3
BUMPTILE
360
1075
  3
DIFFUSETILE
360
1074
  3
OPACITYTILE
360
1078
  3
REFLECTIONTILE
360
1077
  3
REFRACTIONTILE
360
1079
  3
SPECULARTILE
360
1076
  0
DICTIONARY
  5
106B
330
106A
100
AcDbDictionary
280
     1
281
     1
  3
ACAD_XREC_ROUNDTRIP
360
3BF6
  3
BUMPTILE
360
106D
  3
DIFFUSETILE
360
106C
  3
OPACITYTILE
360
1070
  3
REFLECTIONTILE
360
106F
  3
REFRACTIONTILE
360
1071
  3
SPECULARTILE
360
106E
  0
DICTIONARY
  5
107B
330
107A
100
AcDbDictionary
280
     1
281
     1
  3
ACAD_XREC_ROUNDTRIP
360
3BF8
  3
BUMPTILE
360
107D
  3
DIFFUSETILE
360
107C
  3
OPACITYTILE
360
1080
  3
REFLECTIONTILE
360
107F
  3
REFRACTIONTILE
360
1081
  3
SPECULARTILE
360
107E
  0
DICTIONARY
  5
3B9F
330
EE8
100
AcDbDictionary
280
     1
281
     1
  3
ACAD_ROUNDTRIP_2008_TABLESTYLE_CELLSTYLEMAP
360
3BEA
  3
ACAD_XREC_ROUNDTRIP
360
3BF5
  0
DICTIONARY
  5
3C03
330
1088
100
AcDbDictionary
280
     1
281
     1
  3
ACAD_XREC_ROUNDTRIP
360
3C04
  0
DICTIONARY
  5
3C07
330
108A
100
AcDbDictionary
280
     1
281
     1
  3
ACAD_XREC_ROUNDTRIP
360
3C08
  0
DICTIONARY
  5
3C05
330
1089
100
AcDbDictionary
280
     1
281
     1
  3
ACAD_XREC_ROUNDTRIP
360
3C06
  0
DICTIONARY
  5
3C01
330
1087
100
AcDbDictionary
280
     1
281
     1
  3
ACAD_XREC_ROUNDTRIP
360
3C02
  0
DICTIONARY
  5
3C0F
330
108E
100
AcDbDictionary
280
     1
281
     1
  3
ACAD_XREC_ROUNDTRIP
360
3C10
  0
DICTIONARY
  5
3C17
330
1092
100
AcDbDictionary
280
     1
281
     1
  3
ACAD_XREC_ROUNDTRIP
360
3C18
  0
DICTIONARY
  5
3C09
330
108B
100
AcDbDictionary
280
     1
281
     1
  3
ACAD_XREC_ROUNDTRIP
360
3C0A
  0
DICTIONARY
  5
3C0D
330
108D
100
AcDbDictionary
280
     1
281
     1
  3
ACAD_XREC_ROUNDTRIP
360
3C0E
  0
DICTIONARY
  5
3C1D
330
1095
100
AcDbDictionary
280
     1
281
     1
  3
ACAD_XREC_ROUNDTRIP
360
3C1E
  0
DICTIONARY
  5
3C15
330
1091
100
AcDbDictionary
280
     1
281
     1
  3
ACAD_XREC_ROUNDTRIP
360
3C16
  0
DICTIONARY
  5
3BF9
330
1083
100
AcDbDictionary
280
     1
281
     1
  3
ACAD_XREC_ROUNDTRIP
360
3BFA
  0
DICTIONARY
  5
3BFB
330
1084
100
AcDbDictionary
280
     1
281
     1
  3
ACAD_XREC_ROUNDTRIP
360
3BFC
  0
DICTIONARY
  5
3BFD
330
1085
100
AcDbDictionary
280
     1
281
     1
  3
ACAD_XREC_ROUNDTRIP
360
3BFE
  0
DICTIONARY
  5
3BFF
330
1086
100
AcDbDictionary
280
     1
281
     1
  3
ACAD_XREC_ROUNDTRIP
360
3C00
  0
DICTIONARY
  5
3C19
330
1093
100
AcDbDictionary
280
     1
281
     1
  3
ACAD_XREC_ROUNDTRIP
360
3C1A
  0
DICTIONARY
  5
3C13
330
1090
100
AcDbDictionary
280
     1
281
     1
  3
ACAD_XREC_ROUNDTRIP
360
3C14
  0
DICTIONARY
  5
3C1B
330
1094
100
AcDbDictionary
280
     1
281
     1
  3
ACAD_XREC_ROUNDTRIP
360
3C1C
  0
DICTIONARY
  5
3C0B
330
108C
100
AcDbDictionary
280
     1
281
     1
  3
ACAD_XREC_ROUNDTRIP
360
3C0C
  0
DICTIONARY
  5
3C11
330
108F
100
AcDbDictionary
280
     1
281
     1
  3
ACAD_XREC_ROUNDTRIP
360
3C12
  0
XRECORD
  5
3BF0
102
{ACAD_REACTORS
330
3BEF
102
}
330
3BEF
100
AcDbXrecord
280
     1
102
SHADEPLOT
 70
     0
102
SHADEPLOTRESLEVEL
 70
     2
102
SHADEPLOTCUSTOMDPI
 70
   300
  0
XRECORD
  5
3BF4
102
{ACAD_REACTORS
330
3BF3
102
}
330
3BF3
100
AcDbXrecord
280
     1
102
SHADEPLOT
 70
     0
102
SHADEPLOTRESLEVEL
 70
     2
102
SHADEPLOTCUSTOMDPI
 70
   300
  0
XRECORD
  5
3BF2
102
{ACAD_REACTORS
330
3BF1
102
}
330
3BF1
100
AcDbXrecord
280
     1
102
SHADEPLOT
 70
     0
102
SHADEPLOTRESLEVEL
 70
     2
102
SHADEPLOTCUSTOMDPI
 70
   300
  0
XRECORD
  5
3BF7
102
{ACAD_REACTORS
330
1073
102
}
330
1073
100
AcDbXrecord
280
     1
102
MATERIAL
148
0.0
149
0.0
149
0.0
 93
        0
 94
      127
282
     0
 72
     0
 77
     0
171
     0
175
     0
179
     0
273
     0
  0
XRECORD
  5
1075
102
{ACAD_REACTORS
330
1073
102
}
330
1073
100
AcDbXrecord
280
     1
270
     1
271
     1
  0
XRECORD
  5
1074
102
{ACAD_REACTORS
330
1073
102
}
330
1073
100
AcDbXrecord
280
     1
270
     1
271
     1
  0
XRECORD
  5
1078
102
{ACAD_REACTORS
330
1073
102
}
330
1073
100
AcDbXrecord
280
     1
270
     1
271
     1
  0
XRECORD
  5
1077
102
{ACAD_REACTORS
330
1073
102
}
330
1073
100
AcDbXrecord
280
     1
270
     1
271
     1
  0
XRECORD
  5
1079
102
{ACAD_REACTORS
330
1073
102
}
330
1073
100
AcDbXrecord
280
     1
270
     1
271
     1
  0
XRECORD
  5
1076
102
{ACAD_REACTORS
330
1073
102
}
330
1073
100
AcDbXrecord
280
     1
270
     1
271
     1
  0
XRECORD
  5
3BF6
102
{ACAD_REACTORS
330
106B
102
}
330
106B
100
AcDbXrecord
280
     1
102
MATERIAL
148
0.0
149
0.0
149
0.0
 93
        0
 94
      127
282
     0
 72
     0
 77
     0
171
     0
175
     0
179
     0
273
     0
  0
XRECORD
  5
106D
102
{ACAD_REACTORS
330
106B
102
}
330
106B
100
AcDbXrecord
280
     1
270
     1
271
     1
  0
XRECORD
  5
106C
102
{ACAD_REACTORS
330
106B
102
}
330
106B
100
AcDbXrecord
280
     1
270
     1
271
     1
  0
XRECORD
  5
1070
102
{ACAD_REACTORS
330
106B
102
}
330
106B
100
AcDbXrecord
280
     1
270
     1
271
     1
  0
XRECORD
  5
106F
102
{ACAD_REACTORS
330
106B
102
}
330
106B
100
AcDbXrecord
280
     1
270
     1
271
     1
  0
XRECORD
  5
1071
102
{ACAD_REACTORS
330
106B
102
}
330
106B
100
AcDbXrecord
280
     1
270
     1
271
     1
  0
XRECORD
  5
106E
102
{ACAD_REACTORS
330
106B
102
}
330
106B
100
AcDbXrecord
280
     1
270
     1
271
     1
  0
XRECORD
  5
3BF8
102
{ACAD_REACTORS
330
107B
102
}
330
107B
100
AcDbXrecord
280
     1
102
MATERIAL
148
0.0
149
0.0
149
0.0
 93
        0
 94
      127
282
     0
 72
     0
 77
     0
171
     0
175
     0
179
     0
273
     0
  0
XRECORD
  5
107D
102
{ACAD_REACTORS
330
107B
102
}
330
107B
100
AcDbXrecord
280
     1
270
     1
271
     1
  0
XRECORD
  5
107C
102
{ACAD_REACTORS
330
107B
102
}
330
107B
100
AcDbXrecord
280
     1
270
     1
271
     1
  0
XRECORD
  5
1080
102
{ACAD_REACTORS
330
107B
102
}
330
107B
100
AcDbXrecord
280
     1
270
     1
271
     1
  0
XRECORD
  5
107F
102
{ACAD_REACTORS
330
107B
102
}
330
107B
100
AcDbXrecord
280
     1
270
     1
271
     1
  0
XRECORD
  5
1081
102
{ACAD_REACTORS
330
107B
102
}
330
107B
100
AcDbXrecord
280
     1
270
     1
271
     1
  0
XRECORD
  5
107E
102
{ACAD_REACTORS
330
107B
102
}
330
107B
100
AcDbXrecord
280
     1
270
     1
271
     1
  0
CELLSTYLEMAP
  5
3BEA
102
{ACAD_REACTORS
330
3B9F
102
}
330
3B9F
100
AcDbCellStyleMap
 90
        3
300
CELLSTYLE
  1
TABLEFORMAT_BEGIN
 90
        5
170
     1
 91
        0
 92
    32768
 62
   257
 93
        1
300
CONTENTFORMAT
  1
CONTENTFORMAT_BEGIN
 90
        0
 91
        0
 92
        4
 93
        0
300

 40
0.0
140
1.0
 94
        5
 62
     0
340
11
144
6.0
309
CONTENTFORMAT_END
171
     1
301
MARGIN
  1
CELLMARGIN_BEGIN
 40
1.5
 40
1.5
 40
1.5
 40
1.5
 40
0.18
 40
0.18
309
CELLMARGIN_END
 94
        6
 95
        1
302
GRIDFORMAT
  1
GRIDFORMAT_BEGIN
 90
        0
 91
        1
 62
     0
 92
       -2
340
0
 93
        0
 40
0.045
309
GRIDFORMAT_END
 95
        2
302
GRIDFORMAT
  1
GRIDFORMAT_BEGIN
 90
        0
 91
        1
 62
     0
 92
       -2
340
0
 93
        0
 40
0.045
309
GRIDFORMAT_END
 95
        4
302
GRIDFORMAT
  1
GRIDFORMAT_BEGIN
 90
        0
 91
        1
 62
     0
 92
       -2
340
0
 93
        0
 40
0.045
309
GRIDFORMAT_END
 95
        8
302
GRIDFORMAT
  1
GRIDFORMAT_BEGIN
 90
        0
 91
        1
 62
     0
 92
       -2
340
0
 93
        0
 40
0.045
309
GRIDFORMAT_END
 95
       16
302
GRIDFORMAT
  1
GRIDFORMAT_BEGIN
 90
        0
 91
        1
 62
     0
 92
       -2
340
0
 93
        0
 40
0.045
309
GRIDFORMAT_END
 95
       32
302
GRIDFORMAT
  1
GRIDFORMAT_BEGIN
 90
        0
 91
        1
 62
     0
 92
       -2
340
0
 93
        0
 40
0.045
309
GRIDFORMAT_END
309
TABLEFORMAT_END
  1
CELLSTYLE_BEGIN
 90
        1
 91
        1
300
_TITLE
309
CELLSTYLE_END
300
CELLSTYLE
  1
TABLEFORMAT_BEGIN
 90
        5
170
     1
 91
        0
 92
        0
 62
   257
 93
        1
300
CONTENTFORMAT
  1
CONTENTFORMAT_BEGIN
 90
        0
 91
        0
 92
        4
 93
        0
300

 40
0.0
140
1.0
 94
        5
 62
     0
340
11
144
4.5
309
CONTENTFORMAT_END
171
     1
301
MARGIN
  1
CELLMARGIN_BEGIN
 40
1.5
 40
1.5
 40
1.5
 40
1.5
 40
0.18
 40
0.18
309
CELLMARGIN_END
 94
        6
 95
        1
302
GRIDFORMAT
  1
GRIDFORMAT_BEGIN
 90
        0
 91
        1
 62
     0
 92
       -2
340
0
 93
        0
 40
0.045
309
GRIDFORMAT_END
 95
        2
302
GRIDFORMAT
  1
GRIDFORMAT_BEGIN
 90
        0
 91
        1
 62
     0
 92
       -2
340
0
 93
        0
 40
0.045
309
GRIDFORMAT_END
 95
        4
302
GRIDFORMAT
  1
GRIDFORMAT_BEGIN
 90
        0
 91
        1
 62
     0
 92
       -2
340
0
 93
        0
 40
0.045
309
GRIDFORMAT_END
 95
        8
302
GRIDFORMAT
  1
GRIDFORMAT_BEGIN
 90
        0
 91
        1
 62
     0
 92
       -2
340
0
 93
        0
 40
0.045
309
GRIDFORMAT_END
 95
       16
302
GRIDFORMAT
  1
GRIDFORMAT_BEGIN
 90
        0
 91
        1
 62
     0
 92
       -2
340
0
 93
        0
 40
0.045
309
GRIDFORMAT_END
 95
       32
302
GRIDFORMAT
  1
GRIDFORMAT_BEGIN
 90
        0
 91
        1
 62
     0
 92
       -2
340
0
 93
        0
 40
0.045
309
GRIDFORMAT_END
309
TABLEFORMAT_END
  1
CELLSTYLE_BEGIN
 90
        2
 91
        1
300
_HEADER
309
CELLSTYLE_END
300
CELLSTYLE
  1
TABLEFORMAT_BEGIN
 90
        5
170
     1
 91
        0
 92
        0
 62
   257
 93
        1
300
CONTENTFORMAT
  1
CONTENTFORMAT_BEGIN
 90
        0
 91
        0
 92
        4
 93
        0
300

 40
0.0
140
1.0
 94
        2
 62
     0
340
11
144
4.5
309
CONTENTFORMAT_END
171
     1
301
MARGIN
  1
CELLMARGIN_BEGIN
 40
1.5
 40
1.5
 40
1.5
 40
1.5
 40
0.18
 40
0.18
309
CELLMARGIN_END
 94
        6
 95
        1
302
GRIDFORMAT
  1
GRIDFORMAT_BEGIN
 90
        0
 91
        1
 62
     0
 92
       -2
340
0
 93
        0
 40
0.045
309
GRIDFORMAT_END
 95
        2
302
GRIDFORMAT
  1
GRIDFORMAT_BEGIN
 90
        0
 91
        1
 62
     0
 92
       -2
340
0
 93
        0
 40
0.045
309
GRIDFORMAT_END
 95
        4
302
GRIDFORMAT
  1
GRIDFORMAT_BEGIN
 90
        0
 91
        1
 62
     0
 92
       -2
340
0
 93
        0
 40
0.045
309
GRIDFORMAT_END
 95
        8
302
GRIDFORMAT
  1
GRIDFORMAT_BEGIN
 90
        0
 91
        1
 62
     0
 92
       -2
340
0
 93
        0
 40
0.045
309
GRIDFORMAT_END
 95
       16
302
GRIDFORMAT
  1
GRIDFORMAT_BEGIN
 90
        0
 91
        1
 62
     0
 92
       -2
340
0
 93
        0
 40
0.045
309
GRIDFORMAT_END
 95
       32
302
GRIDFORMAT
  1
GRIDFORMAT_BEGIN
 90
        0
 91
        1
 62
     0
 92
       -2
340
0
 93
        0
 40
0.045
309
GRIDFORMAT_END
309
TABLEFORMAT_END
  1
CELLSTYLE_BEGIN
 90
        3
 91
        2
300
_DATA
309
CELLSTYLE_END
  0
XRECORD
  5
3BF5
102
{ACAD_REACTORS
330
3B9F
102
}
330
3B9F
100
AcDbXrecord
280
     1
102
ACAD_ROUNDTRIP_PRE2007_TABLESTYLE
 90
        4
 91
        0
  1

 92
        4
 93
        0
  2

 94
        4
 95
        0
  3

  0
XRECORD
  5
3C04
102
{ACAD_REACTORS
330
3C03
102
}
330
3C03
100
AcDbXrecord
280
     1
102
RTVSPropertyOp0
 70
     1
102
RTVSPropertyOp1
 70
     1
102
RTVSPropertyOp2
 70
     1
102
RTVSPropertyOp3
 70
     1
102
RTVSPropertyOp4
 70
     1
102
RTVSPropertyOp5
 70
     1
102
RTVSPropertyOp6
 70
     1
102
RTVSPropertyOp7
 70
     1
102
RTVSPropertyOp8
 70
     1
102
RTVSPropertyOp9
 70
     1
102
RTVSPropertyOp10
 70
     1
102
RTVSPropertyOp11
 70
     1
102
RTVSPropertyOp12
 70
     1
102
RTVSPropertyOp13
 70
     1
102
RTVSPropertyOp14
 70
     1
102
RTVSPropertyOp15
 70
     1
102
RTVSPropertyOp16
 70
     1
102
RTVSPropertyOp17
 70
     1
102
RTVSPropertyOp18
 70
     1
102
RTVSPropertyOp19
 70
     1
102
RTVSPropertyOp20
 70
     1
102
RTVSPropertyOp21
 70
     1
102
RTVSPropertyOp22
 70
     1
102
RTVSPropertyOp23
 70
     1
102
RTVSPropertyOp24
 70
     1
102
RTVSPropertyOp25
 70
     1
102
RTVSPropertyOp26
 70
     1
102
RTVSPropertyOp27
 70
     1
  0
XRECORD
  5
3C08
102
{ACAD_REACTORS
330
3C07
102
}
330
3C07
100
AcDbXrecord
280
     1
102
RTVSPropertyOp0
 70
     1
102
RTVSPropertyOp1
 70
     1
102
RTVSPropertyOp2
 70
     1
102
RTVSPropertyOp3
 70
     1
102
RTVSPropertyOp4
 70
     1
102
RTVSPropertyOp5
 70
     1
102
RTVSPropertyOp6
 70
     1
102
RTVSPropertyOp7
 70
     1
102
RTVSPropertyOp8
 70
     1
102
RTVSPropertyOp9
 70
     1
102
RTVSPropertyOp10
 70
     1
102
RTVSPropertyOp11
 70
     1
102
RTVSPropertyOp12
 70
     1
102
RTVSPropertyOp13
 70
     1
102
RTVSPropertyOp14
 70
     1
102
RTVSPropertyOp15
 70
     1
102
RTVSPropertyOp16
 70
     1
102
RTVSPropertyOp17
 70
     1
102
RTVSPropertyOp18
 70
     1
102
RTVSPropertyOp19
 70
     1
102
RTVSPropertyOp20
 70
     1
102
RTVSPropertyOp21
 70
     1
102
RTVSPropertyOp22
 70
     1
102
RTVSPropertyOp23
 70
     1
102
RTVSPropertyOp24
 70
     1
102
RTVSPropertyOp25
 70
     1
102
RTVSPropertyOp26
 70
     1
102
RTVSPropertyOp27
 70
     1
  0
XRECORD
  5
3C06
102
{ACAD_REACTORS
330
3C05
102
}
330
3C05
100
AcDbXrecord
280
     1
102
RTVSPropertyOp0
 70
     1
102
RTVSPropertyOp1
 70
     1
102
RTVSPropertyOp2
 70
     1
102
RTVSPropertyOp3
 70
     1
102
RTVSPropertyOp4
 70
     1
102
RTVSPropertyOp5
 70
     1
102
RTVSPropertyOp6
 70
     1
102
RTVSPropertyOp7
 70
     1
102
RTVSPropertyOp8
 70
     1
102
RTVSPropertyOp9
 70
     1
102
RTVSPropertyOp10
 70
     1
102
RTVSPropertyOp11
 70
     1
102
RTVSPropertyOp12
 70
     1
102
RTVSPropertyOp13
 70
     1
102
RTVSPropertyOp14
 70
     1
102
RTVSPropertyOp15
 70
     1
102
RTVSPropertyOp16
 70
     1
102
RTVSPropertyOp17
 70
     1
102
RTVSPropertyOp18
 70
     1
102
RTVSPropertyOp19
 70
     1
102
RTVSPropertyOp20
 70
     1
102
RTVSPropertyOp21
 70
     1
102
RTVSPropertyOp22
 70
     1
102
RTVSPropertyOp23
 70
     1
102
RTVSPropertyOp24
 70
     1
102
RTVSPropertyOp25
 70
     1
102
RTVSPropertyOp26
 70
     1
102
RTVSPropertyOp27
 70
     1
  0
XRECORD
  5
3C02
102
{ACAD_REACTORS
330
3C01
102
}
330
3C01
100
AcDbXrecord
280
     1
102
RTVSPropertyOp0
 70
     1
102
RTVSPropertyOp1
 70
     1
102
RTVSPropertyOp2
 70
     1
102
RTVSPropertyOp3
 70
     1
102
RTVSPropertyOp4
 70
     1
102
RTVSPropertyOp5
 70
     1
102
RTVSPropertyOp6
 70
     1
102
RTVSPropertyOp7
 70
     1
102
RTVSPropertyOp8
 70
     1
102
RTVSPropertyOp9
 70
     1
102
RTVSPropertyOp10
 70
     1
102
RTVSPropertyOp11
 70
     1
102
RTVSPropertyOp12
 70
     1
102
RTVSPropertyOp13
 70
     1
102
RTVSPropertyOp14
 70
     1
102
RTVSPropertyOp15
 70
     1
102
RTVSPropertyOp16
 70
     1
102
RTVSPropertyOp17
 70
     1
102
RTVSPropertyOp18
 70
     1
102
RTVSPropertyOp19
 70
     1
102
RTVSPropertyOp20
 70
     1
102
RTVSPropertyOp21
 70
     1
102
RTVSPropertyOp22
 70
     1
102
RTVSPropertyOp23
 70
     1
102
RTVSPropertyOp24
 70
     1
102
RTVSPropertyOp25
 70
     1
102
RTVSPropertyOp26
 70
     1
102
RTVSPropertyOp27
 70
     1
  0
XRECORD
  5
3C10
102
{ACAD_REACTORS
330
3C0F
102
}
330
3C0F
100
AcDbXrecord
280
     1
102
RTVSPropertyOp0
 70
     1
102
RTVSPropertyOp1
 70
     1
102
RTVSPropertyOp2
 70
     1
102
RTVSPropertyOp3
 70
     1
102
RTVSPropertyOp4
 70
     1
102
RTVSPropertyOp5
 70
     1
102
RTVSPropertyOp6
 70
     1
102
RTVSPropertyOp7
 70
     1
102
RTVSPropertyOp8
 70
     1
102
RTVSPropertyOp9
 70
     1
102
RTVSPropertyOp10
 70
     1
102
RTVSPropertyOp11
 70
     1
102
RTVSPropertyOp12
 70
     1
102
RTVSPropertyOp13
 70
     1
102
RTVSPropertyOp14
 70
     1
102
RTVSPropertyOp15
 70
     1
102
RTVSPropertyOp16
 70
     1
102
RTVSPropertyOp17
 70
     1
102
RTVSPropertyOp18
 70
     1
102
RTVSPropertyOp19
 70
     1
102
RTVSPropertyOp20
 70
     1
102
RTVSPropertyOp21
 70
     1
102
RTVSPropertyOp22
 70
     1
102
RTVSPropertyOp23
 70
     1
102
RTVSPropertyOp24
 70
     1
102
RTVSPropertyOp25
 70
     1
102
RTVSPropertyOp26
 70
     1
102
RTVSPropertyOp27
 70
     1
  0
XRECORD
  5
3C18
102
{ACAD_REACTORS
330
3C17
102
}
330
3C17
100
AcDbXrecord
280
     1
102
RTVSPropertyOp0
 70
     1
102
RTVSPropertyOp1
 70
     1
102
RTVSPropertyOp2
 70
     1
102
RTVSPropertyOp3
 70
     1
102
RTVSPropertyOp4
 70
     1
102
RTVSPropertyOp5
 70
     1
102
RTVSPropertyOp6
 70
     1
102
RTVSPropertyOp7
 70
     1
102
RTVSPropertyOp8
 70
     1
102
RTVSPropertyOp9
 70
     1
102
RTVSPropertyOp10
 70
     1
102
RTVSPropertyOp11
 70
     1
102
RTVSPropertyOp12
 70
     1
102
RTVSPropertyOp13
 70
     1
102
RTVSPropertyOp14
 70
     1
102
RTVSPropertyOp15
 70
     1
102
RTVSPropertyOp16
 70
     1
102
RTVSPropertyOp17
 70
     1
102
RTVSPropertyOp18
 70
     1
102
RTVSPropertyOp19
 70
     1
102
RTVSPropertyOp20
 70
     1
102
RTVSPropertyOp21
 70
     1
102
RTVSPropertyOp22
 70
     1
102
RTVSPropertyOp23
 70
     1
102
RTVSPropertyOp24
 70
     1
102
RTVSPropertyOp25
 70
     1
102
RTVSPropertyOp26
 70
     1
102
RTVSPropertyOp27
 70
     1
  0
XRECORD
  5
3C0A
102
{ACAD_REACTORS
330
3C09
102
}
330
3C09
100
AcDbXrecord
280
     1
102
RTVSPropertyOp0
 70
     1
102
RTVSPropertyOp1
 70
     1
102
RTVSPropertyOp2
 70
     1
102
RTVSPropertyOp3
 70
     1
102
RTVSPropertyOp4
 70
     1
102
RTVSPropertyOp5
 70
     1
102
RTVSPropertyOp6
 70
     1
102
RTVSPropertyOp7
 70
     1
102
RTVSPropertyOp8
 70
     1
102
RTVSPropertyOp9
 70
     1
102
RTVSPropertyOp10
 70
     1
102
RTVSPropertyOp11
 70
     1
102
RTVSPropertyOp12
 70
     1
102
RTVSPropertyOp13
 70
     1
102
RTVSPropertyOp14
 70
     1
102
RTVSPropertyOp15
 70
     1
102
RTVSPropertyOp16
 70
     1
102
RTVSPropertyOp17
 70
     1
102
RTVSPropertyOp18
 70
     1
102
RTVSPropertyOp19
 70
     1
102
RTVSPropertyOp20
 70
     1
102
RTVSPropertyOp21
 70
     1
102
RTVSPropertyOp22
 70
     1
102
RTVSPropertyOp23
 70
     1
102
RTVSPropertyOp24
 70
     1
102
RTVSPropertyOp25
 70
     1
102
RTVSPropertyOp26
 70
     1
102
RTVSPropertyOp27
 70
     1
  0
XRECORD
  5
3C0E
102
{ACAD_REACTORS
330
3C0D
102
}
330
3C0D
100
AcDbXrecord
280
     1
102
RTVSPropertyOp0
 70
     1
102
RTVSPropertyOp1
 70
     1
102
RTVSPropertyOp2
 70
     1
102
RTVSPropertyOp3
 70
     1
102
RTVSPropertyOp4
 70
     1
102
RTVSPropertyOp5
 70
     1
102
RTVSPropertyOp6
 70
     1
102
RTVSPropertyOp7
 70
     1
102
RTVSPropertyOp8
 70
     1
102
RTVSPropertyOp9
 70
     1
102
RTVSPropertyOp10
 70
     1
102
RTVSPropertyOp11
 70
     1
102
RTVSPropertyOp12
 70
     1
102
RTVSPropertyOp13
 70
     1
102
RTVSPropertyOp14
 70
     1
102
RTVSPropertyOp15
 70
     1
102
RTVSPropertyOp16
 70
     1
102
RTVSPropertyOp17
 70
     1
102
RTVSPropertyOp18
 70
     1
102
RTVSPropertyOp19
 70
     1
102
RTVSPropertyOp20
 70
     1
102
RTVSPropertyOp21
 70
     1
102
RTVSPropertyOp22
 70
     1
102
RTVSPropertyOp23
 70
     1
102
RTVSPropertyOp24
 70
     1
102
RTVSPropertyOp25
 70
     1
102
RTVSPropertyOp26
 70
     1
102
RTVSPropertyOp27
 70
     1
  0
XRECORD
  5
3C1E
102
{ACAD_REACTORS
330
3C1D
102
}
330
3C1D
100
AcDbXrecord
280
     1
102
RTVSPropertyOp0
 70
     0
102
RTVSPropertyOp1
 70
     0
102
RTVSPropertyOp2
 70
     0
102
RTVSPropertyOp3
 70
     0
102
RTVSPropertyOp4
 70
     0
102
RTVSPropertyOp5
 70
     0
102
RTVSPropertyOp6
 70
     0
102
RTVSPropertyOp7
 70
     0
102
RTVSPropertyOp8
 70
     0
102
RTVSPropertyOp9
 70
     0
102
RTVSPropertyOp10
 70
     0
102
RTVSPropertyOp11
 70
     0
102
RTVSPropertyOp12
 70
     0
102
RTVSPropertyOp13
 70
     0
102
RTVSPropertyOp14
 70
     2
102
RTVSPropertyOp15
 70
     0
102
RTVSPropertyOp16
 70
     0
102
RTVSPropertyOp17
 70
     0
102
RTVSPropertyOp18
 70
     0
102
RTVSPropertyOp19
 70
     0
102
RTVSPropertyOp20
 70
     0
102
RTVSPropertyOp21
 70
     0
102
RTVSPropertyOp22
 70
     0
102
RTVSPropertyOp23
 70
     0
102
RTVSPropertyOp24
 70
     0
102
RTVSPropertyOp25
 70
     0
102
RTVSPropertyOp26
 70
     0
102
RTVSPropertyOp27
 70
     0
  0
XRECORD
  5
3C16
102
{ACAD_REACTORS
330
3C15
102
}
330
3C15
100
AcDbXrecord
280
     1
102
RTVSPropertyOp0
 70
     1
102
RTVSPropertyOp1
 70
     1
102
RTVSPropertyOp2
 70
     1
102
RTVSPropertyOp3
 70
     1
102
RTVSPropertyOp4
 70
     1
102
RTVSPropertyOp5
 70
     1
102
RTVSPropertyOp6
 70
     1
102
RTVSPropertyOp7
 70
     1
102
RTVSPropertyOp8
 70
     1
102
RTVSPropertyOp9
 70
     1
102
RTVSPropertyOp10
 70
     1
102
RTVSPropertyOp11
 70
     1
102
RTVSPropertyOp12
 70
     1
102
RTVSPropertyOp13
 70
     1
102
RTVSPropertyOp14
 70
     1
102
RTVSPropertyOp15
 70
     1
102
RTVSPropertyOp16
 70
     1
102
RTVSPropertyOp17
 70
     1
102
RTVSPropertyOp18
 70
     1
102
RTVSPropertyOp19
 70
     1
102
RTVSPropertyOp20
 70
     1
102
RTVSPropertyOp21
 70
     1
102
RTVSPropertyOp22
 70
     1
102
RTVSPropertyOp23
 70
     1
102
RTVSPropertyOp24
 70
     1
102
RTVSPropertyOp25
 70
     1
102
RTVSPropertyOp26
 70
     1
102
RTVSPropertyOp27
 70
     1
  0
XRECORD
  5
3BFA
102
{ACAD_REACTORS
330
3BF9
102
}
330
3BF9
100
AcDbXrecord
280
     1
102
RTVSPropertyOp0
 70
     1
102
RTVSPropertyOp1
 70
     1
102
RTVSPropertyOp2
 70
     1
102
RTVSPropertyOp3
 70
     1
102
RTVSPropertyOp4
 70
     1
102
RTVSPropertyOp5
 70
     1
102
RTVSPropertyOp6
 70
     1
102
RTVSPropertyOp7
 70
     1
102
RTVSPropertyOp8
 70
     1
102
RTVSPropertyOp9
 70
     1
102
RTVSPropertyOp10
 70
     1
102
RTVSPropertyOp11
 70
     1
102
RTVSPropertyOp12
 70
     1
102
RTVSPropertyOp13
 70
     1
102
RTVSPropertyOp14
 70
     1
102
RTVSPropertyOp15
 70
     1
102
RTVSPropertyOp16
 70
     1
102
RTVSPropertyOp17
 70
     1
102
RTVSPropertyOp18
 70
     1
102
RTVSPropertyOp19
 70
     1
102
RTVSPropertyOp20
 70
     1
102
RTVSPropertyOp21
 70
     1
102
RTVSPropertyOp22
 70
     1
102
RTVSPropertyOp23
 70
     1
102
RTVSPropertyOp24
 70
     1
102
RTVSPropertyOp25
 70
     1
102
RTVSPropertyOp26
 70
     1
102
RTVSPropertyOp27
 70
     1
  0
XRECORD
  5
3BFC
102
{ACAD_REACTORS
330
3BFB
102
}
330
3BFB
100
AcDbXrecord
280
     1
102
RTVSPropertyOp0
 70
     1
102
RTVSPropertyOp1
 70
     1
102
RTVSPropertyOp2
 70
     1
102
RTVSPropertyOp3
 70
     1
102
RTVSPropertyOp4
 70
     1
102
RTVSPropertyOp5
 70
     1
102
RTVSPropertyOp6
 70
     1
102
RTVSPropertyOp7
 70
     1
102
RTVSPropertyOp8
 70
     1
102
RTVSPropertyOp9
 70
     1
102
RTVSPropertyOp10
 70
     1
102
RTVSPropertyOp11
 70
     1
102
RTVSPropertyOp12
 70
     1
102
RTVSPropertyOp13
 70
     1
102
RTVSPropertyOp14
 70
     1
102
RTVSPropertyOp15
 70
     1
102
RTVSPropertyOp16
 70
     1
102
RTVSPropertyOp17
 70
     1
102
RTVSPropertyOp18
 70
     1
102
RTVSPropertyOp19
 70
     1
102
RTVSPropertyOp20
 70
     1
102
RTVSPropertyOp21
 70
     1
102
RTVSPropertyOp22
 70
     1
102
RTVSPropertyOp23
 70
     1
102
RTVSPropertyOp24
 70
     1
102
RTVSPropertyOp25
 70
     1
102
RTVSPropertyOp26
 70
     1
102
RTVSPropertyOp27
 70
     1
  0
XRECORD
  5
3BFE
102
{ACAD_REACTORS
330
3BFD
102
}
330
3BFD
100
AcDbXrecord
280
     1
102
RTVSPropertyOp0
 70
     1
102
RTVSPropertyOp1
 70
     1
102
RTVSPropertyOp2
 70
     1
102
RTVSPropertyOp3
 70
     1
102
RTVSPropertyOp4
 70
     1
102
RTVSPropertyOp5
 70
     1
102
RTVSPropertyOp6
 70
     1
102
RTVSPropertyOp7
 70
     1
102
RTVSPropertyOp8
 70
     1
102
RTVSPropertyOp9
 70
     1
102
RTVSPropertyOp10
 70
     1
102
RTVSPropertyOp11
 70
     1
102
RTVSPropertyOp12
 70
     1
102
RTVSPropertyOp13
 70
     1
102
RTVSPropertyOp14
 70
     1
102
RTVSPropertyOp15
 70
     1
102
RTVSPropertyOp16
 70
     1
102
RTVSPropertyOp17
 70
     1
102
RTVSPropertyOp18
 70
     1
102
RTVSPropertyOp19
 70
     1
102
RTVSPropertyOp20
 70
     1
102
RTVSPropertyOp21
 70
     1
102
RTVSPropertyOp22
 70
     1
102
RTVSPropertyOp23
 70
     1
102
RTVSPropertyOp24
 70
     1
102
RTVSPropertyOp25
 70
     1
102
RTVSPropertyOp26
 70
     1
102
RTVSPropertyOp27
 70
     1
  0
XRECORD
  5
3C00
102
{ACAD_REACTORS
330
3BFF
102
}
330
3BFF
100
AcDbXrecord
280
     1
102
RTVSPropertyOp0
 70
     1
102
RTVSPropertyOp1
 70
     1
102
RTVSPropertyOp2
 70
     1
102
RTVSPropertyOp3
 70
     1
102
RTVSPropertyOp4
 70
     1
102
RTVSPropertyOp5
 70
     1
102
RTVSPropertyOp6
 70
     1
102
RTVSPropertyOp7
 70
     1
102
RTVSPropertyOp8
 70
     1
102
RTVSPropertyOp9
 70
     1
102
RTVSPropertyOp10
 70
     1
102
RTVSPropertyOp11
 70
     1
102
RTVSPropertyOp12
 70
     1
102
RTVSPropertyOp13
 70
     1
102
RTVSPropertyOp14
 70
     1
102
RTVSPropertyOp15
 70
     1
102
RTVSPropertyOp16
 70
     1
102
RTVSPropertyOp17
 70
     1
102
RTVSPropertyOp18
 70
     1
102
RTVSPropertyOp19
 70
     1
102
RTVSPropertyOp20
 70
     1
102
RTVSPropertyOp21
 70
     1
102
RTVSPropertyOp22
 70
     1
102
RTVSPropertyOp23
 70
     1
102
RTVSPropertyOp24
 70
     1
102
RTVSPropertyOp25
 70
     1
102
RTVSPropertyOp26
 70
     1
102
RTVSPropertyOp27
 70
     1
  0
XRECORD
  5
3C1A
102
{ACAD_REACTORS
330
3C19
102
}
330
3C19
100
AcDbXrecord
280
     1
102
RTVSPropertyOp0
 70
     0
102
RTVSPropertyOp1
 70
     0
102
RTVSPropertyOp2
 70
     0
102
RTVSPropertyOp3
 70
     0
102
RTVSPropertyOp4
 70
     0
102
RTVSPropertyOp5
 70
     0
102
RTVSPropertyOp6
 70
     0
102
RTVSPropertyOp7
 70
     0
102
RTVSPropertyOp8
 70
     0
102
RTVSPropertyOp9
 70
     0
102
RTVSPropertyOp10
 70
     0
102
RTVSPropertyOp11
 70
     0
102
RTVSPropertyOp12
 70
     0
102
RTVSPropertyOp13
 70
     0
102
RTVSPropertyOp14
 70
     2
102
RTVSPropertyOp15
 70
     0
102
RTVSPropertyOp16
 70
     0
102
RTVSPropertyOp17
 70
     0
102
RTVSPropertyOp18
 70
     0
102
RTVSPropertyOp19
 70
     0
102
RTVSPropertyOp20
 70
     0
102
RTVSPropertyOp21
 70
     0
102
RTVSPropertyOp22
 70
     0
102
RTVSPropertyOp23
 70
     0
102
RTVSPropertyOp24
 70
     0
102
RTVSPropertyOp25
 70
     0
102
RTVSPropertyOp26
 70
     0
102
RTVSPropertyOp27
 70
     0
  0
XRECORD
  5
3C14
102
{ACAD_REACTORS
330
3C13
102
}
330
3C13
100
AcDbXrecord
280
     1
102
RTVSPropertyOp0
 70
     1
102
RTVSPropertyOp1
 70
     1
102
RTVSPropertyOp2
 70
     1
102
RTVSPropertyOp3
 70
     1
102
RTVSPropertyOp4
 70
     1
102
RTVSPropertyOp5
 70
     1
102
RTVSPropertyOp6
 70
     1
102
RTVSPropertyOp7
 70
     1
102
RTVSPropertyOp8
 70
     1
102
RTVSPropertyOp9
 70
     1
102
RTVSPropertyOp10
 70
     1
102
RTVSPropertyOp11
 70
     1
102
RTVSPropertyOp12
 70
     1
102
RTVSPropertyOp13
 70
     1
102
RTVSPropertyOp14
 70
     1
102
RTVSPropertyOp15
 70
     1
102
RTVSPropertyOp16
 70
     1
102
RTVSPropertyOp17
 70
     1
102
RTVSPropertyOp18
 70
     1
102
RTVSPropertyOp19
 70
     1
102
RTVSPropertyOp20
 70
     1
102
RTVSPropertyOp21
 70
     1
102
RTVSPropertyOp22
 70
     1
102
RTVSPropertyOp23
 70
     1
102
RTVSPropertyOp24
 70
     1
102
RTVSPropertyOp25
 70
     1
102
RTVSPropertyOp26
 70
     1
102
RTVSPropertyOp27
 70
     1
  0
XRECORD
  5
3C1C
102
{ACAD_REACTORS
330
3C1B
102
}
330
3C1B
100
AcDbXrecord
280
     1
102
RTVSPropertyOp0
 70
     0
102
RTVSPropertyOp1
 70
     0
102
RTVSPropertyOp2
 70
     0
102
RTVSPropertyOp3
 70
     0
102
RTVSPropertyOp4
 70
     0
102
RTVSPropertyOp5
 70
     0
102
RTVSPropertyOp6
 70
     0
102
RTVSPropertyOp7
 70
     0
102
RTVSPropertyOp8
 70
     0
102
RTVSPropertyOp9
 70
     0
102
RTVSPropertyOp10
 70
     0
102
RTVSPropertyOp11
 70
     0
102
RTVSPropertyOp12
 70
     0
102
RTVSPropertyOp13
 70
     0
102
RTVSPropertyOp14
 70
     2
102
RTVSPropertyOp15
 70
     0
102
RTVSPropertyOp16
 70
     0
102
RTVSPropertyOp17
 70
     0
102
RTVSPropertyOp18
 70
     0
102
RTVSPropertyOp19
 70
     0
102
RTVSPropertyOp20
 70
     0
102
RTVSPropertyOp21
 70
     0
102
RTVSPropertyOp22
 70
     0
102
RTVSPropertyOp23
 70
     0
102
RTVSPropertyOp24
 70
     0
102
RTVSPropertyOp25
 70
     0
102
RTVSPropertyOp26
 70
     0
102
RTVSPropertyOp27
 70
     0
  0
XRECORD
  5
3C0C
102
{ACAD_REACTORS
330
3C0B
102
}
330
3C0B
100
AcDbXrecord
280
     1
102
RTVSPropertyOp0
 70
     1
102
RTVSPropertyOp1
 70
     1
102
RTVSPropertyOp2
 70
     1
102
RTVSPropertyOp3
 70
     1
102
RTVSPropertyOp4
 70
     1
102
RTVSPropertyOp5
 70
     1
102
RTVSPropertyOp6
 70
     1
102
RTVSPropertyOp7
 70
     1
102
RTVSPropertyOp8
 70
     1
102
RTVSPropertyOp9
 70
     1
102
RTVSPropertyOp10
 70
     1
102
RTVSPropertyOp11
 70
     1
102
RTVSPropertyOp12
 70
     1
102
RTVSPropertyOp13
 70
     1
102
RTVSPropertyOp14
 70
     1
102
RTVSPropertyOp15
 70
     1
102
RTVSPropertyOp16
 70
     1
102
RTVSPropertyOp17
 70
     1
102
RTVSPropertyOp18
 70
     1
102
RTVSPropertyOp19
 70
     1
102
RTVSPropertyOp20
 70
     1
102
RTVSPropertyOp21
 70
     1
102
RTVSPropertyOp22
 70
     1
102
RTVSPropertyOp23
 70
     1
102
RTVSPropertyOp24
 70
     1
102
RTVSPropertyOp25
 70
     1
102
RTVSPropertyOp26
 70
     1
102
RTVSPropertyOp27
 70
     1
  0
XRECORD
  5
3C12
102
{ACAD_REACTORS
330
3C11
102
}
330
3C11
100
AcDbXrecord
280
     1
102
RTVSPropertyOp0
 70
     1
102
RTVSPropertyOp1
 70
     1
102
RTVSPropertyOp2
 70
     1
102
RTVSPropertyOp3
 70
     1
102
RTVSPropertyOp4
 70
     1
102
RTVSPropertyOp5
 70
     1
102
RTVSPropertyOp6
 70
     1
102
RTVSPropertyOp7
 70
     1
102
RTVSPropertyOp8
 70
     1
102
RTVSPropertyOp9
 70
     1
102
RTVSPropertyOp10
 70
     1
102
RTVSPropertyOp11
 70
     1
102
RTVSPropertyOp12
 70
     1
102
RTVSPropertyOp13
 70
     1
102
RTVSPropertyOp14
 70
     1
102
RTVSPropertyOp15
 70
     1
102
RTVSPropertyOp16
 70
     1
102
RTVSPropertyOp17
 70
     1
102
RTVSPropertyOp18
 70
     1
102
RTVSPropertyOp19
 70
     1
102
RTVSPropertyOp20
 70
     1
102
RTVSPropertyOp21
 70
     1
102
RTVSPropertyOp22
 70
     1
102
RTVSPropertyOp23
 70
     1
102
RTVSPropertyOp24
 70
     1
102
RTVSPropertyOp25
 70
     1
102
RTVSPropertyOp26
 70
     1
102
RTVSPropertyOp27
 70
     1
  0
ENDSEC
  0
EOF
