  0
SECTION
  2
HEADER
  9
$ACADVER
  1
AC1015
  9
$ACADMAINTVER
 70
    20
  9
$DWGCODEPAGE
  3
ANSI_1252
  9
$INSBASE
 10
0.0
 20
0.0
 30
0.0
  9
$EXTMIN
 10
2042.789513706895
 20
2590.928834395796
 30
-0.0000000000000001
  9
$EXTMAX
 10
2045.565942074051
 20
2591.361792414046
 30
0.0000000000000001
  9
$LIMMIN
 10
0.0
 20
0.0
  9
$LIMMAX
 10
420.0
 20
297.0
  9
$ORTHOMODE
 70
     1
  9
$REGENMODE
 70
     1
  9
$FILLMODE
 70
     1
  9
$QTEXTMODE
 70
     0
  9
$MIRRTEXT
 70
     1
  9
$LTSCALE
 40
1.0
  9
$ATTMODE
 70
     1
  9
$TEXTSIZE
 40
2.5
  9
$TRACEWID
 40
1.0
  9
$TEXTSTYLE
  7
Standard
  9
$CLAYER
  8
0
  9
$CELTYPE
  6
ByLayer
  9
$CECOLOR
 62
   256
  9
$CELTSCALE
 40
1.0
  9
$DISPSILH
 70
     0
  9
$DIMSCALE
 40
1.0
  9
$DIMASZ
 40
2.5
  9
$DIMEXO
 40
0.625
  9
$DIMDLI
 40
3.75
  9
$DIMRND
 40
0.0
  9
$DIMDLE
 40
0.0
  9
$DIMEXE
 40
1.25
  9
$DIMTP
 40
0.0
  9
$DIMTM
 40
0.0
  9
$DIMTXT
 40
2.5
  9
$DIMCEN
 40
2.5
  9
$DIMTSZ
 40
0.0
  9
$DIMTOL
 70
     0
  9
$DIMLIM
 70
     0
  9
$DIMTIH
 70
     0
  9
$DIMTOH
 70
     0
  9
$DIMSE1
 70
     0
  9
$DIMSE2
 70
     0
  9
$DIMTAD
 70
     1
  9
$DIMZIN
 70
     8
  9
$DIMBLK
  1

  9
$DIMASO
 70
     1
  9
$DIMSHO
 70
     1
  9
$DIMPOST
  1

  9
$DIMAPOST
  1

  9
$DIMALT
 70
     0
  9
$DIMALTD
 70
     3
  9
$DIMALTF
 40
0.03937007874016
  9
$DIMLFAC
 40
1.0
  9
$DIMTOFL
 70
     1
  9
$DIMTVP
 40
0.0
  9
$DIMTIX
 70
     0
  9
$DIMSOXD
 70
     0
  9
$DIMSAH
 70
     0
  9
$DIMBLK1
  1

  9
$DIMBLK2
  1

  9
$DIMSTYLE
  2
ISO-25
  9
$DIMCLRD
 70
     0
  9
$DIMCLRE
 70
     0
  9
$DIMCLRT
 70
     0
  9
$DIMTFAC
 40
1.0
  9
$DIMGAP
 40
0.625
  9
$DIMJUST
 70
     0
  9
$DIMSD1
 70
     0
  9
$DIMSD2
 70
     0
  9
$DIMTOLJ
 70
     0
  9
$DIMTZIN
 70
     8
  9
$DIMALTZ
 70
     0
  9
$DIMALTTZ
 70
     0
  9
$DIMUPT
 70
     0
  9
$DIMDEC
 70
     2
  9
$DIMTDEC
 70
     2
  9
$DIMALTU
 70
     2
  9
$DIMALTTD
 70
     3
  9
$DIMTXSTY
  7
Standard
  9
$DIMAUNIT
 70
     0
  9
$DIMADEC
 70
     0
  9
$DIMALTRND
 40
0.0
  9
$DIMAZIN
 70
     0
  9
$DIMDSEP
 70
    44
  9
$DIMATFIT
 70
     3
  9
$DIMFRAC
 70
     0
  9
$DIMLDRBLK
  1

  9
$DIMLUNIT
 70
     2
  9
$DIMLWD
 70
    -2
  9
$DIMLWE
 70
    -2
  9
$DIMTMOVE
 70
     0
  9
$LUNITS
 70
     2
  9
$LUPREC
 70
     4
  9
$SKETCHINC
 40
1.0
  9
$FILLETRAD
 40
0.0
  9
$AUNITS
 70
     0
  9
$AUPREC
 70
     0
  9
$MENU
  1
.
  9
$ELEVATION
 40
0.0
  9
$PELEVATION
 40
0.0
  9
$THICKNESS
 40
0.0
  9
$LIMCHECK
 70
     0
  9
$CHAMFERA
 40
10.0
  9
$CHAMFERB
 40
10.0
  9
$CHAMFERC
 40
20.0
  9
$CHAMFERD
 40
0.0
  9
$SKPOLY
 70
     0
  9
$TDCREATE
 40
2452821.605661701
  9
$TDUCREATE
 40
2452821.563995035
  9
$TDUPDATE
 40
2456147.652280093
  9
$TDUUPDATE
 40
2456147.610613426
  9
$TDINDWG
 40
0.0209554167
  9
$TDUSRTIMER
 40
0.0209554167
  9
$USRTIMER
 70
     1
  9
$ANGBASE
 50
0.0
  9
$ANGDIR
 70
     0
  9
$PDMODE
 70
     0
  9
$PDSIZE
 40
0.0
  9
$PLINEWID
 40
0.0
  9
$SPLFRAME
 70
     0
  9
$SPLINETYPE
 70
     6
  9
$SPLINESEGS
 70
     8
  9
$HANDSEED
  5
478
  9
$SURFTAB1
 70
     6
  9
$SURFTAB2
 70
     6
  9
$SURFTYPE
 70
     6
  9
$SURFU
 70
     6
  9
$SURFV
 70
     6
  9
$UCSBASE
  2

  9
$UCSNAME
  2

  9
$UCSORG
 10
0.0
 20
0.0
 30
0.0
  9
$UCSXDIR
 10
1.0
 20
0.0
 30
0.0
  9
$UCSYDIR
 10
0.0
 20
1.0
 30
0.0
  9
$UCSORTHOREF
  2

  9
$UCSORTHOVIEW
 70
     0
  9
$UCSORGTOP
 10
0.0
 20
0.0
 30
0.0
  9
$UCSORGBOTTOM
 10
0.0
 20
0.0
 30
0.0
  9
$UCSORGLEFT
 10
0.0
 20
0.0
 30
0.0
  9
$UCSORGRIGHT
 10
0.0
 20
0.0
 30
0.0
  9
$UCSORGFRONT
 10
0.0
 20
0.0
 30
0.0
  9
$UCSORGBACK
 10
0.0
 20
0.0
 30
0.0
  9
$PUCSBASE
  2

  9
$PUCSNAME
  2

  9
$PUCSORG
 10
0.0
 20
0.0
 30
0.0
  9
$PUCSXDIR
 10
1.0
 20
0.0
 30
0.0
  9
$PUCSYDIR
 10
0.0
 20
1.0
 30
0.0
  9
$PUCSORTHOREF
  2

  9
$PUCSORTHOVIEW
 70
     0
  9
$PUCSORGTOP
 10
0.0
 20
0.0
 30
0.0
  9
$PUCSORGBOTTOM
 10
0.0
 20
0.0
 30
0.0
  9
$PUCSORGLEFT
 10
0.0
 20
0.0
 30
0.0
  9
$PUCSORGRIGHT
 10
0.0
 20
0.0
 30
0.0
  9
$PUCSORGFRONT
 10
0.0
 20
0.0
 30
0.0
  9
$PUCSORGBACK
 10
0.0
 20
0.0
 30
0.0
  9
$USERI1
 70
     0
  9
$USERI2
 70
     0
  9
$USERI3
 70
     0
  9
$USERI4
 70
     0
  9
$USERI5
 70
     0
  9
$USERR1
 40
0.0
  9
$USERR2
 40
0.0
  9
$USERR3
 40
0.0
  9
$USERR4
 40
0.0
  9
$USERR5
 40
0.0
  9
$WORLDVIEW
 70
     1
  9
$SHADEDGE
 70
     3
  9
$SHADEDIF
 70
    70
  9
$TILEMODE
 70
     1
  9
$MAXACTVP
 70
    64
  9
$PINSBASE
 10
0.0
 20
0.0
 30
0.0
  9
$PLIMCHECK
 70
     0
  9
$PEXTMIN
 10
1.000000000000000E+20
 20
1.000000000000000E+20
 30
1.000000000000000E+20
  9
$PEXTMAX
 10
-1.000000000000000E+20
 20
-1.000000000000000E+20
 30
-1.000000000000000E+20
  9
$PLIMMIN
 10
0.0
 20
0.0
  9
$PLIMMAX
 10
420.0
 20
297.0
  9
$UNITMODE
 70
     0
  9
$VISRETAIN
 70
     1
  9
$PLINEGEN
 70
     0
  9
$PSLTSCALE
 70
     1
  9
$TREEDEPTH
 70
  3020
  9
$CMLSTYLE
  2
Standard
  9
$CMLJUST
 70
     0
  9
$CMLSCALE
 40
20.0
  9
$PROXYGRAPHICS
 70
     1
  9
$MEASUREMENT
 70
     1
  9
$CELWEIGHT
370
    -1
  9
$ENDCAPS
280
     0
  9
$JOINSTYLE
280
     0
  9
$LWDISPLAY
290
     0
  9
$INSUNITS
 70
     6
  9
$HYPERLINKBASE
  1

  9
$STYLESHEET
  1

  9
$XEDIT
290
     1
  9
$CEPSNTYPE
380
     0
  9
$PSTYLEMODE
290
     1
  9
$FINGERPRINTGUID
  2
{232A58C4-A47C-4D06-8425-4429124C2E6D}
  9
$VERSIONGUID
  2
{830B5F4D-1D3D-4B64-B03D-8F528A0A9376}
  9
$EXTNAMES
290
     1
  9
$PSVPSCALE
 40
0.0
  9
$OLESTARTUP
290
     0
  0
ENDSEC
  0
SECTION
  2
CLASSES
  0
CLASS
  1
ACDBDICTIONARYWDFLT
  2
AcDbDictionaryWithDefault
  3
ObjectDBX Classes
 90
        0
280
     0
281
     0
  0
CLASS
  1
ACDBPLACEHOLDER
  2
AcDbPlaceHolder
  3
ObjectDBX Classes
 90
        0
280
     0
281
     0
  0
CLASS
  1
LAYOUT
  2
AcDbLayout
  3
ObjectDBX Classes
 90
        0
280
     0
281
     0
  0
CLASS
  1
DICTIONARYVAR
  2
AcDbDictionaryVar
  3
ObjectDBX Classes
 90
        0
280
     0
281
     0
  0
CLASS
  1
TABLESTYLE
  2
AcDbTableStyle
  3
ObjectDBX Classes
 90
     4095
280
     0
281
     0
  0
CLASS
  1
MATERIAL
  2
AcDbMaterial
  3
ObjectDBX Classes
 90
     1153
280
     0
281
     0
  0
CLASS
  1
VISUALSTYLE
  2
AcDbVisualStyle
  3
ObjectDBX Classes
 90
     4095
280
     0
281
     0
  0
CLASS
  1
SCALE
  2
AcDbScale
  3
ObjectDBX Classes
 90
     1153
280
     0
281
     0
  0
CLASS
  1
MLEADERSTYLE
  2
AcDbMLeaderStyle
  3
ACDB_MLEADERSTYLE_CLASS
 90
     4095
280
     0
281
     0
  0
CLASS
  1
CELLSTYLEMAP
  2
AcDbCellStyleMap
  3
ObjectDBX Classes
 90
     1152
280
     0
281
     0
  0
ENDSEC
  0
SECTION
  2
TABLES
  0
TABLE
  2
VPORT
  5
8
330
0
100
AcDbSymbolTable
 70
     1
  0
VPORT
  5
3E7
330
8
100
AcDbSymbolTableRecord
100
AcDbViewportTableRecord
  2
*Active
 70
     0
 10
0.0
 20
0.0
 11
1.0
 21
1.0
 12
2044.222772837693
 22
2591.145313404921
 13
0.0
 23
0.0
 14
10.0
 24
10.0
 15
10.0
 25
10.0
 16
0.0
 26
0.0
 36
1.0
 17
0.0
 27
0.0
 37
0.0
 40
1.748482085937409
 41
1.645464025026068
 42
50.0
 43
0.0
 44
0.0
 50
0.0
 51
0.0
 71
     0
 72
   100
 73
     1
 74
     3
 75
     0
 76
     1
 77
     0
 78
     0
281
     0
 65
     1
110
0.0
120
0.0
130
0.0
111
1.0
121
0.0
131
0.0
112
0.0
122
1.0
132
0.0
 79
     0
146
0.0
  0
ENDTAB
  0
TABLE
  2
LTYPE
  5
5
330
0
100
AcDbSymbolTable
 70
     2
  0
LTYPE
  5
14
330
5
100
AcDbSymbolTableRecord
100
AcDbLinetypeTableRecord
  2
ByBlock
 70
     0
  3

 72
    65
 73
     0
 40
0.0
  0
LTYPE
  5
15
330
5
100
AcDbSymbolTableRecord
100
AcDbLinetypeTableRecord
  2
ByLayer
 70
     0
  3

 72
    65
 73
     0
 40
0.0
  0
LTYPE
  5
16
330
5
100
AcDbSymbolTableRecord
100
AcDbLinetypeTableRecord
  2
Continuous
 70
     0
  3
Solid line
 72
    65
 73
     0
 40
0.0
  0
LTYPE
  5
FF
330
5
100
AcDbSymbolTableRecord
100
AcDbLinetypeTableRecord
  2
HIDDEN
 70
     0
  3
Hidden __ __ __ __ __ __ __ __ __ __ __ __ __ __
 72
    65
 73
     2
 40
1.905
 49
1.27
 74
     0
 49
-0.635
 74
     0
  0
ENDTAB
  0
TABLE
  2
LAYER
  5
2
330
0
100
AcDbSymbolTable
 70
     6
  0
LAYER
  5
10
102
{ACAD_XDICTIONARY
360
432
102
}
330
2
100
AcDbSymbolTableRecord
100
AcDbLayerTableRecord
  2
0
 70
     0
 62
     7
  6
Continuous
370
    -3
390
F
  0
LAYER
  5
2B
102
{ACAD_XDICTIONARY
360
434
102
}
330
2
100
AcDbSymbolTableRecord
100
AcDbLayerTableRecord
  2
3
 70
     0
 62
     3
  6
Continuous
370
    -3
390
F
  0
LAYER
  5
2C
102
{ACAD_XDICTIONARY
360
436
102
}
330
2
100
AcDbSymbolTableRecord
100
AcDbLayerTableRecord
  2
9
 70
     0
 62
     9
  6
Continuous
370
    -3
390
F
  0
LAYER
  5
B9
102
{ACAD_XDICTIONARY
360
438
102
}
330
2
100
AcDbSymbolTableRecord
100
AcDbLayerTableRecord
  2
INDUSA
 70
     0
 62
     3
  6
Continuous
370
    -3
390
F
  0
LAYER
  5
100
102
{ACAD_XDICTIONARY
360
43A
102
}
330
2
100
AcDbSymbolTableRecord
100
AcDbLayerTableRecord
  2
FORMAT
 70
     0
 62
     7
  6
Continuous
370
     0
390
F
  0
LAYER
  5
2A5
102
{ACAD_XDICTIONARY
360
43C
102
}
330
2
100
AcDbSymbolTableRecord
100
AcDbLayerTableRecord
  2
sanindusa
 70
     0
 62
     3
  6
Continuous
370
    -3
390
F
  0
ENDTAB
  0
TABLE
  2
STYLE
  5
3
330
0
100
AcDbSymbolTable
 70
     2
  0
STYLE
  5
11
330
3
100
AcDbSymbolTableRecord
100
AcDbTextStyleTableRecord
  2
Standard
 70
     0
 40
0.0
 41
1.0
 50
0.0
 71
     0
 42
2.5
  3
txt
  4

  0
STYLE
  5
101
330
3
100
AcDbSymbolTableRecord
100
AcDbTextStyleTableRecord
  2
SLDTEXTSTYLE0
 70
     0
 40
0.0
 41
0.75
 50
0.0
 71
     0
 42
0.2
  3
TXT
  4

  0
ENDTAB
  0
TABLE
  2
VIEW
  5
6
330
0
100
AcDbSymbolTable
 70
     0
  0
ENDTAB
  0
TABLE
  2
UCS
  5
7
330
0
100
AcDbSymbolTable
 70
     0
  0
ENDTAB
  0
TABLE
  2
APPID
  5
9
330
0
100
AcDbSymbolTable
 70
     4
  0
APPID
  5
12
330
9
100
AcDbSymbolTableRecord
100
AcDbRegAppTableRecord
  2
ACAD
 70
     0
  0
APPID
  5
D0
330
9
100
AcDbSymbolTableRecord
100
AcDbRegAppTableRecord
  2
DCO15
 70
     0
  0
APPID
  5
29D
330
9
100
AcDbSymbolTableRecord
100
AcDbRegAppTableRecord
  2
ACAD_EXEMPT_FROM_CAD_STANDARDS
 70
     0
  0
APPID
  5
477
330
9
100
AcDbSymbolTableRecord
100
AcDbRegAppTableRecord
  2
ACAD_MLEADERVER
 70
     0
  0
ENDTAB
  0
TABLE
  2
DIMSTYLE
  5
A
330
0
100
AcDbSymbolTable
 70
     2
100
AcDbDimStyleTable
 71
     1
340
27
  0
DIMSTYLE
105
27
330
A
100
AcDbSymbolTableRecord
100
AcDbDimStyleTableRecord
  2
ISO-25
 70
     0
 41
2.5
 42
0.625
 43
3.75
 44
1.25
 73
     0
 74
     0
 77
     1
 78
     8
140
2.5
141
2.5
143
0.03937007874016
147
0.625
171
     3
172
     1
271
     2
272
     2
274
     3
278
    44
283
     0
284
     8
340
11
  0
DIMSTYLE
105
BA
330
A
100
AcDbSymbolTableRecord
100
AcDbDimStyleTableRecord
  2
STANDARD
 70
     0
271
     2
272
     2
279
     2
284
     1
285
     1
286
     1
340
11
  0
ENDTAB
  0
TABLE
  2
BLOCK_RECORD
  5
1
330
0
100
AcDbSymbolTable
 70
     4
  0
BLOCK_RECORD
  5
1F
330
1
100
AcDbSymbolTableRecord
100
AcDbBlockTableRecord
  2
*Model_Space
340
22
  0
BLOCK_RECORD
  5
1B
330
1
100
AcDbSymbolTableRecord
100
AcDbBlockTableRecord
  2
*Paper_Space
340
1E
  0
BLOCK_RECORD
  5
23
330
1
100
AcDbSymbolTableRecord
100
AcDbBlockTableRecord
  2
*Paper_Space0
340
26
  0
BLOCK_RECORD
  5
BB
330
1
100
AcDbSymbolTableRecord
100
AcDbBlockTableRecord
  2
18370PL
340
0
  0
BLOCK_RECORD
  5
C3
330
1
100
AcDbSymbolTableRecord
100
AcDbBlockTableRecord
  2
18370CT
340
0
  0
BLOCK_RECORD
  5
F8
330
1
100
AcDbSymbolTableRecord
100
AcDbBlockTableRecord
  2
_Closed
340
0
  0
ENDTAB
  0
ENDSEC
  0
SECTION
  2
BLOCKS
  0
BLOCK
  5
20
330
1F
100
AcDbEntity
  8
0
100
AcDbBlockBegin
  2
*Model_Space
 70
     0
 10
0.0
 20
0.0
 30
0.0
  3
*Model_Space
  1

  0
ENDBLK
  5
21
330
1F
100
AcDbEntity
  8
0
100
AcDbBlockEnd
  0
BLOCK
  5
1C
330
1B
100
AcDbEntity
 67
     1
  8
0
100
AcDbBlockBegin
  2
*Paper_Space
 70
     0
 10
0.0
 20
0.0
 30
0.0
  3
*Paper_Space
  1

  0
ENDBLK
  5
1D
330
1B
100
AcDbEntity
 67
     1
  8
0
100
AcDbBlockEnd
  0
BLOCK
  5
24
330
23
100
AcDbEntity
 67
     1
  8
0
100
AcDbBlockBegin
  2
*Paper_Space0
 70
     0
 10
0.0
 20
0.0
 30
0.0
  3
*Paper_Space0
  1

  0
ENDBLK
  5
25
330
23
100
AcDbEntity
 67
     1
  8
0
100
AcDbBlockEnd
  0
BLOCK
  5
C0
330
BB
100
AcDbEntity
  8
0
100
AcDbBlockBegin
  2
18370PL
 70
     0
 10
0.0
 20
0.0
 30
0.0
  3
18370PL
  1

  0
CIRCLE
  5
BC
330
BB
100
AcDbEntity
  8
INDUSA
100
AcDbCircle
 10
0.0
 20
-0.107483
 30
0.0
 40
0.0175
  0
CIRCLE
  5
BD
330
BB
100
AcDbEntity
  8
INDUSA
100
AcDbCircle
 10
0.0
 20
-0.227391
 30
0.0
 40
0.023
  0
LWPOLYLINE
  5
BE
330
BB
100
AcDbEntity
  8
INDUSA
100
AcDbPolyline
 90
       13
 70
     1
 43
0.0
 10
0.133477
 20
-0.174575
 42
0.090236
 10
0.011452
 20
-0.152372
 10
-0.011452
 20
-0.152372
 42
0.090236
 10
-0.133477
 20
-0.174575
 42
0.290399
 10
-0.225
 20
-0.307681
 42
0.149339
 10
-0.210053
 20
-0.35661
 42
0.107077
 10
-0.159099
 20
-0.405475
 42
0.075601
 10
-0.090009
 20
-0.434704
 42
0.062408
 10
0.0
 20
-0.4459830000000001
 42
0.062408
 10
0.090009
 20
-0.434704
 42
0.075601
 10
0.159099
 20
-0.405475
 42
0.107077
 10
0.210053
 20
-0.35661
 42
0.149339
 10
0.225
 20
-0.307681
 42
0.290399
  0
LWPOLYLINE
  5
BF
330
BB
100
AcDbEntity
  8
INDUSA
100
AcDbPolyline
 90
       13
 70
     1
 43
0.0
 10
0.253937
 20
-0.372165
 42
0.141071
 10
0.2725
 20
-0.307681
 42
0.219653
 10
0.200957
 20
-0.137321
 42
0.180161
 10
0.028196
 20
-0.062483
 10
-0.028196
 20
-0.062483
 42
0.180161
 10
-0.200957
 20
-0.137321
 42
0.219653
 10
-0.2725
 20
-0.307681
 42
0.141071
 10
-0.253937
 20
-0.372165
 42
0.107148
 10
-0.192687
 20
-0.4348200000000001
 42
0.07928
 10
-0.108502
 20
-0.472922
 42
0.066797
 10
0.0
 20
-0.4874830000000001
 42
0.066797
 10
0.108502
 20
-0.472922
 42
0.07928
 10
0.192687
 20
-0.4348200000000001
 42
0.107148
  0
ENDBLK
  5
C1
330
BB
100
AcDbEntity
  8
0
100
AcDbBlockEnd
  0
BLOCK
  5
C9
330
C3
100
AcDbEntity
  8
0
100
AcDbBlockBegin
  2
18370CT
 70
     0
 10
0.0
 20
0.0
 30
0.0
  3
18370CT
  1

  0
LWPOLYLINE
  5
C4
330
C3
100
AcDbEntity
  8
INDUSA
100
AcDbPolyline
 90
       27
 70
     0
 43
0.0
 10
0.062248
 20
0.8678129999999999
 10
0.062248
 20
0.854734
 10
0.071706
 20
0.8546929999999999
 42
-0.369394
 10
0.079534
 20
0.8478429999999999
 42
0.041107
 10
0.104193
 20
0.715286
 42
0.031523
 10
0.104295
 20
0.714988
 42
0.131373
 10
0.112148
 20
0.7047290000000001
 42
0.024336
 10
0.12141
 20
0.7008130000000001
 42
-0.314661
 10
0.126657
 20
0.693302
 10
0.126657
 20
0.670267
 10
0.202657
 20
0.670267
 10
0.202657
 20
0.6733130000000001
 42
-0.4144530000000001
 10
0.207661
 20
0.6783130000000001
 42
0.096049
 10
0.3026
 20
0.6966400000000001
 42
0.223112
 10
0.390375
 20
0.796078
 42
0.000868
 10
0.395726
 20
0.849305
 42
-0.516712
 10
0.417352
 20
0.8524499999999999
 42
0.077883
 10
0.4245530000000001
 20
0.8527919999999999
 42
0.051712
 10
0.424282
 20
0.8663429999999999
 42
0.187119
 10
0.412967
 20
0.8702669999999999
 10
0.006233
 20
0.8702669999999999
 42
0.259258
 10
0.00411
 20
0.869086
 42
0.173727
 10
0.0
 20
0.85
 10
0.007201
 20
0.8503429999999999
 42
-0.122212
 10
0.018965
 20
0.854696
 10
0.027248
 20
0.855126
 10
0.027248
 20
0.869897
  0
LWPOLYLINE
  5
C5
330
C3
100
AcDbEntity
  8
INDUSA
100
AcDbPolyline
 90
        9
 70
     0
 43
0.0
 10
0.021034
 20
0.8702669999999999
 10
0.082167
 20
0.866971
 42
-0.363678
 10
0.089638
 20
0.8599119999999999
 42
-0.004303
 10
0.090901
 20
0.8481999999999999
 42
0.038127
 10
0.112425
 20
0.7268320000000001
 42
0.228349
 10
0.124207
 20
0.714078
 42
-0.196914
 10
0.141228
 20
0.697742
 42
-0.104652
 10
0.141657
 20
0.6957170000000001
 10
0.141657
 20
0.670267
  0
LWPOLYLINE
  5
C6
330
C3
100
AcDbEntity
  8
INDUSA
100
AcDbPolyline
 90
        7
 70
     0
 43
0.0
 10
0.132469
 20
0.709231
 10
0.203437
 20
0.7113580000000001
 42
0.116622
 10
0.301332
 20
0.7373250000000001
 42
0.204018
 10
0.38223
 20
0.8451830000000001
 42
0.032474
 10
0.382287
 20
0.8455019999999999
 10
0.383531
 20
0.856639
 42
-0.230168
 10
0.393801
 20
0.8702669999999999
  0
LWPOLYLINE
  5
C7
330
C3
100
AcDbEntity
  8
INDUSA
100
AcDbPolyline
 90
       14
 70
     0
 43
0.0
 10
0.203437
 20
0.7113580000000001
 42
0.188484
 10
0.202095
 20
0.710791
 10
0.187657
 20
0.696727
 10
0.187657
 20
0.689267
 10
0.194114
 20
0.6898400000000001
 42
-0.079737
 10
0.202657
 20
0.6979560000000001
 42
-0.062324
 10
0.220126
 20
0.70139
 42
0.098643
 10
0.306524
 20
0.7276270000000001
 42
0.159322
 10
0.38257
 20
0.8122279999999999
 42
-0.081382
 10
0.379038
 20
0.7957260000000001
 42
-0.21532
 10
0.281876
 20
0.7011340000000001
 42
-0.059635
 10
0.202657
 20
0.688757
 42
0.070747
 10
0.187657
 20
0.685361
 10
0.187657
 20
0.670267
  0
LWPOLYLINE
  5
C8
330
C3
100
AcDbEntity
  8
INDUSA
100
AcDbPolyline
 90
        2
 70
     0
 43
0.0
 10
0.187657
 20
0.696727
 10
0.141554
 20
0.696727
  0
ENDBLK
  5
CA
330
C3
100
AcDbEntity
  8
0
100
AcDbBlockEnd
  0
BLOCK
  5
F9
330
F8
100
AcDbEntity
  8
0
100
AcDbBlockBegin
  2
_Closed
 70
     0
 10
0.0
 20
0.0
 30
0.0
  3
_Closed
  1

  0
LINE
  5
FA
330
F8
100
AcDbEntity
  8
0
  6
ByBlock
 62
     0
370
    -2
100
AcDbLine
 10
-1.0
 20
0.166667
 30
0.0
 11
0.0
 21
0.0
 31
0.0
  0
LINE
  5
FB
330
F8
100
AcDbEntity
  8
0
  6
ByBlock
 62
     0
370
    -2
100
AcDbLine
 10
0.0
 20
0.0
 30
0.0
 11
-1.0
 21
-0.166667
 31
0.0
  0
LINE
  5
FC
330
F8
100
AcDbEntity
  8
0
  6
ByBlock
 62
     0
370
    -2
100
AcDbLine
 10
-1.0
 20
0.166667
 30
0.0
 11
-1.0
 21
-0.166667
 31
0.0
  0
LINE
  5
FD
330
F8
100
AcDbEntity
  8
0
  6
ByBlock
 62
     0
370
    -2
100
AcDbLine
 10
0.0
 20
0.0
 30
0.0
 11
-1.0
 21
0.0
 31
0.0
  0
ENDBLK
  5
FE
330
F8
100
AcDbEntity
  8
0
100
AcDbBlockEnd
  0
ENDSEC
  0
SECTION
  2
ENTITIES
  0
ARC
  5
34C
330
1F
100
AcDbEntity
  8
sanindusa
100
AcDbCircle
 10
2043.554340056005
 20
2591.179158371204
 30
0.0
 40
0.0099999836549609
100
AcDbArc
 50
90.2185047556321
 51
179.9565332169212
  0
ARC
  5
34D
330
1F
100
AcDbEntity
  8
sanindusa
100
AcDbCircle
 10
2044.084339408639
 20
2591.179158354925
 30
0.0
 40
0.0099999998707315
100
AcDbArc
 50
0.0220524985822662
 51
89.99968782858855
  0
LINE
  5
34E
330
1F
100
AcDbEntity
  8
sanindusa
100
AcDbLine
 10
2043.544339413675
 20
2591.179158354796
 30
0.0
 11
2043.544339413675
 21
2591.172158354796
 31
0.0
  0
LINE
  5
34F
330
1F
100
AcDbEntity
  8
sanindusa
100
AcDbLine
 10
2044.094339413675
 20
2591.172158354796
 30
0.0
 11
2044.094339413675
 21
2591.179158354796
 31
0.0
  0
LWPOLYLINE
  5
350
330
1F
100
AcDbEntity
  8
sanindusa
100
AcDbPolyline
 90
       35
 70
   128
 43
0.0
 10
2043.865057489545
 20
2591.019499012463
 10
2043.871685437975
 20
2591.020451415703
 10
2043.881723039879
 20
2591.022180871928
 10
2043.891050612293
 20
2591.024184661499
 10
2043.89953755076
 20
2591.026337618574
 10
2043.907135178455
 20
2591.028528748938
 10
2043.914124101845
 20
2591.030763941209
 10
2043.920081464857
 20
2591.032836558278
 10
2043.9249969638
 20
2591.034663668859
 10
2043.928869848216
 20
2591.036177992002
 10
2043.931785788886
 20
2591.037361836205
 10
2043.934642144705
 20
2591.038558420575
 10
2043.93768287447
 20
2591.03987283664
 10
2043.940904962495
 20
2591.041311858301
 10
2043.948229005551
 20
2591.044765626894
 10
2043.95626541257
 20
2591.048870068692
 10
2043.964914864675
 20
2591.053691213172
 10
2043.970054030868
 20
2591.056772163103
 10
2043.975319251206
 20
2591.060110762032
 10
2043.98068840032
 20
2591.063717243082
 10
2043.986140940374
 20
2591.06760822728
 10
2043.991636178753
 20
2591.071790759981
 10
2043.99714072705
 20
2591.076270481028
 10
2044.002625722043
 20
2591.081055773398
 10
2044.008411282817
 20
2591.086500386363
 10
2044.013426733366
 20
2591.091596101239
 10
2044.018708485348
 20
2591.097390794975
 10
2044.024196021048
 20
2591.103960596315
 10
2044.029794333803
 20
2591.11137628304
 10
2044.035366422706
 20
2591.119693486787
 10
2044.040742789258
 20
2591.128952528463
 10
2044.045764610751
 20
2591.139175878512
 10
2044.050296192076
 20
2591.150398754589
 10
2044.054168645107
 20
2591.162593049114
 10
2044.056401219176
 20
2591.172158354796
  0
LWPOLYLINE
  5
351
330
1F
100
AcDbEntity
  8
sanindusa
100
AcDbPolyline
 90
       31
 70
   128
 43
0.0
 10
2043.582253539462
 20
2591.172158354796
 10
2043.584016529591
 20
2591.164403322763
 10
2043.587196356411
 20
2591.153773620376
 10
2043.590898515982
 20
2591.143840995278
 10
2043.595011927624
 20
2591.134641629938
 10
2043.599441891358
 20
2591.126169234778
 10
2043.605296905307
 20
2591.116562734177
 10
2043.611305983996
 20
2591.108028066543
 10
2043.617275444425
 20
2591.100504587806
 10
2043.623055530552
 20
2591.093919934118
 10
2043.629310442211
 20
2591.087423659368
 10
2043.635079291519
 20
2591.081927708793
 10
2043.640430029647
 20
2591.077200746804
 10
2043.645692530425
 20
2591.072856673051
 10
2043.650839102316
 20
2591.068871168313
 10
2043.655832292081
 20
2591.065230703176
 10
2043.660627025691
 20
2591.061924408499
 10
2043.66519117006
 20
2591.058933186154
 10
2043.669503877877
 20
2591.056238143923
 10
2043.673569147092
 20
2591.053809068908
 10
2043.678202505532
 20
2591.051167087416
 10
2043.683814549832
 20
2591.048135395156
 10
2043.690433950581
 20
2591.044779806117
 10
2043.698072515459
 20
2591.041182853766
 10
2043.706720921411
 20
2591.037438306989
 10
2043.716374544494
 20
2591.033653193507
 10
2043.727007334382
 20
2591.029957547904
 10
2043.738563851583
 20
2591.026496207696
 10
2043.75096799273
 20
2591.02342348293
 10
2043.764095892708
 20
2591.02090841218
 10
2043.773519841373
 20
2591.019516621308
  0
LINE
  5
352
330
1F
100
AcDbEntity
  8
sanindusa
100
AcDbLine
 10
2043.859618476391
 20
2591.155147950889
 30
0.0
 11
2043.859646354047
 21
2591.155922204695
 31
0.0
  0
LWPOLYLINE
  5
353
330
1F
100
AcDbEntity
  8
sanindusa
100
AcDbPolyline
 90
       15
 70
   128
 43
0.0
 10
2043.846108496164
 20
2590.988586178263
 10
2043.846522637225
 20
2590.989499792553
 10
2043.847017111756
 20
2590.990947086556
 10
2043.847544183348
 20
2590.992917641941
 10
2043.847981271626
 20
2590.994894798125
 10
2043.848439364654
 20
2590.997292534463
 10
2043.848884565937
 20
2590.999929096402
 10
2043.849326179255
 20
2591.002829021386
 10
2043.849768394172
 20
2591.006003989013
 10
2043.850213142495
 20
2591.009458807215
 10
2043.850661323292
 20
2591.013194848653
 10
2043.851113300702
 20
2591.017211483696
 10
2043.851569137859
 20
2591.021506785156
 10
2043.852028718636
 20
2591.026077920575
 10
2043.85243982864
 20
2591.030377668627
  0
LWPOLYLINE
  5
354
330
1F
100
AcDbEntity
  8
sanindusa
100
AcDbPolyline
 90
       15
 70
   128
 43
0.0
 10
2043.786504984457
 20
2591.027596768317
 10
2043.786666424115
 20
2591.025911587061
 10
2043.787123196144
 20
2591.021376061377
 10
2043.787576676939
 20
2591.017109456875
 10
2043.788026177537
 20
2591.013120184279
 10
2043.788471585367
 20
2591.009411302195
 10
2043.788912963385
 20
2591.005985074204
 10
2043.789350667662
 20
2591.002842644824
 10
2043.789785565169
 20
2590.999983509747
 10
2043.790219471843
 20
2590.997404554753
 10
2043.790656124834
 20
2590.995098128593
 10
2043.791103646659
 20
2590.993047654836
 10
2043.791582124623
 20
2590.991215698617
 10
2043.792156878926
 20
2590.989498032945
 10
2043.792571600423
 20
2590.988590876405
  0
LINE
  5
355
330
1F
100
AcDbEntity
  8
sanindusa
100
AcDbLine
 10
2043.779032110203
 20
2591.155931917992
 30
0.0
 11
2043.779060359654
 21
2591.155147325836
 31
0.0
  0
LINE
  5
356
330
1F
100
AcDbEntity
  8
sanindusa
100
AcDbLine
 10
2043.781588692641
 20
2591.010599240086
 30
0.0
 11
2043.784259550151
 21
2590.980071199054
 31
0.0
  0
LINE
  5
357
330
1F
100
AcDbEntity
  8
sanindusa
100
AcDbLine
 10
2043.854419277199
 20
2590.980071199054
 30
0.0
 11
2043.857090040506
 21
2591.01059816334
 31
0.0
  0
ARC
  5
358
330
1F
100
AcDbEntity
  8
sanindusa
100
AcDbCircle
 10
2043.866903145964
 20
2591.009773648166
 30
0.0
 40
0.0098989473334738
100
AcDbArc
 50
100.7456686849813
 51
175.1472976520227
  0
ARC
  5
359
330
1F
100
AcDbEntity
  8
sanindusa
100
AcDbCircle
 10
2043.771714340663
 20
2591.009768252901
 30
0.0
 40
0.0099141575237808
100
AcDbArc
 50
4.832880623940416
 51
79.50711768350386
  0
ARC
  5
35A
330
1F
100
AcDbEntity
  8
sanindusa
100
AcDbCircle
 10
2043.785255744849
 20
2590.980158354796
 30
0.0
 40
0.0010000000000002
100
AcDbArc
 50
185.0000000011417
 51
270.0
  0
ARC
  5
35B
330
1F
100
AcDbEntity
  8
sanindusa
100
AcDbCircle
 10
2043.853423082501
 20
2590.980158354796
 30
0.0
 40
0.0010000000000002
100
AcDbArc
 50
270.0
 51
354.9999999988583
  0
LINE
  5
35C
330
1F
100
AcDbEntity
  8
sanindusa
100
AcDbLine
 10
2044.083982222403
 20
2591.189158354796
 30
0.0
 11
2044.084333803143
 21
2591.189158354796
 31
0.0
  0
LINE
  5
35D
330
1F
100
AcDbEntity
  8
sanindusa
100
AcDbLine
 10
2043.554363851173
 20
2591.189158354796
 30
0.0
 11
2044.083982222403
 21
2591.189158354796
 31
0.0
  0
LINE
  5
35E
330
1F
100
AcDbEntity
  8
sanindusa
100
AcDbLine
 10
2043.54443842705
 20
2591.179158354796
 30
0.0
 11
2043.544426276581
 21
2591.179158354796
 31
0.0
  0
SPLINE
  5
35F
330
1F
100
AcDbEntity
  8
sanindusa
100
AcDbSpline
210
0.0
220
0.0
230
1.0
 70
    28
 71
     3
 72
    56
 73
    52
 74
     0
 42
0.0000000001
 43
0.0000000001
 40
0.0
 40
0.0
 40
0.0
 40
0.0
 40
0.0162841874348898
 40
0.0345246074801946
 40
0.0528457572427337
 40
0.0711012086976108
 40
0.0893707185064767
 40
0.1077896586496527
 40
0.1262878286230866
 40
0.1447857939098479
 40
0.1609102133491897
 40
0.1769215967641802
 40
0.1928698690733349
 40
0.2088198203027861
 40
0.2247805357252758
 40
0.2407612263861555
 40
0.2567498734329053
 40
0.2727344220734726
 40
0.2965691680678834
 40
0.3203873119497229
 40
0.3442382517795239
 40
0.3680544693151444
 40
0.3919449512287645
 40
0.4159513780427995
 40
0.4443583287377848
 40
0.4728492995033996
 40
0.5013814193498171
 40
0.5299114443446042
 40
0.5589132320505525
 40
0.5878228548802993
 40
0.6165959880118717
 40
0.6452043362040078
 40
0.6738126505499906
 40
0.6962809009051445
 40
0.7187394439187838
 40
0.74123798625067
 40
0.7637476510682019
 40
0.7862348169932973
 40
0.802182440728807
 40
0.8181366747718566
 40
0.834111527160177
 40
0.8502064157229122
 40
0.8663786073084457
 40
0.8825751433576305
 40
0.8987425860452077
 40
0.914828070052872
 40
0.933072081192339
 40
0.9513497563140537
 40
0.9696597656545259
 40
0.9878932792296668
 40
1.0
 40
1.0
 40
1.0
 40
1.0
 10
2044.09428112158
 20
2591.172158354796
 30
0.0
 41
1.0
 10
2044.094232771819
 20
2591.172158354796
 30
0.0
 41
1.0
 10
2044.094130263998
 20
2591.172158354796
 30
0.0
 41
1.0
 10
2044.09278548041
 20
2591.172158354796
 30
0.0
 41
1.0
 10
2044.090573117083
 20
2591.172158354796
 30
0.0
 41
1.0
 10
2044.087123149429
 20
2591.172158354796
 30
0.0
 41
1.0
 10
2044.082447346243
 20
2591.172158354796
 30
0.0
 41
1.0
 10
2044.076572149724
 20
2591.172158354796
 30
0.0
 41
1.0
 10
2044.069528766153
 20
2591.172158354796
 30
0.0
 41
1.0
 10
2044.0617381432
 20
2591.172158354796
 30
0.0
 41
1.0
 10
2044.053442268172
 20
2591.172158354796
 30
0.0
 41
1.0
 10
2044.044863837569
 20
2591.172158354796
 30
0.0
 41
1.0
 10
2044.035617275643
 20
2591.172158354796
 30
0.0
 41
1.0
 10
2044.025969197404
 20
2591.172158354796
 30
0.0
 41
1.0
 10
2044.016075746458
 20
2591.172158354796
 30
0.0
 41
1.0
 10
2044.00590790783
 20
2591.172158354796
 30
0.0
 41
1.0
 10
2043.995494786176
 20
2591.172158354796
 30
0.0
 41
1.0
 10
2043.983111681413
 20
2591.172158354796
 30
0.0
 41
1.0
 10
2043.968641684227
 20
2591.172158354796
 30
0.0
 41
1.0
 10
2043.951967158302
 20
2591.172158354796
 30
0.0
 41
1.0
 10
2043.934942264037
 20
2591.172158354796
 30
0.0
 41
1.0
 10
2043.917663258846
 20
2591.172158354796
 30
0.0
 41
1.0
 10
2043.900135686359
 20
2591.172158354796
 30
0.0
 41
1.0
 10
2043.881303299291
 20
2591.172158354796
 30
0.0
 41
1.0
 10
2043.861167925161
 20
2591.172158354796
 30
0.0
 41
1.0
 10
2043.839780186154
 20
2591.172158354796
 30
0.0
 41
1.0
 10
2043.818299494363
 20
2591.172158354796
 30
0.0
 41
1.0
 10
2043.796693819194
 20
2591.172158354796
 30
0.0
 41
1.0
 10
2043.775062745899
 20
2591.172158354796
 30
0.0
 41
1.0
 10
2043.753509405994
 20
2591.172158354796
 30
0.0
 41
1.0
 10
2043.732256542901
 20
2591.172158354796
 30
0.0
 41
1.0
 10
2043.711349164185
 20
2591.172158354796
 30
0.0
 41
1.0
 10
2043.692266530031
 20
2591.172158354796
 30
0.0
 41
1.0
 10
2043.675008914291
 20
2591.172158354796
 30
0.0
 41
1.0
 10
2043.659545872729
 20
2591.172158354796
 30
0.0
 41
1.0
 10
2043.644471382606
 20
2591.172158354796
 30
0.0
 41
1.0
 10
2043.629836615585
 20
2591.172158354796
 30
0.0
 41
1.0
 10
2043.617064044795
 20
2591.172158354796
 30
0.0
 41
1.0
 10
2043.606030864574
 20
2591.172158354796
 30
0.0
 41
1.0
 10
2043.596603733856
 20
2591.172158354796
 30
0.0
 41
1.0
 10
2043.587826568192
 20
2591.172158354796
 30
0.0
 41
1.0
 10
2043.579694828243
 20
2591.172158354796
 30
0.0
 41
1.0
 10
2043.572286836746
 20
2591.172158354796
 30
0.0
 41
1.0
 10
2043.565677486615
 20
2591.172158354796
 30
0.0
 41
1.0
 10
2043.559932262382
 20
2591.172158354796
 30
0.0
 41
1.0
 10
2043.554870621721
 20
2591.172158354796
 30
0.0
 41
1.0
 10
2043.550653033364
 20
2591.172158354796
 30
0.0
 41
1.0
 10
2043.547498997711
 20
2591.172158354796
 30
0.0
 41
1.0
 10
2043.545518692921
 20
2591.172158354796
 30
0.0
 41
1.0
 10
2043.544437499086
 20
2591.172158354796
 30
0.0
 41
1.0
 10
2043.544444148061
 20
2591.172158354796
 30
0.0
 41
1.0
 10
2043.544446801214
 20
2591.172158354796
 30
0.0
 41
1.0
  0
LINE
  5
360
330
1F
100
AcDbEntity
  8
sanindusa
100
AcDbLine
 10
2043.864540745675
 20
2591.019421580397
 30
0.0
 11
2043.865057489545
 21
2591.019499012463
 31
0.0
  0
LWPOLYLINE
  5
361
330
1F
100
AcDbEntity
  8
sanindusa
100
AcDbPolyline
 90
        3
 70
   128
 43
0.0
 10
2043.773519841373
 20
2591.019516621308
 10
2043.77403998186
 20
2591.01942932488
 10
2043.774134725333
 20
2591.019422491684
  0
LWPOLYLINE
  5
362
330
1F
100
AcDbEntity
  8
sanindusa
100
AcDbPolyline
 90
       14
 70
   128
 43
0.0
 10
2043.85960480791
 20
2591.154845198128
 10
2043.858178001364
 20
2591.115212431508
 10
2043.857954866678
 20
2591.10919621036
 10
2043.85771068005
 20
2591.103287023216
 10
2043.857420660393
 20
2591.097218746215
 10
2043.857112510707
 20
2591.091605123983
 10
2043.856775170145
 20
2591.086198169382
 10
2043.856434392755
 20
2591.081166163999
 10
2043.856093334747
 20
2591.076284609867
 10
2043.855197420456
 20
2591.063817826898
 10
2043.854304704994
 20
2591.052176913188
 10
2043.853392537463
 20
2591.04111573879
 10
2043.852490228166
 20
2591.031030114496
 10
2043.852456224561
 20
2591.030683152034
  0
LWPOLYLINE
  5
363
330
1F
100
AcDbEntity
  8
sanindusa
100
AcDbPolyline
 90
       18
 70
   128
 43
0.0
 10
2043.786487653353
 20
2591.027903579832
 10
2043.786414715615
 20
2591.028638499782
 10
2043.785745315726
 20
2591.035874367837
 10
2043.785062527089
 20
2591.043748137384
 10
2043.784374122356
 20
2591.052176913188
 10
2043.783483065935
 20
2591.063795650435
 10
2043.782585492603
 20
2591.076284609867
 10
2043.782075869976
 20
2591.0837235416
 10
2043.781820087836
 20
2591.087546900595
 10
2043.781566316643
 20
2591.091605123983
 10
2043.781262358004
 20
2591.097135005766
 10
2043.7809681473
 20
2591.103287023216
 10
2043.780712805566
 20
2591.109410618011
 10
2043.78047798929
 20
2591.115662711988
 10
2043.78025404917
 20
2591.121970495721
 10
2043.780031335908
 20
2591.128261159785
 10
2043.779121415634
 20
2591.15352901691
 10
2043.779074061563
 20
2591.15484402838
  0
ARC
  5
364
330
1F
100
AcDbEntity
  8
sanindusa
100
AcDbCircle
 10
2043.819339413674
 20
2593.80067488536
 30
0.0
 40
2.814399127987738
100
AcDbArc
 50
269.5335446203458
 51
270.4664553796541
  0
LINE
  5
365
330
1F
100
AcDbEntity
  8
sanindusa
100
AcDbLine
 10
2043.819339413674
 20
2590.979158354797
 30
0.0
 11
2043.785255744849
 21
2590.979158354797
 31
0.0
  0
LINE
  5
366
330
1F
100
AcDbEntity
  8
sanindusa
100
AcDbLine
 10
2043.853423082501
 20
2590.979158354797
 30
0.0
 11
2043.819339413674
 21
2590.979158354797
 31
0.0
  0
ARC
  5
367
330
1F
100
AcDbEntity
  8
sanindusa
100
AcDbCircle
 10
2043.853414508617
 20
2591.158703138788
 30
0.0
 40
0.1397252506126934
100
AcDbArc
 50
269.5647246229569
 51
274.567263627153
  0
ARC
  5
368
330
1F
100
AcDbEntity
  8
sanindusa
100
AcDbCircle
 10
2043.78585178639
 20
2591.175071023715
 30
0.0
 40
0.1560889331221677
100
AcDbArc
 50
265.6949526476771
 51
270.1740430871865
  0
ARC
  5
369
330
1F
100
AcDbEntity
  8
sanindusa
100
AcDbCircle
 10
2043.842577014341
 20
2590.990272749622
 30
0.0
 40
0.0039172569528964
100
AcDbArc
 50
265.2362523803073
 51
334.4725210539083
  0
ARC
  5
36A
330
1F
100
AcDbEntity
  8
sanindusa
100
AcDbCircle
 10
2043.588319668638
 20
2591.165193780002
 30
0.0
 40
0.2714754894701205
100
AcDbArc
 50
358.0428986233024
 51
1.518478359033062
  0
ARC
  5
36B
330
1F
100
AcDbEntity
  8
sanindusa
100
AcDbCircle
 10
2043.796114114559
 20
2590.990262102323
 30
0.0
 40
0.0039056413872178
100
AcDbArc
 50
205.2425365533022
 51
274.5968786313658
  0
ARC
  5
36C
330
1F
100
AcDbEntity
  8
sanindusa
100
AcDbCircle
 10
2044.058706987599
 20
2591.165278513329
 30
0.0
 40
0.2798182635422334
100
AcDbArc
 50
178.5441606668893
 51
181.9140725760504
  0
LWPOLYLINE
  5
36D
330
1F
100
AcDbEntity
  8
sanindusa
100
AcDbPolyline
 90
        3
 70
   128
 43
0.0
 10
2043.787406349909
 20
2591.018784099972
 10
2043.787226359332
 20
2591.018834559427
 10
2043.786325925294
 20
2591.018982810721
  0
LWPOLYLINE
  5
36E
330
1F
100
AcDbEntity
  8
sanindusa
100
AcDbPolyline
 90
        3
 70
   128
 43
0.0
 10
2043.851272436786
 20
2591.01878319252
 10
2043.851452571351
 20
2591.018833690347
 10
2043.852353027705
 20
2591.018981920223
  0
ARC
  5
36F
330
1F
100
AcDbEntity
  8
sanindusa
100
AcDbCircle
 10
2043.064488937366
 20
2590.958844498781
 30
0.0
 40
0.0250212103242697
100
AcDbArc
 50
67.67253054458002
 51
112.3418561731842
  0
ARC
  5
370
330
1F
100
AcDbEntity
  8
sanindusa
100
AcDbCircle
 10
2043.077288297991
 20
2591.186852656637
 30
0.0
 40
0.007277174203565
100
AcDbArc
 50
321.7513822645863
 51
322.1961270023272
  0
LWPOLYLINE
  5
371
330
1F
100
AcDbEntity
  8
sanindusa
100
AcDbPolyline
 90
       96
 70
   128
 43
0.0
 10
2043.339110011329
 20
2591.113359923156
 10
2043.338008512
 20
2591.101290586331
 10
2043.336154900764
 20
2591.089314946638
 10
2043.333284419077
 20
2591.076996412592
 10
2043.329380205934
 20
2591.064918210715
 10
2043.324483874514
 20
2591.053207913295
 10
2043.318637037998
 20
2591.041993092618
 10
2043.311846032633
 20
2591.031315612826
 10
2043.304151967539
 20
2591.021212107151
 10
2043.295640106374
 20
2591.011787565932
 10
2043.286395712794
 20
2591.003146979506
 10
2043.272227825978
 20
2590.991896412941
 10
2043.257255256544
 20
2590.981648332316
 10
2043.241618011406
 20
2590.97237991735
 10
2043.225456097476
 20
2590.964068347766
 10
2043.208909521667
 20
2590.956690803282
 10
2043.189539515394
 20
2590.949350658485
 10
2043.169710017304
 20
2590.943156723442
 10
2043.14952253224
 20
2590.938092633214
 10
2043.129078565043
 20
2590.934142022864
 10
2043.108479620558
 20
2590.931288527456
 10
2043.087827203626
 20
2590.92951578205
 10
2043.066920581928
 20
2590.928834395796
 10
2043.045947353603
 20
2590.929283532944
 10
2043.024997425192
 20
2590.930854041289
 10
2043.004160703237
 20
2590.933536768626
 10
2042.983527094281
 20
2590.937322562747
 10
2042.963186504866
 20
2590.942202271448
 10
2042.946409899675
 20
2590.947158881047
 10
2042.929850024136
 20
2590.952962286668
 10
2042.913590865618
 20
2590.95961510115
 10
2042.897716411494
 20
2590.967119937331
 10
2042.882310649136
 20
2590.975479408051
 10
2042.867457565914
 20
2590.984696126148
 10
2042.858167020178
 20
2590.991091279875
 10
2042.849123806552
 20
2590.997888104581
 10
2042.840455729189
 20
2591.005144537906
 10
2042.832290592244
 20
2591.012918517494
 10
2042.824756199871
 20
2591.021267980986
 10
2042.817719193159
 20
2591.030474355175
 10
2042.811389404546
 20
2591.04024290234
 10
2042.805816540194
 20
2591.050482477839
 10
2042.801050306267
 20
2591.061101937032
 10
2042.797140408927
 20
2591.072010135277
 10
2042.79357856952
 20
2591.085560009511
 10
2042.791197486019
 20
2591.099398104273
 10
2042.789861992955
 20
2591.11335992316
 10
2042.789513706895
 20
2591.128128309869
 10
2042.790264846141
 20
2591.142942626454
 10
2042.79210046276
 20
2591.1576828393
 10
2042.795005608823
 20
2591.172228914798
 10
2042.798965336395
 20
2591.186460819335
 10
2042.80349718662
 20
2591.19913649084
 10
2042.808892933957
 20
2591.211519492877
 10
2042.815110974384
 20
2591.223528171329
 10
2042.822109703878
 20
2591.235080872082
 10
2042.829847518414
 20
2591.246095941022
 10
2042.842033686667
 20
2591.261123006729
 10
2042.855258280197
 20
2591.275334408917
 10
2042.869420182555
 20
2591.288646762648
 10
2042.884418277293
 20
2591.300976682979
 10
2042.900151447962
 20
2591.312240784972
 10
2042.916623126499
 20
2591.322429317835
 10
2042.933789054931
 20
2591.331533151282
 10
2042.951532642989
 20
2591.339507177461
 10
2042.969737300404
 20
2591.346306288525
 10
2042.988286436909
 20
2591.351885376624
 10
2043.00766579013
 20
2591.356324118552
 10
2043.027365529178
 20
2591.359463008823
 10
2043.047252787135
 20
2591.361289842351
 10
2043.067194697083
 20
2591.361792414046
 10
2043.087058392106
 20
2591.36095851882
 10
2043.10694580347
 20
2591.358756612281
 10
2043.12670637912
 20
2591.355204520083
 10
2043.146208151554
 20
2591.3503351852
 10
2043.165319153267
 20
2591.344181550609
 10
2043.183907416757
 20
2591.336776559286
 10
2043.198991039705
 20
2591.329635689592
 10
2043.213691631395
 20
2591.321620557364
 10
2043.227938319823
 20
2591.312772416729
 10
2043.241660232987
 20
2591.303132521818
 10
2043.254786498884
 20
2591.292742126761
 10
2043.267246245513
 20
2591.281642485686
 10
2043.278385572319
 20
2591.27057347063
 10
2043.288949400706
 20
2591.258883280284
 10
2043.298791260343
 20
2591.246580523312
 10
2043.3077646809
 20
2591.233673808379
 10
2043.315723192046
 20
2591.220171744151
 10
2043.321676888123
 20
2591.208099222053
 10
2043.326819164089
 20
2591.195609649929
 10
2043.331120910914
 20
2591.182789777202
 10
2043.334553019568
 20
2591.169726353295
 10
2043.33708638102
 20
2591.156506127634
 10
2043.338795404263
 20
2591.142191307751
 10
2043.339471700726
 20
2591.127771862979
 10
2043.339110011329
 20
2591.113359923156
  0
CIRCLE
  5
372
330
1F
100
AcDbEntity
  8
sanindusa
100
AcDbCircle
 10
-2043.064486002142
 20
2591.316816678932
 30
0.0000000000090475
 40
0.0185000000000001
210
0.0
220
0.0000000000000035
230
-1.0
  0
LWPOLYLINE
  5
373
330
1F
100
AcDbEntity
  8
sanindusa
100
AcDbPolyline
 90
       91
 70
   128
 43
0.0
 10
2042.866607355002
 20
2591.196617646819
 10
2042.859275708784
 20
2591.185759117695
 10
2042.852875508919
 20
2591.174326832069
 10
2042.847308344831
 20
2591.162043582595
 10
2042.842810416372
 20
2591.149329853845
 10
2042.840200916392
 20
2591.139758739073
 10
2042.838199096354
 20
2591.130042753624
 10
2042.83691135728
 20
2591.119975582636
 10
2042.8365932099
 20
2591.109835469728
 10
2042.837114000563
 20
2591.101541134882
 10
2042.838321337896
 20
2591.093318570326
 10
2042.840274400157
 20
2591.084991837871
 10
2042.842930653677
 20
2591.076861952644
 10
2042.846197472469
 20
2591.069162661242
 10
2042.850090450126
 20
2591.061759303054
 10
2042.854657009776
 20
2591.054499281753
 10
2042.859737449553
 20
2591.047588633745
 10
2042.867133597125
 20
2591.039098323702
 10
2042.875295415643
 20
2591.031341755912
 10
2042.884361332353
 20
2591.024125924249
 10
2042.893855130701
 20
2591.017471405109
 10
2042.905525456177
 20
2591.010122543388
 10
2042.917598472399
 20
2591.003433045782
 10
2042.930013101994
 20
2590.997424913622
 10
2042.943095084603
 20
2590.991986086323
 10
2042.956459039246
 20
2590.987246494287
 10
2042.970019362326
 20
2590.983121672083
 10
2042.988707176409
 20
2590.978402845137
 10
2043.007641114623
 20
2590.974718532799
 10
2043.026734955698
 20
2590.972087606683
 10
2043.046505172785
 20
2590.970493437916
 10
2043.06635043389
 20
2590.970030932112
 10
2043.086173313609
 20
2590.970703754338
 10
2043.105304855487
 20
2590.972439051033
 10
2043.124326114151
 20
2590.975229346779
 10
2043.143150685473
 20
2590.979059355171
 10
2043.157546215756
 20
2590.982706516309
 10
2043.171786592397
 20
2590.986978408466
 10
2043.185792525435
 20
2590.991941679801
 10
2043.199484724909
 20
2590.997662978478
 10
2043.211893524374
 20
2591.003701801542
 10
2043.223948998935
 20
2591.010417762418
 10
2043.235754179048
 20
2591.017899239615
 10
2043.247112263883
 20
2591.026043328805
 10
2043.254806036685
 20
2591.032352351632
 10
2043.261976727574
 20
2591.039246101523
 10
2043.268712073992
 20
2591.046936070343
 10
2043.27476795294
 20
2591.055171616016
 10
2043.279290334493
 20
2591.062472345357
 10
2043.283220258495
 20
2591.07010585781
 10
2043.28656084896
 20
2591.078282583832
 10
2043.289165279314
 20
2591.086722817342
 10
2043.290972563988
 20
2591.095111529011
 10
2043.292200355217
 20
2591.10565101208
 10
2043.292306632682
 20
2591.11626106915
 10
2043.291217160632
 20
2591.127287298789
 10
2043.289135429906
 20
2591.138180034878
 10
2043.285701876675
 20
2591.150796971586
 10
2043.281238625579
 20
2591.163087448866
 10
2043.275596043223
 20
2591.175301557788
 10
2043.268930291315
 20
2591.186988822348
 10
2043.261522466136
 20
2591.197744516251
 10
2043.253252019518
 20
2591.207852492908
 10
2043.243909456461
 20
2591.217504138748
 10
2043.233788256352
 20
2591.226335874406
 10
2043.223173486106
 20
2591.234138130789
 10
2043.211952476601
 20
2591.241040184131
 10
2043.199856949883
 20
2591.247148068654
 10
2043.187288946117
 20
2591.25221332161
 10
2043.174423487931
 20
2591.256366781641
 10
2043.16134976583
 20
2591.259864706178
 10
2043.148132740734
 20
2591.26281836965
 10
2043.134837373566
 20
2591.265339046487
 10
2043.116591460879
 20
2591.268121130796
 10
2043.09822855945
 20
2591.270073270842
 10
2043.079805502095
 20
2591.271189912
 10
2043.05980497899
 20
2591.271451105346
 10
2043.03980366234
 20
2591.270726628875
 10
2043.019874283572
 20
2591.269020403303
 10
2042.999598747394
 20
2591.266268219415
 10
2042.979476570682
 20
2591.262488718483
 10
2042.959595462844
 20
2591.257659640648
 10
2042.950651988372
 20
2591.255106640208
 10
2042.94180534709
 20
2591.252232040052
 10
2042.933129191349
 20
2591.24890277839
 10
2042.920223476912
 20
2591.242784504603
 10
2042.907914212904
 20
2591.235540756379
 10
2042.896501725024
 20
2591.227379847734
 10
2042.885849177589
 20
2591.21824926253
 10
2042.875736245276
 20
2591.207871079769
 10
2042.866607355002
 20
2591.196617646819
  0
LWPOLYLINE
  5
374
330
1F
100
AcDbEntity
  8
sanindusa
100
AcDbPolyline
 90
       40
 70
   128
 43
0.0
 10
2043.064486002142
 20
2590.993697420874
 10
2043.064486062142
 20
2590.993697420874
 10
2043.066910258803
 20
2590.993593867369
 10
2043.069266589072
 20
2590.993289808512
 10
2043.071486961023
 20
2590.992792827595
 10
2043.073511090903
 20
2590.992122491223
 10
2043.075278133626
 20
2590.991299055359
 10
2043.076741827038
 20
2590.990351461289
 10
2043.07785507845
 20
2590.989309230656
 10
2043.078591594854
 20
2590.988205539068
 10
2043.078924332149
 20
2590.987074602745
 10
2043.078850319225
 20
2590.985948439577
 10
2043.078366221541
 20
2590.984859672244
 10
2043.077491852159
 20
2590.983836382072
 10
2043.076245599628
 20
2590.98290524045
 10
2043.074669010476
 20
2590.982088856185
 10
2043.072799517263
 20
2590.981407280262
 10
2043.070696404072
 20
2590.980875540579
 10
2043.068414934966
 20
2590.98050725899
 10
2043.066023083168
 20
2590.980308615174
 10
2043.062959214643
 20
2590.980308144797
 10
2043.06056830921
 20
2590.980505891853
 10
2043.058287351656
 20
2590.980873119058
 10
2043.056184299596
 20
2590.98140365185
 10
2043.054314263924
 20
2590.982083925766
 10
2043.052734622886
 20
2590.982900109125
 10
2043.051485555757
 20
2590.983831335729
 10
2043.050608445362
 20
2590.984855456043
 10
2043.05012243905
 20
2590.985945316959
 10
2043.050047280948
 20
2590.987071211254
 10
2043.050378738604
 20
2590.988201976144
 10
2043.051112854536
 20
2590.989304435846
 10
2043.05222287058
 20
2590.990345739411
 10
2043.05368414151
 20
2590.991293654846
 10
2043.055448825406
 20
2590.99211767408
 10
2043.057474033509
 20
2590.992789761268
 10
2043.05969625307
 20
2590.993288187384
 10
2043.062056963229
 20
2590.993593448731
 10
2043.064485942142
 20
2590.993697420874
 10
2043.064486002142
 20
2590.993697420874
  0
LWPOLYLINE
  5
375
330
1F
100
AcDbEntity
  8
sanindusa
100
AcDbPolyline
 90
       39
 70
   128
 43
0.0
 10
2043.030659703847
 20
2591.196900650222
 10
2043.030668270587
 20
2591.196694724477
 10
2043.031395899419
 20
2591.190890913026
 10
2043.033117692708
 20
2591.185129278993
 10
2043.035811928625
 20
2591.17977150888
 10
2043.039504495361
 20
2591.174808096227
 10
2043.043301083348
 20
2591.17110626395
 10
2043.047651988475
 20
2591.16789615655
 10
2043.052416047453
 20
2591.165473560382
 10
2043.057674797212
 20
2591.163845963933
 10
2043.062950978213
 20
2591.163151907415
 10
2043.06842297643
 20
2591.163357292776
 10
2043.074251484032
 20
2591.164637773001
 10
2043.079935533102
 20
2591.167085514489
 10
2043.08474131455
 20
2591.170338640246
 10
2043.089101897057
 20
2591.174403582884
 10
2043.092685415755
 20
2591.179022825896
 10
2043.095522721211
 20
2591.18432504493
 10
2043.097366211637
 20
2591.189950484836
 10
2043.098264461479
 20
2591.195978839166
 10
2043.098134451127
 20
2591.201623474243
 10
2043.096906924447
 20
2591.207494694348
 10
2043.094539454021
 20
2591.213237284273
 10
2043.091423987702
 20
2591.218129982316
 10
2043.08745753207
 20
2591.222575241895
 10
2043.083318328216
 20
2591.22598627875
 10
2043.078591439457
 20
2591.228783017885
 10
2043.073587756273
 20
2591.230730080045
 10
2043.06817083579
 20
2591.231833843561
 10
2043.06264039007
 20
2591.231990982063
 10
2043.056996427095
 20
2591.231162294161
 10
2043.051253586667
 20
2591.229193211545
 10
2043.04578644114
 20
2591.226080496868
 10
2043.041384232582
 20
2591.222451430827
 10
2043.037502986587
 20
2591.218072314101
 10
2043.034608359256
 20
2591.213569982075
 10
2043.032406059399
 20
2591.20854486219
 10
2043.031008411035
 20
2591.202902544385
 10
2043.030659703847
 20
2591.196900650222
  0
CIRCLE
  5
376
330
1F
100
AcDbEntity
  8
sanindusa
100
AcDbCircle
 10
2043.064486002142
 20
2591.196816678932
 30
0.0
 40
0.0234999999999998
  0
ARC
  5
377
330
1F
100
AcDbEntity
  8
sanindusa
100
AcDbCircle
 10
2044.390173113483
 20
2591.179158355185
 30
0.0
 40
0.0099999996118647
100
AcDbArc
 50
89.99974832723717
 51
179.9648728610031
  0
ARC
  5
378
330
1F
100
AcDbEntity
  8
sanindusa
100
AcDbCircle
 10
2044.803173059329
 20
2591.179158355207
 30
0.0
 40
0.0099999995888791
100
AcDbArc
 50
0.0243896806813705
 51
90.00035523659002
  0
LINE
  5
379
330
1F
100
AcDbEntity
  8
sanindusa
100
AcDbLine
 10
2044.813173090945
 20
2591.172158354796
 30
0.0
 11
2044.813173090945
 21
2591.179158354796
 31
0.0
  0
LINE
  5
37A
330
1F
100
AcDbEntity
  8
sanindusa
100
AcDbLine
 10
2044.380173090945
 20
2591.179158354796
 30
0.0
 11
2044.380173090945
 21
2591.172158354796
 31
0.0
  0
LWPOLYLINE
  5
37B
330
1F
100
AcDbEntity
  8
sanindusa
100
AcDbPolyline
 90
       27
 70
   128
 43
0.0
 10
2044.460003896721
 20
2591.172445320082
 10
2044.460490681101
 20
2591.164268828892
 10
2044.461429189003
 20
2591.151581406663
 10
2044.462459734226
 20
2591.139812449892
 10
2044.463541339257
 20
2591.129006881847
 10
2044.464639344599
 20
2591.119169253524
 10
2044.465725334116
 20
2591.110274377854
 10
2044.46671796016
 20
2591.102716598982
 10
2044.467665503327
 20
2591.095921976954
 10
2044.468556411413
 20
2591.089850462029
 10
2044.4693825489
 20
2591.084459521282
 10
2044.470182164468
 20
2591.079436325856
 10
2044.470974490923
 20
2591.074628117466
 10
2044.471800510503
 20
2591.069777514097
 10
2044.47265174838
 20
2591.064938282848
 10
2044.473499703042
 20
2591.060260871851
 10
2044.474331416124
 20
2591.055791055695
 10
2044.475276463456
 20
2591.05097501913
 10
2044.476468039231
 20
2591.046716665204
 10
2044.478399915027
 20
2591.042014742101
 10
2044.481306705711
 20
2591.036976662876
 10
2044.485432693213
 20
2591.031819404259
 10
2044.488899303205
 20
2591.028543922348
 10
2044.492948576477
 20
2591.025538909248
 10
2044.497562592818
 20
2591.022944877053
 10
2044.500548209254
 20
2591.021654988105
 10
2044.500894211797
 20
2591.021537049681
  0
ARC
  5
37C
330
1F
100
AcDbEntity
  8
sanindusa
100
AcDbCircle
 10
2044.497301105234
 20
2591.012254086821
 30
0.0
 40
0.0099578591573342
100
AcDbArc
 50
4.703981994719646
 51
68.85635754549582
  0
LINE
  5
37D
330
1F
100
AcDbEntity
  8
sanindusa
100
AcDbLine
 10
2044.507206905688
 20
2591.013062007421
 30
0.0
 11
2044.510093227421
 21
2590.980071199054
 31
0.0
  0
LINE
  5
37E
330
1F
100
AcDbEntity
  8
sanindusa
100
AcDbLine
 10
2044.580252954469
 20
2590.980071199054
 30
0.0
 11
2044.580398858261
 21
2590.981738887022
 31
0.0
  0
LWPOLYLINE
  5
37F
330
1F
100
AcDbEntity
  8
sanindusa
100
AcDbPolyline
 90
       32
 70
   128
 43
0.0
 10
2044.584652785109
 20
2590.986350775387
 10
2044.590637411577
 20
2590.987036236166
 10
2044.60477416662
 20
2590.989360178146
 10
2044.618091534596
 20
2590.992191596233
 10
2044.630571555844
 20
2590.995426350427
 10
2044.642205778143
 20
2590.998966739527
 10
2044.652993696619
 20
2591.002721066897
 10
2044.662940691556
 20
2591.0066002623
 10
2044.672057429739
 20
2591.010520922744
 10
2044.680359249708
 20
2591.014407892813
 10
2044.687864971813
 20
2591.018193784853
 10
2044.694595791944
 20
2591.021818491302
 10
2044.700574436517
 20
2591.025228270003
 10
2044.705824975272
 20
2591.028375749014
 10
2044.711095020276
 20
2591.031684024941
 10
2044.718050117918
 20
2591.036288628913
 10
2044.725809518794
 20
2591.041763794129
 10
2044.734291296579
 20
2591.048185876269
 10
2044.743401639099
 20
2591.055634889964
 10
2044.75303223548
 20
2591.064192132542
 10
2044.763050807179
 20
2591.073929744646
 10
2044.766863981277
 20
2591.077884132473
 10
2044.770698245134
 20
2591.082004835605
 10
2044.774465126536
 20
2591.086407358833
 10
2044.777760883299
 20
2591.091365138403
 10
2044.78044704295
 20
2591.096897003494
 10
2044.782388254542
 20
2591.102890392364
 10
2044.783489077431
 20
2591.109263437022
 10
2044.783812247416
 20
2591.11583866982
 10
2044.784451609637
 20
2591.134147608303
 10
2044.785130715643
 20
2591.153594659915
 10
2044.785785013577
 20
2591.172331301261
  0
ARC
  5
380
330
1F
100
AcDbEntity
  8
sanindusa
100
AcDbCircle
 10
2044.511089422119
 20
2590.980158354796
 30
0.0
 40
0.0010000000000003
100
AcDbArc
 50
185.0000000011417
 51
270.0
  0
ARC
  5
381
330
1F
100
AcDbEntity
  8
sanindusa
100
AcDbCircle
 10
2044.579256759771
 20
2590.980158354796
 30
0.0
 40
0.0010000000000002
100
AcDbArc
 50
270.0
 51
354.9999999988583
  0
ARC
  5
382
330
1F
100
AcDbEntity
  8
sanindusa
100
AcDbCircle
 10
2044.585380559705
 20
2590.981311429384
 30
0.0
 40
0.0050000005627646
100
AcDbArc
 50
98.21785615657885
 51
175.2484136295497
  0
LINE
  5
383
330
1F
100
AcDbEntity
  8
sanindusa
100
AcDbLine
 10
2044.803093438787
 20
2591.189158354796
 30
0.0
 11
2044.390178853627
 21
2591.189158354796
 31
0.0
  0
SPLINE
  5
384
330
1F
100
AcDbEntity
  8
sanindusa
100
AcDbSpline
210
0.0
220
0.0
230
1.0
 70
    28
 71
     3
 72
    56
 73
    52
 74
     0
 42
0.0000000001
 43
0.0000000001
 40
0.0
 40
0.0
 40
0.0
 40
0.0
 40
0.0013380906904553
 40
0.0289942241925995
 40
0.0571076700358153
 40
0.0851317740673468
 40
0.1130235691606607
 40
0.1407556267744238
 40
0.168487651578761
 40
0.1902676861737279
 40
0.2120383107687761
 40
0.2338477094793615
 40
0.2556678899872974
 40
0.2774662607571419
 40
0.2929253993717
 40
0.308390945816179
 40
0.3238764790538526
 40
0.3394783716871212
 40
0.3551551995060062
 40
0.3708556261032626
 40
0.3865278504857366
 40
0.402120626631003
 40
0.419805812948922
 40
0.4375236321014577
 40
0.4552727950565594
 40
0.4729478053567392
 40
0.4907463725626657
 40
0.5087033166062841
 40
0.5267765952480703
 40
0.5471016721161928
 40
0.5674548198791478
 40
0.5877725540777841
 40
0.6079920492470868
 40
0.6280522901546512
 40
0.6479024759384884
 40
0.6676900213095859
 40
0.6895115460752736
 40
0.7113743462858715
 40
0.7332409990248667
 40
0.7550740418418141
 40
0.7768464477031567
 40
0.7999647743062026
 40
0.8231155753646538
 40
0.8462048796290801
 40
0.8694450737480078
 40
0.8929308861228685
 40
0.9166213737528435
 40
0.9391071797685938
 40
0.9616987964658836
 40
0.9843573926303724
 40
1.0
 40
1.0
 40
1.0
 40
1.0
 10
2044.813145838227
 20
2591.172158354796
 30
0.0
 41
1.0
 10
2044.813154858495
 20
2591.172158354796
 30
0.0
 41
1.0
 10
2044.813350312871
 20
2591.172158354796
 30
0.0
 41
1.0
 10
2044.812630646881
 20
2591.172158354796
 30
0.0
 41
1.0
 10
2044.810879318148
 20
2591.172158354796
 30
0.0
 41
1.0
 10
2044.807775064883
 20
2591.172158354796
 30
0.0
 41
1.0
 10
2044.803534850119
 20
2591.172158354796
 30
0.0
 41
1.0
 10
2044.798122351241
 20
2591.172158354796
 30
0.0
 41
1.0
 10
2044.792085222697
 20
2591.172158354796
 30
0.0
 41
1.0
 10
2044.785507896991
 20
2591.172158354796
 30
0.0
 41
1.0
 10
2044.778603455913
 20
2591.172158354796
 30
0.0
 41
1.0
 10
2044.770865374659
 20
2591.172158354796
 30
0.0
 41
1.0
 10
2044.762310723315
 20
2591.172158354796
 30
0.0
 41
1.0
 10
2044.753873980999
 20
2591.172158354796
 30
0.0
 41
1.0
 10
2044.745828816706
 20
2591.172158354796
 30
0.0
 41
1.0
 10
2044.738359597928
 20
2591.172158354796
 30
0.0
 41
1.0
 10
2044.730073082558
 20
2591.172158354796
 30
0.0
 41
1.0
 10
2044.721082688327
 20
2591.172158354796
 30
0.0
 41
1.0
 10
2044.711414991355
 20
2591.172158354796
 30
0.0
 41
1.0
 10
2044.701163578161
 20
2591.172158354796
 30
0.0
 41
1.0
 10
2044.690428418622
 20
2591.172158354796
 30
0.0
 41
1.0
 10
2044.678792040965
 20
2591.172158354796
 30
0.0
 41
1.0
 10
2044.666257630753
 20
2591.172158354796
 30
0.0
 41
1.0
 10
2044.652837794144
 20
2591.172158354796
 30
0.0
 41
1.0
 10
2044.639211232018
 20
2591.172158354796
 30
0.0
 41
1.0
 10
2044.625463307396
 20
2591.172158354796
 30
0.0
 41
1.0
 10
2044.611616204998
 20
2591.172158354796
 30
0.0
 41
1.0
 10
2044.597689110321
 20
2591.172158354796
 30
0.0
 41
1.0
 10
2044.58320371962
 20
2591.172158354796
 30
0.0
 41
1.0
 10
2044.568285967165
 20
2591.172158354796
 30
0.0
 41
1.0
 10
2044.553098742644
 20
2591.172158354796
 30
0.0
 41
1.0
 10
2044.538331679632
 20
2591.172158354796
 30
0.0
 41
1.0
 10
2044.524118498259
 20
2591.172158354796
 30
0.0
 41
1.0
 10
2044.510575166765
 20
2591.172158354796
 30
0.0
 41
1.0
 10
2044.497770733032
 20
2591.172158354796
 30
0.0
 41
1.0
 10
2044.485288373307
 20
2591.172158354796
 30
0.0
 41
1.0
 10
2044.472941257307
 20
2591.172158354796
 30
0.0
 41
1.0
 10
2044.460880470188
 20
2591.172158354796
 30
0.0
 41
1.0
 10
2044.449535121385
 20
2591.172158354796
 30
0.0
 41
1.0
 10
2044.438964779999
 20
2591.172158354796
 30
0.0
 41
1.0
 10
2044.428999021963
 20
2591.172158354796
 30
0.0
 41
1.0
 10
2044.419724549213
 20
2591.172158354796
 30
0.0
 41
1.0
 10
2044.411226647133
 20
2591.172158354796
 30
0.0
 41
1.0
 10
2044.403685557668
 20
2591.172158354796
 30
0.0
 41
1.0
 10
2044.39711734396
 20
2591.172158354796
 30
0.0
 41
1.0
 10
2044.391541203552
 20
2591.172158354796
 30
0.0
 41
1.0
 10
2044.387097205643
 20
2591.172158354796
 30
0.0
 41
1.0
 10
2044.383749476185
 20
2591.172158354796
 30
0.0
 41
1.0
 10
2044.381511376124
 20
2591.172158354796
 30
0.0
 41
1.0
 10
2044.380297125853
 20
2591.172158354796
 30
0.0
 41
1.0
 10
2044.380288482033
 20
2591.172158354796
 30
0.0
 41
1.0
 10
2044.380284951808
 20
2591.172158354796
 30
0.0
 41
1.0
  0
LWPOLYLINE
  5
385
330
1F
100
AcDbEntity
  8
sanindusa
100
AcDbPolyline
 90
       21
 70
   128
 43
0.0
 10
2044.578107880274
 20
2591.018982810721
 10
2044.592337380891
 20
2591.020411638854
 10
2044.606474385541
 20
2591.022623739976
 10
2044.620457951518
 20
2591.025606381742
 10
2044.634673578038
 20
2591.02951615253
 10
2044.648630867064
 20
2591.034304933899
 10
2044.662240579874
 20
2591.039964325838
 10
2044.674493768348
 20
2591.045985942641
 10
2044.68637140786
 20
2591.052742322662
 10
2044.69780618174
 20
2591.060200052832
 10
2044.709139693728
 20
2591.0686440063
 10
2044.719929423796
 20
2591.077794413039
 10
2044.730113629605
 20
2591.087594287164
 10
2044.737206180852
 20
2591.095240718477
 10
2044.74389081255
 20
2591.103255000426
 10
2044.750110706372
 20
2591.111624224405
 10
2044.755996544443
 20
2591.120597374983
 10
2044.761356483162
 20
2591.129905133714
 10
2044.766167862831
 20
2591.139498436761
 10
2044.769669228762
 20
2591.147494554602
 10
2044.773040071029
 20
2591.15634345808
  0
ARC
  5
386
330
1F
100
AcDbEntity
  8
sanindusa
100
AcDbCircle
 10
2044.578954881448
 20
2591.009087599775
 30
0.0
 40
0.0099313952022501
100
AcDbArc
 50
94.89242603810655
 51
175.0825307530465
  0
LWPOLYLINE
  5
387
330
1F
100
AcDbEntity
  8
sanindusa
100
AcDbPolyline
 90
        4
 70
   128
 43
0.0
 10
2044.567385915729
 20
2590.990873803351
 10
2044.567824890533
 20
2590.995850135127
 10
2044.568262421371
 20
2591.000826613086
 10
2044.56906004166
 20
2591.00993892593
  0
LWPOLYLINE
  5
388
330
1F
100
AcDbEntity
  8
sanindusa
100
AcDbPolyline
 90
        9
 70
   128
 43
0.0
 10
2044.573895568375
 20
2590.981841987993
 10
2044.572645584613
 20
2590.982059092941
 10
2044.571374301056
 20
2590.982653729539
 10
2044.571204445187
 20
2590.982761577817
 10
2044.569443836309
 20
2590.984340193888
 10
2044.568798268127
 20
2590.98520772601
 10
2044.567789561165
 20
2590.987294765009
 10
2044.567372176493
 20
2590.989409317806
 10
2044.567385915729
 20
2590.990873803351
  0
LINE
  5
389
330
1F
100
AcDbEntity
  8
sanindusa
100
AcDbLine
 10
2044.579256759771
 20
2590.979158354797
 30
0.0
 11
2044.511089422119
 21
2590.979158354797
 31
0.0
  0
LWPOLYLINE
  5
38A
330
1F
100
AcDbEntity
  8
sanindusa
100
AcDbPolyline
 90
       20
 70
   128
 43
0.0
 10
2044.500900832403
 20
2591.021556472926
 10
2044.500830411779
 20
2591.021561181958
 10
2044.501745435084
 20
2591.021494220176
 10
2044.502989431284
 20
2591.021390989026
 10
2044.504750769196
 20
2591.021237928081
 10
2044.508289513427
 20
2591.020933116709
 10
2044.510504903919
 20
2591.020751538782
 10
2044.513000328384
 20
2591.020561282924
 10
2044.518476342673
 20
2591.02026146547
 10
2044.524944308142
 20
2591.020048897484
 10
2044.531965334873
 20
2591.0199057961
 10
2044.535756226645
 20
2591.019844541454
 10
2044.539661902546
 20
2591.019779527944
 10
2044.543504016374
 20
2591.019703556299
 10
2044.547388039957
 20
2591.019611790069
 10
2044.555275701419
 20
2591.01942932488
 10
2044.562667355735
 20
2591.019265651081
 10
2044.569778784747
 20
2591.019097896419
 10
2044.574103254348
 20
2591.019020035411
 10
2044.578107880274
 20
2591.018982810721
  0
LWPOLYLINE
  5
38B
330
1F
100
AcDbEntity
  8
sanindusa
100
AcDbPolyline
 90
        3
 70
   128
 43
0.0
 10
2044.773040071029
 20
2591.15634345808
 10
2044.775835882906
 20
2591.164792824275
 10
2044.777953093777
 20
2591.172158354796
  0
LWPOLYLINE
  5
38C
330
1F
100
AcDbEntity
  8
sanindusa
100
AcDbPolyline
 90
        6
 70
   128
 43
0.0
 10
2044.580284480992
 20
2590.981748893736
 10
2044.580341157133
 20
2590.981748063823
 10
2044.579519973753
 20
2590.981760082567
 10
2044.577685491542
 20
2590.981786876794
 10
2044.575992433822
 20
2590.981811536563
 10
2044.573895568375
 20
2590.981841987993
  0
ARC
  5
38D
330
1F
100
AcDbEntity
  8
sanindusa
100
AcDbCircle
 10
2045.345530742381
 20
2591.009750403782
 30
0.0
 40
0.0097080209214517
100
AcDbArc
 50
96.94245776805367
 51
117.5282039010433
  0
ARC
  5
38E
330
1F
100
AcDbEntity
  8
sanindusa
100
AcDbCircle
 10
2045.207757304308
 20
2591.172158354796
 30
0.0
 40
0.0050000000000001
100
AcDbArc
 50
3.318075754713367
 51
90.0
  0
LINE
  5
38F
330
1F
100
AcDbEntity
  8
sanindusa
100
AcDbLine
 10
2045.524735544297
 20
2591.182794082115
 30
0.0
 11
2045.524157170082
 21
2591.182800214641
 31
0.0
  0
ARC
  5
390
330
1F
100
AcDbEntity
  8
sanindusa
100
AcDbCircle
 10
2045.215288918062
 20
2591.181158354797
 30
0.0
 40
0.0080000000000001
100
AcDbArc
 50
2.782344569031804
 51
90.0
  0
ARC
  5
391
330
1F
100
AcDbEntity
  8
sanindusa
100
AcDbCircle
 10
2045.532566533772
 20
2591.181158354797
 30
0.0
 40
0.0080000000000009
100
AcDbArc
 50
90.0
 51
168.2017639980742
  0
LINE
  5
392
330
1F
100
AcDbEntity
  8
sanindusa
100
AcDbLine
 10
2045.215288918062
 20
2591.189158354796
 30
0.0
 11
2045.532566533772
 21
2591.189158354796
 31
0.0
  0
ARC
  5
393
330
1F
100
AcDbEntity
  8
sanindusa
100
AcDbCircle
 10
2045.555942074051
 20
2591.179158354796
 30
0.0
 40
0.0100000000000003
100
AcDbArc
 50
0.0
 51
90.0
  0
ARC
  5
394
330
1F
100
AcDbEntity
  8
sanindusa
100
AcDbCircle
 10
2045.142942074051
 20
2591.179158354796
 30
0.0
 40
0.01
100
AcDbArc
 50
90.0
 51
180.0
  0
LINE
  5
395
330
1F
100
AcDbEntity
  8
sanindusa
100
AcDbLine
 10
2045.565942074051
 20
2591.172158354796
 30
0.0
 11
2045.565942074051
 21
2591.179158354796
 31
0.0
  0
LINE
  5
396
330
1F
100
AcDbEntity
  8
sanindusa
100
AcDbLine
 10
2045.132942074051
 20
2591.179158354796
 30
0.0
 11
2045.132942074051
 21
2591.172158354796
 31
0.0
  0
ARC
  5
397
330
1F
100
AcDbEntity
  8
sanindusa
100
AcDbCircle
 10
2045.153605317429
 20
2591.167158354791
 30
0.0
 40
0.0100000000050193
100
AcDbArc
 50
89.99999999218346
 51
149.9999999839971
  0
ARC
  5
398
330
1F
100
AcDbEntity
  8
sanindusa
100
AcDbCircle
 10
2045.545275885366
 20
2591.167158353829
 30
0.0
 40
0.0100000009674171
100
AcDbArc
 50
30.0000031992979
 51
90.0000005549737
  0
LINE
  5
399
330
1F
100
AcDbEntity
  8
sanindusa
100
AcDbLine
 10
2045.144945063389
 20
2591.172158354796
 30
0.0
 11
2045.212769891756
 21
2591.172158354796
 31
0.0
  0
LINE
  5
39A
330
1F
100
AcDbEntity
  8
sanindusa
100
AcDbLine
 10
2045.53856433394
 20
2591.172158354796
 30
0.0
 11
2045.553936139962
 21
2591.172158354796
 31
0.0
  0
ARC
  5
39B
330
1F
100
AcDbEntity
  8
sanindusa
100
AcDbCircle
 10
2045.353346111101
 20
2591.218577935648
 30
0.0
 40
0.1750851849392955
100
AcDbArc
 50
336.9768342383959
 51
348.2068116574713
  0
ARC
  5
39C
330
1F
100
AcDbEntity
  8
sanindusa
100
AcDbCircle
 10
2045.206724925851
 20
2591.295693553217
 30
0.0
 40
0.3404605983590005
100
AcDbArc
 50
329.8284126901978
 51
334.6825956922487
  0
LWPOLYLINE
  5
39D
330
1F
100
AcDbEntity
  8
sanindusa
100
AcDbPolyline
 90
       16
 70
   128
 43
0.0
 10
2045.334665637944
 20
2591.029619830074
 10
2045.348026856061
 20
2591.030895242561
 10
2045.361285337048
 20
2591.032982937156
 10
2045.374590350728
 20
2591.035928492693
 10
2045.387688259602
 20
2591.039689579598
 10
2045.399177810243
 20
2591.043732468309
 10
2045.410434708739
 20
2591.048408594644
 10
2045.421407762448
 20
2591.053695266203
 10
2045.432374949228
 20
2591.059762785021
 10
2045.442987454014
 20
2591.066450514761
 10
2045.453194239774
 20
2591.073724949253
 10
2045.466556031312
 20
2591.084684180292
 10
2045.479013647231
 20
2591.096660608601
 10
2045.486966397352
 20
2591.105476778908
 10
2045.494342133023
 20
2591.114795803595
 10
2045.501061332109
 20
2591.124581020112
  0
LWPOLYLINE
  5
39E
330
1F
100
AcDbEntity
  8
sanindusa
100
AcDbPolyline
 90
       10
 70
   128
 43
0.0
 10
2045.29282761868
 20
2591.029871231369
 10
2045.29899912365
 20
2591.029691670847
 10
2045.305354380403
 20
2591.029520364675
 10
2045.311646433079
 20
2591.029399843355
 10
2045.317268479496
 20
2591.029303895283
 10
2045.322459257553
 20
2591.029255362173
 10
2045.326752986317
 20
2591.029293388896
 10
2045.330345159638
 20
2591.029445036788
 10
2045.332933085439
 20
2591.029551206158
 10
2045.33440187732
 20
2591.029609802216
  0
LINE
  5
39F
330
1F
100
AcDbEntity
  8
sanindusa
100
AcDbLine
 10
2045.334627207821
 20
2591.029618369007
 30
0.0
 11
2045.334665637944
 21
2591.029619830074
 31
0.0
  0
LWPOLYLINE
  5
3A0
330
1F
100
AcDbEntity
  8
sanindusa
100
AcDbPolyline
 90
       14
 70
   128
 43
0.0
 10
2045.223279487204
 20
2591.181546690716
 10
2045.224942844756
 20
2591.155230006345
 10
2045.227378856811
 20
2591.128950872427
 10
2045.230510737397
 20
2591.103287062211
 10
2045.234382594109
 20
2591.077702790556
 10
2045.237556794798
 20
2591.059723038862
 10
2045.23891938583
 20
2591.052789738766
 10
2045.23997910594
 20
2591.049355824724
 10
2045.241440214035
 20
2591.04607339308
 10
2045.24411406356
 20
2591.041841179095
 10
2045.24756331545
 20
2591.03801340156
 10
2045.251489870305
 20
2591.034908235567
 10
2045.256011100927
 20
2591.032439469241
 10
2045.260618715301
 20
2591.030844905143
  0
ARC
  5
3A1
330
1F
100
AcDbEntity
  8
sanindusa
100
AcDbCircle
 10
2045.334989131412
 20
2591.02463030585
 30
0.0
 40
0.0050000000000001
100
AcDbArc
 50
93.7095531385904
 51
131.9999999997362
  0
ARC
  5
3A2
330
1F
100
AcDbEntity
  8
sanindusa
100
AcDbCircle
 10
2045.25937014414
 20
2591.026003307261
 30
0.0
 40
0.005
100
AcDbArc
 50
48.00000000026378
 51
75.53939742858588
  0
LINE
  5
3A3
330
1F
100
AcDbEntity
  8
sanindusa
100
AcDbLine
 10
2045.33164347838
 20
2591.028346029978
 30
0.0
 11
2045.323096421019
 21
2591.020650224963
 31
0.0
  0
LINE
  5
3A4
330
1F
100
AcDbEntity
  8
sanindusa
100
AcDbLine
 10
2045.272787727083
 20
2591.020650224963
 30
0.0
 11
2045.262715797173
 21
2591.029719031388
 31
0.0
  0
LINE
  5
3A5
330
1F
100
AcDbEntity
  8
sanindusa
100
AcDbLine
 10
2045.333168569367
 20
2590.981747208097
 30
0.0
 11
2045.333021937576
 21
2590.980071199054
 31
0.0
  0
LINE
  5
3A6
330
1F
100
AcDbEntity
  8
sanindusa
100
AcDbLine
 10
2045.262862210527
 20
2590.980071199054
 30
0.0
 11
2045.259973941797
 21
2591.013084261702
 31
0.0
  0
ARC
  5
3A7
330
1F
100
AcDbEntity
  8
sanindusa
100
AcDbCircle
 10
2045.190905841817
 20
2591.30401390103
 30
0.0
 40
0.3693393551622299
100
AcDbArc
 50
329.9934686625375
 51
334.517672993479
  0
LINE
  5
3A8
330
1F
100
AcDbEntity
  8
sanindusa
100
AcDbLine
 10
2045.524315138163
 20
2591.145112043325
 30
0.0
 11
2045.529020315442
 21
2591.157205765658
 31
0.0
  0
LWPOLYLINE
  5
3A9
330
1F
100
AcDbEntity
  8
sanindusa
100
AcDbPolyline
 90
       17
 70
   128
 43
0.0
 10
2045.344588602862
 20
2591.019424806263
 10
2045.357000547603
 20
2591.021071378517
 10
2045.369314098854
 20
2591.023390056629
 10
2045.381475197519
 20
2591.026369497745
 10
2045.393786176755
 20
2591.030114918626
 10
2045.40587931413
 20
2591.03454231031
 10
2045.417698391808
 20
2591.039631269783
 10
2045.429151786112
 20
2591.045339539846
 10
2045.440280292905
 20
2591.051677838657
 10
2045.451033542108
 20
2591.058615756313
 10
2045.461679795137
 20
2591.066366398746
 10
2045.471875636065
 20
2591.07471759721
 10
2045.481570497181
 20
2591.083629535623
 10
2045.489583842674
 20
2591.091834046467
 10
2045.497132598317
 20
2591.100465896689
 10
2045.504234082809
 20
2591.109672487411
 10
2045.510742052816
 20
2591.119307763054
  0
ARC
  5
3AA
330
1F
100
AcDbEntity
  8
sanindusa
100
AcDbCircle
 10
2045.509896119586
 20
2591.11984105188
 30
0.0
 40
0.001
100
AcDbArc
 50
327.7720619653262
 51
62.25558507963492
  0
ARC
  5
3AB
330
1F
100
AcDbEntity
  8
sanindusa
100
AcDbCircle
 10
2045.523396441822
 20
2591.145507007921
 30
0.0
 40
0.001
100
AcDbArc
 50
242.2555850796349
 51
336.7362339687344
  0
ARC
  5
3AC
330
1F
100
AcDbEntity
  8
sanindusa
100
AcDbCircle
 10
2045.515405471932
 20
2591.149710266052
 30
0.0
 40
0.0010000000000002
100
AcDbArc
 50
156.9657979255225
 51
242.2555850796349
  0
ARC
  5
3AD
330
1F
100
AcDbEntity
  8
sanindusa
100
AcDbCircle
 10
2045.501905111577
 20
2591.124044330061
 30
0.0
 40
0.0009999999999999
100
AcDbArc
 50
62.25558507963492
 51
147.5414007543914
  0
LINE
  5
3AE
330
1F
100
AcDbEntity
  8
sanindusa
100
AcDbLine
 10
2045.510361647838
 20
2591.1207260849
 30
0.0
 11
2045.502370639828
 21
2591.124929363081
 31
0.0
  0
LINE
  5
3AF
330
1F
100
AcDbEntity
  8
sanindusa
100
AcDbLine
 10
2045.51493994368
 20
2591.148825233032
 30
0.0
 11
2045.52293091357
 21
2591.144621974901
 31
0.0
  0
LWPOLYLINE
  5
3B0
330
1F
100
AcDbEntity
  8
sanindusa
100
AcDbPolyline
 90
        6
 70
   128
 43
0.0
 10
2045.322456132709
 20
2591.00390312421
 10
2045.321992477262
 20
2591.003909415183
 10
2045.32082543312
 20
2591.003925236927
 10
2045.318965580243
 20
2591.003950420447
 10
2045.317301579258
 20
2591.003972929499
 10
2045.31533207187
 20
2591.003999558583
  0
ARC
  5
3B1
330
1F
100
AcDbEntity
  8
sanindusa
100
AcDbCircle
 10
2045.322442074051
 20
2591.004899585747
 30
0.0
 40
0.0010000000000003
100
AcDbArc
 50
180.0
 51
274.2328940972928
  0
LINE
  5
3B2
330
1F
100
AcDbEntity
  8
sanindusa
100
AcDbLine
 10
2045.321442074051
 20
2590.99286811221
 30
0.0
 11
2045.321442074051
 21
2590.980158354796
 31
0.0
  0
LINE
  5
3B3
330
1F
100
AcDbEntity
  8
sanindusa
100
AcDbLine
 10
2045.274442074051
 20
2590.980158354796
 30
0.0
 11
2045.274442074051
 21
2591.016934500836
 31
0.0
  0
LINE
  5
3B4
330
1F
100
AcDbEntity
  8
sanindusa
100
AcDbLine
 10
2045.321442074051
 20
2591.016934500836
 30
0.0
 11
2045.274442074051
 21
2591.016934500836
 31
0.0
  0
LINE
  5
3B5
330
1F
100
AcDbEntity
  8
sanindusa
100
AcDbLine
 10
2045.321442074051
 20
2591.016934500836
 30
0.0
 11
2045.321442074051
 21
2591.004899585747
 31
0.0
  0
ARC
  5
3B6
330
1F
100
AcDbEntity
  8
sanindusa
100
AcDbCircle
 10
2045.159442074051
 20
2591.188158354797
 30
0.0
 40
0.0009999999999999
100
AcDbArc
 50
0.0
 51
90.0
  0
LINE
  5
3B7
330
1F
100
AcDbEntity
  8
sanindusa
100
AcDbLine
 10
2045.160442074051
 20
2591.188158354797
 30
0.0
 11
2045.160442074051
 21
2591.178158354797
 31
0.0
  0
ARC
  5
3B8
330
1F
100
AcDbEntity
  8
sanindusa
100
AcDbCircle
 10
2045.159442074051
 20
2591.178158354797
 30
0.0
 40
0.0010000000000002
100
AcDbArc
 50
270.0
 51
0.0
  0
LINE
  5
3B9
330
1F
100
AcDbEntity
  8
sanindusa
100
AcDbLine
 10
2045.144945063389
 20
2591.172158354796
 30
0.0
 11
2045.132942074051
 21
2591.172158354796
 31
0.0
  0
LINE
  5
3BA
330
1F
100
AcDbEntity
  8
sanindusa
100
AcDbLine
 10
2045.142942074051
 20
2591.189158354796
 30
0.0
 11
2045.159442074051
 21
2591.189158354796
 31
0.0
  0
LINE
  5
3BB
330
1F
100
AcDbEntity
  8
sanindusa
100
AcDbLine
 10
2045.153605317431
 20
2591.177158354796
 30
0.0
 11
2045.159442074051
 21
2591.177158354796
 31
0.0
  0
ARC
  5
3BC
330
1F
100
AcDbEntity
  8
sanindusa
100
AcDbCircle
 10
2045.196442074051
 20
2591.178158354797
 30
0.0
 40
0.0010000000000002
100
AcDbArc
 50
180.0
 51
270.0
  0
LINE
  5
3BD
330
1F
100
AcDbEntity
  8
sanindusa
100
AcDbLine
 10
2045.196442074051
 20
2591.177158354796
 30
0.0
 11
2045.159442074051
 21
2591.177158354796
 31
0.0
  0
ARC
  5
3BE
330
1F
100
AcDbEntity
  8
sanindusa
100
AcDbCircle
 10
2045.196442074051
 20
2591.188158354797
 30
0.0
 40
0.0010000000000002
100
AcDbArc
 50
90.0
 51
180.0
  0
LINE
  5
3BF
330
1F
100
AcDbEntity
  8
sanindusa
100
AcDbLine
 10
2045.159442074051
 20
2591.189158354796
 30
0.0
 11
2045.196442074051
 21
2591.189158354796
 31
0.0
  0
LINE
  5
3C0
330
1F
100
AcDbEntity
  8
sanindusa
100
AcDbLine
 10
2045.195442074051
 20
2591.178158354797
 30
0.0
 11
2045.195442074051
 21
2591.188158354797
 31
0.0
  0
LINE
  5
3C1
330
1F
100
AcDbEntity
  8
sanindusa
100
AcDbLine
 10
2045.273442074051
 20
2590.979158354797
 30
0.0
 11
2045.263858405225
 21
2590.979158354797
 31
0.0
  0
ARC
  5
3C2
330
1F
100
AcDbEntity
  8
sanindusa
100
AcDbCircle
 10
2045.263858405225
 20
2590.980158354796
 30
0.0
 40
0.0009999999999999
100
AcDbArc
 50
185.0000000011417
 51
270.0
  0
ARC
  5
3C3
330
1F
100
AcDbEntity
  8
sanindusa
100
AcDbCircle
 10
2045.269442074051
 20
2591.016934500836
 30
0.0
 40
0.005
100
AcDbArc
 50
0.0
 51
48.00000000026378
  0
ARC
  5
3C4
330
1F
100
AcDbEntity
  8
sanindusa
100
AcDbCircle
 10
2045.273442074051
 20
2590.980158354796
 30
0.0
 40
0.0009999999999999
100
AcDbArc
 50
270.0
 51
0.0
  0
ARC
  5
3C5
330
1F
100
AcDbEntity
  8
sanindusa
100
AcDbCircle
 10
2045.250011994816
 20
2591.012212704274
 30
0.0
 40
0.0100000000000007
100
AcDbArc
 50
5.000000001141676
 51
69.24438066124594
  0
LWPOLYLINE
  5
3C6
330
1F
100
AcDbEntity
  8
sanindusa
100
AcDbPolyline
 90
       14
 70
   128
 43
0.0
 10
2045.21274892234
 20
2591.172447749708
 10
2045.214650923215
 20
2591.146198597547
 10
2045.217309647182
 20
2591.120015279211
 10
2045.220775262149
 20
2591.093565310332
 10
2045.225014572827
 20
2591.067228294154
 10
2045.226061925681
 20
2591.060968525921
 10
2045.227186983847
 20
2591.054723189698
 10
2045.228662295869
 20
2591.048561938568
 10
2045.231107431066
 20
2591.042150291468
 10
2045.234588221893
 20
2591.036235065272
 10
2045.239009967451
 20
2591.030990978146
 10
2045.244237959162
 20
2591.02654905303
 10
2045.248736151511
 20
2591.023756128571
 10
2045.253555822322
 20
2591.021563708852
  0
LINE
  5
3C7
330
1F
100
AcDbEntity
  8
sanindusa
100
AcDbLine
 10
2045.196442074051
 20
2591.189158354796
 30
0.0
 11
2045.215288918062
 21
2591.189158354796
 31
0.0
  0
LINE
  5
3C8
330
1F
100
AcDbEntity
  8
sanindusa
100
AcDbLine
 10
2045.196442074051
 20
2591.177158354796
 30
0.0
 11
2045.207757304308
 21
2591.177158354796
 31
0.0
  0
ARC
  5
3C9
330
1F
100
AcDbEntity
  8
sanindusa
100
AcDbCircle
 10
2045.332025742877
 20
2590.980158354796
 30
0.0
 40
0.0009999999999999
100
AcDbArc
 50
270.0
 51
354.9999999988583
  0
ARC
  5
3CA
330
1F
100
AcDbEntity
  8
sanindusa
100
AcDbCircle
 10
2045.326442074051
 20
2591.016934500836
 30
0.0
 40
0.005
100
AcDbArc
 50
131.9999999997362
 51
180.0
  0
ARC
  5
3CB
330
1F
100
AcDbEntity
  8
sanindusa
100
AcDbCircle
 10
2045.322442074051
 20
2590.980158354796
 30
0.0
 40
0.0010000000000002
100
AcDbArc
 50
180.0
 51
270.0
  0
LINE
  5
3CC
330
1F
100
AcDbEntity
  8
sanindusa
100
AcDbLine
 10
2045.322442074051
 20
2590.979158354797
 30
0.0
 11
2045.273442074051
 21
2590.979158354797
 31
0.0
  0
ARC
  5
3CD
330
1F
100
AcDbEntity
  8
sanindusa
100
AcDbCircle
 10
2045.543551004981
 20
2591.172158354796
 30
0.0
 40
0.0050000000000001
100
AcDbArc
 50
90.0
 51
177.9999999988503
  0
LWPOLYLINE
  5
3CE
330
1F
100
AcDbEntity
  8
sanindusa
100
AcDbPolyline
 90
       20
 70
   128
 43
0.0
 10
2045.337554022985
 20
2590.986275838319
 10
2045.355718883527
 20
2590.989029980566
 10
2045.3737310872
 20
2590.992905629027
 10
2045.39149088006
 20
2590.997875171993
 10
2045.408898508161
 20
2591.003910997751
 10
2045.425854217558
 20
2591.01098549459
 10
2045.443937312123
 20
2591.019960264842
 10
2045.461432210978
 20
2591.030171123056
 10
2045.478225578202
 20
2591.04154073034
 10
2045.494204077873
 20
2591.053991747802
 10
2045.509254374071
 20
2591.067446836549
 10
2045.515484058287
 20
2591.073459872211
 10
2045.521520087401
 20
2591.079665770295
 10
2045.527113800394
 20
2591.086251121697
 10
2045.531187587366
 20
2591.092558091159
 10
2045.534158641889
 20
2591.099454090499
 10
2045.535436010338
 20
2591.104276110842
 10
2045.536185254327
 20
2591.109227825294
 10
2045.536524683516
 20
2591.114219375415
 10
2045.538554050846
 20
2591.172332852279
  0
ARC
  5
3CF
330
1F
100
AcDbEntity
  8
sanindusa
100
AcDbCircle
 10
2045.338149542857
 20
2590.981311429383
 30
0.0
 40
0.0050000000000001
100
AcDbArc
 50
96.84039322375911
 51
174.9999999988583
  0
ARC
  5
3D0
330
1F
100
AcDbEntity
  8
sanindusa
100
AcDbCircle
 10
2045.322442074051
 20
2590.99286811221
 30
0.0
 40
0.0010000000000002
100
AcDbArc
 50
94.05932162490721
 51
180.0
  0
LWPOLYLINE
  5
3D1
330
1F
100
AcDbEntity
  8
sanindusa
100
AcDbPolyline
 90
       24
 70
   128
 43
0.0
 10
2045.322371284779
 20
2590.993865603503
 10
2045.340132403457
 20
2590.995681798359
 10
2045.357798502626
 20
2590.99859347904
 10
2045.375270857165
 20
2591.002579774707
 10
2045.392450741953
 20
2591.007619814526
 10
2045.409239431869
 20
2591.013692727661
 10
2045.427182399051
 20
2591.02154689742
 10
2045.444613326276
 20
2591.030625781147
 10
2045.461418523588
 20
2591.040860118639
 10
2045.477484301029
 20
2591.052180649694
 10
2045.492696968643
 20
2591.064518114109
 10
2045.498859308405
 20
2591.069867855009
 10
2045.504962971118
 20
2591.075323877595
 10
2045.510839406968
 20
2591.080999909995
 10
2045.516320066139
 20
2591.087009680338
 10
2045.521236398815
 20
2591.093466916754
 10
2045.524210806852
 20
2591.098743071764
 10
2045.526263535138
 20
2591.104441206067
 10
2045.527753829513
 20
2591.112127967173
 10
2045.528394711992
 20
2591.119954594038
 10
2045.528518923082
 20
2591.127862601237
 10
2045.52845920329
 20
2591.135793503344
 10
2045.528548293122
 20
2591.143688814934
 10
2045.529020315442
 20
2591.157205765658
  0
LINE
  5
3D2
330
1F
100
AcDbEntity
  8
sanindusa
100
AcDbLine
 10
2045.332025742877
 20
2590.979158354797
 30
0.0
 11
2045.322442074051
 21
2590.979158354797
 31
0.0
  0
LINE
  5
3D3
330
1F
100
AcDbEntity
  8
sanindusa
100
AcDbLine
 10
2045.565942074051
 20
2591.172158354796
 30
0.0
 11
2045.553936139962
 21
2591.172158354796
 31
0.0
  0
LINE
  5
3D4
330
1F
100
AcDbEntity
  8
sanindusa
100
AcDbLine
 10
2045.532566533772
 20
2591.189158354796
 30
0.0
 11
2045.555942074051
 21
2591.189158354796
 31
0.0
  0
LINE
  5
3D5
330
1F
100
AcDbEntity
  8
sanindusa
100
AcDbLine
 10
2045.543551004981
 20
2591.177158354796
 30
0.0
 11
2045.545275885269
 21
2591.177158354796
 31
0.0
  0
LWPOLYLINE
  5
3D6
330
1F
100
AcDbEntity
  8
sanindusa
100
AcDbPolyline
 90
        7
 70
   128
 43
0.0
 10
2045.315281903392
 20
2590.993957579653
 10
2045.317238069948
 20
2590.99393222315
 10
2045.318933281795
 20
2590.993910242526
 10
2045.320711415475
 20
2590.993887168609
 10
2045.321885713515
 20
2590.993871915139
 10
2045.322357576093
 20
2590.993865781731
 10
2045.322371284779
 20
2590.993865603503
  0
LINE
  5
3D7
330
1F
100
AcDbEntity
  8
sanindusa
100
AcDbLine
 10
2045.335671081661
 20
2591.010351054505
 30
0.0
 11
2045.335214422034
 21
2591.005131411098
 31
0.0
  0
ARC
  5
3D8
330
1F
100
AcDbEntity
  8
sanindusa
100
AcDbCircle
 10
2045.345633028642
 20
2591.009479497078
 30
0.0
 40
0.01
100
AcDbArc
 50
95.99505204992553
 51
174.9999999988583
  0
LINE
  5
3D9
330
1F
100
AcDbEntity
  8
sanindusa
100
AcDbLine
 10
2045.322515884805
 20
2591.003902313481
 30
0.0
 11
2045.335214422034
 21
2591.005131411098
 31
0.0
  0
LWPOLYLINE
  5
3DA
330
1F
100
AcDbEntity
  8
sanindusa
100
AcDbPolyline
 90
        8
 70
   128
 43
0.0
 10
2045.315281903392
 20
2590.993957579653
 10
2045.314583447263
 20
2590.994014656344
 10
2045.313940458098
 20
2590.994208664012
 10
2045.313583536087
 20
2590.994427797223
 10
2045.313452907856
 20
2590.994567399461
 10
2045.313402681897
 20
2590.994649881815
 10
2045.313358154671
 20
2590.994787935058
 10
2045.313353581486
 20
2590.994835635981
  0
ELLIPSE
  5
3DB
330
1F
100
AcDbEntity
  8
sanindusa
100
AcDbEllipse
 10
2045.297976952288
 20
2590.464333890946
 30
0.0
 11
-0.0008560803512401
 21
0.7015882047952895
 31
0.0
210
0.0
220
0.0
230
1.0
 40
0.0348994448041286
 41
5.569746978463819
 42
5.587403683853484
  0
LWPOLYLINE
  5
3DC
330
1F
100
AcDbEntity
  8
sanindusa
100
AcDbPolyline
 90
        7
 70
   128
 43
0.0
 10
2045.313014421941
 20
2591.002859121659
 10
2045.313032932995
 20
2591.003002182784
 10
2045.31308058941
 20
2591.003112930691
 10
2045.313272391448
 20
2591.003341116355
 10
2045.313709518074
 20
2591.003622527915
 10
2045.314480696729
 20
2591.003890564226
 10
2045.31533207187
 20
2591.003999558583
  0
LWPOLYLINE
  5
3DD
330
1F
100
AcDbEntity
  8
sanindusa
100
AcDbPolyline
 90
       50
 70
   128
 43
0.0
 10
2045.524157170082
 20
2591.182800214641
 10
2045.524054998645
 20
2591.182801297969
 10
2045.522859770202
 20
2591.18281193185
 10
2045.521071663599
 20
2591.182825175091
 10
2045.518669735171
 20
2591.182839546306
 10
2045.515668329071
 20
2591.182853484701
 10
2045.512033943909
 20
2591.182865792442
 10
2045.507797583729
 20
2591.182875197996
 10
2045.502859336547
 20
2591.182879755706
 10
2045.497095774505
 20
2591.182868967038
 10
2045.491055468645
 20
2591.182842921785
 10
2045.484307323573
 20
2591.182810870974
 10
2045.476858914518
 20
2591.182801186597
 10
2045.468715424179
 20
2591.182816374847
 10
2045.462417531778
 20
2591.182836436753
 10
2045.455439888849
 20
2591.182846125545
 10
2045.447825772328
 20
2591.182844630266
 10
2045.439587136967
 20
2591.182832357194
 10
2045.432283551763
 20
2591.182813451373
 10
2045.424571225887
 20
2591.182781007197
 10
2045.416480161925
 20
2591.182733987225
 10
2045.408035935642
 20
2591.182674128785
 10
2045.399647223972
 20
2591.1826052782
 10
2045.389109799003
 20
2591.182507537547
 10
2045.378320513997
 20
2591.18239436534
 10
2045.367457051397
 20
2591.182262845468
 10
2045.356578718106
 20
2591.182145033948
 10
2045.343959417071
 20
2591.182018809309
 10
2045.331539402678
 20
2591.181904791885
 10
2045.319458022781
 20
2591.181807054875
 10
2045.307769930635
 20
2591.181728615643
 10
2045.297012497026
 20
2591.181674294111
 10
2045.286800912431
 20
2591.181631276751
 10
2045.277254117205
 20
2591.181590945029
 10
2045.268422878577
 20
2591.181552488992
 10
2045.260618727896
 20
2591.181516331431
 10
2045.253649263223
 20
2591.181480665466
 10
2045.247609686311
 20
2591.181444870189
 10
2045.242545431373
 20
2591.18140799271
 10
2045.238510774449
 20
2591.181375364646
 10
2045.235020013484
 20
2591.181374307859
 10
2045.231983323485
 20
2591.1814078562
 10
2045.229402020492
 20
2591.181448290497
 10
2045.227251966367
 20
2591.181482961736
 10
2045.225561703825
 20
2591.181510505834
 10
2045.224330108601
 20
2591.181530398909
 10
2045.223568840983
 20
2591.181542357392
 10
2045.223279653853
 20
2591.181546688335
 10
2045.223279487204
 20
2591.181546690716
 10
2045.223279487204
 20
2591.181546690716
  0
LWPOLYLINE
  5
3DE
330
1F
100
AcDbEntity
  8
sanindusa
100
AcDbPolyline
 90
       10
 70
   128
 43
0.0
 10
2045.260618715301
 20
2591.030844905143
 10
2045.260828448583
 20
2591.030834151196
 10
2045.261893473095
 20
2591.030768141122
 10
2045.263892702306
 20
2591.030639617545
 10
2045.266654266592
 20
2591.030481566892
 10
2045.270224660749
 20
2591.03032278938
 10
2045.274767901602
 20
2591.030195145313
 10
2045.280179752478
 20
2591.030102207972
 10
2045.286218152738
 20
2591.030003985411
 10
2045.29282761868
 20
2591.029871231369
  0
ENDSEC
  0
SECTION
  2
OBJECTS
  0
DICTIONARY
  5
C
330
0
100
AcDbDictionary
281
     1
  3
ACAD_COLOR
350
DF
  3
ACAD_GROUP
350
D
  3
ACAD_LAYOUT
350
1A
  3
ACAD_MATERIAL
350
DE
  3
ACAD_MLEADERSTYLE
350
42E
  3
ACAD_MLINESTYLE
350
17
  3
ACAD_PLOTSETTINGS
350
19
  3
ACAD_PLOTSTYLENAME
350
E
  3
ACAD_SCALELIST
350
41C
  3
ACAD_TABLESTYLE
350
E0
  3
ACAD_VISUALSTYLE
350
408
  3
ACDB_RECOMPOSE_DATA
350
445
  3
AcDbVariableDictionary
350
D3
  3
ASE_INDEX_DICTIONARY
350
CF
  3
DWGPROPS
350
446
  0
DICTIONARY
  5
432
330
10
100
AcDbDictionary
280
     1
281
     1
  3
ADSK_XREC_LAYER_RECONCILED
360
433
  0
DICTIONARY
  5
434
330
2B
100
AcDbDictionary
280
     1
281
     1
  3
ADSK_XREC_LAYER_RECONCILED
360
435
  0
DICTIONARY
  5
436
330
2C
100
AcDbDictionary
280
     1
281
     1
  3
ADSK_XREC_LAYER_RECONCILED
360
437
  0
DICTIONARY
  5
438
330
B9
100
AcDbDictionary
280
     1
281
     1
  3
ADSK_XREC_LAYER_RECONCILED
360
439
  0
DICTIONARY
  5
43A
330
100
100
AcDbDictionary
280
     1
281
     1
  3
ADSK_XREC_LAYER_RECONCILED
360
43B
  0
DICTIONARY
  5
43C
330
2A5
100
AcDbDictionary
280
     1
281
     1
  3
ADSK_XREC_LAYER_RECONCILED
360
43D
  0
DICTIONARY
  5
DF
102
{ACAD_REACTORS
330
C
102
}
330
C
100
AcDbDictionary
281
     1
  0
DICTIONARY
  5
D
102
{ACAD_REACTORS
330
C
102
}
330
C
100
AcDbDictionary
281
     1
  0
DICTIONARY
  5
1A
102
{ACAD_REACTORS
330
C
102
}
330
C
100
AcDbDictionary
281
     1
  3
Layout1
350
1E
  3
Layout2
350
26
  3
Model
350
22
  0
DICTIONARY
  5
DE
102
{ACAD_REACTORS
330
C
102
}
330
C
100
AcDbDictionary
281
     1
  3
ByBlock
350
3F8
  3
ByLayer
350
3F0
  3
Global
350
400
  0
DICTIONARY
  5
42E
102
{ACAD_REACTORS
330
C
102
}
330
C
100
AcDbDictionary
281
     1
  3
Standard
350
42F
  0
DICTIONARY
  5
17
102
{ACAD_REACTORS
330
C
102
}
330
C
100
AcDbDictionary
281
     1
  3
Standard
350
18
  0
DICTIONARY
  5
19
102
{ACAD_REACTORS
330
C
102
}
330
C
100
AcDbDictionary
281
     1
  0
ACDBDICTIONARYWDFLT
  5
E
102
{ACAD_REACTORS
330
C
102
}
330
C
100
AcDbDictionary
281
     1
  3
Normal
350
F
100
AcDbDictionaryWithDefault
340
F
  0
DICTIONARY
  5
41C
102
{ACAD_REACTORS
330
C
102
}
330
C
100
AcDbDictionary
281
     1
  3
A0
350
41D
  3
A1
350
41E
  3
A2
350
41F
  3
A3
350
420
  3
A4
350
421
  3
A5
350
422
  3
A6
350
423
  3
A7
350
424
  3
A8
350
425
  3
A9
350
426
  3
B0
350
427
  3
B1
350
428
  3
B2
350
429
  3
B3
350
42A
  3
B4
350
42B
  3
B5
350
42C
  3
B6
350
42D
  0
DICTIONARY
  5
E0
102
{ACAD_REACTORS
330
C
102
}
330
C
100
AcDbDictionary
281
     1
  3
Standard
350
E1
  0
DICTIONARY
  5
408
102
{ACAD_REACTORS
330
C
102
}
330
C
100
AcDbDictionary
281
     1
  3
2dWireframe
350
40E
  3
3D Hidden
350
410
  3
3dWireframe
350
40F
  3
Basic
350
40D
  3
Brighten
350
414
  3
ColorChange
350
418
  3
Conceptual
350
411
  3
Dim
350
413
  3
EdgeColorOff
350
41B
  3
Facepattern
350
417
  3
Flat
350
409
  3
FlatWithEdges
350
40A
  3
Gouraud
350
40B
  3
GouraudWithEdges
350
40C
  3
JitterOff
350
419
  3
Linepattern
350
416
  3
OverhangOff
350
41A
  3
Realistic
350
412
  3
Thicken
350
415
  0
XRECORD
  5
445
102
{ACAD_REACTORS
330
C
102
}
330
C
100
AcDbXrecord
280
     1
 90
        1
330
E1
  0
DICTIONARY
  5
D3
102
{ACAD_REACTORS
330
C
102
}
330
C
100
AcDbDictionary
281
     1
  3
CANNOSCALE
350
43F
  3
CMLEADERSTYLE
350
43E
  3
CTABLESTYLE
350
2A4
  3
DIMASSOC
350
D5
  3
HIDETEXT
350
D4
  3
INDEXCTL
350
441
  3
PROJECTNAME
350
2B1
  3
SORTENTS
350
440
  3
XCLIPFRAME
350
442
  0
DICTIONARY
  5
CF
102
{ACAD_REACTORS
330
C
102
}
330
C
100
AcDbDictionary
281
     1
  3
ASEBlockHierarchyIndexRecord
350
D1
1001
DCO15
1040
1470390520.828
  0
XRECORD
  5
446
102
{ACAD_REACTORS
330
C
102
}
330
C
100
AcDbXrecord
280
     1
  1
DWGPROPS COOKIE
  2

  3

  4

  6

  7

  8
Julio
  9

300
=
301
=
302
=
303
=
304
=
305
=
306
=
307
=
308
=
309
=
 40
0.0209552430555556
 41
2452821.605661701
 42
2456147.652280093
  1

 90
        0
  0
XRECORD
  5
433
102
{ACAD_REACTORS
330
432
102
}
330
432
100
AcDbXrecord
280
     1
290
     1
  0
XRECORD
  5
435
102
{ACAD_REACTORS
330
434
102
}
330
434
100
AcDbXrecord
280
     1
290
     1
  0
XRECORD
  5
437
102
{ACAD_REACTORS
330
436
102
}
330
436
100
AcDbXrecord
280
     1
290
     1
  0
XRECORD
  5
439
102
{ACAD_REACTORS
330
438
102
}
330
438
100
AcDbXrecord
280
     1
290
     1
  0
XRECORD
  5
43B
102
{ACAD_REACTORS
330
43A
102
}
330
43A
100
AcDbXrecord
280
     1
290
     1
  0
XRECORD
  5
43D
102
{ACAD_REACTORS
330
43C
102
}
330
43C
100
AcDbXrecord
280
     1
290
     1
  0
LAYOUT
  5
1E
102
{ACAD_XDICTIONARY
360
447
102
}
102
{ACAD_REACTORS
330
1A
102
}
330
1A
100
AcDbPlotSettings
  1

  2
PLOTER 500
  4

  6

 40
0.0
 41
0.0
 42
0.0
 43
0.0
 44
0.0
 45
0.0
 46
0.0
 47
0.0
 48
0.0
 49
0.0
140
0.0
141
0.0
142
1.0
143
1.0
 70
   688
 72
     0
 73
     0
 74
     5
  7
monochrome.ctb
 75
    16
147
1.0
148
0.0
149
0.0
100
AcDbLayout
  1
Layout1
 70
     1
 71
     1
 10
0.0
 20
0.0
 11
420.0
 21
297.0
 12
0.0
 22
0.0
 32
0.0
 14
1.000000000000000E+20
 24
1.000000000000000E+20
 34
1.000000000000000E+20
 15
-1.000000000000000E+20
 25
-1.000000000000000E+20
 35
-1.000000000000000E+20
146
0.0
 13
0.0
 23
0.0
 33
0.0
 16
1.0
 26
0.0
 36
0.0
 17
0.0
 27
1.0
 37
0.0
 76
     0
330
1B
  0
LAYOUT
  5
26
102
{ACAD_XDICTIONARY
360
44B
102
}
102
{ACAD_REACTORS
330
1A
102
}
330
1A
100
AcDbPlotSettings
  1

  2
PLOTER 500
  4

  6

 40
0.0
 41
0.0
 42
0.0
 43
0.0
 44
0.0
 45
0.0
 46
0.0
 47
0.0
 48
0.0
 49
0.0
140
0.0
141
0.0
142
1.0
143
1.0
 70
   688
 72
     0
 73
     0
 74
     5
  7
monochrome.ctb
 75
    16
147
1.0
148
0.0
149
0.0
100
AcDbLayout
  1
Layout2
 70
     1
 71
     2
 10
0.0
 20
0.0
 11
12.0
 21
9.0
 12
0.0
 22
0.0
 32
0.0
 14
0.0
 24
0.0
 34
0.0
 15
0.0
 25
0.0
 35
0.0
146
0.0
 13
0.0
 23
0.0
 33
0.0
 16
1.0
 26
0.0
 36
0.0
 17
0.0
 27
1.0
 37
0.0
 76
     0
330
23
  0
LAYOUT
  5
22
102
{ACAD_XDICTIONARY
360
449
102
}
102
{ACAD_REACTORS
330
1A
102
}
330
1A
100
AcDbPlotSettings
  1

  2
PLOTER 500
  4

  6

 40
0.0
 41
0.0
 42
0.0
 43
0.0
 44
0.0
 45
0.0
 46
0.0
 47
0.0
 48
0.0
 49
0.0
140
0.0
141
0.0
142
1.0
143
1.0
 70
  1712
 72
     0
 73
     0
 74
     0
  7
monochrome.ctb
 75
     0
147
1.0
148
0.0
149
0.0
100
AcDbLayout
  1
Model
 70
     1
 71
     0
 10
0.0
 20
0.0
 11
12.0
 21
9.0
 12
0.0
 22
0.0
 32
0.0
 14
0.0
 24
0.0
 34
0.0
 15
0.0
 25
0.0
 35
0.0
146
0.0
 13
0.0
 23
0.0
 33
0.0
 16
1.0
 26
0.0
 36
0.0
 17
0.0
 27
1.0
 37
0.0
 76
     0
330
1F
331
3E7
  0
MATERIAL
  5
3F8
102
{ACAD_XDICTIONARY
360
3F9
102
}
102
{ACAD_REACTORS
330
DE
102
}
330
DE
100
AcDbMaterial
  1
ByBlock
 72
     0
 43
0.820209973753281
 43
0.0
 43
0.0
 43
0.0
 43
0.0
 43
0.820209973753281
 43
0.0
 43
0.0
 43
0.0
 43
0.0
 43
1.0
 43
0.0
 43
0.0
 43
0.0
 43
0.0
 43
1.0
 77
     0
 47
0.820209973753281
 47
0.0
 47
0.0
 47
0.0
 47
0.0
 47
0.820209973753281
 47
0.0
 47
0.0
 47
0.0
 47
0.0
 47
1.0
 47
0.0
 47
0.0
 47
0.0
 47
0.0
 47
1.0
171
     0
 49
0.820209973753281
 49
0.0
 49
0.0
 49
0.0
 49
0.0
 49
0.820209973753281
 49
0.0
 49
0.0
 49
0.0
 49
0.0
 49
1.0
 49
0.0
 49
0.0
 49
0.0
 49
0.0
 49
1.0
175
     0
142
0.820209973753281
142
0.0
142
0.0
142
0.0
142
0.0
142
0.820209973753281
142
0.0
142
0.0
142
0.0
142
0.0
142
1.0
142
0.0
142
0.0
142
0.0
142
0.0
142
1.0
179
     0
144
0.820209973753281
144
0.0
144
0.0
144
0.0
144
0.0
144
0.820209973753281
144
0.0
144
0.0
144
0.0
144
0.0
144
1.0
144
0.0
144
0.0
144
0.0
144
0.0
144
1.0
147
0.820209973753281
147
0.0
147
0.0
147
0.0
147
0.0
147
0.820209973753281
147
0.0
147
0.0
147
0.0
147
0.0
147
1.0
147
0.0
147
0.0
147
0.0
147
0.0
147
1.0
  0
MATERIAL
  5
3F0
102
{ACAD_XDICTIONARY
360
3F1
102
}
102
{ACAD_REACTORS
330
DE
102
}
330
DE
100
AcDbMaterial
  1
ByLayer
 72
     0
 43
0.820209973753281
 43
0.0
 43
0.0
 43
0.0
 43
0.0
 43
0.820209973753281
 43
0.0
 43
0.0
 43
0.0
 43
0.0
 43
1.0
 43
0.0
 43
0.0
 43
0.0
 43
0.0
 43
1.0
 77
     0
 47
0.820209973753281
 47
0.0
 47
0.0
 47
0.0
 47
0.0
 47
0.820209973753281
 47
0.0
 47
0.0
 47
0.0
 47
0.0
 47
1.0
 47
0.0
 47
0.0
 47
0.0
 47
0.0
 47
1.0
171
     0
 49
0.820209973753281
 49
0.0
 49
0.0
 49
0.0
 49
0.0
 49
0.820209973753281
 49
0.0
 49
0.0
 49
0.0
 49
0.0
 49
1.0
 49
0.0
 49
0.0
 49
0.0
 49
0.0
 49
1.0
175
     0
142
0.820209973753281
142
0.0
142
0.0
142
0.0
142
0.0
142
0.820209973753281
142
0.0
142
0.0
142
0.0
142
0.0
142
1.0
142
0.0
142
0.0
142
0.0
142
0.0
142
1.0
179
     0
144
0.820209973753281
144
0.0
144
0.0
144
0.0
144
0.0
144
0.820209973753281
144
0.0
144
0.0
144
0.0
144
0.0
144
1.0
144
0.0
144
0.0
144
0.0
144
0.0
144
1.0
147
0.820209973753281
147
0.0
147
0.0
147
0.0
147
0.0
147
0.820209973753281
147
0.0
147
0.0
147
0.0
147
0.0
147
1.0
147
0.0
147
0.0
147
0.0
147
0.0
147
1.0
  0
MATERIAL
  5
400
102
{ACAD_XDICTIONARY
360
401
102
}
102
{ACAD_REACTORS
330
DE
102
}
330
DE
100
AcDbMaterial
  1
Global
 72
     0
 43
0.820209973753281
 43
0.0
 43
0.0
 43
0.0
 43
0.0
 43
0.820209973753281
 43
0.0
 43
0.0
 43
0.0
 43
0.0
 43
1.0
 43
0.0
 43
0.0
 43
0.0
 43
0.0
 43
1.0
 77
     0
 47
0.820209973753281
 47
0.0
 47
0.0
 47
0.0
 47
0.0
 47
0.820209973753281
 47
0.0
 47
0.0
 47
0.0
 47
0.0
 47
1.0
 47
0.0
 47
0.0
 47
0.0
 47
0.0
 47
1.0
171
     0
 49
0.820209973753281
 49
0.0
 49
0.0
 49
0.0
 49
0.0
 49
0.820209973753281
 49
0.0
 49
0.0
 49
0.0
 49
0.0
 49
1.0
 49
0.0
 49
0.0
 49
0.0
 49
0.0
 49
1.0
175
     0
142
0.820209973753281
142
0.0
142
0.0
142
0.0
142
0.0
142
0.820209973753281
142
0.0
142
0.0
142
0.0
142
0.0
142
1.0
142
0.0
142
0.0
142
0.0
142
0.0
142
1.0
179
     0
144
0.820209973753281
144
0.0
144
0.0
144
0.0
144
0.0
144
0.820209973753281
144
0.0
144
0.0
144
0.0
144
0.0
144
1.0
144
0.0
144
0.0
144
0.0
144
0.0
144
1.0
147
0.820209973753281
147
0.0
147
0.0
147
0.0
147
0.0
147
0.820209973753281
147
0.0
147
0.0
147
0.0
147
0.0
147
1.0
147
0.0
147
0.0
147
0.0
147
0.0
147
1.0
  0
MLEADERSTYLE
  5
42F
102
{ACAD_REACTORS
330
42E
102
}
330
42E
100
AcDbMLeaderStyle
170
     2
171
     1
172
     0
 90
        2
 40
0.0
 41
0.0
173
     1
 91
-1056964608
340
14
 92
       -2
290
     1
 42
2.0
291
     1
 43
0.36
  3
Standard
 44
4.0
300

342
11
174
     1
178
     6
175
     1
176
     0
 93
-1056964608
 45
4.0
292
     0
297
     0
 46
4.0
 94
-1056964608
 47
1.0
 49
1.0
140
1.0
293
     1
141
0.0
294
     1
177
     0
142
1.0
295
     0
296
     0
143
0.125
1001
ACAD_MLEADERVER
1070
     2
  0
MLINESTYLE
  5
18
102
{ACAD_REACTORS
330
17
102
}
330
17
100
AcDbMlineStyle
  2
STANDARD
 70
     0
  3

 62
   256
 51
90.0
 52
90.0
 71
     2
 49
0.5
 62
   256
  6
BYLAYER
 49
-0.5
 62
   256
  6
BYLAYER
  0
ACDBPLACEHOLDER
  5
F
102
{ACAD_REACTORS
330
E
102
}
330
E
  0
SCALE
  5
41D
102
{ACAD_REACTORS
330
41C
102
}
330
41C
100
AcDbScale
 70
     0
300
1:1
140
1.0
141
1.0
290
     1
  0
SCALE
  5
41E
102
{ACAD_REACTORS
330
41C
102
}
330
41C
100
AcDbScale
 70
     0
300
1:2
140
1.0
141
2.0
290
     0
  0
SCALE
  5
41F
102
{ACAD_REACTORS
330
41C
102
}
330
41C
100
AcDbScale
 70
     0
300
1:4
140
1.0
141
4.0
290
     0
  0
SCALE
  5
420
102
{ACAD_REACTORS
330
41C
102
}
330
41C
100
AcDbScale
 70
     0
300
1:5
140
1.0
141
5.0
290
     0
  0
SCALE
  5
421
102
{ACAD_REACTORS
330
41C
102
}
330
41C
100
AcDbScale
 70
     0
300
1:8
140
1.0
141
8.0
290
     0
  0
SCALE
  5
422
102
{ACAD_REACTORS
330
41C
102
}
330
41C
100
AcDbScale
 70
     0
300
1:10
140
1.0
141
10.0
290
     0
  0
SCALE
  5
423
102
{ACAD_REACTORS
330
41C
102
}
330
41C
100
AcDbScale
 70
     0
300
1:16
140
1.0
141
16.0
290
     0
  0
SCALE
  5
424
102
{ACAD_REACTORS
330
41C
102
}
330
41C
100
AcDbScale
 70
     0
300
1:20
140
1.0
141
20.0
290
     0
  0
SCALE
  5
425
102
{ACAD_REACTORS
330
41C
102
}
330
41C
100
AcDbScale
 70
     0
300
1:30
140
1.0
141
30.0
290
     0
  0
SCALE
  5
426
102
{ACAD_REACTORS
330
41C
102
}
330
41C
100
AcDbScale
 70
     0
300
1:40
140
1.0
141
40.0
290
     0
  0
SCALE
  5
427
102
{ACAD_REACTORS
330
41C
102
}
330
41C
100
AcDbScale
 70
     0
300
1:50
140
1.0
141
50.0
290
     0
  0
SCALE
  5
428
102
{ACAD_REACTORS
330
41C
102
}
330
41C
100
AcDbScale
 70
     0
300
1:100
140
1.0
141
100.0
290
     0
  0
SCALE
  5
429
102
{ACAD_REACTORS
330
41C
102
}
330
41C
100
AcDbScale
 70
     0
300
2:1
140
2.0
141
1.0
290
     0
  0
SCALE
  5
42A
102
{ACAD_REACTORS
330
41C
102
}
330
41C
100
AcDbScale
 70
     0
300
4:1
140
4.0
141
1.0
290
     0
  0
SCALE
  5
42B
102
{ACAD_REACTORS
330
41C
102
}
330
41C
100
AcDbScale
 70
     0
300
8:1
140
8.0
141
1.0
290
     0
  0
SCALE
  5
42C
102
{ACAD_REACTORS
330
41C
102
}
330
41C
100
AcDbScale
 70
     0
300
10:1
140
10.0
141
1.0
290
     0
  0
SCALE
  5
42D
102
{ACAD_REACTORS
330
41C
102
}
330
41C
100
AcDbScale
 70
     0
300
100:1
140
100.0
141
1.0
290
     0
  0
TABLESTYLE
  5
E1
102
{ACAD_XDICTIONARY
360
443
102
}
102
{ACAD_REACTORS
330
E0
102
}
330
E0
100
AcDbTableStyle
  3
Standard
 70
     0
 71
     0
 40
1.5
 41
1.5
280
     0
281
     0
  7
Standard
140
4.5
170
     2
 62
     0
 63
     7
283
     0
274
    -2
284
     1
 64
     0
275
    -2
285
     1
 65
     0
276
    -2
286
     1
 66
     0
277
    -2
287
     1
 67
     0
278
    -2
288
     1
 68
     0
279
    -2
289
     1
 69
     0
  7
Standard
140
6.0
170
     5
 62
     0
 63
     7
283
     0
274
    -2
284
     1
 64
     0
275
    -2
285
     1
 65
     0
276
    -2
286
     1
 66
     0
277
    -2
287
     1
 67
     0
278
    -2
288
     1
 68
     0
279
    -2
289
     1
 69
     0
  7
Standard
140
4.5
170
     5
 62
     0
 63
     7
283
     0
274
    -2
284
     1
 64
     0
275
    -2
285
     1
 65
     0
276
    -2
286
     1
 66
     0
277
    -2
287
     1
 67
     0
278
    -2
288
     1
 68
     0
279
    -2
289
     1
 69
     0
  0
VISUALSTYLE
  5
40E
102
{ACAD_XDICTIONARY
360
45B
102
}
102
{ACAD_REACTORS
330
408
102
}
330
408
100
AcDbVisualStyle
  2
2dWireframe
 70
     4
 71
     0
 72
     2
 73
     0
 90
        0
 40
-0.6
 41
-30.0
 62
     5
 63
     7
 74
     1
 91
        4
 64
     7
 65
   257
 75
     1
175
     1
 42
1.0
 92
        0
 66
   257
 43
1.0
 76
     1
 77
     6
 78
     2
 67
     7
 79
     5
170
     0
171
     0
290
     0
174
     0
 93
        1
 44
0.0
173
     0
291
     0
 45
0.0
1001
ACAD
1000
AcDbSavedByObjectVersion
1070
     0
  0
VISUALSTYLE
  5
410
102
{ACAD_XDICTIONARY
360
45F
102
}
102
{ACAD_REACTORS
330
408
102
}
330
408
100
AcDbVisualStyle
  2
3D Hidden
 70
     6
 71
     1
 72
     2
 73
     2
 90
        0
 40
-0.6
 41
-30.0
 62
     5
 63
     7
 74
     2
 91
        2
 64
     7
 65
   257
 75
     2
175
     1
 42
179.0
 92
        0
 66
   257
 43
1.0
 76
     1
 77
     6
 78
     2
 67
     7
 79
     3
170
     0
171
     0
290
     0
174
     0
 93
        1
 44
0.0
173
     0
291
     0
 45
0.0
1001
ACAD
1000
AcDbSavedByObjectVersion
1070
     0
  0
VISUALSTYLE
  5
40F
102
{ACAD_XDICTIONARY
360
45D
102
}
102
{ACAD_REACTORS
330
408
102
}
330
408
100
AcDbVisualStyle
  2
3dWireframe
 70
     5
 71
     0
 72
     2
 73
     0
 90
        0
 40
-0.6
 41
-30.0
 62
     5
 63
     7
 74
     1
 91
        4
 64
     7
 65
   257
 75
     1
175
     1
 42
1.0
 92
        0
 66
   257
 43
1.0
 76
     1
 77
     6
 78
     2
 67
     7
 79
     5
170
     0
171
     0
290
     0
174
     0
 93
        1
 44
0.0
173
     0
291
     0
 45
0.0
1001
ACAD
1000
AcDbSavedByObjectVersion
1070
     0
  0
VISUALSTYLE
  5
40D
102
{ACAD_XDICTIONARY
360
459
102
}
102
{ACAD_REACTORS
330
408
102
}
330
408
100
AcDbVisualStyle
  2
Basic
 70
     7
 71
     1
 72
     0
 73
     1
 90
        0
 40
-0.6
 41
-30.0
 62
     5
 63
     7
 74
     0
 91
        4
 64
     7
 65
   257
 75
     1
175
     1
 42
1.0
 92
        8
 66
     7
 43
1.0
 76
     1
 77
     6
 78
     2
 67
     7
 79
     5
170
     0
171
     0
290
     0
174
     0
 93
        1
 44
0.0
173
     0
291
     1
 45
0.0
1001
ACAD
1000
AcDbSavedByObjectVersion
1070
     0
  0
VISUALSTYLE
  5
414
102
{ACAD_XDICTIONARY
360
467
102
}
102
{ACAD_REACTORS
330
408
102
}
330
408
100
AcDbVisualStyle
  2
Brighten
 70
    12
 71
     2
 72
     2
 73
     0
 90
        0
 40
-0.6
 41
-30.0
 62
     5
 63
     7
 74
     1
 91
        4
 64
     7
 65
   257
 75
     1
175
     1
 42
1.0
 92
        8
 66
     7
 43
1.0
 76
     1
 77
     6
 78
     2
 67
     7
 79
     5
170
     0
171
     0
290
     0
174
     0
 93
        1
 44
50.0
173
     0
291
     1
 45
0.0
1001
ACAD
1000
AcDbSavedByObjectVersion
1070
     0
  0
VISUALSTYLE
  5
418
102
{ACAD_XDICTIONARY
360
46F
102
}
102
{ACAD_REACTORS
330
408
102
}
330
408
100
AcDbVisualStyle
  2
ColorChange
 70
    16
 71
     2
 72
     2
 73
     3
 90
        0
 40
-0.6
 41
-30.0
 62
     5
 63
     8
 74
     1
 91
        4
 64
     7
 65
   257
 75
     1
175
     1
 42
1.0
 92
        8
 66
     8
 43
1.0
 76
     1
 77
     6
 78
     2
 67
     7
 79
     5
170
     0
171
     0
290
     0
174
     0
 93
        1
 44
0.0
173
     0
291
     1
 45
0.0
1001
ACAD
1000
AcDbSavedByObjectVersion
1070
     0
  0
VISUALSTYLE
  5
411
102
{ACAD_XDICTIONARY
360
461
102
}
102
{ACAD_REACTORS
330
408
102
}
330
408
100
AcDbVisualStyle
  2
Conceptual
 70
     9
 71
     3
 72
     2
 73
     0
 90
        0
 40
-0.6
 41
-30.0
 62
     5
 63
     7
 74
     2
 91
        2
 64
     7
 65
   257
 75
     1
175
     1
 42
179.0
 92
        8
 66
     7
 43
1.0
 76
     1
 77
     6
 78
     2
 67
     7
 79
     3
170
     0
171
     0
290
     0
174
     0
 93
        1
 44
0.0
173
     0
291
     0
 45
0.0
1001
ACAD
1000
AcDbSavedByObjectVersion
1070
     0
  0
VISUALSTYLE
  5
413
102
{ACAD_XDICTIONARY
360
465
102
}
102
{ACAD_REACTORS
330
408
102
}
330
408
100
AcDbVisualStyle
  2
Dim
 70
    11
 71
     2
 72
     2
 73
     0
 90
        0
 40
-0.6
 41
-30.0
 62
     5
 63
     7
 74
     1
 91
        4
 64
     7
 65
   257
 75
     1
175
     1
 42
1.0
 92
        8
 66
     7
 43
1.0
 76
     1
 77
     6
 78
     2
 67
     7
 79
     5
170
     0
171
     0
290
     0
174
     0
 93
        1
 44
-50.0
173
     0
291
     1
 45
0.0
1001
ACAD
1000
AcDbSavedByObjectVersion
1070
     0
  0
VISUALSTYLE
  5
41B
102
{ACAD_XDICTIONARY
360
475
102
}
102
{ACAD_REACTORS
330
408
102
}
330
408
100
AcDbVisualStyle
  2
EdgeColorOff
 70
    22
 71
     2
 72
     2
 73
     0
 90
        0
 40
-0.6
 41
-30.0
 62
     5
 63
     7
 74
     1
 91
        4
 64
     7
 65
   257
 75
     1
175
     1
 42
1.0
 92
        8
 66
     7
 43
1.0
 76
     1
 77
     6
 78
     2
 67
     7
 79
     5
170
     0
171
     0
290
     0
174
     0
 93
        1
 44
0.0
173
     0
291
     1
 45
0.0
1001
ACAD
1000
AcDbSavedByObjectVersion
1070
     0
  0
VISUALSTYLE
  5
417
102
{ACAD_XDICTIONARY
360
46D
102
}
102
{ACAD_REACTORS
330
408
102
}
330
408
100
AcDbVisualStyle
  2
Facepattern
 70
    15
 71
     2
 72
     2
 73
     0
 90
        0
 40
-0.6
 41
-30.0
 62
     5
 63
     7
 74
     1
 91
        4
 64
     7
 65
   257
 75
     1
175
     1
 42
1.0
 92
        8
 66
     7
 43
1.0
 76
     1
 77
     6
 78
     2
 67
     7
 79
     5
170
     0
171
     0
290
     0
174
     0
 93
        1
 44
0.0
173
     0
291
     1
 45
0.0
1001
ACAD
1000
AcDbSavedByObjectVersion
1070
     0
  0
VISUALSTYLE
  5
409
102
{ACAD_XDICTIONARY
360
451
102
}
102
{ACAD_REACTORS
330
408
102
}
330
408
100
AcDbVisualStyle
  2
Flat
 70
     0
 71
     2
 72
     1
 73
     1
 90
        2
 40
-0.6
 41
30.0
 62
     5
 63
     7
 74
     0
 91
        4
 64
     7
 65
   257
 75
     1
175
     1
 42
1.0
 92
        8
 66
     7
 43
1.0
 76
     1
 77
     6
 78
     2
 67
     7
 79
     5
170
     0
171
     0
290
     0
174
     0
 93
       13
 44
0.0
173
     0
291
     1
 45
0.0
1001
ACAD
1000
AcDbSavedByObjectVersion
1070
     0
  0
VISUALSTYLE
  5
40A
102
{ACAD_XDICTIONARY
360
453
102
}
102
{ACAD_REACTORS
330
408
102
}
330
408
100
AcDbVisualStyle
  2
FlatWithEdges
 70
     1
 71
     2
 72
     1
 73
     1
 90
        2
 40
-0.6
 41
30.0
 62
     5
 63
     7
 74
     1
 91
        4
 64
     7
 65
   257
 75
     1
175
     1
 42
1.0
 92
        0
 66
   257
 43
1.0
 76
     1
 77
     6
 78
     2
 67
     7
 79
     5
170
     0
171
     0
290
     0
174
     0
 93
       13
 44
0.0
173
     0
291
     1
 45
0.0
1001
ACAD
1000
AcDbSavedByObjectVersion
1070
     0
  0
VISUALSTYLE
  5
40B
102
{ACAD_XDICTIONARY
360
455
102
}
102
{ACAD_REACTORS
330
408
102
}
330
408
100
AcDbVisualStyle
  2
Gouraud
 70
     2
 71
     2
 72
     2
 73
     1
 90
        2
 40
-0.6
 41
30.0
 62
     5
 63
     7
 74
     0
 91
        4
 64
     7
 65
   257
 75
     1
175
     1
 42
1.0
 92
        0
 66
     7
 43
1.0
 76
     1
 77
     6
 78
     2
 67
     7
 79
     5
170
     0
171
     0
290
     0
174
     0
 93
       13
 44
0.0
173
     0
291
     1
 45
0.0
1001
ACAD
1000
AcDbSavedByObjectVersion
1070
     0
  0
VISUALSTYLE
  5
40C
102
{ACAD_XDICTIONARY
360
457
102
}
102
{ACAD_REACTORS
330
408
102
}
330
408
100
AcDbVisualStyle
  2
GouraudWithEdges
 70
     3
 71
     2
 72
     2
 73
     1
 90
        2
 40
-0.6
 41
30.0
 62
     5
 63
     7
 74
     1
 91
        4
 64
     7
 65
   257
 75
     1
175
     1
 42
1.0
 92
        0
 66
   257
 43
1.0
 76
     1
 77
     6
 78
     2
 67
     7
 79
     5
170
     0
171
     0
290
     0
174
     0
 93
       13
 44
0.0
173
     0
291
     1
 45
0.0
1001
ACAD
1000
AcDbSavedByObjectVersion
1070
     0
  0
VISUALSTYLE
  5
419
102
{ACAD_XDICTIONARY
360
471
102
}
102
{ACAD_REACTORS
330
408
102
}
330
408
100
AcDbVisualStyle
  2
JitterOff
 70
    20
 71
     2
 72
     2
 73
     0
 90
        0
 40
-0.6
 41
-30.0
 62
     5
 63
     7
 74
     1
 91
        4
 64
     7
 65
   257
 75
     1
175
     1
 42
1.0
 92
       10
 66
     7
 43
1.0
 76
     1
 77
     6
 78
     2
 67
     7
 79
     5
170
     0
171
     0
290
     0
174
     0
 93
        1
 44
0.0
173
     0
291
     1
 45
0.0
1001
ACAD
1000
AcDbSavedByObjectVersion
1070
     0
  0
VISUALSTYLE
  5
416
102
{ACAD_XDICTIONARY
360
46B
102
}
102
{ACAD_REACTORS
330
408
102
}
330
408
100
AcDbVisualStyle
  2
Linepattern
 70
    14
 71
     2
 72
     2
 73
     0
 90
        0
 40
-0.6
 41
-30.0
 62
     5
 63
     7
 74
     1
 91
        4
 64
     7
 65
   257
 75
     7
175
     7
 42
1.0
 92
        8
 66
     7
 43
1.0
 76
     1
 77
     6
 78
     2
 67
     7
 79
     5
170
     0
171
     0
290
     0
174
     0
 93
        1
 44
0.0
173
     0
291
     1
 45
0.0
1001
ACAD
1000
AcDbSavedByObjectVersion
1070
     0
  0
VISUALSTYLE
  5
41A
102
{ACAD_XDICTIONARY
360
473
102
}
102
{ACAD_REACTORS
330
408
102
}
330
408
100
AcDbVisualStyle
  2
OverhangOff
 70
    21
 71
     2
 72
     2
 73
     0
 90
        0
 40
-0.6
 41
-30.0
 62
     5
 63
     7
 74
     1
 91
        4
 64
     7
 65
   257
 75
     1
175
     1
 42
1.0
 92
        9
 66
     7
 43
1.0
 76
     1
 77
     6
 78
     2
 67
     7
 79
     5
170
     0
171
     0
290
     0
174
     0
 93
        1
 44
0.0
173
     0
291
     1
 45
0.0
1001
ACAD
1000
AcDbSavedByObjectVersion
1070
     0
  0
VISUALSTYLE
  5
412
102
{ACAD_XDICTIONARY
360
463
102
}
102
{ACAD_REACTORS
330
408
102
}
330
408
100
AcDbVisualStyle
  2
Realistic
 70
     8
 71
     2
 72
     2
 73
     0
 90
        0
 40
-0.6
 41
-30.0
 62
     5
 63
     7
 74
     1
 91
        0
 64
     7
 65
   257
 75
     1
175
     1
 42
1.0
 92
        8
 66
     8
 43
1.0
 76
     1
 77
     6
 78
     2
 67
     7
 79
     5
170
     0
171
     0
290
     0
174
     0
 93
       13
 44
0.0
173
     0
291
     0
 45
0.0
1001
ACAD
1000
AcDbSavedByObjectVersion
1070
     0
  0
VISUALSTYLE
  5
415
102
{ACAD_XDICTIONARY
360
469
102
}
102
{ACAD_REACTORS
330
408
102
}
330
408
100
AcDbVisualStyle
  2
Thicken
 70
    13
 71
     2
 72
     2
 73
     0
 90
        0
 40
-0.6
 41
-30.0
 62
     5
 63
     7
 74
     1
 91
        4
 64
     7
 65
   257
 75
     1
175
     1
 42
1.0
 92
       12
 66
     7
 43
1.0
 76
     1
 77
     6
 78
     2
 67
     7
 79
     5
170
     0
171
     0
290
     0
174
     0
 93
        1
 44
0.0
173
     0
291
     1
 45
0.0
1001
ACAD
1000
AcDbSavedByObjectVersion
1070
     0
  0
DICTIONARYVAR
  5
43F
102
{ACAD_REACTORS
330
D3
102
}
330
D3
100
DictionaryVariables
280
     0
  1
1:1
  0
DICTIONARYVAR
  5
43E
102
{ACAD_REACTORS
330
D3
102
}
330
D3
100
DictionaryVariables
280
     0
  1
STANDARD
  0
DICTIONARYVAR
  5
2A4
102
{ACAD_REACTORS
330
D3
102
}
330
D3
100
DictionaryVariables
280
     0
  1
STANDARD
  0
DICTIONARYVAR
  5
D5
102
{ACAD_REACTORS
330
D3
102
}
330
D3
100
DictionaryVariables
280
     0
  1
2
  0
DICTIONARYVAR
  5
D4
102
{ACAD_REACTORS
330
D3
102
}
330
D3
100
DictionaryVariables
280
     0
  1
1
  0
DICTIONARYVAR
  5
441
102
{ACAD_REACTORS
330
D3
102
}
330
D3
100
DictionaryVariables
280
     0
  1
0
  0
DICTIONARYVAR
  5
2B1
102
{ACAD_REACTORS
330
D3
102
}
330
D3
100
DictionaryVariables
280
     0
  1

  0
DICTIONARYVAR
  5
440
102
{ACAD_REACTORS
330
D3
102
}
330
D3
100
DictionaryVariables
280
     0
  1
127
  0
DICTIONARYVAR
  5
442
102
{ACAD_REACTORS
330
D3
102
}
330
D3
100
DictionaryVariables
280
     0
  1
2
  0
XRECORD
  5
D1
102
{ACAD_REACTORS
330
CF
102
}
330
CF
100
AcDbXrecord
280
     1
330
0
330
0
  0
DICTIONARY
  5
447
330
1E
100
AcDbDictionary
280
     1
281
     1
  3
ACAD_XREC_ROUNDTRIP
360
448
  0
DICTIONARY
  5
44B
330
26
100
AcDbDictionary
280
     1
281
     1
  3
ACAD_XREC_ROUNDTRIP
360
44C
  0
DICTIONARY
  5
449
330
22
100
AcDbDictionary
280
     1
281
     1
  3
ACAD_XREC_ROUNDTRIP
360
44A
  0
DICTIONARY
  5
3F9
330
3F8
100
AcDbDictionary
280
     1
281
     1
  3
ACAD_XREC_ROUNDTRIP
360
44F
  3
BUMPTILE
360
3FB
  3
DIFFUSETILE
360
3FA
  3
OPACITYTILE
360
3FE
  3
REFLECTIONTILE
360
3FD
  3
REFRACTIONTILE
360
3FF
  3
SPECULARTILE
360
3FC
  0
DICTIONARY
  5
3F1
330
3F0
100
AcDbDictionary
280
     1
281
     1
  3
ACAD_XREC_ROUNDTRIP
360
44E
  3
BUMPTILE
360
3F3
  3
DIFFUSETILE
360
3F2
  3
OPACITYTILE
360
3F6
  3
REFLECTIONTILE
360
3F5
  3
REFRACTIONTILE
360
3F7
  3
SPECULARTILE
360
3F4
  0
DICTIONARY
  5
401
330
400
100
AcDbDictionary
280
     1
281
     1
  3
ACAD_XREC_ROUNDTRIP
360
450
  3
BUMPTILE
360
403
  3
DIFFUSETILE
360
402
  3
OPACITYTILE
360
406
  3
REFLECTIONTILE
360
405
  3
REFRACTIONTILE
360
407
  3
SPECULARTILE
360
404
  0
DICTIONARY
  5
443
330
E1
100
AcDbDictionary
280
     1
281
     1
  3
ACAD_ROUNDTRIP_2008_TABLESTYLE_CELLSTYLEMAP
360
444
  3
ACAD_XREC_ROUNDTRIP
360
44D
  0
DICTIONARY
  5
45B
330
40E
100
AcDbDictionary
280
     1
281
     1
  3
ACAD_XREC_ROUNDTRIP
360
45C
  0
DICTIONARY
  5
45F
330
410
100
AcDbDictionary
280
     1
281
     1
  3
ACAD_XREC_ROUNDTRIP
360
460
  0
DICTIONARY
  5
45D
330
40F
100
AcDbDictionary
280
     1
281
     1
  3
ACAD_XREC_ROUNDTRIP
360
45E
  0
DICTIONARY
  5
459
330
40D
100
AcDbDictionary
280
     1
281
     1
  3
ACAD_XREC_ROUNDTRIP
360
45A
  0
DICTIONARY
  5
467
330
414
100
AcDbDictionary
280
     1
281
     1
  3
ACAD_XREC_ROUNDTRIP
360
468
  0
DICTIONARY
  5
46F
330
418
100
AcDbDictionary
280
     1
281
     1
  3
ACAD_XREC_ROUNDTRIP
360
470
  0
DICTIONARY
  5
461
330
411
100
AcDbDictionary
280
     1
281
     1
  3
ACAD_XREC_ROUNDTRIP
360
462
  0
DICTIONARY
  5
465
330
413
100
AcDbDictionary
280
     1
281
     1
  3
ACAD_XREC_ROUNDTRIP
360
466
  0
DICTIONARY
  5
475
330
41B
100
AcDbDictionary
280
     1
281
     1
  3
ACAD_XREC_ROUNDTRIP
360
476
  0
DICTIONARY
  5
46D
330
417
100
AcDbDictionary
280
     1
281
     1
  3
ACAD_XREC_ROUNDTRIP
360
46E
  0
DICTIONARY
  5
451
330
409
100
AcDbDictionary
280
     1
281
     1
  3
ACAD_XREC_ROUNDTRIP
360
452
  0
DICTIONARY
  5
453
330
40A
100
AcDbDictionary
280
     1
281
     1
  3
ACAD_XREC_ROUNDTRIP
360
454
  0
DICTIONARY
  5
455
330
40B
100
AcDbDictionary
280
     1
281
     1
  3
ACAD_XREC_ROUNDTRIP
360
456
  0
DICTIONARY
  5
457
330
40C
100
AcDbDictionary
280
     1
281
     1
  3
ACAD_XREC_ROUNDTRIP
360
458
  0
DICTIONARY
  5
471
330
419
100
AcDbDictionary
280
     1
281
     1
  3
ACAD_XREC_ROUNDTRIP
360
472
  0
DICTIONARY
  5
46B
330
416
100
AcDbDictionary
280
     1
281
     1
  3
ACAD_XREC_ROUNDTRIP
360
46C
  0
DICTIONARY
  5
473
330
41A
100
AcDbDictionary
280
     1
281
     1
  3
ACAD_XREC_ROUNDTRIP
360
474
  0
DICTIONARY
  5
463
330
412
100
AcDbDictionary
280
     1
281
     1
  3
ACAD_XREC_ROUNDTRIP
360
464
  0
DICTIONARY
  5
469
330
415
100
AcDbDictionary
280
     1
281
     1
  3
ACAD_XREC_ROUNDTRIP
360
46A
  0
XRECORD
  5
448
102
{ACAD_REACTORS
330
447
102
}
330
447
100
AcDbXrecord
280
     1
102
SHADEPLOT
 70
     0
102
SHADEPLOTRESLEVEL
 70
     2
102
SHADEPLOTCUSTOMDPI
 70
   300
  0
XRECORD
  5
44C
102
{ACAD_REACTORS
330
44B
102
}
330
44B
100
AcDbXrecord
280
     1
102
SHADEPLOT
 70
     0
102
SHADEPLOTRESLEVEL
 70
     2
102
SHADEPLOTCUSTOMDPI
 70
   300
  0
XRECORD
  5
44A
102
{ACAD_REACTORS
330
449
102
}
330
449
100
AcDbXrecord
280
     1
102
SHADEPLOT
 70
     0
102
SHADEPLOTRESLEVEL
 70
     2
102
SHADEPLOTCUSTOMDPI
 70
   300
  0
XRECORD
  5
44F
102
{ACAD_REACTORS
330
3F9
102
}
330
3F9
100
AcDbXrecord
280
     1
102
MATERIAL
148
0.0
149
0.0
149
0.0
 93
        0
 94
      127
282
     0
 72
     0
 77
     0
171
     0
175
     0
179
     0
273
     0
  0
XRECORD
  5
3FB
102
{ACAD_REACTORS
330
3F9
102
}
330
3F9
100
AcDbXrecord
280
     1
270
     1
271
     1
  0
XRECORD
  5
3FA
102
{ACAD_REACTORS
330
3F9
102
}
330
3F9
100
AcDbXrecord
280
     1
270
     1
271
     1
  0
XRECORD
  5
3FE
102
{ACAD_REACTORS
330
3F9
102
}
330
3F9
100
AcDbXrecord
280
     1
270
     1
271
     1
  0
XRECORD
  5
3FD
102
{ACAD_REACTORS
330
3F9
102
}
330
3F9
100
AcDbXrecord
280
     1
270
     1
271
     1
  0
XRECORD
  5
3FF
102
{ACAD_REACTORS
330
3F9
102
}
330
3F9
100
AcDbXrecord
280
     1
270
     1
271
     1
  0
XRECORD
  5
3FC
102
{ACAD_REACTORS
330
3F9
102
}
330
3F9
100
AcDbXrecord
280
     1
270
     1
271
     1
  0
XRECORD
  5
44E
102
{ACAD_REACTORS
330
3F1
102
}
330
3F1
100
AcDbXrecord
280
     1
102
MATERIAL
148
0.0
149
0.0
149
0.0
 93
        0
 94
      127
282
     0
 72
     0
 77
     0
171
     0
175
     0
179
     0
273
     0
  0
XRECORD
  5
3F3
102
{ACAD_REACTORS
330
3F1
102
}
330
3F1
100
AcDbXrecord
280
     1
270
     1
271
     1
  0
XRECORD
  5
3F2
102
{ACAD_REACTORS
330
3F1
102
}
330
3F1
100
AcDbXrecord
280
     1
270
     1
271
     1
  0
XRECORD
  5
3F6
102
{ACAD_REACTORS
330
3F1
102
}
330
3F1
100
AcDbXrecord
280
     1
270
     1
271
     1
  0
XRECORD
  5
3F5
102
{ACAD_REACTORS
330
3F1
102
}
330
3F1
100
AcDbXrecord
280
     1
270
     1
271
     1
  0
XRECORD
  5
3F7
102
{ACAD_REACTORS
330
3F1
102
}
330
3F1
100
AcDbXrecord
280
     1
270
     1
271
     1
  0
XRECORD
  5
3F4
102
{ACAD_REACTORS
330
3F1
102
}
330
3F1
100
AcDbXrecord
280
     1
270
     1
271
     1
  0
XRECORD
  5
450
102
{ACAD_REACTORS
330
401
102
}
330
401
100
AcDbXrecord
280
     1
102
MATERIAL
148
0.0
149
0.0
149
0.0
 93
        0
 94
      127
282
     0
 72
     0
 77
     0
171
     0
175
     0
179
     0
273
     0
  0
XRECORD
  5
403
102
{ACAD_REACTORS
330
401
102
}
330
401
100
AcDbXrecord
280
     1
270
     1
271
     1
  0
XRECORD
  5
402
102
{ACAD_REACTORS
330
401
102
}
330
401
100
AcDbXrecord
280
     1
270
     1
271
     1
  0
XRECORD
  5
406
102
{ACAD_REACTORS
330
401
102
}
330
401
100
AcDbXrecord
280
     1
270
     1
271
     1
  0
XRECORD
  5
405
102
{ACAD_REACTORS
330
401
102
}
330
401
100
AcDbXrecord
280
     1
270
     1
271
     1
  0
XRECORD
  5
407
102
{ACAD_REACTORS
330
401
102
}
330
401
100
AcDbXrecord
280
     1
270
     1
271
     1
  0
XRECORD
  5
404
102
{ACAD_REACTORS
330
401
102
}
330
401
100
AcDbXrecord
280
     1
270
     1
271
     1
  0
CELLSTYLEMAP
  5
444
102
{ACAD_REACTORS
330
443
102
}
330
443
100
AcDbCellStyleMap
 90
        3
300
CELLSTYLE
  1
TABLEFORMAT_BEGIN
 90
        5
170
     1
 91
        0
 92
    32768
 62
   257
 93
        1
300
CONTENTFORMAT
  1
CONTENTFORMAT_BEGIN
 90
        0
 91
        0
 92
        4
 93
        0
300

 40
0.0
140
1.0
 94
        5
 62
     0
340
11
144
6.0
309
CONTENTFORMAT_END
171
     1
301
MARGIN
  1
CELLMARGIN_BEGIN
 40
1.5
 40
1.5
 40
1.5
 40
1.5
 40
0.18
 40
0.18
309
CELLMARGIN_END
 94
        6
 95
        1
302
GRIDFORMAT
  1
GRIDFORMAT_BEGIN
 90
        0
 91
        1
 62
     0
 92
       -2
340
0
 93
        0
 40
0.045
309
GRIDFORMAT_END
 95
        2
302
GRIDFORMAT
  1
GRIDFORMAT_BEGIN
 90
        0
 91
        1
 62
     0
 92
       -2
340
0
 93
        0
 40
0.045
309
GRIDFORMAT_END
 95
        4
302
GRIDFORMAT
  1
GRIDFORMAT_BEGIN
 90
        0
 91
        1
 62
     0
 92
       -2
340
0
 93
        0
 40
0.045
309
GRIDFORMAT_END
 95
        8
302
GRIDFORMAT
  1
GRIDFORMAT_BEGIN
 90
        0
 91
        1
 62
     0
 92
       -2
340
0
 93
        0
 40
0.045
309
GRIDFORMAT_END
 95
       16
302
GRIDFORMAT
  1
GRIDFORMAT_BEGIN
 90
        0
 91
        1
 62
     0
 92
       -2
340
0
 93
        0
 40
0.045
309
GRIDFORMAT_END
 95
       32
302
GRIDFORMAT
  1
GRIDFORMAT_BEGIN
 90
        0
 91
        1
 62
     0
 92
       -2
340
0
 93
        0
 40
0.045
309
GRIDFORMAT_END
309
TABLEFORMAT_END
  1
CELLSTYLE_BEGIN
 90
        1
 91
        1
300
_TITLE
309
CELLSTYLE_END
300
CELLSTYLE
  1
TABLEFORMAT_BEGIN
 90
        5
170
     1
 91
        0
 92
        0
 62
   257
 93
        1
300
CONTENTFORMAT
  1
CONTENTFORMAT_BEGIN
 90
        0
 91
        0
 92
        4
 93
        0
300

 40
0.0
140
1.0
 94
        5
 62
     0
340
11
144
4.5
309
CONTENTFORMAT_END
171
     1
301
MARGIN
  1
CELLMARGIN_BEGIN
 40
1.5
 40
1.5
 40
1.5
 40
1.5
 40
0.18
 40
0.18
309
CELLMARGIN_END
 94
        6
 95
        1
302
GRIDFORMAT
  1
GRIDFORMAT_BEGIN
 90
        0
 91
        1
 62
     0
 92
       -2
340
0
 93
        0
 40
0.045
309
GRIDFORMAT_END
 95
        2
302
GRIDFORMAT
  1
GRIDFORMAT_BEGIN
 90
        0
 91
        1
 62
     0
 92
       -2
340
0
 93
        0
 40
0.045
309
GRIDFORMAT_END
 95
        4
302
GRIDFORMAT
  1
GRIDFORMAT_BEGIN
 90
        0
 91
        1
 62
     0
 92
       -2
340
0
 93
        0
 40
0.045
309
GRIDFORMAT_END
 95
        8
302
GRIDFORMAT
  1
GRIDFORMAT_BEGIN
 90
        0
 91
        1
 62
     0
 92
       -2
340
0
 93
        0
 40
0.045
309
GRIDFORMAT_END
 95
       16
302
GRIDFORMAT
  1
GRIDFORMAT_BEGIN
 90
        0
 91
        1
 62
     0
 92
       -2
340
0
 93
        0
 40
0.045
309
GRIDFORMAT_END
 95
       32
302
GRIDFORMAT
  1
GRIDFORMAT_BEGIN
 90
        0
 91
        1
 62
     0
 92
       -2
340
0
 93
        0
 40
0.045
309
GRIDFORMAT_END
309
TABLEFORMAT_END
  1
CELLSTYLE_BEGIN
 90
        2
 91
        1
300
_HEADER
309
CELLSTYLE_END
300
CELLSTYLE
  1
TABLEFORMAT_BEGIN
 90
        5
170
     1
 91
        0
 92
        0
 62
   257
 93
        1
300
CONTENTFORMAT
  1
CONTENTFORMAT_BEGIN
 90
        0
 91
        0
 92
        4
 93
        0
300

 40
0.0
140
1.0
 94
        2
 62
     0
340
11
144
4.5
309
CONTENTFORMAT_END
171
     1
301
MARGIN
  1
CELLMARGIN_BEGIN
 40
1.5
 40
1.5
 40
1.5
 40
1.5
 40
0.18
 40
0.18
309
CELLMARGIN_END
 94
        6
 95
        1
302
GRIDFORMAT
  1
GRIDFORMAT_BEGIN
 90
        0
 91
        1
 62
     0
 92
       -2
340
0
 93
        0
 40
0.045
309
GRIDFORMAT_END
 95
        2
302
GRIDFORMAT
  1
GRIDFORMAT_BEGIN
 90
        0
 91
        1
 62
     0
 92
       -2
340
0
 93
        0
 40
0.045
309
GRIDFORMAT_END
 95
        4
302
GRIDFORMAT
  1
GRIDFORMAT_BEGIN
 90
        0
 91
        1
 62
     0
 92
       -2
340
0
 93
        0
 40
0.045
309
GRIDFORMAT_END
 95
        8
302
GRIDFORMAT
  1
GRIDFORMAT_BEGIN
 90
        0
 91
        1
 62
     0
 92
       -2
340
0
 93
        0
 40
0.045
309
GRIDFORMAT_END
 95
       16
302
GRIDFORMAT
  1
GRIDFORMAT_BEGIN
 90
        0
 91
        1
 62
     0
 92
       -2
340
0
 93
        0
 40
0.045
309
GRIDFORMAT_END
 95
       32
302
GRIDFORMAT
  1
GRIDFORMAT_BEGIN
 90
        0
 91
        1
 62
     0
 92
       -2
340
0
 93
        0
 40
0.045
309
GRIDFORMAT_END
309
TABLEFORMAT_END
  1
CELLSTYLE_BEGIN
 90
        3
 91
        2
300
_DATA
309
CELLSTYLE_END
  0
XRECORD
  5
44D
102
{ACAD_REACTORS
330
443
102
}
330
443
100
AcDbXrecord
280
     1
102
ACAD_ROUNDTRIP_PRE2007_TABLESTYLE
 90
        4
 91
        0
  1

 92
        4
 93
        0
  2

 94
        4
 95
        0
  3

  0
XRECORD
  5
45C
102
{ACAD_REACTORS
330
45B
102
}
330
45B
100
AcDbXrecord
280
     1
102
RTVSPropertyOp0
 70
     1
102
RTVSPropertyOp1
 70
     1
102
RTVSPropertyOp2
 70
     1
102
RTVSPropertyOp3
 70
     1
102
RTVSPropertyOp4
 70
     1
102
RTVSPropertyOp5
 70
     1
102
RTVSPropertyOp6
 70
     1
102
RTVSPropertyOp7
 70
     1
102
RTVSPropertyOp8
 70
     1
102
RTVSPropertyOp9
 70
     1
102
RTVSPropertyOp10
 70
     1
102
RTVSPropertyOp11
 70
     1
102
RTVSPropertyOp12
 70
     1
102
RTVSPropertyOp13
 70
     1
102
RTVSPropertyOp14
 70
     1
102
RTVSPropertyOp15
 70
     1
102
RTVSPropertyOp16
 70
     1
102
RTVSPropertyOp17
 70
     1
102
RTVSPropertyOp18
 70
     1
102
RTVSPropertyOp19
 70
     1
102
RTVSPropertyOp20
 70
     1
102
RTVSPropertyOp21
 70
     1
102
RTVSPropertyOp22
 70
     1
102
RTVSPropertyOp23
 70
     1
102
RTVSPropertyOp24
 70
     1
102
RTVSPropertyOp25
 70
     1
102
RTVSPropertyOp26
 70
     1
102
RTVSPropertyOp27
 70
     1
  0
XRECORD
  5
460
102
{ACAD_REACTORS
330
45F
102
}
330
45F
100
AcDbXrecord
280
     1
102
RTVSPropertyOp0
 70
     1
102
RTVSPropertyOp1
 70
     1
102
RTVSPropertyOp2
 70
     1
102
RTVSPropertyOp3
 70
     1
102
RTVSPropertyOp4
 70
     1
102
RTVSPropertyOp5
 70
     1
102
RTVSPropertyOp6
 70
     1
102
RTVSPropertyOp7
 70
     1
102
RTVSPropertyOp8
 70
     1
102
RTVSPropertyOp9
 70
     1
102
RTVSPropertyOp10
 70
     1
102
RTVSPropertyOp11
 70
     1
102
RTVSPropertyOp12
 70
     1
102
RTVSPropertyOp13
 70
     1
102
RTVSPropertyOp14
 70
     1
102
RTVSPropertyOp15
 70
     1
102
RTVSPropertyOp16
 70
     1
102
RTVSPropertyOp17
 70
     1
102
RTVSPropertyOp18
 70
     1
102
RTVSPropertyOp19
 70
     1
102
RTVSPropertyOp20
 70
     1
102
RTVSPropertyOp21
 70
     1
102
RTVSPropertyOp22
 70
     1
102
RTVSPropertyOp23
 70
     1
102
RTVSPropertyOp24
 70
     1
102
RTVSPropertyOp25
 70
     1
102
RTVSPropertyOp26
 70
     1
102
RTVSPropertyOp27
 70
     1
  0
XRECORD
  5
45E
102
{ACAD_REACTORS
330
45D
102
}
330
45D
100
AcDbXrecord
280
     1
102
RTVSPropertyOp0
 70
     1
102
RTVSPropertyOp1
 70
     1
102
RTVSPropertyOp2
 70
     1
102
RTVSPropertyOp3
 70
     1
102
RTVSPropertyOp4
 70
     1
102
RTVSPropertyOp5
 70
     1
102
RTVSPropertyOp6
 70
     1
102
RTVSPropertyOp7
 70
     1
102
RTVSPropertyOp8
 70
     1
102
RTVSPropertyOp9
 70
     1
102
RTVSPropertyOp10
 70
     1
102
RTVSPropertyOp11
 70
     1
102
RTVSPropertyOp12
 70
     1
102
RTVSPropertyOp13
 70
     1
102
RTVSPropertyOp14
 70
     1
102
RTVSPropertyOp15
 70
     1
102
RTVSPropertyOp16
 70
     1
102
RTVSPropertyOp17
 70
     1
102
RTVSPropertyOp18
 70
     1
102
RTVSPropertyOp19
 70
     1
102
RTVSPropertyOp20
 70
     1
102
RTVSPropertyOp21
 70
     1
102
RTVSPropertyOp22
 70
     1
102
RTVSPropertyOp23
 70
     1
102
RTVSPropertyOp24
 70
     1
102
RTVSPropertyOp25
 70
     1
102
RTVSPropertyOp26
 70
     1
102
RTVSPropertyOp27
 70
     1
  0
XRECORD
  5
45A
102
{ACAD_REACTORS
330
459
102
}
330
459
100
AcDbXrecord
280
     1
102
RTVSPropertyOp0
 70
     1
102
RTVSPropertyOp1
 70
     1
102
RTVSPropertyOp2
 70
     1
102
RTVSPropertyOp3
 70
     1
102
RTVSPropertyOp4
 70
     1
102
RTVSPropertyOp5
 70
     1
102
RTVSPropertyOp6
 70
     1
102
RTVSPropertyOp7
 70
     1
102
RTVSPropertyOp8
 70
     1
102
RTVSPropertyOp9
 70
     1
102
RTVSPropertyOp10
 70
     1
102
RTVSPropertyOp11
 70
     1
102
RTVSPropertyOp12
 70
     1
102
RTVSPropertyOp13
 70
     1
102
RTVSPropertyOp14
 70
     1
102
RTVSPropertyOp15
 70
     1
102
RTVSPropertyOp16
 70
     1
102
RTVSPropertyOp17
 70
     1
102
RTVSPropertyOp18
 70
     1
102
RTVSPropertyOp19
 70
     1
102
RTVSPropertyOp20
 70
     1
102
RTVSPropertyOp21
 70
     1
102
RTVSPropertyOp22
 70
     1
102
RTVSPropertyOp23
 70
     1
102
RTVSPropertyOp24
 70
     1
102
RTVSPropertyOp25
 70
     1
102
RTVSPropertyOp26
 70
     1
102
RTVSPropertyOp27
 70
     1
  0
XRECORD
  5
468
102
{ACAD_REACTORS
330
467
102
}
330
467
100
AcDbXrecord
280
     1
102
RTVSPropertyOp0
 70
     1
102
RTVSPropertyOp1
 70
     1
102
RTVSPropertyOp2
 70
     1
102
RTVSPropertyOp3
 70
     1
102
RTVSPropertyOp4
 70
     1
102
RTVSPropertyOp5
 70
     1
102
RTVSPropertyOp6
 70
     1
102
RTVSPropertyOp7
 70
     1
102
RTVSPropertyOp8
 70
     1
102
RTVSPropertyOp9
 70
     1
102
RTVSPropertyOp10
 70
     1
102
RTVSPropertyOp11
 70
     1
102
RTVSPropertyOp12
 70
     1
102
RTVSPropertyOp13
 70
     1
102
RTVSPropertyOp14
 70
     1
102
RTVSPropertyOp15
 70
     1
102
RTVSPropertyOp16
 70
     1
102
RTVSPropertyOp17
 70
     1
102
RTVSPropertyOp18
 70
     1
102
RTVSPropertyOp19
 70
     1
102
RTVSPropertyOp20
 70
     1
102
RTVSPropertyOp21
 70
     1
102
RTVSPropertyOp22
 70
     1
102
RTVSPropertyOp23
 70
     1
102
RTVSPropertyOp24
 70
     1
102
RTVSPropertyOp25
 70
     1
102
RTVSPropertyOp26
 70
     1
102
RTVSPropertyOp27
 70
     1
  0
XRECORD
  5
470
102
{ACAD_REACTORS
330
46F
102
}
330
46F
100
AcDbXrecord
280
     1
102
RTVSPropertyOp0
 70
     1
102
RTVSPropertyOp1
 70
     1
102
RTVSPropertyOp2
 70
     1
102
RTVSPropertyOp3
 70
     1
102
RTVSPropertyOp4
 70
     1
102
RTVSPropertyOp5
 70
     1
102
RTVSPropertyOp6
 70
     1
102
RTVSPropertyOp7
 70
     1
102
RTVSPropertyOp8
 70
     1
102
RTVSPropertyOp9
 70
     1
102
RTVSPropertyOp10
 70
     1
102
RTVSPropertyOp11
 70
     1
102
RTVSPropertyOp12
 70
     1
102
RTVSPropertyOp13
 70
     1
102
RTVSPropertyOp14
 70
     1
102
RTVSPropertyOp15
 70
     1
102
RTVSPropertyOp16
 70
     1
102
RTVSPropertyOp17
 70
     1
102
RTVSPropertyOp18
 70
     1
102
RTVSPropertyOp19
 70
     1
102
RTVSPropertyOp20
 70
     1
102
RTVSPropertyOp21
 70
     1
102
RTVSPropertyOp22
 70
     1
102
RTVSPropertyOp23
 70
     1
102
RTVSPropertyOp24
 70
     1
102
RTVSPropertyOp25
 70
     1
102
RTVSPropertyOp26
 70
     1
102
RTVSPropertyOp27
 70
     1
  0
XRECORD
  5
462
102
{ACAD_REACTORS
330
461
102
}
330
461
100
AcDbXrecord
280
     1
102
RTVSPropertyOp0
 70
     1
102
RTVSPropertyOp1
 70
     1
102
RTVSPropertyOp2
 70
     1
102
RTVSPropertyOp3
 70
     1
102
RTVSPropertyOp4
 70
     1
102
RTVSPropertyOp5
 70
     1
102
RTVSPropertyOp6
 70
     1
102
RTVSPropertyOp7
 70
     1
102
RTVSPropertyOp8
 70
     1
102
RTVSPropertyOp9
 70
     1
102
RTVSPropertyOp10
 70
     1
102
RTVSPropertyOp11
 70
     1
102
RTVSPropertyOp12
 70
     1
102
RTVSPropertyOp13
 70
     1
102
RTVSPropertyOp14
 70
     1
102
RTVSPropertyOp15
 70
     1
102
RTVSPropertyOp16
 70
     1
102
RTVSPropertyOp17
 70
     1
102
RTVSPropertyOp18
 70
     1
102
RTVSPropertyOp19
 70
     1
102
RTVSPropertyOp20
 70
     1
102
RTVSPropertyOp21
 70
     1
102
RTVSPropertyOp22
 70
     1
102
RTVSPropertyOp23
 70
     1
102
RTVSPropertyOp24
 70
     1
102
RTVSPropertyOp25
 70
     1
102
RTVSPropertyOp26
 70
     1
102
RTVSPropertyOp27
 70
     1
  0
XRECORD
  5
466
102
{ACAD_REACTORS
330
465
102
}
330
465
100
AcDbXrecord
280
     1
102
RTVSPropertyOp0
 70
     1
102
RTVSPropertyOp1
 70
     1
102
RTVSPropertyOp2
 70
     1
102
RTVSPropertyOp3
 70
     1
102
RTVSPropertyOp4
 70
     1
102
RTVSPropertyOp5
 70
     1
102
RTVSPropertyOp6
 70
     1
102
RTVSPropertyOp7
 70
     1
102
RTVSPropertyOp8
 70
     1
102
RTVSPropertyOp9
 70
     1
102
RTVSPropertyOp10
 70
     1
102
RTVSPropertyOp11
 70
     1
102
RTVSPropertyOp12
 70
     1
102
RTVSPropertyOp13
 70
     1
102
RTVSPropertyOp14
 70
     1
102
RTVSPropertyOp15
 70
     1
102
RTVSPropertyOp16
 70
     1
102
RTVSPropertyOp17
 70
     1
102
RTVSPropertyOp18
 70
     1
102
RTVSPropertyOp19
 70
     1
102
RTVSPropertyOp20
 70
     1
102
RTVSPropertyOp21
 70
     1
102
RTVSPropertyOp22
 70
     1
102
RTVSPropertyOp23
 70
     1
102
RTVSPropertyOp24
 70
     1
102
RTVSPropertyOp25
 70
     1
102
RTVSPropertyOp26
 70
     1
102
RTVSPropertyOp27
 70
     1
  0
XRECORD
  5
476
102
{ACAD_REACTORS
330
475
102
}
330
475
100
AcDbXrecord
280
     1
102
RTVSPropertyOp0
 70
     0
102
RTVSPropertyOp1
 70
     0
102
RTVSPropertyOp2
 70
     0
102
RTVSPropertyOp3
 70
     0
102
RTVSPropertyOp4
 70
     0
102
RTVSPropertyOp5
 70
     0
102
RTVSPropertyOp6
 70
     0
102
RTVSPropertyOp7
 70
     0
102
RTVSPropertyOp8
 70
     0
102
RTVSPropertyOp9
 70
     0
102
RTVSPropertyOp10
 70
     0
102
RTVSPropertyOp11
 70
     0
102
RTVSPropertyOp12
 70
     0
102
RTVSPropertyOp13
 70
     0
102
RTVSPropertyOp14
 70
     2
102
RTVSPropertyOp15
 70
     0
102
RTVSPropertyOp16
 70
     0
102
RTVSPropertyOp17
 70
     0
102
RTVSPropertyOp18
 70
     0
102
RTVSPropertyOp19
 70
     0
102
RTVSPropertyOp20
 70
     0
102
RTVSPropertyOp21
 70
     0
102
RTVSPropertyOp22
 70
     0
102
RTVSPropertyOp23
 70
     0
102
RTVSPropertyOp24
 70
     0
102
RTVSPropertyOp25
 70
     0
102
RTVSPropertyOp26
 70
     0
102
RTVSPropertyOp27
 70
     0
  0
XRECORD
  5
46E
102
{ACAD_REACTORS
330
46D
102
}
330
46D
100
AcDbXrecord
280
     1
102
RTVSPropertyOp0
 70
     1
102
RTVSPropertyOp1
 70
     1
102
RTVSPropertyOp2
 70
     1
102
RTVSPropertyOp3
 70
     1
102
RTVSPropertyOp4
 70
     1
102
RTVSPropertyOp5
 70
     1
102
RTVSPropertyOp6
 70
     1
102
RTVSPropertyOp7
 70
     1
102
RTVSPropertyOp8
 70
     1
102
RTVSPropertyOp9
 70
     1
102
RTVSPropertyOp10
 70
     1
102
RTVSPropertyOp11
 70
     1
102
RTVSPropertyOp12
 70
     1
102
RTVSPropertyOp13
 70
     1
102
RTVSPropertyOp14
 70
     1
102
RTVSPropertyOp15
 70
     1
102
RTVSPropertyOp16
 70
     1
102
RTVSPropertyOp17
 70
     1
102
RTVSPropertyOp18
 70
     1
102
RTVSPropertyOp19
 70
     1
102
RTVSPropertyOp20
 70
     1
102
RTVSPropertyOp21
 70
     1
102
RTVSPropertyOp22
 70
     1
102
RTVSPropertyOp23
 70
     1
102
RTVSPropertyOp24
 70
     1
102
RTVSPropertyOp25
 70
     1
102
RTVSPropertyOp26
 70
     1
102
RTVSPropertyOp27
 70
     1
  0
XRECORD
  5
452
102
{ACAD_REACTORS
330
451
102
}
330
451
100
AcDbXrecord
280
     1
102
RTVSPropertyOp0
 70
     1
102
RTVSPropertyOp1
 70
     1
102
RTVSPropertyOp2
 70
     1
102
RTVSPropertyOp3
 70
     1
102
RTVSPropertyOp4
 70
     1
102
RTVSPropertyOp5
 70
     1
102
RTVSPropertyOp6
 70
     1
102
RTVSPropertyOp7
 70
     1
102
RTVSPropertyOp8
 70
     1
102
RTVSPropertyOp9
 70
     1
102
RTVSPropertyOp10
 70
     1
102
RTVSPropertyOp11
 70
     1
102
RTVSPropertyOp12
 70
     1
102
RTVSPropertyOp13
 70
     1
102
RTVSPropertyOp14
 70
     1
102
RTVSPropertyOp15
 70
     1
102
RTVSPropertyOp16
 70
     1
102
RTVSPropertyOp17
 70
     1
102
RTVSPropertyOp18
 70
     1
102
RTVSPropertyOp19
 70
     1
102
RTVSPropertyOp20
 70
     1
102
RTVSPropertyOp21
 70
     1
102
RTVSPropertyOp22
 70
     1
102
RTVSPropertyOp23
 70
     1
102
RTVSPropertyOp24
 70
     1
102
RTVSPropertyOp25
 70
     1
102
RTVSPropertyOp26
 70
     1
102
RTVSPropertyOp27
 70
     1
  0
XRECORD
  5
454
102
{ACAD_REACTORS
330
453
102
}
330
453
100
AcDbXrecord
280
     1
102
RTVSPropertyOp0
 70
     1
102
RTVSPropertyOp1
 70
     1
102
RTVSPropertyOp2
 70
     1
102
RTVSPropertyOp3
 70
     1
102
RTVSPropertyOp4
 70
     1
102
RTVSPropertyOp5
 70
     1
102
RTVSPropertyOp6
 70
     1
102
RTVSPropertyOp7
 70
     1
102
RTVSPropertyOp8
 70
     1
102
RTVSPropertyOp9
 70
     1
102
RTVSPropertyOp10
 70
     1
102
RTVSPropertyOp11
 70
     1
102
RTVSPropertyOp12
 70
     1
102
RTVSPropertyOp13
 70
     1
102
RTVSPropertyOp14
 70
     1
102
RTVSPropertyOp15
 70
     1
102
RTVSPropertyOp16
 70
     1
102
RTVSPropertyOp17
 70
     1
102
RTVSPropertyOp18
 70
     1
102
RTVSPropertyOp19
 70
     1
102
RTVSPropertyOp20
 70
     1
102
RTVSPropertyOp21
 70
     1
102
RTVSPropertyOp22
 70
     1
102
RTVSPropertyOp23
 70
     1
102
RTVSPropertyOp24
 70
     1
102
RTVSPropertyOp25
 70
     1
102
RTVSPropertyOp26
 70
     1
102
RTVSPropertyOp27
 70
     1
  0
XRECORD
  5
456
102
{ACAD_REACTORS
330
455
102
}
330
455
100
AcDbXrecord
280
     1
102
RTVSPropertyOp0
 70
     1
102
RTVSPropertyOp1
 70
     1
102
RTVSPropertyOp2
 70
     1
102
RTVSPropertyOp3
 70
     1
102
RTVSPropertyOp4
 70
     1
102
RTVSPropertyOp5
 70
     1
102
RTVSPropertyOp6
 70
     1
102
RTVSPropertyOp7
 70
     1
102
RTVSPropertyOp8
 70
     1
102
RTVSPropertyOp9
 70
     1
102
RTVSPropertyOp10
 70
     1
102
RTVSPropertyOp11
 70
     1
102
RTVSPropertyOp12
 70
     1
102
RTVSPropertyOp13
 70
     1
102
RTVSPropertyOp14
 70
     1
102
RTVSPropertyOp15
 70
     1
102
RTVSPropertyOp16
 70
     1
102
RTVSPropertyOp17
 70
     1
102
RTVSPropertyOp18
 70
     1
102
RTVSPropertyOp19
 70
     1
102
RTVSPropertyOp20
 70
     1
102
RTVSPropertyOp21
 70
     1
102
RTVSPropertyOp22
 70
     1
102
RTVSPropertyOp23
 70
     1
102
RTVSPropertyOp24
 70
     1
102
RTVSPropertyOp25
 70
     1
102
RTVSPropertyOp26
 70
     1
102
RTVSPropertyOp27
 70
     1
  0
XRECORD
  5
458
102
{ACAD_REACTORS
330
457
102
}
330
457
100
AcDbXrecord
280
     1
102
RTVSPropertyOp0
 70
     1
102
RTVSPropertyOp1
 70
     1
102
RTVSPropertyOp2
 70
     1
102
RTVSPropertyOp3
 70
     1
102
RTVSPropertyOp4
 70
     1
102
RTVSPropertyOp5
 70
     1
102
RTVSPropertyOp6
 70
     1
102
RTVSPropertyOp7
 70
     1
102
RTVSPropertyOp8
 70
     1
102
RTVSPropertyOp9
 70
     1
102
RTVSPropertyOp10
 70
     1
102
RTVSPropertyOp11
 70
     1
102
RTVSPropertyOp12
 70
     1
102
RTVSPropertyOp13
 70
     1
102
RTVSPropertyOp14
 70
     1
102
RTVSPropertyOp15
 70
     1
102
RTVSPropertyOp16
 70
     1
102
RTVSPropertyOp17
 70
     1
102
RTVSPropertyOp18
 70
     1
102
RTVSPropertyOp19
 70
     1
102
RTVSPropertyOp20
 70
     1
102
RTVSPropertyOp21
 70
     1
102
RTVSPropertyOp22
 70
     1
102
RTVSPropertyOp23
 70
     1
102
RTVSPropertyOp24
 70
     1
102
RTVSPropertyOp25
 70
     1
102
RTVSPropertyOp26
 70
     1
102
RTVSPropertyOp27
 70
     1
  0
XRECORD
  5
472
102
{ACAD_REACTORS
330
471
102
}
330
471
100
AcDbXrecord
280
     1
102
RTVSPropertyOp0
 70
     0
102
RTVSPropertyOp1
 70
     0
102
RTVSPropertyOp2
 70
     0
102
RTVSPropertyOp3
 70
     0
102
RTVSPropertyOp4
 70
     0
102
RTVSPropertyOp5
 70
     0
102
RTVSPropertyOp6
 70
     0
102
RTVSPropertyOp7
 70
     0
102
RTVSPropertyOp8
 70
     0
102
RTVSPropertyOp9
 70
     0
102
RTVSPropertyOp10
 70
     0
102
RTVSPropertyOp11
 70
     0
102
RTVSPropertyOp12
 70
     0
102
RTVSPropertyOp13
 70
     0
102
RTVSPropertyOp14
 70
     2
102
RTVSPropertyOp15
 70
     0
102
RTVSPropertyOp16
 70
     0
102
RTVSPropertyOp17
 70
     0
102
RTVSPropertyOp18
 70
     0
102
RTVSPropertyOp19
 70
     0
102
RTVSPropertyOp20
 70
     0
102
RTVSPropertyOp21
 70
     0
102
RTVSPropertyOp22
 70
     0
102
RTVSPropertyOp23
 70
     0
102
RTVSPropertyOp24
 70
     0
102
RTVSPropertyOp25
 70
     0
102
RTVSPropertyOp26
 70
     0
102
RTVSPropertyOp27
 70
     0
  0
XRECORD
  5
46C
102
{ACAD_REACTORS
330
46B
102
}
330
46B
100
AcDbXrecord
280
     1
102
RTVSPropertyOp0
 70
     1
102
RTVSPropertyOp1
 70
     1
102
RTVSPropertyOp2
 70
     1
102
RTVSPropertyOp3
 70
     1
102
RTVSPropertyOp4
 70
     1
102
RTVSPropertyOp5
 70
     1
102
RTVSPropertyOp6
 70
     1
102
RTVSPropertyOp7
 70
     1
102
RTVSPropertyOp8
 70
     1
102
RTVSPropertyOp9
 70
     1
102
RTVSPropertyOp10
 70
     1
102
RTVSPropertyOp11
 70
     1
102
RTVSPropertyOp12
 70
     1
102
RTVSPropertyOp13
 70
     1
102
RTVSPropertyOp14
 70
     1
102
RTVSPropertyOp15
 70
     1
102
RTVSPropertyOp16
 70
     1
102
RTVSPropertyOp17
 70
     1
102
RTVSPropertyOp18
 70
     1
102
RTVSPropertyOp19
 70
     1
102
RTVSPropertyOp20
 70
     1
102
RTVSPropertyOp21
 70
     1
102
RTVSPropertyOp22
 70
     1
102
RTVSPropertyOp23
 70
     1
102
RTVSPropertyOp24
 70
     1
102
RTVSPropertyOp25
 70
     1
102
RTVSPropertyOp26
 70
     1
102
RTVSPropertyOp27
 70
     1
  0
XRECORD
  5
474
102
{ACAD_REACTORS
330
473
102
}
330
473
100
AcDbXrecord
280
     1
102
RTVSPropertyOp0
 70
     0
102
RTVSPropertyOp1
 70
     0
102
RTVSPropertyOp2
 70
     0
102
RTVSPropertyOp3
 70
     0
102
RTVSPropertyOp4
 70
     0
102
RTVSPropertyOp5
 70
     0
102
RTVSPropertyOp6
 70
     0
102
RTVSPropertyOp7
 70
     0
102
RTVSPropertyOp8
 70
     0
102
RTVSPropertyOp9
 70
     0
102
RTVSPropertyOp10
 70
     0
102
RTVSPropertyOp11
 70
     0
102
RTVSPropertyOp12
 70
     0
102
RTVSPropertyOp13
 70
     0
102
RTVSPropertyOp14
 70
     2
102
RTVSPropertyOp15
 70
     0
102
RTVSPropertyOp16
 70
     0
102
RTVSPropertyOp17
 70
     0
102
RTVSPropertyOp18
 70
     0
102
RTVSPropertyOp19
 70
     0
102
RTVSPropertyOp20
 70
     0
102
RTVSPropertyOp21
 70
     0
102
RTVSPropertyOp22
 70
     0
102
RTVSPropertyOp23
 70
     0
102
RTVSPropertyOp24
 70
     0
102
RTVSPropertyOp25
 70
     0
102
RTVSPropertyOp26
 70
     0
102
RTVSPropertyOp27
 70
     0
  0
XRECORD
  5
464
102
{ACAD_REACTORS
330
463
102
}
330
463
100
AcDbXrecord
280
     1
102
RTVSPropertyOp0
 70
     1
102
RTVSPropertyOp1
 70
     1
102
RTVSPropertyOp2
 70
     1
102
RTVSPropertyOp3
 70
     1
102
RTVSPropertyOp4
 70
     1
102
RTVSPropertyOp5
 70
     1
102
RTVSPropertyOp6
 70
     1
102
RTVSPropertyOp7
 70
     1
102
RTVSPropertyOp8
 70
     1
102
RTVSPropertyOp9
 70
     1
102
RTVSPropertyOp10
 70
     1
102
RTVSPropertyOp11
 70
     1
102
RTVSPropertyOp12
 70
     1
102
RTVSPropertyOp13
 70
     1
102
RTVSPropertyOp14
 70
     1
102
RTVSPropertyOp15
 70
     1
102
RTVSPropertyOp16
 70
     1
102
RTVSPropertyOp17
 70
     1
102
RTVSPropertyOp18
 70
     1
102
RTVSPropertyOp19
 70
     1
102
RTVSPropertyOp20
 70
     1
102
RTVSPropertyOp21
 70
     1
102
RTVSPropertyOp22
 70
     1
102
RTVSPropertyOp23
 70
     1
102
RTVSPropertyOp24
 70
     1
102
RTVSPropertyOp25
 70
     1
102
RTVSPropertyOp26
 70
     1
102
RTVSPropertyOp27
 70
     1
  0
XRECORD
  5
46A
102
{ACAD_REACTORS
330
469
102
}
330
469
100
AcDbXrecord
280
     1
102
RTVSPropertyOp0
 70
     1
102
RTVSPropertyOp1
 70
     1
102
RTVSPropertyOp2
 70
     1
102
RTVSPropertyOp3
 70
     1
102
RTVSPropertyOp4
 70
     1
102
RTVSPropertyOp5
 70
     1
102
RTVSPropertyOp6
 70
     1
102
RTVSPropertyOp7
 70
     1
102
RTVSPropertyOp8
 70
     1
102
RTVSPropertyOp9
 70
     1
102
RTVSPropertyOp10
 70
     1
102
RTVSPropertyOp11
 70
     1
102
RTVSPropertyOp12
 70
     1
102
RTVSPropertyOp13
 70
     1
102
RTVSPropertyOp14
 70
     1
102
RTVSPropertyOp15
 70
     1
102
RTVSPropertyOp16
 70
     1
102
RTVSPropertyOp17
 70
     1
102
RTVSPropertyOp18
 70
     1
102
RTVSPropertyOp19
 70
     1
102
RTVSPropertyOp20
 70
     1
102
RTVSPropertyOp21
 70
     1
102
RTVSPropertyOp22
 70
     1
102
RTVSPropertyOp23
 70
     1
102
RTVSPropertyOp24
 70
     1
102
RTVSPropertyOp25
 70
     1
102
RTVSPropertyOp26
 70
     1
102
RTVSPropertyOp27
 70
     1
  0
ENDSEC
  0
EOF
