  0
SECTION
  2
HEADER
  9
$ACADVER
  1
AC1015
  9
$ACADMAINTVER
 70
    20
  9
$DWGCODEPAGE
  3
ANSI_1252
  9
$INSBASE
 10
0.0
 20
0.0
 30
0.0
  9
$EXTMIN
 10
1825.553024078301
 20
2482.871286379928
 30
0.0
  9
$EXTMAX
 10
1828.455339861478
 20
2483.363978379929
 30
0.0
  9
$LIMMIN
 10
0.0
 20
0.0
  9
$LIMMAX
 10
420.0
 20
297.0
  9
$ORTHOMODE
 70
     0
  9
$REGENMODE
 70
     1
  9
$FILLMODE
 70
     1
  9
$QTEXTMODE
 70
     0
  9
$MIRRTEXT
 70
     1
  9
$LTSCALE
 40
1.0
  9
$ATTMODE
 70
     1
  9
$TEXTSIZE
 40
2.5
  9
$TRACEWID
 40
1.0
  9
$TEXTSTYLE
  7
Standard
  9
$CLAYER
  8
0
  9
$CELTYPE
  6
ByLayer
  9
$CECOLOR
 62
   256
  9
$CELTSCALE
 40
1.0
  9
$DISPSILH
 70
     0
  9
$DIMSCALE
 40
1.0
  9
$DIMASZ
 40
2.5
  9
$DIMEXO
 40
0.625
  9
$DIMDLI
 40
3.75
  9
$DIMRND
 40
0.0
  9
$DIMDLE
 40
0.0
  9
$DIMEXE
 40
1.25
  9
$DIMTP
 40
0.0
  9
$DIMTM
 40
0.0
  9
$DIMTXT
 40
2.5
  9
$DIMCEN
 40
2.5
  9
$DIMTSZ
 40
0.0
  9
$DIMTOL
 70
     0
  9
$DIMLIM
 70
     0
  9
$DIMTIH
 70
     0
  9
$DIMTOH
 70
     0
  9
$DIMSE1
 70
     0
  9
$DIMSE2
 70
     0
  9
$DIMTAD
 70
     1
  9
$DIMZIN
 70
     8
  9
$DIMBLK
  1

  9
$DIMASO
 70
     1
  9
$DIMSHO
 70
     1
  9
$DIMPOST
  1

  9
$DIMAPOST
  1

  9
$DIMALT
 70
     0
  9
$DIMALTD
 70
     3
  9
$DIMALTF
 40
0.03937007874016
  9
$DIMLFAC
 40
1.0
  9
$DIMTOFL
 70
     1
  9
$DIMTVP
 40
0.0
  9
$DIMTIX
 70
     0
  9
$DIMSOXD
 70
     0
  9
$DIMSAH
 70
     0
  9
$DIMBLK1
  1

  9
$DIMBLK2
  1

  9
$DIMSTYLE
  2
ISO-25
  9
$DIMCLRD
 70
     0
  9
$DIMCLRE
 70
     0
  9
$DIMCLRT
 70
     0
  9
$DIMTFAC
 40
1.0
  9
$DIMGAP
 40
0.625
  9
$DIMJUST
 70
     0
  9
$DIMSD1
 70
     0
  9
$DIMSD2
 70
     0
  9
$DIMTOLJ
 70
     0
  9
$DIMTZIN
 70
     8
  9
$DIMALTZ
 70
     0
  9
$DIMALTTZ
 70
     0
  9
$DIMUPT
 70
     0
  9
$DIMDEC
 70
     2
  9
$DIMTDEC
 70
     2
  9
$DIMALTU
 70
     2
  9
$DIMALTTD
 70
     3
  9
$DIMTXSTY
  7
Standard
  9
$DIMAUNIT
 70
     0
  9
$DIMADEC
 70
     0
  9
$DIMALTRND
 40
0.0
  9
$DIMAZIN
 70
     0
  9
$DIMDSEP
 70
    44
  9
$DIMATFIT
 70
     3
  9
$DIMFRAC
 70
     0
  9
$DIMLDRBLK
  1

  9
$DIMLUNIT
 70
     2
  9
$DIMLWD
 70
    -2
  9
$DIMLWE
 70
    -2
  9
$DIMTMOVE
 70
     0
  9
$LUNITS
 70
     2
  9
$LUPREC
 70
     4
  9
$SKETCHINC
 40
1.0
  9
$FILLETRAD
 40
10.0
  9
$AUNITS
 70
     0
  9
$AUPREC
 70
     0
  9
$MENU
  1
.
  9
$ELEVATION
 40
0.0
  9
$PELEVATION
 40
0.0
  9
$THICKNESS
 40
0.0
  9
$LIMCHECK
 70
     0
  9
$CHAMFERA
 40
10.0
  9
$CHAMFERB
 40
10.0
  9
$CHAMFERC
 40
20.0
  9
$CHAMFERD
 40
0.0
  9
$SKPOLY
 70
     0
  9
$TDCREATE
 40
2452821.607261817
  9
$TDUCREATE
 40
2452821.565595150
  9
$TDUPDATE
 40
2456148.746607165
  9
$TDUUPDATE
 40
2456148.704940498
  9
$TDINDWG
 40
0.0150312963
  9
$TDUSRTIMER
 40
0.0150312963
  9
$USRTIMER
 70
     1
  9
$ANGBASE
 50
0.0
  9
$ANGDIR
 70
     0
  9
$PDMODE
 70
     0
  9
$PDSIZE
 40
0.0
  9
$PLINEWID
 40
0.0
  9
$SPLFRAME
 70
     0
  9
$SPLINETYPE
 70
     6
  9
$SPLINESEGS
 70
     8
  9
$HANDSEED
  5
3F5
  9
$SURFTAB1
 70
     6
  9
$SURFTAB2
 70
     6
  9
$SURFTYPE
 70
     6
  9
$SURFU
 70
     6
  9
$SURFV
 70
     6
  9
$UCSBASE
  2

  9
$UCSNAME
  2

  9
$UCSORG
 10
0.0
 20
0.0
 30
0.0
  9
$UCSXDIR
 10
1.0
 20
0.0
 30
0.0
  9
$UCSYDIR
 10
0.0
 20
1.0
 30
0.0
  9
$UCSORTHOREF
  2

  9
$UCSORTHOVIEW
 70
     0
  9
$UCSORGTOP
 10
0.0
 20
0.0
 30
0.0
  9
$UCSORGBOTTOM
 10
0.0
 20
0.0
 30
0.0
  9
$UCSORGLEFT
 10
0.0
 20
0.0
 30
0.0
  9
$UCSORGRIGHT
 10
0.0
 20
0.0
 30
0.0
  9
$UCSORGFRONT
 10
0.0
 20
0.0
 30
0.0
  9
$UCSORGBACK
 10
0.0
 20
0.0
 30
0.0
  9
$PUCSBASE
  2

  9
$PUCSNAME
  2

  9
$PUCSORG
 10
0.0
 20
0.0
 30
0.0
  9
$PUCSXDIR
 10
1.0
 20
0.0
 30
0.0
  9
$PUCSYDIR
 10
0.0
 20
1.0
 30
0.0
  9
$PUCSORTHOREF
  2

  9
$PUCSORTHOVIEW
 70
     0
  9
$PUCSORGTOP
 10
0.0
 20
0.0
 30
0.0
  9
$PUCSORGBOTTOM
 10
0.0
 20
0.0
 30
0.0
  9
$PUCSORGLEFT
 10
0.0
 20
0.0
 30
0.0
  9
$PUCSORGRIGHT
 10
0.0
 20
0.0
 30
0.0
  9
$PUCSORGFRONT
 10
0.0
 20
0.0
 30
0.0
  9
$PUCSORGBACK
 10
0.0
 20
0.0
 30
0.0
  9
$USERI1
 70
     0
  9
$USERI2
 70
     0
  9
$USERI3
 70
     0
  9
$USERI4
 70
     0
  9
$USERI5
 70
     0
  9
$USERR1
 40
0.0
  9
$USERR2
 40
0.0
  9
$USERR3
 40
0.0
  9
$USERR4
 40
0.0
  9
$USERR5
 40
0.0
  9
$WORLDVIEW
 70
     1
  9
$SHADEDGE
 70
     3
  9
$SHADEDIF
 70
    70
  9
$TILEMODE
 70
     1
  9
$MAXACTVP
 70
    64
  9
$PINSBASE
 10
0.0
 20
0.0
 30
0.0
  9
$PLIMCHECK
 70
     0
  9
$PEXTMIN
 10
1.000000000000000E+20
 20
1.000000000000000E+20
 30
1.000000000000000E+20
  9
$PEXTMAX
 10
-1.000000000000000E+20
 20
-1.000000000000000E+20
 30
-1.000000000000000E+20
  9
$PLIMMIN
 10
0.0
 20
0.0
  9
$PLIMMAX
 10
420.0
 20
297.0
  9
$UNITMODE
 70
     0
  9
$VISRETAIN
 70
     1
  9
$PLINEGEN
 70
     0
  9
$PSLTSCALE
 70
     1
  9
$TREEDEPTH
 70
  3020
  9
$CMLSTYLE
  2
Standard
  9
$CMLJUST
 70
     0
  9
$CMLSCALE
 40
20.0
  9
$PROXYGRAPHICS
 70
     1
  9
$MEASUREMENT
 70
     1
  9
$CELWEIGHT
370
    -1
  9
$ENDCAPS
280
     0
  9
$JOINSTYLE
280
     0
  9
$LWDISPLAY
290
     0
  9
$INSUNITS
 70
     6
  9
$HYPERLINKBASE
  1

  9
$STYLESHEET
  1

  9
$XEDIT
290
     1
  9
$CEPSNTYPE
380
     0
  9
$PSTYLEMODE
290
     1
  9
$FINGERPRINTGUID
  2
{F66F7107-4B76-487B-97CC-4B4A74AB40DF}
  9
$VERSIONGUID
  2
{C88C4AB2-D8A6-49AC-BF8E-5681DB7333FA}
  9
$EXTNAMES
290
     1
  9
$PSVPSCALE
 40
0.0
  9
$OLESTARTUP
290
     0
  0
ENDSEC
  0
SECTION
  2
CLASSES
  0
CLASS
  1
ACDBDICTIONARYWDFLT
  2
AcDbDictionaryWithDefault
  3
ObjectDBX Classes
 90
        0
280
     0
281
     0
  0
CLASS
  1
ACDBPLACEHOLDER
  2
AcDbPlaceHolder
  3
ObjectDBX Classes
 90
        0
280
     0
281
     0
  0
CLASS
  1
LAYOUT
  2
AcDbLayout
  3
ObjectDBX Classes
 90
        0
280
     0
281
     0
  0
CLASS
  1
DICTIONARYVAR
  2
AcDbDictionaryVar
  3
ObjectDBX Classes
 90
        0
280
     0
281
     0
  0
CLASS
  1
TABLESTYLE
  2
AcDbTableStyle
  3
ObjectDBX Classes
 90
     4095
280
     0
281
     0
  0
CLASS
  1
SORTENTSTABLE
  2
AcDbSortentsTable
  3
ObjectDBX Classes
 90
        0
280
     0
281
     0
  0
CLASS
  1
MATERIAL
  2
AcDbMaterial
  3
ObjectDBX Classes
 90
     1153
280
     0
281
     0
  0
CLASS
  1
VISUALSTYLE
  2
AcDbVisualStyle
  3
ObjectDBX Classes
 90
     4095
280
     0
281
     0
  0
CLASS
  1
SCALE
  2
AcDbScale
  3
ObjectDBX Classes
 90
     1153
280
     0
281
     0
  0
CLASS
  1
MLEADERSTYLE
  2
AcDbMLeaderStyle
  3
ACDB_MLEADERSTYLE_CLASS
 90
     4095
280
     0
281
     0
  0
CLASS
  1
CELLSTYLEMAP
  2
AcDbCellStyleMap
  3
ObjectDBX Classes
 90
     1152
280
     0
281
     0
  0
ENDSEC
  0
SECTION
  2
TABLES
  0
TABLE
  2
VPORT
  5
8
330
0
100
AcDbSymbolTable
 70
     1
  0
VPORT
  5
364
330
8
100
AcDbSymbolTableRecord
100
AcDbViewportTableRecord
  2
*Active
 70
     0
 10
0.0
 20
0.0
 11
1.0
 21
1.0
 12
1827.051269322409
 22
2483.117632379928
 13
0.0
 23
0.0
 14
10.0
 24
10.0
 15
10.0
 25
10.0
 16
0.0
 26
0.0
 36
1.0
 17
0.0
 27
0.0
 37
0.0
 40
1.827760879642528
 41
1.645464025026068
 42
50.0
 43
0.0
 44
0.0
 50
0.0
 51
0.0
 71
     0
 72
   100
 73
     1
 74
     3
 75
     0
 76
     0
 77
     0
 78
     0
281
     0
 65
     1
110
0.0
120
0.0
130
0.0
111
1.0
121
0.0
131
0.0
112
0.0
122
1.0
132
0.0
 79
     0
146
0.0
  0
ENDTAB
  0
TABLE
  2
LTYPE
  5
5
330
0
100
AcDbSymbolTable
 70
     2
  0
LTYPE
  5
14
330
5
100
AcDbSymbolTableRecord
100
AcDbLinetypeTableRecord
  2
ByBlock
 70
     0
  3

 72
    65
 73
     0
 40
0.0
  0
LTYPE
  5
15
330
5
100
AcDbSymbolTableRecord
100
AcDbLinetypeTableRecord
  2
ByLayer
 70
     0
  3

 72
    65
 73
     0
 40
0.0
  0
LTYPE
  5
16
330
5
100
AcDbSymbolTableRecord
100
AcDbLinetypeTableRecord
  2
Continuous
 70
     0
  3
Solid line
 72
    65
 73
     0
 40
0.0
  0
LTYPE
  5
184
330
5
100
AcDbSymbolTableRecord
100
AcDbLinetypeTableRecord
  2
HIDDEN
 70
     0
  3
Hidden __ __ __ __ __ __ __ __ __ __ __ __ __ __
 72
    65
 73
     2
 40
1.905
 49
1.27
 74
     0
 49
-0.635
 74
     0
  0
ENDTAB
  0
TABLE
  2
LAYER
  5
2
330
0
100
AcDbSymbolTable
 70
     6
  0
LAYER
  5
10
102
{ACAD_XDICTIONARY
360
3AF
102
}
330
2
100
AcDbSymbolTableRecord
100
AcDbLayerTableRecord
  2
0
 70
     0
 62
     7
  6
Continuous
370
    -3
390
F
  0
LAYER
  5
2B
102
{ACAD_XDICTIONARY
360
3B1
102
}
330
2
100
AcDbSymbolTableRecord
100
AcDbLayerTableRecord
  2
3
 70
     0
 62
     3
  6
Continuous
370
    -3
390
F
  0
LAYER
  5
2C
102
{ACAD_XDICTIONARY
360
3B3
102
}
330
2
100
AcDbSymbolTableRecord
100
AcDbLayerTableRecord
  2
9
 70
     0
 62
     9
  6
Continuous
370
    -3
390
F
  0
LAYER
  5
67
102
{ACAD_XDICTIONARY
360
3B5
102
}
330
2
100
AcDbSymbolTableRecord
100
AcDbLayerTableRecord
  2
INDUSA
 70
     0
 62
     3
  6
Continuous
370
    -3
390
F
  0
LAYER
  5
96
102
{ACAD_XDICTIONARY
360
3B7
102
}
330
2
100
AcDbSymbolTableRecord
100
AcDbLayerTableRecord
  2
sanindusa
 70
     0
 62
     3
  6
Continuous
370
    -3
390
F
  0
LAYER
  5
185
102
{ACAD_XDICTIONARY
360
3B9
102
}
330
2
100
AcDbSymbolTableRecord
100
AcDbLayerTableRecord
  2
FORMAT
 70
     0
 62
     7
  6
Continuous
370
     0
390
F
  0
ENDTAB
  0
TABLE
  2
STYLE
  5
3
330
0
100
AcDbSymbolTable
 70
     2
  0
STYLE
  5
11
330
3
100
AcDbSymbolTableRecord
100
AcDbTextStyleTableRecord
  2
Standard
 70
     0
 40
0.0
 41
1.0
 50
0.0
 71
     0
 42
2.5
  3
txt
  4

  0
STYLE
  5
186
330
3
100
AcDbSymbolTableRecord
100
AcDbTextStyleTableRecord
  2
SLDTEXTSTYLE0
 70
     0
 40
0.0
 41
0.75
 50
0.0
 71
     0
 42
0.2
  3
TXT
  4

  0
ENDTAB
  0
TABLE
  2
VIEW
  5
6
330
0
100
AcDbSymbolTable
 70
     0
  0
ENDTAB
  0
TABLE
  2
UCS
  5
7
330
0
100
AcDbSymbolTable
 70
     0
  0
ENDTAB
  0
TABLE
  2
APPID
  5
9
330
0
100
AcDbSymbolTable
 70
     3
  0
APPID
  5
12
330
9
100
AcDbSymbolTableRecord
100
AcDbRegAppTableRecord
  2
ACAD
 70
     0
  0
APPID
  5
83
330
9
100
AcDbSymbolTableRecord
100
AcDbRegAppTableRecord
  2
DCO15
 70
     0
  0
APPID
  5
3F4
330
9
100
AcDbSymbolTableRecord
100
AcDbRegAppTableRecord
  2
ACAD_MLEADERVER
 70
     0
  0
ENDTAB
  0
TABLE
  2
DIMSTYLE
  5
A
330
0
100
AcDbSymbolTable
 70
     2
100
AcDbDimStyleTable
 71
     0
  0
DIMSTYLE
105
27
330
A
100
AcDbSymbolTableRecord
100
AcDbDimStyleTableRecord
  2
ISO-25
 70
     0
 41
2.5
 42
0.625
 43
3.75
 44
1.25
 73
     0
 74
     0
 77
     1
 78
     8
140
2.5
141
2.5
143
0.03937007874016
147
0.625
171
     3
172
     1
271
     2
272
     2
274
     3
278
    44
283
     0
284
     8
340
11
  0
DIMSTYLE
105
68
330
A
100
AcDbSymbolTableRecord
100
AcDbDimStyleTableRecord
  2
STANDARD
 70
     0
271
     2
272
     2
279
     2
284
     1
285
     1
286
     1
340
11
  0
ENDTAB
  0
TABLE
  2
BLOCK_RECORD
  5
1
330
0
100
AcDbSymbolTable
 70
     4
  0
BLOCK_RECORD
  5
1F
102
{ACAD_XDICTIONARY
360
A5
102
}
330
1
100
AcDbSymbolTableRecord
100
AcDbBlockTableRecord
  2
*Model_Space
340
22
  0
BLOCK_RECORD
  5
1B
330
1
100
AcDbSymbolTableRecord
100
AcDbBlockTableRecord
  2
*Paper_Space
340
1E
  0
BLOCK_RECORD
  5
23
330
1
100
AcDbSymbolTableRecord
100
AcDbBlockTableRecord
  2
*Paper_Space0
340
26
  0
BLOCK_RECORD
  5
69
330
1
100
AcDbSymbolTableRecord
100
AcDbBlockTableRecord
  2
18360PL
340
0
102
{BLKREFS
331
71
102
}
  0
BLOCK_RECORD
  5
72
330
1
100
AcDbSymbolTableRecord
100
AcDbBlockTableRecord
  2
18360CT
340
0
  0
BLOCK_RECORD
  5
17D
330
1
100
AcDbSymbolTableRecord
100
AcDbBlockTableRecord
  2
_Closed
340
0
  0
ENDTAB
  0
ENDSEC
  0
SECTION
  2
BLOCKS
  0
BLOCK
  5
20
330
1F
100
AcDbEntity
  8
0
100
AcDbBlockBegin
  2
*Model_Space
 70
     0
 10
0.0
 20
0.0
 30
0.0
  3
*Model_Space
  1

  0
ENDBLK
  5
21
330
1F
100
AcDbEntity
  8
0
100
AcDbBlockEnd
  0
BLOCK
  5
1C
330
1B
100
AcDbEntity
 67
     1
  8
0
100
AcDbBlockBegin
  2
*Paper_Space
 70
     0
 10
0.0
 20
0.0
 30
0.0
  3
*Paper_Space
  1

  0
ENDBLK
  5
1D
330
1B
100
AcDbEntity
 67
     1
  8
0
100
AcDbBlockEnd
  0
BLOCK
  5
24
330
23
100
AcDbEntity
 67
     1
  8
0
100
AcDbBlockBegin
  2
*Paper_Space0
 70
     0
 10
0.0
 20
0.0
 30
0.0
  3
*Paper_Space0
  1

  0
ENDBLK
  5
25
330
23
100
AcDbEntity
 67
     1
  8
0
100
AcDbBlockEnd
  0
BLOCK
  5
6F
330
69
100
AcDbEntity
  8
0
100
AcDbBlockBegin
  2
18360PL
 70
     0
 10
0.0
 20
0.0
 30
0.0
  3
18360PL
  1

  0
LWPOLYLINE
  5
6A
330
69
100
AcDbEntity
  8
INDUSA
100
AcDbPolyline
 90
       16
 70
     1
 43
0.0
 10
-0.28
 20
-0.3
 42
0.11045
 10
-0.259276
 20
-0.39267
 42
0.102667
 10
-0.19799
 20
-0.474193
 42
0.093288
 10
-0.108737
 20
-0.52715
 42
0.087591
 10
0.0
 20
-0.546346
 42
0.087591
 10
0.108737
 20
-0.52715
 42
0.093288
 10
0.19799
 20
-0.474193
 42
0.102667
 10
0.259276
 20
-0.39267
 42
0.11045
 10
0.28
 20
-0.3
 42
0.11045
 10
0.259276
 20
-0.20733
 42
0.102667
 10
0.19799
 20
-0.125807
 42
0.093288
 10
0.108737
 20
-0.07285
 42
0.087591
 10
0.0
 20
-0.053654
 42
0.087591
 10
-0.108737
 20
-0.07285
 42
0.093288
 10
-0.19799
 20
-0.125807
 42
0.102667
 10
-0.259276
 20
-0.20733
 42
0.11045
  0
LWPOLYLINE
  5
6B
330
69
100
AcDbEntity
  8
INDUSA
100
AcDbPolyline
 90
       16
 70
     1
 43
0.0
 10
-0.2507
 20
-0.3
 42
0.11045
 10
-0.232767
 20
-0.38019
 42
0.102667
 10
-0.178636
 20
-0.4521950000000001
 42
0.093288
 10
-0.098705
 20
-0.499622
 42
0.087591
 10
0.0
 20
-0.5170460000000001
 42
0.087591
 10
0.098705
 20
-0.499622
 42
0.093288
 10
0.178636
 20
-0.4521950000000001
 42
0.102667
 10
0.232767
 20
-0.38019
 42
0.11045
 10
0.2507
 20
-0.3
 42
0.11045
 10
0.232767
 20
-0.21981
 42
0.102667
 10
0.178636
 20
-0.147805
 42
0.093288
 10
0.098705
 20
-0.100378
 42
0.087591
 10
0.0
 20
-0.082954
 42
0.087591
 10
-0.098705
 20
-0.100378
 42
0.093288
 10
-0.178636
 20
-0.147805
 42
0.102667
 10
-0.232767
 20
-0.21981
 42
0.11045
  0
CIRCLE
  5
6C
330
69
100
AcDbEntity
  8
INDUSA
100
AcDbCircle
 10
0.0
 20
-0.121346
 30
0.0
 40
0.0175
  0
CIRCLE
  5
6D
330
69
100
AcDbEntity
  8
INDUSA
100
AcDbCircle
 10
0.0
 20
-0.246346
 30
0.0
 40
0.0235
  0
LWPOLYLINE
  5
6E
330
69
100
AcDbEntity
  8
INDUSA
100
AcDbPolyline
 90
       13
 70
     0
 43
0.0
 10
0.000847
 20
-0.179626
 42
0.045599
 10
-0.15875
 20
-0.198253
 42
0.376775
 10
-0.2411
 20
-0.3
 42
0.11045
 10
-0.224082
 20
-0.376101
 42
0.102667
 10
-0.172295
 20
-0.4449880000000001
 42
0.093288
 10
-0.095418
 20
-0.490602
 42
0.087591
 10
0.0
 20
-0.507446
 42
0.087591
 10
0.095418
 20
-0.490602
 42
0.093288
 10
0.172295
 20
-0.4449880000000001
 42
0.102667
 10
0.224082
 20
-0.376101
 42
0.11045
 10
0.2411
 20
-0.3
 42
0.376775
 10
0.15875
 20
-0.198253
 42
0.045599
 10
-0.000847
 20
-0.179626
  0
ENDBLK
  5
70
330
69
100
AcDbEntity
  8
0
100
AcDbBlockEnd
  0
BLOCK
  5
7D
330
72
100
AcDbEntity
  8
0
100
AcDbBlockBegin
  2
18360CT
 70
     0
 10
0.0
 20
0.0
 30
0.0
  3
18360CT
  1

  0
LWPOLYLINE
  5
73
330
72
100
AcDbEntity
  8
INDUSA
100
AcDbPolyline
 90
       14
 70
     0
 43
0.0
 10
0.087306
 20
0.861589
 10
0.087306
 20
0.8465719999999999
 10
0.105317
 20
0.846767
 42
-0.4065590000000001
 10
0.109358
 20
0.8429149999999999
 10
0.109716
 20
0.8332449999999999
 10
0.118606
 20
0.696932
 10
0.141534
 20
0.6747320000000001
 10
0.233306
 20
0.6747320000000001
 10
0.233306
 20
0.692906
 42
-0.411179
 10
0.24815
 20
0.7079060000000001
 42
0.151244
 10
0.405202
 20
0.758315
 42
0.147969
 10
0.470676
 20
0.842135
 42
-0.311958
 10
0.4856010000000001
 20
0.8524509999999999
 10
0.494806
 20
0.8524509999999999
  0
LWPOLYLINE
  5
74
330
72
100
AcDbEntity
  8
INDUSA
100
AcDbPolyline
 90
        4
 70
     0
 43
0.0
 10
0.017592
 20
0.874732
 10
0.490149
 20
0.874732
 42
-0.237285
 10
0.494806
 20
0.8689619999999999
 10
0.494806
 20
0.8522949999999999
  0
LWPOLYLINE
  5
75
330
72
100
AcDbEntity
  8
INDUSA
100
AcDbPolyline
 90
       11
 70
     0
 43
0.0
 10
0.052306
 20
0.861228
 10
0.052306
 20
0.8461929999999998
 10
0.031143
 20
0.845964
 42
-0.291284
 10
0.028406
 20
0.8476639999999999
 42
0.590143
 10
0.012079
 20
0.8485839999999999
 42
-0.197239
 10
0.010225
 20
0.847259
 42
-0.124407
 10
0.002203
 20
0.8473919999999999
 42
-0.312246
 10
0.0
 20
0.85
 42
-0.074558
 10
0.000657
 20
0.8624549999999999
 42
-0.206111
 10
0.006582
 20
0.8721919999999999
 42
-0.113854
 10
0.01763
 20
0.874732
  0
LWPOLYLINE
  5
76
330
72
100
AcDbEntity
  8
INDUSA
100
AcDbPolyline
 90
        6
 70
     0
 43
0.0
 10
0.171306
 20
0.7062450000000001
 10
0.171306
 20
0.694184
 42
-0.090442
 10
0.163056
 20
0.695662
 42
-0.062624
 10
0.137232
 20
0.7214850000000001
 10
0.132271
 20
0.797209
 10
0.142474
 20
0.7978769999999999
  0
LWPOLYLINE
  5
77
330
72
100
AcDbEntity
  8
INDUSA
100
AcDbPolyline
 90
        9
 70
     0
 43
0.0
 10
0.171306
 20
0.6747320000000001
 10
0.171306
 20
0.68717
 42
-0.132044
 10
0.155012
 20
0.692275
 10
0.132576
 20
0.7147120000000001
 42
-0.095771
 10
0.127185
 20
0.726725
 10
0.119525
 20
0.84418
 42
-1.0
 10
0.129153
 20
0.844808
 10
0.130732
 20
0.820706
 10
0.141042
 20
0.821382
  0
ARC
  5
78
330
72
100
AcDbEntity
  8
INDUSA
100
AcDbCircle
 10
0.127303
 20
0.67912
 30
0.0
 40
0.051691
100
AcDbArc
 50
31.65096200000001
 51
55.869881
  0
LWPOLYLINE
  5
79
330
72
100
AcDbEntity
  8
INDUSA
100
AcDbPolyline
 90
        6
 70
     0
 43
0.0
 10
0.030975
 20
0.874732
 42
-0.270715
 10
0.036821
 20
0.8695019999999999
 42
0.328325
 10
0.048364
 20
0.8611879999999999
 10
0.135708
 20
0.8620879999999999
 10
0.458822
 20
0.865418
 42
0.184315
 10
0.4727930000000001
 20
0.874732
 42
0.184315
  0
LWPOLYLINE
  5
7A
330
72
100
AcDbEntity
  8
INDUSA
100
AcDbPolyline
 90
        8
 70
     0
 43
0.0
 10
0.135708
 20
0.8620879999999999
 42
-0.399484
 10
0.138733
 20
0.859271
 10
0.146122
 20
0.737995
 42
0.200588
 10
0.156306
 20
0.721908
 10
0.232906
 20
0.721908
 10
0.247995
 20
0.722905
 42
0.115561
 10
0.364901
 20
0.751572
 42
0.205829
 10
0.458822
 20
0.865418
  0
LWPOLYLINE
  5
7B
330
72
100
AcDbEntity
  8
INDUSA
100
AcDbPolyline
 90
        3
 70
     0
 43
0.0
 10
0.232906
 20
0.721908
 10
0.218306
 20
0.7062450000000001
 10
0.218306
 20
0.6747320000000001
  0
LWPOLYLINE
  5
7C
330
72
100
AcDbEntity
  8
INDUSA
100
AcDbPolyline
 90
        2
 70
     0
 43
0.0
 10
0.171306
 20
0.7062450000000001
 10
0.218306
 20
0.7062450000000001
  0
ENDBLK
  5
7E
330
72
100
AcDbEntity
  8
0
100
AcDbBlockEnd
  0
BLOCK
  5
17E
330
17D
100
AcDbEntity
  8
0
100
AcDbBlockBegin
  2
_Closed
 70
     0
 10
0.0
 20
0.0
 30
0.0
  3
_Closed
  1

  0
LINE
  5
17F
330
17D
100
AcDbEntity
  8
0
  6
ByBlock
 62
     0
370
    -2
100
AcDbLine
 10
-1.0
 20
0.166667
 30
0.0
 11
0.0
 21
0.0
 31
0.0
  0
LINE
  5
180
330
17D
100
AcDbEntity
  8
0
  6
ByBlock
 62
     0
370
    -2
100
AcDbLine
 10
0.0
 20
0.0
 30
0.0
 11
-1.0
 21
-0.166667
 31
0.0
  0
LINE
  5
181
330
17D
100
AcDbEntity
  8
0
  6
ByBlock
 62
     0
370
    -2
100
AcDbLine
 10
-1.0
 20
0.166667
 30
0.0
 11
-1.0
 21
-0.166667
 31
0.0
  0
LINE
  5
182
330
17D
100
AcDbEntity
  8
0
  6
ByBlock
 62
     0
370
    -2
100
AcDbLine
 10
0.0
 20
0.0
 30
0.0
 11
-1.0
 21
0.0
 31
0.0
  0
ENDBLK
  5
183
330
17D
100
AcDbEntity
  8
0
100
AcDbBlockEnd
  0
ENDSEC
  0
SECTION
  2
ENTITIES
  0
INSERT
  5
71
330
1F
100
AcDbEntity
  8
INDUSA
100
AcDbBlockReference
  2
18360PL
 10
1825.833024078301
 20
2483.417632379929
 30
0.0
  0
ARC
  5
26E
330
1F
100
AcDbEntity
  8
sanindusa
100
AcDbCircle
 10
1826.901689770252
 20
2483.127190146745
 30
0.0
 40
0.0200000013867767
100
AcDbArc
 50
0.0
 51
62.90872607831632
  0
ARC
  5
26F
330
1F
100
AcDbEntity
  8
sanindusa
100
AcDbCircle
 10
1826.381689904052
 20
2483.127190144357
 30
0.0
 40
0.0200000000493582
100
AcDbArc
 50
117.1427343263696
 51
180.0
  0
LINE
  5
270
330
1F
100
AcDbEntity
  8
sanindusa
100
AcDbLine
 10
1826.910923673796
 20
2483.144930984505
 30
0.0
 11
1826.907451864679
 21
2483.145994787927
 31
0.0
  0
LINE
  5
271
330
1F
100
AcDbEntity
  8
sanindusa
100
AcDbLine
 10
1826.907509112204
 20
2483.145988021922
 30
0.0
 11
1826.907232419776
 21
2483.146013051019
 31
0.0
  0
LWPOLYLINE
  5
272
330
1F
100
AcDbEntity
  8
sanindusa
100
AcDbPolyline
 90
        3
 70
   128
 43
0.0
 10
1826.376222251924
 20
2483.146017164373
 10
1826.375937716133
 20
2483.145995330738
 10
1826.374728289086
 20
2483.145781762094
  0
LWPOLYLINE
  5
273
330
1F
100
AcDbEntity
  8
sanindusa
100
AcDbPolyline
 90
       67
 70
   128
 43
0.0
 10
1826.907408080825
 20
2483.14599973698
 10
1826.906722674516
 20
2483.146051686609
 10
1826.906488779419
 20
2483.146058366676
 10
1826.906444901339
 20
2483.146058439296
 10
1826.906382374465
 20
2483.14605845592
 10
1826.906298114841
 20
2483.146058424686
 10
1826.905879732844
 20
2483.146058300921
 10
1826.90453420128
 20
2483.14605842872
 10
1826.902639018225
 20
2483.146058435151
 10
1826.900017620658
 20
2483.146058368997
 10
1826.897677640079
 20
2483.146058309436
 10
1826.895152277747
 20
2483.146058298777
 10
1826.892573367677
 20
2483.146058344449
 10
1826.890013672303
 20
2483.14605831294
 10
1826.887537692806
 20
2483.146058345031
 10
1826.884474125823
 20
2483.146058442621
 10
1826.880974153538
 20
2483.146058398642
 10
1826.876855920351
 20
2483.146058348757
 10
1826.872049810361
 20
2483.146058437128
 10
1826.866482413299
 20
2483.146058371664
 10
1826.860195484044
 20
2483.146058425145
 10
1826.853014238715
 20
2483.14605849435
 10
1826.844868021733
 20
2483.146058439609
 10
1826.835774253175
 20
2483.14605847205
 10
1826.824293444285
 20
2483.146058388896
 10
1826.812308644353
 20
2483.146058386041
 10
1826.800093064037
 20
2483.146058481383
 10
1826.787700023192
 20
2483.146058498642
 10
1826.775305083315
 20
2483.146058475183
 10
1826.762999813683
 20
2483.1460583511
 10
1826.750811623233
 20
2483.146058287113
 10
1826.738764792448
 20
2483.146058521831
 10
1826.722959060952
 20
2483.146058682689
 10
1826.707495890306
 20
2483.146058588041
 10
1826.692559421926
 20
2483.14605834968
 10
1826.677921304986
 20
2483.146058392415
 10
1826.663166698928
 20
2483.146058465334
 10
1826.648292766594
 20
2483.146058276951
 10
1826.633317893889
 20
2483.146058292465
 10
1826.618326814418
 20
2483.146058477177
 10
1826.603414485653
 20
2483.146058437216
 10
1826.588614453475
 20
2483.146058352147
 10
1826.573927865806
 20
2483.146058578445
 10
1826.559109695384
 20
2483.146058686895
 10
1826.546052861848
 20
2483.146058568044
 10
1826.53274063372
 20
2483.146058284332
 10
1826.519323699176
 20
2483.146058404557
 10
1826.505840688382
 20
2483.146058528154
 10
1826.492331733207
 20
2483.146058484776
 10
1826.478844665613
 20
2483.146058455247
 10
1826.465464974685
 20
2483.146058390639
 10
1826.454073357511
 20
2483.146058435874
 10
1826.443062485932
 20
2483.146058495962
 10
1826.432488270435
 20
2483.14605843605
 10
1826.422525644703
 20
2483.146058377973
 10
1826.413685639861
 20
2483.146058402526
 10
1826.405971561539
 20
2483.146058414431
 10
1826.399426771715
 20
2483.146058452431
 10
1826.393970669538
 20
2483.146058281855
 10
1826.389485134929
 20
2483.146058343006
 10
1826.385860474297
 20
2483.146058450453
 10
1826.382995584496
 20
2483.146058335048
 10
1826.380797688354
 20
2483.146058270283
 10
1826.379178277481
 20
2483.146058323833
 10
1826.37787790818
 20
2483.146055841016
 10
1826.376805834678
 20
2483.146044189126
 10
1826.376069868494
 20
2483.146010107748
  0
LINE
  5
274
330
1F
100
AcDbEntity
  8
sanindusa
100
AcDbLine
 10
1826.375927945379
 20
2483.14599478293
 30
0.0
 11
1826.372456109265
 21
2483.144930976209
 31
0.0
  0
LINE
  5
275
330
1F
100
AcDbEntity
  8
sanindusa
100
AcDbLine
 10
1826.361689899499
 20
2483.12719014427
 30
0.0
 11
1826.361689899499
 21
2483.11719014427
 31
0.0
  0
LINE
  5
276
330
1F
100
AcDbEntity
  8
sanindusa
100
AcDbLine
 10
1826.921689899499
 20
2483.11719014427
 30
0.0
 11
1826.921689899499
 21
2483.12719014427
 31
0.0
  0
LWPOLYLINE
  5
277
330
1F
100
AcDbEntity
  8
sanindusa
100
AcDbPolyline
 90
       41
 70
   128
 43
0.0
 10
1826.688334836489
 20
2482.987062497548
 10
1826.69413388977
 20
2482.987490134909
 10
1826.702814182089
 20
2482.988375802652
 10
1826.710741694872
 20
2482.989393868874
 10
1826.717961802524
 20
2482.990491110597
 10
1826.724520460157
 20
2482.991617176057
 10
1826.730453751099
 20
2482.992725719338
 10
1826.734504906313
 20
2482.993520652019
 10
1826.738213357179
 20
2482.994267350284
 10
1826.741568333525
 20
2482.994952613919
 10
1826.74455097411
 20
2482.995565869102
 10
1826.747133225904
 20
2482.996099367158
 10
1826.749529698272
 20
2482.996619219186
 10
1826.752002645045
 20
2482.997198027556
 10
1826.754576650288
 20
2482.997837394766
 10
1826.757273073108
 20
2482.99853948895
 10
1826.760111072174
 20
2482.999308285218
 10
1826.766151475022
 20
2483.001035638902
 10
1826.771617562805
 20
2483.002707481479
 10
1826.77624963483
 20
2483.004219376669
 10
1826.780856274256
 20
2483.005844873844
 10
1826.786131699053
 20
2483.007871791003
 10
1826.792048843958
 20
2483.010375732654
 10
1826.798580279093
 20
2483.013438187001
 10
1826.808304722082
 20
2483.018601378847
 10
1826.817206136771
 20
2483.024007147595
 10
1826.82528286366
 20
2483.029530283355
 10
1826.829659402202
 20
2483.032792315309
 10
1826.83375581392
 20
2483.036030597965
 10
1826.837638277818
 20
2483.039275664377
 10
1826.841943348892
 20
2483.043088679944
 10
1826.8463306281
 20
2483.047224864888
 10
1826.851115778813
 20
2483.052048006053
 10
1826.856237884425
 20
2483.057607343266
 10
1826.861624081701
 20
2483.06395143629
 10
1826.867187599604
 20
2483.071126244163
 10
1826.872823667469
 20
2483.079167192592
 10
1826.87841824235
 20
2483.088087802109
 10
1826.88385686311
 20
2483.09789445627
 10
1826.889013332065
 20
2483.108577645324
 10
1826.892556668838
 20
2483.117190381418
  0
LWPOLYLINE
  5
278
330
1F
100
AcDbEntity
  8
sanindusa
100
AcDbPolyline
 90
       42
 70
   128
 43
0.0
 10
1826.390819844588
 20
2483.117199722125
 10
1826.394393488369
 20
2483.108517283248
 10
1826.399579983256
 20
2483.097784674848
 10
1826.405049199911
 20
2483.087939758608
 10
1826.410672825215
 20
2483.078991808775
 10
1826.416334498512
 20
2483.070933964195
 10
1826.421918156892
 20
2483.06375197962
 10
1826.427317862857
 20
2483.057409106149
 10
1826.432445919656
 20
2483.051858394459
 10
1826.437228791202
 20
2483.04705034253
 10
1826.441605095187
 20
2483.042934868779
 10
1826.447050180141
 20
2483.038162029491
 10
1826.452135552193
 20
2483.034023328384
 10
1826.457693167123
 20
2483.029823004824
 10
1826.463734869577
 20
2483.025610006564
 10
1826.470265571772
 20
2483.021437612817
 10
1826.477287760688
 20
2483.017360774876
 10
1826.484798814891
 20
2483.013438534712
 10
1826.491330293107
 20
2483.010376026454
 10
1826.497247508982
 20
2483.007872027372
 10
1826.502523019546
 20
2483.005845057846
 10
1826.507129756287
 20
2483.004219513501
 10
1826.511761797516
 20
2483.002707618255
 10
1826.517227892766
 20
2483.001035763803
 10
1826.520276929485
 20
2483.000148594032
 10
1826.523268270574
 20
2482.999308396128
 10
1826.526105943504
 20
2482.998539657058
 10
1826.528801757682
 20
2482.997837668023
 10
1826.531374839778
 20
2482.99719844855
 10
1826.533846511692
 20
2482.996619825122
 10
1826.536241314455
 20
2482.996100190839
 10
1826.538821858656
 20
2482.995566879834
 10
1826.541803093788
 20
2482.994953751189
 10
1826.545157027165
 20
2482.994268557515
 10
1826.548864836963
 20
2482.993521875738
 10
1826.552915769808
 20
2482.992726910289
 10
1826.55884940363
 20
2482.991618254687
 10
1826.565409080355
 20
2482.990492010491
 10
1826.572630787961
 20
2482.989394541628
 10
1826.580560365975
 20
2482.98837622495
 10
1826.589243075513
 20
2482.987490317368
 10
1826.595181342274
 20
2482.987052421837
  0
ARC
  5
279
330
1F
100
AcDbEntity
  8
sanindusa
100
AcDbCircle
 10
1826.594174840722
 20
2482.977140996476
 30
0.0
 40
0.0099158366550242
100
AcDbArc
 50
4.51961567900456
 51
85.93669179129859
  0
ARC
  5
27A
330
1F
100
AcDbEntity
  8
sanindusa
100
AcDbCircle
 10
1826.689208230667
 20
2482.977119173642
 30
0.0
 40
0.0099196359463116
100
AcDbArc
 50
94.20732890302428
 51
175.3202187420859
  0
LINE
  5
27B
330
1F
100
AcDbEntity
  8
sanindusa
100
AcDbLine
 10
1826.604088070554
 20
2482.977929185202
 30
0.0
 11
1826.606610035975
 21
2482.949102988527
 31
0.0
  0
LINE
  5
27C
330
1F
100
AcDbEntity
  8
sanindusa
100
AcDbLine
 10
1826.676769763023
 20
2482.949102988527
 30
0.0
 11
1826.679291648446
 21
2482.977928270811
 31
0.0
  0
ARC
  5
27D
330
1F
100
AcDbEntity
  8
sanindusa
100
AcDbCircle
 10
1826.607606230673
 20
2482.94919014427
 30
0.0
 40
0.0010000000000002
100
AcDbArc
 50
185.0000000011417
 51
270.0
  0
ARC
  5
27E
330
1F
100
AcDbEntity
  8
sanindusa
100
AcDbCircle
 10
1826.675773568325
 20
2482.94919014427
 30
0.0
 40
0.0010000000000002
100
AcDbArc
 50
270.0
 51
354.9999999988583
  0
LINE
  5
27F
330
1F
100
AcDbEntity
  8
sanindusa
100
AcDbLine
 10
1826.910767446815
 20
2483.144930633531
 30
0.0
 11
1826.910769042369
 21
2483.144930631878
 31
0.0
  0
LINE
  5
280
330
1F
100
AcDbEntity
  8
sanindusa
100
AcDbLine
 10
1826.361689899499
 20
2483.11719014427
 30
0.0
 11
1826.921689899499
 21
2483.11719014427
 31
0.0
  0
LINE
  5
281
330
1F
100
AcDbEntity
  8
sanindusa
100
AcDbLine
 10
1826.594877374745
 20
2482.987029789452
 30
0.0
 11
1826.595180062879
 21
2482.987034303728
 31
0.0
  0
LWPOLYLINE
  5
282
330
1F
100
AcDbEntity
  8
sanindusa
100
AcDbPolyline
 90
        3
 70
   128
 43
0.0
 10
1826.688337060948
 20
2482.987030904477
 10
1826.688349191739
 20
2482.987030710801
 10
1826.688479152409
 20
2482.987030911623
  0
LINE
  5
283
330
1F
100
AcDbEntity
  8
sanindusa
100
AcDbLine
 10
1826.604196478267
 20
2482.977937817567
 30
0.0
 11
1826.604202800123
 21
2482.977939222739
 31
0.0
  0
LINE
  5
284
330
1F
100
AcDbEntity
  8
sanindusa
100
AcDbLine
 10
1826.641689899499
 20
2482.94819014427
 30
0.0
 11
1826.607606230673
 21
2482.94819014427
 31
0.0
  0
LINE
  5
285
330
1F
100
AcDbEntity
  8
sanindusa
100
AcDbLine
 10
1826.675773568325
 20
2482.94819014427
 30
0.0
 11
1826.641689899499
 21
2482.94819014427
 31
0.0
  0
LWPOLYLINE
  5
288
330
1F
100
AcDbEntity
  8
sanindusa
100
AcDbPolyline
 90
       20
 70
   128
 43
0.0
 10
1826.595180062879
 20
2482.987034303728
 10
1826.595922784573
 20
2482.987045380642
 10
1826.598253547866
 20
2482.987082495857
 10
1826.60191093226
 20
2482.987127753349
 10
1826.606575120082
 20
2482.987167577039
 10
1826.612379252605
 20
2482.987196617197
 10
1826.618827402335
 20
2482.987209937639
 10
1826.626112708129
 20
2482.987209866623
 10
1826.63361037555
 20
2482.987202588216
 10
1826.641555965549
 20
2482.987197365269
 10
1826.646517686323
 20
2482.987199523516
 10
1826.651480963043
 20
2482.987204409923
 10
1826.658915184911
 20
2482.987210810651
 10
1826.666067818818
 20
2482.987208218297
 10
1826.67235369335
 20
2482.987191525478
 10
1826.67794192055
 20
2482.987159422157
 10
1826.682361844399
 20
2482.987117998935
 10
1826.685742719468
 20
2482.987073352745
 10
1826.687790363153
 20
2482.987039632845
 10
1826.688337060948
 20
2482.987030904477
  0
ARC
  5
293
330
1F
100
AcDbEntity
  8
sanindusa
100
AcDbCircle
 10
1827.65643397929
 20
2483.127190144317
 30
0.0
 40
0.0200000000284965
100
AcDbArc
 50
0.0
 51
62.54826968625285
  0
ARC
  5
294
330
1F
100
AcDbEntity
  8
sanindusa
100
AcDbCircle
 10
1827.20643402509
 20
2483.127190144803
 30
0.0
 40
0.0200000003287036
100
AcDbArc
 50
117.5170246613334
 51
179.9914716850316
  0
ARC
  5
295
330
1F
100
AcDbEntity
  8
sanindusa
100
AcDbCircle
 10
1827.201816840315
 20
2483.136060430689
 30
0.0
 40
0.0100000009345784
100
AcDbArc
 50
90.19866578850159
 51
117.4784488920341
  0
LWPOLYLINE
  5
296
330
1F
100
AcDbEntity
  8
sanindusa
100
AcDbPolyline
 90
      103
 70
   128
 43
0.0
 10
1827.665642507562
 20
2483.144907436491
 10
1827.665141523121
 20
2483.145170842262
 10
1827.664140888235
 20
2483.145560491768
 10
1827.663224539281
 20
2483.145814159616
 10
1827.662432834653
 20
2483.145960059007
 10
1827.661803857544
 20
2483.146029737813
 10
1827.661367543858
 20
2483.14605456115
 10
1827.661144573349
 20
2483.146059874999
 10
1827.661099929112
 20
2483.146060341271
 10
1827.661078483045
 20
2483.146060494394
 10
1827.66106311037
 20
2483.146060575869
 10
1827.661049118022
 20
2483.146060629514
 10
1827.661035837158
 20
2483.146060662412
 10
1827.661023695006
 20
2483.146060677541
 10
1827.661009869089
 20
2483.146060683077
 10
1827.660773069575
 20
2483.146060700358
 10
1827.660217934946
 20
2483.146060713609
 10
1827.65934955617
 20
2483.146060723209
 10
1827.658167612317
 20
2483.146060729677
 10
1827.656674186264
 20
2483.146060733466
 10
1827.65487222444
 20
2483.146060735028
 10
1827.652765429969
 20
2483.146060734816
 10
1827.650358197145
 20
2483.14606073328
 10
1827.647655543377
 20
2483.146060730866
 10
1827.644663034304
 20
2483.146060728011
 10
1827.641386702705
 20
2483.146060725144
 10
1827.637832962959
 20
2483.146060722679
 10
1827.634008523005
 20
2483.14606072102
 10
1827.62992029583
 20
2483.146060720553
 10
1827.625575311841
 20
2483.146060721651
 10
1827.620976880026
 20
2483.146060730538
 10
1827.616140127753
 20
2483.146060749439
 10
1827.611050442649
 20
2483.146060773568
 10
1827.605721456727
 20
2483.146060798199
 10
1827.600167315261
 20
2483.146060818729
 10
1827.594402437998
 20
2483.146060830712
 10
1827.588441320292
 20
2483.146060829897
 10
1827.58229834487
 20
2483.146060812251
 10
1827.57598760892
 20
2483.146060773975
 10
1827.569522770051
 20
2483.146060711518
 10
1827.562915245388
 20
2483.146060623867
 10
1827.556156336319
 20
2483.146060560743
 10
1827.549224013184
 20
2483.146060535983
 10
1827.542116225313
 20
2483.146060540713
 10
1827.534887463146
 20
2483.146060566411
 10
1827.527582761945
 20
2483.146060604619
 10
1827.520244678455
 20
2483.146060641658
 10
1827.512818089826
 20
2483.146060643682
 10
1827.505261309377
 20
2483.146060616473
 10
1827.497638082146
 20
2483.146060572736
 10
1827.489942478752
 20
2483.146060524864
 10
1827.482168149092
 20
2483.146060484857
 10
1827.474313418582
 20
2483.146060460511
 10
1827.466541967281
 20
2483.146060440479
 10
1827.45873060382
 20
2483.146060423309
 10
1827.45084415678
 20
2483.146060410071
 10
1827.442901156968
 20
2483.146060401995
 10
1827.434920662233
 20
2483.146060400313
 10
1827.426922215775
 20
2483.146060406252
 10
1827.418925645598
 20
2483.146060421019
 10
1827.410953036084
 20
2483.14606044579
 10
1827.403024321667
 20
2483.146060481697
 10
1827.395158723264
 20
2483.146060529825
 10
1827.387374832659
 20
2483.146060591205
 10
1827.379690834866
 20
2483.14606066428
 10
1827.372107393909
 20
2483.146060717491
 10
1827.364532808275
 20
2483.146060745339
 10
1827.35699986613
 20
2483.146060752316
 10
1827.349520940742
 20
2483.146060743378
 10
1827.342109466943
 20
2483.14606072377
 10
1827.334779770902
 20
2483.14606069901
 10
1827.327546994217
 20
2483.146060674883
 10
1827.320426992708
 20
2483.14606065742
 10
1827.313436210542
 20
2483.146060652865
 10
1827.306591530747
 20
2483.146060667638
 10
1827.299910104341
 20
2483.14606070829
 10
1827.293405178564
 20
2483.146060774215
 10
1827.287062867039
 20
2483.146060820423
 10
1827.280841327459
 20
2483.146060835983
 10
1827.274769835796
 20
2483.14606081766
 10
1827.268878486499
 20
2483.146060762288
 10
1827.263197737823
 20
2483.146060666851
 10
1827.257750661429
 20
2483.146060583801
 10
1827.252490719687
 20
2483.146060579225
 10
1827.24744186194
 20
2483.146060615171
 10
1827.242622522525
 20
2483.146060649567
 10
1827.238030450027
 20
2483.146060638763
 10
1827.23366752738
 20
2483.146060554483
 10
1827.229552876855
 20
2483.146060469353
 10
1827.225698942629
 20
2483.146060399781
 10
1827.222118721728
 20
2483.14606034767
 10
1827.218815576329
 20
2483.146060314753
 10
1827.215792988
 20
2483.146060302811
 10
1827.213054500677
 20
2483.146060313662
 10
1827.210603686535
 20
2483.146060349164
 10
1827.208444111049
 20
2483.14606041121
 10
1827.20657929907
 20
2483.146060501718
 10
1827.205012728894
 20
2483.146060620522
 10
1827.20374874859
 20
2483.146060728219
 10
1827.20279019652
 20
2483.146060809275
 10
1827.202150658766
 20
2483.146060862732
 10
1827.201828396425
 20
2483.146060888938
 10
1827.201785960211
 20
2483.146060891887
  0
LWPOLYLINE
  5
297
330
1F
100
AcDbEntity
  8
sanindusa
100
AcDbPolyline
 90
       29
 70
   128
 43
0.0
 10
1827.661008119738
 20
2483.146060672855
 10
1827.661009195084
 20
2483.146060673909
 10
1827.660969288288
 20
2483.146060666313
 10
1827.660689012821
 20
2483.146060643822
 10
1827.660079419972
 20
2483.146060613846
 10
1827.659154033366
 20
2483.146060578206
 10
1827.657916721898
 20
2483.146060536631
 10
1827.656371665431
 20
2483.146060494653
 10
1827.654516314611
 20
2483.14606047549
 10
1827.652349584286
 20
2483.146060477729
 10
1827.649883278589
 20
2483.146060496713
 10
1827.64712173873
 20
2483.146060527711
 10
1827.644069619075
 20
2483.146060566078
 10
1827.640731839261
 20
2483.146060607279
 10
1827.637113522334
 20
2483.146060646899
 10
1827.63321993167
 20
2483.146060680657
 10
1827.629056408449
 20
2483.14606070441
 10
1827.62462860517
 20
2483.146060716686
 10
1827.619963128021
 20
2483.146060732895
 10
1827.615058641208
 20
2483.146060753433
 10
1827.609916335688
 20
2483.146060774846
 10
1827.604546857139
 20
2483.146060793768
 10
1827.598960897477
 20
2483.146060806963
 10
1827.593169055775
 20
2483.146060811338
 10
1827.587181726784
 20
2483.146060803948
 10
1827.581009000931
 20
2483.146060782005
 10
1827.57466057689
 20
2483.146060742876
 10
1827.568145687378
 20
2483.14606068408
 10
1827.564828728371
 20
2483.146060649251
  0
LINE
  5
298
330
1F
100
AcDbEntity
  8
sanindusa
100
AcDbLine
 10
1827.186433982977
 20
2483.12719014427
 30
0.0
 11
1827.186433982977
 21
2483.11719014427
 31
0.0
  0
LINE
  5
299
330
1F
100
AcDbEntity
  8
sanindusa
100
AcDbLine
 10
1827.676433982978
 20
2483.11719014427
 30
0.0
 11
1827.676433982978
 21
2483.12719014427
 31
0.0
  0
ARC
  5
29A
330
1F
100
AcDbEntity
  8
sanindusa
100
AcDbCircle
 10
1827.397140021554
 20
2483.277458817039
 30
0.0
 40
0.2912075283019666
100
AcDbArc
 50
274.733507191945
 51
326.6154833186316
  0
ARC
  5
29B
330
1F
100
AcDbEntity
  8
sanindusa
100
AcDbCircle
 10
1827.421971296427
 20
2482.977307640091
 30
0.0
 40
0.0099182606769831
100
AcDbArc
 50
94.63721789430033
 51
175.4167059148669
  0
LINE
  5
29C
330
1F
100
AcDbEntity
  8
sanindusa
100
AcDbLine
 10
1827.339274818706
 20
2482.950009400207
 30
0.0
 11
1827.339354119453
 21
2482.949102988527
 31
0.0
  0
LINE
  5
29D
330
1F
100
AcDbEntity
  8
sanindusa
100
AcDbLine
 10
1827.409513846501
 20
2482.949102988527
 30
0.0
 11
1827.412051018185
 21
2482.978102993572
 31
0.0
  0
ARC
  5
29E
330
1F
100
AcDbEntity
  8
sanindusa
100
AcDbCircle
 10
1827.340350314151
 20
2482.94919014427
 30
0.0
 40
0.0010000000000002
100
AcDbArc
 50
185.0000000011417
 51
270.0
  0
ARC
  5
29F
330
1F
100
AcDbEntity
  8
sanindusa
100
AcDbCircle
 10
1827.408517651803
 20
2482.94919014427
 30
0.0
 40
0.0010000000000003
100
AcDbArc
 50
270.0
 51
354.9999999988583
  0
ARC
  5
2A0
330
1F
100
AcDbEntity
  8
sanindusa
100
AcDbCircle
 10
1827.334292511353
 20
2482.949588867626
 30
0.0
 40
0.0050000000000001
100
AcDbArc
 50
4.643210561986219
 51
88.00000000015227
  0
LINE
  5
2A1
330
1F
100
AcDbEntity
  8
sanindusa
100
AcDbLine
 10
1827.665654748849
 20
2483.144930718559
 30
0.0
 11
1827.665647696965
 21
2483.144930721809
 31
0.0
  0
LINE
  5
2A2
330
1F
100
AcDbEntity
  8
sanindusa
100
AcDbLine
 10
1827.431433982977
 20
2483.11719014427
 30
0.0
 11
1827.676433982978
 21
2483.11719014427
 31
0.0
  0
LINE
  5
2A3
330
1F
100
AcDbEntity
  8
sanindusa
100
AcDbLine
 10
1827.186433982977
 20
2483.11719014427
 30
0.0
 11
1827.431433982977
 21
2483.11719014427
 31
0.0
  0
ARC
  5
2A4
330
1F
100
AcDbEntity
  8
sanindusa
100
AcDbCircle
 10
1827.361435103778
 20
2483.135936771485
 30
0.0
 40
0.1491305171539523
100
AcDbArc
 50
256.4096837770693
 51
263.3066866536454
  0
LWPOLYLINE
  5
2A5
330
1F
100
AcDbEntity
  8
sanindusa
100
AcDbPolyline
 90
       31
 70
   128
 43
0.0
 10
1827.382229515594
 20
2483.11719014427
 10
1827.384845129359
 20
2483.107348937031
 10
1827.387524807394
 20
2483.097720340885
 10
1827.389925452353
 20
2483.088606407544
 10
1827.391712401248
 20
2483.080148805469
 10
1827.392858702533
 20
2483.07226563758
 10
1827.393342499221
 20
2483.064978522734
 10
1827.393189625581
 20
2483.058267984678
 10
1827.392459107578
 20
2483.052051827054
 10
1827.391238666217
 20
2483.046213040161
 10
1827.389597129206
 20
2483.040682186402
 10
1827.387014752205
 20
2483.03425576768
 10
1827.383942213761
 20
2483.028390436095
 10
1827.380485489687
 20
2483.023098706777
 10
1827.376731502266
 20
2483.01836180067
 10
1827.374489063639
 20
2483.015871908577
 10
1827.370777957924
 20
2483.013717433066
 10
1827.367016725101
 20
2483.0117867534
 10
1827.363859692849
 20
2483.009965619981
 10
1827.361138393062
 20
2483.008260296046
 10
1827.35865631956
 20
2483.006753095205
 10
1827.356366289615
 20
2483.005418400436
 10
1827.351998502055
 20
2483.003279200717
 10
1827.347783445198
 20
2483.001616948716
 10
1827.343970988475
 20
2483.000099560646
 10
1827.340510562357
 20
2482.998672409682
 10
1827.337417776852
 20
2482.997267538393
 10
1827.334678453803
 20
2482.995889102202
 10
1827.332263277983
 20
2482.994583735314
 10
1827.328879665675
 20
2482.992621299347
 10
1827.326392697891
 20
2482.990981119362
  0
ARC
  5
2A6
330
1F
100
AcDbEntity
  8
sanindusa
100
AcDbCircle
 10
1827.334656128483
 20
2483.023460680307
 30
0.0
 40
0.0335144100338747
100
AcDbArc
 50
180.540952513022
 51
255.7254874758981
  0
LWPOLYLINE
  5
2A7
330
1F
100
AcDbEntity
  8
sanindusa
100
AcDbPolyline
 90
       22
 70
   128
 43
0.0
 10
1827.30114432979
 20
2483.023113888118
 10
1827.301262309934
 20
2483.024219993933
 10
1827.301395172557
 20
2483.025423846225
 10
1827.301543702492
 20
2483.026725444995
 10
1827.301708697523
 20
2483.028124790242
 10
1827.302322851355
 20
2483.033041780894
 10
1827.303055079684
 20
2483.038599490672
 10
1827.303892335507
 20
2483.044797919574
 10
1827.3048219365
 20
2483.051637067602
 10
1827.305552312362
 20
2483.057044415781
 10
1827.306243879212
 20
2483.062333216126
 10
1827.306884705462
 20
2483.067591635805
 10
1827.307134194479
 20
2483.069802218074
 10
1827.307382618509
 20
2483.072108998753
 10
1827.307629736546
 20
2483.074511977846
 10
1827.307875310775
 20
2483.077011155351
 10
1827.308119106574
 20
2483.079606531268
 10
1827.308360892497
 20
2483.082298105598
 10
1827.308977816797
 20
2483.089652460806
 10
1827.309617947807
 20
2483.097919252351
 10
1827.310283547016
 20
2483.107098480232
 10
1827.310976925011
 20
2483.117190144451
  0
LINE
  5
2AF
330
1F
100
AcDbEntity
  8
sanindusa
100
AcDbLine
 10
1827.284423620817
 20
2482.994008886837
 30
0.0
 11
1827.280122035989
 21
2483.11719014427
 31
0.0
  0
LINE
  5
2B2
330
1F
100
AcDbEntity
  8
sanindusa
100
AcDbLine
 10
1827.351704570591
 20
2482.958818512952
 30
0.0
 11
1827.34885072049
 21
2482.987631302054
 31
0.0
  0
LINE
  5
2B7
330
1F
100
AcDbEntity
  8
sanindusa
100
AcDbLine
 10
1827.408517651803
 20
2482.94819014427
 30
0.0
 11
1827.340350314151
 21
2482.94819014427
 31
0.0
  0
ARC
  5
2B8
330
1F
100
AcDbEntity
  8
sanindusa
100
AcDbCircle
 10
1827.289420574951
 20
2482.994183384342
 30
0.0
 40
0.0050000000000001
100
AcDbArc
 50
182.0000002462367
 51
222.0000002459828
  0
LINE
  5
2BA
330
1F
100
AcDbEntity
  8
sanindusa
100
AcDbLine
 10
1827.316402733539
 20
2482.956744278883
 30
0.0
 11
1827.285704850838
 21
2482.990837731294
 31
0.0
  0
LWPOLYLINE
  5
2BC
330
1F
100
AcDbEntity
  8
sanindusa
100
AcDbPolyline
 90
        8
 70
   128
 43
0.0
 10
1827.342827263299
 20
2482.954293875242
 10
1827.346003779105
 20
2482.954586123131
 10
1827.349280751346
 20
2482.955678390307
 10
1827.350839612182
 20
2482.956690338375
 10
1827.351353709747
 20
2482.957254698654
 10
1827.351603593176
 20
2482.957692857037
 10
1827.351747724632
 20
2482.958257447857
 10
1827.351704570591
 20
2482.958818512952
  0
ARC
  5
2C0
330
1F
100
AcDbEntity
  8
sanindusa
100
AcDbCircle
 10
1827.320118457652
 20
2482.960089931931
 30
0.0
 40
0.0049999999999998
100
AcDbArc
 50
222.0000002459828
 51
268.0000000001523
  0
LINE
  5
2C1
330
1F
100
AcDbEntity
  8
sanindusa
100
AcDbLine
 10
1827.342827263299
 20
2482.954293875242
 30
0.0
 11
1827.319943960169
 21
2482.955092977796
 31
0.0
  0
LWPOLYLINE
  5
2C5
330
1F
100
AcDbEntity
  8
sanindusa
100
AcDbPolyline
 90
       17
 70
   128
 43
0.0
 10
1827.344053221824
 20
2482.987822689351
 10
1827.348807552438
 20
2482.98763288421
 10
1827.354111687338
 20
2482.987438481818
 10
1827.361201666041
 20
2482.987225733424
 10
1827.365006885012
 20
2482.98713957193
 10
1827.368918917998
 20
2482.987074872334
 10
1827.376634394251
 20
2482.987029588569
 10
1827.384527911481
 20
2482.987045380642
 10
1827.391963032209
 20
2482.987082495857
 10
1827.399101769105
 20
2482.987127753349
 10
1827.405337470334
 20
2482.987167577039
 10
1827.410859811627
 20
2482.987196617197
 10
1827.415203857952
 20
2482.987209937639
 10
1827.418502955717
 20
2482.987209866623
 10
1827.420475902303
 20
2482.987202588216
 10
1827.42118287963
 20
2482.987197365269
 10
1827.421176061018
 20
2482.987197423828
  0
LWPOLYLINE
  5
2C6
330
1F
100
AcDbEntity
  8
sanindusa
100
AcDbPolyline
 90
        4
 70
   128
 43
0.0
 10
1827.297990648659
 20
2483.11719014427
 10
1827.298057168855
 20
2483.115202178899
 10
1827.299395198082
 20
2483.075250357984
 10
1827.301144202866
 20
2483.02311267698
  0
LWPOLYLINE
  5
2CC
330
1F
100
AcDbEntity
  8
sanindusa
100
AcDbPolyline
 90
       92
 70
   128
 43
0.0
 10
1828.439914455182
 20
2483.146060673032
 10
1828.439915612892
 20
2483.14606067413
 10
1828.439886817631
 20
2483.146060667964
 10
1828.439644220037
 20
2483.146060646887
 10
1828.439071622407
 20
2483.146060617581
 10
1828.438182290024
 20
2483.146060582601
 10
1828.436980715778
 20
2483.146060541727
 10
1828.435470634025
 20
2483.146060498425
 10
1828.433652225033
 20
2483.146060476523
 10
1828.431520245825
 20
2483.146060476527
 10
1828.429088213643
 20
2483.146060493827
 10
1828.426360431176
 20
2483.14606052368
 10
1828.423341518425
 20
2483.146060561432
 10
1828.420036367589
 20
2483.146060602534
 10
1828.416450081507
 20
2483.146060642557
 10
1828.412587910607
 20
2483.146060677203
 10
1828.408455190247
 20
2483.146060702314
 10
1828.404057438667
 20
2483.146060715256
 10
1828.39941709703
 20
2483.146060730746
 10
1828.394540621209
 20
2483.146060750963
 10
1828.389425115951
 20
2483.146060772448
 10
1828.384081208002
 20
2483.146060791824
 10
1828.378519592341
 20
2483.146060805838
 10
1828.372750884587
 20
2483.146060811379
 10
1828.366785508298
 20
2483.146060805486
 10
1828.360633593575
 20
2483.146060785353
 10
1828.354304888156
 20
2483.146060748329
 10
1828.347808681669
 20
2483.146060691916
 10
1828.341154017281
 20
2483.146060620988
 10
1828.334406828675
 20
2483.14606057207
 10
1828.327502798455
 20
2483.146060545077
 10
1828.320437872093
 20
2483.146060534906
 10
1828.31322975046
 20
2483.146060536661
 10
1828.305896202939
 20
2483.146060545488
 10
1828.298454847514
 20
2483.146060556625
 10
1828.290922956797
 20
2483.146060565436
 10
1828.283317281132
 20
2483.146060567443
 10
1828.275653893178
 20
2483.146060558347
 10
1828.267948057118
 20
2483.146060534055
 10
1828.260214124318
 20
2483.146060490685
 10
1828.252452607648
 20
2483.146060459384
 10
1828.244644485364
 20
2483.146060487073
 10
1828.236744616766
 20
2483.146060544902
 10
1828.228783521389
 20
2483.146060602409
 10
1828.220815060754
 20
2483.146060628748
 10
1828.212888801621
 20
2483.146060593723
 10
1828.20504368664
 20
2483.146060508276
 10
1828.197173083663
 20
2483.146060463787
 10
1828.189276325568
 20
2483.146060458869
 10
1828.181408337234
 20
2483.146060485299
 10
1828.173568569199
 20
2483.146060534414
 10
1828.165751358314
 20
2483.146060597624
 10
1828.157965917973
 20
2483.14606065963
 10
1828.150265261972
 20
2483.146060690821
 10
1828.142645894082
 20
2483.146060694602
 10
1828.135104590121
 20
2483.146060677764
 10
1828.127646331083
 20
2483.146060647282
 10
1828.120276571111
 20
2483.146060610386
 10
1828.113001272271
 20
2483.146060574573
 10
1828.105826909026
 20
2483.146060547628
 10
1828.098760465892
 20
2483.146060537626
 10
1828.091809427627
 20
2483.146060552942
 10
1828.084981761509
 20
2483.146060602249
 10
1828.078285891374
 20
2483.146060694514
 10
1828.071743679704
 20
2483.146060810016
 10
1828.065343127842
 20
2483.146060893571
 10
1828.059116473032
 20
2483.146060945515
 10
1828.053087945477
 20
2483.14606096887
 10
1828.047258241521
 20
2483.146060967105
 10
1828.041628587293
 20
2483.146060943794
 10
1828.036200670138
 20
2483.146060902635
 10
1828.03097663837
 20
2483.146060847467
 10
1828.025959097093
 20
2483.146060782292
 10
1828.021151100141
 20
2483.146060711296
 10
1828.016556137997
 20
2483.146060638866
 10
1828.012192146538
 20
2483.14606056685
 10
1828.00806928644
 20
2483.146060495136
 10
1828.004231987202
 20
2483.146060428742
 10
1828.000680356544
 20
2483.14606037211
 10
1827.997414119725
 20
2483.146060329753
 10
1827.994432097985
 20
2483.146060306268
 10
1827.991733720436
 20
2483.146060306389
 10
1827.989319023679
 20
2483.146060335008
 10
1827.987188652794
 20
2483.146060397205
 10
1827.985343863859
 20
2483.14606049827
 10
1827.983790330145
 20
2483.146060625973
 10
1827.982543506435
 20
2483.146060731594
 10
1827.981617841666
 20
2483.146060810627
 10
1827.981010383297
 20
2483.146060863118
 10
1827.980719765417
 20
2483.146060888982
 10
1827.980691838712
 20
2483.146060891887
 10
1827.980691838712
 20
2483.146060891887
  0
ARC
  5
2CE
330
1F
100
AcDbEntity
  8
sanindusa
100
AcDbCircle
 10
1827.985339861478
 20
2483.12719014427
 30
0.0
 40
0.02
100
AcDbArc
 50
117.4977901952783
 51
180.0
  0
ARC
  5
2CF
330
1F
100
AcDbEntity
  8
sanindusa
100
AcDbCircle
 10
1828.435339861478
 20
2483.12719014427
 30
0.0
 40
0.02
100
AcDbArc
 50
0.0
 51
62.50219953659069
  0
LINE
  5
2D0
330
1F
100
AcDbEntity
  8
sanindusa
100
AcDbLine
 10
1827.965339861478
 20
2483.12719014427
 30
0.0
 11
1827.965339861478
 21
2483.11719014427
 31
0.0
  0
LINE
  5
2D1
330
1F
100
AcDbEntity
  8
sanindusa
100
AcDbLine
 10
1828.455339861478
 20
2483.11719014427
 30
0.0
 11
1828.455339861478
 21
2483.12719014427
 31
0.0
  0
ARC
  5
2D2
330
1F
100
AcDbEntity
  8
sanindusa
100
AcDbCircle
 10
1827.980722717455
 20
2483.136060430684
 30
0.0
 40
0.0100000000000001
100
AcDbArc
 50
33.81310576638038
 51
117.4977901952783
  0
ARC
  5
2D3
330
1F
100
AcDbEntity
  8
sanindusa
100
AcDbCircle
 10
1828.439957007091
 20
2483.136060429857
 30
0.0
 40
0.0100000000001629
100
AcDbArc
 50
62.50219953779367
 51
146.1868913799133
  0
LWPOLYLINE
  5
2D5
330
1F
100
AcDbEntity
  8
sanindusa
100
AcDbPolyline
 90
       39
 70
   128
 43
0.0
 10
1828.159346904248
 20
2483.138197033277
 10
1828.167658179044
 20
2483.138138054096
 10
1828.176053940916
 20
2483.138074129615
 10
1828.184591655153
 20
2483.138006343097
 10
1828.193178008523
 20
2483.137936866655
 10
1828.20632689659
 20
2483.137830985863
 10
1828.219544736739
 20
2483.137728836235
 10
1828.228422147553
 20
2483.137664228611
 10
1828.232847757412
 20
2483.137633497184
 10
1828.241853160568
 20
2483.13757437833
 10
1828.250816154161
 20
2483.137520360531
 10
1828.259694626759
 20
2483.137471810702
 10
1828.268592736767
 20
2483.13742823555
 10
1828.27736363932
 20
2483.13739028166
 10
1828.286108338031
 20
2483.137357071855
 10
1828.294684508306
 20
2483.137328933035
 10
1828.303093731212
 20
2483.137305239212
 10
1828.31478485132
 20
2483.137278206145
 10
1828.326031273368
 20
2483.137257964906
 10
1828.336835561369
 20
2483.137243118755
 10
1828.347116027734
 20
2483.137232570934
 10
1828.359393902673
 20
2483.137223865496
 10
1828.370732605782
 20
2483.13721907723
 10
1828.37740391397
 20
2483.137217606626
 10
1828.383673339182
 20
2483.137217141067
 10
1828.389519100486
 20
2483.137217572742
 10
1828.394997475893
 20
2483.137218840619
 10
1828.400028197774
 20
2483.137220890573
 10
1828.404657009663
 20
2483.137223705842
 10
1828.408814743257
 20
2483.13722719972
 10
1828.412503067286
 20
2483.137231273193
 10
1828.415606799902
 20
2483.137235633283
 10
1828.418259362617
 20
2483.137240230122
 10
1828.420449600935
 20
2483.13724481403
 10
1828.422187996526
 20
2483.137249126484
 10
1828.423443993207
 20
2483.1372527669
 10
1828.424218142036
 20
2483.137255314277
 10
1828.424488097994
 20
2483.137256311767
 10
1828.424488338108
 20
2483.137256312867
  0
LWPOLYLINE
  5
2D6
330
1F
100
AcDbEntity
  8
sanindusa
100
AcDbPolyline
 90
        9
 70
   128
 43
0.0
 10
1828.112295203267
 20
2483.137190144269
 10
1828.117555410598
 20
2483.1372465766
 10
1828.123050394749
 20
2483.137390463187
 10
1828.128807114688
 20
2483.137586705897
 10
1828.134784273716
 20
2483.137798861806
 10
1828.140652381829
 20
2483.137983513973
 10
1828.146697595403
 20
2483.138124289109
 10
1828.152948568276
 20
2483.138199959388
 10
1828.15934699608
 20
2483.138196857741
  0
ARC
  5
2D7
330
1F
100
AcDbEntity
  8
sanindusa
100
AcDbCircle
 10
1827.997339861478
 20
2483.14719014427
 30
0.0
 40
0.0100000000000003
100
AcDbArc
 50
213.8131057663803
 51
270.0
  0
ARC
  5
2D8
330
1F
100
AcDbEntity
  8
sanindusa
100
AcDbCircle
 10
1828.423339863622
 20
2483.14719014427
 30
0.0
 40
0.0100000000000082
100
AcDbArc
 50
276.5948262026104
 51
326.1868913828031
  0
ARC
  5
2DA
330
1F
100
AcDbEntity
  8
sanindusa
100
AcDbCircle
 10
1828.425636812595
 20
2483.127322481463
 30
0.0
 40
0.0100000000000035
100
AcDbArc
 50
96.59482620261032
 51
148.9410427463429
  0
ARC
  5
2DC
330
1F
100
AcDbEntity
  8
sanindusa
100
AcDbCircle
 10
1828.175784756271
 20
2483.277911504594
 30
0.0
 40
0.2917283083138269
100
AcDbArc
 50
274.7789113414777
 51
326.5692832954497
  0
ARC
  5
2DD
330
1F
100
AcDbEntity
  8
sanindusa
100
AcDbCircle
 10
1828.171688825059
 20
2486.099592773507
 30
0.0
 40
3.103105377100074
100
AcDbArc
 50
269.1645665840217
 51
270.3309970164295
  0
LINE
  5
2DE
330
1F
100
AcDbEntity
  8
sanindusa
100
AcDbLine
 10
1828.117470149339
 20
2482.996926000877
 30
0.0
 11
1828.105321236387
 21
2482.998885766666
 31
0.0
  0
ARC
  5
2E0
330
1F
100
AcDbEntity
  8
sanindusa
100
AcDbCircle
 10
1828.175805404688
 20
2483.277875275894
 30
0.0
 40
0.2816879779719137
100
AcDbArc
 50
272.8602701497861
 51
328.9255641433312
  0
LWPOLYLINE
  5
2E1
330
1F
100
AcDbEntity
  8
sanindusa
100
AcDbPolyline
 90
        3
 70
   128
 43
0.0
 10
1828.186773686375
 20
2482.995268528844
 10
1828.18820807638
 20
2482.996168544143
 10
1828.189861747264
 20
2482.996538225068
  0
LWPOLYLINE
  5
2E3
330
1F
100
AcDbEntity
  8
sanindusa
100
AcDbPolyline
 90
        3
 70
   128
 43
0.0
 10
1828.117470149339
 20
2482.996926000877
 10
1828.119071187795
 20
2482.996470998915
 10
1828.120341251199
 20
2482.995604994846
  0
LINE
  5
2E4
330
1F
100
AcDbEntity
  8
sanindusa
100
AcDbLine
 10
1828.118259997954
 20
2482.949102988527
 30
0.0
 11
1828.118179363344
 21
2482.95002464634
 31
0.0
  0
LINE
  5
2E5
330
1F
100
AcDbEntity
  8
sanindusa
100
AcDbLine
 10
1828.190956933936
 20
2482.978103419346
 30
0.0
 11
1828.188419725002
 21
2482.949102988527
 31
0.0
  0
LINE
  5
2E6
330
1F
100
AcDbEntity
  8
sanindusa
100
AcDbLine
 10
1828.120341251199
 20
2482.995604994846
 30
0.0
 11
1828.128258212419
 21
2482.988188365287
 31
0.0
  0
LINE
  5
2E7
330
1F
100
AcDbEntity
  8
sanindusa
100
AcDbLine
 10
1828.178503577279
 20
2482.987859718911
 30
0.0
 11
1828.186773686375
 21
2482.995268528844
 31
0.0
  0
LWPOLYLINE
  5
2E8
330
1F
100
AcDbEntity
  8
sanindusa
100
AcDbPolyline
 90
       21
 70
   128
 43
0.0
 10
1828.128258212419
 20
2482.988188365287
 10
1828.128545220586
 20
2482.988190351803
 10
1828.129425160032
 20
2482.988187065569
 10
1828.131011727496
 20
2482.98816651238
 10
1828.133288299681
 20
2482.988121667192
 10
1828.136059148216
 20
2482.988058429219
 10
1828.139408668326
 20
2482.987983066503
 10
1828.143044342122
 20
2482.987912582622
 10
1828.147083478135
 20
2482.987854378159
 10
1828.15117967329
 20
2482.98782037963
 10
1828.155458356394
 20
2482.987813782758
 10
1828.159572632949
 20
2482.987819873651
 10
1828.163625941338
 20
2482.987831412781
 10
1828.16728576504
 20
2482.987843969107
 10
1828.170648927856
 20
2482.987855058361
 10
1828.173434480284
 20
2482.987861914179
 10
1828.175721254943
 20
2482.98786430558
 10
1828.17731624204
 20
2482.987863273669
 10
1828.178266936303
 20
2482.987860793003
 10
1828.17850357728
 20
2482.987859718856
 10
1828.178503577279
 20
2482.987859718911
  0
ARC
  5
2EC
330
1F
100
AcDbEntity
  8
sanindusa
100
AcDbCircle
 10
1828.109498746488
 20
2483.018444619187
 30
0.0
 40
0.0200000088678673
100
AcDbArc
 50
182.0000002931528
 51
257.9435245188902
  0
ARC
  5
2ED
330
1F
100
AcDbEntity
  8
sanindusa
100
AcDbCircle
 10
1828.124839861477
 20
2482.984539409704
 30
0.0
 40
0.0050000000009439
100
AcDbArc
 50
0.0
 51
46.86888547263638
  0
ARC
  5
2EE
330
1F
100
AcDbEntity
  8
sanindusa
100
AcDbCircle
 10
1828.181839861522
 20
2482.984135580368
 30
0.0
 40
0.0050000000435062
100
AcDbArc
 50
131.8556980158345
 51
180.0
  0
LINE
  5
2F1
330
1F
100
AcDbEntity
  8
sanindusa
100
AcDbLine
 10
1828.129839861478
 20
2482.94919014427
 30
0.0
 11
1828.129839861478
 21
2482.963051189021
 31
0.0
  0
LINE
  5
2F7
330
1F
100
AcDbEntity
  8
sanindusa
100
AcDbLine
 10
1828.129839861478
 20
2482.975058503552
 30
0.0
 11
1828.129839861478
 21
2482.984539409704
 31
0.0
  0
LINE
  5
2F8
330
1F
100
AcDbEntity
  8
sanindusa
100
AcDbLine
 10
1828.176839861478
 20
2482.984135580358
 30
0.0
 11
1828.176839861478
 21
2482.94919014427
 31
0.0
  0
ARC
  5
2F9
330
1F
100
AcDbEntity
  8
sanindusa
100
AcDbCircle
 10
1828.078069049112
 20
2483.08769014427
 30
0.0
 40
0.0009999999999999
100
AcDbArc
 50
90.0
 51
181.9999999985457
  0
ARC
  5
2FA
330
1F
100
AcDbEntity
  8
sanindusa
100
AcDbCircle
 10
1827.072082246908
 20
2483.06707799321
 30
0.0
 40
1.005198050290889
100
AcDbArc
 50
1.172974845039155
 51
2.827025153445805
  0
ARC
  5
2FB
330
1F
100
AcDbEntity
  8
sanindusa
100
AcDbCircle
 10
1828.077056346797
 20
2483.11669014427
 30
0.0
 40
0.0010000000000002
100
AcDbArc
 50
181.9999999985457
 51
270.0
  0
LINE
  5
2FD
330
1F
100
AcDbEntity
  8
sanindusa
100
AcDbLine
 10
1828.07605695597
 20
2483.116655244773
 30
0.0
 11
1828.075758910712
 21
2483.12519014427
 31
0.0
  0
LINE
  5
2FE
330
1F
100
AcDbEntity
  8
sanindusa
100
AcDbLine
 10
1828.079523152639
 20
2483.01739635903
 30
0.0
 11
1828.077069658285
 21
2483.087655244773
 31
0.0
  0
ARC
  5
2FF
330
1F
100
AcDbEntity
  8
sanindusa
100
AcDbCircle
 10
1828.085055127709
 20
2483.11669014427
 30
0.0
 40
0.0010000000000001
100
AcDbArc
 50
270.0
 51
2.000000001149679
  0
ARC
  5
300
330
1F
100
AcDbEntity
  8
sanindusa
100
AcDbCircle
 10
1827.088254931713
 20
2483.067363432224
 30
0.0
 40
0.9990198116934756
100
AcDbArc
 50
1.167859913941067
 51
2.832140084261276
  0
ARC
  5
301
330
1F
100
AcDbEntity
  8
sanindusa
100
AcDbCircle
 10
1828.086067830023
 20
2483.08769014427
 30
0.0
 40
0.0010000000000001
100
AcDbArc
 50
2.000000001149679
 51
90.0
  0
LINE
  5
303
330
1F
100
AcDbEntity
  8
sanindusa
100
AcDbLine
 10
1828.087067220851
 20
2483.087725043767
 30
0.0
 11
1828.089510920946
 21
2483.01774662889
 31
0.0
  0
LINE
  5
304
330
1F
100
AcDbEntity
  8
sanindusa
100
AcDbLine
 10
1828.085676882
 20
2483.127539139236
 30
0.0
 11
1828.086054518535
 21
2483.116725043766
 31
0.0
  0
LINE
  5
306
330
1F
100
AcDbEntity
  8
sanindusa
100
AcDbLine
 10
1828.077056346797
 20
2483.11569014427
 30
0.0
 11
1828.085055127709
 21
2483.11569014427
 31
0.0
  0
LINE
  5
307
330
1F
100
AcDbEntity
  8
sanindusa
100
AcDbLine
 10
1828.086067830023
 20
2483.08869014427
 30
0.0
 11
1828.078069049112
 21
2483.08869014427
 31
0.0
  0
ARC
  5
308
330
1F
100
AcDbEntity
  8
sanindusa
100
AcDbCircle
 10
1828.128839861478
 20
2482.975058503552
 30
0.0
 40
0.0010000000000001
100
AcDbArc
 50
268.0000000001523
 51
0.0
  0
LINE
  5
309
330
1F
100
AcDbEntity
  8
sanindusa
100
AcDbLine
 10
1828.116037613563
 20
2482.974504958357
 30
0.0
 11
1828.128804961982
 21
2482.974059112725
 31
0.0
  0
LINE
  5
30A
330
1F
100
AcDbEntity
  8
sanindusa
100
AcDbLine
 10
1828.116037613563
 20
2482.974504958357
 30
0.0
 11
1828.115617112174
 21
2482.979311311221
 31
0.0
  0
ARC
  5
30B
330
1F
100
AcDbEntity
  8
sanindusa
100
AcDbCircle
 10
1828.105655165193
 20
2482.978439753794
 30
0.0
 40
0.0100000000000001
100
AcDbArc
 50
5.000000001141683
 51
79.80434851477761
  0
LINE
  5
30C
330
1F
100
AcDbEntity
  8
sanindusa
100
AcDbLine
 10
1828.107425265627
 20
2482.988281844245
 30
0.0
 11
1828.103240518727
 21
2482.989104627855
 31
0.0
  0
ARC
  5
30D
330
1F
100
AcDbEntity
  8
sanindusa
100
AcDbCircle
 10
1828.109504939449
 20
2483.018443346195
 30
0.0
 40
0.030000061426693
100
AcDbArc
 50
182.0000004182775
 51
257.9471062287191
  0
ARC
  5
30F
330
1F
100
AcDbEntity
  8
sanindusa
100
AcDbCircle
 10
1828.07568297373
 20
2483.12719014427
 30
0.0
 40
0.01
100
AcDbArc
 50
2.000000001149679
 51
90.0
  0
LINE
  5
310
330
1F
100
AcDbEntity
  8
sanindusa
100
AcDbLine
 10
1828.07568297373
 20
2483.137190144269
 30
0.0
 11
1828.09075752204
 21
2483.137190144269
 31
0.0
  0
ARC
  5
311
330
1F
100
AcDbEntity
  8
sanindusa
100
AcDbCircle
 10
1828.016839861478
 20
2483.13619014427
 30
0.0
 40
0.0010000000000002
100
AcDbArc
 50
0.0
 51
90.0
  0
LINE
  5
312
330
1F
100
AcDbEntity
  8
sanindusa
100
AcDbLine
 10
1828.017839861478
 20
2483.12619014427
 30
0.0
 11
1828.017839861478
 21
2483.13619014427
 31
0.0
  0
ARC
  5
313
330
1F
100
AcDbEntity
  8
sanindusa
100
AcDbCircle
 10
1828.016839861478
 20
2483.12619014427
 30
0.0
 40
0.0010000000000002
100
AcDbArc
 50
270.0
 51
0.0
  0
LINE
  5
314
330
1F
100
AcDbEntity
  8
sanindusa
100
AcDbLine
 10
1828.016839861478
 20
2483.12519014427
 30
0.0
 11
1827.99242925562
 21
2483.12519014427
 31
0.0
  0
LINE
  5
315
330
1F
100
AcDbEntity
  8
sanindusa
100
AcDbLine
 10
1827.99242925562
 20
2483.12519014427
 30
0.0
 11
1827.99242925562
 21
2483.11719014427
 31
0.0
  0
ARC
  5
316
330
1F
100
AcDbEntity
  8
sanindusa
100
AcDbCircle
 10
1827.978839861478
 20
2483.11406514427
 30
0.0
 40
0.008124999999998
100
AcDbArc
 50
22.61986494784
 51
157.3801350521599
  0
LINE
  5
317
330
1F
100
AcDbEntity
  8
sanindusa
100
AcDbLine
 10
1827.965339861478
 20
2483.11719014427
 30
0.0
 11
1827.971339861478
 21
2483.11719014427
 31
0.0
  0
LINE
  5
318
330
1F
100
AcDbEntity
  8
sanindusa
100
AcDbLine
 10
1828.016839861478
 20
2483.137190144269
 30
0.0
 11
1827.997339861478
 21
2483.137190144269
 31
0.0
  0
LINE
  5
319
330
1F
100
AcDbEntity
  8
sanindusa
100
AcDbLine
 10
1827.986339861478
 20
2483.11719014427
 30
0.0
 11
1827.99242925562
 21
2483.11719014427
 31
0.0
  0
ARC
  5
31A
330
1F
100
AcDbEntity
  8
sanindusa
100
AcDbCircle
 10
1828.187423530304
 20
2482.94919014427
 30
0.0
 40
0.0009999999999999
100
AcDbArc
 50
270.0
 51
354.9999999988583
  0
LINE
  5
31B
330
1F
100
AcDbEntity
  8
sanindusa
100
AcDbLine
 10
1828.177839861478
 20
2482.94819014427
 30
0.0
 11
1828.187423530304
 21
2482.94819014427
 31
0.0
  0
ARC
  5
31C
330
1F
100
AcDbEntity
  8
sanindusa
100
AcDbCircle
 10
1828.177839861478
 20
2482.94919014427
 30
0.0
 40
0.0009999999999999
100
AcDbArc
 50
180.0
 51
270.0
  0
ARC
  5
31D
330
1F
100
AcDbEntity
  8
sanindusa
100
AcDbCircle
 10
1828.441839861478
 20
2483.11406514427
 30
0.0
 40
0.0081250000000134
100
AcDbArc
 50
22.61986494784
 51
157.3801350521599
  0
LINE
  5
31E
330
1F
100
AcDbEntity
  8
sanindusa
100
AcDbLine
 10
1828.449339861478
 20
2483.11719014427
 30
0.0
 11
1828.455339861478
 21
2483.11719014427
 31
0.0
  0
ARC
  5
31F
330
1F
100
AcDbEntity
  8
sanindusa
100
AcDbCircle
 10
1828.200918880917
 20
2482.977231861918
 30
0.0
 40
0.0100000000000001
100
AcDbArc
 50
94.76062131565983
 51
174.9999999988583
  0
LINE
  5
320
330
1F
100
AcDbEntity
  8
sanindusa
100
AcDbLine
 10
1828.419247382165
 20
2483.11719014427
 30
0.0
 11
1828.434339861478
 21
2483.11719014427
 31
0.0
  0
SPLINE
  5
321
330
1F
100
AcDbEntity
  8
sanindusa
100
AcDbSpline
210
0.0
220
0.0
230
1.0
 70
    28
 71
     3
 72
    13
 73
     9
 74
     0
 42
0.0000000001
 43
0.0000000001
 40
0.0
 40
0.0
 40
0.0
 40
0.0
 40
0.1883689092104592
 40
0.3729739307637778
 40
0.5537671000066084
 40
0.7305886436110248
 40
0.9031107466993875
 40
1.0
 40
1.0
 40
1.0
 40
1.0
 10
1828.449339861478
 20
2483.11719014427
 30
0.0
 41
1.0
 10
1828.44924005184
 20
2483.11719014427
 30
0.0
 41
1.0
 10
1828.449042426909
 20
2483.11719014427
 30
0.0
 41
1.0
 10
1828.447459887246
 20
2483.11719014427
 30
0.0
 41
1.0
 10
1828.445016454155
 20
2483.11719014427
 30
0.0
 41
1.0
 10
1828.441633389058
 20
2483.11719014427
 30
0.0
 41
1.0
 10
1828.438155886626
 20
2483.11719014427
 30
0.0
 41
1.0
 10
1828.435477954595
 20
2483.11719014427
 30
0.0
 41
1.0
 10
1828.434514881478
 20
2483.11719014427
 30
0.0
 41
1.0
  0
SPLINE
  5
322
330
1F
100
AcDbEntity
  8
sanindusa
100
AcDbSpline
210
0.0
220
0.0
230
1.0
 70
    28
 71
     3
 72
    14
 73
    10
 74
     0
 42
0.0000000001
 43
0.0000000001
 40
0.0
 40
0.0
 40
0.0
 40
0.0
 40
0.0006820322408521
 40
0.1601162036226552
 40
0.3235841873368703
 40
0.4877500981566784
 40
0.6552631796109003
 40
0.8260239831101838
 40
1.0
 40
1.0
 40
1.0
 40
1.0
 10
1827.986164841478
 20
2483.11719014427
 30
0.0
 41
1.0
 10
1827.98615758784
 20
2483.11719014427
 30
0.0
 41
1.0
 10
1827.984454699124
 20
2483.11719014427
 30
0.0
 41
1.0
 10
1827.981694114841
 20
2483.11719014427
 30
0.0
 41
1.0
 10
1827.977970606045
 20
2483.11719014427
 30
0.0
 41
1.0
 10
1827.97507424534
 20
2483.11719014427
 30
0.0
 41
1.0
 10
1827.972954340221
 20
2483.11719014427
 30
0.0
 41
1.0
 10
1827.971596153267
 20
2483.11719014427
 30
0.0
 41
1.0
 10
1827.971425821612
 20
2483.11719014427
 30
0.0
 41
1.0
 10
1827.971339861478
 20
2483.11719014427
 30
0.0
 41
1.0
  0
SPLINE
  5
323
330
1F
100
AcDbEntity
  8
sanindusa
100
AcDbSpline
210
0.0
220
0.0
230
1.0
 70
    28
 71
     3
 72
    20
 73
    16
 74
     0
 42
0.0000000001
 43
0.0000000001
 40
0.0
 40
0.0
 40
0.0
 40
0.0
 40
0.0370291934306039
 40
0.1176642143309357
 40
0.1972830001868748
 40
0.2770323635585131
 40
0.3562653141676262
 40
0.4352069741959184
 40
0.5156806419797394
 40
0.5962862721988476
 40
0.6772407153367725
 40
0.7586459430415151
 40
0.8395479501585784
 40
0.9199086528173165
 40
1.0
 40
1.0
 40
1.0
 40
1.0
 10
1828.059027914489
 20
2483.11719014427
 30
0.0
 41
1.0
 10
1828.057439733897
 20
2483.11719014427
 30
0.0
 41
1.0
 10
1828.052393120555
 20
2483.11719014427
 30
0.0
 41
1.0
 10
1828.044770659873
 20
2483.11719014427
 30
0.0
 41
1.0
 10
1828.036105432412
 20
2483.11719014427
 30
0.0
 41
1.0
 10
1828.028286425906
 20
2483.11719014427
 30
0.0
 41
1.0
 10
1828.021218135026
 20
2483.11719014427
 30
0.0
 41
1.0
 10
1828.01486656256
 20
2483.11719014427
 30
0.0
 41
1.0
 10
1828.009220865172
 20
2483.11719014427
 30
0.0
 41
1.0
 10
1828.004293044087
 20
2483.11719014427
 30
0.0
 41
1.0
 10
1828.000134948124
 20
2483.11719014427
 30
0.0
 41
1.0
 10
1827.996788372851
 20
2483.11719014427
 30
0.0
 41
1.0
 10
1827.994338303278
 20
2483.11719014427
 30
0.0
 41
1.0
 10
1827.992741545545
 20
2483.11719014427
 30
0.0
 41
1.0
 10
1827.992533235696
 20
2483.11719014427
 30
0.0
 41
1.0
 10
1827.99242925562
 20
2483.11719014427
 30
0.0
 41
1.0
  0
ARC
  5
324
330
1F
100
AcDbEntity
  8
sanindusa
100
AcDbCircle
 10
1828.053839861478
 20
2483.12619014427
 30
0.0
 40
0.0009999999999999
100
AcDbArc
 50
180.0
 51
270.0
  0
LINE
  5
326
330
1F
100
AcDbEntity
  8
sanindusa
100
AcDbLine
 10
1828.053839861478
 20
2483.12519014427
 30
0.0
 11
1828.016839861478
 21
2483.12519014427
 31
0.0
  0
ARC
  5
327
330
1F
100
AcDbEntity
  8
sanindusa
100
AcDbCircle
 10
1828.053839861478
 20
2483.13619014427
 30
0.0
 40
0.0010000000000002
100
AcDbArc
 50
90.0
 51
180.0
  0
LINE
  5
329
330
1F
100
AcDbEntity
  8
sanindusa
100
AcDbLine
 10
1828.016839861478
 20
2483.137190144269
 30
0.0
 11
1828.053839861478
 21
2483.137190144269
 31
0.0
  0
LINE
  5
32A
330
1F
100
AcDbEntity
  8
sanindusa
100
AcDbLine
 10
1828.052839861478
 20
2483.13619014427
 30
0.0
 11
1828.052839861478
 21
2483.12619014427
 31
0.0
  0
LINE
  5
32B
330
1F
100
AcDbEntity
  8
sanindusa
100
AcDbLine
 10
1828.075758910712
 20
2483.12519014427
 30
0.0
 11
1828.068754643743
 21
2483.12519014427
 31
0.0
  0
LINE
  5
32C
330
1F
100
AcDbEntity
  8
sanindusa
100
AcDbLine
 10
1828.073259895688
 20
2482.996176624414
 30
0.0
 11
1828.068754643743
 21
2483.12519014427
 31
0.0
  0
LINE
  5
32D
330
1F
100
AcDbEntity
  8
sanindusa
100
AcDbLine
 10
1828.101319914811
 20
2482.965012816279
 30
0.0
 11
1828.073259895688
 21
2482.996176624414
 31
0.0
  0
LINE
  5
32E
330
1F
100
AcDbEntity
  8
sanindusa
100
AcDbLine
 10
1828.128874760975
 20
2482.964050579848
 30
0.0
 11
1828.101319914811
 21
2482.965012816279
 31
0.0
  0
ARC
  5
32F
330
1F
100
AcDbEntity
  8
sanindusa
100
AcDbCircle
 10
1828.128839861478
 20
2482.963051189021
 30
0.0
 40
0.0010000000000001
100
AcDbArc
 50
0.0
 51
88.00000000015227
  0
ARC
  5
330
330
1F
100
AcDbEntity
  8
sanindusa
100
AcDbCircle
 10
1828.128839861478
 20
2482.94919014427
 30
0.0
 40
0.0009999999999999
100
AcDbArc
 50
270.0
 51
0.0
  0
LINE
  5
331
330
1F
100
AcDbEntity
  8
sanindusa
100
AcDbLine
 10
1828.119256192652
 20
2482.94819014427
 30
0.0
 11
1828.128839861478
 21
2482.94819014427
 31
0.0
  0
ARC
  5
332
330
1F
100
AcDbEntity
  8
sanindusa
100
AcDbCircle
 10
1828.119256192652
 20
2482.94919014427
 30
0.0
 40
0.0010000000000002
100
AcDbArc
 50
185.0000000011417
 51
270.0
  0
ARC
  5
333
330
1F
100
AcDbEntity
  8
sanindusa
100
AcDbCircle
 10
1828.113198389853
 20
2482.949588867626
 30
0.0
 40
0.0050000000000001
100
AcDbArc
 50
5.000000001141683
 51
88.00000000015227
  0
LINE
  5
334
330
1F
100
AcDbEntity
  8
sanindusa
100
AcDbLine
 10
1828.113372887337
 20
2482.954585821761
 30
0.0
 11
1828.098849838669
 21
2482.955092977796
 31
0.0
  0
ARC
  5
335
330
1F
100
AcDbEntity
  8
sanindusa
100
AcDbCircle
 10
1828.099024336153
 20
2482.960089931931
 30
0.0
 40
0.0050000000000002
100
AcDbArc
 50
222.0000002459828
 51
268.0000000001523
  0
LINE
  5
336
330
1F
100
AcDbEntity
  8
sanindusa
100
AcDbLine
 10
1828.09530861204
 20
2482.956744278883
 30
0.0
 11
1828.064610729339
 21
2482.990837731294
 31
0.0
  0
ARC
  5
337
330
1F
100
AcDbEntity
  8
sanindusa
100
AcDbCircle
 10
1828.068326453452
 20
2482.994183384342
 30
0.0
 40
0.005
100
AcDbArc
 50
182.0000002462367
 51
222.0000002459828
  0
LINE
  5
338
330
1F
100
AcDbEntity
  8
sanindusa
100
AcDbLine
 10
1828.063329499318
 20
2482.994008886837
 30
0.0
 11
1828.058748548299
 21
2483.12519014427
 31
0.0
  0
LINE
  5
339
330
1F
100
AcDbEntity
  8
sanindusa
100
AcDbLine
 10
1828.058748548299
 20
2483.12519014427
 30
0.0
 11
1828.053839861478
 21
2483.12519014427
 31
0.0
  0
LINE
  5
33A
330
1F
100
AcDbEntity
  8
sanindusa
100
AcDbLine
 10
1828.07568297373
 20
2483.137190144269
 30
0.0
 11
1828.053839861478
 21
2483.137190144269
 31
0.0
  0
LINE
  5
33D
330
1F
100
AcDbEntity
  8
sanindusa
100
AcDbLine
 10
1828.137142087425
 20
2482.97376797389
 30
0.0
 11
1828.128804961982
 21
2482.974059112725
 31
0.0
  0
LINE
  5
33E
330
1F
100
AcDbEntity
  8
sanindusa
100
AcDbLine
 10
1828.177839861478
 20
2482.94819014427
 30
0.0
 11
1828.128839861478
 21
2482.94819014427
 31
0.0
  0
LINE
  5
340
330
1F
100
AcDbEntity
  8
sanindusa
100
AcDbLine
 10
1828.128874760975
 20
2482.964050579848
 30
0.0
 11
1828.136905349499
 21
2482.963770145517
 31
0.0
  0
LWPOLYLINE
  5
341
330
1F
100
AcDbEntity
  8
sanindusa
100
AcDbPolyline
 90
        7
 70
   128
 43
0.0
 10
1828.13923150732
 20
2482.964655842319
 10
1828.139199403153
 20
2482.96452281469
 10
1828.139136760466
 20
2482.964415985548
 10
1828.138918240646
 20
2482.964215957471
 10
1828.138428945432
 20
2482.963981683523
 10
1828.137566520527
 20
2482.963795317361
 10
1828.136905349499
 20
2482.963770145517
  0
LWPOLYLINE
  5
343
330
1F
100
AcDbEntity
  8
sanindusa
100
AcDbPolyline
 90
        8
 70
   128
 43
0.0
 10
1828.137142087425
 20
2482.97376797389
 10
1828.138232838237
 20
2482.973609058308
 10
1828.138993618636
 20
2482.973334108264
 10
1828.139372398606
 20
2482.973092874831
 10
1828.139564612208
 20
2482.972868178538
 10
1828.139610975906
 20
2482.972744387192
 10
1828.139618660887
 20
2482.972664450497
 10
1828.13961799895
 20
2482.972647222088
  0
ELLIPSE
  5
347
330
1F
100
AcDbEntity
  8
sanindusa
100
AcDbEllipse
 10
1828.153304983241
 20
2482.404781771065
 30
0.0
 11
0.0008560803512401
 21
0.7015882047952898
 31
0.0
210
0.0
220
0.0
230
1.0
 40
0.034899444804129
 41
0.6277093175810599
 42
0.6468538511944038
  0
LINE
  5
349
330
1F
100
AcDbEntity
  8
sanindusa
100
AcDbLine
 10
1828.090757512272
 20
2483.137190144269
 30
0.0
 11
1828.112295203267
 21
2483.137190144269
 31
0.0
  0
ARC
  5
34B
330
1F
100
AcDbEntity
  8
sanindusa
100
AcDbCircle
 10
1828.117463868073
 20
2482.626074237563
 30
0.0
 40
0.3708517633666887
100
AcDbArc
 50
88.61247684002078
 51
89.99902955811197
  0
CIRCLE
  5
363
330
1F
100
AcDbEntity
  8
sanindusa
100
AcDbCircle
 10
1825.833024078301
 20
2483.171286379929
 30
0.0
 40
0.035198760050172
  0
ENDSEC
  0
SECTION
  2
OBJECTS
  0
DICTIONARY
  5
C
330
0
100
AcDbDictionary
281
     1
  3
ACAD_COLOR
350
90
  3
ACAD_GROUP
350
D
  3
ACAD_LAYOUT
350
1A
  3
ACAD_MATERIAL
350
8F
  3
ACAD_MLEADERSTYLE
350
3AB
  3
ACAD_MLINESTYLE
350
17
  3
ACAD_PLOTSETTINGS
350
19
  3
ACAD_PLOTSTYLENAME
350
E
  3
ACAD_SCALELIST
350
399
  3
ACAD_TABLESTYLE
350
91
  3
ACAD_VISUALSTYLE
350
385
  3
ACDB_RECOMPOSE_DATA
350
3C2
  3
AcDbVariableDictionary
350
86
  3
ASE_INDEX_DICTIONARY
350
82
  3
DWGPROPS
350
3C3
  0
DICTIONARY
  5
3AF
330
10
100
AcDbDictionary
280
     1
281
     1
  3
ADSK_XREC_LAYER_RECONCILED
360
3B0
  0
DICTIONARY
  5
3B1
330
2B
100
AcDbDictionary
280
     1
281
     1
  3
ADSK_XREC_LAYER_RECONCILED
360
3B2
  0
DICTIONARY
  5
3B3
330
2C
100
AcDbDictionary
280
     1
281
     1
  3
ADSK_XREC_LAYER_RECONCILED
360
3B4
  0
DICTIONARY
  5
3B5
330
67
100
AcDbDictionary
280
     1
281
     1
  3
ADSK_XREC_LAYER_RECONCILED
360
3B6
  0
DICTIONARY
  5
3B7
330
96
100
AcDbDictionary
280
     1
281
     1
  3
ADSK_XREC_LAYER_RECONCILED
360
3B8
  0
DICTIONARY
  5
3B9
330
185
100
AcDbDictionary
280
     1
281
     1
  3
ADSK_XREC_LAYER_RECONCILED
360
3BA
  0
DICTIONARY
  5
A5
330
1F
100
AcDbDictionary
280
     1
281
     1
  3
ACAD_SORTENTS
360
A6
  0
DICTIONARY
  5
90
102
{ACAD_REACTORS
330
C
102
}
330
C
100
AcDbDictionary
281
     1
  0
DICTIONARY
  5
D
102
{ACAD_REACTORS
330
C
102
}
330
C
100
AcDbDictionary
281
     1
  0
DICTIONARY
  5
1A
102
{ACAD_REACTORS
330
C
102
}
330
C
100
AcDbDictionary
281
     1
  3
Layout1
350
1E
  3
Layout2
350
26
  3
Model
350
22
  0
DICTIONARY
  5
8F
102
{ACAD_REACTORS
330
C
102
}
330
C
100
AcDbDictionary
281
     1
  3
ByBlock
350
375
  3
ByLayer
350
36D
  3
Global
350
37D
  0
DICTIONARY
  5
3AB
102
{ACAD_REACTORS
330
C
102
}
330
C
100
AcDbDictionary
281
     1
  3
Standard
350
3AC
  0
DICTIONARY
  5
17
102
{ACAD_REACTORS
330
C
102
}
330
C
100
AcDbDictionary
281
     1
  3
Standard
350
18
  0
DICTIONARY
  5
19
102
{ACAD_REACTORS
330
C
102
}
330
C
100
AcDbDictionary
281
     1
  0
ACDBDICTIONARYWDFLT
  5
E
102
{ACAD_REACTORS
330
C
102
}
330
C
100
AcDbDictionary
281
     1
  3
Normal
350
F
100
AcDbDictionaryWithDefault
340
F
  0
DICTIONARY
  5
399
102
{ACAD_REACTORS
330
C
102
}
330
C
100
AcDbDictionary
281
     1
  3
A0
350
39A
  3
A1
350
39B
  3
A2
350
39C
  3
A3
350
39D
  3
A4
350
39E
  3
A5
350
39F
  3
A6
350
3A0
  3
A7
350
3A1
  3
A8
350
3A2
  3
A9
350
3A3
  3
B0
350
3A4
  3
B1
350
3A5
  3
B2
350
3A6
  3
B3
350
3A7
  3
B4
350
3A8
  3
B5
350
3A9
  3
B6
350
3AA
  0
DICTIONARY
  5
91
102
{ACAD_REACTORS
330
C
102
}
330
C
100
AcDbDictionary
281
     1
  3
Standard
350
92
  0
DICTIONARY
  5
385
102
{ACAD_REACTORS
330
C
102
}
330
C
100
AcDbDictionary
281
     1
  3
2dWireframe
350
38B
  3
3D Hidden
350
38D
  3
3dWireframe
350
38C
  3
Basic
350
38A
  3
Brighten
350
391
  3
ColorChange
350
395
  3
Conceptual
350
38E
  3
Dim
350
390
  3
EdgeColorOff
350
398
  3
Facepattern
350
394
  3
Flat
350
386
  3
FlatWithEdges
350
387
  3
Gouraud
350
388
  3
GouraudWithEdges
350
389
  3
JitterOff
350
396
  3
Linepattern
350
393
  3
OverhangOff
350
397
  3
Realistic
350
38F
  3
Thicken
350
392
  0
XRECORD
  5
3C2
102
{ACAD_REACTORS
330
C
102
}
330
C
100
AcDbXrecord
280
     1
 90
        1
330
92
  0
DICTIONARY
  5
86
102
{ACAD_REACTORS
330
C
102
}
330
C
100
AcDbDictionary
281
     1
  3
CANNOSCALE
350
3BC
  3
CMLEADERSTYLE
350
3BB
  3
CTABLESTYLE
350
DE
  3
DIMASSOC
350
88
  3
HIDETEXT
350
87
  3
INDEXCTL
350
3BE
  3
PROJECTNAME
350
161
  3
SORTENTS
350
3BD
  3
XCLIPFRAME
350
3BF
  0
DICTIONARY
  5
82
102
{ACAD_REACTORS
330
C
102
}
330
C
100
AcDbDictionary
281
     1
  3
ASEBlockHierarchyIndexRecord
350
84
1001
DCO15
1040
1470389459.062
  0
XRECORD
  5
3C3
102
{ACAD_REACTORS
330
C
102
}
330
C
100
AcDbXrecord
280
     1
  1
DWGPROPS COOKIE
  2

  3

  4

  6

  7

  8
Julio
  9

300
=
301
=
302
=
303
=
304
=
305
=
306
=
307
=
308
=
309
=
 40
0.0150311226851852
 41
2452821.607261817
 42
2456148.746607165
  1

 90
        0
  0
XRECORD
  5
3B0
102
{ACAD_REACTORS
330
3AF
102
}
330
3AF
100
AcDbXrecord
280
     1
290
     1
  0
XRECORD
  5
3B2
102
{ACAD_REACTORS
330
3B1
102
}
330
3B1
100
AcDbXrecord
280
     1
290
     1
  0
XRECORD
  5
3B4
102
{ACAD_REACTORS
330
3B3
102
}
330
3B3
100
AcDbXrecord
280
     1
290
     1
  0
XRECORD
  5
3B6
102
{ACAD_REACTORS
330
3B5
102
}
330
3B5
100
AcDbXrecord
280
     1
290
     1
  0
XRECORD
  5
3B8
102
{ACAD_REACTORS
330
3B7
102
}
330
3B7
100
AcDbXrecord
280
     1
290
     1
  0
XRECORD
  5
3BA
102
{ACAD_REACTORS
330
3B9
102
}
330
3B9
100
AcDbXrecord
280
     1
290
     1
  0
SORTENTSTABLE
  5
A6
102
{ACAD_REACTORS
330
A5
102
}
330
A5
100
AcDbSortentsTable
330
1F
331
71
  5
71
  0
LAYOUT
  5
1E
102
{ACAD_XDICTIONARY
360
3C4
102
}
102
{ACAD_REACTORS
330
1A
102
}
330
1A
100
AcDbPlotSettings
  1

  2
PLOTER 500
  4

  6

 40
0.0
 41
0.0
 42
0.0
 43
0.0
 44
0.0
 45
0.0
 46
0.0
 47
0.0
 48
0.0
 49
0.0
140
0.0
141
0.0
142
1.0
143
1.0
 70
   688
 72
     0
 73
     0
 74
     5
  7
monochrome.ctb
 75
    16
147
1.0
148
0.0
149
0.0
100
AcDbLayout
  1
Layout1
 70
     1
 71
     1
 10
0.0
 20
0.0
 11
420.0
 21
297.0
 12
0.0
 22
0.0
 32
0.0
 14
1.000000000000000E+20
 24
1.000000000000000E+20
 34
1.000000000000000E+20
 15
-1.000000000000000E+20
 25
-1.000000000000000E+20
 35
-1.000000000000000E+20
146
0.0
 13
0.0
 23
0.0
 33
0.0
 16
1.0
 26
0.0
 36
0.0
 17
0.0
 27
1.0
 37
0.0
 76
     0
330
1B
  0
LAYOUT
  5
26
102
{ACAD_XDICTIONARY
360
3C8
102
}
102
{ACAD_REACTORS
330
1A
102
}
330
1A
100
AcDbPlotSettings
  1

  2
PLOTER 500
  4

  6

 40
0.0
 41
0.0
 42
0.0
 43
0.0
 44
0.0
 45
0.0
 46
0.0
 47
0.0
 48
0.0
 49
0.0
140
0.0
141
0.0
142
1.0
143
1.0
 70
   688
 72
     0
 73
     0
 74
     5
  7
monochrome.ctb
 75
    16
147
1.0
148
0.0
149
0.0
100
AcDbLayout
  1
Layout2
 70
     1
 71
     2
 10
0.0
 20
0.0
 11
12.0
 21
9.0
 12
0.0
 22
0.0
 32
0.0
 14
0.0
 24
0.0
 34
0.0
 15
0.0
 25
0.0
 35
0.0
146
0.0
 13
0.0
 23
0.0
 33
0.0
 16
1.0
 26
0.0
 36
0.0
 17
0.0
 27
1.0
 37
0.0
 76
     0
330
23
  0
LAYOUT
  5
22
102
{ACAD_XDICTIONARY
360
3C6
102
}
102
{ACAD_REACTORS
330
1A
102
}
330
1A
100
AcDbPlotSettings
  1

  2
PLOTER 500
  4

  6

 40
0.0
 41
0.0
 42
0.0
 43
0.0
 44
0.0
 45
0.0
 46
0.0
 47
0.0
 48
0.0
 49
0.0
140
0.0
141
0.0
142
1.0
143
1.0
 70
  1712
 72
     0
 73
     0
 74
     0
  7
monochrome.ctb
 75
     0
147
1.0
148
0.0
149
0.0
100
AcDbLayout
  1
Model
 70
     1
 71
     0
 10
0.0
 20
0.0
 11
12.0
 21
9.0
 12
0.0
 22
0.0
 32
0.0
 14
0.0
 24
0.0
 34
0.0
 15
0.0
 25
0.0
 35
0.0
146
0.0
 13
0.0
 23
0.0
 33
0.0
 16
1.0
 26
0.0
 36
0.0
 17
0.0
 27
1.0
 37
0.0
 76
     0
330
1F
331
364
  0
MATERIAL
  5
375
102
{ACAD_XDICTIONARY
360
376
102
}
102
{ACAD_REACTORS
330
8F
102
}
330
8F
100
AcDbMaterial
  1
ByBlock
 72
     0
 43
0.820209973753281
 43
0.0
 43
0.0
 43
0.0
 43
0.0
 43
0.820209973753281
 43
0.0
 43
0.0
 43
0.0
 43
0.0
 43
1.0
 43
0.0
 43
0.0
 43
0.0
 43
0.0
 43
1.0
 77
     0
 47
0.820209973753281
 47
0.0
 47
0.0
 47
0.0
 47
0.0
 47
0.820209973753281
 47
0.0
 47
0.0
 47
0.0
 47
0.0
 47
1.0
 47
0.0
 47
0.0
 47
0.0
 47
0.0
 47
1.0
171
     0
 49
0.820209973753281
 49
0.0
 49
0.0
 49
0.0
 49
0.0
 49
0.820209973753281
 49
0.0
 49
0.0
 49
0.0
 49
0.0
 49
1.0
 49
0.0
 49
0.0
 49
0.0
 49
0.0
 49
1.0
175
     0
142
0.820209973753281
142
0.0
142
0.0
142
0.0
142
0.0
142
0.820209973753281
142
0.0
142
0.0
142
0.0
142
0.0
142
1.0
142
0.0
142
0.0
142
0.0
142
0.0
142
1.0
179
     0
144
0.820209973753281
144
0.0
144
0.0
144
0.0
144
0.0
144
0.820209973753281
144
0.0
144
0.0
144
0.0
144
0.0
144
1.0
144
0.0
144
0.0
144
0.0
144
0.0
144
1.0
147
0.820209973753281
147
0.0
147
0.0
147
0.0
147
0.0
147
0.820209973753281
147
0.0
147
0.0
147
0.0
147
0.0
147
1.0
147
0.0
147
0.0
147
0.0
147
0.0
147
1.0
  0
MATERIAL
  5
36D
102
{ACAD_XDICTIONARY
360
36E
102
}
102
{ACAD_REACTORS
330
8F
102
}
330
8F
100
AcDbMaterial
  1
ByLayer
 72
     0
 43
0.820209973753281
 43
0.0
 43
0.0
 43
0.0
 43
0.0
 43
0.820209973753281
 43
0.0
 43
0.0
 43
0.0
 43
0.0
 43
1.0
 43
0.0
 43
0.0
 43
0.0
 43
0.0
 43
1.0
 77
     0
 47
0.820209973753281
 47
0.0
 47
0.0
 47
0.0
 47
0.0
 47
0.820209973753281
 47
0.0
 47
0.0
 47
0.0
 47
0.0
 47
1.0
 47
0.0
 47
0.0
 47
0.0
 47
0.0
 47
1.0
171
     0
 49
0.820209973753281
 49
0.0
 49
0.0
 49
0.0
 49
0.0
 49
0.820209973753281
 49
0.0
 49
0.0
 49
0.0
 49
0.0
 49
1.0
 49
0.0
 49
0.0
 49
0.0
 49
0.0
 49
1.0
175
     0
142
0.820209973753281
142
0.0
142
0.0
142
0.0
142
0.0
142
0.820209973753281
142
0.0
142
0.0
142
0.0
142
0.0
142
1.0
142
0.0
142
0.0
142
0.0
142
0.0
142
1.0
179
     0
144
0.820209973753281
144
0.0
144
0.0
144
0.0
144
0.0
144
0.820209973753281
144
0.0
144
0.0
144
0.0
144
0.0
144
1.0
144
0.0
144
0.0
144
0.0
144
0.0
144
1.0
147
0.820209973753281
147
0.0
147
0.0
147
0.0
147
0.0
147
0.820209973753281
147
0.0
147
0.0
147
0.0
147
0.0
147
1.0
147
0.0
147
0.0
147
0.0
147
0.0
147
1.0
  0
MATERIAL
  5
37D
102
{ACAD_XDICTIONARY
360
37E
102
}
102
{ACAD_REACTORS
330
8F
102
}
330
8F
100
AcDbMaterial
  1
Global
 72
     0
 43
0.820209973753281
 43
0.0
 43
0.0
 43
0.0
 43
0.0
 43
0.820209973753281
 43
0.0
 43
0.0
 43
0.0
 43
0.0
 43
1.0
 43
0.0
 43
0.0
 43
0.0
 43
0.0
 43
1.0
 77
     0
 47
0.820209973753281
 47
0.0
 47
0.0
 47
0.0
 47
0.0
 47
0.820209973753281
 47
0.0
 47
0.0
 47
0.0
 47
0.0
 47
1.0
 47
0.0
 47
0.0
 47
0.0
 47
0.0
 47
1.0
171
     0
 49
0.820209973753281
 49
0.0
 49
0.0
 49
0.0
 49
0.0
 49
0.820209973753281
 49
0.0
 49
0.0
 49
0.0
 49
0.0
 49
1.0
 49
0.0
 49
0.0
 49
0.0
 49
0.0
 49
1.0
175
     0
142
0.820209973753281
142
0.0
142
0.0
142
0.0
142
0.0
142
0.820209973753281
142
0.0
142
0.0
142
0.0
142
0.0
142
1.0
142
0.0
142
0.0
142
0.0
142
0.0
142
1.0
179
     0
144
0.820209973753281
144
0.0
144
0.0
144
0.0
144
0.0
144
0.820209973753281
144
0.0
144
0.0
144
0.0
144
0.0
144
1.0
144
0.0
144
0.0
144
0.0
144
0.0
144
1.0
147
0.820209973753281
147
0.0
147
0.0
147
0.0
147
0.0
147
0.820209973753281
147
0.0
147
0.0
147
0.0
147
0.0
147
1.0
147
0.0
147
0.0
147
0.0
147
0.0
147
1.0
  0
MLEADERSTYLE
  5
3AC
102
{ACAD_REACTORS
330
3AB
102
}
330
3AB
100
AcDbMLeaderStyle
170
     2
171
     1
172
     0
 90
        2
 40
0.0
 41
0.0
173
     1
 91
-1056964608
340
14
 92
       -2
290
     1
 42
2.0
291
     1
 43
0.36
  3
Standard
 44
4.0
300

342
11
174
     1
178
     6
175
     1
176
     0
 93
-1056964608
 45
4.0
292
     0
297
     0
 46
4.0
 94
-1056964608
 47
1.0
 49
1.0
140
1.0
293
     1
141
0.0
294
     1
177
     0
142
1.0
295
     0
296
     0
143
0.125
1001
ACAD_MLEADERVER
1070
     2
  0
MLINESTYLE
  5
18
102
{ACAD_REACTORS
330
17
102
}
330
17
100
AcDbMlineStyle
  2
STANDARD
 70
     0
  3

 62
   256
 51
90.0
 52
90.0
 71
     2
 49
0.5
 62
   256
  6
BYLAYER
 49
-0.5
 62
   256
  6
BYLAYER
  0
ACDBPLACEHOLDER
  5
F
102
{ACAD_REACTORS
330
E
102
}
330
E
  0
SCALE
  5
39A
102
{ACAD_REACTORS
330
399
102
}
330
399
100
AcDbScale
 70
     0
300
1:1
140
1.0
141
1.0
290
     1
  0
SCALE
  5
39B
102
{ACAD_REACTORS
330
399
102
}
330
399
100
AcDbScale
 70
     0
300
1:2
140
1.0
141
2.0
290
     0
  0
SCALE
  5
39C
102
{ACAD_REACTORS
330
399
102
}
330
399
100
AcDbScale
 70
     0
300
1:4
140
1.0
141
4.0
290
     0
  0
SCALE
  5
39D
102
{ACAD_REACTORS
330
399
102
}
330
399
100
AcDbScale
 70
     0
300
1:5
140
1.0
141
5.0
290
     0
  0
SCALE
  5
39E
102
{ACAD_REACTORS
330
399
102
}
330
399
100
AcDbScale
 70
     0
300
1:8
140
1.0
141
8.0
290
     0
  0
SCALE
  5
39F
102
{ACAD_REACTORS
330
399
102
}
330
399
100
AcDbScale
 70
     0
300
1:10
140
1.0
141
10.0
290
     0
  0
SCALE
  5
3A0
102
{ACAD_REACTORS
330
399
102
}
330
399
100
AcDbScale
 70
     0
300
1:16
140
1.0
141
16.0
290
     0
  0
SCALE
  5
3A1
102
{ACAD_REACTORS
330
399
102
}
330
399
100
AcDbScale
 70
     0
300
1:20
140
1.0
141
20.0
290
     0
  0
SCALE
  5
3A2
102
{ACAD_REACTORS
330
399
102
}
330
399
100
AcDbScale
 70
     0
300
1:30
140
1.0
141
30.0
290
     0
  0
SCALE
  5
3A3
102
{ACAD_REACTORS
330
399
102
}
330
399
100
AcDbScale
 70
     0
300
1:40
140
1.0
141
40.0
290
     0
  0
SCALE
  5
3A4
102
{ACAD_REACTORS
330
399
102
}
330
399
100
AcDbScale
 70
     0
300
1:50
140
1.0
141
50.0
290
     0
  0
SCALE
  5
3A5
102
{ACAD_REACTORS
330
399
102
}
330
399
100
AcDbScale
 70
     0
300
1:100
140
1.0
141
100.0
290
     0
  0
SCALE
  5
3A6
102
{ACAD_REACTORS
330
399
102
}
330
399
100
AcDbScale
 70
     0
300
2:1
140
2.0
141
1.0
290
     0
  0
SCALE
  5
3A7
102
{ACAD_REACTORS
330
399
102
}
330
399
100
AcDbScale
 70
     0
300
4:1
140
4.0
141
1.0
290
     0
  0
SCALE
  5
3A8
102
{ACAD_REACTORS
330
399
102
}
330
399
100
AcDbScale
 70
     0
300
8:1
140
8.0
141
1.0
290
     0
  0
SCALE
  5
3A9
102
{ACAD_REACTORS
330
399
102
}
330
399
100
AcDbScale
 70
     0
300
10:1
140
10.0
141
1.0
290
     0
  0
SCALE
  5
3AA
102
{ACAD_REACTORS
330
399
102
}
330
399
100
AcDbScale
 70
     0
300
100:1
140
100.0
141
1.0
290
     0
  0
TABLESTYLE
  5
92
102
{ACAD_XDICTIONARY
360
3C0
102
}
102
{ACAD_REACTORS
330
91
102
}
330
91
100
AcDbTableStyle
  3
Standard
 70
     0
 71
     0
 40
1.5
 41
1.5
280
     0
281
     0
  7
Standard
140
4.5
170
     2
 62
     0
 63
     7
283
     0
274
    -2
284
     1
 64
     0
275
    -2
285
     1
 65
     0
276
    -2
286
     1
 66
     0
277
    -2
287
     1
 67
     0
278
    -2
288
     1
 68
     0
279
    -2
289
     1
 69
     0
  7
Standard
140
6.0
170
     5
 62
     0
 63
     7
283
     0
274
    -2
284
     1
 64
     0
275
    -2
285
     1
 65
     0
276
    -2
286
     1
 66
     0
277
    -2
287
     1
 67
     0
278
    -2
288
     1
 68
     0
279
    -2
289
     1
 69
     0
  7
Standard
140
4.5
170
     5
 62
     0
 63
     7
283
     0
274
    -2
284
     1
 64
     0
275
    -2
285
     1
 65
     0
276
    -2
286
     1
 66
     0
277
    -2
287
     1
 67
     0
278
    -2
288
     1
 68
     0
279
    -2
289
     1
 69
     0
  0
VISUALSTYLE
  5
38B
102
{ACAD_XDICTIONARY
360
3D8
102
}
102
{ACAD_REACTORS
330
385
102
}
330
385
100
AcDbVisualStyle
  2
2dWireframe
 70
     4
 71
     0
 72
     2
 73
     0
 90
        0
 40
-0.6
 41
-30.0
 62
     5
 63
     7
 74
     1
 91
        4
 64
     7
 65
   257
 75
     1
175
     1
 42
1.0
 92
        0
 66
   257
 43
1.0
 76
     1
 77
     6
 78
     2
 67
     7
 79
     5
170
     0
171
     0
290
     0
174
     0
 93
        1
 44
0.0
173
     0
291
     0
 45
0.0
1001
ACAD
1000
AcDbSavedByObjectVersion
1070
     0
  0
VISUALSTYLE
  5
38D
102
{ACAD_XDICTIONARY
360
3DC
102
}
102
{ACAD_REACTORS
330
385
102
}
330
385
100
AcDbVisualStyle
  2
3D Hidden
 70
     6
 71
     1
 72
     2
 73
     2
 90
        0
 40
-0.6
 41
-30.0
 62
     5
 63
     7
 74
     2
 91
        2
 64
     7
 65
   257
 75
     2
175
     1
 42
179.0
 92
        0
 66
   257
 43
1.0
 76
     1
 77
     6
 78
     2
 67
     7
 79
     3
170
     0
171
     0
290
     0
174
     0
 93
        1
 44
0.0
173
     0
291
     0
 45
0.0
1001
ACAD
1000
AcDbSavedByObjectVersion
1070
     0
  0
VISUALSTYLE
  5
38C
102
{ACAD_XDICTIONARY
360
3DA
102
}
102
{ACAD_REACTORS
330
385
102
}
330
385
100
AcDbVisualStyle
  2
3dWireframe
 70
     5
 71
     0
 72
     2
 73
     0
 90
        0
 40
-0.6
 41
-30.0
 62
     5
 63
     7
 74
     1
 91
        4
 64
     7
 65
   257
 75
     1
175
     1
 42
1.0
 92
        0
 66
   257
 43
1.0
 76
     1
 77
     6
 78
     2
 67
     7
 79
     5
170
     0
171
     0
290
     0
174
     0
 93
        1
 44
0.0
173
     0
291
     0
 45
0.0
1001
ACAD
1000
AcDbSavedByObjectVersion
1070
     0
  0
VISUALSTYLE
  5
38A
102
{ACAD_XDICTIONARY
360
3D6
102
}
102
{ACAD_REACTORS
330
385
102
}
330
385
100
AcDbVisualStyle
  2
Basic
 70
     7
 71
     1
 72
     0
 73
     1
 90
        0
 40
-0.6
 41
-30.0
 62
     5
 63
     7
 74
     0
 91
        4
 64
     7
 65
   257
 75
     1
175
     1
 42
1.0
 92
        8
 66
     7
 43
1.0
 76
     1
 77
     6
 78
     2
 67
     7
 79
     5
170
     0
171
     0
290
     0
174
     0
 93
        1
 44
0.0
173
     0
291
     1
 45
0.0
1001
ACAD
1000
AcDbSavedByObjectVersion
1070
     0
  0
VISUALSTYLE
  5
391
102
{ACAD_XDICTIONARY
360
3E4
102
}
102
{ACAD_REACTORS
330
385
102
}
330
385
100
AcDbVisualStyle
  2
Brighten
 70
    12
 71
     2
 72
     2
 73
     0
 90
        0
 40
-0.6
 41
-30.0
 62
     5
 63
     7
 74
     1
 91
        4
 64
     7
 65
   257
 75
     1
175
     1
 42
1.0
 92
        8
 66
     7
 43
1.0
 76
     1
 77
     6
 78
     2
 67
     7
 79
     5
170
     0
171
     0
290
     0
174
     0
 93
        1
 44
50.0
173
     0
291
     1
 45
0.0
1001
ACAD
1000
AcDbSavedByObjectVersion
1070
     0
  0
VISUALSTYLE
  5
395
102
{ACAD_XDICTIONARY
360
3EC
102
}
102
{ACAD_REACTORS
330
385
102
}
330
385
100
AcDbVisualStyle
  2
ColorChange
 70
    16
 71
     2
 72
     2
 73
     3
 90
        0
 40
-0.6
 41
-30.0
 62
     5
 63
     8
 74
     1
 91
        4
 64
     7
 65
   257
 75
     1
175
     1
 42
1.0
 92
        8
 66
     8
 43
1.0
 76
     1
 77
     6
 78
     2
 67
     7
 79
     5
170
     0
171
     0
290
     0
174
     0
 93
        1
 44
0.0
173
     0
291
     1
 45
0.0
1001
ACAD
1000
AcDbSavedByObjectVersion
1070
     0
  0
VISUALSTYLE
  5
38E
102
{ACAD_XDICTIONARY
360
3DE
102
}
102
{ACAD_REACTORS
330
385
102
}
330
385
100
AcDbVisualStyle
  2
Conceptual
 70
     9
 71
     3
 72
     2
 73
     0
 90
        0
 40
-0.6
 41
-30.0
 62
     5
 63
     7
 74
     2
 91
        2
 64
     7
 65
   257
 75
     1
175
     1
 42
179.0
 92
        8
 66
     7
 43
1.0
 76
     1
 77
     6
 78
     2
 67
     7
 79
     3
170
     0
171
     0
290
     0
174
     0
 93
        1
 44
0.0
173
     0
291
     0
 45
0.0
1001
ACAD
1000
AcDbSavedByObjectVersion
1070
     0
  0
VISUALSTYLE
  5
390
102
{ACAD_XDICTIONARY
360
3E2
102
}
102
{ACAD_REACTORS
330
385
102
}
330
385
100
AcDbVisualStyle
  2
Dim
 70
    11
 71
     2
 72
     2
 73
     0
 90
        0
 40
-0.6
 41
-30.0
 62
     5
 63
     7
 74
     1
 91
        4
 64
     7
 65
   257
 75
     1
175
     1
 42
1.0
 92
        8
 66
     7
 43
1.0
 76
     1
 77
     6
 78
     2
 67
     7
 79
     5
170
     0
171
     0
290
     0
174
     0
 93
        1
 44
-50.0
173
     0
291
     1
 45
0.0
1001
ACAD
1000
AcDbSavedByObjectVersion
1070
     0
  0
VISUALSTYLE
  5
398
102
{ACAD_XDICTIONARY
360
3F2
102
}
102
{ACAD_REACTORS
330
385
102
}
330
385
100
AcDbVisualStyle
  2
EdgeColorOff
 70
    22
 71
     2
 72
     2
 73
     0
 90
        0
 40
-0.6
 41
-30.0
 62
     5
 63
     7
 74
     1
 91
        4
 64
     7
 65
   257
 75
     1
175
     1
 42
1.0
 92
        8
 66
     7
 43
1.0
 76
     1
 77
     6
 78
     2
 67
     7
 79
     5
170
     0
171
     0
290
     0
174
     0
 93
        1
 44
0.0
173
     0
291
     1
 45
0.0
1001
ACAD
1000
AcDbSavedByObjectVersion
1070
     0
  0
VISUALSTYLE
  5
394
102
{ACAD_XDICTIONARY
360
3EA
102
}
102
{ACAD_REACTORS
330
385
102
}
330
385
100
AcDbVisualStyle
  2
Facepattern
 70
    15
 71
     2
 72
     2
 73
     0
 90
        0
 40
-0.6
 41
-30.0
 62
     5
 63
     7
 74
     1
 91
        4
 64
     7
 65
   257
 75
     1
175
     1
 42
1.0
 92
        8
 66
     7
 43
1.0
 76
     1
 77
     6
 78
     2
 67
     7
 79
     5
170
     0
171
     0
290
     0
174
     0
 93
        1
 44
0.0
173
     0
291
     1
 45
0.0
1001
ACAD
1000
AcDbSavedByObjectVersion
1070
     0
  0
VISUALSTYLE
  5
386
102
{ACAD_XDICTIONARY
360
3CE
102
}
102
{ACAD_REACTORS
330
385
102
}
330
385
100
AcDbVisualStyle
  2
Flat
 70
     0
 71
     2
 72
     1
 73
     1
 90
        2
 40
-0.6
 41
30.0
 62
     5
 63
     7
 74
     0
 91
        4
 64
     7
 65
   257
 75
     1
175
     1
 42
1.0
 92
        8
 66
     7
 43
1.0
 76
     1
 77
     6
 78
     2
 67
     7
 79
     5
170
     0
171
     0
290
     0
174
     0
 93
       13
 44
0.0
173
     0
291
     1
 45
0.0
1001
ACAD
1000
AcDbSavedByObjectVersion
1070
     0
  0
VISUALSTYLE
  5
387
102
{ACAD_XDICTIONARY
360
3D0
102
}
102
{ACAD_REACTORS
330
385
102
}
330
385
100
AcDbVisualStyle
  2
FlatWithEdges
 70
     1
 71
     2
 72
     1
 73
     1
 90
        2
 40
-0.6
 41
30.0
 62
     5
 63
     7
 74
     1
 91
        4
 64
     7
 65
   257
 75
     1
175
     1
 42
1.0
 92
        0
 66
   257
 43
1.0
 76
     1
 77
     6
 78
     2
 67
     7
 79
     5
170
     0
171
     0
290
     0
174
     0
 93
       13
 44
0.0
173
     0
291
     1
 45
0.0
1001
ACAD
1000
AcDbSavedByObjectVersion
1070
     0
  0
VISUALSTYLE
  5
388
102
{ACAD_XDICTIONARY
360
3D2
102
}
102
{ACAD_REACTORS
330
385
102
}
330
385
100
AcDbVisualStyle
  2
Gouraud
 70
     2
 71
     2
 72
     2
 73
     1
 90
        2
 40
-0.6
 41
30.0
 62
     5
 63
     7
 74
     0
 91
        4
 64
     7
 65
   257
 75
     1
175
     1
 42
1.0
 92
        0
 66
     7
 43
1.0
 76
     1
 77
     6
 78
     2
 67
     7
 79
     5
170
     0
171
     0
290
     0
174
     0
 93
       13
 44
0.0
173
     0
291
     1
 45
0.0
1001
ACAD
1000
AcDbSavedByObjectVersion
1070
     0
  0
VISUALSTYLE
  5
389
102
{ACAD_XDICTIONARY
360
3D4
102
}
102
{ACAD_REACTORS
330
385
102
}
330
385
100
AcDbVisualStyle
  2
GouraudWithEdges
 70
     3
 71
     2
 72
     2
 73
     1
 90
        2
 40
-0.6
 41
30.0
 62
     5
 63
     7
 74
     1
 91
        4
 64
     7
 65
   257
 75
     1
175
     1
 42
1.0
 92
        0
 66
   257
 43
1.0
 76
     1
 77
     6
 78
     2
 67
     7
 79
     5
170
     0
171
     0
290
     0
174
     0
 93
       13
 44
0.0
173
     0
291
     1
 45
0.0
1001
ACAD
1000
AcDbSavedByObjectVersion
1070
     0
  0
VISUALSTYLE
  5
396
102
{ACAD_XDICTIONARY
360
3EE
102
}
102
{ACAD_REACTORS
330
385
102
}
330
385
100
AcDbVisualStyle
  2
JitterOff
 70
    20
 71
     2
 72
     2
 73
     0
 90
        0
 40
-0.6
 41
-30.0
 62
     5
 63
     7
 74
     1
 91
        4
 64
     7
 65
   257
 75
     1
175
     1
 42
1.0
 92
       10
 66
     7
 43
1.0
 76
     1
 77
     6
 78
     2
 67
     7
 79
     5
170
     0
171
     0
290
     0
174
     0
 93
        1
 44
0.0
173
     0
291
     1
 45
0.0
1001
ACAD
1000
AcDbSavedByObjectVersion
1070
     0
  0
VISUALSTYLE
  5
393
102
{ACAD_XDICTIONARY
360
3E8
102
}
102
{ACAD_REACTORS
330
385
102
}
330
385
100
AcDbVisualStyle
  2
Linepattern
 70
    14
 71
     2
 72
     2
 73
     0
 90
        0
 40
-0.6
 41
-30.0
 62
     5
 63
     7
 74
     1
 91
        4
 64
     7
 65
   257
 75
     7
175
     7
 42
1.0
 92
        8
 66
     7
 43
1.0
 76
     1
 77
     6
 78
     2
 67
     7
 79
     5
170
     0
171
     0
290
     0
174
     0
 93
        1
 44
0.0
173
     0
291
     1
 45
0.0
1001
ACAD
1000
AcDbSavedByObjectVersion
1070
     0
  0
VISUALSTYLE
  5
397
102
{ACAD_XDICTIONARY
360
3F0
102
}
102
{ACAD_REACTORS
330
385
102
}
330
385
100
AcDbVisualStyle
  2
OverhangOff
 70
    21
 71
     2
 72
     2
 73
     0
 90
        0
 40
-0.6
 41
-30.0
 62
     5
 63
     7
 74
     1
 91
        4
 64
     7
 65
   257
 75
     1
175
     1
 42
1.0
 92
        9
 66
     7
 43
1.0
 76
     1
 77
     6
 78
     2
 67
     7
 79
     5
170
     0
171
     0
290
     0
174
     0
 93
        1
 44
0.0
173
     0
291
     1
 45
0.0
1001
ACAD
1000
AcDbSavedByObjectVersion
1070
     0
  0
VISUALSTYLE
  5
38F
102
{ACAD_XDICTIONARY
360
3E0
102
}
102
{ACAD_REACTORS
330
385
102
}
330
385
100
AcDbVisualStyle
  2
Realistic
 70
     8
 71
     2
 72
     2
 73
     0
 90
        0
 40
-0.6
 41
-30.0
 62
     5
 63
     7
 74
     1
 91
        0
 64
     7
 65
   257
 75
     1
175
     1
 42
1.0
 92
        8
 66
     8
 43
1.0
 76
     1
 77
     6
 78
     2
 67
     7
 79
     5
170
     0
171
     0
290
     0
174
     0
 93
       13
 44
0.0
173
     0
291
     0
 45
0.0
1001
ACAD
1000
AcDbSavedByObjectVersion
1070
     0
  0
VISUALSTYLE
  5
392
102
{ACAD_XDICTIONARY
360
3E6
102
}
102
{ACAD_REACTORS
330
385
102
}
330
385
100
AcDbVisualStyle
  2
Thicken
 70
    13
 71
     2
 72
     2
 73
     0
 90
        0
 40
-0.6
 41
-30.0
 62
     5
 63
     7
 74
     1
 91
        4
 64
     7
 65
   257
 75
     1
175
     1
 42
1.0
 92
       12
 66
     7
 43
1.0
 76
     1
 77
     6
 78
     2
 67
     7
 79
     5
170
     0
171
     0
290
     0
174
     0
 93
        1
 44
0.0
173
     0
291
     1
 45
0.0
1001
ACAD
1000
AcDbSavedByObjectVersion
1070
     0
  0
DICTIONARYVAR
  5
3BC
102
{ACAD_REACTORS
330
86
102
}
330
86
100
DictionaryVariables
280
     0
  1
1:1
  0
DICTIONARYVAR
  5
3BB
102
{ACAD_REACTORS
330
86
102
}
330
86
100
DictionaryVariables
280
     0
  1
STANDARD
  0
DICTIONARYVAR
  5
DE
102
{ACAD_REACTORS
330
86
102
}
330
86
100
DictionaryVariables
280
     0
  1
STANDARD
  0
DICTIONARYVAR
  5
88
102
{ACAD_REACTORS
330
86
102
}
330
86
100
DictionaryVariables
280
     0
  1
2
  0
DICTIONARYVAR
  5
87
102
{ACAD_REACTORS
330
86
102
}
330
86
100
DictionaryVariables
280
     0
  1
1
  0
DICTIONARYVAR
  5
3BE
102
{ACAD_REACTORS
330
86
102
}
330
86
100
DictionaryVariables
280
     0
  1
0
  0
DICTIONARYVAR
  5
161
102
{ACAD_REACTORS
330
86
102
}
330
86
100
DictionaryVariables
280
     0
  1

  0
DICTIONARYVAR
  5
3BD
102
{ACAD_REACTORS
330
86
102
}
330
86
100
DictionaryVariables
280
     0
  1
127
  0
DICTIONARYVAR
  5
3BF
102
{ACAD_REACTORS
330
86
102
}
330
86
100
DictionaryVariables
280
     0
  1
2
  0
XRECORD
  5
84
102
{ACAD_REACTORS
330
82
102
}
330
82
100
AcDbXrecord
280
     1
330
0
330
71
  0
DICTIONARY
  5
3C4
330
1E
100
AcDbDictionary
280
     1
281
     1
  3
ACAD_XREC_ROUNDTRIP
360
3C5
  0
DICTIONARY
  5
3C8
330
26
100
AcDbDictionary
280
     1
281
     1
  3
ACAD_XREC_ROUNDTRIP
360
3C9
  0
DICTIONARY
  5
3C6
330
22
100
AcDbDictionary
280
     1
281
     1
  3
ACAD_XREC_ROUNDTRIP
360
3C7
  0
DICTIONARY
  5
376
330
375
100
AcDbDictionary
280
     1
281
     1
  3
ACAD_XREC_ROUNDTRIP
360
3CC
  3
BUMPTILE
360
378
  3
DIFFUSETILE
360
377
  3
OPACITYTILE
360
37B
  3
REFLECTIONTILE
360
37A
  3
REFRACTIONTILE
360
37C
  3
SPECULARTILE
360
379
  0
DICTIONARY
  5
36E
330
36D
100
AcDbDictionary
280
     1
281
     1
  3
ACAD_XREC_ROUNDTRIP
360
3CB
  3
BUMPTILE
360
370
  3
DIFFUSETILE
360
36F
  3
OPACITYTILE
360
373
  3
REFLECTIONTILE
360
372
  3
REFRACTIONTILE
360
374
  3
SPECULARTILE
360
371
  0
DICTIONARY
  5
37E
330
37D
100
AcDbDictionary
280
     1
281
     1
  3
ACAD_XREC_ROUNDTRIP
360
3CD
  3
BUMPTILE
360
380
  3
DIFFUSETILE
360
37F
  3
OPACITYTILE
360
383
  3
REFLECTIONTILE
360
382
  3
REFRACTIONTILE
360
384
  3
SPECULARTILE
360
381
  0
DICTIONARY
  5
3C0
330
92
100
AcDbDictionary
280
     1
281
     1
  3
ACAD_ROUNDTRIP_2008_TABLESTYLE_CELLSTYLEMAP
360
3C1
  3
ACAD_XREC_ROUNDTRIP
360
3CA
  0
DICTIONARY
  5
3D8
330
38B
100
AcDbDictionary
280
     1
281
     1
  3
ACAD_XREC_ROUNDTRIP
360
3D9
  0
DICTIONARY
  5
3DC
330
38D
100
AcDbDictionary
280
     1
281
     1
  3
ACAD_XREC_ROUNDTRIP
360
3DD
  0
DICTIONARY
  5
3DA
330
38C
100
AcDbDictionary
280
     1
281
     1
  3
ACAD_XREC_ROUNDTRIP
360
3DB
  0
DICTIONARY
  5
3D6
330
38A
100
AcDbDictionary
280
     1
281
     1
  3
ACAD_XREC_ROUNDTRIP
360
3D7
  0
DICTIONARY
  5
3E4
330
391
100
AcDbDictionary
280
     1
281
     1
  3
ACAD_XREC_ROUNDTRIP
360
3E5
  0
DICTIONARY
  5
3EC
330
395
100
AcDbDictionary
280
     1
281
     1
  3
ACAD_XREC_ROUNDTRIP
360
3ED
  0
DICTIONARY
  5
3DE
330
38E
100
AcDbDictionary
280
     1
281
     1
  3
ACAD_XREC_ROUNDTRIP
360
3DF
  0
DICTIONARY
  5
3E2
330
390
100
AcDbDictionary
280
     1
281
     1
  3
ACAD_XREC_ROUNDTRIP
360
3E3
  0
DICTIONARY
  5
3F2
330
398
100
AcDbDictionary
280
     1
281
     1
  3
ACAD_XREC_ROUNDTRIP
360
3F3
  0
DICTIONARY
  5
3EA
330
394
100
AcDbDictionary
280
     1
281
     1
  3
ACAD_XREC_ROUNDTRIP
360
3EB
  0
DICTIONARY
  5
3CE
330
386
100
AcDbDictionary
280
     1
281
     1
  3
ACAD_XREC_ROUNDTRIP
360
3CF
  0
DICTIONARY
  5
3D0
330
387
100
AcDbDictionary
280
     1
281
     1
  3
ACAD_XREC_ROUNDTRIP
360
3D1
  0
DICTIONARY
  5
3D2
330
388
100
AcDbDictionary
280
     1
281
     1
  3
ACAD_XREC_ROUNDTRIP
360
3D3
  0
DICTIONARY
  5
3D4
330
389
100
AcDbDictionary
280
     1
281
     1
  3
ACAD_XREC_ROUNDTRIP
360
3D5
  0
DICTIONARY
  5
3EE
330
396
100
AcDbDictionary
280
     1
281
     1
  3
ACAD_XREC_ROUNDTRIP
360
3EF
  0
DICTIONARY
  5
3E8
330
393
100
AcDbDictionary
280
     1
281
     1
  3
ACAD_XREC_ROUNDTRIP
360
3E9
  0
DICTIONARY
  5
3F0
330
397
100
AcDbDictionary
280
     1
281
     1
  3
ACAD_XREC_ROUNDTRIP
360
3F1
  0
DICTIONARY
  5
3E0
330
38F
100
AcDbDictionary
280
     1
281
     1
  3
ACAD_XREC_ROUNDTRIP
360
3E1
  0
DICTIONARY
  5
3E6
330
392
100
AcDbDictionary
280
     1
281
     1
  3
ACAD_XREC_ROUNDTRIP
360
3E7
  0
XRECORD
  5
3C5
102
{ACAD_REACTORS
330
3C4
102
}
330
3C4
100
AcDbXrecord
280
     1
102
SHADEPLOT
 70
     0
102
SHADEPLOTRESLEVEL
 70
     2
102
SHADEPLOTCUSTOMDPI
 70
   300
  0
XRECORD
  5
3C9
102
{ACAD_REACTORS
330
3C8
102
}
330
3C8
100
AcDbXrecord
280
     1
102
SHADEPLOT
 70
     0
102
SHADEPLOTRESLEVEL
 70
     2
102
SHADEPLOTCUSTOMDPI
 70
   300
  0
XRECORD
  5
3C7
102
{ACAD_REACTORS
330
3C6
102
}
330
3C6
100
AcDbXrecord
280
     1
102
SHADEPLOT
 70
     0
102
SHADEPLOTRESLEVEL
 70
     2
102
SHADEPLOTCUSTOMDPI
 70
   300
  0
XRECORD
  5
3CC
102
{ACAD_REACTORS
330
376
102
}
330
376
100
AcDbXrecord
280
     1
102
MATERIAL
148
0.0
149
0.0
149
0.0
 93
        0
 94
      127
282
     0
 72
     0
 77
     0
171
     0
175
     0
179
     0
273
     0
  0
XRECORD
  5
378
102
{ACAD_REACTORS
330
376
102
}
330
376
100
AcDbXrecord
280
     1
270
     1
271
     1
  0
XRECORD
  5
377
102
{ACAD_REACTORS
330
376
102
}
330
376
100
AcDbXrecord
280
     1
270
     1
271
     1
  0
XRECORD
  5
37B
102
{ACAD_REACTORS
330
376
102
}
330
376
100
AcDbXrecord
280
     1
270
     1
271
     1
  0
XRECORD
  5
37A
102
{ACAD_REACTORS
330
376
102
}
330
376
100
AcDbXrecord
280
     1
270
     1
271
     1
  0
XRECORD
  5
37C
102
{ACAD_REACTORS
330
376
102
}
330
376
100
AcDbXrecord
280
     1
270
     1
271
     1
  0
XRECORD
  5
379
102
{ACAD_REACTORS
330
376
102
}
330
376
100
AcDbXrecord
280
     1
270
     1
271
     1
  0
XRECORD
  5
3CB
102
{ACAD_REACTORS
330
36E
102
}
330
36E
100
AcDbXrecord
280
     1
102
MATERIAL
148
0.0
149
0.0
149
0.0
 93
        0
 94
      127
282
     0
 72
     0
 77
     0
171
     0
175
     0
179
     0
273
     0
  0
XRECORD
  5
370
102
{ACAD_REACTORS
330
36E
102
}
330
36E
100
AcDbXrecord
280
     1
270
     1
271
     1
  0
XRECORD
  5
36F
102
{ACAD_REACTORS
330
36E
102
}
330
36E
100
AcDbXrecord
280
     1
270
     1
271
     1
  0
XRECORD
  5
373
102
{ACAD_REACTORS
330
36E
102
}
330
36E
100
AcDbXrecord
280
     1
270
     1
271
     1
  0
XRECORD
  5
372
102
{ACAD_REACTORS
330
36E
102
}
330
36E
100
AcDbXrecord
280
     1
270
     1
271
     1
  0
XRECORD
  5
374
102
{ACAD_REACTORS
330
36E
102
}
330
36E
100
AcDbXrecord
280
     1
270
     1
271
     1
  0
XRECORD
  5
371
102
{ACAD_REACTORS
330
36E
102
}
330
36E
100
AcDbXrecord
280
     1
270
     1
271
     1
  0
XRECORD
  5
3CD
102
{ACAD_REACTORS
330
37E
102
}
330
37E
100
AcDbXrecord
280
     1
102
MATERIAL
148
0.0
149
0.0
149
0.0
 93
        0
 94
      127
282
     0
 72
     0
 77
     0
171
     0
175
     0
179
     0
273
     0
  0
XRECORD
  5
380
102
{ACAD_REACTORS
330
37E
102
}
330
37E
100
AcDbXrecord
280
     1
270
     1
271
     1
  0
XRECORD
  5
37F
102
{ACAD_REACTORS
330
37E
102
}
330
37E
100
AcDbXrecord
280
     1
270
     1
271
     1
  0
XRECORD
  5
383
102
{ACAD_REACTORS
330
37E
102
}
330
37E
100
AcDbXrecord
280
     1
270
     1
271
     1
  0
XRECORD
  5
382
102
{ACAD_REACTORS
330
37E
102
}
330
37E
100
AcDbXrecord
280
     1
270
     1
271
     1
  0
XRECORD
  5
384
102
{ACAD_REACTORS
330
37E
102
}
330
37E
100
AcDbXrecord
280
     1
270
     1
271
     1
  0
XRECORD
  5
381
102
{ACAD_REACTORS
330
37E
102
}
330
37E
100
AcDbXrecord
280
     1
270
     1
271
     1
  0
CELLSTYLEMAP
  5
3C1
102
{ACAD_REACTORS
330
3C0
102
}
330
3C0
100
AcDbCellStyleMap
 90
        3
300
CELLSTYLE
  1
TABLEFORMAT_BEGIN
 90
        5
170
     1
 91
        0
 92
    32768
 62
   257
 93
        1
300
CONTENTFORMAT
  1
CONTENTFORMAT_BEGIN
 90
        0
 91
        0
 92
        4
 93
        0
300

 40
0.0
140
1.0
 94
        5
 62
     0
340
11
144
6.0
309
CONTENTFORMAT_END
171
     1
301
MARGIN
  1
CELLMARGIN_BEGIN
 40
1.5
 40
1.5
 40
1.5
 40
1.5
 40
0.18
 40
0.18
309
CELLMARGIN_END
 94
        6
 95
        1
302
GRIDFORMAT
  1
GRIDFORMAT_BEGIN
 90
        0
 91
        1
 62
     0
 92
       -2
340
0
 93
        0
 40
0.045
309
GRIDFORMAT_END
 95
        2
302
GRIDFORMAT
  1
GRIDFORMAT_BEGIN
 90
        0
 91
        1
 62
     0
 92
       -2
340
0
 93
        0
 40
0.045
309
GRIDFORMAT_END
 95
        4
302
GRIDFORMAT
  1
GRIDFORMAT_BEGIN
 90
        0
 91
        1
 62
     0
 92
       -2
340
0
 93
        0
 40
0.045
309
GRIDFORMAT_END
 95
        8
302
GRIDFORMAT
  1
GRIDFORMAT_BEGIN
 90
        0
 91
        1
 62
     0
 92
       -2
340
0
 93
        0
 40
0.045
309
GRIDFORMAT_END
 95
       16
302
GRIDFORMAT
  1
GRIDFORMAT_BEGIN
 90
        0
 91
        1
 62
     0
 92
       -2
340
0
 93
        0
 40
0.045
309
GRIDFORMAT_END
 95
       32
302
GRIDFORMAT
  1
GRIDFORMAT_BEGIN
 90
        0
 91
        1
 62
     0
 92
       -2
340
0
 93
        0
 40
0.045
309
GRIDFORMAT_END
309
TABLEFORMAT_END
  1
CELLSTYLE_BEGIN
 90
        1
 91
        1
300
_TITLE
309
CELLSTYLE_END
300
CELLSTYLE
  1
TABLEFORMAT_BEGIN
 90
        5
170
     1
 91
        0
 92
        0
 62
   257
 93
        1
300
CONTENTFORMAT
  1
CONTENTFORMAT_BEGIN
 90
        0
 91
        0
 92
        4
 93
        0
300

 40
0.0
140
1.0
 94
        5
 62
     0
340
11
144
4.5
309
CONTENTFORMAT_END
171
     1
301
MARGIN
  1
CELLMARGIN_BEGIN
 40
1.5
 40
1.5
 40
1.5
 40
1.5
 40
0.18
 40
0.18
309
CELLMARGIN_END
 94
        6
 95
        1
302
GRIDFORMAT
  1
GRIDFORMAT_BEGIN
 90
        0
 91
        1
 62
     0
 92
       -2
340
0
 93
        0
 40
0.045
309
GRIDFORMAT_END
 95
        2
302
GRIDFORMAT
  1
GRIDFORMAT_BEGIN
 90
        0
 91
        1
 62
     0
 92
       -2
340
0
 93
        0
 40
0.045
309
GRIDFORMAT_END
 95
        4
302
GRIDFORMAT
  1
GRIDFORMAT_BEGIN
 90
        0
 91
        1
 62
     0
 92
       -2
340
0
 93
        0
 40
0.045
309
GRIDFORMAT_END
 95
        8
302
GRIDFORMAT
  1
GRIDFORMAT_BEGIN
 90
        0
 91
        1
 62
     0
 92
       -2
340
0
 93
        0
 40
0.045
309
GRIDFORMAT_END
 95
       16
302
GRIDFORMAT
  1
GRIDFORMAT_BEGIN
 90
        0
 91
        1
 62
     0
 92
       -2
340
0
 93
        0
 40
0.045
309
GRIDFORMAT_END
 95
       32
302
GRIDFORMAT
  1
GRIDFORMAT_BEGIN
 90
        0
 91
        1
 62
     0
 92
       -2
340
0
 93
        0
 40
0.045
309
GRIDFORMAT_END
309
TABLEFORMAT_END
  1
CELLSTYLE_BEGIN
 90
        2
 91
        1
300
_HEADER
309
CELLSTYLE_END
300
CELLSTYLE
  1
TABLEFORMAT_BEGIN
 90
        5
170
     1
 91
        0
 92
        0
 62
   257
 93
        1
300
CONTENTFORMAT
  1
CONTENTFORMAT_BEGIN
 90
        0
 91
        0
 92
        4
 93
        0
300

 40
0.0
140
1.0
 94
        2
 62
     0
340
11
144
4.5
309
CONTENTFORMAT_END
171
     1
301
MARGIN
  1
CELLMARGIN_BEGIN
 40
1.5
 40
1.5
 40
1.5
 40
1.5
 40
0.18
 40
0.18
309
CELLMARGIN_END
 94
        6
 95
        1
302
GRIDFORMAT
  1
GRIDFORMAT_BEGIN
 90
        0
 91
        1
 62
     0
 92
       -2
340
0
 93
        0
 40
0.045
309
GRIDFORMAT_END
 95
        2
302
GRIDFORMAT
  1
GRIDFORMAT_BEGIN
 90
        0
 91
        1
 62
     0
 92
       -2
340
0
 93
        0
 40
0.045
309
GRIDFORMAT_END
 95
        4
302
GRIDFORMAT
  1
GRIDFORMAT_BEGIN
 90
        0
 91
        1
 62
     0
 92
       -2
340
0
 93
        0
 40
0.045
309
GRIDFORMAT_END
 95
        8
302
GRIDFORMAT
  1
GRIDFORMAT_BEGIN
 90
        0
 91
        1
 62
     0
 92
       -2
340
0
 93
        0
 40
0.045
309
GRIDFORMAT_END
 95
       16
302
GRIDFORMAT
  1
GRIDFORMAT_BEGIN
 90
        0
 91
        1
 62
     0
 92
       -2
340
0
 93
        0
 40
0.045
309
GRIDFORMAT_END
 95
       32
302
GRIDFORMAT
  1
GRIDFORMAT_BEGIN
 90
        0
 91
        1
 62
     0
 92
       -2
340
0
 93
        0
 40
0.045
309
GRIDFORMAT_END
309
TABLEFORMAT_END
  1
CELLSTYLE_BEGIN
 90
        3
 91
        2
300
_DATA
309
CELLSTYLE_END
  0
XRECORD
  5
3CA
102
{ACAD_REACTORS
330
3C0
102
}
330
3C0
100
AcDbXrecord
280
     1
102
ACAD_ROUNDTRIP_PRE2007_TABLESTYLE
 90
        4
 91
        0
  1

 92
        4
 93
        0
  2

 94
        4
 95
        0
  3

  0
XRECORD
  5
3D9
102
{ACAD_REACTORS
330
3D8
102
}
330
3D8
100
AcDbXrecord
280
     1
102
RTVSPropertyOp0
 70
     1
102
RTVSPropertyOp1
 70
     1
102
RTVSPropertyOp2
 70
     1
102
RTVSPropertyOp3
 70
     1
102
RTVSPropertyOp4
 70
     1
102
RTVSPropertyOp5
 70
     1
102
RTVSPropertyOp6
 70
     1
102
RTVSPropertyOp7
 70
     1
102
RTVSPropertyOp8
 70
     1
102
RTVSPropertyOp9
 70
     1
102
RTVSPropertyOp10
 70
     1
102
RTVSPropertyOp11
 70
     1
102
RTVSPropertyOp12
 70
     1
102
RTVSPropertyOp13
 70
     1
102
RTVSPropertyOp14
 70
     1
102
RTVSPropertyOp15
 70
     1
102
RTVSPropertyOp16
 70
     1
102
RTVSPropertyOp17
 70
     1
102
RTVSPropertyOp18
 70
     1
102
RTVSPropertyOp19
 70
     1
102
RTVSPropertyOp20
 70
     1
102
RTVSPropertyOp21
 70
     1
102
RTVSPropertyOp22
 70
     1
102
RTVSPropertyOp23
 70
     1
102
RTVSPropertyOp24
 70
     1
102
RTVSPropertyOp25
 70
     1
102
RTVSPropertyOp26
 70
     1
102
RTVSPropertyOp27
 70
     1
  0
XRECORD
  5
3DD
102
{ACAD_REACTORS
330
3DC
102
}
330
3DC
100
AcDbXrecord
280
     1
102
RTVSPropertyOp0
 70
     1
102
RTVSPropertyOp1
 70
     1
102
RTVSPropertyOp2
 70
     1
102
RTVSPropertyOp3
 70
     1
102
RTVSPropertyOp4
 70
     1
102
RTVSPropertyOp5
 70
     1
102
RTVSPropertyOp6
 70
     1
102
RTVSPropertyOp7
 70
     1
102
RTVSPropertyOp8
 70
     1
102
RTVSPropertyOp9
 70
     1
102
RTVSPropertyOp10
 70
     1
102
RTVSPropertyOp11
 70
     1
102
RTVSPropertyOp12
 70
     1
102
RTVSPropertyOp13
 70
     1
102
RTVSPropertyOp14
 70
     1
102
RTVSPropertyOp15
 70
     1
102
RTVSPropertyOp16
 70
     1
102
RTVSPropertyOp17
 70
     1
102
RTVSPropertyOp18
 70
     1
102
RTVSPropertyOp19
 70
     1
102
RTVSPropertyOp20
 70
     1
102
RTVSPropertyOp21
 70
     1
102
RTVSPropertyOp22
 70
     1
102
RTVSPropertyOp23
 70
     1
102
RTVSPropertyOp24
 70
     1
102
RTVSPropertyOp25
 70
     1
102
RTVSPropertyOp26
 70
     1
102
RTVSPropertyOp27
 70
     1
  0
XRECORD
  5
3DB
102
{ACAD_REACTORS
330
3DA
102
}
330
3DA
100
AcDbXrecord
280
     1
102
RTVSPropertyOp0
 70
     1
102
RTVSPropertyOp1
 70
     1
102
RTVSPropertyOp2
 70
     1
102
RTVSPropertyOp3
 70
     1
102
RTVSPropertyOp4
 70
     1
102
RTVSPropertyOp5
 70
     1
102
RTVSPropertyOp6
 70
     1
102
RTVSPropertyOp7
 70
     1
102
RTVSPropertyOp8
 70
     1
102
RTVSPropertyOp9
 70
     1
102
RTVSPropertyOp10
 70
     1
102
RTVSPropertyOp11
 70
     1
102
RTVSPropertyOp12
 70
     1
102
RTVSPropertyOp13
 70
     1
102
RTVSPropertyOp14
 70
     1
102
RTVSPropertyOp15
 70
     1
102
RTVSPropertyOp16
 70
     1
102
RTVSPropertyOp17
 70
     1
102
RTVSPropertyOp18
 70
     1
102
RTVSPropertyOp19
 70
     1
102
RTVSPropertyOp20
 70
     1
102
RTVSPropertyOp21
 70
     1
102
RTVSPropertyOp22
 70
     1
102
RTVSPropertyOp23
 70
     1
102
RTVSPropertyOp24
 70
     1
102
RTVSPropertyOp25
 70
     1
102
RTVSPropertyOp26
 70
     1
102
RTVSPropertyOp27
 70
     1
  0
XRECORD
  5
3D7
102
{ACAD_REACTORS
330
3D6
102
}
330
3D6
100
AcDbXrecord
280
     1
102
RTVSPropertyOp0
 70
     1
102
RTVSPropertyOp1
 70
     1
102
RTVSPropertyOp2
 70
     1
102
RTVSPropertyOp3
 70
     1
102
RTVSPropertyOp4
 70
     1
102
RTVSPropertyOp5
 70
     1
102
RTVSPropertyOp6
 70
     1
102
RTVSPropertyOp7
 70
     1
102
RTVSPropertyOp8
 70
     1
102
RTVSPropertyOp9
 70
     1
102
RTVSPropertyOp10
 70
     1
102
RTVSPropertyOp11
 70
     1
102
RTVSPropertyOp12
 70
     1
102
RTVSPropertyOp13
 70
     1
102
RTVSPropertyOp14
 70
     1
102
RTVSPropertyOp15
 70
     1
102
RTVSPropertyOp16
 70
     1
102
RTVSPropertyOp17
 70
     1
102
RTVSPropertyOp18
 70
     1
102
RTVSPropertyOp19
 70
     1
102
RTVSPropertyOp20
 70
     1
102
RTVSPropertyOp21
 70
     1
102
RTVSPropertyOp22
 70
     1
102
RTVSPropertyOp23
 70
     1
102
RTVSPropertyOp24
 70
     1
102
RTVSPropertyOp25
 70
     1
102
RTVSPropertyOp26
 70
     1
102
RTVSPropertyOp27
 70
     1
  0
XRECORD
  5
3E5
102
{ACAD_REACTORS
330
3E4
102
}
330
3E4
100
AcDbXrecord
280
     1
102
RTVSPropertyOp0
 70
     1
102
RTVSPropertyOp1
 70
     1
102
RTVSPropertyOp2
 70
     1
102
RTVSPropertyOp3
 70
     1
102
RTVSPropertyOp4
 70
     1
102
RTVSPropertyOp5
 70
     1
102
RTVSPropertyOp6
 70
     1
102
RTVSPropertyOp7
 70
     1
102
RTVSPropertyOp8
 70
     1
102
RTVSPropertyOp9
 70
     1
102
RTVSPropertyOp10
 70
     1
102
RTVSPropertyOp11
 70
     1
102
RTVSPropertyOp12
 70
     1
102
RTVSPropertyOp13
 70
     1
102
RTVSPropertyOp14
 70
     1
102
RTVSPropertyOp15
 70
     1
102
RTVSPropertyOp16
 70
     1
102
RTVSPropertyOp17
 70
     1
102
RTVSPropertyOp18
 70
     1
102
RTVSPropertyOp19
 70
     1
102
RTVSPropertyOp20
 70
     1
102
RTVSPropertyOp21
 70
     1
102
RTVSPropertyOp22
 70
     1
102
RTVSPropertyOp23
 70
     1
102
RTVSPropertyOp24
 70
     1
102
RTVSPropertyOp25
 70
     1
102
RTVSPropertyOp26
 70
     1
102
RTVSPropertyOp27
 70
     1
  0
XRECORD
  5
3ED
102
{ACAD_REACTORS
330
3EC
102
}
330
3EC
100
AcDbXrecord
280
     1
102
RTVSPropertyOp0
 70
     1
102
RTVSPropertyOp1
 70
     1
102
RTVSPropertyOp2
 70
     1
102
RTVSPropertyOp3
 70
     1
102
RTVSPropertyOp4
 70
     1
102
RTVSPropertyOp5
 70
     1
102
RTVSPropertyOp6
 70
     1
102
RTVSPropertyOp7
 70
     1
102
RTVSPropertyOp8
 70
     1
102
RTVSPropertyOp9
 70
     1
102
RTVSPropertyOp10
 70
     1
102
RTVSPropertyOp11
 70
     1
102
RTVSPropertyOp12
 70
     1
102
RTVSPropertyOp13
 70
     1
102
RTVSPropertyOp14
 70
     1
102
RTVSPropertyOp15
 70
     1
102
RTVSPropertyOp16
 70
     1
102
RTVSPropertyOp17
 70
     1
102
RTVSPropertyOp18
 70
     1
102
RTVSPropertyOp19
 70
     1
102
RTVSPropertyOp20
 70
     1
102
RTVSPropertyOp21
 70
     1
102
RTVSPropertyOp22
 70
     1
102
RTVSPropertyOp23
 70
     1
102
RTVSPropertyOp24
 70
     1
102
RTVSPropertyOp25
 70
     1
102
RTVSPropertyOp26
 70
     1
102
RTVSPropertyOp27
 70
     1
  0
XRECORD
  5
3DF
102
{ACAD_REACTORS
330
3DE
102
}
330
3DE
100
AcDbXrecord
280
     1
102
RTVSPropertyOp0
 70
     1
102
RTVSPropertyOp1
 70
     1
102
RTVSPropertyOp2
 70
     1
102
RTVSPropertyOp3
 70
     1
102
RTVSPropertyOp4
 70
     1
102
RTVSPropertyOp5
 70
     1
102
RTVSPropertyOp6
 70
     1
102
RTVSPropertyOp7
 70
     1
102
RTVSPropertyOp8
 70
     1
102
RTVSPropertyOp9
 70
     1
102
RTVSPropertyOp10
 70
     1
102
RTVSPropertyOp11
 70
     1
102
RTVSPropertyOp12
 70
     1
102
RTVSPropertyOp13
 70
     1
102
RTVSPropertyOp14
 70
     1
102
RTVSPropertyOp15
 70
     1
102
RTVSPropertyOp16
 70
     1
102
RTVSPropertyOp17
 70
     1
102
RTVSPropertyOp18
 70
     1
102
RTVSPropertyOp19
 70
     1
102
RTVSPropertyOp20
 70
     1
102
RTVSPropertyOp21
 70
     1
102
RTVSPropertyOp22
 70
     1
102
RTVSPropertyOp23
 70
     1
102
RTVSPropertyOp24
 70
     1
102
RTVSPropertyOp25
 70
     1
102
RTVSPropertyOp26
 70
     1
102
RTVSPropertyOp27
 70
     1
  0
XRECORD
  5
3E3
102
{ACAD_REACTORS
330
3E2
102
}
330
3E2
100
AcDbXrecord
280
     1
102
RTVSPropertyOp0
 70
     1
102
RTVSPropertyOp1
 70
     1
102
RTVSPropertyOp2
 70
     1
102
RTVSPropertyOp3
 70
     1
102
RTVSPropertyOp4
 70
     1
102
RTVSPropertyOp5
 70
     1
102
RTVSPropertyOp6
 70
     1
102
RTVSPropertyOp7
 70
     1
102
RTVSPropertyOp8
 70
     1
102
RTVSPropertyOp9
 70
     1
102
RTVSPropertyOp10
 70
     1
102
RTVSPropertyOp11
 70
     1
102
RTVSPropertyOp12
 70
     1
102
RTVSPropertyOp13
 70
     1
102
RTVSPropertyOp14
 70
     1
102
RTVSPropertyOp15
 70
     1
102
RTVSPropertyOp16
 70
     1
102
RTVSPropertyOp17
 70
     1
102
RTVSPropertyOp18
 70
     1
102
RTVSPropertyOp19
 70
     1
102
RTVSPropertyOp20
 70
     1
102
RTVSPropertyOp21
 70
     1
102
RTVSPropertyOp22
 70
     1
102
RTVSPropertyOp23
 70
     1
102
RTVSPropertyOp24
 70
     1
102
RTVSPropertyOp25
 70
     1
102
RTVSPropertyOp26
 70
     1
102
RTVSPropertyOp27
 70
     1
  0
XRECORD
  5
3F3
102
{ACAD_REACTORS
330
3F2
102
}
330
3F2
100
AcDbXrecord
280
     1
102
RTVSPropertyOp0
 70
     0
102
RTVSPropertyOp1
 70
     0
102
RTVSPropertyOp2
 70
     0
102
RTVSPropertyOp3
 70
     0
102
RTVSPropertyOp4
 70
     0
102
RTVSPropertyOp5
 70
     0
102
RTVSPropertyOp6
 70
     0
102
RTVSPropertyOp7
 70
     0
102
RTVSPropertyOp8
 70
     0
102
RTVSPropertyOp9
 70
     0
102
RTVSPropertyOp10
 70
     0
102
RTVSPropertyOp11
 70
     0
102
RTVSPropertyOp12
 70
     0
102
RTVSPropertyOp13
 70
     0
102
RTVSPropertyOp14
 70
     2
102
RTVSPropertyOp15
 70
     0
102
RTVSPropertyOp16
 70
     0
102
RTVSPropertyOp17
 70
     0
102
RTVSPropertyOp18
 70
     0
102
RTVSPropertyOp19
 70
     0
102
RTVSPropertyOp20
 70
     0
102
RTVSPropertyOp21
 70
     0
102
RTVSPropertyOp22
 70
     0
102
RTVSPropertyOp23
 70
     0
102
RTVSPropertyOp24
 70
     0
102
RTVSPropertyOp25
 70
     0
102
RTVSPropertyOp26
 70
     0
102
RTVSPropertyOp27
 70
     0
  0
XRECORD
  5
3EB
102
{ACAD_REACTORS
330
3EA
102
}
330
3EA
100
AcDbXrecord
280
     1
102
RTVSPropertyOp0
 70
     1
102
RTVSPropertyOp1
 70
     1
102
RTVSPropertyOp2
 70
     1
102
RTVSPropertyOp3
 70
     1
102
RTVSPropertyOp4
 70
     1
102
RTVSPropertyOp5
 70
     1
102
RTVSPropertyOp6
 70
     1
102
RTVSPropertyOp7
 70
     1
102
RTVSPropertyOp8
 70
     1
102
RTVSPropertyOp9
 70
     1
102
RTVSPropertyOp10
 70
     1
102
RTVSPropertyOp11
 70
     1
102
RTVSPropertyOp12
 70
     1
102
RTVSPropertyOp13
 70
     1
102
RTVSPropertyOp14
 70
     1
102
RTVSPropertyOp15
 70
     1
102
RTVSPropertyOp16
 70
     1
102
RTVSPropertyOp17
 70
     1
102
RTVSPropertyOp18
 70
     1
102
RTVSPropertyOp19
 70
     1
102
RTVSPropertyOp20
 70
     1
102
RTVSPropertyOp21
 70
     1
102
RTVSPropertyOp22
 70
     1
102
RTVSPropertyOp23
 70
     1
102
RTVSPropertyOp24
 70
     1
102
RTVSPropertyOp25
 70
     1
102
RTVSPropertyOp26
 70
     1
102
RTVSPropertyOp27
 70
     1
  0
XRECORD
  5
3CF
102
{ACAD_REACTORS
330
3CE
102
}
330
3CE
100
AcDbXrecord
280
     1
102
RTVSPropertyOp0
 70
     1
102
RTVSPropertyOp1
 70
     1
102
RTVSPropertyOp2
 70
     1
102
RTVSPropertyOp3
 70
     1
102
RTVSPropertyOp4
 70
     1
102
RTVSPropertyOp5
 70
     1
102
RTVSPropertyOp6
 70
     1
102
RTVSPropertyOp7
 70
     1
102
RTVSPropertyOp8
 70
     1
102
RTVSPropertyOp9
 70
     1
102
RTVSPropertyOp10
 70
     1
102
RTVSPropertyOp11
 70
     1
102
RTVSPropertyOp12
 70
     1
102
RTVSPropertyOp13
 70
     1
102
RTVSPropertyOp14
 70
     1
102
RTVSPropertyOp15
 70
     1
102
RTVSPropertyOp16
 70
     1
102
RTVSPropertyOp17
 70
     1
102
RTVSPropertyOp18
 70
     1
102
RTVSPropertyOp19
 70
     1
102
RTVSPropertyOp20
 70
     1
102
RTVSPropertyOp21
 70
     1
102
RTVSPropertyOp22
 70
     1
102
RTVSPropertyOp23
 70
     1
102
RTVSPropertyOp24
 70
     1
102
RTVSPropertyOp25
 70
     1
102
RTVSPropertyOp26
 70
     1
102
RTVSPropertyOp27
 70
     1
  0
XRECORD
  5
3D1
102
{ACAD_REACTORS
330
3D0
102
}
330
3D0
100
AcDbXrecord
280
     1
102
RTVSPropertyOp0
 70
     1
102
RTVSPropertyOp1
 70
     1
102
RTVSPropertyOp2
 70
     1
102
RTVSPropertyOp3
 70
     1
102
RTVSPropertyOp4
 70
     1
102
RTVSPropertyOp5
 70
     1
102
RTVSPropertyOp6
 70
     1
102
RTVSPropertyOp7
 70
     1
102
RTVSPropertyOp8
 70
     1
102
RTVSPropertyOp9
 70
     1
102
RTVSPropertyOp10
 70
     1
102
RTVSPropertyOp11
 70
     1
102
RTVSPropertyOp12
 70
     1
102
RTVSPropertyOp13
 70
     1
102
RTVSPropertyOp14
 70
     1
102
RTVSPropertyOp15
 70
     1
102
RTVSPropertyOp16
 70
     1
102
RTVSPropertyOp17
 70
     1
102
RTVSPropertyOp18
 70
     1
102
RTVSPropertyOp19
 70
     1
102
RTVSPropertyOp20
 70
     1
102
RTVSPropertyOp21
 70
     1
102
RTVSPropertyOp22
 70
     1
102
RTVSPropertyOp23
 70
     1
102
RTVSPropertyOp24
 70
     1
102
RTVSPropertyOp25
 70
     1
102
RTVSPropertyOp26
 70
     1
102
RTVSPropertyOp27
 70
     1
  0
XRECORD
  5
3D3
102
{ACAD_REACTORS
330
3D2
102
}
330
3D2
100
AcDbXrecord
280
     1
102
RTVSPropertyOp0
 70
     1
102
RTVSPropertyOp1
 70
     1
102
RTVSPropertyOp2
 70
     1
102
RTVSPropertyOp3
 70
     1
102
RTVSPropertyOp4
 70
     1
102
RTVSPropertyOp5
 70
     1
102
RTVSPropertyOp6
 70
     1
102
RTVSPropertyOp7
 70
     1
102
RTVSPropertyOp8
 70
     1
102
RTVSPropertyOp9
 70
     1
102
RTVSPropertyOp10
 70
     1
102
RTVSPropertyOp11
 70
     1
102
RTVSPropertyOp12
 70
     1
102
RTVSPropertyOp13
 70
     1
102
RTVSPropertyOp14
 70
     1
102
RTVSPropertyOp15
 70
     1
102
RTVSPropertyOp16
 70
     1
102
RTVSPropertyOp17
 70
     1
102
RTVSPropertyOp18
 70
     1
102
RTVSPropertyOp19
 70
     1
102
RTVSPropertyOp20
 70
     1
102
RTVSPropertyOp21
 70
     1
102
RTVSPropertyOp22
 70
     1
102
RTVSPropertyOp23
 70
     1
102
RTVSPropertyOp24
 70
     1
102
RTVSPropertyOp25
 70
     1
102
RTVSPropertyOp26
 70
     1
102
RTVSPropertyOp27
 70
     1
  0
XRECORD
  5
3D5
102
{ACAD_REACTORS
330
3D4
102
}
330
3D4
100
AcDbXrecord
280
     1
102
RTVSPropertyOp0
 70
     1
102
RTVSPropertyOp1
 70
     1
102
RTVSPropertyOp2
 70
     1
102
RTVSPropertyOp3
 70
     1
102
RTVSPropertyOp4
 70
     1
102
RTVSPropertyOp5
 70
     1
102
RTVSPropertyOp6
 70
     1
102
RTVSPropertyOp7
 70
     1
102
RTVSPropertyOp8
 70
     1
102
RTVSPropertyOp9
 70
     1
102
RTVSPropertyOp10
 70
     1
102
RTVSPropertyOp11
 70
     1
102
RTVSPropertyOp12
 70
     1
102
RTVSPropertyOp13
 70
     1
102
RTVSPropertyOp14
 70
     1
102
RTVSPropertyOp15
 70
     1
102
RTVSPropertyOp16
 70
     1
102
RTVSPropertyOp17
 70
     1
102
RTVSPropertyOp18
 70
     1
102
RTVSPropertyOp19
 70
     1
102
RTVSPropertyOp20
 70
     1
102
RTVSPropertyOp21
 70
     1
102
RTVSPropertyOp22
 70
     1
102
RTVSPropertyOp23
 70
     1
102
RTVSPropertyOp24
 70
     1
102
RTVSPropertyOp25
 70
     1
102
RTVSPropertyOp26
 70
     1
102
RTVSPropertyOp27
 70
     1
  0
XRECORD
  5
3EF
102
{ACAD_REACTORS
330
3EE
102
}
330
3EE
100
AcDbXrecord
280
     1
102
RTVSPropertyOp0
 70
     0
102
RTVSPropertyOp1
 70
     0
102
RTVSPropertyOp2
 70
     0
102
RTVSPropertyOp3
 70
     0
102
RTVSPropertyOp4
 70
     0
102
RTVSPropertyOp5
 70
     0
102
RTVSPropertyOp6
 70
     0
102
RTVSPropertyOp7
 70
     0
102
RTVSPropertyOp8
 70
     0
102
RTVSPropertyOp9
 70
     0
102
RTVSPropertyOp10
 70
     0
102
RTVSPropertyOp11
 70
     0
102
RTVSPropertyOp12
 70
     0
102
RTVSPropertyOp13
 70
     0
102
RTVSPropertyOp14
 70
     2
102
RTVSPropertyOp15
 70
     0
102
RTVSPropertyOp16
 70
     0
102
RTVSPropertyOp17
 70
     0
102
RTVSPropertyOp18
 70
     0
102
RTVSPropertyOp19
 70
     0
102
RTVSPropertyOp20
 70
     0
102
RTVSPropertyOp21
 70
     0
102
RTVSPropertyOp22
 70
     0
102
RTVSPropertyOp23
 70
     0
102
RTVSPropertyOp24
 70
     0
102
RTVSPropertyOp25
 70
     0
102
RTVSPropertyOp26
 70
     0
102
RTVSPropertyOp27
 70
     0
  0
XRECORD
  5
3E9
102
{ACAD_REACTORS
330
3E8
102
}
330
3E8
100
AcDbXrecord
280
     1
102
RTVSPropertyOp0
 70
     1
102
RTVSPropertyOp1
 70
     1
102
RTVSPropertyOp2
 70
     1
102
RTVSPropertyOp3
 70
     1
102
RTVSPropertyOp4
 70
     1
102
RTVSPropertyOp5
 70
     1
102
RTVSPropertyOp6
 70
     1
102
RTVSPropertyOp7
 70
     1
102
RTVSPropertyOp8
 70
     1
102
RTVSPropertyOp9
 70
     1
102
RTVSPropertyOp10
 70
     1
102
RTVSPropertyOp11
 70
     1
102
RTVSPropertyOp12
 70
     1
102
RTVSPropertyOp13
 70
     1
102
RTVSPropertyOp14
 70
     1
102
RTVSPropertyOp15
 70
     1
102
RTVSPropertyOp16
 70
     1
102
RTVSPropertyOp17
 70
     1
102
RTVSPropertyOp18
 70
     1
102
RTVSPropertyOp19
 70
     1
102
RTVSPropertyOp20
 70
     1
102
RTVSPropertyOp21
 70
     1
102
RTVSPropertyOp22
 70
     1
102
RTVSPropertyOp23
 70
     1
102
RTVSPropertyOp24
 70
     1
102
RTVSPropertyOp25
 70
     1
102
RTVSPropertyOp26
 70
     1
102
RTVSPropertyOp27
 70
     1
  0
XRECORD
  5
3F1
102
{ACAD_REACTORS
330
3F0
102
}
330
3F0
100
AcDbXrecord
280
     1
102
RTVSPropertyOp0
 70
     0
102
RTVSPropertyOp1
 70
     0
102
RTVSPropertyOp2
 70
     0
102
RTVSPropertyOp3
 70
     0
102
RTVSPropertyOp4
 70
     0
102
RTVSPropertyOp5
 70
     0
102
RTVSPropertyOp6
 70
     0
102
RTVSPropertyOp7
 70
     0
102
RTVSPropertyOp8
 70
     0
102
RTVSPropertyOp9
 70
     0
102
RTVSPropertyOp10
 70
     0
102
RTVSPropertyOp11
 70
     0
102
RTVSPropertyOp12
 70
     0
102
RTVSPropertyOp13
 70
     0
102
RTVSPropertyOp14
 70
     2
102
RTVSPropertyOp15
 70
     0
102
RTVSPropertyOp16
 70
     0
102
RTVSPropertyOp17
 70
     0
102
RTVSPropertyOp18
 70
     0
102
RTVSPropertyOp19
 70
     0
102
RTVSPropertyOp20
 70
     0
102
RTVSPropertyOp21
 70
     0
102
RTVSPropertyOp22
 70
     0
102
RTVSPropertyOp23
 70
     0
102
RTVSPropertyOp24
 70
     0
102
RTVSPropertyOp25
 70
     0
102
RTVSPropertyOp26
 70
     0
102
RTVSPropertyOp27
 70
     0
  0
XRECORD
  5
3E1
102
{ACAD_REACTORS
330
3E0
102
}
330
3E0
100
AcDbXrecord
280
     1
102
RTVSPropertyOp0
 70
     1
102
RTVSPropertyOp1
 70
     1
102
RTVSPropertyOp2
 70
     1
102
RTVSPropertyOp3
 70
     1
102
RTVSPropertyOp4
 70
     1
102
RTVSPropertyOp5
 70
     1
102
RTVSPropertyOp6
 70
     1
102
RTVSPropertyOp7
 70
     1
102
RTVSPropertyOp8
 70
     1
102
RTVSPropertyOp9
 70
     1
102
RTVSPropertyOp10
 70
     1
102
RTVSPropertyOp11
 70
     1
102
RTVSPropertyOp12
 70
     1
102
RTVSPropertyOp13
 70
     1
102
RTVSPropertyOp14
 70
     1
102
RTVSPropertyOp15
 70
     1
102
RTVSPropertyOp16
 70
     1
102
RTVSPropertyOp17
 70
     1
102
RTVSPropertyOp18
 70
     1
102
RTVSPropertyOp19
 70
     1
102
RTVSPropertyOp20
 70
     1
102
RTVSPropertyOp21
 70
     1
102
RTVSPropertyOp22
 70
     1
102
RTVSPropertyOp23
 70
     1
102
RTVSPropertyOp24
 70
     1
102
RTVSPropertyOp25
 70
     1
102
RTVSPropertyOp26
 70
     1
102
RTVSPropertyOp27
 70
     1
  0
XRECORD
  5
3E7
102
{ACAD_REACTORS
330
3E6
102
}
330
3E6
100
AcDbXrecord
280
     1
102
RTVSPropertyOp0
 70
     1
102
RTVSPropertyOp1
 70
     1
102
RTVSPropertyOp2
 70
     1
102
RTVSPropertyOp3
 70
     1
102
RTVSPropertyOp4
 70
     1
102
RTVSPropertyOp5
 70
     1
102
RTVSPropertyOp6
 70
     1
102
RTVSPropertyOp7
 70
     1
102
RTVSPropertyOp8
 70
     1
102
RTVSPropertyOp9
 70
     1
102
RTVSPropertyOp10
 70
     1
102
RTVSPropertyOp11
 70
     1
102
RTVSPropertyOp12
 70
     1
102
RTVSPropertyOp13
 70
     1
102
RTVSPropertyOp14
 70
     1
102
RTVSPropertyOp15
 70
     1
102
RTVSPropertyOp16
 70
     1
102
RTVSPropertyOp17
 70
     1
102
RTVSPropertyOp18
 70
     1
102
RTVSPropertyOp19
 70
     1
102
RTVSPropertyOp20
 70
     1
102
RTVSPropertyOp21
 70
     1
102
RTVSPropertyOp22
 70
     1
102
RTVSPropertyOp23
 70
     1
102
RTVSPropertyOp24
 70
     1
102
RTVSPropertyOp25
 70
     1
102
RTVSPropertyOp26
 70
     1
102
RTVSPropertyOp27
 70
     1
  0
ENDSEC
  0
EOF
