  0
SECTION
  2
HEADER
  9
$ACADVER
  1
AC1015
  9
$ACADMAINTVER
 70
    20
  9
$DWGCODEPAGE
  3
ANSI_1252
  9
$INSBASE
 10
0.0
 20
0.0
 30
0.0
  9
$EXTMIN
 10
3735.351163859096
 20
2791.354632595448
 30
0.0
  9
$EXTMAX
 10
3738.850497656716
 20
2792.151378633922
 30
0.0
  9
$LIMMIN
 10
0.0
 20
0.0
  9
$LIMMAX
 10
420.0
 20
297.0
  9
$ORTHOMODE
 70
     1
  9
$REGENMODE
 70
     1
  9
$FILLMODE
 70
     1
  9
$QTEXTMODE
 70
     0
  9
$MIRRTEXT
 70
     1
  9
$LTSCALE
 40
1.0
  9
$ATTMODE
 70
     1
  9
$TEXTSIZE
 40
2.5
  9
$TRACEWID
 40
1.0
  9
$TEXTSTYLE
  7
SANINDUSA
  9
$CLAYER
  8
0
  9
$CELTYPE
  6
ByLayer
  9
$CECOLOR
 62
   256
  9
$CELTSCALE
 40
1.0
  9
$DISPSILH
 70
     0
  9
$DIMSCALE
 40
1.0
  9
$DIMASZ
 40
2.0
  9
$DIMEXO
 40
1.0
  9
$DIMDLI
 40
1.0
  9
$DIMRND
 40
0.0
  9
$DIMDLE
 40
0.0
  9
$DIMEXE
 40
1.0
  9
$DIMTP
 40
0.0
  9
$DIMTM
 40
0.0
  9
$DIMTXT
 40
2.0
  9
$DIMCEN
 40
0.0
  9
$DIMTSZ
 40
0.0
  9
$DIMTOL
 70
     0
  9
$DIMLIM
 70
     0
  9
$DIMTIH
 70
     0
  9
$DIMTOH
 70
     0
  9
$DIMSE1
 70
     0
  9
$DIMSE2
 70
     0
  9
$DIMTAD
 70
     1
  9
$DIMZIN
 70
     8
  9
$DIMBLK
  1

  9
$DIMASO
 70
     1
  9
$DIMSHO
 70
     1
  9
$DIMPOST
  1

  9
$DIMAPOST
  1

  9
$DIMALT
 70
     0
  9
$DIMALTD
 70
     3
  9
$DIMALTF
 40
0.03937007874016
  9
$DIMLFAC
 40
1.0
  9
$DIMTOFL
 70
     1
  9
$DIMTVP
 40
0.0
  9
$DIMTIX
 70
     0
  9
$DIMSOXD
 70
     0
  9
$DIMSAH
 70
     0
  9
$DIMBLK1
  1

  9
$DIMBLK2
  1

  9
$DIMSTYLE
  2
SANINDUSA
  9
$DIMCLRD
 70
   256
  9
$DIMCLRE
 70
   256
  9
$DIMCLRT
 70
   256
  9
$DIMTFAC
 40
1.0
  9
$DIMGAP
 40
1.0
  9
$DIMJUST
 70
     0
  9
$DIMSD1
 70
     0
  9
$DIMSD2
 70
     0
  9
$DIMTOLJ
 70
     0
  9
$DIMTZIN
 70
     8
  9
$DIMALTZ
 70
     0
  9
$DIMALTTZ
 70
     0
  9
$DIMUPT
 70
     0
  9
$DIMDEC
 70
     1
  9
$DIMTDEC
 70
     1
  9
$DIMALTU
 70
     2
  9
$DIMALTTD
 70
     3
  9
$DIMTXSTY
  7
SANINDUSA
  9
$DIMAUNIT
 70
     0
  9
$DIMADEC
 70
     1
  9
$DIMALTRND
 40
0.0
  9
$DIMAZIN
 70
     0
  9
$DIMDSEP
 70
    44
  9
$DIMATFIT
 70
     3
  9
$DIMFRAC
 70
     0
  9
$DIMLDRBLK
  1

  9
$DIMLUNIT
 70
     2
  9
$DIMLWD
 70
    -1
  9
$DIMLWE
 70
    -1
  9
$DIMTMOVE
 70
     0
  9
$LUNITS
 70
     2
  9
$LUPREC
 70
     4
  9
$SKETCHINC
 40
1.0
  9
$FILLETRAD
 40
0.0
  9
$AUNITS
 70
     0
  9
$AUPREC
 70
     0
  9
$MENU
  1
.
  9
$ELEVATION
 40
0.0
  9
$PELEVATION
 40
0.0
  9
$THICKNESS
 40
0.0
  9
$LIMCHECK
 70
     0
  9
$CHAMFERA
 40
10.0
  9
$CHAMFERB
 40
10.0
  9
$CHAMFERC
 40
20.0
  9
$CHAMFERD
 40
0.0
  9
$SKPOLY
 70
     0
  9
$TDCREATE
 40
2456149.618904803
  9
$TDUCREATE
 40
2456149.577238137
  9
$TDUPDATE
 40
2456149.620762801
  9
$TDUUPDATE
 40
2456149.579096134
  9
$TDINDWG
 40
0.0018585417
  9
$TDUSRTIMER
 40
0.0018585417
  9
$USRTIMER
 70
     1
  9
$ANGBASE
 50
0.0
  9
$ANGDIR
 70
     0
  9
$PDMODE
 70
     0
  9
$PDSIZE
 40
0.0
  9
$PLINEWID
 40
0.0
  9
$SPLFRAME
 70
     0
  9
$SPLINETYPE
 70
     6
  9
$SPLINESEGS
 70
     8
  9
$HANDSEED
  5
16DE
  9
$SURFTAB1
 70
     6
  9
$SURFTAB2
 70
     6
  9
$SURFTYPE
 70
     6
  9
$SURFU
 70
     6
  9
$SURFV
 70
     6
  9
$UCSBASE
  2

  9
$UCSNAME
  2

  9
$UCSORG
 10
0.0
 20
0.0
 30
0.0
  9
$UCSXDIR
 10
1.0
 20
0.0
 30
0.0
  9
$UCSYDIR
 10
0.0
 20
1.0
 30
0.0
  9
$UCSORTHOREF
  2

  9
$UCSORTHOVIEW
 70
     0
  9
$UCSORGTOP
 10
0.0
 20
0.0
 30
0.0
  9
$UCSORGBOTTOM
 10
0.0
 20
0.0
 30
0.0
  9
$UCSORGLEFT
 10
0.0
 20
0.0
 30
0.0
  9
$UCSORGRIGHT
 10
0.0
 20
0.0
 30
0.0
  9
$UCSORGFRONT
 10
0.0
 20
0.0
 30
0.0
  9
$UCSORGBACK
 10
0.0
 20
0.0
 30
0.0
  9
$PUCSBASE
  2

  9
$PUCSNAME
  2

  9
$PUCSORG
 10
0.0
 20
0.0
 30
0.0
  9
$PUCSXDIR
 10
1.0
 20
0.0
 30
0.0
  9
$PUCSYDIR
 10
0.0
 20
1.0
 30
0.0
  9
$PUCSORTHOREF
  2

  9
$PUCSORTHOVIEW
 70
     0
  9
$PUCSORGTOP
 10
0.0
 20
0.0
 30
0.0
  9
$PUCSORGBOTTOM
 10
0.0
 20
0.0
 30
0.0
  9
$PUCSORGLEFT
 10
0.0
 20
0.0
 30
0.0
  9
$PUCSORGRIGHT
 10
0.0
 20
0.0
 30
0.0
  9
$PUCSORGFRONT
 10
0.0
 20
0.0
 30
0.0
  9
$PUCSORGBACK
 10
0.0
 20
0.0
 30
0.0
  9
$USERI1
 70
     0
  9
$USERI2
 70
     0
  9
$USERI3
 70
     0
  9
$USERI4
 70
     0
  9
$USERI5
 70
     0
  9
$USERR1
 40
0.0
  9
$USERR2
 40
0.0
  9
$USERR3
 40
0.0
  9
$USERR4
 40
0.0
  9
$USERR5
 40
0.0
  9
$WORLDVIEW
 70
     1
  9
$SHADEDGE
 70
     3
  9
$SHADEDIF
 70
    70
  9
$TILEMODE
 70
     1
  9
$MAXACTVP
 70
    64
  9
$PINSBASE
 10
0.0
 20
0.0
 30
0.0
  9
$PLIMCHECK
 70
     0
  9
$PEXTMIN
 10
1.000000000000000E+20
 20
1.000000000000000E+20
 30
1.000000000000000E+20
  9
$PEXTMAX
 10
-1.000000000000000E+20
 20
-1.000000000000000E+20
 30
-1.000000000000000E+20
  9
$PLIMMIN
 10
0.0
 20
0.0
  9
$PLIMMAX
 10
420.0
 20
297.0
  9
$UNITMODE
 70
     0
  9
$VISRETAIN
 70
     1
  9
$PLINEGEN
 70
     0
  9
$PSLTSCALE
 70
     1
  9
$TREEDEPTH
 70
  3020
  9
$CMLSTYLE
  2
Standard
  9
$CMLJUST
 70
     0
  9
$CMLSCALE
 40
20.0
  9
$PROXYGRAPHICS
 70
     1
  9
$MEASUREMENT
 70
     1
  9
$CELWEIGHT
370
    -1
  9
$ENDCAPS
280
     0
  9
$JOINSTYLE
280
     0
  9
$LWDISPLAY
290
     0
  9
$INSUNITS
 70
     4
  9
$HYPERLINKBASE
  1

  9
$STYLESHEET
  1
sanindusa.ctb
  9
$XEDIT
290
     1
  9
$CEPSNTYPE
380
     0
  9
$PSTYLEMODE
290
     1
  9
$FINGERPRINTGUID
  2
{725BA902-B484-4712-BAF7-55BA9753B5C7}
  9
$VERSIONGUID
  2
{077D8E7D-4BDD-4889-962C-F1FBBBD64BA4}
  9
$EXTNAMES
290
     1
  9
$PSVPSCALE
 40
0.0
  9
$OLESTARTUP
290
     0
  0
ENDSEC
  0
SECTION
  2
CLASSES
  0
CLASS
  1
ACDBDICTIONARYWDFLT
  2
AcDbDictionaryWithDefault
  3
ObjectDBX Classes
 90
        0
280
     0
281
     0
  0
CLASS
  1
ACDBPLACEHOLDER
  2
AcDbPlaceHolder
  3
ObjectDBX Classes
 90
        0
280
     0
281
     0
  0
CLASS
  1
LAYOUT
  2
AcDbLayout
  3
ObjectDBX Classes
 90
        0
280
     0
281
     0
  0
CLASS
  1
DICTIONARYVAR
  2
AcDbDictionaryVar
  3
ObjectDBX Classes
 90
        0
280
     0
281
     0
  0
CLASS
  1
DIMASSOC
  2
AcDbDimAssoc
  3
"AcDbDimAssoc|Product Desc:     AcDim ARX App For Dimension|Company:          Autodesk, Inc.|WEB Address:      www.autodesk.com"
 90
        0
280
     0
281
     0
  0
CLASS
  1
TABLESTYLE
  2
AcDbTableStyle
  3
ObjectDBX Classes
 90
     4095
280
     0
281
     0
  0
CLASS
  1
MATERIAL
  2
AcDbMaterial
  3
ObjectDBX Classes
 90
     1153
280
     0
281
     0
  0
CLASS
  1
VISUALSTYLE
  2
AcDbVisualStyle
  3
ObjectDBX Classes
 90
     4095
280
     0
281
     0
  0
CLASS
  1
SCALE
  2
AcDbScale
  3
ObjectDBX Classes
 90
     1153
280
     0
281
     0
  0
CLASS
  1
MLEADERSTYLE
  2
AcDbMLeaderStyle
  3
ACDB_MLEADERSTYLE_CLASS
 90
     4095
280
     0
281
     0
  0
CLASS
  1
SORTENTSTABLE
  2
AcDbSortentsTable
  3
ObjectDBX Classes
 90
        0
280
     0
281
     0
  0
CLASS
  1
AEC_REFEDIT_STATUS_TRACKER
  2
AecDbRefEditStatusTracker
  3
AecArchBase60|Product Desc: Autodesk Architectural Desktop 2007 |Company: Autodesk,Inc. |WEB Address: www.autodesk.com
 90
      129
280
     0
281
     0
  0
CLASS
  1
NPOCOLLECTION
  2
AcDbImpNonPersistentObjectsCollection
  3
ObjectDBX Classes
 90
     1153
280
     0
281
     0
  0
CLASS
  1
CELLSTYLEMAP
  2
AcDbCellStyleMap
  3
ObjectDBX Classes
 90
     1152
280
     0
281
     0
  0
ENDSEC
  0
SECTION
  2
TABLES
  0
TABLE
  2
VPORT
  5
8
330
0
100
AcDbSymbolTable
 70
     1
  0
VPORT
  5
1068
330
8
100
AcDbSymbolTableRecord
100
AcDbViewportTableRecord
  2
*Active
 70
     0
 10
0.0
 20
0.0
 11
1.0
 21
1.0
 12
3737.100830757905
 22
2791.753005614685
 13
0.0
 23
0.0
 14
10.0
 24
10.0
 15
10.0
 25
10.0
 16
0.0
 26
0.0
 36
1.0
 17
0.0
 27
0.0
 37
0.0
 40
2.134732413503635
 41
1.645464025026068
 42
50.0
 43
0.0
 44
0.0
 50
0.0
 51
0.0
 71
     0
 72
   100
 73
     1
 74
     2
 75
     0
 76
     0
 77
     0
 78
     0
281
     0
 65
     1
110
0.0
120
0.0
130
0.0
111
1.0
121
0.0
131
0.0
112
0.0
122
1.0
132
0.0
 79
     0
146
0.0
  0
ENDTAB
  0
TABLE
  2
LTYPE
  5
5
330
0
100
AcDbSymbolTable
 70
     6
  0
LTYPE
  5
14
330
5
100
AcDbSymbolTableRecord
100
AcDbLinetypeTableRecord
  2
ByBlock
 70
     0
  3

 72
    65
 73
     0
 40
0.0
  0
LTYPE
  5
15
330
5
100
AcDbSymbolTableRecord
100
AcDbLinetypeTableRecord
  2
ByLayer
 70
     0
  3

 72
    65
 73
     0
 40
0.0
  0
LTYPE
  5
16
330
5
100
AcDbSymbolTableRecord
100
AcDbLinetypeTableRecord
  2
Continuous
 70
     0
  3
Solid line
 72
    65
 73
     0
 40
0.0
  0
LTYPE
  5
2D
330
5
100
AcDbSymbolTableRecord
100
AcDbLinetypeTableRecord
  2
DASHDOT
 70
     0
  3
Dash dot __ . __ . __ . __ . __ . __ . __ . __
 72
    65
 73
     4
 40
25.4
 49
12.7
 74
     0
 49
-6.349999999999999
 74
     0
 49
0.0
 74
     0
 49
-6.349999999999999
 74
     0
  0
LTYPE
  5
2E
330
5
100
AcDbSymbolTableRecord
100
AcDbLinetypeTableRecord
  2
HIDDEN
 70
     0
  3
Hidden __ __ __ __ __ __ __ __ __ __ __ __ __ _
 72
    65
 73
     2
 40
9.524999999999998
 49
6.349999999999999
 74
     0
 49
-3.174999999999999
 74
     0
  0
LTYPE
  5
C75
330
5
100
AcDbSymbolTableRecord
100
AcDbLinetypeTableRecord
  2
AM_ISO02W050
 70
     0
  3
__ __ __ __ __ __ __ __ __ __ __ __ __ __ __
 72
    65
 73
     2
 40
7.5
 49
6.0
 74
     0
 49
-1.5
 74
     0
  0
LTYPE
  5
C76
330
5
100
AcDbSymbolTableRecord
100
AcDbLinetypeTableRecord
  2
AM_ISO08W050
 70
     0
  3
____ . ____ . ____ . ____ . ____ . ____ . ____
 72
    65
 73
     4
 40
18.0
 49
12.0
 74
     0
 49
-1.5
 74
     0
 49
3.0
 74
     0
 49
-1.5
 74
     0
  0
ENDTAB
  0
TABLE
  2
LAYER
  5
2
102
{ACAD_XDICTIONARY
360
1051
102
}
330
0
100
AcDbSymbolTable
 70
    17
  0
LAYER
  5
10
102
{ACAD_XDICTIONARY
360
1606
102
}
330
2
100
AcDbSymbolTableRecord
100
AcDbLayerTableRecord
  2
0
 70
     0
 62
     7
  6
Continuous
370
    -3
390
F
  0
LAYER
  5
2F
102
{ACAD_XDICTIONARY
360
1608
102
}
330
2
100
AcDbSymbolTableRecord
100
AcDbLayerTableRecord
  2
1
 70
     0
 62
     1
  6
Continuous
370
    -3
390
F
  0
LAYER
  5
30
102
{ACAD_XDICTIONARY
360
160A
102
}
330
2
100
AcDbSymbolTableRecord
100
AcDbLayerTableRecord
  2
2
 70
     0
 62
     2
  6
Continuous
370
    -3
390
F
  0
LAYER
  5
31
102
{ACAD_XDICTIONARY
360
160C
102
}
330
2
100
AcDbSymbolTableRecord
100
AcDbLayerTableRecord
  2
3
 70
     0
 62
     3
  6
Continuous
370
    -3
390
F
  0
LAYER
  5
32
102
{ACAD_XDICTIONARY
360
160E
102
}
330
2
100
AcDbSymbolTableRecord
100
AcDbLayerTableRecord
  2
4
 70
     0
 62
     4
  6
Continuous
370
    -3
390
F
  0
LAYER
  5
33
102
{ACAD_XDICTIONARY
360
1610
102
}
330
2
100
AcDbSymbolTableRecord
100
AcDbLayerTableRecord
  2
5
 70
     0
 62
     5
  6
Continuous
370
    -3
390
F
  0
LAYER
  5
34
102
{ACAD_XDICTIONARY
360
1612
102
}
330
2
100
AcDbSymbolTableRecord
100
AcDbLayerTableRecord
  2
6
 70
     0
 62
     6
  6
Continuous
370
    -3
390
F
  0
LAYER
  5
35
102
{ACAD_XDICTIONARY
360
1614
102
}
330
2
100
AcDbSymbolTableRecord
100
AcDbLayerTableRecord
  2
7
 70
     0
 62
     7
  6
Continuous
370
    -3
390
F
  0
LAYER
  5
36
102
{ACAD_XDICTIONARY
360
1616
102
}
330
2
100
AcDbSymbolTableRecord
100
AcDbLayerTableRecord
  2
cen
 70
     0
 62
     7
  6
DASHDOT
370
    -3
390
F
  0
LAYER
  5
37
102
{ACAD_XDICTIONARY
360
1618
102
}
330
2
100
AcDbSymbolTableRecord
100
AcDbLayerTableRecord
  2
hid
 70
     0
 62
     7
  6
HIDDEN
370
    -3
390
F
  0
LAYER
  5
5D6
102
{ACAD_XDICTIONARY
360
161A
102
}
330
2
100
AcDbSymbolTableRecord
100
AcDbLayerTableRecord
  2
hatch
 70
     0
 62
     9
  6
Continuous
370
    -3
390
F
  0
LAYER
  5
8AF
102
{ACAD_XDICTIONARY
360
161C
102
}
330
2
100
AcDbSymbolTableRecord
100
AcDbLayerTableRecord
  2
9
 70
     0
 62
     9
  6
Continuous
370
    -3
390
F
  0
LAYER
  5
8F8
102
{ACAD_XDICTIONARY
360
161E
102
}
330
2
100
AcDbSymbolTableRecord
100
AcDbLayerTableRecord
  2
leg fin
 70
     0
 62
     9
  6
Continuous
370
    -3
390
F
  0
LAYER
  5
91D
102
{ACAD_XDICTIONARY
360
1620
102
}
330
2
100
AcDbSymbolTableRecord
100
AcDbLayerTableRecord
  2
cotas
 70
     0
 62
     1
  6
Continuous
370
    -3
390
F
  0
LAYER
  5
92F
330
2
100
AcDbSymbolTableRecord
100
AcDbLayerTableRecord
  2
Defpoints
 70
     0
 62
     7
  6
Continuous
290
     0
370
    -3
390
F
  0
LAYER
  5
C7B
102
{ACAD_XDICTIONARY
360
1622
102
}
330
2
100
AcDbSymbolTableRecord
100
AcDbLayerTableRecord
  2
SANINDUSA
 70
     0
 62
     3
  6
Continuous
370
    -3
390
F
  0
LAYER
  5
1060
102
{ACAD_XDICTIONARY
360
1624
102
}
330
2
100
AcDbSymbolTableRecord
100
AcDbLayerTableRecord
  2
hid1
 70
     0
 62
     9
  6
HIDDEN
370
    -3
390
F
1001
AcAecLayerStandard
1000

1000

  0
ENDTAB
  0
TABLE
  2
STYLE
  5
3
330
0
100
AcDbSymbolTable
 70
     4
  0
STYLE
  5
11
330
3
100
AcDbSymbolTableRecord
100
AcDbTextStyleTableRecord
  2
Standard
 70
     0
 40
0.0
 41
1.0
 50
0.0
 71
     0
 42
2.5
  3
Avgardn.ttf
  4

1001
ACAD
1000
AvantGarde Bk BT
1071
       34
  0
STYLE
  5
2C
330
3
100
AcDbSymbolTableRecord
100
AcDbTextStyleTableRecord
  2

 70
     1
 40
0.0
 41
1.0
 50
0.0
 71
     0
 42
2.5
  3
ltypeshp.shx
  4

  0
STYLE
  5
91F
330
3
100
AcDbSymbolTableRecord
100
AcDbTextStyleTableRecord
  2
SANINDUSA
 70
     0
 40
0.0
 41
1.0
 50
0.0
 71
     0
 42
2.5
  3
verdana.TTF
  4

1001
ACAD
1000
Verdana
1071
       34
  0
STYLE
  5
C7C
330
3
100
AcDbSymbolTableRecord
100
AcDbTextStyleTableRecord
  2
futura
 70
     0
 40
0.0
 41
1.0
 50
0.0
 71
     0
 42
2.5
  3
ZURCHN.TTF
  4

1001
ACAD
1000
Zurich BT
1071
       34
  0
ENDTAB
  0
TABLE
  2
VIEW
  5
6
330
0
100
AcDbSymbolTable
 70
     0
  0
ENDTAB
  0
TABLE
  2
UCS
  5
7
330
0
100
AcDbSymbolTable
 70
     0
  0
ENDTAB
  0
TABLE
  2
APPID
  5
9
330
0
100
AcDbSymbolTable
 70
    13
  0
APPID
  5
12
330
9
100
AcDbSymbolTableRecord
100
AcDbRegAppTableRecord
  2
ACAD
 70
     0
  0
APPID
  5
3A
330
9
100
AcDbSymbolTableRecord
100
AcDbRegAppTableRecord
  2
DCO15
 70
     0
  0
APPID
  5
EEE
330
9
100
AcDbSymbolTableRecord
100
AcDbRegAppTableRecord
  2
ACAD_DSTYLE_DIMTEXT_FILL
 70
     0
  0
APPID
  5
EEF
330
9
100
AcDbSymbolTableRecord
100
AcDbRegAppTableRecord
  2
ACAD_DSTYLE_DIMEXT_LENGTH
 70
     0
  0
APPID
  5
EF0
330
9
100
AcDbSymbolTableRecord
100
AcDbRegAppTableRecord
  2
ACAD_DSTYLE_DIMEXT_ENABLED
 70
     0
  0
APPID
  5
EF1
330
9
100
AcDbSymbolTableRecord
100
AcDbRegAppTableRecord
  2
ACAD_DSTYLE_DIM_LINETYPE
 70
     0
  0
APPID
  5
EF2
330
9
100
AcDbSymbolTableRecord
100
AcDbRegAppTableRecord
  2
ACAD_DSTYLE_DIM_EXT1_LINETYPE
 70
     0
  0
APPID
  5
EF3
330
9
100
AcDbSymbolTableRecord
100
AcDbRegAppTableRecord
  2
ACAD_DSTYLE_DIM_EXT2_LINETYPE
 70
     0
  0
APPID
  5
FAF
330
9
100
AcDbSymbolTableRecord
100
AcDbRegAppTableRecord
  2
ACAD_DSTYLE_DIMJOGGED_JOGANGLE_SYMBOL
 70
     0
  0
APPID
  5
1013
330
9
100
AcDbSymbolTableRecord
100
AcDbRegAppTableRecord
  2
ACAD_DSTYLE_DIMARC_LENGTH_SYMBOL
 70
     0
  0
APPID
  5
1061
330
9
100
AcDbSymbolTableRecord
100
AcDbRegAppTableRecord
  2
AcAecLayerStandard
 70
     0
  0
APPID
  5
15FD
330
9
100
AcDbSymbolTableRecord
100
AcDbRegAppTableRecord
  2
ACAD_EXEMPT_FROM_CAD_STANDARDS
 70
     0
  0
APPID
  5
16DD
330
9
100
AcDbSymbolTableRecord
100
AcDbRegAppTableRecord
  2
ACAD_MLEADERVER
 70
     0
  0
ENDTAB
  0
TABLE
  2
DIMSTYLE
  5
A
330
0
100
AcDbSymbolTable
 70
     4
100
AcDbDimStyleTable
 71
     1
340
921
  0
DIMSTYLE
105
45
330
A
100
AcDbSymbolTableRecord
100
AcDbDimStyleTableRecord
  2
STANDARD
 70
     0
289
     0
340
11
  0
DIMSTYLE
105
921
330
A
100
AcDbSymbolTableRecord
100
AcDbDimStyleTableRecord
  2
SANINDUSA
 70
     0
 41
2.0
 42
1.0
 43
1.0
 44
1.0
 73
     0
 74
     0
 77
     1
 78
     8
140
2.0
141
0.0
143
0.03937007874016
147
1.0
171
     3
172
     1
176
   256
177
   256
178
   256
179
     1
271
     1
272
     1
274
     3
278
    44
283
     0
284
     8
340
91F
371
    -1
372
    -1
1001
ACAD_DSTYLE_DIMJOGGED_JOGANGLE_SYMBOL
1070
   384
1040
1.570796326794896
  0
DIMSTYLE
105
C7D
330
A
100
AcDbSymbolTableRecord
100
AcDbDimStyleTableRecord
  2
AM_ISO
 70
     0
  4
"
 41
2.5
 42
1.0
 43
10.0
 44
1.0
 47
0.1
 48
0.1
 73
     0
 74
     0
 77
     1
 78
     8
 79
     2
140
3.5
141
0.0
143
0.0393701
146
0.71
147
1.5
172
     1
176
   256
177
   256
178
     2
271
     2
272
     3
274
     4
283
     0
284
     8
340
11
371
    -1
372
    -1
  0
ENDTAB
  0
TABLE
  2
BLOCK_RECORD
  5
1
330
0
100
AcDbSymbolTable
 70
    37
  0
BLOCK_RECORD
  5
1F
330
1
100
AcDbSymbolTableRecord
100
AcDbBlockTableRecord
  2
*Model_Space
340
22
  0
BLOCK_RECORD
  5
1B
330
1
100
AcDbSymbolTableRecord
100
AcDbBlockTableRecord
  2
*Paper_Space
340
1E
  0
BLOCK_RECORD
  5
23
330
1
100
AcDbSymbolTableRecord
100
AcDbBlockTableRecord
  2
*Paper_Space0
340
26
  0
BLOCK_RECORD
  5
919
330
1
100
AcDbSymbolTableRecord
100
AcDbBlockTableRecord
  2
_DotSmall
340
0
  0
BLOCK_RECORD
  5
922
330
1
100
AcDbSymbolTableRecord
100
AcDbBlockTableRecord
  2
base para cotas
340
0
310
2800000020000000200000000100080000000000000400000000000000000000000000000000000000000000000080000080000000808000800000008000800080800000C0C0C000C0DCC000F0CAA6000020400000206000002080000020A0000020C0000020E00000400000004020000040400000406000004080000040A0
310
000040C0000040E00000600000006020000060400000606000006080000060A0000060C0000060E00000800000008020000080400000806000008080000080A0000080C0000080E00000A0000000A0200000A0400000A0600000A0800000A0A00000A0C00000A0E00000C0000000C0200000C0400000C0600000C0800000C0
310
A00000C0C00000C0E00000E0000000E0200000E0400000E0600000E0800000E0A00000E0C00000E0E00040000000400020004000400040006000400080004000A0004000C0004000E00040200000402020004020400040206000402080004020A0004020C0004020E000404000004040200040404000404060004040800040
310
40A0004040C0004040E00040600000406020004060400040606000406080004060A0004060C0004060E00040800000408020004080400040806000408080004080A0004080C0004080E00040A0000040A0200040A0400040A0600040A0800040A0A00040A0C00040A0E00040C0000040C0200040C0400040C0600040C08000
310
40C0A00040C0C00040C0E00040E0000040E0200040E0400040E0600040E0800040E0A00040E0C00040E0E00080000000800020008000400080006000800080008000A0008000C0008000E00080200000802020008020400080206000802080008020A0008020C0008020E00080400000804020008040400080406000804080
310
008040A0008040C0008040E00080600000806020008060400080606000806080008060A0008060C0008060E00080800000808020008080400080806000808080008080A0008080C0008080E00080A0000080A0200080A0400080A0600080A0800080A0A00080A0C00080A0E00080C0000080C0200080C0400080C0600080C0
310
800080C0A00080C0C00080C0E00080E0000080E0200080E0400080E0600080E0800080E0A00080E0C00080E0E000C0000000C0002000C0004000C0006000C0008000C000A000C000C000C000E000C0200000C0202000C0204000C0206000C0208000C020A000C020C000C020E000C0400000C0402000C0404000C0406000C0
310
408000C040A000C040C000C040E000C0600000C0602000C0604000C0606000C0608000C060A000C060C000C060E000C0800000C0802000C0804000C0806000C0808000C080A000C080C000C080E000C0A00000C0A02000C0A04000C0A06000C0A08000C0A0A000C0A0C000C0A0E000C0C00000C0C02000C0C04000C0C06000
310
C0C08000C0C0A000F0FBFF00A4A0A000808080000000FF0000FF000000FFFF00FF000000FF00FF00FFFF0000FFFFFF00A4A4A4A4A4A4A4A4A4A4A4A4A4A4A4A4A4A4A4A4A4A4A4A4A4A4A4A4A4A4A4A4A4A4A4A4A4A4A4A4A4A4A4A4A4A4A4A4A4A4A4A4A4A4A4A4A4A4A4A4A4A4A4A4A4A4A4A4A4A4A4A4A4A4A4A4A4A4A4
310
A4A4A4A4A4A4A4A4A4A4A4A4A4A4A4A4A4A4A4A4A4A4A4A4A4A4A4A4A4A4A4A4A4A4A4A4A4A4A4A4A4A4A4A4A4A4A4A4A4A4A4A4A4A4A4A4A4A4A4A4A4A4A4A4A4A4A4A4A4A4A4A4A4A4A4A4A4A4A4A4A4A4A4A4A4A4A4A4A4A4A4A4A4A4A4A4A4A4A4A4A4A4A4A4A4A4A4A4A4A4A4A4A4A4A4A4A4A4A4A4A4A4A4A4A4A4A4
310
A4A4A4A4A4A4A4A4A4A4A4A4A4A4A4A4A4A4A4A4A4A4A4A4A4A4A4A4A4A4A4A4A4A4A4A4A4A4A4A4A4A4A4A4A4A4A4A4A4A4A4A4A4A4A4A4A4A4A4A4A4A4A4A4A4A4A4A4A4A4A4A4A4A4A4A4A4A4A4A4A4A4A4A4A4A4A4A4A4A4A4A4A4A4A4A4A4A4A4A4A4A4A4A4A4A4A4A4A4A4A4A4A4A4A4A4A4A4A4A4A4A4A4A4A4A4A4
310
A4A4A4A4A4A4A4A4A4A4A4A4A4A4A4A4A4A4A4A4A4A4A4A4A4A4A4A4A4A4A4A4A4A4A4A4A4A4A4A4A4A4A4A4A4A4A4A4A4A4A4A4A4A4A4A4A4A4A4A4A4A4A4A4A4A4A4A4A4A4A4A4A4A4A4A4A4A4A4A4A4A4A4A4A4A4A4A4A4A4A4A4A4A4A4A4A4A4A4A4A4A4A4A4A4A4A4A4A4A4A4A4A4A4A4A4F9F9F9F9F9F9F9F9F9F9F9
310
F9F9F9F9F9F9F9F9F9F9F9F9F9F9F9F9F9F9F9A4A4F9F9F9F9F9F9F9F9F9F9F9F9F9F9F9F9F9F9F9F9F9F9F9F9F9F9F9F9F9F9A4A4F9F9F9F9F9F9F9F9F9F9F9F9F9F9F9F9F9F9F9F9F9F9F9F9F9F9F9F9F9F9A4A4F9A4A4A4A4A4A4A4A4A4A4A4A4A4A4A4A4A4A4A4A4A4A4A4A4A4A4A4A4F9A4A4A4A4A4A4A4A4A4A4A4A4
310
A4A4A4A4A4A4A4A4A4A4A4A4A4A4A4A4A4A4A4A4A4A4A4A4A4A4A4A4A4A4A4A4A4A4A4A4A4A4A4A4A4A4A4A4A4A4A4A4A4A4A4A4A4A4A4A4A4A4A4A4A4A4A4A4A4A4A4A4A4A4A4A4A4A4A4A4A4A4A4A4A4A4A4A4A4A4A4A4A4A4A4A4A4A4A4A4A4A4A4A4A4A4A4A4A4A4A4A4A4A4A4A4A4A4A4A4A4A4A4A4A4A4A4A4A4A4A4
310
A4A4A4A4A4A4A4A4A4A4A4A4A4A4A4A4A4A4A4A4A4A4A4A4A4A4A4A4A4A4A4A4A4A4A4A4A4A4A4A4A4A4A4A4A4A4A4A4A4A4A4A4A4A4A4A4A4A4A4A4A4A4A4A4A4A4A4A4A4A4A4A4A4A4A4A4A4A4A4A4A4A4A4A4A4A4A4A4A4A4A4A4A4A4A4A4A4A4A4A4A4A4A4A4A4A4A4A4A4A4A4A4A4A4A4A4A4A4A4A4A4A4A4A4A4A4A4
310
A4A4A4A4A4A4A4A4A4A4A4A4A4A4A4A4A4A4A4A4A4A4A4A4A4A4A4A4A4A4A4A4A4A4A4A4A4A4A4A4A4A4A4A4A4A4A4A4A4A4A4A4A4A4A4A4A4A4A4A4A4A4A4A4A4A4A4A4A4A4A4A4A4A4A4A4A4A4A4A4A4A4A4A4A4A4A4A4A4A4A4A4A4A4A4A4A4A4A4A4A4A4A4A4A4A4A4A4A4A4A4A4A4A4A4A4A4A4A4A4A4A4A4A4A4A4A4
310
A4A4A4A4A4A4A4A4A4A4A4A4A4A4A4A4A4A4A4A4A4A4A4A4A4A4A4A4A4A4A4A4A4A4A4A4A4A4A4A4A4A4A4A4A4A4A4A4A4A4A4A4A4A4A4A4
1001
ACAD
1000
DesignCenter Data
1002
{
1070
     1
1070
     4
1002
}
  0
BLOCK_RECORD
  5
AA8
330
1
100
AcDbSymbolTableRecord
100
AcDbBlockTableRecord
  2
_CLOSED
340
0
  0
BLOCK_RECORD
  5
B79
330
1
100
AcDbSymbolTableRecord
100
AcDbBlockTableRecord
  2
nota revisoes
340
0
1001
ACAD
1000
DesignCenter Data
1002
{
1070
     1
1070
     4
1002
}
  0
BLOCK_RECORD
  5
B8E
330
1
100
AcDbSymbolTableRecord
100
AcDbBlockTableRecord
  2
a3l
340
0
1001
ACAD
1000
DesignCenter Data
1002
{
1070
     1
1070
     4
1002
}
  0
BLOCK_RECORD
  5
B9E
330
1
100
AcDbSymbolTableRecord
100
AcDbBlockTableRecord
  2
legenda desenvolvimento
340
0
1001
ACAD
1000
DesignCenter Data
1002
{
1070
     1
1070
     4
1002
}
  0
BLOCK_RECORD
  5
10B3
330
1
100
AcDbSymbolTableRecord
100
AcDbBlockTableRecord
  2
*D7
340
0
  0
BLOCK_RECORD
  5
10BF
330
1
100
AcDbSymbolTableRecord
100
AcDbBlockTableRecord
  2
*D8
340
0
  0
BLOCK_RECORD
  5
10CB
330
1
100
AcDbSymbolTableRecord
100
AcDbBlockTableRecord
  2
*D9
340
0
  0
BLOCK_RECORD
  5
10D7
330
1
100
AcDbSymbolTableRecord
100
AcDbBlockTableRecord
  2
*D10
340
0
  0
BLOCK_RECORD
  5
10E3
330
1
100
AcDbSymbolTableRecord
100
AcDbBlockTableRecord
  2
*D11
340
0
  0
BLOCK_RECORD
  5
10EF
330
1
100
AcDbSymbolTableRecord
100
AcDbBlockTableRecord
  2
*D12
340
0
  0
BLOCK_RECORD
  5
10F7
330
1
100
AcDbSymbolTableRecord
100
AcDbBlockTableRecord
  2
*D13
340
0
  0
BLOCK_RECORD
  5
1100
330
1
100
AcDbSymbolTableRecord
100
AcDbBlockTableRecord
  2
*D14
340
0
  0
BLOCK_RECORD
  5
1109
330
1
100
AcDbSymbolTableRecord
100
AcDbBlockTableRecord
  2
*D15
340
0
  0
BLOCK_RECORD
  5
1115
330
1
100
AcDbSymbolTableRecord
100
AcDbBlockTableRecord
  2
*D16
340
0
  0
BLOCK_RECORD
  5
1121
330
1
100
AcDbSymbolTableRecord
100
AcDbBlockTableRecord
  2
*D17
340
0
  0
BLOCK_RECORD
  5
112D
330
1
100
AcDbSymbolTableRecord
100
AcDbBlockTableRecord
  2
*D18
340
0
  0
BLOCK_RECORD
  5
1139
330
1
100
AcDbSymbolTableRecord
100
AcDbBlockTableRecord
  2
*D19
340
0
  0
BLOCK_RECORD
  5
1147
330
1
100
AcDbSymbolTableRecord
100
AcDbBlockTableRecord
  2
*D20
340
0
  0
BLOCK_RECORD
  5
1533
330
1
100
AcDbSymbolTableRecord
100
AcDbBlockTableRecord
  2
*D22
340
0
  0
BLOCK_RECORD
  5
153B
330
1
100
AcDbSymbolTableRecord
100
AcDbBlockTableRecord
  2
*D23
340
0
  0
BLOCK_RECORD
  5
1544
330
1
100
AcDbSymbolTableRecord
100
AcDbBlockTableRecord
  2
*D24
340
0
  0
BLOCK_RECORD
  5
1550
330
1
100
AcDbSymbolTableRecord
100
AcDbBlockTableRecord
  2
*D25
340
0
  0
BLOCK_RECORD
  5
155C
330
1
100
AcDbSymbolTableRecord
100
AcDbBlockTableRecord
  2
*D26
340
0
  0
BLOCK_RECORD
  5
1568
330
1
100
AcDbSymbolTableRecord
100
AcDbBlockTableRecord
  2
*D27
340
0
  0
BLOCK_RECORD
  5
1576
330
1
100
AcDbSymbolTableRecord
100
AcDbBlockTableRecord
  2
*D28
340
0
  0
BLOCK_RECORD
  5
1584
330
1
100
AcDbSymbolTableRecord
100
AcDbBlockTableRecord
  2
*D29
340
0
  0
BLOCK_RECORD
  5
1590
330
1
100
AcDbSymbolTableRecord
100
AcDbBlockTableRecord
  2
*D30
340
0
  0
BLOCK_RECORD
  5
15A7
330
1
100
AcDbSymbolTableRecord
100
AcDbBlockTableRecord
  2
*D31
340
0
  0
BLOCK_RECORD
  5
15B0
330
1
100
AcDbSymbolTableRecord
100
AcDbBlockTableRecord
  2
*D32
340
0
  0
BLOCK_RECORD
  5
15BC
330
1
100
AcDbSymbolTableRecord
100
AcDbBlockTableRecord
  2
*D33
340
0
  0
BLOCK_RECORD
  5
15C8
330
1
100
AcDbSymbolTableRecord
100
AcDbBlockTableRecord
  2
*D34
340
0
  0
BLOCK_RECORD
  5
15D4
330
1
100
AcDbSymbolTableRecord
100
AcDbBlockTableRecord
  2
*D35
340
0
  0
ENDTAB
  0
ENDSEC
  0
SECTION
  2
BLOCKS
  0
BLOCK
  5
20
330
1F
100
AcDbEntity
  8
0
100
AcDbBlockBegin
  2
*Model_Space
 70
     0
 10
0.0
 20
0.0
 30
0.0
  3
*Model_Space
  1

  0
ENDBLK
  5
21
330
1F
100
AcDbEntity
  8
0
100
AcDbBlockEnd
  0
BLOCK
  5
1C
330
1B
100
AcDbEntity
 67
     1
  8
0
100
AcDbBlockBegin
  2
*Paper_Space
 70
     0
 10
0.0
 20
0.0
 30
0.0
  3
*Paper_Space
  1

  0
ENDBLK
  5
1D
330
1B
100
AcDbEntity
 67
     1
  8
0
100
AcDbBlockEnd
  0
BLOCK
  5
24
330
23
100
AcDbEntity
 67
     1
  8
0
100
AcDbBlockBegin
  2
*Paper_Space0
 70
     0
 10
0.0
 20
0.0
 30
0.0
  3
*Paper_Space0
  1

  0
ENDBLK
  5
25
330
23
100
AcDbEntity
 67
     1
  8
0
100
AcDbBlockEnd
  0
BLOCK
  5
91B
330
919
100
AcDbEntity
  8
0
100
AcDbBlockBegin
  2
_DotSmall
 70
     0
 10
0.0
 20
0.0
 30
0.0
  3
_DotSmall
  1

  0
LWPOLYLINE
  5
91A
330
919
100
AcDbEntity
  8
0
  6
ByBlock
 62
     0
100
AcDbPolyline
 90
        2
 70
     1
 43
0.5
 10
-0.0625
 20
0.0
 42
1.0
 10
0.0625
 20
0.0
 42
1.0
  0
ENDBLK
  5
91C
330
919
100
AcDbEntity
  8
0
100
AcDbBlockEnd
  0
BLOCK
  5
92A
330
922
100
AcDbEntity
  8
0
100
AcDbBlockBegin
  2
base para cotas
 70
     0
 10
0.0
 20
0.0
 30
0.0
  3
base para cotas
  1

  0
LINE
  5
B36
330
922
100
AcDbEntity
  8
cotas
100
AcDbLine
 10
0.0
 20
-30.0
 30
0.0
 11
327.1260136525398
 21
-30.0
 31
0.0
  0
LINE
  5
B37
330
922
100
AcDbEntity
  8
cotas
100
AcDbLine
 10
0.0
 20
-25.0
 30
0.0
 11
327.1260136525398
 21
-25.0
 31
0.0
  0
LINE
  5
B38
330
922
100
AcDbEntity
  8
cotas
100
AcDbLine
 10
0.0
 20
-20.0
 30
0.0
 11
327.1260136525398
 21
-20.0
 31
0.0
  0
LINE
  5
B39
330
922
100
AcDbEntity
  8
cotas
100
AcDbLine
 10
0.0
 20
-15.0
 30
0.0
 11
327.1260136525398
 21
-15.0
 31
0.0
  0
LINE
  5
B3A
330
922
100
AcDbEntity
  8
cotas
100
AcDbLine
 10
0.0
 20
-10.0
 30
0.0
 11
327.1260136525398
 21
-10.0
 31
0.0
  0
LINE
  5
B3B
330
922
100
AcDbEntity
  8
cotas
100
AcDbLine
 10
0.0
 20
0.0
 30
0.0
 11
0.0
 21
-30.0
 31
0.0
  0
LINE
  5
B3C
330
922
100
AcDbEntity
  8
cotas
100
AcDbLine
 10
327.1260136525398
 20
-30.0
 30
0.0
 11
327.1260136525398
 21
0.0
 31
0.0
  0
ENDBLK
  5
92B
330
922
100
AcDbEntity
  8
0
100
AcDbBlockEnd
  0
BLOCK
  5
AAD
330
AA8
100
AcDbEntity
  8
0
100
AcDbBlockBegin
  2
_CLOSED
 70
     0
 10
0.0
 20
0.0
 30
0.0
  3
_CLOSED
  1

  0
LINE
  5
AA9
330
AA8
100
AcDbEntity
  8
0
100
AcDbLine
 10
-1.0
 20
0.166667
 30
0.0
 11
0.0
 21
0.0
 31
0.0
  0
LINE
  5
AAA
330
AA8
100
AcDbEntity
  8
0
100
AcDbLine
 10
0.0
 20
0.0
 30
0.0
 11
-1.0
 21
-0.166667
 31
0.0
  0
LINE
  5
AAB
330
AA8
100
AcDbEntity
  8
0
100
AcDbLine
 10
-1.0
 20
0.166667
 30
0.0
 11
-1.0
 21
-0.166667
 31
0.0
  0
LINE
  5
AAC
330
AA8
100
AcDbEntity
  8
0
100
AcDbLine
 10
0.0
 20
0.0
 30
0.0
 11
-1.0
 21
0.0
 31
0.0
  0
ENDBLK
  5
AAE
330
AA8
100
AcDbEntity
  8
0
100
AcDbBlockEnd
  0
BLOCK
  5
B7C
330
B79
100
AcDbEntity
  8
0
100
AcDbBlockBegin
  2
nota revisoes
 70
     0
 10
0.0
 20
0.0
 30
0.0
  3
nota revisoes
  1

  0
CIRCLE
  5
B7A
330
B79
100
AcDbEntity
  8
4
100
AcDbCircle
 10
0.0
 20
0.0
 30
0.0
 40
13.69426055101189
  0
TEXT
  5
B7B
330
B79
100
AcDbEntity
  8
4
100
AcDbText
 10
-5.496248358154345
 20
-5.354545554066362
 30
0.0
 40
12.0
  1
1
  7
SANINDUSA
 72
     1
 11
-0.249774214433728
 21
-5.354545554066362
 31
0.0
100
AcDbText
  0
ENDBLK
  5
B7D
330
B79
100
AcDbEntity
  8
0
100
AcDbBlockEnd
  0
BLOCK
  5
B9C
330
B8E
100
AcDbEntity
  8
0
100
AcDbBlockBegin
  2
a3l
 70
     0
 10
0.0
 20
0.0
 30
0.0
  3
a3l
  1

  0
LINE
  5
B8F
330
B8E
100
AcDbEntity
  8
1
100
AcDbLine
 10
-364.2925296599447
 20
-362.1188951399395
 30
0.0
 11
-364.2925296599447
 21
-65.11889513993946
 31
0.0
  0
LINE
  5
B90
330
B8E
100
AcDbEntity
  8
4
100
AcDbLine
 10
-369.2925296599447
 20
-357.1188951399395
 30
0.0
 11
-369.2925296599447
 21
-70.11889513993946
 31
0.0
  0
LINE
  5
B91
330
B8E
100
AcDbEntity
  8
1
100
AcDbLine
 10
-784.2925296599446
 20
-65.11889513993946
 30
0.0
 11
-784.2925296599446
 21
-362.1188951399395
 31
0.0
  0
LINE
  5
B92
330
B8E
100
AcDbEntity
  8
4
100
AcDbLine
 10
-759.2925296599446
 20
-357.1188951399395
 30
0.0
 11
-759.2925296599446
 21
-70.11889513993946
 31
0.0
  0
LINE
  5
B93
330
B8E
100
AcDbEntity
  8
1
100
AcDbLine
 10
-784.2925296599446
 20
-362.1188951399395
 30
0.0
 11
-364.2925296599447
 21
-362.1188951399395
 31
0.0
  0
LINE
  5
B94
330
B8E
100
AcDbEntity
  8
4
100
AcDbLine
 10
-759.2925296599446
 20
-357.1188951399395
 30
0.0
 11
-369.2925296599447
 21
-357.1188951399395
 31
0.0
  0
LINE
  5
B95
330
B8E
100
AcDbEntity
  8
1
100
AcDbLine
 10
-654.2925296599446
 20
-357.1188951399395
 30
0.0
 11
-654.2925296599446
 21
-362.1188951399395
 31
0.0
  0
LINE
  5
B96
330
B8E
100
AcDbEntity
  8
1
100
AcDbLine
 10
-364.2925296599447
 20
-65.11889513993946
 30
0.0
 11
-784.2925296599446
 21
-65.11889513993946
 31
0.0
  0
LINE
  5
B97
330
B8E
100
AcDbEntity
  8
4
100
AcDbLine
 10
-369.2925296599447
 20
-70.11889513993946
 30
0.0
 11
-759.2925296599446
 21
-70.11889513993946
 31
0.0
  0
LINE
  5
B98
330
B8E
100
AcDbEntity
  8
1
100
AcDbLine
 10
-654.2925296599446
 20
-65.11889513993946
 30
0.0
 11
-654.2925296599446
 21
-70.11889513993946
 31
0.0
  0
LINE
  5
B99
330
B8E
100
AcDbEntity
  8
1
100
AcDbLine
 10
-549.2925296599446
 20
-70.11889513993946
 30
0.0
 11
-549.2925296599446
 21
-65.11889513993946
 31
0.0
  0
LINE
  5
B9A
330
B8E
100
AcDbEntity
  8
1
100
AcDbLine
 10
-369.2925296599447
 20
-65.11889513993946
 30
0.0
 11
-364.2925296599447
 21
-65.11889513993946
 31
0.0
  0
LINE
  5
B9B
330
B8E
100
AcDbEntity
  8
1
100
AcDbLine
 10
-549.2925296599446
 20
-357.1188951399395
 30
0.0
 11
-549.2925296599446
 21
-362.1188951399395
 31
0.0
  0
ENDBLK
  5
B9D
330
B8E
100
AcDbEntity
  8
0
100
AcDbBlockEnd
  0
BLOCK
  5
C13
330
B9E
100
AcDbEntity
  8
0
100
AcDbBlockBegin
  2
legenda desenvolvimento
 70
     2
 10
0.0
 20
0.0
 30
0.0
  3
legenda desenvolvimento
  1

  0
ATTDEF
  5
B9F
330
B9E
100
AcDbEntity
  8
1
100
AcDbText
 10
-108.606245802552
 20
55.5
 30
0.0
 40
4.0
  1
XXXXXXXXXXXXXX
 41
0.8
  7
SANINDUSA
 72
     4
 11
-87.5
 21
57.5
 31
0.0
100
AcDbAttributeDefinition
  3
Nome do Produto:
  2
PRODUTO
 70
     0
  0
ATTDEF
  5
BA0
330
B9E
100
AcDbEntity
  8
1
100
AcDbText
 10
-97.9997966101695
 20
41.25
 30
0.0
 40
3.0
  1
XXXXXXXXX
 41
0.8
  7
futura
 72
     4
 11
-87.5
 21
42.75
 31
0.0
100
AcDbAttributeDefinition
  3
Nome da Peça:
  2
PECA
 70
     0
  0
ATTDEF
  5
BA1
330
B9E
100
AcDbEntity
  8
1
100
AcDbText
 10
-133.4422431161853
 20
21.11745296763252
 30
0.0
 40
2.5
  1
X
 41
0.8
  7
SANINDUSA
 72
     4
 11
-132.5
 21
22.36745296763252
 31
0.0
100
AcDbAttributeDefinition
  3
Cod. TESTE:
  2
TESTE
 70
     0
  0
ATTDEF
  5
BA2
330
B9E
100
AcDbEntity
  8
1
100
AcDbText
 10
-124.3844862323707
 20
21.11745296763252
 30
0.0
 40
2.5
  1
XX
 41
0.8
  7
SANINDUSA
 72
     4
 11
-122.5
 21
22.36745296763252
 31
0.0
100
AcDbAttributeDefinition
  3
Cod. Ano:
  2
ANO
 70
     0
  0
ATTDEF
  5
BA3
330
B9E
100
AcDbEntity
  8
1
100
AcDbText
 10
-112.526889953052
 20
21.11745296763252
 30
0.0
 40
2.5
  1
XXX
 41
0.8
  7
SANINDUSA
 72
     4
 11
-109.700160604496
 21
22.36745296763252
 31
0.0
100
AcDbAttributeDefinition
  3
Cod. Sequência:
  2
SEQUENCIA
 70
     0
  0
ATTDEF
  5
BA4
330
B9E
100
AcDbEntity
  8
1
100
AcDbText
 10
-99.35382430979316
 20
21.11745296763252
 30
0.0
 40
2.5
  1
XX
 41
0.8
  7
SANINDUSA
 72
     4
 11
-97.46933807742244
 21
22.36745296763252
 31
0.0
100
AcDbAttributeDefinition
  3
Cod. Tipo:
  2
TIPO
 70
     0
  0
ATTDEF
  5
BA5
330
B9E
100
AcDbEntity
  8
1
100
AcDbText
 10
-87.42035911468438
 20
21.11745296763252
 30
0.0
 40
2.5
  1
XXX
 41
0.8
  7
SANINDUSA
 72
     4
 11
-84.59362976612828
 21
22.36745296763252
 31
0.0
100
AcDbAttributeDefinition
  3
Cod. Produto:
  2
PRODUTO
 70
     0
  0
ATTDEF
  5
BA6
330
B9E
100
AcDbEntity
  8
1
100
AcDbText
 10
-74.62051971917853
 20
21.11745296763252
 30
0.0
 40
2.5
  1
XXX
 41
0.8
  7
SANINDUSA
 72
     4
 11
-71.79379037062244
 21
22.36745296763252
 31
0.0
100
AcDbAttributeDefinition
  3
Cod. Peça:
  2
PECA
 70
     0
  0
ATTDEF
  5
BA7
330
B9E
100
AcDbEntity
  8
1
100
AcDbText
 10
-61.10603446650329
 20
21.11745296763252
 30
0.0
 40
2.5
  1
XX
 41
0.8
  7
SANINDUSA
 72
     4
 11
-59.22154823413257
 21
22.36745296763252
 31
0.0
100
AcDbAttributeDefinition
  3
Cod. Revisão:
  2
REV
 70
     0
  0
ATTDEF
  5
BA8
330
B9E
100
AcDbEntity
  8
1
100
AcDbText
 10
-48.43615325006194
 20
21.11745296763252
 30
0.0
 40
2.5
  1
XX
 41
0.8
  7
SANINDUSA
 72
     4
 11
-46.55166701769121
 21
22.36745296763252
 31
0.0
100
AcDbAttributeDefinition
  3
Cod. Alteração:
  2
ALT
 70
     0
  0
ATTDEF
  5
BA9
330
B9E
100
AcDbEntity
  8
1
100
AcDbText
 10
-35.19086635325722
 20
23.98875083948959
 30
0.0
 40
3.0
  1
1/XXX
 41
0.8
  7
SANINDUSA
 72
     4
 11
-30.0
 21
25.25
 31
0.0
100
AcDbAttributeDefinition
  3
Escala geral:
  2
ESCALA
 70
     0
  0
ATTDEF
  5
BAA
330
B9E
100
AcDbEntity
  8
1
100
AcDbText
 10
-15.65345869711215
 20
23.75
 30
0.0
 40
3.0
  1
XXXXX
 41
0.8
  7
SANINDUSA
 72
     4
 11
-10.0
 21
25.25
 31
0.0
100
AcDbAttributeDefinition
  3
Folha:
  2
FOLHA
 70
     0
  0
ATTDEF
  5
BAB
330
B9E
100
AcDbEntity
  8
1
100
AcDbText
 10
-178.5146998822042
 20
56.9531347542807
 30
0.0
 40
2.0
  1
xx
 41
0.8
  7
SANINDUSA
 72
     4
 11
-177.2123493113513
 21
57.70330265219877
 31
0.0
100
AcDbAttributeDefinition
  3
revisão
  2
REV.
 70
     0
  0
ATTDEF
  5
BAC
330
B9E
100
AcDbEntity
  8
1
100
AcDbText
 10
-172.7849640077129
 20
56.9531347542807
 30
0.0
 40
2.0
  1
xx
 41
0.8
  7
SANINDUSA
 72
     4
 11
-171.48261343686
 21
57.70330265219877
 31
0.0
100
AcDbAttributeDefinition
  3
alteração
  2
ALT.
 70
     0
  0
ATTDEF
  5
BAD
330
B9E
100
AcDbEntity
  8
1
100
AcDbText
 10
-168.007199951307
 20
56.70330265219877
 30
0.0
 40
2.0
  1
xx/xx/xxxx
 41
0.8
  7
SANINDUSA
 11
-168.007199951307
 21
57.70330265219877
 31
0.0
100
AcDbAttributeDefinition
  3
data
  2
DATA
 70
     0
 74
     2
  0
ATTDEF
  5
BAE
330
B9E
100
AcDbEntity
  8
1
100
AcDbText
 10
-168.5396372253371
 20
13.15916722632639
 30
0.0
 40
2.0
  1
XX/XX/XXXX
 41
0.8
  7
SANINDUSA
 72
     4
 11
-161.5099528734231
 21
14.0
 31
0.0
100
AcDbAttributeDefinition
  3
Data projecto
  2
DATA_PROJ
 70
     0
  0
ATTDEF
  5
BAF
330
B9E
100
AcDbEntity
  8
1
100
AcDbText
 10
-150.8658110728766
 20
13.24983210208193
 30
0.0
 40
2.0
  1
xxxxxxxx
 41
0.8
  7
SANINDUSA
 72
     4
 11
-145.6564087894649
 21
14.0
 31
0.0
100
AcDbAttributeDefinition
  3
nome de quem projectou
  2
NOME
 70
     0
  0
ATTDEF
  5
BB0
330
B9E
100
AcDbEntity
  8
1
100
AcDbText
 10
-168.5396372253371
 20
9.159167226326394
 30
0.0
 40
2.0
  1
XX/XX/XXXX
 41
0.8
  7
SANINDUSA
 72
     4
 11
-161.5099528734231
 21
10.0
 31
0.0
100
AcDbAttributeDefinition
  3
Data desenhou
  2
DATA_DES
 70
     0
  0
ATTDEF
  5
BB1
330
B9E
100
AcDbEntity
  8
1
100
AcDbText
 10
-151.516986358303
 20
9.249832102081933
 30
0.0
 40
2.0
  1
xxxxxxxxx
 41
0.8
  7
SANINDUSA
 72
     4
 11
-145.6564087894649
 21
10.0
 31
0.0
100
AcDbAttributeDefinition
  3
nome
  2
NOME
 70
     0
  0
ATTDEF
  5
BB2
330
B9E
100
AcDbEntity
  8
1
100
AcDbText
 10
-127.2924214135946
 20
14.1979876583216
 30
0.0
 40
2.0
  1
Vitreous China
 41
0.8
  7
SANINDUSA
 72
     4
 11
-119.231709526422
 21
15.22216495852308
 31
0.0
100
AcDbAttributeDefinition
  3
Nome do Material:
  2
MATERIAL
 70
     0
  0
ATTDEF
  5
BB3
330
B9E
100
AcDbEntity
  8
1
100
AcDbText
 10
-103.1563452122093
 20
14.38019043949261
 30
0.0
 40
2.0
  1
Branco
 41
0.8
  7
SANINDUSA
 72
     4
 11
-99.33418268702462
 21
15.35937109765245
 31
0.0
100
AcDbAttributeDefinition
  3
cor da peça
  2
COR
 70
     0
  0
ATTDEF
  5
BB4
330
B9E
100
AcDbEntity
  8
1
100
AcDbText
 10
-116.7235057085292
 20
5.975822699798522
 30
0.0
 40
2.0
  1
Vidrado
 41
0.8
  7
SANINDUSA
 72
     4
 11
-112.5
 21
7.0
 31
0.0
100
AcDbAttributeDefinition
  3
Tipo de acabamento:
  2
ACABAMENTO
 70
     0
  0
ATTDEF
  5
BB5
330
B9E
100
AcDbEntity
  8
1
100
AcDbText
 10
-79.18527869967246
 20
16.65066409850533
 30
0.0
 40
2.0
  1
XXXXXXX
 41
0.8
  7
SANINDUSA
 72
     4
 11
-73.90871724903445
 21
17.65066409850533
 31
0.0
100
AcDbAttributeDefinition
  3
Normas
  2
NORMAS
 70
     0
  0
ATTDEF
  5
BB6
330
B9E
100
AcDbEntity
  8
1
100
AcDbText
 10
-30.55312290127603
 20
14.0
 30
0.0
 40
2.0
  1
XXXXXXXXXXXXXX
 41
0.8
  7
SANINDUSA
 72
     4
 11
-20.0
 21
15.0
 31
0.0
100
AcDbAttributeDefinition
  3
Substitui o desenho:
  2
SUBSTITUI
 70
     0
  0
ATTDEF
  5
BB7
330
B9E
100
AcDbEntity
  8
1
100
AcDbText
 10
-31.30691739422431
 20
6.0
 30
0.0
 40
2.0
  1
XXXXXXXXXXXXXXX
 41
0.8
  7
SANINDUSA
 72
     4
 11
-20.0
 21
7.0
 31
0.0
100
AcDbAttributeDefinition
  3
Substituido por:
  2
SUBSTITUIDO
 70
     0
  0
ATTDEF
  5
BB8
330
B9E
100
AcDbEntity
  8
1
100
AcDbText
 10
-110.0220608548302
 20
1.478208457928303
 30
0.0
 40
2.0
  1
XXXXXXXXXXXXXXXXXXXXXXXXXXXXXXXXXX
 41
0.8
  7
SANINDUSA
 11
-110.0220608548302
 21
2.478208457928303
 31
0.0
100
AcDbAttributeDefinition
  3
Localização do desenho:
  2
LOC-DWG
 70
     0
 74
     2
  0
LINE
  5
BB9
330
B9E
100
AcDbEntity
  8
3
100
AcDbLine
 10
-135.0
 20
4.0
 30
0.0
 11
0.0000000000004547
 21
4.0
 31
0.0
  0
LINE
  5
BBA
330
B9E
100
AcDbEntity
  8
3
100
AcDbLine
 10
-90.00000000000046
 20
12.0
 30
0.0
 11
-135.0
 21
12.0
 31
0.0
  0
LINE
  5
BBB
330
B9E
100
AcDbEntity
  8
3
100
AcDbLine
 10
-135.0
 20
32.5
 30
0.0
 11
-40.0
 21
32.5
 31
0.0
  0
TEXT
  5
BBC
330
B9E
100
AcDbEntity
  8
1
100
AcDbText
 10
-134.0
 20
1.25
 30
0.0
 40
2.0
  1
Localização do des.:
 41
0.8
  7
SANINDUSA
 11
-134.0
 21
2.25
 31
0.0
100
AcDbText
 73
     2
  0
LINE
  5
BBD
330
B9E
100
AcDbEntity
  8
3
100
AcDbLine
 10
-180.0
 20
65.0
 30
0.0
 11
0.0
 21
65.0
 31
0.0
  0
LINE
  5
BBE
330
B9E
100
AcDbEntity
  8
leg fin
100
AcDbLine
 10
-40.0
 20
25.05956924886846
 30
0.0
 11
-135.0
 21
25.05956924886846
 31
0.0
  0
LINE
  5
BBF
330
B9E
100
AcDbEntity
  8
leg fin
100
AcDbLine
 10
-40.0
 20
28.5
 30
0.0
 11
-135.0
 21
28.5
 31
0.0
  0
LINE
  5
BC0
330
B9E
100
AcDbEntity
  8
3
100
AcDbLine
 10
-135.0
 20
50.0
 30
0.0
 11
-40.0
 21
50.0
 31
0.0
  0
TEXT
  5
BC1
330
B9E
100
AcDbEntity
  8
1
100
AcDbText
 10
-134.0
 20
29.75
 30
0.0
 40
2.0
  1
Desenho nº:
 41
0.8
  7
SANINDUSA
 11
-134.0
 21
30.75
 31
0.0
100
AcDbText
 73
     2
  0
TEXT
  5
BC2
330
B9E
100
AcDbEntity
  8
1
100
AcDbText
 10
-134.0
 20
9.25
 30
0.0
 40
2.0
  1
Acabamento:
 41
0.8
  7
SANINDUSA
 11
-134.0
 21
10.25
 31
0.0
100
AcDbText
 73
     2
  0
LINE
  5
BC3
330
B9E
100
AcDbEntity
  8
3
100
AcDbLine
 10
-180.0
 20
20.0
 30
0.0
 11
0.0
 21
20.0
 31
0.0
  0
LINE
  5
BC4
330
B9E
100
AcDbEntity
  8
1
100
AcDbLine
 10
-174.5810776056337
 20
55.5
 30
0.0
 11
-174.5810776056337
 21
65.0
 31
0.0
  0
LINE
  5
BC5
330
B9E
100
AcDbEntity
  8
1
100
AcDbLine
 10
-168.9210461879161
 20
55.5
 30
0.0
 11
-168.9210461879161
 21
65.0
 31
0.0
  0
LINE
  5
BC6
330
B9E
100
AcDbEntity
  8
1
100
AcDbLine
 10
-154.0988595589306
 20
55.5
 30
0.0
 11
-154.0988595589306
 21
65.0
 31
0.0
  0
LINE
  5
BC7
330
B9E
100
AcDbEntity
  8
3
100
AcDbLine
 10
-180.0
 20
65.0
 30
0.0
 11
-180.0
 21
0.0
 31
0.0
  0
LINE
  5
BC8
330
B9E
100
AcDbEntity
  8
3
100
AcDbLine
 10
-135.0
 20
0.0
 30
0.0
 11
-135.0
 21
65.0
 31
0.0
  0
TEXT
  5
BC9
330
B9E
100
AcDbEntity
  8
1
100
AcDbText
 10
-179.0
 20
9.75
 30
0.0
 40
1.5
  1
Des.
 41
0.8
  7
SANINDUSA
 11
-179.0
 21
10.5
 31
0.0
100
AcDbText
 73
     2
  0
LINE
  5
BCA
330
B9E
100
AcDbEntity
  8
1
100
AcDbLine
 10
-168.9210461879161
 20
20.0
 30
0.0
 11
-168.9210461879161
 21
0.0
 31
0.0
  0
LINE
  5
BCB
330
B9E
100
AcDbEntity
  8
1
100
AcDbLine
 10
-154.0988595589306
 20
20.0
 30
0.0
 11
-154.0988595589306
 21
0.0
 31
0.0
  0
LINE
  5
BCC
330
B9E
100
AcDbEntity
  8
1
100
AcDbLine
 10
-180.0
 20
4.0
 30
0.0
 11
-135.0
 21
4.0
 31
0.0
  0
LINE
  5
BCD
330
B9E
100
AcDbEntity
  8
1
100
AcDbLine
 10
-180.0
 20
8.0
 30
0.0
 11
-135.0
 21
8.0
 31
0.0
  0
TEXT
  5
BCE
330
B9E
100
AcDbEntity
  8
1
100
AcDbText
 10
-179.0
 20
1.73257823687436
 30
0.0
 40
1.5
  1
Aprov.
 41
0.8
  7
SANINDUSA
 11
-179.0
 21
2.48257823687436
 31
0.0
100
AcDbText
 73
     2
  0
TEXT
  5
BCF
330
B9E
100
AcDbEntity
  8
1
100
AcDbText
 10
-179.0
 20
5.75
 30
0.0
 40
1.5
  1
Ver.
 41
0.8
  7
SANINDUSA
 11
-179.0
 21
6.5
 31
0.0
100
AcDbText
 73
     2
  0
LINE
  5
BD0
330
B9E
100
AcDbEntity
  8
1
100
AcDbLine
 10
-180.0
 20
16.0
 30
0.0
 11
-135.0
 21
16.0
 31
0.0
  0
LINE
  5
BD1
330
B9E
100
AcDbEntity
  8
1
100
AcDbLine
 10
-180.0
 20
12.0
 30
0.0
 11
-135.0
 21
12.0
 31
0.0
  0
TEXT
  5
BD2
330
B9E
100
AcDbEntity
  8
1
100
AcDbText
 10
-179.0
 20
13.75
 30
0.0
 40
1.5
  1
Proj.
 41
0.8
  7
SANINDUSA
 11
-179.0
 21
14.5
 31
0.0
100
AcDbText
 73
     2
  0
TEXT
  5
BD3
330
B9E
100
AcDbEntity
  8
1
100
AcDbText
 10
-167.9210461879161
 20
17.75
 30
0.0
 40
1.5
  1
Data
 41
0.8
  7
SANINDUSA
 11
-167.9210461879161
 21
18.5
 31
0.0
100
AcDbText
 73
     2
  0
TEXT
  5
BD4
330
B9E
100
AcDbEntity
  8
1
100
AcDbText
 10
-153.0988595589306
 20
17.75
 30
0.0
 40
1.5
  1
Nome
 41
0.8
  7
SANINDUSA
 11
-153.0988595589306
 21
18.5
 31
0.0
100
AcDbText
 73
     2
  0
LINE
  5
BD5
330
B9E
100
AcDbEntity
  8
leg fin
100
AcDbLine
 10
-130.0
 20
20.0
 30
0.0
 11
-130.0
 21
28.5
 31
0.0
  0
TEXT
  5
BD6
330
B9E
100
AcDbEntity
  8
1
100
AcDbText
 10
-134.0
 20
17.25
 30
0.0
 40
2.0
  1
Material:
 41
0.8
  7
SANINDUSA
 11
-134.0
 21
18.25
 31
0.0
100
AcDbText
 73
     2
  0
TEXT
  5
BD7
330
B9E
100
AcDbEntity
  8
1
100
AcDbText
 10
-129.0
 20
26.43288406845113
 30
0.0
 40
1.5
  1
Ano:
 41
0.8
  7
SANINDUSA
 11
-129.0
 21
27.18288406845113
 31
0.0
100
AcDbText
 73
     2
  0
LINE
  5
BD8
330
B9E
100
AcDbEntity
  8
1
100
AcDbLine
 10
-180.0
 20
55.5
 30
0.0
 11
-135.0
 21
55.5
 31
0.0
  0
TEXT
  5
BD9
330
B9E
100
AcDbEntity
  8
1
100
AcDbText
 10
-179.0
 20
52.67772246885193
 30
0.0
 40
1.5
  1
descrição
 41
0.8
  7
SANINDUSA
 11
-179.0
 21
53.42772246885193
 31
0.0
100
AcDbText
 73
     2
  0
TEXT
  5
BDA
330
B9E
100
AcDbEntity
  8
1
100
AcDbText
 10
-134.0
 20
47.25
 30
0.0
 40
2.0
  1
Peça:
 41
0.8
  7
SANINDUSA
 11
-134.0
 21
48.25
 31
0.0
100
AcDbText
 73
     2
  0
LINE
  5
BDB
330
B9E
100
AcDbEntity
  8
1
100
AcDbLine
 10
-180.0
 20
59.5
 30
0.0
 11
-135.0
 21
59.5
 31
0.0
  0
TEXT
  5
BDC
330
B9E
100
AcDbEntity
  8
1
100
AcDbText
 10
-173.5810776056337
 20
62.75
 30
0.0
 40
1.5
  1
Alt.
 41
0.8
  7
SANINDUSA
 11
-173.5810776056337
 21
63.5
 31
0.0
100
AcDbText
 73
     2
  0
TEXT
  5
BDD
330
B9E
100
AcDbEntity
  8
1
100
AcDbText
 10
-179.0
 20
62.75
 30
0.0
 40
1.5
  1
Rev.
 41
0.8
  7
SANINDUSA
 11
-179.0
 21
63.5
 31
0.0
100
AcDbText
 73
     2
  0
TEXT
  5
BDE
330
B9E
100
AcDbEntity
  8
1
100
AcDbText
 10
-167.9210461879161
 20
62.75
 30
0.0
 40
1.5
  1
Data
 41
0.8
  7
SANINDUSA
 11
-167.9210461879161
 21
63.5
 31
0.0
100
AcDbText
 73
     2
  0
TEXT
  5
BDF
330
B9E
100
AcDbEntity
  8
1
100
AcDbText
 10
-153.0988595589306
 20
62.75
 30
0.0
 40
1.5
  1
Nome
 41
0.8
  7
SANINDUSA
 11
-153.0988595589306
 21
63.5
 31
0.0
100
AcDbText
 73
     2
  0
TEXT
  5
BE0
330
B9E
100
AcDbEntity
  8
1
100
AcDbText
 10
-134.0
 20
62.25
 30
0.0
 40
2.0
  1
Produto:
 41
0.8
  7
SANINDUSA
 11
-134.0
 21
63.25
 31
0.0
100
AcDbText
 73
     2
  0
LINE
  5
BE1
330
B9E
100
AcDbEntity
  8
3
100
AcDbLine
 10
-40.0
 20
4.0
 30
0.0
 11
-40.0
 21
65.0
 31
0.0
  0
LWPOLYLINE
  5
BE2
102
{ACAD_REACTORS
330
BEC
102
}
330
B9E
100
AcDbEntity
  8
9
100
AcDbPolyline
 90
       12
 70
     1
 43
0.0
 10
-3.038714600644652
 20
58.90010174665076
 10
-5.726962862472191
 20
58.90010174665076
 10
-5.726962862472191
 20
58.5001017466509
 10
-3.038748516195028
 20
58.5001017466509
 42
-0.4142135623731731
 10
-2.638748516194482
 20
58.1001017466508
 10
-2.638748516194482
 20
57.42799728675596
 10
-5.21497371544865
 20
57.42799728675596
 42
0.4142135623731289
 10
-6.014973715448377
 20
56.627997286756
 10
-6.014973715448377
 20
55.92380871629643
 42
0.4142135623731132
 10
-5.21497371544865
 20
55.12380871629648
 10
-2.23871460064447
 20
55.12380871629648
 10
-2.23871460064447
 20
58.10010174665103
 42
0.4142135623730717
  0
LWPOLYLINE
  5
BE3
102
{ACAD_REACTORS
330
BEC
102
}
330
B9E
100
AcDbEntity
  8
9
100
AcDbPolyline
 90
       20
 70
     1
 43
0.0
 10
-10.01531287095122
 20
57.82799728675581
 10
-10.01531287095122
 20
58.10010174665103
 42
-0.4142135623730744
 10
-9.615312870951584
 20
58.5001017466509
 10
-6.92703069357276
 20
58.5001017466509
 10
-6.92703069357276
 20
58.90010174665076
 10
-9.615346786501959
 20
58.90010174665076
 42
0.4142135623730883
 10
-10.41534678650168
 20
58.1001017466508
 10
-10.41534678650168
 20
57.82796337120567
 42
0.4142135623730717
 10
-9.615346786501959
 20
57.02796337120571
 10
-7.423079531965413
 20
57.02796337120571
 42
-0.4142135623730847
 10
-7.023079531965322
 20
56.62796337120562
 10
-7.023079531965322
 20
55.90786840766487
 42
-0.4142135623730744
 10
-7.423079531965413
 20
55.507868407665
 10
-10.41534678650168
 20
55.507868407665
 10
-10.41534678650168
 20
55.12380871629648
 10
-7.445787917283723
 20
55.12380871629648
 42
0.4114777732064574
 10
-6.645822882998345
 20
55.9163291493976
 10
-6.639238813324936
 20
56.62051771985716
 42
0.4169546541682913
 10
-7.439203847610315
 20
57.42799728675596
 10
-9.615312870951584
 20
57.42799728675596
 42
-0.4142135623731576
  0
LWPOLYLINE
  5
BE4
102
{ACAD_REACTORS
330
BEC
102
}
330
B9E
100
AcDbEntity
  8
9
100
AcDbPolyline
 90
       12
 70
     1
 43
0.0
 10
-14.41561811090378
 20
58.90010174665076
 10
-14.79964388672215
 20
58.90010174665076
 10
-14.79964388672215
 20
55.92380871629643
 42
0.4142135623731133
 10
-13.99964388672242
 20
55.12380871629648
 10
-11.8233508563676
 20
55.12380871629648
 42
0.4142135623730872
 10
-11.02335085636741
 20
55.92380871629643
 10
-11.02335085636741
 20
58.90010174665076
 10
-11.42338477191788
 20
58.90010174665076
 10
-11.42338477191788
 20
55.91567577726095
 42
-0.4131711701795318
 10
-11.82196067063523
 20
55.51567831234956
 10
-14.0141940096214
 20
55.50787335710947
 42
-0.4152567234624407
 10
-14.41561811090378
 20
55.90787082202087
  0
LWPOLYLINE
  5
BE5
102
{ACAD_REACTORS
330
BEC
102
}
330
B9E
100
AcDbEntity
  8
9
100
AcDbPolyline
 90
        6
 70
     1
 43
0.0
 10
-15.80771578768872
 20
55.507868407665
 10
-18.39994912667453
 20
55.507868407665
 42
-0.4142135623731731
 10
-18.79994912667462
 20
55.90786840766487
 10
-18.79994912667462
 20
58.10010174665103
 42
-0.4142135623730744
 10
-18.39994912667453
 20
58.5001017466509
 10
-15.80771578768872
 20
58.5001017466509
  0
LWPOLYLINE
  5
BE6
102
{ACAD_REACTORS
330
BEC
102
}
330
B9E
100
AcDbEntity
  8
9
100
AcDbPolyline
 90
        8
 70
     1
 43
0.0
 10
-15.4236900118708
 20
59.87619128370352
 10
-15.80771578768872
 20
59.87619128370352
 10
-15.80771578768872
 20
58.90010174665076
 10
-18.39176256411201
 20
58.90010174665076
 42
0.4131164467977967
 10
-19.19175694739761
 20
58.1030995310698
 10
-19.1999120763262
 20
55.92680650071542
 42
0.4153115297271718
 10
-18.39991769304061
 20
55.12380871629648
 10
-15.4236900118708
 20
55.12380871629648
  0
LWPOLYLINE
  5
BE7
102
{ACAD_REACTORS
330
BEC
102
}
330
B9E
100
AcDbEntity
  8
9
100
AcDbPolyline
 90
       10
 70
     1
 43
0.0
 10
-20.59201288790928
 20
58.90010174665076
 10
-23.56830591826338
 20
58.90010174665076
 10
-23.56830591826338
 20
55.12380871629648
 10
-23.18424622689509
 20
55.12380871629648
 10
-23.18424622689509
 20
58.5001017466509
 10
-20.59204680345965
 20
58.5001017466509
 42
-0.4142135623730898
 10
-20.19204680345956
 20
58.1001017466508
 10
-20.19204680345956
 20
55.12380871629648
 10
-19.79201288790909
 20
55.12380871629648
 10
-19.79201288790909
 20
58.10010174665103
 42
0.4142135623731132
  0
LWPOLYLINE
  5
BE8
102
{ACAD_REACTORS
330
BEC
102
}
330
B9E
100
AcDbEntity
  8
9
100
AcDbPolyline
 90
        4
 70
     1
 43
0.0
 10
-24.19231812786165
 20
58.90010174665076
 10
-24.57637781922995
 20
58.90010174665076
 10
-24.57637781922995
 20
55.12380871629648
 10
-24.19231812786165
 20
55.12380871629648
  0
LWPOLYLINE
  5
BE9
102
{ACAD_REACTORS
330
BEC
102
}
330
B9E
100
AcDbEntity
  8
9
100
AcDbPolyline
 90
       10
 70
     1
 43
0.0
 10
-28.57661522808212
 20
58.5001017466509
 10
-25.98444972019706
 20
58.5001017466509
 42
-0.4142135623731731
 10
-25.58444972019652
 20
58.1001017466508
 10
-25.58444972019652
 20
55.12380871629648
 10
-25.2004239443786
 20
55.12380871629648
 10
-25.2004239443786
 20
58.10010174665103
 42
0.4142135623730717
 10
-26.00042394437833
 20
58.90010174665076
 10
-28.97664914363259
 20
58.90010174665076
 10
-28.97664914363259
 20
55.12380871629648
 10
-28.57661522808212
 20
55.12380871629648
  0
LWPOLYLINE
  5
BEA
102
{ACAD_REACTORS
330
BEC
102
}
330
B9E
100
AcDbEntity
  8
9
100
AcDbPolyline
 90
       12
 70
     1
 43
0.0
 10
-29.58465321349832
 20
58.10010174665103
 42
0.4142135623730716
 10
-30.3846532134985
 20
58.90010174665076
 10
-33.07296930642724
 20
58.90010174665076
 10
-33.07296930642724
 20
58.5001017466509
 10
-30.38468712904842
 20
58.5001017466509
 42
-0.4142135623730067
 10
-29.98468712904878
 20
58.1001017466508
 10
-29.98468712904878
 20
57.42799728675618
 10
-32.56098015940324
 20
57.42799728675596
 42
0.4142135623731289
 10
-33.36098015940343
 20
56.627997286756
 10
-33.36098015940343
 20
55.92380871629643
 42
0.4142135623731132
 10
-32.56098015940324
 20
55.12380871629648
 10
-29.58465321349832
 20
55.12380871629648
  0
LWPOLYLINE
  5
BEB
102
{ACAD_REACTORS
330
BEC
102
}
330
B9E
100
AcDbEntity
  8
9
100
AcDbPolyline
 90
       20
 70
     1
 43
0.0
 10
-34.7850262845518
 20
57.42799728675596
 10
-36.96125148380543
 20
57.42799728675596
 42
-0.4142135623730898
 10
-37.36125148380552
 20
57.82799728675604
 10
-37.36125148380552
 20
58.10010174665103
 42
-0.4142135623730744
 10
-36.96125148380543
 20
58.5001017466509
 10
-34.27303713752781
 20
58.50010174665067
 10
-34.27303713752781
 20
58.90010174665076
 10
-36.96128539935535
 20
58.90010174665076
 42
0.4142135623731289
 10
-37.76128539935553
 20
58.1001017466508
 10
-37.76128539935553
 20
57.82796337120567
 42
0.4142135623730716
 10
-36.9612853993558
 20
57.02796337120571
 10
-34.76901814481926
 20
57.02796337120571
 42
-0.414213562373168
 10
-34.36901814481962
 20
56.62796337120562
 10
-34.36901814481962
 20
55.90786840766487
 42
-0.4142135623730744
 10
-34.76901814481926
 20
55.507868407665
 10
-37.76128539935553
 20
55.507868407665
 10
-37.76128539935553
 20
55.12380871629648
 10
-34.7850262845518
 20
55.12380871629648
 42
0.4142135623731289
 10
-33.98502628455162
 20
55.92380871629643
 10
-33.98502628455162
 20
56.627997286756
 42
0.4142135623731132
  0
HATCH
  5
BEC
330
B9E
100
AcDbEntity
  8
9
100
AcDbHatch
 10
0.0
 20
0.0
 30
0.0
210
0.0
220
0.0
230
1.0
  2
SOLID
 70
     1
 71
     1
 91
       13
 92
        7
 72
     1
 73
     1
 93
       20
 10
-34.36901814481962
 20
55.90786840766487
 42
-0.414213562372991
 10
-34.76901814481926
 20
55.507868407665
 42
0.0
 10
-37.76128539935553
 20
55.507868407665
 42
0.0
 10
-37.76128539935553
 20
55.12380871629648
 42
0.0
 10
-34.7850262845518
 20
55.12380871629648
 42
0.4142135623731705
 10
-33.98502628455162
 20
55.92380871629666
 42
0.0
 10
-33.98502628455162
 20
56.627997286756
 42
0.4142135623731547
 10
-34.7850262845518
 20
57.42799728675596
 42
0.0
 10
-36.96125148380543
 20
57.42799728675596
 42
-0.4142135623730898
 10
-37.36125148380552
 20
57.82799728675604
 42
0.0
 10
-37.36125148380552
 20
58.1001017466508
 42
-0.4142135623731575
 10
-36.96125148380543
 20
58.5001017466509
 42
0.0
 10
-34.27303713752781
 20
58.50010174665067
 42
0.0
 10
-34.27303713752781
 20
58.90010174665076
 42
0.0
 10
-36.96128539935535
 20
58.90010174665076
 42
0.4142135623731705
 10
-37.76128539935553
 20
58.10010174665058
 42
0.0
 10
-37.76128539935553
 20
57.82796337120544
 42
0.4142135623730299
 10
-36.9612853993558
 20
57.02796337120571
 42
0.0
 10
-34.76901814481926
 20
57.02796337120571
 42
-0.4142135623730015
 10
-34.36901814481962
 20
56.62796337120608
 42
0.0
 97
        1
330
BEB
 92
        7
 72
     1
 73
     1
 93
       12
 10
-33.36098015940343
 20
55.92380871629666
 42
0.4142135623731547
 10
-32.56098015940324
 20
55.12380871629648
 42
0.0
 10
-29.58465321349877
 20
55.12380871629648
 42
0.0
 10
-29.58465321349832
 20
58.10010174665058
 42
0.4142135623731964
 10
-30.3846532134985
 20
58.90010174665076
 42
0.0
 10
-33.07296930642724
 20
58.90010174665076
 42
0.0
 10
-33.07296930642724
 20
58.50010174665067
 42
0.0
 10
-30.38468712904887
 20
58.5001017466509
 42
-0.4142135623732564
 10
-29.98468712904878
 20
58.10010174665103
 42
0.0
 10
-29.98468712904923
 20
57.42799728675596
 42
0.0
 10
-32.56098015940324
 20
57.42799728675596
 42
0.4142135623731705
 10
-33.36098015940343
 20
56.627997286756
 42
0.0
 97
        1
330
BEA
 92
       22
 72
     1
 73
     1
 93
        6
 10
-32.97692046803468
 20
56.62796337120562
 42
-0.4142135623731576
 10
-32.57692046803459
 20
57.02796337120571
 42
0.0
 10
-29.98468712904878
 20
57.02796337120571
 42
0.0
 10
-29.98468712904878
 20
55.507868407665
 42
0.0
 10
-32.57692046803459
 20
55.507868407665
 42
-0.4142135623731731
 10
-32.97692046803468
 20
55.90786840766487
 42
0.0
 97
        1
330
C11
 92
        7
 72
     1
 73
     1
 93
       10
 10
-28.57661522808212
 20
58.5001017466509
 42
0.0
 10
-25.98444972019661
 20
58.5001017466509
 42
-0.4142135623730067
 10
-25.58444972019652
 20
58.10010174665058
 42
0.0
 10
-25.58444972019606
 20
55.12380871629648
 42
0.0
 10
-25.20042394437906
 20
55.12380871629648
 42
0.0
 10
-25.2004239443786
 20
58.1001017466508
 42
0.4142135623731134
 10
-26.00042394437833
 20
58.90010174665076
 42
0.0
 10
-28.97664914363259
 20
58.90010174665076
 42
0.0
 10
-28.97664914363259
 20
55.12380871629648
 42
0.0
 10
-28.57661522808212
 20
55.12380871629648
 42
0.0
 97
        1
330
BE9
 92
        7
 72
     0
 73
     1
 93
        4
 10
-24.57637781922995
 20
55.12380871629648
 10
-24.19231812786165
 20
55.12380871629648
 10
-24.19231812786165
 20
58.90010174665076
 10
-24.57637781922995
 20
58.90010174665076
 97
        1
330
BE8
 92
        7
 72
     0
 73
     1
 93
        4
 10
-24.19231812786165
 20
59.87619128370352
 10
-24.5763778192304
 20
59.87619128370352
 10
-24.5763778192304
 20
59.28412752246913
 10
-24.1923181278612
 20
59.28412752246913
 97
        1
330
C12
 92
        7
 72
     1
 73
     1
 93
       10
 10
-23.18424622689509
 20
58.5001017466509
 42
0.0
 10
-20.59204680345965
 20
58.5001017466509
 42
-0.4142135623730898
 10
-20.19204680345956
 20
58.1001017466508
 42
0.0
 10
-20.19204680345956
 20
55.12380871629648
 42
0.0
 10
-19.79201288790909
 20
55.12380871629648
 42
0.0
 10
-19.79201288790909
 20
58.1001017466508
 42
0.4142135623731547
 10
-20.59201288790928
 20
58.90010174665076
 42
0.0
 10
-23.56830591826338
 20
58.90010174665076
 42
0.0
 10
-23.56830591826338
 20
55.12380871629648
 42
0.0
 10
-23.18424622689463
 20
55.12380871629648
 42
0.0
 97
        1
330
BE7
 92
        7
 72
     1
 73
     1
 93
        8
 10
-19.1999120763262
 20
55.92680650071542
 42
0.4153115297271299
 10
-18.39991769304061
 20
55.12380871629648
 42
0.0
 10
-15.4236900118708
 20
55.12380871629648
 42
0.0
 10
-15.4236900118708
 20
59.87619128370352
 42
0.0
 10
-15.80771578768872
 20
59.87619128370352
 42
0.0
 10
-15.80771578768872
 20
58.90010174665076
 42
0.0
 10
-18.39176256411201
 20
58.90010174665076
 42
0.4131164467977965
 10
-19.19175694739761
 20
58.1030995310698
 42
0.0
 97
        1
330
BE6
 92
       22
 72
     1
 73
     1
 93
        6
 10
-18.79994912667462
 20
58.1001017466508
 42
-0.4142135623731575
 10
-18.39994912667453
 20
58.5001017466509
 42
0.0
 10
-15.80771578768872
 20
58.50010174665067
 42
0.0
 10
-15.80771578768827
 20
55.507868407665
 42
0.0
 10
-18.39994912667453
 20
55.507868407665
 42
-0.4142135623731731
 10
-18.79994912667462
 20
55.90786840766487
 42
0.0
 97
        1
330
BE5
 92
        7
 72
     1
 73
     1
 93
       12
 10
-14.79964388672215
 20
55.92380871629621
 42
0.4142135623729885
 10
-13.99964388672242
 20
55.12380871629648
 42
0.0
 10
-11.8233508563676
 20
55.12380871629648
 42
0.4142135623731289
 10
-11.02335085636741
 20
55.92380871629666
 42
0.0
 10
-11.02335085636741
 20
58.90010174665076
 42
0.0
 10
-11.42338477191788
 20
58.90010174665076
 42
0.0
 10
-11.42338477191788
 20
55.91567577726095
 42
-0.4131711701795319
 10
-11.82196067063523
 20
55.51567831234956
 42
0.0
 10
-14.01419400962095
 20
55.50787335710947
 42
-0.4152567234626918
 10
-14.41561811090378
 20
55.90787082202087
 42
0.0
 10
-14.41561811090378
 20
58.90010174665076
 42
0.0
 10
-14.7996438867226
 20
58.90010174665076
 42
0.0
 97
        1
330
BE4
 92
        7
 72
     1
 73
     1
 93
       20
 10
-7.423079531965413
 20
57.02796337120571
 42
-0.414213562373168
 10
-7.023079531965322
 20
56.62796337120562
 42
0.0
 10
-7.023079531965322
 20
55.90786840766487
 42
-0.4142135623731575
 10
-7.423079531965413
 20
55.507868407665
 42
0.0
 10
-10.41534678650168
 20
55.507868407665
 42
0.0
 10
-10.41534678650168
 20
55.12380871629648
 42
0.0
 10
-7.445787917283723
 20
55.12380871629648
 42
0.4114777732065809
 10
-6.645822882998345
 20
55.91632914939783
 42
0.0
 10
-6.639238813324936
 20
56.62051771985716
 42
0.4169546541682913
 10
-7.439203847610315
 20
57.42799728675596
 42
0.0
 10
-9.615312870951584
 20
57.42799728675596
 42
-0.4142135623729911
 10
-10.01531287095122
 20
57.82799728675581
 42
0.0
 10
-10.01531287095122
 20
58.10010174665103
 42
-0.414213562372991
 10
-9.615312870951584
 20
58.5001017466509
 42
0.0
 10
-6.92703069357276
 20
58.50010174665067
 42
0.0
 10
-6.927030693572305
 20
58.90010174665076
 42
0.0
 10
-9.615346786501959
 20
58.90010174665076
 42
0.4142135623730467
 10
-10.41534678650168
 20
58.10010174665103
 42
0.0
 10
-10.41534678650168
 20
57.82796337120544
 42
0.4142135623730301
 10
-9.615346786501959
 20
57.02796337120571
 42
0.0
 97
        1
330
BE3
 92
        7
 72
     1
 73
     1
 93
       12
 10
-5.21497371544865
 20
57.42799728675596
 42
0.4142135623730871
 10
-6.014973715448377
 20
56.627997286756
 42
0.0
 10
-6.014973715448377
 20
55.92380871629621
 42
0.4142135623730715
 10
-5.21497371544865
 20
55.12380871629648
 42
0.0
 10
-2.23871460064447
 20
55.12380871629648
 42
0.0
 10
-2.23871460064447
 20
58.10010174665058
 42
0.414213562373155
 10
-3.038714600644652
 20
58.90010174665076
 42
0.0
 10
-5.726962862471737
 20
58.90010174665076
 42
0.0
 10
-5.726962862472191
 20
58.5001017466509
 42
0.0
 10
-3.038748516194573
 20
58.5001017466509
 42
-0.4142135623730067
 10
-2.638748516194482
 20
58.10010174665058
 42
0.0
 10
-2.638748516194482
 20
57.42799728675596
 42
0.0
 97
        1
330
BE2
 92
       22
 72
     1
 73
     1
 93
        6
 10
-2.638748516194937
 20
57.02796337120571
 42
0.0
 10
-2.638748516194482
 20
55.50786840766477
 42
0.0
 10
-5.21497371544865
 20
55.507868407665
 42
-0.4142135623731731
 10
-5.614973715448741
 20
55.90786840766509
 42
0.0
 10
-5.614973715448741
 20
56.62796337120562
 42
-0.4142135623731576
 10
-5.21497371544865
 20
57.02796337120571
 42
0.0
 97
        1
330
C0D
 75
     0
 76
     1
 47
0.0407044778999864
 98
       13
 10
-34.18710075113677
 20
56.16907953933765
 10
-33.12851374392494
 20
56.49471602641233
 10
-33.12851374392494
 20
56.49471602641233
 10
-28.77202873835904
 20
57.51232930166111
 10
-24.41554807250941
 20
57.91937341678636
 10
-24.41554807250941
 20
59.384734621186
 10
-23.31624584658039
 20
58.3264175319116
 10
-19.04119127844888
 20
57.75655517324913
 10
-19.04119127844888
 20
57.75655517324913
 10
-14.64399105416578
 20
57.43091868617466
 10
-8.048195057457178
 20
57.22739662861204
 10
-4.017427461911665
 20
57.18669281458665
 10
-4.017427461911665
 20
57.18669281458665
  0
TEXT
  5
BED
330
B9E
100
AcDbEntity
  8
leg fin
100
AcDbText
 10
3.391127401597259
 20
2.107634911895729
 30
0.0
 40
1.5
  1
Este desenho é propriedade da Sanindusa, S.A., e não pode ser copiado nem divulgado sem nossa autorização.
 50
90.0
 41
0.8
  7
SANINDUSA
100
AcDbText
  0
LINE
  5
BEE
330
B9E
100
AcDbEntity
  8
3
100
AcDbLine
 10
-90.0
 20
4.0
 30
0.0
 11
-90.0
 21
12.0
 31
0.0
  0
TEXT
  5
BEF
330
B9E
100
AcDbEntity
  8
1
100
AcDbText
 10
-39.0
 20
9.25
 30
0.0
 40
2.0
  1
Substituido por:
 41
0.8
  7
SANINDUSA
 11
-39.0
 21
10.25
 31
0.0
100
AcDbText
 73
     2
  0
POINT
  5
BF0
330
B9E
100
AcDbEntity
  8
SANINDUSA
100
AcDbPoint
 10
0.0
 20
0.0
 30
0.0
  0
TEXT
  5
BF1
330
B9E
100
AcDbEntity
  8
1
100
AcDbText
 10
-89.0
 20
16.74927010445663
 30
0.0
 40
2.0
  1
Normas:
 41
0.8
  7
SANINDUSA
 11
-89.0
 21
17.74927010445663
 31
0.0
100
AcDbText
 73
     2
  0
LINE
  5
BF2
330
B9E
100
AcDbEntity
  8
3
100
AcDbLine
 10
-90.0
 20
12.0
 30
0.0
 11
-90.0
 21
20.0
 31
0.0
  0
LINE
  5
BF3
330
B9E
100
AcDbEntity
  8
3
100
AcDbLine
 10
-110.546019464768
 20
12.0
 30
0.0
 11
-110.546019464768
 21
20.0
 31
0.0
  0
TEXT
  5
BF4
330
B9E
100
AcDbEntity
  8
1
100
AcDbText
 10
-109.6177520618648
 20
17.25
 30
0.0
 40
2.0
  1
Cor:
 41
0.8
  7
SANINDUSA
 11
-109.6177520618648
 21
18.25
 31
0.0
100
AcDbText
 73
     2
  0
LINE
  5
BF5
330
B9E
100
AcDbEntity
  8
leg fin
100
AcDbLine
 10
-91.42857142857156
 20
20.0
 30
0.0
 11
-91.42857142857156
 21
28.5
 31
0.0
  0
LINE
  5
BF6
330
B9E
100
AcDbEntity
  8
leg fin
100
AcDbLine
 10
-104.2857142857142
 20
20.0
 30
0.0
 11
-104.2857142857142
 21
28.5
 31
0.0
  0
LINE
  5
BF7
330
B9E
100
AcDbEntity
  8
leg fin
100
AcDbLine
 10
-117.1428571428573
 20
20.0
 30
0.0
 11
-117.1428571428573
 21
28.5
 31
0.0
  0
POINT
  5
BF8
330
B9E
100
AcDbEntity
  8
SANINDUSA
100
AcDbPoint
 10
-117.1428571428573
 20
28.5
 30
0.0
  0
POINT
  5
BF9
330
B9E
100
AcDbEntity
  8
SANINDUSA
100
AcDbPoint
 10
-104.2857142857142
 20
28.5
 30
0.0
  0
POINT
  5
BFA
330
B9E
100
AcDbEntity
  8
SANINDUSA
100
AcDbPoint
 10
-91.42857142857156
 20
28.5
 30
0.0
  0
TEXT
  5
BFB
330
B9E
100
AcDbEntity
  8
1
100
AcDbText
 10
-116.200160604496
 20
26.43288406845113
 30
0.0
 40
1.5
  1
Nº Seq.:
 41
0.8
  7
SANINDUSA
 11
-116.200160604496
 21
27.18288406845113
 31
0.0
100
AcDbText
 73
     2
  0
TEXT
  5
BFC
330
B9E
100
AcDbEntity
  8
1
100
AcDbText
 10
-103.2106584078738
 20
26.43288406845113
 30
0.0
 40
1.5
  1
Tipo:
 41
0.8
  7
SANINDUSA
 11
-103.2106584078738
 21
27.18288406845113
 31
0.0
100
AcDbText
 73
     2
  0
TEXT
  5
BFD
330
B9E
100
AcDbEntity
  8
1
100
AcDbText
 10
-90.22114672289353
 20
26.43288406845113
 30
0.0
 40
1.5
  1
Prod.:
 41
0.8
  7
SANINDUSA
 11
-90.22114672289353
 21
27.18288406845113
 31
0.0
100
AcDbText
 73
     2
  0
TEXT
  5
BFE
330
B9E
100
AcDbEntity
  8
1
100
AcDbText
 10
-64.77320576346574
 20
26.43288406845113
 30
0.0
 40
1.5
  1
Rev.:
 41
0.8
  7
SANINDUSA
 11
-64.77320576346574
 21
27.18288406845113
 31
0.0
100
AcDbText
 73
     2
  0
LINE
  5
BFF
330
B9E
100
AcDbEntity
  8
leg fin
100
AcDbLine
 10
-52.85714285714266
 20
20.0
 30
0.0
 11
-52.85714285714266
 21
28.5
 31
0.0
  0
LINE
  5
C00
330
B9E
100
AcDbEntity
  8
leg fin
100
AcDbLine
 10
-65.71428571428578
 20
20.0
 30
0.0
 11
-65.71428571428578
 21
28.5
 31
0.0
  0
LINE
  5
C01
330
B9E
100
AcDbEntity
  8
leg fin
100
AcDbLine
 10
-78.57142857142844
 20
20.0
 30
0.0
 11
-78.57142857142844
 21
28.5
 31
0.0
  0
POINT
  5
C02
330
B9E
100
AcDbEntity
  8
SANINDUSA
100
AcDbPoint
 10
-78.57142857142844
 20
28.5
 30
0.0
  0
POINT
  5
C03
330
B9E
100
AcDbEntity
  8
SANINDUSA
100
AcDbPoint
 10
-65.71428571428578
 20
28.5
 30
0.0
  0
POINT
  5
C04
330
B9E
100
AcDbEntity
  8
SANINDUSA
100
AcDbPoint
 10
-52.85714285714266
 20
28.5
 30
0.0
  0
TEXT
  5
C05
330
B9E
100
AcDbEntity
  8
1
100
AcDbText
 10
-77.61097961686573
 20
26.43288406845113
 30
0.0
 40
1.5
  1
Peça:
 41
0.8
  7
SANINDUSA
 11
-77.61097961686573
 21
27.18288406845113
 31
0.0
100
AcDbText
 73
     2
  0
TEXT
  5
C06
330
B9E
100
AcDbEntity
  8
1
100
AcDbText
 10
-52.06538060077036
 20
26.43288406845113
 30
0.0
 40
1.5
  1
Alt.:
 41
0.8
  7
SANINDUSA
 11
-52.06538060077036
 21
27.18288406845113
 31
0.0
100
AcDbText
 73
     2
  0
LINE
  5
C07
330
B9E
100
AcDbEntity
  8
3
100
AcDbLine
 10
0.0
 20
12.0
 30
0.0
 11
-40.0
 21
12.0
 31
0.0
  0
LINE
  5
C08
330
B9E
100
AcDbEntity
  8
3
100
AcDbLine
 10
-40.0
 20
32.5
 30
0.0
 11
0.0
 21
32.5
 31
0.0
  0
TEXT
  5
C09
330
B9E
100
AcDbEntity
  8
1
100
AcDbText
 10
-19.0
 20
29.75
 30
0.0
 40
2.0
  1
Folha:
 41
0.8
  7
SANINDUSA
 11
-19.0
 21
30.75
 31
0.0
100
AcDbText
 73
     2
  0
LINE
  5
C0A
330
B9E
100
AcDbEntity
  8
3
100
AcDbLine
 10
-20.0
 20
32.5
 30
0.0
 11
-20.0
 21
20.0
 31
0.0
  0
TEXT
  5
C0B
330
B9E
100
AcDbEntity
  8
1
100
AcDbText
 10
-39.0
 20
29.75
 30
0.0
 40
2.0
  1
Escala:
 41
0.8
  7
SANINDUSA
 11
-39.0
 21
30.75
 31
0.0
100
AcDbText
 73
     2
  0
TEXT
  5
C0C
330
B9E
100
AcDbEntity
  8
1
100
AcDbText
 10
-39.0
 20
17.25
 30
0.0
 40
2.0
  1
Substitui:
 41
0.8
  7
SANINDUSA
 11
-39.0
 21
18.25
 31
0.0
100
AcDbText
 73
     2
  0
LWPOLYLINE
  5
C0D
102
{ACAD_REACTORS
330
BEC
102
}
330
B9E
100
AcDbEntity
  8
9
100
AcDbPolyline
 90
        6
 70
     1
 43
0.0
 10
-2.638748516194482
 20
57.02796337120571
 10
-2.638748516194482
 20
55.50786840766477
 10
-5.21497371544865
 20
55.507868407665
 42
-0.4142135623730898
 10
-5.614973715448741
 20
55.90786840766487
 10
-5.614973715448741
 20
56.62796337120562
 42
-0.4142135623731576
 10
-5.21497371544865
 20
57.02796337120571
  0
LINE
  5
C0E
330
B9E
100
AcDbEntity
  8
3
100
AcDbLine
 10
-40.0
 20
50.0
 30
0.0
 11
0.0
 21
50.0
 31
0.0
  0
ATTDEF
  5
C0F
330
B9E
100
AcDbEntity
  8
1
100
AcDbText
 10
-31.30691739422431
 20
40.25
 30
0.0
 40
2.0
  1
XXXXXXXXXXXXXXX
 41
0.8
  7
SANINDUSA
 72
     4
 11
-20.0
 21
41.25
 31
0.0
100
AcDbAttributeDefinition
  3
Observações:
  2
OBS
 70
     0
  0
TEXT
  5
C10
330
B9E
100
AcDbEntity
  8
1
100
AcDbText
 10
-39.0
 20
47.25
 30
0.0
 40
2.0
  1
Observações:
 41
0.8
  7
SANINDUSA
 11
-39.0
 21
48.25
 31
0.0
100
AcDbText
 73
     2
  0
LWPOLYLINE
  5
C11
102
{ACAD_REACTORS
330
BEC
102
}
330
B9E
100
AcDbEntity
  8
9
100
AcDbPolyline
 90
        6
 70
     1
 43
0.0
 10
-29.98468712904878
 20
57.02796337120571
 10
-29.98468712904878
 20
55.507868407665
 10
-32.57692046803459
 20
55.507868407665
 42
-0.4142135623731731
 10
-32.97692046803468
 20
55.90786840766487
 10
-32.97692046803468
 20
56.62796337120562
 42
-0.4142135623731576
 10
-32.57692046803459
 20
57.02796337120571
  0
LWPOLYLINE
  5
C12
102
{ACAD_REACTORS
330
BEC
102
}
330
B9E
100
AcDbEntity
  8
9
100
AcDbPolyline
 90
        4
 70
     1
 43
0.0
 10
-24.19231812786165
 20
59.87619128370352
 10
-24.57637781922995
 20
59.87619128370352
 10
-24.57637781922995
 20
59.28412752246913
 10
-24.19231812786165
 20
59.28412752246913
  0
ENDBLK
  5
C14
330
B9E
100
AcDbEntity
  8
0
100
AcDbBlockEnd
  0
BLOCK
  5
10B4
330
10B3
100
AcDbEntity
  8
0
100
AcDbBlockBegin
  2
*D7
 70
     1
 10
0.0
 20
0.0
 30
0.0
  3
*D7
  1

  0
LINE
  5
10B5
330
10B3
100
AcDbEntity
  8
cotas
100
AcDbLine
 10
5750.549782062901
 20
2618.791779421451
 30
0.0
 11
5750.549782062901
 21
2685.125411733944
 31
0.0
  0
LINE
  5
10B6
330
10B3
100
AcDbEntity
  8
cotas
100
AcDbLine
 10
5870.622875365815
 20
2618.810716326681
 30
0.0
 11
5870.622875365815
 21
2685.125411733944
 31
0.0
  0
LINE
  5
10B7
330
10B3
100
AcDbEntity
  8
cotas
100
AcDbLine
 10
5760.549782062902
 20
2680.125411733944
 30
0.0
 11
5860.622875365815
 21
2680.125411733944
 31
0.0
  0
SOLID
  5
10B8
330
10B3
100
AcDbEntity
  8
cotas
100
AcDbTrace
 10
5760.549782062902
 20
2681.792078400611
 30
0.0
 11
5760.549782062902
 21
2678.458745067278
 31
0.0
 12
5750.549782062901
 22
2680.125411733944
 32
0.0
 13
5750.549782062901
 23
2680.125411733944
 33
0.0
  0
SOLID
  5
10B9
330
10B3
100
AcDbEntity
  8
cotas
100
AcDbTrace
 10
5860.622875365815
 20
2681.792078400611
 30
0.0
 11
5860.622875365815
 21
2678.458745067278
 31
0.0
 12
5870.622875365815
 22
2680.125411733944
 32
0.0
 13
5870.622875365815
 23
2680.125411733944
 33
0.0
  0
MTEXT
  5
10BA
330
10B3
100
AcDbEntity
  8
cotas
100
AcDbMText
 10
5810.586328714358
 20
2690.333605152346
 30
0.0
 40
10.0
 41
0.0
 71
     5
 72
     1
  1
120
  7
SANINDUSA
 73
     1
 44
1.0
1001
ACAD
1000
MTEXTBEGIN
1070
    73
1070
     1
1070
    44
1040
1.0
1070
    74
1070
     0
1000
MTEXTEND
  0
POINT
  5
10BB
330
10B3
100
AcDbEntity
  8
Defpoints
 62
     0
100
AcDbPoint
 10
5750.549782062901
 20
2613.791779421451
 30
0.0
  0
POINT
  5
10BC
330
10B3
100
AcDbEntity
  8
Defpoints
 62
     0
100
AcDbPoint
 10
5870.622875365815
 20
2613.810716326681
 30
0.0
  0
POINT
  5
10BD
330
10B3
100
AcDbEntity
  8
Defpoints
 62
     0
100
AcDbPoint
 10
5870.622875365815
 20
2680.125411733944
 30
0.0
  0
ENDBLK
  5
10BE
330
10B3
100
AcDbEntity
  8
0
100
AcDbBlockEnd
  0
BLOCK
  5
10C0
330
10BF
100
AcDbEntity
  8
0
100
AcDbBlockBegin
  2
*D8
 70
     1
 10
0.0
 20
0.0
 30
0.0
  3
*D8
  1

  0
LINE
  5
10C1
330
10BF
100
AcDbEntity
  8
cotas
100
AcDbLine
 10
5870.622876737251
 20
2618.802020475988
 30
0.0
 11
5870.622876737251
 21
2685.125411733944
 31
0.0
  0
LINE
  5
10C2
330
10BF
100
AcDbEntity
  8
cotas
100
AcDbLine
 10
5990.602312068934
 20
2618.802048194625
 30
0.0
 11
5990.602312068934
 21
2685.125411733944
 31
0.0
  0
LINE
  5
10C3
330
10BF
100
AcDbEntity
  8
cotas
100
AcDbLine
 10
5880.622876737252
 20
2680.125411733944
 30
0.0
 11
5980.602312068935
 21
2680.125411733944
 31
0.0
  0
SOLID
  5
10C4
330
10BF
100
AcDbEntity
  8
cotas
100
AcDbTrace
 10
5880.622876737252
 20
2681.792078400611
 30
0.0
 11
5880.622876737252
 21
2678.458745067278
 31
0.0
 12
5870.622876737251
 22
2680.125411733944
 32
0.0
 13
5870.622876737251
 23
2680.125411733944
 33
0.0
  0
SOLID
  5
10C5
330
10BF
100
AcDbEntity
  8
cotas
100
AcDbTrace
 10
5980.602312068935
 20
2681.792078400611
 30
0.0
 11
5980.602312068935
 21
2678.458745067278
 31
0.0
 12
5990.602312068934
 22
2680.125411733944
 32
0.0
 13
5990.602312068934
 23
2680.125411733944
 33
0.0
  0
MTEXT
  5
10C6
330
10BF
100
AcDbEntity
  8
cotas
100
AcDbMText
 10
5955.192478370846
 20
2690.333605152346
 30
0.0
 40
10.0
 41
0.0
 71
     5
 72
     1
  1
120
  7
SANINDUSA
 73
     1
 44
1.0
1001
ACAD
1000
MTEXTBEGIN
1070
    73
1070
     1
1070
    44
1040
1.0
1070
    74
1070
     0
1000
MTEXTEND
  0
POINT
  5
10C7
330
10BF
100
AcDbEntity
  8
Defpoints
 62
     0
100
AcDbPoint
 10
5870.622876737251
 20
2613.802020475989
 30
0.0
  0
POINT
  5
10C8
330
10BF
100
AcDbEntity
  8
Defpoints
 62
     0
100
AcDbPoint
 10
5990.602312068934
 20
2613.802048194625
 30
0.0
  0
POINT
  5
10C9
330
10BF
100
AcDbEntity
  8
Defpoints
 62
     0
100
AcDbPoint
 10
5990.602312068934
 20
2680.125411733944
 30
0.0
  0
ENDBLK
  5
10CA
330
10BF
100
AcDbEntity
  8
0
100
AcDbBlockEnd
  0
BLOCK
  5
10CC
330
10CB
100
AcDbEntity
  8
0
100
AcDbBlockBegin
  2
*D9
 70
     1
 10
0.0
 20
0.0
 30
0.0
  3
*D9
  1

  0
LINE
  5
10CD
330
10CB
100
AcDbEntity
  8
cotas
100
AcDbLine
 10
5990.602312068934
 20
2618.802048194625
 30
0.0
 11
5990.602312068934
 21
2685.125411733944
 31
0.0
  0
LINE
  5
10CE
330
10CB
100
AcDbEntity
  8
cotas
100
AcDbLine
 10
6110.59216275724
 20
2618.820971971539
 30
0.0
 11
6110.59216275724
 21
2685.125411733944
 31
0.0
  0
LINE
  5
10CF
330
10CB
100
AcDbEntity
  8
cotas
100
AcDbLine
 10
6000.602312068934
 20
2680.125411733944
 30
0.0
 11
6100.59216275724
 21
2680.125411733944
 31
0.0
  0
SOLID
  5
10D0
330
10CB
100
AcDbEntity
  8
cotas
100
AcDbTrace
 10
6000.602312068934
 20
2681.792078400611
 30
0.0
 11
6000.602312068934
 21
2678.458745067278
 31
0.0
 12
5990.602312068934
 22
2680.125411733944
 32
0.0
 13
5990.602312068934
 23
2680.125411733944
 33
0.0
  0
SOLID
  5
10D1
330
10CB
100
AcDbEntity
  8
cotas
100
AcDbTrace
 10
6100.59216275724
 20
2681.792078400611
 30
0.0
 11
6100.59216275724
 21
2678.458745067278
 31
0.0
 12
6110.59216275724
 22
2680.125411733944
 32
0.0
 13
6110.59216275724
 23
2680.125411733944
 33
0.0
  0
MTEXT
  5
10D2
330
10CB
100
AcDbEntity
  8
cotas
100
AcDbMText
 10
6050.597237413087
 20
2690.333605152346
 30
0.0
 40
10.0
 41
0.0
 71
     5
 72
     1
  1
120
  7
SANINDUSA
 73
     1
 44
1.0
1001
ACAD
1000
MTEXTBEGIN
1070
    73
1070
     1
1070
    44
1040
1.0
1070
    74
1070
     0
1000
MTEXTEND
  0
POINT
  5
10D3
330
10CB
100
AcDbEntity
  8
Defpoints
 62
     0
100
AcDbPoint
 10
5990.602312068934
 20
2613.802048194625
 30
0.0
  0
POINT
  5
10D4
330
10CB
100
AcDbEntity
  8
Defpoints
 62
     0
100
AcDbPoint
 10
6110.59216275724
 20
2613.820971971538
 30
0.0
  0
POINT
  5
10D5
330
10CB
100
AcDbEntity
  8
Defpoints
 62
     0
100
AcDbPoint
 10
6110.59216275724
 20
2680.125411733944
 30
0.0
  0
ENDBLK
  5
10D6
330
10CB
100
AcDbEntity
  8
0
100
AcDbBlockEnd
  0
BLOCK
  5
10D8
330
10D7
100
AcDbEntity
  8
0
100
AcDbBlockBegin
  2
*D10
 70
     1
 10
0.0
 20
0.0
 30
0.0
  3
*D10
  1

  0
LINE
  5
10D9
330
10D7
100
AcDbEntity
  8
cotas
100
AcDbLine
 10
5740.614249867633
 20
2600.411137187573
 30
0.0
 11
5365.074460512359
 21
2600.411137187573
 31
0.0
  0
LINE
  5
10DA
330
10D7
100
AcDbEntity
  8
cotas
100
AcDbLine
 10
5740.614289841047
 20
2440.391048953089
 30
0.0
 11
5365.074460512359
 21
2440.391048953089
 31
0.0
  0
LINE
  5
10DB
330
10D7
100
AcDbEntity
  8
cotas
100
AcDbLine
 10
5370.074460512359
 20
2590.411137187573
 30
0.0
 11
5370.074460512359
 21
2450.391048953088
 31
0.0
  0
SOLID
  5
10DC
330
10D7
100
AcDbEntity
  8
cotas
100
AcDbTrace
 10
5368.407793845692
 20
2590.411137187573
 30
0.0
 11
5371.741127179026
 21
2590.411137187573
 31
0.0
 12
5370.074460512359
 22
2600.411137187573
 32
0.0
 13
5370.074460512359
 23
2600.411137187573
 33
0.0
  0
SOLID
  5
10DD
330
10D7
100
AcDbEntity
  8
cotas
100
AcDbTrace
 10
5368.407793845692
 20
2450.391048953088
 30
0.0
 11
5371.741127179026
 21
2450.391048953088
 31
0.0
 12
5370.074460512359
 22
2440.391048953089
 32
0.0
 13
5370.074460512359
 23
2440.391048953089
 33
0.0
  0
MTEXT
  5
10DE
330
10D7
100
AcDbEntity
  8
cotas
100
AcDbMText
 10
5359.869625052319
 20
2522.396078539533
 30
0.0
 40
10.0
 41
0.0
 71
     5
 72
     1
  1
160
  7
SANINDUSA
 11
0.0000000000000001
 21
1.0
 31
0.0
 73
     1
 44
1.0
1001
ACAD
1000
MTEXTBEGIN
1070
    73
1070
     1
1070
    44
1040
1.0
1070
    74
1070
     0
1000
MTEXTEND
  0
POINT
  5
10DF
330
10D7
100
AcDbEntity
  8
Defpoints
 62
     0
100
AcDbPoint
 10
5745.614249867633
 20
2600.411137187573
 30
0.0
  0
POINT
  5
10E0
330
10D7
100
AcDbEntity
  8
Defpoints
 62
     0
100
AcDbPoint
 10
5745.614289841048
 20
2440.391048953089
 30
0.0
  0
POINT
  5
10E1
330
10D7
100
AcDbEntity
  8
Defpoints
 62
     0
100
AcDbPoint
 10
5370.074460512359
 20
2440.391048953089
 30
0.0
  0
ENDBLK
  5
10E2
330
10D7
100
AcDbEntity
  8
0
100
AcDbBlockEnd
  0
BLOCK
  5
10E4
330
10E3
100
AcDbEntity
  8
0
100
AcDbBlockBegin
  2
*D11
 70
     1
 10
0.0
 20
0.0
 30
0.0
  3
*D11
  1

  0
LINE
  5
10E5
330
10E3
100
AcDbEntity
  8
cotas
100
AcDbLine
 10
5735.614249867633
 20
2600.411137187573
 30
0.0
 11
5365.074460512359
 21
2600.411137187573
 31
0.0
  0
LINE
  5
10E6
330
10E3
100
AcDbEntity
  8
cotas
100
AcDbLine
 10
5532.762646666397
 20
2990.585196350792
 30
0.0
 11
5365.074460512359
 21
2990.585196350792
 31
0.0
  0
LINE
  5
10E7
330
10E3
100
AcDbEntity
  8
cotas
100
AcDbLine
 10
5370.074460512359
 20
2610.411137187573
 30
0.0
 11
5370.074460512359
 21
2980.585196350792
 31
0.0
  0
SOLID
  5
10E8
330
10E3
100
AcDbEntity
  8
cotas
100
AcDbTrace
 10
5368.407793845692
 20
2610.411137187573
 30
0.0
 11
5371.741127179026
 21
2610.411137187573
 31
0.0
 12
5370.074460512359
 22
2600.411137187573
 32
0.0
 13
5370.074460512359
 23
2600.411137187573
 33
0.0
  0
SOLID
  5
10E9
330
10E3
100
AcDbEntity
  8
cotas
100
AcDbTrace
 10
5368.407793845692
 20
2980.585196350792
 30
0.0
 11
5371.741127179026
 21
2980.585196350792
 31
0.0
 12
5370.074460512359
 22
2990.585196350792
 32
0.0
 13
5370.074460512359
 23
2990.585196350792
 33
0.0
  0
MTEXT
  5
10EA
330
10E3
100
AcDbEntity
  8
cotas
100
AcDbMText
 10
5359.866267093956
 20
2795.498166769184
 30
0.0
 40
10.0
 41
0.0
 71
     5
 72
     1
  1
390
  7
SANINDUSA
 11
0.0000000000000001
 21
1.0
 31
0.0
 73
     1
 44
1.0
1001
ACAD
1000
MTEXTBEGIN
1070
    73
1070
     1
1070
    44
1040
1.0
1070
    74
1070
     0
1000
MTEXTEND
  0
POINT
  5
10EB
330
10E3
100
AcDbEntity
  8
Defpoints
 62
     0
100
AcDbPoint
 10
5740.614249867633
 20
2600.411137187573
 30
0.0
  0
POINT
  5
10EC
330
10E3
100
AcDbEntity
  8
Defpoints
 62
     0
100
AcDbPoint
 10
5537.762646666397
 20
2990.585196350792
 30
0.0
  0
POINT
  5
10ED
330
10E3
100
AcDbEntity
  8
Defpoints
 62
     0
100
AcDbPoint
 10
5370.074460512359
 20
2990.585196350792
 30
0.0
  0
ENDBLK
  5
10EE
330
10E3
100
AcDbEntity
  8
0
100
AcDbBlockEnd
  0
BLOCK
  5
10F0
330
10EF
100
AcDbEntity
  8
0
100
AcDbBlockBegin
  2
*D12
 70
     1
 10
0.0
 20
0.0
 30
0.0
  3
*D12
  1

  0
LINE
  5
10F1
330
10EF
100
AcDbEntity
  8
cotas
100
AcDbLine
 10
6862.632677424926
 20
2853.059628406853
 30
0.0
 11
6796.930916688824
 21
2903.140192601232
 31
0.0
  0
MTEXT
  5
10F2
330
10EF
100
AcDbEntity
  8
cotas
100
AcDbMText
 10
6854.981992374667
 20
2871.726897943652
 30
0.0
 40
10.0
 41
0.0
 71
     5
 72
     1
  1
R20
  7
SANINDUSA
 11
0.7953028600020926
 21
-0.6062123067642986
 31
0.0
 73
     1
 44
1.0
1001
ACAD
1000
MTEXTBEGIN
1070
    73
1070
     1
1070
    44
1040
1.0
1070
    74
1070
     0
1000
MTEXTEND
  0
SOLID
  5
10F3
330
10EF
100
AcDbEntity
  8
cotas
100
AcDbTrace
 10
6797.941270533431
 20
2904.465697367902
 30
0.0
 11
6795.920562844216
 21
2901.814687834562
 31
0.0
 12
6788.977888088803
 22
2909.202315668876
 32
0.0
 13
6788.977888088803
 23
2909.202315668876
 33
0.0
  0
POINT
  5
10F4
330
10EF
100
AcDbEntity
  8
Defpoints
 62
     0
100
AcDbPoint
 10
6788.977888088803
 20
2909.202315668876
 30
0.0
  0
POINT
  5
10F5
330
10EF
100
AcDbEntity
  8
Defpoints
 62
     0
100
AcDbPoint
 10
6804.883945288842
 20
2897.078069533591
 30
0.0
  0
ENDBLK
  5
10F6
330
10EF
100
AcDbEntity
  8
0
100
AcDbBlockEnd
  0
BLOCK
  5
10F8
330
10F7
100
AcDbEntity
  8
0
100
AcDbBlockBegin
  2
*D13
 70
     1
 10
0.0
 20
0.0
 30
0.0
  3
*D13
  1

  0
LINE
  5
10F9
330
10F7
100
AcDbEntity
  8
cotas
100
AcDbLine
 10
6689.669161540358
 20
3005.412928550639
 30
0.0
 11
6735.108755798596
 21
2990.317498030478
 31
0.0
  0
MTEXT
  5
10FA
330
10F7
100
AcDbEntity
  8
cotas
100
AcDbMText
 10
6705.187228083353
 20
3010.904756433272
 30
0.0
 40
10.0
 41
0.0
 71
     5
 72
     1
  1
R5
  7
SANINDUSA
 11
0.9490029834946769
 21
-0.3152670888599094
 31
0.0
 73
     1
 44
1.0
1001
ACAD
1000
MTEXTBEGIN
1070
    73
1070
     1
1070
    44
1040
1.0
1070
    74
1070
     0
1000
MTEXTEND
  0
LINE
  5
10FB
330
10F7
100
AcDbEntity
  8
cotas
100
AcDbLine
 10
6749.34347023407
 20
2985.588601431757
 30
0.0
 11
6744.598785633543
 21
2987.164827141878
 31
0.0
  0
SOLID
  5
10FC
330
10F7
100
AcDbEntity
  8
cotas
100
AcDbTrace
 10
6735.634200946695
 20
2991.899169669636
 30
0.0
 11
6734.583310650496
 21
2988.735826391319
 31
0.0
 12
6744.598785633543
 22
2987.164827141878
 32
0.0
 13
6744.598785633543
 23
2987.164827141878
 33
0.0
  0
POINT
  5
10FD
330
10F7
100
AcDbEntity
  8
Defpoints
 62
     0
100
AcDbPoint
 10
6744.598785633543
 20
2987.164827141878
 30
0.0
  0
POINT
  5
10FE
330
10F7
100
AcDbEntity
  8
Defpoints
 62
     0
100
AcDbPoint
 10
6749.34347023407
 20
2985.588601431757
 30
0.0
  0
ENDBLK
  5
10FF
330
10F7
100
AcDbEntity
  8
0
100
AcDbBlockEnd
  0
BLOCK
  5
1101
330
1100
100
AcDbEntity
  8
0
100
AcDbBlockBegin
  2
*D14
 70
     1
 10
0.0
 20
0.0
 30
0.0
  3
*D14
  1

  0
LINE
  5
1102
330
1100
100
AcDbEntity
  8
cotas
100
AcDbLine
 10
6377.956115281469
 20
2157.972738980852
 30
0.0
 11
6335.351496398217
 21
2190.744238288357
 31
0.0
  0
MTEXT
  5
1103
330
1100
100
AcDbEntity
  8
cotas
100
AcDbMText
 10
6373.816004384876
 20
2173.904783560539
 30
0.0
 40
10.0
 41
0.0
 71
     5
 72
     1
  1
R5
  7
SANINDUSA
 11
0.7926355374400941
 21
-0.6096957477193471
 31
0.0
 73
     1
 44
1.0
1001
ACAD
1000
MTEXTBEGIN
1070
    73
1070
     1
1070
    44
1040
1.0
1070
    74
1070
     0
1000
MTEXTEND
  0
LINE
  5
1104
330
1100
100
AcDbEntity
  8
cotas
100
AcDbLine
 10
6323.458718272993
 20
2199.8921706091
 30
0.0
 11
6327.425141023816
 21
2196.84119576555
 31
0.0
  0
SOLID
  5
1105
330
1100
100
AcDbEntity
  8
cotas
100
AcDbTrace
 10
6336.367655977751
 20
2192.065297517423
 30
0.0
 11
6334.335336818686
 21
2189.423179059289
 31
0.0
 12
6327.425141023816
 22
2196.84119576555
 32
0.0
 13
6327.425141023816
 23
2196.84119576555
 33
0.0
  0
POINT
  5
1106
330
1100
100
AcDbEntity
  8
Defpoints
 62
     0
100
AcDbPoint
 10
6327.425141023816
 20
2196.84119576555
 30
0.0
  0
POINT
  5
1107
330
1100
100
AcDbEntity
  8
Defpoints
 62
     0
100
AcDbPoint
 10
6323.458718272993
 20
2199.8921706091
 30
0.0
  0
ENDBLK
  5
1108
330
1100
100
AcDbEntity
  8
0
100
AcDbBlockEnd
  0
BLOCK
  5
110A
330
1109
100
AcDbEntity
  8
0
100
AcDbBlockBegin
  2
*D15
 70
     1
 10
0.0
 20
0.0
 30
0.0
  3
*D15
  1

  0
LINE
  5
110B
330
1109
100
AcDbEntity
  8
cotas
100
AcDbLine
 10
6328.46585306887
 20
2990.585196350792
 30
0.0
 11
6396.684244748552
 21
2990.585196350792
 31
0.0
  0
LINE
  5
110C
330
1109
100
AcDbEntity
  8
cotas
100
AcDbLine
 10
5935.614250138742
 20
2520.165238277783
 30
0.0
 11
6396.684244748552
 21
2520.165238277783
 31
0.0
  0
LINE
  5
110D
330
1109
100
AcDbEntity
  8
cotas
100
AcDbLine
 10
6391.684244748551
 20
2980.585196350792
 30
0.0
 11
6391.684244748551
 21
2530.165238277783
 31
0.0
  0
SOLID
  5
110E
330
1109
100
AcDbEntity
  8
cotas
100
AcDbTrace
 10
6390.017578081884
 20
2980.585196350792
 30
0.0
 11
6393.350911415218
 21
2980.585196350792
 31
0.0
 12
6391.684244748551
 22
2990.585196350792
 32
0.0
 13
6391.684244748551
 23
2990.585196350792
 33
0.0
  0
SOLID
  5
110F
330
1109
100
AcDbEntity
  8
cotas
100
AcDbTrace
 10
6390.017578081884
 20
2530.165238277783
 30
0.0
 11
6393.350911415218
 21
2530.165238277783
 31
0.0
 12
6391.684244748551
 22
2520.165238277783
 32
0.0
 13
6391.684244748551
 23
2520.165238277783
 33
0.0
  0
MTEXT
  5
1110
330
1109
100
AcDbEntity
  8
cotas
100
AcDbMText
 10
6381.479409288511
 20
2761.216703357045
 30
0.0
 40
10.0
 41
0.0
 71
     5
 72
     1
  1
470
  7
SANINDUSA
 11
0.0000000000000001
 21
1.0
 31
0.0
 73
     1
 44
1.0
1001
ACAD
1000
MTEXTBEGIN
1070
    73
1070
     1
1070
    44
1040
1.0
1070
    74
1070
     0
1000
MTEXTEND
  0
POINT
  5
1111
330
1109
100
AcDbEntity
  8
Defpoints
 62
     0
100
AcDbPoint
 10
6323.46585306887
 20
2990.585196350792
 30
0.0
  0
POINT
  5
1112
330
1109
100
AcDbEntity
  8
Defpoints
 62
     0
100
AcDbPoint
 10
5930.614250138741
 20
2520.165238277783
 30
0.0
  0
POINT
  5
1113
330
1109
100
AcDbEntity
  8
Defpoints
 62
     0
100
AcDbPoint
 10
6391.684244748551
 20
2520.165238277783
 30
0.0
  0
ENDBLK
  5
1114
330
1109
100
AcDbEntity
  8
0
100
AcDbBlockEnd
  0
BLOCK
  5
1116
330
1115
100
AcDbEntity
  8
0
100
AcDbBlockBegin
  2
*D16
 70
     1
 10
0.0
 20
0.0
 30
0.0
  3
*D16
  1

  0
LINE
  5
1117
330
1115
100
AcDbEntity
  8
cotas
100
AcDbLine
 10
6793.498958970054
 20
2935.674906813689
 30
0.0
 11
6793.498958970054
 21
3085.83888939237
 31
0.0
  0
LINE
  5
1118
330
1115
100
AcDbEntity
  8
cotas
100
AcDbLine
 10
6744.359364097914
 20
2995.411242861921
 30
0.0
 11
6744.359364097914
 21
3085.83888939237
 31
0.0
  0
LINE
  5
1119
330
1115
100
AcDbEntity
  8
cotas
100
AcDbLine
 10
6783.498958970054
 20
3080.83888939237
 30
0.0
 11
6754.359364097914
 21
3080.83888939237
 31
0.0
  0
SOLID
  5
111A
330
1115
100
AcDbEntity
  8
cotas
100
AcDbTrace
 10
6783.498958970054
 20
3082.505556059036
 30
0.0
 11
6783.498958970054
 21
3079.172222725703
 31
0.0
 12
6793.498958970054
 22
3080.83888939237
 32
0.0
 13
6793.498958970054
 23
3080.83888939237
 33
0.0
  0
SOLID
  5
111B
330
1115
100
AcDbEntity
  8
cotas
100
AcDbTrace
 10
6754.359364097914
 20
3082.505556059036
 30
0.0
 11
6754.359364097914
 21
3079.172222725703
 31
0.0
 12
6744.359364097914
 22
3080.83888939237
 32
0.0
 13
6744.359364097914
 23
3080.83888939237
 33
0.0
  0
MTEXT
  5
111C
330
1115
100
AcDbEntity
  8
cotas
100
AcDbMText
 10
6769.188260090508
 20
3091.037008935688
 30
0.0
 40
10.0
 41
0.0
 71
     5
 72
     1
  1
49
  7
SANINDUSA
 73
     1
 44
1.0
1001
ACAD
1000
MTEXTBEGIN
1070
    73
1070
     1
1070
    44
1040
1.0
1070
    74
1070
     0
1000
MTEXTEND
  0
POINT
  5
111D
330
1115
100
AcDbEntity
  8
Defpoints
 62
     0
100
AcDbPoint
 10
6793.498958970054
 20
2930.67490681369
 30
0.0
  0
POINT
  5
111E
330
1115
100
AcDbEntity
  8
Defpoints
 62
     0
100
AcDbPoint
 10
6744.359364097914
 20
2990.411242861921
 30
0.0
  0
POINT
  5
111F
330
1115
100
AcDbEntity
  8
Defpoints
 62
     0
100
AcDbPoint
 10
6744.359364097914
 20
3080.83888939237
 30
0.0
  0
ENDBLK
  5
1120
330
1115
100
AcDbEntity
  8
0
100
AcDbBlockEnd
  0
BLOCK
  5
1122
330
1121
100
AcDbEntity
  8
0
100
AcDbBlockBegin
  2
*D17
 70
     1
 10
0.0
 20
0.0
 30
0.0
  3
*D17
  1

  0
LINE
  5
1123
330
1121
100
AcDbEntity
  8
cotas
100
AcDbLine
 10
6776.475131376727
 20
2248.309190639695
 30
0.0
 11
6776.475131376727
 21
2124.194454145293
 31
0.0
  0
LINE
  5
1124
330
1121
100
AcDbEntity
  8
cotas
100
AcDbLine
 10
6744.359364097914
 20
2190.0622465157
 30
0.0
 11
6744.359364097914
 21
2124.194454145293
 31
0.0
  0
LINE
  5
1125
330
1121
100
AcDbEntity
  8
cotas
100
AcDbLine
 10
6766.475131376728
 20
2129.194454145293
 30
0.0
 11
6754.359364097914
 21
2129.194454145293
 31
0.0
  0
SOLID
  5
1126
330
1121
100
AcDbEntity
  8
cotas
100
AcDbTrace
 10
6766.475131376728
 20
2130.861120811959
 30
0.0
 11
6766.475131376728
 21
2127.527787478626
 31
0.0
 12
6776.475131376727
 22
2129.194454145293
 32
0.0
 13
6776.475131376727
 23
2129.194454145293
 33
0.0
  0
SOLID
  5
1127
330
1121
100
AcDbEntity
  8
cotas
100
AcDbTrace
 10
6754.359364097914
 20
2130.861120811959
 30
0.0
 11
6754.359364097914
 21
2127.527787478626
 31
0.0
 12
6744.359364097914
 22
2129.194454145293
 32
0.0
 13
6744.359364097914
 23
2129.194454145293
 33
0.0
  0
MTEXT
  5
1128
330
1121
100
AcDbEntity
  8
cotas
100
AcDbMText
 10
6760.730642099547
 20
2139.402647563694
 30
0.0
 40
10.0
 41
0.0
 71
     5
 72
     1
  1
32
  7
SANINDUSA
 73
     1
 44
1.0
1001
ACAD
1000
MTEXTBEGIN
1070
    73
1070
     1
1070
    44
1040
1.0
1070
    74
1070
     0
1000
MTEXTEND
  0
POINT
  5
1129
330
1121
100
AcDbEntity
  8
Defpoints
 62
     0
100
AcDbPoint
 10
6776.475131376727
 20
2253.309190639695
 30
0.0
  0
POINT
  5
112A
330
1121
100
AcDbEntity
  8
Defpoints
 62
     0
100
AcDbPoint
 10
6744.359364097914
 20
2195.0622465157
 30
0.0
  0
POINT
  5
112B
330
1121
100
AcDbEntity
  8
Defpoints
 62
     0
100
AcDbPoint
 10
6744.359364097914
 20
2129.194454145293
 30
0.0
  0
ENDBLK
  5
112C
330
1121
100
AcDbEntity
  8
0
100
AcDbBlockEnd
  0
BLOCK
  5
112E
330
112D
100
AcDbEntity
  8
0
100
AcDbBlockBegin
  2
*D18
 70
     1
 10
0.0
 20
0.0
 30
0.0
  3
*D18
  1

  0
LINE
  5
112F
330
112D
100
AcDbEntity
  8
cotas
100
AcDbLine
 10
6739.359364097914
 20
2990.411242861921
 30
0.0
 11
6653.998585059472
 21
2990.411242861921
 31
0.0
  0
LINE
  5
1130
330
112D
100
AcDbEntity
  8
cotas
100
AcDbLine
 10
6766.939129629697
 20
2827.411137187573
 30
0.0
 11
6653.998585059472
 21
2827.411137187573
 31
0.0
  0
LINE
  5
1131
330
112D
100
AcDbEntity
  8
cotas
100
AcDbLine
 10
6658.998585059473
 20
2980.411242861921
 30
0.0
 11
6658.998585059473
 21
2837.411137187573
 31
0.0
  0
SOLID
  5
1132
330
112D
100
AcDbEntity
  8
cotas
100
AcDbTrace
 10
6657.331918392805
 20
2980.411242861921
 30
0.0
 11
6660.66525172614
 21
2980.411242861921
 31
0.0
 12
6658.998585059473
 22
2990.411242861921
 32
0.0
 13
6658.998585059473
 23
2990.411242861921
 33
0.0
  0
SOLID
  5
1133
330
112D
100
AcDbEntity
  8
cotas
100
AcDbTrace
 10
6657.331918392805
 20
2837.411137187573
 30
0.0
 11
6660.66525172614
 21
2837.411137187573
 31
0.0
 12
6658.998585059473
 22
2827.411137187573
 32
0.0
 13
6658.998585059473
 23
2827.411137187573
 33
0.0
  0
MTEXT
  5
1134
330
112D
100
AcDbEntity
  8
cotas
100
AcDbMText
 10
6648.79039164107
 20
2905.579750867362
 30
0.0
 40
10.0
 41
0.0
 71
     5
 72
     1
  1
163
  7
SANINDUSA
 11
0.0000000000000001
 21
1.0
 31
0.0
 73
     1
 44
1.0
1001
ACAD
1000
MTEXTBEGIN
1070
    73
1070
     1
1070
    44
1040
1.0
1070
    74
1070
     0
1000
MTEXTEND
  0
POINT
  5
1135
330
112D
100
AcDbEntity
  8
Defpoints
 62
     0
100
AcDbPoint
 10
6744.359364097914
 20
2990.411242861921
 30
0.0
  0
POINT
  5
1136
330
112D
100
AcDbEntity
  8
Defpoints
 62
     0
100
AcDbPoint
 10
6771.939129629697
 20
2827.411137187573
 30
0.0
  0
POINT
  5
1137
330
112D
100
AcDbEntity
  8
Defpoints
 62
     0
100
AcDbPoint
 10
6658.998585059473
 20
2827.411137187573
 30
0.0
  0
ENDBLK
  5
1138
330
112D
100
AcDbEntity
  8
0
100
AcDbBlockEnd
  0
BLOCK
  5
113A
330
1139
100
AcDbEntity
  8
0
100
AcDbBlockBegin
  2
*D19
 70
     1
 10
0.0
 20
0.0
 30
0.0
  3
*D19
  1

  0
LINE
  5
113B
330
1139
100
AcDbEntity
  8
cotas
100
AcDbLine
 10
6746.458262527544
 20
2939.790434476774
 30
0.0
 11
6746.458262527544
 21
3041.900139881632
 31
0.0
  0
LINE
  5
113C
330
1139
100
AcDbEntity
  8
cotas
100
AcDbLine
 10
6744.359364097914
 20
2995.411242861921
 30
0.0
 11
6744.359364097914
 21
3041.900139881632
 31
0.0
  0
LINE
  5
113D
330
1139
100
AcDbEntity
  8
cotas
100
AcDbLine
 10
6756.458262527544
 20
3036.900139881631
 30
0.0
 11
6766.458262527542
 21
3036.900139881631
 31
0.0
  0
LINE
  5
113E
330
1139
100
AcDbEntity
  8
cotas
100
AcDbLine
 10
6734.359364097915
 20
3036.900139881631
 30
0.0
 11
6707.5897200415
 21
3036.900139881631
 31
0.0
  0
LINE
  5
113F
330
1139
100
AcDbEntity
  8
cotas
100
AcDbLine
 10
6746.458262527544
 20
3036.900139881631
 30
0.0
 11
6744.359364097914
 21
3036.900139881631
 31
0.0
  0
SOLID
  5
1140
330
1139
100
AcDbEntity
  8
cotas
100
AcDbTrace
 10
6756.458262527544
 20
3038.566806548298
 30
0.0
 11
6756.458262527544
 21
3035.233473214965
 31
0.0
 12
6746.458262527544
 22
3036.900139881631
 32
0.0
 13
6746.458262527544
 23
3036.900139881631
 33
0.0
  0
SOLID
  5
1141
330
1139
100
AcDbEntity
  8
cotas
100
AcDbTrace
 10
6734.359364097915
 20
3038.566806548298
 30
0.0
 11
6734.359364097915
 21
3035.233473214965
 31
0.0
 12
6744.359364097914
 22
3036.900139881631
 32
0.0
 13
6744.359364097914
 23
3036.900139881631
 33
0.0
  0
MTEXT
  5
1142
330
1139
100
AcDbEntity
  8
cotas
100
AcDbMText
 10
6715.974542069708
 20
3047.004236590832
 30
0.0
 40
10.0
 41
0.0
 71
     5
 72
     1
  1
2
  7
SANINDUSA
 73
     1
 44
1.0
1001
ACAD
1000
MTEXTBEGIN
1070
    73
1070
     1
1070
    44
1040
1.0
1070
    74
1070
     0
1000
MTEXTEND
  0
POINT
  5
1143
330
1139
100
AcDbEntity
  8
Defpoints
 62
     0
100
AcDbPoint
 10
6746.458262527544
 20
2934.790434476774
 30
0.0
  0
POINT
  5
1144
330
1139
100
AcDbEntity
  8
Defpoints
 62
     0
100
AcDbPoint
 10
6744.359364097914
 20
2990.411242861921
 30
0.0
  0
POINT
  5
1145
330
1139
100
AcDbEntity
  8
Defpoints
 62
     0
100
AcDbPoint
 10
6744.359364097914
 20
3036.900139881631
 30
0.0
  0
ENDBLK
  5
1146
330
1139
100
AcDbEntity
  8
0
100
AcDbBlockEnd
  0
BLOCK
  5
1148
330
1147
100
AcDbEntity
  8
0
100
AcDbBlockBegin
  2
*D20
 70
     1
 10
0.0
 20
0.0
 30
0.0
  3
*D20
  1

  0
LINE
  5
1149
330
1147
100
AcDbEntity
  8
cotas
100
AcDbLine
 10
6744.359364097914
 20
2190.0622465157
 30
0.0
 11
6744.359364097914
 21
2158.261754558159
 31
0.0
  0
LINE
  5
114A
330
1147
100
AcDbEntity
  8
cotas
100
AcDbLine
 10
6746.458262527544
 20
2245.683054900847
 30
0.0
 11
6746.458262527544
 21
2158.261754558159
 31
0.0
  0
LINE
  5
114B
330
1147
100
AcDbEntity
  8
cotas
100
AcDbLine
 10
6756.458262527544
 20
2163.261754558159
 30
0.0
 11
6766.458262527542
 21
2163.261754558159
 31
0.0
  0
LINE
  5
114C
330
1147
100
AcDbEntity
  8
cotas
100
AcDbLine
 10
6734.359364097915
 20
2163.261754558159
 30
0.0
 11
6701.001405736597
 21
2163.261754558159
 31
0.0
  0
LINE
  5
114D
330
1147
100
AcDbEntity
  8
cotas
100
AcDbLine
 10
6746.458262527544
 20
2163.261754558159
 30
0.0
 11
6744.359364097914
 21
2163.261754558159
 31
0.0
  0
SOLID
  5
114E
330
1147
100
AcDbEntity
  8
cotas
100
AcDbTrace
 10
6756.458262527544
 20
2164.928421224826
 30
0.0
 11
6756.458262527544
 21
2161.595087891493
 31
0.0
 12
6746.458262527544
 22
2163.261754558159
 32
0.0
 13
6746.458262527544
 23
2163.261754558159
 33
0.0
  0
SOLID
  5
114F
330
1147
100
AcDbEntity
  8
cotas
100
AcDbTrace
 10
6734.359364097915
 20
2164.928421224826
 30
0.0
 11
6734.359364097915
 21
2161.595087891493
 31
0.0
 12
6744.359364097914
 22
2163.261754558159
 32
0.0
 13
6744.359364097914
 23
2163.261754558159
 33
0.0
  0
MTEXT
  5
1150
330
1147
100
AcDbEntity
  8
cotas
100
AcDbMText
 10
6709.386227764806
 20
2173.36585126736
 30
0.0
 40
10.0
 41
0.0
 71
     5
 72
     1
  1
2
  7
SANINDUSA
 73
     1
 44
1.0
1001
ACAD
1000
MTEXTBEGIN
1070
    73
1070
     1
1070
    44
1040
1.0
1070
    74
1070
     0
1000
MTEXTEND
  0
POINT
  5
1151
330
1147
100
AcDbEntity
  8
Defpoints
 62
     0
100
AcDbPoint
 10
6744.359364097914
 20
2195.0622465157
 30
0.0
  0
POINT
  5
1152
330
1147
100
AcDbEntity
  8
Defpoints
 62
     0
100
AcDbPoint
 10
6746.458262527544
 20
2250.683054900847
 30
0.0
  0
POINT
  5
1153
330
1147
100
AcDbEntity
  8
Defpoints
 62
     0
100
AcDbPoint
 10
6746.458262527544
 20
2163.261754558159
 30
0.0
  0
ENDBLK
  5
1154
330
1147
100
AcDbEntity
  8
0
100
AcDbBlockEnd
  0
BLOCK
  5
1534
330
1533
100
AcDbEntity
  8
0
100
AcDbBlockBegin
  2
*D22
 70
     1
 10
0.0
 20
0.0
 30
0.0
  3
*D22
  1

  0
LINE
  5
159C
330
1533
100
AcDbEntity
  8
cotas
100
AcDbLine
 10
5126.994111143005
 20
2312.551492538132
 30
0.0
 11
5066.001141551145
 21
2359.042823894075
 31
0.0
  0
MTEXT
  5
159D
330
1533
100
AcDbEntity
  8
cotas
100
AcDbMText
 10
5125.463974132954
 20
2316.284946445492
 30
0.0
 40
2.0
 41
0.0
 71
     5
 72
     1
  1
R20
  7
SANINDUSA
 11
0.7953028600020926
 21
-0.6062123067642986
 31
0.0
 73
     1
 44
1.0
1001
ACAD
1000
MTEXTBEGIN
1070
    73
1070
     1
1070
    44
1040
1.0
1070
    74
1070
     0
1000
MTEXTEND
  0
SOLID
  5
159E
330
1533
100
AcDbEntity
  8
cotas
100
AcDbTrace
 10
5066.203212320067
 20
2359.307924847408
 30
0.0
 11
5065.799070782225
 21
2358.777722940741
 31
0.0
 12
5064.410535831142
 22
2360.255248507603
 32
0.0
 13
5064.410535831142
 23
2360.255248507603
 33
0.0
  0
POINT
  5
159F
330
1533
100
AcDbEntity
  8
Defpoints
 62
     0
100
AcDbPoint
 10
5064.410535831142
 20
2360.255248507603
 30
0.0
  0
POINT
  5
15A0
330
1533
100
AcDbEntity
  8
Defpoints
 62
     0
100
AcDbPoint
 10
5080.316593031182
 20
2348.131002372319
 30
0.0
  0
ENDBLK
  5
1535
330
1533
100
AcDbEntity
  8
0
100
AcDbBlockEnd
  0
BLOCK
  5
153C
330
153B
100
AcDbEntity
  8
0
100
AcDbBlockBegin
  2
*D23
 70
     1
 10
0.0
 20
0.0
 30
0.0
  3
*D23
  1

  0
LINE
  5
15A1
330
153B
100
AcDbEntity
  8
cotas
100
AcDbLine
 10
4974.967871193038
 20
2453.188269357429
 30
0.0
 11
5018.133427408893
 21
2438.848294158326
 31
0.0
  0
MTEXT
  5
15A2
330
153B
100
AcDbEntity
  8
cotas
100
AcDbMText
 10
4978.071484501636
 20
2454.286634933955
 30
0.0
 40
2.0
 41
0.0
 71
     5
 72
     1
  1
R5
  7
SANINDUSA
 11
0.9490029834946948
 21
-0.3152670888598555
 31
0.0
 73
     1
 44
1.0
1001
ACAD
1000
MTEXTBEGIN
1070
    73
1070
     1
1070
    44
1040
1.0
1070
    74
1070
     0
1000
MTEXTEND
  0
LINE
  5
15A3
330
153B
100
AcDbEntity
  8
cotas
100
AcDbLine
 10
5024.77611797641
 20
2436.641534270485
 30
0.0
 11
5020.031433375883
 21
2438.217759980606
 31
0.0
  0
SOLID
  5
15A4
330
153B
100
AcDbEntity
  8
cotas
100
AcDbTrace
 10
5018.238516438513
 20
2439.164628486157
 30
0.0
 11
5018.028338379274
 21
2438.531959830493
 31
0.0
 12
5020.031433375883
 22
2438.217759980606
 32
0.0
 13
5020.031433375883
 23
2438.217759980606
 33
0.0
  0
POINT
  5
15A5
330
153B
100
AcDbEntity
  8
Defpoints
 62
     0
100
AcDbPoint
 10
5020.031433375883
 20
2438.217759980606
 30
0.0
  0
POINT
  5
15A6
330
153B
100
AcDbEntity
  8
Defpoints
 62
     0
100
AcDbPoint
 10
5024.77611797641
 20
2436.641534270485
 30
0.0
  0
ENDBLK
  5
153D
330
153B
100
AcDbEntity
  8
0
100
AcDbBlockEnd
  0
BLOCK
  5
1545
330
1544
100
AcDbEntity
  8
0
100
AcDbBlockBegin
  2
*D24
 70
     1
 10
0.0
 20
0.0
 30
0.0
  3
*D24
  1

  0
LINE
  5
1547
330
1544
100
AcDbEntity
  8
cotas
100
AcDbLine
 10
5068.931606712394
 20
2382.727839652417
 30
0.0
 11
5068.931606712394
 21
2532.891822231098
 31
0.0
  0
LINE
  5
1548
330
1544
100
AcDbEntity
  8
cotas
100
AcDbLine
 10
5019.792011840253
 20
2442.464175700649
 30
0.0
 11
5019.792011840253
 21
2532.891822231098
 31
0.0
  0
LINE
  5
1549
330
1544
100
AcDbEntity
  8
cotas
100
AcDbLine
 10
5066.931606712394
 20
2531.891822231098
 30
0.0
 11
5021.792011840254
 21
2531.891822231098
 31
0.0
  0
SOLID
  5
154A
330
1544
100
AcDbEntity
  8
cotas
100
AcDbTrace
 10
5066.931606712394
 20
2532.225155564431
 30
0.0
 11
5066.931606712394
 21
2531.558488897764
 31
0.0
 12
5068.931606712394
 22
2531.891822231098
 32
0.0
 13
5068.931606712394
 23
2531.891822231098
 33
0.0
  0
SOLID
  5
154B
330
1544
100
AcDbEntity
  8
cotas
100
AcDbTrace
 10
5021.792011840254
 20
2532.225155564431
 30
0.0
 11
5021.792011840254
 21
2531.558488897764
 31
0.0
 12
5019.792011840253
 22
2531.891822231098
 32
0.0
 13
5019.792011840253
 23
2531.891822231098
 33
0.0
  0
MTEXT
  5
154C
330
1544
100
AcDbEntity
  8
cotas
100
AcDbMText
 10
5044.620907832847
 20
2533.931446139761
 30
0.0
 40
2.0
 41
0.0
 71
     5
 72
     1
  1
49
  7
SANINDUSA
 73
     1
 44
1.0
1001
ACAD
1000
MTEXTBEGIN
1070
    73
1070
     1
1070
    44
1040
1.0
1070
    74
1070
     0
1000
MTEXTEND
  0
POINT
  5
154D
330
1544
100
AcDbEntity
  8
Defpoints
 62
     0
100
AcDbPoint
 10
5068.931606712394
 20
2381.727839652418
 30
0.0
  0
POINT
  5
154E
330
1544
100
AcDbEntity
  8
Defpoints
 62
     0
100
AcDbPoint
 10
5019.792011840253
 20
2441.464175700649
 30
0.0
  0
POINT
  5
154F
330
1544
100
AcDbEntity
  8
Defpoints
 62
     0
100
AcDbPoint
 10
5019.792011840253
 20
2531.891822231098
 30
0.0
  0
ENDBLK
  5
1546
330
1544
100
AcDbEntity
  8
0
100
AcDbBlockEnd
  0
BLOCK
  5
1551
330
1550
100
AcDbEntity
  8
0
100
AcDbBlockBegin
  2
*D25
 70
     1
 10
0.0
 20
0.0
 30
0.0
  3
*D25
  1

  0
LINE
  5
1553
330
1550
100
AcDbEntity
  8
cotas
100
AcDbLine
 10
5051.907779119067
 20
1703.362123478423
 30
0.0
 11
5051.907779119067
 21
1579.24738698402
 31
0.0
  0
LINE
  5
1554
330
1550
100
AcDbEntity
  8
cotas
100
AcDbLine
 10
5019.792011840253
 20
1645.115179354428
 30
0.0
 11
5019.792011840253
 21
1579.24738698402
 31
0.0
  0
LINE
  5
1555
330
1550
100
AcDbEntity
  8
cotas
100
AcDbLine
 10
5049.907779119068
 20
1580.24738698402
 30
0.0
 11
5021.792011840254
 21
1580.24738698402
 31
0.0
  0
SOLID
  5
1556
330
1550
100
AcDbEntity
  8
cotas
100
AcDbTrace
 10
5049.907779119068
 20
1580.580720317354
 30
0.0
 11
5049.907779119068
 21
1579.914053650687
 31
0.0
 12
5051.907779119067
 22
1580.24738698402
 32
0.0
 13
5051.907779119067
 23
1580.24738698402
 33
0.0
  0
SOLID
  5
1557
330
1550
100
AcDbEntity
  8
cotas
100
AcDbTrace
 10
5021.792011840254
 20
1580.580720317354
 30
0.0
 11
5021.792011840254
 21
1579.914053650687
 31
0.0
 12
5019.792011840253
 22
1580.24738698402
 32
0.0
 13
5019.792011840253
 23
1580.24738698402
 33
0.0
  0
MTEXT
  5
1558
330
1550
100
AcDbEntity
  8
cotas
100
AcDbMText
 10
5036.163289841887
 20
1582.289025667701
 30
0.0
 40
2.0
 41
0.0
 71
     5
 72
     1
  1
32
  7
SANINDUSA
 73
     1
 44
1.0
1001
ACAD
1000
MTEXTBEGIN
1070
    73
1070
     1
1070
    44
1040
1.0
1070
    74
1070
     0
1000
MTEXTEND
  0
POINT
  5
1559
330
1550
100
AcDbEntity
  8
Defpoints
 62
     0
100
AcDbPoint
 10
5051.907779119067
 20
1704.362123478423
 30
0.0
  0
POINT
  5
155A
330
1550
100
AcDbEntity
  8
Defpoints
 62
     0
100
AcDbPoint
 10
5019.792011840253
 20
1646.115179354428
 30
0.0
  0
POINT
  5
155B
330
1550
100
AcDbEntity
  8
Defpoints
 62
     0
100
AcDbPoint
 10
5019.792011840253
 20
1580.24738698402
 30
0.0
  0
ENDBLK
  5
1552
330
1550
100
AcDbEntity
  8
0
100
AcDbBlockEnd
  0
BLOCK
  5
155D
330
155C
100
AcDbEntity
  8
0
100
AcDbBlockBegin
  2
*D26
 70
     1
 10
0.0
 20
0.0
 30
0.0
  3
*D26
  1

  0
LINE
  5
155F
330
155C
100
AcDbEntity
  8
cotas
100
AcDbLine
 10
5018.792011840254
 20
2441.464175700649
 30
0.0
 11
4933.431232801812
 21
2441.464175700649
 31
0.0
  0
LINE
  5
1560
330
155C
100
AcDbEntity
  8
cotas
100
AcDbLine
 10
5046.371777372037
 20
2278.464070026301
 30
0.0
 11
4933.431232801812
 21
2278.464070026301
 31
0.0
  0
LINE
  5
1561
330
155C
100
AcDbEntity
  8
cotas
100
AcDbLine
 10
4934.431232801811
 20
2439.464175700649
 30
0.0
 11
4934.431232801811
 21
2280.464070026301
 31
0.0
  0
SOLID
  5
1562
330
155C
100
AcDbEntity
  8
cotas
100
AcDbTrace
 10
4934.097899468478
 20
2439.464175700649
 30
0.0
 11
4934.764566135144
 21
2439.464175700649
 31
0.0
 12
4934.431232801811
 22
2441.464175700649
 32
0.0
 13
4934.431232801811
 23
2441.464175700649
 33
0.0
  0
SOLID
  5
1563
330
155C
100
AcDbEntity
  8
cotas
100
AcDbTrace
 10
4934.097899468478
 20
2280.464070026301
 30
0.0
 11
4934.764566135144
 21
2280.464070026301
 31
0.0
 12
4934.431232801811
 22
2278.464070026301
 32
0.0
 13
4934.431232801811
 23
2278.464070026301
 33
0.0
  0
MTEXT
  5
1564
330
155C
100
AcDbEntity
  8
cotas
100
AcDbMText
 10
4932.38959411813
 20
2356.63268370609
 30
0.0
 40
2.0
 41
0.0
 71
     5
 72
     1
  1
163
  7
SANINDUSA
 11
0.0000000000000001
 21
1.0
 31
0.0
 73
     1
 44
1.0
1001
ACAD
1000
MTEXTBEGIN
1070
    73
1070
     1
1070
    44
1040
1.0
1070
    74
1070
     0
1000
MTEXTEND
  0
POINT
  5
1565
330
155C
100
AcDbEntity
  8
Defpoints
 62
     0
100
AcDbPoint
 10
5019.792011840253
 20
2441.464175700649
 30
0.0
  0
POINT
  5
1566
330
155C
100
AcDbEntity
  8
Defpoints
 62
     0
100
AcDbPoint
 10
5047.371777372037
 20
2278.464070026301
 30
0.0
  0
POINT
  5
1567
330
155C
100
AcDbEntity
  8
Defpoints
 62
     0
100
AcDbPoint
 10
4934.431232801811
 20
2278.464070026301
 30
0.0
  0
ENDBLK
  5
155E
330
155C
100
AcDbEntity
  8
0
100
AcDbBlockEnd
  0
BLOCK
  5
1569
330
1568
100
AcDbEntity
  8
0
100
AcDbBlockBegin
  2
*D27
 70
     1
 10
0.0
 20
0.0
 30
0.0
  3
*D27
  1

  0
LINE
  5
156B
330
1568
100
AcDbEntity
  8
cotas
100
AcDbLine
 10
5021.890910269883
 20
2386.843367315502
 30
0.0
 11
5021.890910269883
 21
2488.953072720359
 31
0.0
  0
LINE
  5
156C
330
1568
100
AcDbEntity
  8
cotas
100
AcDbLine
 10
5019.792011840253
 20
2442.464175700649
 30
0.0
 11
5019.792011840253
 21
2488.953072720359
 31
0.0
  0
LINE
  5
156D
330
1568
100
AcDbEntity
  8
cotas
100
AcDbLine
 10
5023.890910269883
 20
2487.953072720359
 30
0.0
 11
5025.890910269882
 21
2487.953072720359
 31
0.0
  0
LINE
  5
156E
330
1568
100
AcDbEntity
  8
cotas
100
AcDbLine
 10
5017.792011840254
 20
2487.953072720359
 30
0.0
 11
5012.438083028971
 21
2487.953072720359
 31
0.0
  0
LINE
  5
156F
330
1568
100
AcDbEntity
  8
cotas
100
AcDbLine
 10
5021.890910269883
 20
2487.953072720359
 30
0.0
 11
5019.792011840253
 21
2487.953072720359
 31
0.0
  0
SOLID
  5
1570
330
1568
100
AcDbEntity
  8
cotas
100
AcDbTrace
 10
5023.890910269883
 20
2488.286406053693
 30
0.0
 11
5023.890910269883
 21
2487.619739387026
 31
0.0
 12
5021.890910269883
 22
2487.953072720359
 32
0.0
 13
5021.890910269883
 23
2487.953072720359
 33
0.0
  0
SOLID
  5
1571
330
1568
100
AcDbEntity
  8
cotas
100
AcDbTrace
 10
5017.792011840254
 20
2488.286406053693
 30
0.0
 11
5017.792011840254
 21
2487.619739387026
 31
0.0
 12
5019.792011840253
 22
2487.953072720359
 32
0.0
 13
5019.792011840253
 23
2487.953072720359
 33
0.0
  0
MTEXT
  5
1572
330
1568
100
AcDbEntity
  8
cotas
100
AcDbMText
 10
5014.115047434613
 20
2489.9738920622
 30
0.0
 40
2.0
 41
0.0
 71
     5
 72
     1
  1
2
  7
SANINDUSA
 73
     1
 44
1.0
1001
ACAD
1000
MTEXTBEGIN
1070
    73
1070
     1
1070
    44
1040
1.0
1070
    74
1070
     0
1000
MTEXTEND
  0
POINT
  5
1573
330
1568
100
AcDbEntity
  8
Defpoints
 62
     0
100
AcDbPoint
 10
5021.890910269883
 20
2385.843367315502
 30
0.0
  0
POINT
  5
1574
330
1568
100
AcDbEntity
  8
Defpoints
 62
     0
100
AcDbPoint
 10
5019.792011840253
 20
2441.464175700649
 30
0.0
  0
POINT
  5
1575
330
1568
100
AcDbEntity
  8
Defpoints
 62
     0
100
AcDbPoint
 10
5019.792011840253
 20
2487.953072720359
 30
0.0
  0
ENDBLK
  5
156A
330
1568
100
AcDbEntity
  8
0
100
AcDbBlockEnd
  0
BLOCK
  5
1577
330
1576
100
AcDbEntity
  8
0
100
AcDbBlockBegin
  2
*D28
 70
     1
 10
0.0
 20
0.0
 30
0.0
  3
*D28
  1

  0
LINE
  5
1579
330
1576
100
AcDbEntity
  8
cotas
100
AcDbLine
 10
5019.792011840253
 20
1645.115179354428
 30
0.0
 11
5019.792011840253
 21
1613.314687396887
 31
0.0
  0
LINE
  5
157A
330
1576
100
AcDbEntity
  8
cotas
100
AcDbLine
 10
5021.890910269883
 20
1700.735987739575
 30
0.0
 11
5021.890910269883
 21
1613.314687396887
 31
0.0
  0
LINE
  5
157B
330
1576
100
AcDbEntity
  8
cotas
100
AcDbLine
 10
5023.890910269883
 20
1614.314687396887
 30
0.0
 11
5025.890910269882
 21
1614.314687396887
 31
0.0
  0
LINE
  5
157C
330
1576
100
AcDbEntity
  8
cotas
100
AcDbLine
 10
5017.792011840254
 20
1614.314687396887
 30
0.0
 11
4983.141911101503
 21
1614.314687396887
 31
0.0
  0
LINE
  5
157D
330
1576
100
AcDbEntity
  8
cotas
100
AcDbLine
 10
5021.890910269883
 20
1614.314687396887
 30
0.0
 11
5019.792011840253
 21
1614.314687396887
 31
0.0
  0
SOLID
  5
157E
330
1576
100
AcDbEntity
  8
cotas
100
AcDbTrace
 10
5023.890910269883
 20
1614.64802073022
 30
0.0
 11
5023.890910269883
 21
1613.981354063554
 31
0.0
 12
5021.890910269883
 22
1614.314687396887
 32
0.0
 13
5021.890910269883
 23
1614.314687396887
 33
0.0
  0
SOLID
  5
157F
330
1576
100
AcDbEntity
  8
cotas
100
AcDbTrace
 10
5017.792011840254
 20
1614.64802073022
 30
0.0
 11
5017.792011840254
 21
1613.981354063554
 31
0.0
 12
5019.792011840253
 22
1614.314687396887
 32
0.0
 13
5019.792011840253
 23
1614.314687396887
 33
0.0
  0
MTEXT
  5
1580
330
1576
100
AcDbEntity
  8
cotas
100
AcDbMText
 10
4984.818875507144
 20
1616.335506738727
 30
0.0
 40
2.0
 41
0.0
 71
     5
 72
     1
  1
2
  7
SANINDUSA
 73
     1
 44
1.0
1001
ACAD
1000
MTEXTBEGIN
1070
    73
1070
     1
1070
    44
1040
1.0
1070
    74
1070
     0
1000
MTEXTEND
  0
POINT
  5
1581
330
1576
100
AcDbEntity
  8
Defpoints
 62
     0
100
AcDbPoint
 10
5019.792011840253
 20
1646.115179354428
 30
0.0
  0
POINT
  5
1582
330
1576
100
AcDbEntity
  8
Defpoints
 62
     0
100
AcDbPoint
 10
5021.890910269883
 20
1701.735987739575
 30
0.0
  0
POINT
  5
1583
330
1576
100
AcDbEntity
  8
Defpoints
 62
     0
100
AcDbPoint
 10
5021.890910269883
 20
1614.314687396887
 30
0.0
  0
ENDBLK
  5
1578
330
1576
100
AcDbEntity
  8
0
100
AcDbBlockEnd
  0
BLOCK
  5
1585
330
1584
100
AcDbEntity
  8
0
100
AcDbBlockBegin
  2
*D29
 70
     1
 10
0.0
 20
0.0
 30
0.0
  3
*D29
  1

  0
LINE
  5
1587
330
1584
100
AcDbEntity
  8
cotas
100
AcDbLine
 10
4020.046897609971
 20
2051.464070026301
 30
0.0
 11
3644.507108254698
 21
2051.464070026301
 31
0.0
  0
LINE
  5
1588
330
1584
100
AcDbEntity
  8
cotas
100
AcDbLine
 10
4020.046937583387
 20
1891.443981791816
 30
0.0
 11
3644.507108254698
 21
1891.443981791816
 31
0.0
  0
LINE
  5
1589
330
1584
100
AcDbEntity
  8
cotas
100
AcDbLine
 10
3645.507108254698
 20
2049.464070026301
 30
0.0
 11
3645.507108254698
 21
1893.443981791816
 31
0.0
  0
SOLID
  5
158A
330
1584
100
AcDbEntity
  8
cotas
100
AcDbTrace
 10
3645.173774921364
 20
2049.464070026301
 30
0.0
 11
3645.840441588032
 21
2049.464070026301
 31
0.0
 12
3645.507108254698
 22
2051.464070026301
 32
0.0
 13
3645.507108254698
 23
2051.464070026301
 33
0.0
  0
SOLID
  5
158B
330
1584
100
AcDbEntity
  8
cotas
100
AcDbTrace
 10
3645.173774921364
 20
1893.443981791816
 30
0.0
 11
3645.840441588032
 21
1893.443981791816
 31
0.0
 12
3645.507108254698
 22
1891.443981791816
 32
0.0
 13
3645.507108254698
 23
1891.443981791816
 33
0.0
  0
MTEXT
  5
158C
330
1584
100
AcDbEntity
  8
cotas
100
AcDbMText
 10
3643.46614116269
 20
1973.449011378261
 30
0.0
 40
2.0
 41
0.0
 71
     5
 72
     1
  1
160
  7
SANINDUSA
 11
0.0000000000000001
 21
1.0
 31
0.0
 73
     1
 44
1.0
1001
ACAD
1000
MTEXTBEGIN
1070
    73
1070
     1
1070
    44
1040
1.0
1070
    74
1070
     0
1000
MTEXTEND
  0
POINT
  5
158D
330
1584
100
AcDbEntity
  8
Defpoints
 62
     0
100
AcDbPoint
 10
4021.046897609972
 20
2051.464070026301
 30
0.0
  0
POINT
  5
158E
330
1584
100
AcDbEntity
  8
Defpoints
 62
     0
100
AcDbPoint
 10
4021.046937583387
 20
1891.443981791816
 30
0.0
  0
POINT
  5
158F
330
1584
100
AcDbEntity
  8
Defpoints
 62
     0
100
AcDbPoint
 10
3645.507108254698
 20
1891.443981791816
 30
0.0
  0
ENDBLK
  5
1586
330
1584
100
AcDbEntity
  8
0
100
AcDbBlockEnd
  0
BLOCK
  5
1591
330
1590
100
AcDbEntity
  8
0
100
AcDbBlockBegin
  2
*D30
 70
     1
 10
0.0
 20
0.0
 30
0.0
  3
*D30
  1

  0
LINE
  5
1593
330
1590
100
AcDbEntity
  8
cotas
100
AcDbLine
 10
4015.046897609972
 20
2051.464070026301
 30
0.0
 11
3644.507108254698
 21
2051.464070026301
 31
0.0
  0
LINE
  5
1594
330
1590
100
AcDbEntity
  8
cotas
100
AcDbLine
 10
3812.195294408736
 20
2441.63812918952
 30
0.0
 11
3644.507108254698
 21
2441.63812918952
 31
0.0
  0
LINE
  5
1595
330
1590
100
AcDbEntity
  8
cotas
100
AcDbLine
 10
3645.507108254699
 20
2053.464070026301
 30
0.0
 11
3645.507108254699
 21
2439.63812918952
 31
0.0
  0
SOLID
  5
1596
330
1590
100
AcDbEntity
  8
cotas
100
AcDbTrace
 10
3645.173774921365
 20
2053.464070026301
 30
0.0
 11
3645.840441588032
 21
2053.464070026301
 31
0.0
 12
3645.507108254699
 22
2051.464070026301
 32
0.0
 13
3645.507108254699
 23
2051.464070026301
 33
0.0
  0
SOLID
  5
1597
330
1590
100
AcDbEntity
  8
cotas
100
AcDbTrace
 10
3645.173774921365
 20
2439.63812918952
 30
0.0
 11
3645.840441588032
 21
2439.63812918952
 31
0.0
 12
3645.507108254699
 22
2441.63812918952
 32
0.0
 13
3645.507108254699
 23
2441.63812918952
 33
0.0
  0
MTEXT
  5
1598
330
1590
100
AcDbEntity
  8
cotas
100
AcDbMText
 10
3643.465469571018
 20
2246.551099607911
 30
0.0
 40
2.0
 41
0.0
 71
     5
 72
     1
  1
390
  7
SANINDUSA
 11
0.0000000000000001
 21
1.0
 31
0.0
 73
     1
 44
1.0
1001
ACAD
1000
MTEXTBEGIN
1070
    73
1070
     1
1070
    44
1040
1.0
1070
    74
1070
     0
1000
MTEXTEND
  0
POINT
  5
1599
330
1590
100
AcDbEntity
  8
Defpoints
 62
     0
100
AcDbPoint
 10
4016.046897609972
 20
2051.464070026301
 30
0.0
  0
POINT
  5
159A
330
1590
100
AcDbEntity
  8
Defpoints
 62
     0
100
AcDbPoint
 10
3813.195294408736
 20
2441.63812918952
 30
0.0
  0
POINT
  5
159B
330
1590
100
AcDbEntity
  8
Defpoints
 62
     0
100
AcDbPoint
 10
3645.507108254699
 20
2441.63812918952
 30
0.0
  0
ENDBLK
  5
1592
330
1590
100
AcDbEntity
  8
0
100
AcDbBlockEnd
  0
BLOCK
  5
15A8
330
15A7
100
AcDbEntity
  8
0
100
AcDbBlockBegin
  2
*D31
 70
     1
 10
0.0
 20
0.0
 30
0.0
  3
*D31
  1

  0
LINE
  5
15E0
330
15A7
100
AcDbEntity
  8
cotas
100
AcDbLine
 10
4645.148334468029
 20
1615.364214582992
 30
0.0
 11
4604.443059841037
 21
1646.674737108841
 31
0.0
  0
MTEXT
  5
15E1
330
15A7
100
AcDbEntity
  8
cotas
100
AcDbMText
 10
4644.32031228871
 20
1618.550623498929
 30
0.0
 40
2.0
 41
0.0
 71
     5
 72
     1
  1
R5
  7
SANINDUSA
 11
0.7926355374403148
 21
-0.6096957477190596
 31
0.0
 73
     1
 44
1.0
1001
ACAD
1000
MTEXTBEGIN
1070
    73
1070
     1
1070
    44
1040
1.0
1070
    74
1070
     0
1000
MTEXTEND
  0
LINE
  5
15E2
330
15A7
100
AcDbEntity
  8
cotas
100
AcDbLine
 10
4598.891366015332
 20
1650.945103447828
 30
0.0
 11
4602.857788766157
 21
1647.89412860428
 31
0.0
  0
SOLID
  5
15E3
330
15A7
100
AcDbEntity
  8
cotas
100
AcDbTrace
 10
4604.646291756944
 20
1646.938948954655
 30
0.0
 11
4604.239827925132
 21
1646.410525263028
 31
0.0
 12
4602.857788766157
 22
1647.89412860428
 32
0.0
 13
4602.857788766157
 23
1647.89412860428
 33
0.0
  0
POINT
  5
15E4
330
15A7
100
AcDbEntity
  8
Defpoints
 62
     0
100
AcDbPoint
 10
4602.857788766157
 20
1647.89412860428
 30
0.0
  0
POINT
  5
15E5
330
15A7
100
AcDbEntity
  8
Defpoints
 62
     0
100
AcDbPoint
 10
4598.891366015332
 20
1650.945103447828
 30
0.0
  0
ENDBLK
  5
15A9
330
15A7
100
AcDbEntity
  8
0
100
AcDbBlockEnd
  0
BLOCK
  5
15B1
330
15B0
100
AcDbEntity
  8
0
100
AcDbBlockBegin
  2
*D32
 70
     1
 10
0.0
 20
0.0
 30
0.0
  3
*D32
  1

  0
LINE
  5
15B3
330
15B0
100
AcDbEntity
  8
cotas
100
AcDbLine
 10
4599.898500811208
 20
2441.63812918952
 30
0.0
 11
4668.116892490891
 21
2441.63812918952
 31
0.0
  0
LINE
  5
15B4
330
15B0
100
AcDbEntity
  8
cotas
100
AcDbLine
 10
4207.046897881081
 20
1971.21817111651
 30
0.0
 11
4668.116892490889
 21
1971.21817111651
 31
0.0
  0
LINE
  5
15B5
330
15B0
100
AcDbEntity
  8
cotas
100
AcDbLine
 10
4667.116892490891
 20
2439.63812918952
 30
0.0
 11
4667.11689249089
 21
1973.21817111651
 31
0.0
  0
SOLID
  5
15B6
330
15B0
100
AcDbEntity
  8
cotas
100
AcDbTrace
 10
4666.783559157557
 20
2439.63812918952
 30
0.0
 11
4667.450225824223
 21
2439.63812918952
 31
0.0
 12
4667.116892490891
 22
2441.63812918952
 32
0.0
 13
4667.116892490891
 23
2441.63812918952
 33
0.0
  0
SOLID
  5
15B7
330
15B0
100
AcDbEntity
  8
cotas
100
AcDbTrace
 10
4666.783559157557
 20
1973.21817111651
 30
0.0
 11
4667.450225824222
 21
1973.21817111651
 31
0.0
 12
4667.11689249089
 22
1971.21817111651
 32
0.0
 13
4667.11689249089
 23
1971.21817111651
 33
0.0
  0
MTEXT
  5
15B8
330
15B0
100
AcDbEntity
  8
cotas
100
AcDbMText
 10
4665.075925398881
 20
2212.269636195773
 30
0.0
 40
2.0
 41
0.0
 71
     5
 72
     1
  1
470
  7
SANINDUSA
 11
0.0000000000000001
 21
1.0
 31
0.0
 73
     1
 44
1.0
1001
ACAD
1000
MTEXTBEGIN
1070
    73
1070
     1
1070
    44
1040
1.0
1070
    74
1070
     0
1000
MTEXTEND
  0
POINT
  5
15B9
330
15B0
100
AcDbEntity
  8
Defpoints
 62
     0
100
AcDbPoint
 10
4598.898500811208
 20
2441.63812918952
 30
0.0
  0
POINT
  5
15BA
330
15B0
100
AcDbEntity
  8
Defpoints
 62
     0
100
AcDbPoint
 10
4206.046897881082
 20
1971.21817111651
 30
0.0
  0
POINT
  5
15BB
330
15B0
100
AcDbEntity
  8
Defpoints
 62
     0
100
AcDbPoint
 10
4667.11689249089
 20
1971.21817111651
 30
0.0
  0
ENDBLK
  5
15B2
330
15B0
100
AcDbEntity
  8
0
100
AcDbBlockEnd
  0
BLOCK
  5
15BD
330
15BC
100
AcDbEntity
  8
0
100
AcDbBlockBegin
  2
*D33
 70
     1
 10
0.0
 20
0.0
 30
0.0
  3
*D33
  1

  0
LINE
  5
15BF
330
15BC
100
AcDbEntity
  8
cotas
100
AcDbLine
 10
4025.982429805241
 20
2065.844712260179
 30
0.0
 11
4025.982429805241
 21
2132.178344572672
 31
0.0
  0
LINE
  5
15C0
330
15BC
100
AcDbEntity
  8
cotas
100
AcDbLine
 10
4146.055523108154
 20
2065.863649165409
 30
0.0
 11
4146.055523108154
 21
2132.178344572672
 31
0.0
  0
LINE
  5
15C1
330
15BC
100
AcDbEntity
  8
cotas
100
AcDbLine
 10
4027.98242980524
 20
2131.178344572672
 30
0.0
 11
4144.055523108154
 21
2131.178344572672
 31
0.0
  0
SOLID
  5
15C2
330
15BC
100
AcDbEntity
  8
cotas
100
AcDbTrace
 10
4027.98242980524
 20
2131.511677906006
 30
0.0
 11
4027.98242980524
 21
2130.845011239339
 31
0.0
 12
4025.982429805241
 22
2131.178344572672
 32
0.0
 13
4025.982429805241
 23
2131.178344572672
 33
0.0
  0
SOLID
  5
15C3
330
15BC
100
AcDbEntity
  8
cotas
100
AcDbTrace
 10
4144.055523108154
 20
2131.511677906006
 30
0.0
 11
4144.055523108154
 21
2130.845011239339
 31
0.0
 12
4146.055523108154
 22
2131.178344572672
 32
0.0
 13
4146.055523108154
 23
2131.178344572672
 33
0.0
  0
MTEXT
  5
15C4
330
15BC
100
AcDbEntity
  8
cotas
100
AcDbMText
 10
4086.018976456697
 20
2133.219983256353
 30
0.0
 40
2.0
 41
0.0
 71
     5
 72
     1
  1
120
  7
SANINDUSA
 73
     1
 44
1.0
1001
ACAD
1000
MTEXTBEGIN
1070
    73
1070
     1
1070
    44
1040
1.0
1070
    74
1070
     0
1000
MTEXTEND
  0
POINT
  5
15C5
330
15BC
100
AcDbEntity
  8
Defpoints
 62
     0
100
AcDbPoint
 10
4025.982429805241
 20
2064.844712260179
 30
0.0
  0
POINT
  5
15C6
330
15BC
100
AcDbEntity
  8
Defpoints
 62
     0
100
AcDbPoint
 10
4146.055523108154
 20
2064.863649165409
 30
0.0
  0
POINT
  5
15C7
330
15BC
100
AcDbEntity
  8
Defpoints
 62
     0
100
AcDbPoint
 10
4146.055523108154
 20
2131.178344572672
 30
0.0
  0
ENDBLK
  5
15BE
330
15BC
100
AcDbEntity
  8
0
100
AcDbBlockEnd
  0
BLOCK
  5
15C9
330
15C8
100
AcDbEntity
  8
0
100
AcDbBlockBegin
  2
*D34
 70
     1
 10
0.0
 20
0.0
 30
0.0
  3
*D34
  1

  0
LINE
  5
15CB
330
15C8
100
AcDbEntity
  8
cotas
100
AcDbLine
 10
4146.05552447959
 20
2065.854953314716
 30
0.0
 11
4146.05552447959
 21
2132.178344572672
 31
0.0
  0
LINE
  5
15CC
330
15C8
100
AcDbEntity
  8
cotas
100
AcDbLine
 10
4266.034959811274
 20
2065.854981033353
 30
0.0
 11
4266.034959811274
 21
2132.178344572672
 31
0.0
  0
LINE
  5
15CD
330
15C8
100
AcDbEntity
  8
cotas
100
AcDbLine
 10
4148.05552447959
 20
2131.178344572672
 30
0.0
 11
4264.034959811273
 21
2131.178344572672
 31
0.0
  0
SOLID
  5
15CE
330
15C8
100
AcDbEntity
  8
cotas
100
AcDbTrace
 10
4148.05552447959
 20
2131.511677906006
 30
0.0
 11
4148.05552447959
 21
2130.845011239339
 31
0.0
 12
4146.05552447959
 22
2131.178344572672
 32
0.0
 13
4146.05552447959
 23
2131.178344572672
 33
0.0
  0
SOLID
  5
15CF
330
15C8
100
AcDbEntity
  8
cotas
100
AcDbTrace
 10
4264.034959811273
 20
2131.511677906006
 30
0.0
 11
4264.034959811273
 21
2130.845011239339
 31
0.0
 12
4266.034959811274
 22
2131.178344572672
 32
0.0
 13
4266.034959811274
 23
2131.178344572672
 33
0.0
  0
MTEXT
  5
15D0
330
15C8
100
AcDbEntity
  8
cotas
100
AcDbMText
 10
4230.625126113184
 20
2133.219983256353
 30
0.0
 40
2.0
 41
0.0
 71
     5
 72
     1
  1
120
  7
SANINDUSA
 73
     1
 44
1.0
1001
ACAD
1000
MTEXTBEGIN
1070
    73
1070
     1
1070
    44
1040
1.0
1070
    74
1070
     0
1000
MTEXTEND
  0
POINT
  5
15D1
330
15C8
100
AcDbEntity
  8
Defpoints
 62
     0
100
AcDbPoint
 10
4146.05552447959
 20
2064.854953314716
 30
0.0
  0
POINT
  5
15D2
330
15C8
100
AcDbEntity
  8
Defpoints
 62
     0
100
AcDbPoint
 10
4266.034959811274
 20
2064.854981033352
 30
0.0
  0
POINT
  5
15D3
330
15C8
100
AcDbEntity
  8
Defpoints
 62
     0
100
AcDbPoint
 10
4266.034959811274
 20
2131.178344572672
 30
0.0
  0
ENDBLK
  5
15CA
330
15C8
100
AcDbEntity
  8
0
100
AcDbBlockEnd
  0
BLOCK
  5
15D5
330
15D4
100
AcDbEntity
  8
0
100
AcDbBlockBegin
  2
*D35
 70
     1
 10
0.0
 20
0.0
 30
0.0
  3
*D35
  1

  0
LINE
  5
15D7
330
15D4
100
AcDbEntity
  8
cotas
100
AcDbLine
 10
4266.034959811274
 20
2065.854981033353
 30
0.0
 11
4266.034959811274
 21
2132.178344572672
 31
0.0
  0
LINE
  5
15D8
330
15D4
100
AcDbEntity
  8
cotas
100
AcDbLine
 10
4386.024810499579
 20
2065.873904810266
 30
0.0
 11
4386.024810499579
 21
2132.178344572672
 31
0.0
  0
LINE
  5
15D9
330
15D4
100
AcDbEntity
  8
cotas
100
AcDbLine
 10
4268.034959811273
 20
2131.178344572672
 30
0.0
 11
4384.024810499578
 21
2131.178344572672
 31
0.0
  0
SOLID
  5
15DA
330
15D4
100
AcDbEntity
  8
cotas
100
AcDbTrace
 10
4268.034959811273
 20
2131.511677906006
 30
0.0
 11
4268.034959811273
 21
2130.845011239339
 31
0.0
 12
4266.034959811274
 22
2131.178344572672
 32
0.0
 13
4266.034959811274
 23
2131.178344572672
 33
0.0
  0
SOLID
  5
15DB
330
15D4
100
AcDbEntity
  8
cotas
100
AcDbTrace
 10
4384.024810499578
 20
2131.511677906006
 30
0.0
 11
4384.024810499578
 21
2130.845011239339
 31
0.0
 12
4386.024810499579
 22
2131.178344572672
 32
0.0
 13
4386.024810499579
 23
2131.178344572672
 33
0.0
  0
MTEXT
  5
15DC
330
15D4
100
AcDbEntity
  8
cotas
100
AcDbMText
 10
4326.029885155426
 20
2133.219983256353
 30
0.0
 40
2.0
 41
0.0
 71
     5
 72
     1
  1
120
  7
SANINDUSA
 73
     1
 44
1.0
1001
ACAD
1000
MTEXTBEGIN
1070
    73
1070
     1
1070
    44
1040
1.0
1070
    74
1070
     0
1000
MTEXTEND
  0
POINT
  5
15DD
330
15D4
100
AcDbEntity
  8
Defpoints
 62
     0
100
AcDbPoint
 10
4266.034959811274
 20
2064.854981033352
 30
0.0
  0
POINT
  5
15DE
330
15D4
100
AcDbEntity
  8
Defpoints
 62
     0
100
AcDbPoint
 10
4386.024810499579
 20
2064.873904810266
 30
0.0
  0
POINT
  5
15DF
330
15D4
100
AcDbEntity
  8
Defpoints
 62
     0
100
AcDbPoint
 10
4386.024810499579
 20
2131.178344572672
 30
0.0
  0
ENDBLK
  5
15D6
330
15D4
100
AcDbEntity
  8
0
100
AcDbBlockEnd
  0
ENDSEC
  0
SECTION
  2
ENTITIES
  0
LINE
  5
134A
330
1F
100
AcDbEntity
  8
SANINDUSA
100
AcDbLine
 10
3737.203775233846
 20
2791.821289665184
 30
0.0
 11
3737.199992564555
 21
2791.821318420373
 31
0.0
  0
LINE
  5
134B
330
1F
100
AcDbEntity
  8
SANINDUSA
100
AcDbLine
 10
3737.98561459755
 20
2791.821312563765
 30
0.0
 11
3737.203774976996
 21
2791.821286604802
 31
0.0
  0
LINE
  5
134E
330
1F
100
AcDbEntity
  8
SANINDUSA
100
AcDbLine
 10
3737.199386570029
 20
2791.801469098361
 30
0.0
 11
3737.194389615894
 21
2791.801469098361
 31
0.0
  0
LINE
  5
1353
330
1F
100
AcDbEntity
  8
SANINDUSA
100
AcDbLine
 10
3737.199386570029
 20
2791.801469098361
 30
0.0
 11
3737.986138700234
 21
2791.801469098361
 31
0.0
  0
LINE
  5
1355
330
1F
100
AcDbEntity
  8
SANINDUSA
100
AcDbLine
 10
3737.990611192469
 20
2791.816487722194
 30
0.0
 11
3737.991135654369
 21
2791.801469098361
 31
0.0
  0
LINE
  5
1356
330
1F
100
AcDbEntity
  8
SANINDUSA
100
AcDbLine
 10
3737.991135654369
 20
2791.801469098361
 30
0.0
 11
3737.986138700234
 21
2791.801469098361
 31
0.0
  0
ARC
  5
1359
330
1F
100
AcDbEntity
  8
SANINDUSA
100
AcDbCircle
 10
3737.98561459755
 20
2791.816312911832
 30
0.0
 40
0.0049996519326614
100
AcDbArc
 50
2.003727064090449
 51
90.93991134944767
  0
ARC
  5
135A
330
1F
100
AcDbEntity
  8
SANINDUSA
100
AcDbCircle
 10
3737.199910672714
 20
2791.816312911832
 30
0.0
 40
0.0049996519326618
100
AcDbArc
 50
89.06008865055234
 51
177.9962729359095
  0
LINE
  5
135B
330
1F
100
AcDbEntity
  8
SANINDUSA
100
AcDbLine
 10
3737.951135654369
 20
2791.746469098361
 30
0.0
 11
3737.234389615895
 21
2791.746469098361
 31
0.0
  0
LINE
  5
135C
330
1F
100
AcDbEntity
  8
SANINDUSA
100
AcDbLine
 10
3737.951135654369
 20
2791.746469098361
 30
0.0
 11
3737.953056296691
 21
2791.801469098361
 31
0.0
  0
LINE
  5
135D
330
1F
100
AcDbEntity
  8
SANINDUSA
100
AcDbLine
 10
3737.234389615895
 20
2791.746469098361
 30
0.0
 11
3737.232468973573
 21
2791.801469098361
 31
0.0
  0
SPLINE
  5
1361
330
1F
100
AcDbEntity
  8
SANINDUSA
100
AcDbSpline
210
0.0
220
0.0
230
1.0
 70
     8
 71
     3
 72
    18
 73
    14
 74
     0
 42
0.0000000001
 43
0.0000000001
 40
0.0
 40
0.0
 40
0.0
 40
0.0
 40
0.2499999999999979
 40
0.2499999999999979
 40
0.3749999999999968
 40
0.3749999999999968
 40
0.437499999999996
 40
0.437499999999996
 40
0.4999999999999949
 40
0.4999999999999949
 40
0.7499999999999975
 40
0.7499999999999975
 40
1.0
 40
1.0
 40
1.0
 40
1.0
 10
3735.412368822524
 20
2792.065654230427
 30
0.0
 10
3735.413636844983
 20
2792.068348058527
 30
0.0
 10
3735.415119399341
 20
2792.070892493388
 30
0.0
 10
3735.417651889566
 20
2792.074494313728
 30
0.0
 10
3735.418547793483
 20
2792.075658907587
 30
0.0
 10
3735.419970239802
 20
2792.077351105032
 30
0.0
 10
3735.420457505002
 20
2792.077906042701
 30
0.0
 10
3735.421458658186
 20
2792.078997391061
 30
0.0
 10
3735.421973679711
 20
2792.079534920961
 30
0.0
 10
3735.424602978079
 20
2792.082161693098
 30
0.0
 10
3735.426857200094
 20
2792.084050114771
 30
0.0
 10
3735.431654600122
 20
2792.087418851015
 30
0.0
 10
3735.43419778238
 20
2792.088899160561
 30
0.0
 10
3735.436892364998
 20
2792.090165731504
 30
0.0
  0
SPLINE
  5
1364
330
1F
100
AcDbEntity
  8
SANINDUSA
100
AcDbSpline
210
0.0
220
0.0
230
1.0
 70
     8
 71
     3
 72
    18
 73
    14
 74
     0
 42
0.0000000001
 43
0.0000000001
 40
0.0
 40
0.0
 40
0.0
 40
0.0
 40
0.2500000000000086
 40
0.2500000000000086
 40
0.3750000000000129
 40
0.3750000000000129
 40
0.4375000000000133
 40
0.4375000000000133
 40
0.5000000000000137
 40
0.5000000000000137
 40
0.7500000000000068
 40
0.7500000000000068
 40
1.0
 40
1.0
 40
1.0
 40
1.0
 10
3736.062181392804
 20
2792.090165733701
 30
0.0
 10
3736.064875983413
 20
2792.088899159072
 30
0.0
 10
3736.067421218294
 20
2792.087417871056
 30
0.0
 10
3736.071024319512
 20
2792.084887074351
 30
0.0
 10
3736.072189354164
 20
2792.083991700688
 30
0.0
 10
3736.073882240177
 20
2792.08257000774
 30
0.0
 10
3736.074437411957
 20
2792.082082986671
 30
0.0
 10
3736.075529239141
 20
2792.08108230943
 30
0.0
 10
3736.076067023264
 20
2792.08056751082
 30
0.0
 10
3736.078694930974
 20
2792.077939458348
 30
0.0
 10
3736.080584345687
 20
2792.07568613857
 30
0.0
 10
3736.083955341781
 20
2792.070890438242
 30
0.0
 10
3736.085436917925
 20
2792.06834805321
 30
0.0
 10
3736.086704937265
 20
2792.06565423204
 30
0.0
  0
SPLINE
  5
1367
330
1F
100
AcDbEntity
  8
SANINDUSA
100
AcDbSpline
210
0.0
220
0.0
230
1.0
 70
     8
 71
     3
 72
    18
 73
    14
 74
     0
 42
0.0000000001
 43
0.0000000001
 40
0.0
 40
0.0
 40
0.0
 40
0.0
 40
0.2499999999999965
 40
0.2499999999999965
 40
0.3749999999999941
 40
0.3749999999999941
 40
0.4374999999999941
 40
0.4374999999999941
 40
0.499999999999994
 40
0.499999999999994
 40
0.749999999999997
 40
0.749999999999997
 40
1.0
 40
1.0
 40
1.0
 40
1.0
 10
3735.436079309096
 20
2791.414241470465
 30
0.0
 10
3735.433298218836
 20
2791.415548985508
 30
0.0
 10
3735.43067127966
 20
2791.41707805283
 30
0.0
 10
3735.426952956266
 20
2791.419690995533
 30
0.0
 10
3735.425750741342
 20
2791.420615504049
 30
0.0
 10
3735.424003988829
 20
2791.422083619971
 30
0.0
 10
3735.423431179201
 20
2791.422586569284
 30
0.0
 10
3735.422304726475
 20
2791.423620032143
 30
0.0
 10
3735.421749894739
 20
2791.424151751008
 30
0.0
 10
3735.419039264499
 20
2791.426865913911
 30
0.0
 10
3735.41709124172
 20
2791.429193229384
 30
0.0
 10
3735.413617310378
 20
2791.434146543386
 30
0.0
 10
3735.412091410864
 20
2791.436772549037
 30
0.0
 10
3735.410786221597
 20
2791.439554788463
 30
0.0
  0
SPLINE
  5
1369
330
1F
100
AcDbEntity
  8
SANINDUSA
100
AcDbSpline
210
0.0
220
0.0
230
1.0
 70
     8
 71
     3
 72
    18
 73
    14
 74
     0
 42
0.0000000001
 43
0.0000000001
 40
0.0
 40
0.0
 40
0.0
 40
0.0
 40
0.2499999999999915
 40
0.2499999999999915
 40
0.3749999999999872
 40
0.3749999999999872
 40
0.4374999999999866
 40
0.4374999999999866
 40
0.4999999999999859
 40
0.4999999999999859
 40
0.7499999999999929
 40
0.7499999999999929
 40
1.0
 40
1.0
 40
1.0
 40
1.0
 10
3736.088287334685
 20
2791.439554888653
 30
0.0
 10
3736.086982144055
 20
2791.436772643702
 30
0.0
 10
3736.08545519289
 20
2791.434144425605
 30
0.0
 10
3736.082845165526
 20
2791.43042398916
 30
0.0
 10
3736.081921585712
 20
2791.42922103695
 30
0.0
 10
3736.080454805744
 20
2791.42747312348
 30
0.0
 10
3736.079952292241
 20
2791.426899917662
 30
0.0
 10
3736.078919683286
 20
2791.425772652815
 30
0.0
 10
3736.078388375896
 20
2791.425217397046
 30
0.0
 10
3736.075676355977
 20
2791.422504738875
 30
0.0
 10
3736.073350590299
 20
2791.420554961431
 30
0.0
 10
3736.068400122409
 20
2791.417077173051
 30
0.0
 10
3736.065775412973
 20
2791.415549171146
 30
0.0
 10
3736.062994348348
 20
2791.414241668951
 30
0.0
  0
SPLINE
  5
13AA
330
1F
100
AcDbEntity
  8
SANINDUSA
100
AcDbSpline
210
0.0
220
0.0
230
1.0
 70
     8
 71
     3
 72
    14
 73
    10
 74
     0
 42
0.0000000001
 43
0.0000000001
 40
0.0
 40
0.0
 40
0.0
 40
0.0
 40
0.500000000000007
 40
0.500000000000007
 40
0.7500000000000068
 40
0.7500000000000068
 40
0.8750000000000033
 40
0.8750000000000033
 40
1.0
 40
1.0
 40
1.0
 40
1.0
 10
3736.040243018231
 20
2792.095046803518
 30
0.0
 10
3736.044047816412
 20
2792.095048145091
 30
0.0
 10
3736.047782355586
 20
2792.094636490716
 30
0.0
 10
3736.053281956068
 20
2792.093418211228
 30
0.0
 10
3736.055097972262
 20
2792.092911107701
 30
0.0
 10
3736.057795223092
 20
2792.091993073208
 30
0.0
 10
3736.058687612125
 20
2792.091661426511
 30
0.0
 10
3736.060449531839
 20
2792.090950257899
 30
0.0
 10
3736.061320488234
 20
2792.090570261086
 30
0.0
 10
3736.062181392804
 20
2792.090165733701
 30
0.0
  0
SPLINE
  5
13AC
330
1F
100
AcDbEntity
  8
SANINDUSA
100
AcDbSpline
210
0.0
220
0.0
230
1.0
 70
     8
 71
     3
 72
    14
 73
    10
 74
     0
 42
0.0000000001
 43
0.0000000001
 40
0.0
 40
0.0
 40
0.0
 40
0.0
 40
0.5000000000000038
 40
0.5000000000000038
 40
0.7500000000000055
 40
0.7500000000000055
 40
0.8750000000000028
 40
0.8750000000000028
 40
1.0
 40
1.0
 40
1.0
 40
1.0
 10
3735.436892364998
 20
2792.090165731504
 30
0.0
 10
3735.440335619678
 20
2792.091783670306
 30
0.0
 10
3735.443892609992
 20
2792.092992357199
 30
0.0
 10
3735.449391315412
 20
2792.094218079473
 30
0.0
 10
3735.451251666266
 20
2792.094527884669
 30
0.0
 10
3735.454084670671
 20
2792.094839744842
 30
0.0
 10
3735.455032944548
 20
2792.094917746741
 30
0.0
 10
3735.45692983665
 20
2792.095021376298
 30
0.0
 10
3735.457879618552
 20
2792.095047136783
 30
0.0
 10
3735.458830738436
 20
2792.095046801421
 30
0.0
  0
SPLINE
  5
13AD
330
1F
100
AcDbEntity
  8
SANINDUSA
100
AcDbSpline
210
0.0
220
0.0
230
1.0
 70
     8
 71
     3
 72
    20
 73
    16
 74
     0
 42
0.0000000001
 43
0.0000000001
 40
0.0
 40
0.0
 40
0.0
 40
0.0
 40
0.2500000000000002
 40
0.2500000000000002
 40
0.3750000000000002
 40
0.3750000000000002
 40
0.5000000000000002
 40
0.5000000000000002
 40
0.5625000000000002
 40
0.5625000000000002
 40
0.6250000000000004
 40
0.6250000000000004
 40
0.7500000000000002
 40
0.7500000000000002
 40
1.0
 40
1.0
 40
1.0
 40
1.0
 10
3735.458830738436
 20
2792.095046801421
 30
0.0
 10
3735.507281503386
 20
2792.094892970151
 30
0.0
 10
3735.555732573732
 20
2792.094768278009
 30
0.0
 10
3735.628409713725
 20
2792.094618274997
 30
0.0
 10
3735.652635517364
 20
2792.09457451513
 30
0.0
 10
3735.701087303491
 20
2792.094497864694
 30
0.0
 10
3735.725313194907
 20
2792.094463349153
 30
0.0
 10
3735.761651705268
 20
2792.094463396401
 30
0.0
 10
3735.773764489616
 20
2792.094471978777
 30
0.0
 10
3735.797990001174
 20
2792.094498828713
 30
0.0
 10
3735.810102732362
 20
2792.094516465632
 30
0.0
 10
3735.846440904833
 20
2792.09457373382
 30
0.0
 10
3735.870666323882
 20
2792.09461783766
 30
0.0
 10
3735.943342505026
 20
2792.094768248493
 30
0.0
 10
3735.991792935003
 20
2792.094892972983
 30
0.0
 10
3736.040243018231
 20
2792.095046803518
 30
0.0
  0
SPLINE
  5
13AF
330
1F
100
AcDbEntity
  8
SANINDUSA
100
AcDbSpline
210
0.0
220
0.0
230
1.0
 70
     8
 71
     3
 72
    14
 73
    10
 74
     0
 42
0.0000000001
 43
0.0000000001
 40
0.0
 40
0.0
 40
0.0
 40
0.0
 40
0.4999999999999996
 40
0.4999999999999996
 40
0.7499999999999995
 40
0.7499999999999995
 40
0.8749999999999998
 40
0.8749999999999998
 40
1.0
 40
1.0
 40
1.0
 40
1.0
 10
3736.086704937265
 20
2792.06565423204
 30
0.0
 10
3736.088325830445
 20
2792.06221102107
 30
0.0
 10
3736.089537288807
 20
2792.058653684349
 30
0.0
 10
3736.090766951058
 20
2792.053153913285
 30
0.0
 10
3736.091078031941
 20
2792.051293115068
 30
0.0
 10
3736.091391743557
 20
2792.048459295993
 30
0.0
 10
3736.091470346835
 20
2792.04751076434
 30
0.0
 10
3736.09157515363
 20
2792.045613293064
 30
0.0
 10
3736.091601489153
 20
2792.044663202419
 30
0.0
 10
3736.091601714714
 20
2792.043711754582
 30
0.0
  0
SPLINE
  5
13B0
330
1F
100
AcDbEntity
  8
SANINDUSA
100
AcDbSpline
210
0.0
220
0.0
230
1.0
 70
     8
 71
     3
 72
    14
 73
    10
 74
     0
 42
0.0000000001
 43
0.0000000001
 40
0.0
 40
0.0
 40
0.0
 40
0.0
 40
0.5
 40
0.5
 40
0.75
 40
0.75
 40
0.875
 40
0.875
 40
1.0
 40
1.0
 40
1.0
 40
1.0
 10
3735.407472046875
 20
2792.043711754582
 30
0.0
 10
3735.407472948926
 20
2792.047517867419
 30
0.0
 10
3735.407887036783
 20
2792.051253414879
 30
0.0
 10
3735.40910924615
 20
2792.056754081442
 30
0.0
 10
3735.409617707609
 20
2792.058570377783
 30
0.0
 10
3735.410537864265
 20
2792.061267929775
 30
0.0
 10
3735.410870221338
 20
2792.062160372524
 30
0.0
 10
3735.411582830604
 20
2792.06392236676
 30
0.0
 10
3735.411963556435
 20
2792.064793336653
 30
0.0
 10
3735.412368822524
 20
2792.065654230427
 30
0.0
  0
SPLINE
  5
13B1
330
1F
100
AcDbEntity
  8
SANINDUSA
100
AcDbSpline
210
0.0
220
0.0
230
1.0
 70
     8
 71
     3
 72
    12
 73
     8
 74
     0
 42
0.0000000001
 43
0.0000000001
 40
0.0
 40
0.0
 40
0.0
 40
0.0
 40
0.25
 40
0.25
 40
0.5000000000000001
 40
0.5000000000000001
 40
1.0
 40
1.0
 40
1.0
 40
1.0
 10
3736.091601714714
 20
2792.043711754582
 30
0.0
 10
3736.091703583155
 20
2791.995260463924
 30
0.0
 10
3736.091813013034
 20
2791.946809218635
 30
0.0
 10
3736.092056612501
 20
2791.849906914663
 30
0.0
 10
3736.092190765989
 20
2791.801455850575
 30
0.0
 10
3736.092624768728
 20
2791.656102842123
 30
0.0
 10
3736.092958345125
 20
2791.559201089676
 30
0.0
 10
3736.093331865128
 20
2791.462299474787
 30
0.0
  0
SPLINE
  5
13B2
330
1F
100
AcDbEntity
  8
SANINDUSA
100
AcDbSpline
210
0.0
220
0.0
230
1.0
 70
     8
 71
     3
 72
    12
 73
     8
 74
     0
 42
0.0000000001
 43
0.0000000001
 40
0.0
 40
0.0
 40
0.0
 40
0.0
 40
0.5
 40
0.5
 40
0.75
 40
0.75
 40
1.0
 40
1.0
 40
1.0
 40
1.0
 10
3735.405741651959
 20
2791.462299474787
 30
0.0
 10
3735.406114718382
 20
2791.559201094143
 30
0.0
 10
3735.406447732655
 20
2791.656102852835
 30
0.0
 10
3735.406881908515
 20
2791.801455858195
 30
0.0
 10
3735.40701639724
 20
2791.849906910953
 30
0.0
 10
3735.40726067061
 20
2791.946809215866
 30
0.0
 10
3735.407370208714
 20
2791.995260462553
 30
0.0
 10
3735.407472046875
 20
2792.043711754582
 30
0.0
  0
SPLINE
  5
13B3
330
1F
100
AcDbEntity
  8
SANINDUSA
100
AcDbSpline
210
0.0
220
0.0
230
1.0
 70
     8
 71
     3
 72
    14
 73
    10
 74
     0
 42
0.0000000001
 43
0.0000000001
 40
0.0
 40
0.0
 40
0.0
 40
0.0
 40
0.5000000000000005
 40
0.5000000000000005
 40
0.750000000000007
 40
0.750000000000007
 40
0.8750000000000033
 40
0.8750000000000033
 40
1.0
 40
1.0
 40
1.0
 40
1.0
 10
3736.093331865128
 20
2791.462299474787
 30
0.0
 10
3736.093335376614
 20
2791.458355479002
 30
0.0
 10
3736.09291088652
 20
2791.454484057168
 30
0.0
 10
3736.091651768522
 20
2791.448782458521
 30
0.0
 10
3736.091127422942
 20
2791.446899668805
 30
0.0
 10
3736.090177908604
 20
2791.444103122536
 30
0.0
 10
3736.089834826364
 20
2791.44317778847
 30
0.0
 10
3736.089099076216
 20
2791.441350800853
 30
0.0
 10
3736.088705910834
 20
2791.440447649102
 30
0.0
 10
3736.088287334685
 20
2791.439554888653
 30
0.0
  0
SPLINE
  5
13B4
330
1F
100
AcDbEntity
  8
SANINDUSA
100
AcDbSpline
210
0.0
220
0.0
230
1.0
 70
     8
 71
     3
 72
    14
 73
    10
 74
     0
 42
0.0000000001
 43
0.0000000001
 40
0.0
 40
0.0
 40
0.0
 40
0.0
 40
0.4999999999999922
 40
0.4999999999999922
 40
0.7499999999999961
 40
0.7499999999999961
 40
0.874999999999998
 40
0.874999999999998
 40
1.0
 40
1.0
 40
1.0
 40
1.0
 10
3735.410786221597
 20
2791.439554788463
 30
0.0
 10
3735.409112084786
 20
2791.443125468359
 30
0.0
 10
3735.407861871732
 20
2791.44681356745
 30
0.0
 10
3735.406595050164
 20
2791.452514259655
 30
0.0
 10
3735.406275107754
 20
2791.454442834448
 30
0.0
 10
3735.405953566854
 20
2791.457379563196
 30
0.0
 10
3735.405873265861
 20
2791.458362626782
 30
0.0
 10
3735.405766940598
 20
2791.460329002219
 30
0.0
 10
3735.405740775164
 20
2791.461313554889
 30
0.0
 10
3735.405741651959
 20
2791.462299474787
 30
0.0
  0
SPLINE
  5
13B5
330
1F
100
AcDbEntity
  8
SANINDUSA
100
AcDbSpline
210
0.0
220
0.0
230
1.0
 70
     8
 71
     3
 72
    14
 73
    10
 74
     0
 42
0.0000000001
 43
0.0000000001
 40
0.0
 40
0.0
 40
0.0
 40
0.0
 40
0.5000000000000079
 40
0.5000000000000079
 40
0.7500000000000081
 40
0.7500000000000081
 40
0.8750000000000039
 40
0.8750000000000039
 40
1.0
 40
1.0
 40
1.0
 40
1.0
 10
3736.062994348348
 20
2791.414241668951
 30
0.0
 10
3736.059423619147
 20
2791.412563186705
 30
0.0
 10
3736.055734901219
 20
2791.411308955878
 30
0.0
 10
3736.050032472469
 20
2791.410036546537
 30
0.0
 10
3736.048103182521
 20
2791.409714816684
 30
0.0
 10
3736.045165167782
 20
2791.409390719305
 30
0.0
 10
3736.044181712698
 20
2791.409309596142
 30
0.0
 10
3736.042214453532
 20
2791.409201672092
 30
0.0
 10
3736.041229432686
 20
2791.409174731961
 30
0.0
 10
3736.040243018231
 20
2791.409174859329
 30
0.0
  0
SPLINE
  5
13B6
330
1F
100
AcDbEntity
  8
SANINDUSA
100
AcDbSpline
210
0.0
220
0.0
230
1.0
 70
     8
 71
     3
 72
    14
 73
    10
 74
     0
 42
0.0000000001
 43
0.0000000001
 40
0.0
 40
0.0
 40
0.0
 40
0.0
 40
0.5000000000000014
 40
0.5000000000000014
 40
0.750000000000004
 40
0.750000000000004
 40
0.8750000000000019
 40
0.8750000000000019
 40
1.0
 40
1.0
 40
1.0
 40
1.0
 10
3735.458830738436
 20
2791.409174625234
 30
0.0
 10
3735.454884725915
 20
2791.4091741192
 30
0.0
 10
3735.451011704207
 20
2791.40960197234
 30
0.0
 10
3735.445308316001
 20
2791.410866678335
 30
0.0
 10
3735.443425032563
 20
2791.4113929791
 30
0.0
 10
3735.440627908575
 20
2791.412345586206
 30
0.0
 10
3735.439702465095
 20
2791.412689703669
 30
0.0
 10
3735.437875297289
 20
2791.413427565093
 30
0.0
 10
3735.436972089975
 20
2791.41382180326
 30
0.0
 10
3735.436079309096
 20
2791.414241470465
 30
0.0
  0
SPLINE
  5
13B7
330
1F
100
AcDbEntity
  8
SANINDUSA
100
AcDbSpline
210
0.0
220
0.0
230
1.0
 70
     8
 71
     3
 72
    10
 73
     6
 74
     0
 42
0.0000000001
 43
0.0000000001
 40
0.0
 40
0.0
 40
0.0
 40
0.0
 40
0.5
 40
0.5
 40
1.0
 40
1.0
 40
1.0
 40
1.0
 10
3736.040243018231
 20
2791.409174859329
 30
0.0
 10
3735.943340991867
 20
2791.409228488669
 30
0.0
 10
3735.846438936301
 20
2791.409278580023
 30
0.0
 10
3735.652634810295
 20
2791.40927814684
 30
0.0
 10
3735.555732765043
 20
2791.40922788463
 30
0.0
 10
3735.458830738436
 20
2791.409174625234
 30
0.0
  0
ELLIPSE
  5
13BA
330
1F
100
AcDbEntity
  8
SANINDUSA
100
AcDbEllipse
 10
3735.356166906818
 20
2792.146375586201
 30
0.0
 11
0.003539842722996
 21
-0.003539842722996
 31
0.0
210
0.0
220
0.0
230
1.0
 40
0.9987827659587289
 41
2.356803477777971
 42
3.92638182940165
  0
ELLIPSE
  5
13BD
330
1F
100
AcDbEntity
  8
SANINDUSA
100
AcDbEllipse
 10
3736.142906849849
 20
2792.146375586201
 30
0.0
 11
-0.003539842722996
 21
-0.003539842722996
 31
0.0
210
0.0
220
0.0
230
0.9999999999999998
 40
0.9987827659586928
 41
2.356803477777939
 42
3.926381829401705
  0
ELLIPSE
  5
13C0
330
1F
100
AcDbEntity
  8
SANINDUSA
100
AcDbEllipse
 10
3736.142906849849
 20
2791.359635643169
 30
0.0
 11
-0.0035398427229959
 21
0.003539842722996
 31
0.0
210
0.0
220
0.0
230
1.0
 40
0.9987827659587489
 41
2.356803477777976
 42
3.926381829401674
  0
ELLIPSE
  5
13C3
330
1F
100
AcDbEntity
  8
SANINDUSA
100
AcDbEllipse
 10
3735.356166906818
 20
2791.359635643169
 30
0.0
 11
0.003539842722996
 21
0.003539842722996
 31
0.0
210
0.0
220
0.0
230
0.9999999999999998
 40
0.9987827659587168
 41
2.356803477777917
 42
3.926381829401643
  0
LINE
  5
13C4
330
1F
100
AcDbEntity
  8
SANINDUSA
100
AcDbLine
 10
3736.142912943436
 20
2792.151378633922
 30
0.0
 11
3735.356160813231
 21
2792.151378633922
 31
0.0
  0
LINE
  5
13C5
330
1F
100
AcDbEntity
  8
SANINDUSA
100
AcDbLine
 10
3735.351163859096
 20
2792.146381679787
 30
0.0
 11
3735.351163859096
 21
2791.359629549583
 31
0.0
  0
LINE
  5
13C6
330
1F
100
AcDbEntity
  8
SANINDUSA
100
AcDbLine
 10
3736.147909897571
 20
2791.359629549583
 30
0.0
 11
3736.147909897571
 21
2792.146381679787
 31
0.0
  0
LINE
  5
13C7
330
1F
100
AcDbEntity
  8
SANINDUSA
100
AcDbLine
 10
3735.356160813231
 20
2791.354632595448
 30
0.0
 11
3736.142912943436
 21
2791.354632595448
 31
0.0
  0
SPLINE
  5
13DD
330
1F
100
AcDbEntity
  8
SANINDUSA
100
AcDbSpline
210
0.0
220
0.0
230
1.0
 70
     8
 71
     3
 72
    44
 73
    40
 74
     0
 42
0.0000000001
 43
0.0000000001
 40
0.0
 40
0.0
 40
0.0
 40
0.0
 40
0.0625000000000084
 40
0.0625000000000084
 40
0.1250000000000168
 40
0.1250000000000168
 40
0.156250000000021
 40
0.156250000000021
 40
0.1875000000000252
 40
0.1875000000000252
 40
0.2500000000000307
 40
0.2500000000000307
 40
0.3125000000000364
 40
0.3125000000000364
 40
0.3437500000000391
 40
0.3437500000000391
 40
0.375000000000042
 40
0.375000000000042
 40
0.4375000000000397
 40
0.4375000000000397
 40
0.5000000000000374
 40
0.5000000000000374
 40
0.5625000000000351
 40
0.5625000000000351
 40
0.6250000000000329
 40
0.6250000000000329
 40
0.6875000000000306
 40
0.6875000000000306
 40
0.7500000000000284
 40
0.7500000000000284
 40
0.8125000000000259
 40
0.8125000000000259
 40
0.8750000000000238
 40
0.8750000000000238
 40
0.9062500000000227
 40
0.9062500000000227
 40
0.9375000000000214
 40
0.9375000000000214
 40
1.0
 40
1.0
 40
1.0
 40
1.0
 10
3735.574697224741
 20
2791.6006525618
 30
0.0
 10
3735.574697233931
 20
2791.600310961483
 30
0.0
 10
3735.574663012192
 20
2791.599969057656
 30
0.0
 10
3735.574530488398
 20
2791.599306455462
 30
0.0
 10
3735.5744326093
 20
2791.59898421188
 30
0.0
 10
3735.57423790878
 20
2791.598514563157
 30
0.0
 10
3735.574164520699
 20
2791.59835959029
 30
0.0
 10
3735.574004308314
 20
2791.598060420837
 30
0.0
 10
3735.573917351669
 20
2791.597915684143
 30
0.0
 10
3735.573636380175
 20
2791.597495699805
 30
0.0
 10
3735.573422371929
 20
2791.597234447977
 30
0.0
 10
3735.572939195313
 20
2791.596751596855
 30
0.0
 10
3735.572677925349
 20
2791.59653785639
 30
0.0
 10
3735.572257675136
 20
2791.596257117602
 30
0.0
 10
3735.572112832497
 20
2791.596170232593
 30
0.0
 10
3735.571813406613
 20
2791.596010164268
 30
0.0
 10
3735.571658360063
 20
2791.59593688878
 30
0.0
 10
3735.571188564026
 20
2791.595742557134
 30
0.0
 10
3735.570866167662
 20
2791.595644910366
 30
0.0
 10
3735.5702031234
 20
2791.595512925052
 30
0.0
 10
3735.569860424749
 20
2791.595479270199
 30
0.0
 10
3735.56918539205
 20
2791.595479554193
 30
0.0
 10
3735.568849651359
 20
2791.595512420554
 30
0.0
 10
3735.568181815399
 20
2791.595645333638
 30
0.0
 10
3735.567856004578
 20
2791.595744605241
 30
0.0
 10
3735.56723359324
 20
2791.596002628948
 30
0.0
 10
3735.566932446263
 20
2791.596163403623
 30
0.0
 10
3735.566367131176
 20
2791.596541579609
 30
0.0
 10
3735.566106765597
 20
2791.596755723708
 30
0.0
 10
3735.565629586607
 20
2791.59723296443
 30
0.0
 10
3735.565411152873
 20
2791.597499218264
 30
0.0
 10
3735.565035936338
 20
2791.598061462938
 30
0.0
 10
3735.564877126275
 20
2791.598358537586
 30
0.0
 10
3735.564682493944
 20
2791.598828291364
 30
0.0
 10
3735.564624730665
 20
2791.598989775736
 30
0.0
 10
3735.564526325117
 20
2791.599314664071
 30
0.0
 10
3735.564485402929
 20
2791.599478515408
 30
0.0
 10
3735.564386921425
 20
2791.599974196251
 30
0.0
 10
3735.564353408463
 20
2791.600310112027
 30
0.0
 10
3735.564353398483
 20
2791.60065172085
 30
0.0
  0
SPLINE
  5
13E4
330
1F
100
AcDbEntity
  8
SANINDUSA
100
AcDbSpline
210
0.0
220
0.0
230
1.0
 70
     8
 71
     3
 72
    42
 73
    38
 74
     0
 42
0.0000000001
 43
0.0000000001
 40
0.0
 40
0.0
 40
0.0
 40
0.0
 40
0.0624999999999858
 40
0.0624999999999858
 40
0.1249999999999716
 40
0.1249999999999716
 40
0.1562499999999645
 40
0.1562499999999645
 40
0.1874999999999574
 40
0.1874999999999574
 40
0.2499999999999603
 40
0.2499999999999603
 40
0.3124999999999632
 40
0.3124999999999632
 40
0.3749999999999662
 40
0.3749999999999662
 40
0.4374999999999691
 40
0.4374999999999691
 40
0.4999999999999721
 40
0.4999999999999721
 40
0.562499999999975
 40
0.562499999999975
 40
0.6249999999999778
 40
0.6249999999999778
 40
0.6874999999999807
 40
0.6874999999999807
 40
0.7499999999999836
 40
0.7499999999999836
 40
0.8124999999999864
 40
0.8124999999999864
 40
0.8749999999999893
 40
0.8749999999999893
 40
0.9062499999999918
 40
0.9062499999999918
 40
0.9374999999999943
 40
0.9374999999999943
 40
1.0
 40
1.0
 40
1.0
 40
1.0
 10
3735.934720373436
 20
2791.600651648078
 30
0.0
 10
3735.934720363432
 20
2791.60031001835
 30
0.0
 10
3735.934686119509
 20
2791.599968193066
 30
0.0
 10
3735.934553618599
 20
2791.599305832335
 30
0.0
 10
3735.9344557202
 20
2791.598983447292
 30
0.0
 10
3735.934260715487
 20
2791.59851325341
 30
0.0
 10
3735.934187256012
 20
2791.598358231554
 30
0.0
 10
3735.934027081513
 20
2791.598059269242
 30
0.0
 10
3735.933940120268
 20
2791.597914573572
 30
0.0
 10
3735.933659018622
 20
2791.597494561748
 30
0.0
 10
3735.933444164005
 20
2791.597232489995
 30
0.0
 10
3735.932961243204
 20
2791.596750269543
 30
0.0
 10
3735.932699957382
 20
2791.596536619548
 30
0.0
 10
3735.932139142591
 20
2791.596162290211
 30
0.0
 10
3735.931835943376
 20
2791.596000334163
 30
0.0
 10
3735.931209781295
 20
2791.595741693128
 30
0.0
 10
3735.930887294304
 20
2791.595644154204
 30
0.0
 10
3735.930223575124
 20
2791.595512414251
 30
0.0
 10
3735.929880995655
 20
2791.595479016313
 30
0.0
 10
3735.929206505418
 20
2791.595479659813
 30
0.0
 10
3735.928870925157
 20
2791.595512652244
 30
0.0
 10
3735.928203190125
 20
2791.59564585379
 30
0.0
 10
3735.927877498923
 20
2791.595745243999
 30
0.0
 10
3735.927255298803
 20
2791.596003473046
 30
0.0
 10
3735.926954253415
 20
2791.596164342502
 30
0.0
 10
3735.926389224783
 20
2791.596542608788
 30
0.0
 10
3735.926128991885
 20
2791.596756776872
 30
0.0
 10
3735.925652060325
 20
2791.597234026967
 30
0.0
 10
3735.925433748579
 20
2791.597500256916
 30
0.0
 10
3735.925058730474
 20
2791.598062437194
 30
0.0
 10
3735.924899996029
 20
2791.598359477297
 30
0.0
 10
3735.924705453178
 20
2791.598829182567
 30
0.0
 10
3735.924647717441
 20
2791.598990647107
 30
0.0
 10
3735.924549360056
 20
2791.599315491422
 30
0.0
 10
3735.924508456729
 20
2791.599479324931
 30
0.0
 10
3735.924410021994
 20
2791.599974965635
 30
0.0
 10
3735.924376526981
 20
2791.600310872268
 30
0.0
 10
3735.924376536185
 20
2791.600652493321
 30
0.0
  0
SPLINE
  5
13E6
330
1F
100
AcDbEntity
  8
SANINDUSA
100
AcDbSpline
210
0.0
220
0.0
230
1.0
 70
    24
 71
     3
 72
    26
 73
    22
 74
     0
 42
0.0000000001
 43
0.0000000001
 40
0.0
 40
0.0
 40
0.0
 40
0.0
 40
0.0060000000016344
 40
0.0060000000016344
 40
0.0060000000016344
 40
0.0300000002367678
 40
0.0300000002367678
 40
0.0300000002367678
 40
0.0680036376903794
 40
0.0680036376903794
 40
0.0680036376903794
 40
0.0800034936722267
 40
0.0800034936722267
 40
0.0800034936722267
 40
0.1169152387611504
 40
0.1169152387611504
 40
0.1169152387611504
 40
0.1473673586318642
 40
0.1473673586318642
 40
0.1473673586318642
 40
0.1600588723015816
 40
0.1600588723015816
 40
0.1600588723015816
 40
0.1600588723015816
 10
3735.564353398483
 20
2791.60065172085
 30
0.0
 10
3735.564353269732
 20
2791.602650955689
 30
0.0
 10
3735.564353140877
 20
2791.604650191803
 30
0.0
 10
3735.564353011923
 20
2791.606649429238
 30
0.0
 10
3735.564352496104
 20
2791.614646379017
 30
0.0
 10
3735.564351978682
 20
2791.622643349978
 30
0.0
 10
3735.564351459804
 20
2791.630640344974
 30
0.0
 10
3735.564350638167
 20
2791.643303465474
 30
0.0
 10
3735.564349812769
 20
2791.655966646546
 30
0.0
 10
3735.56434898472
 20
2791.668629899586
 30
0.0
 10
3735.56434872326
 20
2791.67262839093
 30
0.0
 10
3735.564348461546
 20
2791.676626889485
 30
0.0
 10
3735.56434819966
 20
2791.680625395621
 30
0.0
 10
3735.564347394093
 20
2791.692924862871
 30
0.0
 10
3735.564346586603
 20
2791.705224402202
 30
0.0
 10
3735.564345781702
 20
2791.717524024831
 30
0.0
 10
3735.564345117661
 20
2791.727671190282
 30
0.0
 10
3735.564344455401
 20
2791.737818412936
 30
0.0
 10
3735.564343799921
 20
2791.747965699594
 30
0.0
 10
3735.564343526736
 20
2791.752194778906
 30
0.0
 10
3735.564343254835
 20
2791.756423869486
 30
0.0
 10
3735.564342984259
 20
2791.760652971311
 30
0.0
  0
SPLINE
  5
13E8
330
1F
100
AcDbEntity
  8
SANINDUSA
100
AcDbSpline
210
0.0
220
0.0
230
1.0
 70
    24
 71
     3
 72
     8
 73
     4
 74
     0
 42
0.0000000001
 43
0.0000000001
 40
0.0
 40
0.0
 40
0.0
 40
0.0
 40
1.0
 40
1.0
 40
1.0
 40
1.0
 10
3735.934730829492
 20
2791.760652960891
 30
0.0
 10
3735.934727397314
 20
2791.707317606667
 30
0.0
 10
3735.934723815959
 20
2791.653984186173
 30
0.0
 10
3735.934720373436
 20
2791.600651648078
 30
0.0
  0
SPLINE
  5
13EA
330
1F
100
AcDbEntity
  8
SANINDUSA
100
AcDbSpline
210
0.0
220
0.0
230
1.0
 70
    24
 71
     3
 72
    26
 73
    22
 74
     0
 42
0.0000000001
 43
0.0000000001
 40
0.0
 40
0.0
 40
0.0
 40
0.0
 40
0.006000000007606
 40
0.006000000007606
 40
0.006000000007606
 40
0.0281294819101391
 40
0.0281294819101391
 40
0.0281294819101391
 40
0.0523968434934136
 40
0.0523968434934136
 40
0.0523968434934136
 40
0.0796087542195067
 40
0.0796087542195067
 40
0.0796087542195067
 40
0.1104659070036859
 40
0.1104659070036859
 40
0.1104659070036859
 40
0.1462343667481647
 40
0.1462343667481647
 40
0.1462343667481647
 40
0.1600630219989774
 40
0.1600630219989774
 40
0.1600630219989774
 40
0.1600630219989774
 10
3735.574687760073
 20
2791.760655168353
 30
0.0
 10
3735.574687875167
 20
2791.758655864295
 30
0.0
 10
3735.574687990578
 20
2791.756656562894
 30
0.0
 10
3735.574688106302
 20
2791.754657264155
 30
0.0
 10
3735.574688533118
 20
2791.747283356729
 30
0.0
 10
3735.5746889643
 20
2791.739909485839
 30
0.0
 10
3735.574689397914
 20
2791.732535648524
 30
0.0
 10
3735.57468987342
 20
2791.724449441305
 30
0.0
 10
3735.574690351799
 20
2791.716363274057
 30
0.0
 10
3735.574690831293
 20
2791.708277142832
 30
0.0
 10
3735.574691368969
 20
2791.699209857949
 30
0.0
 10
3735.574691908051
 20
2791.690142618074
 30
0.0
 10
3735.574692447237
 20
2791.681075418217
 30
0.0
 10
3735.574693058651
 20
2791.670793598103
 30
0.0
 10
3735.574693670218
 20
2791.660511829139
 30
0.0
 10
3735.574694281323
 20
2791.650230104725
 30
0.0
 10
3735.574694989693
 20
2791.638311913566
 30
0.0
 10
3735.574695697513
 20
2791.626393781948
 30
0.0
 10
3735.574696404741
 20
2791.614475700102
 30
0.0
 10
3735.574696678167
 20
2791.609867980114
 30
0.0
 10
3735.574696951506
 20
2791.605260267537
 30
0.0
 10
3735.574697224741
 20
2791.6006525618
 30
0.0
  0
SPLINE
  5
13EC
330
1F
100
AcDbEntity
  8
SANINDUSA
100
AcDbSpline
210
0.0
220
0.0
230
1.0
 70
    24
 71
     3
 72
     8
 73
     4
 74
     0
 42
0.0000000001
 43
0.0000000001
 40
0.0
 40
0.0
 40
0.0
 40
0.0
 40
1.0
 40
1.0
 40
1.0
 40
1.0
 10
3735.924376536185
 20
2791.600652493321
 30
0.0
 10
3735.924379703158
 20
2791.653985461552
 30
0.0
 10
3735.92438294564
 20
2791.707319296091
 30
0.0
 10
3735.924386032039
 20
2791.760655160367
 30
0.0
  0
SPLINE
  5
13F3
330
1F
100
AcDbEntity
  8
SANINDUSA
100
AcDbSpline
210
0.0
220
0.0
230
1.0
 70
     8
 71
     3
 72
    44
 73
    40
 74
     0
 42
0.0000000001
 43
0.0000000001
 40
0.0
 40
0.0
 40
0.0
 40
0.0
 40
0.0624999999999889
 40
0.0624999999999889
 40
0.1249999999999777
 40
0.1249999999999777
 40
0.1562499999999722
 40
0.1562499999999722
 40
0.1874999999999666
 40
0.1874999999999666
 40
0.2499999999999733
 40
0.2499999999999733
 40
0.3124999999999801
 40
0.3124999999999801
 40
0.3437499999999783
 40
0.3437499999999783
 40
0.3749999999999765
 40
0.3749999999999765
 40
0.4374999999999729
 40
0.4374999999999729
 40
0.4999999999999694
 40
0.4999999999999694
 40
0.5624999999999658
 40
0.5624999999999658
 40
0.6249999999999622
 40
0.6249999999999622
 40
0.6874999999999586
 40
0.6874999999999586
 40
0.7499999999999551
 40
0.7499999999999551
 40
0.8124999999999515
 40
0.8124999999999515
 40
0.8749999999999477
 40
0.8749999999999477
 40
0.9062499999999559
 40
0.9062499999999559
 40
0.9374999999999641
 40
0.9374999999999641
 40
1.0
 40
1.0
 40
1.0
 40
1.0
 10
3735.69470374158
 20
2791.600646430205
 30
0.0
 10
3735.694703745808
 20
2791.60030484744
 30
0.0
 10
3735.694669528906
 20
2791.59996298111
 30
0.0
 10
3735.694537045985
 20
2791.599300464512
 30
0.0
 10
3735.694439186949
 20
2791.5989781935
 30
0.0
 10
3735.694244457645
 20
2791.598508414124
 30
0.0
 10
3735.694171064428
 20
2791.598353419479
 30
0.0
 10
3735.69401089083
 20
2791.598054288141
 30
0.0
 10
3735.6939239473
 20
2791.597909552066
 30
0.0
 10
3735.693642983388
 20
2791.597489524951
 30
0.0
 10
3735.693428776825
 20
2791.59722802386
 30
0.0
 10
3735.692945701286
 20
2791.596745258365
 30
0.0
 10
3735.692684435034
 20
2791.596531495113
 30
0.0
 10
3735.692264084482
 20
2791.59625068165
 30
0.0
 10
3735.692119190718
 20
2791.596163764804
 30
0.0
 10
3735.691819619667
 20
2791.596003628021
 30
0.0
 10
3735.691664563594
 20
2791.595930358909
 30
0.0
 10
3735.691194778161
 20
2791.595736054473
 30
0.0
 10
3735.690872324087
 20
2791.595638397109
 30
0.0
 10
3735.690209011929
 20
2791.595506415581
 30
0.0
 10
3735.689866279235
 20
2791.595472806608
 30
0.0
 10
3735.689191268765
 20
2791.595473172038
 30
0.0
 10
3735.688855501483
 20
2791.595506078045
 30
0.0
 10
3735.688187537481
 20
2791.595639118586
 30
0.0
 10
3735.68786176555
 20
2791.595738439437
 30
0.0
 10
3735.687239344282
 20
2791.595996588846
 30
0.0
 10
3735.686938163448
 20
2791.596157454199
 30
0.0
 10
3735.686372933989
 20
2791.59653572222
 30
0.0
 10
3735.686112608818
 20
2791.596749909551
 30
0.0
 10
3735.685635508757
 20
2791.597227234242
 30
0.0
 10
3735.685417123153
 20
2791.597493520986
 30
0.0
 10
3735.685042016961
 20
2791.59805577973
 30
0.0
 10
3735.684883255025
 20
2791.598352856125
 30
0.0
 10
3735.684688684958
 20
2791.598822604823
 30
0.0
 10
3735.684630941974
 20
2791.598984083453
 30
0.0
 10
3735.68453257365
 20
2791.599308950532
 30
0.0
 10
3735.684491667002
 20
2791.599472791184
 30
0.0
 10
3735.684393223936
 20
2791.599968439947
 30
0.0
 10
3735.684359725822
 20
2791.600304334306
 30
0.0
 10
3735.68435972077
 20
2791.600645921951
 30
0.0
  0
SPLINE
  5
13FA
330
1F
100
AcDbEntity
  8
SANINDUSA
100
AcDbSpline
210
0.0
220
0.0
230
1.0
 70
     8
 71
     3
 72
    44
 73
    40
 74
     0
 42
0.0000000001
 43
0.0000000001
 40
0.0
 40
0.0
 40
0.0
 40
0.0
 40
0.0624999999999959
 40
0.0624999999999959
 40
0.1249999999999917
 40
0.1249999999999917
 40
0.1562499999999991
 40
0.1562499999999991
 40
0.1875000000000065
 40
0.1875000000000065
 40
0.2500000000000041
 40
0.2500000000000041
 40
0.3125000000000017
 40
0.3125000000000017
 40
0.3437500000000005
 40
0.3437500000000005
 40
0.3749999999999994
 40
0.3749999999999994
 40
0.4374999999999994
 40
0.4374999999999994
 40
0.4999999999999995
 40
0.4999999999999995
 40
0.5624999999999995
 40
0.5624999999999995
 40
0.6249999999999993
 40
0.6249999999999993
 40
0.6874999999999993
 40
0.6874999999999993
 40
0.7499999999999993
 40
0.7499999999999993
 40
0.8124999999999992
 40
0.8124999999999992
 40
0.8749999999999992
 40
0.8749999999999992
 40
0.9062499999999996
 40
0.9062499999999996
 40
0.9374999999999998
 40
0.9374999999999998
 40
1.0
 40
1.0
 40
1.0
 40
1.0
 10
3735.814713940994
 20
2791.600645884396
 30
0.0
 10
3735.814713935994
 20
2791.600304287763
 30
0.0
 10
3735.814679708009
 20
2791.599962451215
 30
0.0
 10
3735.81454722853
 20
2791.599300030374
 30
0.0
 10
3735.814449356016
 20
2791.598977691791
 30
0.0
 10
3735.814254481708
 20
2791.598507664841
 30
0.0
 10
3735.814181051849
 20
2791.598352644415
 30
0.0
 10
3735.814020885114
 20
2791.598053600205
 30
0.0
 10
3735.81393393412
 20
2791.597908880474
 30
0.0
 10
3735.813652894846
 20
2791.59748883716
 30
0.0
 10
3735.813438298046
 20
2791.597226970344
 30
0.0
 10
3735.812955305692
 20
2791.596744489318
 30
0.0
 10
3735.812694016964
 20
2791.596530771896
 30
0.0
 10
3735.812273482956
 20
2791.596249967717
 30
0.0
 10
3735.812128503047
 20
2791.596163043775
 30
0.0
 10
3735.811828698438
 20
2791.596002885904
 30
0.0
 10
3735.811673652468
 20
2791.595929681934
 30
0.0
 10
3735.811203925813
 20
2791.595735556433
 30
0.0
 10
3735.81088142066
 20
2791.595637964745
 30
0.0
 10
3735.810217790554
 20
2791.595506131561
 30
0.0
 10
3735.809875107666
 20
2791.595472659062
 30
0.0
 10
3735.809200338056
 20
2791.595473227824
 30
0.0
 10
3735.8088646435
 20
2791.595506211562
 30
0.0
 10
3735.808196730352
 20
2791.595639423482
 30
0.0
 10
3735.807871032324
 20
2791.595738813201
 30
0.0
 10
3735.807248732682
 20
2791.595997083694
 30
0.0
 10
3735.806947609706
 20
2791.59615800508
 30
0.0
 10
3735.806382542906
 20
2791.596536328459
 30
0.0
 10
3735.806122292991
 20
2791.596750531183
 30
0.0
 10
3735.805645333111
 20
2791.597227864175
 30
0.0
 10
3735.805427016371
 20
2791.597494138761
 30
0.0
 10
3735.805052022027
 20
2791.598056362977
 30
0.0
 10
3735.804893302782
 20
2791.598353420123
 30
0.0
 10
3735.804698783037
 20
2791.598823140601
 30
0.0
 10
3735.80464105546
 20
2791.598984607627
 30
0.0
 10
3735.80454271381
 20
2791.599309449158
 30
0.0
 10
3735.804501817514
 20
2791.599473279213
 30
0.0
 10
3735.804403399745
 20
2791.599968903162
 30
0.0
 10
3735.804369910749
 20
2791.600304790188
 30
0.0
 10
3735.804369914899
 20
2791.600646381742
 30
0.0
  0
SPLINE
  5
13FC
330
1F
100
AcDbEntity
  8
SANINDUSA
100
AcDbSpline
210
0.0
220
0.0
230
1.0
 70
    24
 71
     3
 72
     8
 73
     4
 74
     0
 42
0.0000000001
 43
0.0000000001
 40
0.0
 40
0.0
 40
0.0
 40
0.0
 40
1.0
 40
1.0
 40
1.0
 40
1.0
 10
3735.68435972077
 20
2791.600645921951
 30
0.0
 10
3735.684357983196
 20
2791.653978804051
 30
0.0
 10
3735.68435615252
 20
2791.707312033328
 30
0.0
 10
3735.68435321352
 20
2791.760646019453
 30
0.0
  0
SPLINE
  5
13FE
330
1F
100
AcDbEntity
  8
SANINDUSA
100
AcDbSpline
210
0.0
220
0.0
230
1.0
 70
    24
 71
     3
 72
     8
 73
     4
 74
     0
 42
0.0000000001
 43
0.0000000001
 40
0.0
 40
0.0
 40
0.0
 40
0.0
 40
1.0
 40
1.0
 40
1.0
 40
1.0
 10
3735.81472036145
 20
2791.760645999337
 30
0.0
 10
3735.814717515654
 20
2791.707311983195
 30
0.0
 10
3735.814715660501
 20
2791.653978769959
 30
0.0
 10
3735.814713940994
 20
2791.600645884396
 30
0.0
  0
SPLINE
  5
1400
330
1F
100
AcDbEntity
  8
SANINDUSA
100
AcDbSpline
210
0.0
220
0.0
230
1.0
 70
    24
 71
     3
 72
    23
 73
    19
 74
     0
 42
0.0000000001
 43
0.0000000001
 40
0.0
 40
0.0
 40
0.0
 40
0.0
 40
0.0060000000012696
 40
0.0060000000012696
 40
0.0060000000012696
 40
0.0299999999988218
 40
0.0299999999988218
 40
0.0299999999988218
 40
0.0815863601236629
 40
0.0815863601236629
 40
0.0815863601236629
 40
0.1199291716612037
 40
0.1199291716612037
 40
0.1199291716612037
 40
0.1502654235749749
 40
0.1502654235749749
 40
0.1502654235749749
 40
0.1600927277328955
 40
0.1600927277328955
 40
0.1600927277328955
 40
0.1600927277328955
 10
3735.694698325485
 20
2791.76064731185
 30
0.0
 10
3735.694698415449
 20
2791.75864844471
 30
0.0
 10
3735.694698503998
 20
2791.75664957932
 30
0.0
 10
3735.69469859094
 20
2791.754650714584
 30
0.0
 10
3735.69469893871
 20
2791.746655255646
 30
0.0
 10
3735.694699257694
 20
2791.738659795281
 30
0.0
 10
3735.694699560549
 20
2791.730664339285
 30
0.0
 10
3735.694700211512
 20
2791.713478652995
 30
0.0
 10
3735.694700798091
 20
2791.696293005633
 30
0.0
 10
3735.694701365835
 20
2791.679107425562
 30
0.0
 10
3735.694701787825
 20
2791.666333826919
 30
0.0
 10
3735.694702195573
 20
2791.653560261388
 30
0.0
 10
3735.694702584532
 20
2791.640786714943
 30
0.0
 10
3735.694702892271
 20
2791.630680478398
 30
0.0
 10
3735.694703187627
 20
2791.620574253118
 30
0.0
 10
3735.694703470401
 20
2791.6104680334
 30
0.0
 10
3735.694703562005
 20
2791.607194165047
 30
0.0
 10
3735.694703652337
 20
2791.603920297323
 30
0.0
 10
3735.69470374158
 20
2791.600646430205
 30
0.0
  0
SPLINE
  5
1402
330
1F
100
AcDbEntity
  8
SANINDUSA
100
AcDbSpline
210
0.0
220
0.0
230
1.0
 70
    24
 71
     3
 72
    10
 73
     6
 74
     0
 42
0.0000000001
 43
0.0000000001
 40
0.0
 40
0.0
 40
0.0
 40
0.0
 40
0.5
 40
0.5
 40
1.0
 40
1.0
 40
1.0
 40
1.0
 10
3735.804369914899
 20
2791.600646381742
 30
0.0
 10
3735.804370628452
 20
2791.62731301978
 30
0.0
 10
3735.804371420086
 20
2791.653979687478
 30
0.0
 10
3735.804373156972
 20
2791.707313300536
 30
0.0
 10
3735.804374067305
 20
2791.733980249508
 30
0.0
 10
3735.804375243659
 20
2791.76064728008
 30
0.0
  0
SPLINE
  5
1414
330
1F
100
AcDbEntity
  8
SANINDUSA
100
AcDbSpline
210
0.0
220
0.0
230
1.0
 70
     8
 71
     3
 72
    42
 73
    38
 74
     0
 42
0.0000000001
 43
0.0000000001
 40
0.0
 40
0.0
 40
0.0
 40
0.0
 40
0.0624999999999994
 40
0.0624999999999994
 40
0.1249999999999988
 40
0.1249999999999988
 40
0.1874999999999981
 40
0.1874999999999981
 40
0.2499999999999975
 40
0.2499999999999975
 40
0.3124999999999969
 40
0.3124999999999969
 40
0.3749999999999962
 40
0.3749999999999962
 40
0.4374999999999957
 40
0.4374999999999957
 40
0.4999999999999951
 40
0.4999999999999951
 40
0.5624999999999944
 40
0.5624999999999944
 40
0.6249999999999938
 40
0.6249999999999938
 40
0.6562499999999912
 40
0.6562499999999912
 40
0.6874999999999885
 40
0.6874999999999885
 40
0.7499999999999888
 40
0.7499999999999888
 40
0.8124999999999889
 40
0.8124999999999889
 40
0.8749999999999891
 40
0.8749999999999891
 40
0.9062499999999893
 40
0.9062499999999893
 40
0.9374999999999895
 40
0.9374999999999895
 40
1.0
 40
1.0
 40
1.0
 40
1.0
 10
3735.564342984259
 20
2791.760652971311
 30
0.0
 10
3735.564342974349
 20
2791.760994551972
 30
0.0
 10
3735.5643764692
 20
2791.761331154287
 30
0.0
 10
3735.564508535185
 20
2791.761994689039
 30
0.0
 10
3735.564608827932
 20
2791.762324813044
 30
0.0
 10
3735.564868780675
 20
2791.762950591908
 30
0.0
 10
3735.565027769926
 20
2791.763247394384
 30
0.0
 10
3735.56540326864
 20
2791.763809105456
 30
0.0
 10
3735.565621739354
 20
2791.764075012255
 30
0.0
 10
3735.566098879305
 20
2791.764551640759
 30
0.0
 10
3735.566359198458
 20
2791.764765533562
 30
0.0
 10
3735.566924389071
 20
2791.765143293054
 30
0.0
 10
3735.567225296108
 20
2791.765303820471
 30
0.0
 10
3735.5678473807
 20
2791.765561570298
 30
0.0
 10
3735.568172283113
 20
2791.765660627526
 30
0.0
 10
3735.568841700537
 20
2791.765793820145
 30
0.0
 10
3735.569182653473
 20
2791.765826887068
 30
0.0
 10
3735.56985683588
 20
2791.765826447508
 30
0.0
 10
3735.570192497616
 20
2791.765793594664
 30
0.0
 10
3735.57086086804
 20
2791.765660466812
 30
0.0
 10
3735.571185794255
 20
2791.765561401862
 30
0.0
 10
3735.571652539122
 20
2791.765367900896
 30
0.0
 10
3735.571805066151
 20
2791.765295781511
 30
0.0
 10
3735.572103900757
 20
2791.76513602955
 30
0.0
 10
3735.57225095775
 20
2791.76504784412
 30
0.0
 10
3735.572674439001
 20
2791.764764508013
 30
0.0
 10
3735.57293473961
 20
2791.764550465038
 30
0.0
 10
3735.573412111507
 20
2791.764073001115
 30
0.0
 10
3735.573630546601
 20
2791.76380666127
 30
0.0
 10
3735.574005480224
 20
2791.763244749877
 30
0.0
 10
3735.574164330889
 20
2791.762947632678
 30
0.0
 10
3735.57435908591
 20
2791.762477377478
 30
0.0
 10
3735.574416812442
 20
2791.762315855016
 30
0.0
 10
3735.574515031332
 20
2791.761991385369
 30
0.0
 10
3735.574555890766
 20
2791.761827713833
 30
0.0
 10
3735.574654243752
 20
2791.761332480404
 30
0.0
 10
3735.574687751156
 20
2791.760996741341
 30
0.0
 10
3735.574687760073
 20
2791.760655168353
 30
0.0
  0
SPLINE
  5
1415
330
1F
100
AcDbEntity
  8
SANINDUSA
100
AcDbSpline
210
0.0
220
0.0
230
1.0
 70
     8
 71
     3
 72
    42
 73
    38
 74
     0
 42
0.0000000001
 43
0.0000000001
 40
0.0
 40
0.0
 40
0.0
 40
0.0
 40
0.0624999999999897
 40
0.0624999999999897
 40
0.0937499999999896
 40
0.0937499999999896
 40
0.1249999999999894
 40
0.1249999999999894
 40
0.1874999999999912
 40
0.1874999999999912
 40
0.2499999999999929
 40
0.2499999999999929
 40
0.3124999999999947
 40
0.3124999999999947
 40
0.3749999999999964
 40
0.3749999999999964
 40
0.4374999999999983
 40
0.4374999999999983
 40
0.5
 40
0.5
 40
0.5625000000000018
 40
0.5625000000000018
 40
0.6250000000000036
 40
0.6250000000000036
 40
0.6875000000000054
 40
0.6875000000000054
 40
0.7500000000000071
 40
0.7500000000000071
 40
0.8125000000000087
 40
0.8125000000000087
 40
0.8750000000000104
 40
0.8750000000000104
 40
0.9062500000000078
 40
0.9062500000000078
 40
0.9375000000000047
 40
0.9375000000000047
 40
1.0
 40
1.0
 40
1.0
 40
1.0
 10
3735.924386032039
 20
2791.760655160367
 30
0.0
 10
3735.924386041005
 20
2791.760996811119
 30
0.0
 10
3735.924419564284
 20
2791.761332774714
 30
0.0
 10
3735.924518088205
 20
2791.761828534543
 30
0.0
 10
3735.924559029052
 20
2791.761992413427
 30
0.0
 10
3735.924657483348
 20
2791.762317359071
 30
0.0
 10
3735.924715274498
 20
2791.762478865529
 30
0.0
 10
3735.924909996805
 20
2791.762948667606
 30
0.0
 10
3735.925068882775
 20
2791.763245768434
 30
0.0
 10
3735.925444291496
 20
2791.76380804905
 30
0.0
 10
3735.925662828578
 20
2791.764074291586
 30
0.0
 10
3735.926140209807
 20
2791.764551464245
 30
0.0
 10
3735.926400685681
 20
2791.764765562273
 30
0.0
 10
3735.926966244365
 20
2791.765143616705
 30
0.0
 10
3735.927267420546
 20
2791.765304260783
 30
0.0
 10
3735.927889969064
 20
2791.765562070768
 30
0.0
 10
3735.928215170492
 20
2791.765661105635
 30
0.0
 10
3735.928884810181
 20
2791.76579409186
 30
0.0
 10
3735.929226464492
 20
2791.765827080221
 30
0.0
 10
3735.929901245851
 20
2791.765826241931
 30
0.0
 10
3735.930236694736
 20
2791.765793130546
 30
0.0
 10
3735.930903617484
 20
2791.765659977385
 30
0.0
 10
3735.931229917802
 20
2791.765560383608
 30
0.0
 10
3735.931851981993
 20
2791.765302111269
 30
0.0
 10
3735.932152390952
 20
2791.765141596825
 30
0.0
 10
3735.932717861888
 20
2791.764763058124
 30
0.0
 10
3735.93297811443
 20
2791.764548841175
 30
0.0
 10
3735.933454850502
 20
2791.764071839891
 30
0.0
 10
3735.933673099542
 20
2791.763805787395
 30
0.0
 10
3735.934048360336
 20
2791.76324340093
 30
0.0
 10
3735.934207086816
 20
2791.76294640519
 30
0.0
 10
3735.934401570395
 20
2791.762477071205
 30
0.0
 10
3735.934459314667
 20
2791.762315715522
 30
0.0
 10
3735.934557825775
 20
2791.761990578239
 30
0.0
 10
3735.934598782939
 20
2791.761826617944
 30
0.0
 10
3735.934697331783
 20
2791.761330658183
 30
0.0
 10
3735.934730839461
 20
2791.760994619858
 30
0.0
 10
3735.934730829492
 20
2791.760652960891
 30
0.0
  0
SPLINE
  5
1416
330
1F
100
AcDbEntity
  8
SANINDUSA
100
AcDbSpline
210
0.0
220
0.0
230
1.0
 70
     8
 71
     3
 72
    42
 73
    38
 74
     0
 42
0.0000000001
 43
0.0000000001
 40
0.0
 40
0.0
 40
0.0
 40
0.0
 40
0.0625000000000012
 40
0.0625000000000012
 40
0.1250000000000024
 40
0.1250000000000024
 40
0.1875000000000036
 40
0.1875000000000036
 40
0.2500000000000048
 40
0.2500000000000048
 40
0.312500000000006
 40
0.312500000000006
 40
0.3750000000000072
 40
0.3750000000000072
 40
0.4375000000000085
 40
0.4375000000000085
 40
0.5000000000000097
 40
0.5000000000000097
 40
0.5625000000000109
 40
0.5625000000000109
 40
0.6250000000000121
 40
0.6250000000000121
 40
0.6562500000000107
 40
0.6562500000000107
 40
0.6875000000000094
 40
0.6875000000000094
 40
0.7500000000000076
 40
0.7500000000000076
 40
0.8125000000000058
 40
0.8125000000000058
 40
0.8750000000000042
 40
0.8750000000000042
 40
0.9062500000000031
 40
0.9062500000000031
 40
0.9375000000000021
 40
0.9375000000000021
 40
1.0
 40
1.0
 40
1.0
 40
1.0
 10
3735.68435321352
 20
2791.760646019453
 30
0.0
 10
3735.684353204979
 20
2791.760987554473
 30
0.0
 10
3735.684386686009
 20
2791.761324124009
 30
0.0
 10
3735.684518709272
 20
2791.761987616132
 30
0.0
 10
3735.684618971852
 20
2791.762317729216
 30
0.0
 10
3735.684878867711
 20
2791.762943517936
 30
0.0
 10
3735.685037828988
 20
2791.763240336664
 30
0.0
 10
3735.68541328404
 20
2791.763802096969
 30
0.0
 10
3735.685631757356
 20
2791.764068060527
 30
0.0
 10
3735.686108933292
 20
2791.764544795171
 30
0.0
 10
3735.68636927792
 20
2791.764758733203
 30
0.0
 10
3735.686934536572
 20
2791.765136565884
 30
0.0
 10
3735.687235560626
 20
2791.765297159766
 30
0.0
 10
3735.68785781229
 20
2791.765554952009
 30
0.0
 10
3735.688182780562
 20
2791.765654005164
 30
0.0
 10
3735.688852396832
 20
2791.765787164485
 30
0.0
 10
3735.68919356639
 20
2791.765820201336
 30
0.0
 10
3735.68986799491
 20
2791.765819622958
 30
0.0
 10
3735.690203683015
 20
2791.765786674391
 30
0.0
 10
3735.690871911397
 20
2791.765653412229
 30
0.0
 10
3735.691197146691
 20
2791.76555416831
 30
0.0
 10
3735.691663892938
 20
2791.765360506202
 30
0.0
 10
3735.6918163964
 20
2791.765288341356
 30
0.0
 10
3735.692115140391
 20
2791.765128528752
 30
0.0
 10
3735.692262149608
 20
2791.765040321112
 30
0.0
 10
3735.692685704584
 20
2791.764756768524
 30
0.0
 10
3735.692945962607
 20
2791.764542621772
 30
0.0
 10
3735.693423138749
 20
2791.764065108449
 30
0.0
 10
3735.693641489117
 20
2791.763798759091
 30
0.0
 10
3735.694016334289
 20
2791.763236743322
 30
0.0
 10
3735.694175100676
 20
2791.762939642906
 30
0.0
 10
3735.694369727505
 20
2791.762469550597
 30
0.0
 10
3735.694427435236
 20
2791.762308047945
 30
0.0
 10
3735.69452564522
 20
2791.76198352439
 30
0.0
 10
3735.694566497647
 20
2791.761819833809
 30
0.0
 10
3735.694664828224
 20
2791.761324567457
 30
0.0
 10
3735.694698318508
 20
2791.760988838432
 30
0.0
 10
3735.694698325485
 20
2791.76064731185
 30
0.0
  0
SPLINE
  5
1417
330
1F
100
AcDbEntity
  8
SANINDUSA
100
AcDbSpline
210
0.0
220
0.0
230
1.0
 70
     8
 71
     3
 72
    44
 73
    40
 74
     0
 42
0.0000000001
 43
0.0000000001
 40
0.0
 40
0.0
 40
0.0
 40
0.0
 40
0.0624999999999941
 40
0.0624999999999941
 40
0.1249999999999882
 40
0.1249999999999882
 40
0.156249999999985
 40
0.156249999999985
 40
0.1874999999999818
 40
0.1874999999999818
 40
0.2499999999999754
 40
0.2499999999999754
 40
0.312499999999969
 40
0.312499999999969
 40
0.3437499999999687
 40
0.3437499999999687
 40
0.3749999999999683
 40
0.3749999999999683
 40
0.4374999999999715
 40
0.4374999999999715
 40
0.4999999999999748
 40
0.4999999999999748
 40
0.562499999999978
 40
0.562499999999978
 40
0.6249999999999813
 40
0.6249999999999813
 40
0.6874999999999845
 40
0.6874999999999845
 40
0.7499999999999876
 40
0.7499999999999876
 40
0.8124999999999907
 40
0.8124999999999907
 40
0.8749999999999939
 40
0.8749999999999939
 40
0.9062499999999957
 40
0.9062499999999957
 40
0.9374999999999971
 40
0.9374999999999971
 40
1.0
 40
1.0
 40
1.0
 40
1.0
 10
3735.804375243659
 20
2791.76064728008
 30
0.0
 10
3735.804375250499
 20
2791.760988899014
 30
0.0
 10
3735.804409489228
 20
2791.761330809583
 30
0.0
 10
3735.804542049879
 20
2791.761993423597
 30
0.0
 10
3735.804639968478
 20
2791.762315768528
 30
0.0
 10
3735.804834849615
 20
2791.762785688698
 30
0.0
 10
3735.804908297672
 20
2791.762940718272
 30
0.0
 10
3735.80506856786
 20
2791.763239873897
 30
0.0
 10
3735.805155566364
 20
2791.763384624827
 30
0.0
 10
3735.805436720311
 20
2791.763804700765
 30
0.0
 10
3735.805651161059
 20
2791.764066314195
 30
0.0
 10
3735.806134500688
 20
2791.764548989427
 30
0.0
 10
3735.806395915317
 20
2791.764762702967
 30
0.0
 10
3735.806816522171
 20
2791.765043421572
 30
0.0
 10
3735.806961507027
 20
2791.765130303403
 30
0.0
 10
3735.807261273852
 20
2791.765290360475
 30
0.0
 10
3735.807416394318
 20
2791.765363564215
 30
0.0
 10
3735.807886340984
 20
2791.765557658261
 30
0.0
 10
3735.808208907213
 20
2791.765655169851
 30
0.0
 10
3735.808872457919
 20
2791.765786832341
 30
0.0
 10
3735.809215216208
 20
2791.765820249855
 30
0.0
 10
3735.809890166498
 20
2791.765819537125
 30
0.0
 10
3735.810225890032
 20
2791.765786470327
 30
0.0
 10
3735.810893738927
 20
2791.76565313828
 30
0.0
 10
3735.811219432257
 20
2791.765553691131
 30
0.0
 10
3735.811841656622
 20
2791.765295351852
 30
0.0
 10
3735.812142701543
 20
2791.765134434379
 30
0.0
 10
3735.812707735425
 20
2791.764756075926
 30
0.0
 10
3735.812967963517
 20
2791.764541870032
 30
0.0
 10
3735.813444876576
 20
2791.764064565585
 30
0.0
 10
3735.813663176582
 20
2791.763798318158
 30
0.0
 10
3735.814038182923
 20
2791.763236101902
 30
0.0
 10
3735.814196911236
 20
2791.762939050428
 30
0.0
 10
3735.814391446094
 20
2791.762469338934
 30
0.0
 10
3735.814449179677
 20
2791.762307873748
 30
0.0
 10
3735.814547535563
 20
2791.761983023489
 30
0.0
 10
3735.814588438671
 20
2791.761819187069
 30
0.0
 10
3735.814686873567
 20
2791.761323537774
 30
0.0
 10
3735.814720369723
 20
2791.760987625584
 30
0.0
 10
3735.81472036145
 20
2791.760645999337
 30
0.0
  0
CIRCLE
  5
1418
330
1F
100
AcDbEntity
  8
SANINDUSA
100
AcDbCircle
 10
3735.749536878333
 20
2791.987680112858
 30
0.0
 40
0.0450000000000001
  0
LINE
  5
147B
330
1F
100
AcDbEntity
  8
SANINDUSA
100
AcDbLine
 10
3738.731799135653
 20
2791.759972124479
 30
0.0
 11
3738.759299135653
 21
2791.771472124479
 31
0.0
  0
ARC
  5
147C
330
1F
100
AcDbEntity
  8
SANINDUSA
100
AcDbCircle
 10
3738.757927937749
 20
2791.80645879633
 30
0.0
 40
0.0350107303762922
100
AcDbArc
 50
272.2464874686845
 51
353.3072822398314
  0
ARC
  5
147D
330
1F
100
AcDbEntity
  8
SANINDUSA
100
AcDbCircle
 10
3738.812564406243
 20
2791.800052805473
 30
0.0
 40
0.0200000000000001
100
AcDbArc
 50
92.16107949608646
 51
173.3223027142138
  0
LINE
  5
147E
330
1F
100
AcDbEntity
  8
SANINDUSA
100
AcDbLine
 10
3738.811810226045
 20
2791.82003858072
 30
0.0
 11
3738.844788625219
 21
2791.821283048613
 31
0.0
  0
ARC
  5
147F
330
1F
100
AcDbEntity
  8
SANINDUSA
100
AcDbCircle
 10
3738.844977170268
 20
2791.816286604801
 30
0.0
 40
0.0050000000000001
100
AcDbArc
 50
2.000000003753602
 51
92.16107949608646
  0
LINE
  5
1480
330
1F
100
AcDbEntity
  8
SANINDUSA
100
AcDbLine
 10
3738.849974124403
 20
2791.816461102285
 30
0.0
 11
3738.850497656716
 21
2791.801469098361
 31
0.0
  0
LINE
  5
1481
330
1F
100
AcDbEntity
  8
SANINDUSA
100
AcDbLine
 10
3738.850497656716
 20
2791.801469098361
 30
0.0
 11
3738.812418299039
 21
2791.801469098361
 31
0.0
  0
LINE
  5
1482
330
1F
100
AcDbEntity
  8
SANINDUSA
  6
Continuous
370
    15
100
AcDbLine
 10
3738.810497656717
 20
2791.746469098361
 30
0.0
 11
3738.812418299039
 21
2791.801469098361
 31
0.0
  0
LINE
  5
1483
330
1F
100
AcDbEntity
  8
SANINDUSA
100
AcDbLine
 10
3738.731799135653
 20
2791.746469098361
 30
0.0
 11
3738.810497656717
 21
2791.746469098361
 31
0.0
  0
LINE
  5
1484
330
1F
100
AcDbEntity
  8
SANINDUSA
100
AcDbLine
 10
3738.731799135653
 20
2791.746469098361
 30
0.0
 11
3738.731799135653
 21
2791.759972124479
 31
0.0
  0
LINE
  5
1485
330
1F
100
AcDbEntity
  8
SANINDUSA
100
AcDbLine
 10
3738.614299135652
 20
2791.771472124479
 30
0.0
 11
3738.641799135653
 21
2791.759972124479
 31
0.0
  0
LINE
  5
1486
330
1F
100
AcDbEntity
  8
SANINDUSA
  6
Continuous
370
    15
100
AcDbLine
 10
3738.758850373119
 20
2791.771472124479
 30
0.0
 11
3738.614299135652
 21
2791.771472124479
 31
0.0
  0
LINE
  5
148A
330
1F
100
AcDbEntity
  8
SANINDUSA
  6
Continuous
370
    15
100
AcDbLine
 10
3738.731799135653
 20
2791.759972124479
 30
0.0
 11
3738.641799135653
 21
2791.759972124479
 31
0.0
  0
LINE
  5
148D
330
1F
100
AcDbEntity
  8
SANINDUSA
100
AcDbLine
 10
3738.641799135653
 20
2791.759972124479
 30
0.0
 11
3738.641799135653
 21
2791.746469098361
 31
0.0
  0
LINE
  5
148E
330
1F
100
AcDbEntity
  8
SANINDUSA
100
AcDbLine
 10
3738.093751618242
 20
2791.746469098361
 30
0.0
 11
3738.641799135653
 21
2791.746469098361
 31
0.0
  0
LINE
  5
148F
330
1F
100
AcDbEntity
  8
SANINDUSA
100
AcDbLine
 10
3738.09183097592
 20
2791.801469098361
 30
0.0
 11
3738.093751618242
 21
2791.746469098361
 31
0.0
  0
LINE
  5
1490
330
1F
100
AcDbEntity
  8
SANINDUSA
100
AcDbLine
 10
3738.09183097592
 20
2791.801469098361
 30
0.0
 11
3738.053751618242
 21
2791.801469098361
 31
0.0
  0
LINE
  5
1491
330
1F
100
AcDbEntity
  8
SANINDUSA
100
AcDbLine
 10
3738.053751618242
 20
2791.801469098361
 30
0.0
 11
3738.054275150555
 21
2791.816461102285
 31
0.0
  0
ARC
  5
1492
330
1F
100
AcDbEntity
  8
SANINDUSA
100
AcDbCircle
 10
3738.059272104691
 20
2791.816286604801
 30
0.0
 40
0.005
100
AcDbArc
 50
87.83892050391353
 51
177.9999999962464
  0
LINE
  5
1493
330
1F
100
AcDbEntity
  8
SANINDUSA
100
AcDbLine
 10
3738.05946064974
 20
2791.821283048613
 30
0.0
 11
3738.092439048914
 21
2791.82003858072
 31
0.0
  0
ARC
  5
1494
330
1F
100
AcDbEntity
  8
SANINDUSA
100
AcDbCircle
 10
3738.091684868715
 20
2791.800052805473
 30
0.0
 40
0.0200000000000003
100
AcDbArc
 50
25.0627943238854
 51
87.83892050391353
  0
ARC
  5
1495
330
1F
100
AcDbEntity
  8
SANINDUSA
100
AcDbCircle
 10
3738.141506292396
 20
2791.823351426529
 30
0.0
 40
0.0350000000059853
100
AcDbArc
 50
205.0627943238854
 51
267.9580286623338
  0
LWPOLYLINE
  5
1496
330
1F
100
AcDbEntity
  8
SANINDUSA
100
AcDbPolyline
 90
        4
 70
   128
 43
0.0
 10
3738.614299136461
 20
2791.771472158231
 10
3738.587629515306
 20
2791.772423000442
 10
3738.412889069034
 20
2791.77865324373
 10
3738.140259187133
 20
2791.788373651745
  0
LINE
  5
149F
330
1F
100
AcDbEntity
  8
SANINDUSA
  6
Continuous
370
    15
100
AcDbLine
 10
3738.641799135653
 20
2791.746469098361
 30
0.0
 11
3738.731799135653
 21
2791.746469098361
 31
0.0
  0
LINE
  5
14CF
330
1F
100
AcDbEntity
  8
SANINDUSA
  6
Continuous
370
    15
100
AcDbLine
 10
3738.841112295616
 20
2791.821283048613
 30
0.0
 11
3738.063136979344
 21
2791.821283048613
 31
0.0
  0
ARC
  5
14D1
330
1F
100
AcDbEntity
  8
SANINDUSA
100
AcDbCircle
 10
3738.844976599897
 20
2791.816312911832
 30
0.0
 40
0.0049996519326622
100
AcDbArc
 50
2.003727064090449
 51
90.93991134944767
  0
SPLINE
  5
1516
330
1F
100
AcDbEntity
  8
SANINDUSA
100
AcDbSpline
210
0.0
220
0.0
230
1.0
 70
     8
 71
     3
 72
    70
 73
    66
 74
     0
 42
0.0000000001
 43
0.0000000001
 40
0.0
 40
0.0
 40
0.0
 40
0.0
 40
0.0312500000000001
 40
0.0312500000000001
 40
0.0625000000000002
 40
0.0625000000000002
 40
0.0937500000000003
 40
0.0937500000000003
 40
0.1250000000000004
 40
0.1250000000000004
 40
0.1562500000000005
 40
0.1562500000000005
 40
0.1875000000000005
 40
0.1875000000000005
 40
0.2187500000000005
 40
0.2187500000000005
 40
0.2500000000000005
 40
0.2500000000000005
 40
0.2812500000000005
 40
0.2812500000000005
 40
0.3125000000000005
 40
0.3125000000000005
 40
0.3437500000000004
 40
0.3437500000000004
 40
0.3750000000000003
 40
0.3750000000000003
 40
0.4062500000000003
 40
0.4062500000000003
 40
0.4375000000000002
 40
0.4375000000000002
 40
0.4687500000000002
 40
0.4687500000000002
 40
0.5000000000000001
 40
0.5000000000000001
 40
0.5312500000000001
 40
0.5312500000000001
 40
0.5625000000000001
 40
0.5625000000000001
 40
0.5937500000000001
 40
0.5937500000000001
 40
0.6250000000000001
 40
0.6250000000000001
 40
0.6562500000000001
 40
0.6562500000000001
 40
0.6875000000000001
 40
0.6875000000000001
 40
0.7187500000000001
 40
0.7187500000000001
 40
0.75
 40
0.75
 40
0.78125
 40
0.78125
 40
0.8125
 40
0.8125
 40
0.84375
 40
0.84375
 40
0.875
 40
0.875
 40
0.90625
 40
0.90625
 40
0.9375
 40
0.9375
 40
0.96875
 40
0.96875
 40
1.0
 40
1.0
 40
1.0
 40
1.0
 10
3735.741482737811
 20
2792.059731350324
 30
0.0
 10
3735.736934281914
 20
2792.059222907941
 30
0.0
 10
3735.732434212238
 20
2792.058282490843
 30
0.0
 10
3735.723691382894
 20
2792.055571256097
 30
0.0
 10
3735.719448810352
 20
2792.053800496477
 30
0.0
 10
3735.711372701023
 20
2792.049491863642
 30
0.0
 10
3735.707539337093
 20
2792.046954082646
 30
0.0
 10
3735.700418743897
 20
2792.041202125471
 30
0.0
 10
3735.697131667037
 20
2792.037988072403
 30
0.0
 10
3735.691221217492
 20
2792.030998476923
 30
0.0
 10
3735.688597971311
 20
2792.027223084112
 30
0.0
 10
3735.684109019029
 20
2792.019245793456
 30
0.0
 10
3735.682243409008
 20
2792.015044066352
 30
0.0
 10
3735.679336475838
 20
2792.006364342949
 30
0.0
 10
3735.678295214907
 20
2792.001886532427
 30
0.0
 10
3735.67707425078
 20
2791.99281475722
 30
0.0
 10
3735.676894573715
 20
2791.988220986703
 30
0.0
 10
3735.677403239469
 20
2791.979081560138
 30
0.0
 10
3735.6780915714
 20
2791.974536099703
 30
0.0
 10
3735.680311677497
 20
2791.96565584139
 30
0.0
 10
3735.681843404144
 20
2791.961321233578
 30
0.0
 10
3735.685695561116
 20
2791.953017695449
 30
0.0
 10
3735.688015908991
 20
2791.949048942856
 30
0.0
 10
3735.693362366352
 20
2791.941619053726
 30
0.0
 10
3735.696388361408
 20
2791.938158076215
 30
0.0
 10
3735.70303793352
 20
2791.931867523813
 30
0.0
 10
3735.706661368253
 20
2791.929038083561
 30
0.0
 10
3735.714376270988
 20
2791.924111813716
 30
0.0
 10
3735.718467573864
 20
2791.922015089561
 30
0.0
 10
3735.726971927604
 20
2791.918629262296
 30
0.0
 10
3735.731384796446
 20
2791.917340231654
 30
0.0
 10
3735.740374491346
 20
2791.915615921824
 30
0.0
 10
3735.744951124996
 20
2791.915180679543
 30
0.0
 10
3735.754104695748
 20
2791.915179547283
 30
0.0
 10
3735.758681436933
 20
2791.915613657327
 30
0.0
 10
3735.767671558139
 20
2791.917335743125
 30
0.0
 10
3735.772084745742
 20
2791.918623682021
 30
0.0
 10
3735.780589936847
 20
2791.922007405272
 30
0.0
 10
3735.784681758312
 20
2791.924103117207
 30
0.0
 10
3735.792397879531
 20
2791.929027478296
 30
0.0
 10
3735.796022014135
 20
2791.931856022052
 30
0.0
 10
3735.802673142276
 20
2791.93814492921
 30
0.0
 10
3735.805699993456
 20
2791.941605158009
 30
0.0
 10
3735.81104828875
 20
2791.94903372424
 30
0.0
 10
3735.813369618391
 20
2791.953001902676
 30
0.0
 10
3735.817223829474
 20
2791.961304487558
 30
0.0
 10
3735.818756628423
 20
2791.9656387163
 30
0.0
 10
3735.820978931357
 20
2791.974518425105
 30
0.0
 10
3735.821668387777
 20
2791.979063715113
 30
0.0
 10
3735.822179314536
 20
2791.988203015559
 30
0.0
 10
3735.82200077394
 20
2791.992796830386
 30
0.0
 10
3735.820782054135
 20
2792.001868907372
 30
0.0
 10
3735.819741901011
 20
2792.006346975357
 30
0.0
 10
3735.816837115224
 20
2792.015027417646
 30
0.0
 10
3735.814972544734
 20
2792.019229606158
 30
0.0
 10
3735.810485566108
 20
2792.027208007102
 30
0.0
 10
3735.807863254009
 20
2792.030984048768
 30
0.0
 10
3735.801954533815
 20
2792.037975106232
 30
0.0
 10
3735.798668252187
 20
2792.041189972398
 30
0.0
 10
3735.791549082197
 20
2792.046943690975
 30
0.0
 10
3735.787716346211
 20
2792.049482420236
 30
0.0
 10
3735.779641303051
 20
2792.053793050905
 30
0.0
 10
3735.77539916871
 20
2792.055564860049
 30
0.0
 10
3735.766657010372
 20
2792.058278257619
 30
0.0
 10
3735.762157173485
 20
2792.059219787969
 30
0.0
 10
3735.757608843512
 20
2792.059729355589
 30
0.0
  0
LINE
  5
1517
330
1F
100
AcDbEntity
  8
SANINDUSA
100
AcDbLine
 10
3735.757608843512
 20
2792.059729355589
 30
0.0
 11
3735.741482737811
 21
2792.059731350324
 31
0.0
  0
LINE
  5
15E7
330
1F
100
AcDbEntity
  8
SANINDUSA
100
AcDbLine
 10
3736.338977633643
 20
2791.821289665184
 30
0.0
 11
3736.335194964353
 21
2791.821318420373
 31
0.0
  0
LINE
  5
15E8
330
1F
100
AcDbEntity
  8
SANINDUSA
100
AcDbLine
 10
3737.120816997347
 20
2791.821312563765
 30
0.0
 11
3736.338977376794
 21
2791.821286604802
 31
0.0
  0
LINE
  5
15EB
330
1F
100
AcDbEntity
  8
SANINDUSA
100
AcDbLine
 10
3736.334588969827
 20
2791.801469098361
 30
0.0
 11
3736.329592015692
 21
2791.801469098361
 31
0.0
  0
LINE
  5
15F0
330
1F
100
AcDbEntity
  8
SANINDUSA
100
AcDbLine
 10
3736.334588969827
 20
2791.801469098361
 30
0.0
 11
3737.121341100031
 21
2791.801469098361
 31
0.0
  0
LINE
  5
15F2
330
1F
100
AcDbEntity
  8
SANINDUSA
100
AcDbLine
 10
3737.125813592265
 20
2791.816487722194
 30
0.0
 11
3737.126338054166
 21
2791.801469098361
 31
0.0
  0
LINE
  5
15F3
330
1F
100
AcDbEntity
  8
SANINDUSA
100
AcDbLine
 10
3737.126338054166
 20
2791.801469098361
 30
0.0
 11
3737.121341100031
 21
2791.801469098361
 31
0.0
  0
ARC
  5
15F6
330
1F
100
AcDbEntity
  8
SANINDUSA
100
AcDbCircle
 10
3737.120816997347
 20
2791.816312911832
 30
0.0
 40
0.0049996519326614
100
AcDbArc
 50
2.003727064090449
 51
90.93991134944767
  0
ARC
  5
15F7
330
1F
100
AcDbEntity
  8
SANINDUSA
100
AcDbCircle
 10
3736.335113072512
 20
2791.816312911832
 30
0.0
 40
0.0049996519326618
100
AcDbArc
 50
89.06008865055234
 51
177.9962729359095
  0
LINE
  5
15F8
330
1F
100
AcDbEntity
  8
SANINDUSA
100
AcDbLine
 10
3737.086338054167
 20
2791.746469098361
 30
0.0
 11
3736.369592015691
 21
2791.746469098361
 31
0.0
  0
LINE
  5
15F9
330
1F
100
AcDbEntity
  8
SANINDUSA
100
AcDbLine
 10
3737.086338054167
 20
2791.746469098361
 30
0.0
 11
3737.088258696489
 21
2791.801469098361
 31
0.0
  0
LINE
  5
15FA
330
1F
100
AcDbEntity
  8
SANINDUSA
100
AcDbLine
 10
3736.369592015691
 20
2791.746469098361
 30
0.0
 11
3736.36767137337
 21
2791.801469098361
 31
0.0
  0
LINE
  5
1604
330
1F
100
AcDbEntity
  8
SANINDUSA
100
AcDbLine
 10
3736.329592015692
 20
2791.801469098361
 30
0.0
 11
3736.330116477593
 21
2791.816487722194
 31
0.0
  0
LINE
  5
1605
330
1F
100
AcDbEntity
  8
SANINDUSA
100
AcDbLine
 10
3737.194389615894
 20
2791.801469098361
 30
0.0
 11
3737.194914077795
 21
2791.816487722194
 31
0.0
  0
ENDSEC
  0
SECTION
  2
OBJECTS
  0
DICTIONARY
  5
C
330
0
100
AcDbDictionary
281
     1
  3
ACAD_2007HEADERVARS_RT
350
16AB
  3
ACAD_COLOR
350
EE6
  3
ACAD_GROUP
350
D
  3
ACAD_LAYOUT
350
1A
  3
ACAD_MATERIAL
350
EE5
  3
ACAD_MLEADERSTYLE
350
10A8
  3
ACAD_MLINESTYLE
350
17
  3
ACAD_PLOTSETTINGS
350
19
  3
ACAD_PLOTSTYLENAME
350
E
  3
ACAD_SCALELIST
350
1096
  3
ACAD_TABLESTYLE
350
EE7
  3
ACAD_VISUALSTYLE
350
1082
  3
ACDB_RECOMPOSE_DATA
350
16A9
  3
AcDbVariableDictionary
350
3D
  3
AEC_PROPERTY_SET_DEFS
350
1345
  3
ASE_INDEX_DICTIONARY
350
1066
  3
Autodesk_PNP
350
10B2
  3
DWGPROPS
350
16AA
  0
DICTIONARY
  5
1051
330
2
100
AcDbDictionary
280
     1
281
     1
  3
ACAD_LAYERFILTERS
360
1065
  3
ACAD_LAYERSTATES
360
1155
  3
ACLYDICTIONARY
360
1064
  0
DICTIONARY
  5
1606
330
10
100
AcDbDictionary
280
     1
281
     1
  3
ADSK_XREC_LAYER_RECONCILED
360
1607
  0
DICTIONARY
  5
1608
330
2F
100
AcDbDictionary
280
     1
281
     1
  3
ADSK_XREC_LAYER_RECONCILED
360
1609
  0
DICTIONARY
  5
160A
330
30
100
AcDbDictionary
280
     1
281
     1
  3
ADSK_XREC_LAYER_RECONCILED
360
160B
  0
DICTIONARY
  5
160C
330
31
100
AcDbDictionary
280
     1
281
     1
  3
ADSK_XREC_LAYER_RECONCILED
360
160D
  0
DICTIONARY
  5
160E
330
32
100
AcDbDictionary
280
     1
281
     1
  3
ADSK_XREC_LAYER_RECONCILED
360
160F
  0
DICTIONARY
  5
1610
330
33
100
AcDbDictionary
280
     1
281
     1
  3
ADSK_XREC_LAYER_RECONCILED
360
1611
  0
DICTIONARY
  5
1612
330
34
100
AcDbDictionary
280
     1
281
     1
  3
ADSK_XREC_LAYER_RECONCILED
360
1613
  0
DICTIONARY
  5
1614
330
35
100
AcDbDictionary
280
     1
281
     1
  3
ADSK_XREC_LAYER_RECONCILED
360
1615
  0
DICTIONARY
  5
1616
330
36
100
AcDbDictionary
280
     1
281
     1
  3
ADSK_XREC_LAYER_RECONCILED
360
1617
  0
DICTIONARY
  5
1618
330
37
100
AcDbDictionary
280
     1
281
     1
  3
ADSK_XREC_LAYER_RECONCILED
360
1619
  0
DICTIONARY
  5
161A
330
5D6
100
AcDbDictionary
280
     1
281
     1
  3
ADSK_XREC_LAYER_RECONCILED
360
161B
  0
DICTIONARY
  5
161C
330
8AF
100
AcDbDictionary
280
     1
281
     1
  3
ADSK_XREC_LAYER_RECONCILED
360
161D
  0
DICTIONARY
  5
161E
330
8F8
100
AcDbDictionary
280
     1
281
     1
  3
ADSK_XREC_LAYER_RECONCILED
360
161F
  0
DICTIONARY
  5
1620
330
91D
100
AcDbDictionary
280
     1
281
     1
  3
ADSK_XREC_LAYER_RECONCILED
360
1621
  0
DICTIONARY
  5
1622
330
C7B
100
AcDbDictionary
280
     1
281
     1
  3
ADSK_XREC_LAYER_RECONCILED
360
1623
  0
DICTIONARY
  5
1624
330
1060
100
AcDbDictionary
280
     1
281
     1
  3
ADSK_XREC_LAYER_RECONCILED
360
1625
  0
DICTIONARY
  5
16AB
102
{ACAD_REACTORS
330
C
102
}
330
C
100
AcDbDictionary
281
     1
  3
DIMJOGANG
350
16AC
  0
DICTIONARY
  5
EE6
102
{ACAD_REACTORS
330
C
102
}
330
C
100
AcDbDictionary
281
     1
  0
DICTIONARY
  5
D
102
{ACAD_REACTORS
330
C
102
}
330
C
100
AcDbDictionary
281
     1
  0
DICTIONARY
  5
1A
102
{ACAD_REACTORS
330
C
102
}
330
C
100
AcDbDictionary
281
     1
  3
Layout1
350
1E
  3
Layout2
350
26
  3
Model
350
22
  0
DICTIONARY
  5
EE5
102
{ACAD_REACTORS
330
C
102
}
330
C
100
AcDbDictionary
281
     1
  3
ByBlock
350
1072
  3
ByLayer
350
106A
  3
Global
350
107A
  0
DICTIONARY
  5
10A8
102
{ACAD_REACTORS
330
C
102
}
330
C
100
AcDbDictionary
281
     1
  3
Standard
350
10A9
  0
DICTIONARY
  5
17
102
{ACAD_REACTORS
330
C
102
}
330
C
100
AcDbDictionary
281
     1
  3
Standard
350
18
  0
DICTIONARY
  5
19
102
{ACAD_REACTORS
330
C
102
}
330
C
100
AcDbDictionary
281
     1
  0
ACDBDICTIONARYWDFLT
  5
E
102
{ACAD_REACTORS
330
C
102
}
330
C
100
AcDbDictionary
281
     1
  3
Normal
350
F
100
AcDbDictionaryWithDefault
340
F
  0
DICTIONARY
  5
1096
102
{ACAD_REACTORS
330
C
102
}
330
C
100
AcDbDictionary
281
     1
  3
A0
350
1097
  3
A1
350
1098
  3
A2
350
1099
  3
A3
350
109A
  3
A4
350
109B
  3
A5
350
109C
  3
A6
350
109D
  3
A7
350
109E
  3
A8
350
109F
  3
A9
350
10A0
  3
B0
350
10A1
  3
B1
350
10A2
  3
B2
350
10A3
  3
B3
350
10A4
  3
B4
350
10A5
  3
B5
350
10A6
  3
B6
350
10A7
  0
DICTIONARY
  5
EE7
102
{ACAD_REACTORS
330
C
102
}
330
C
100
AcDbDictionary
281
     1
  3
Standard
350
EE8
  0
DICTIONARY
  5
1082
102
{ACAD_REACTORS
330
C
102
}
330
C
100
AcDbDictionary
281
     1
  3
2dWireframe
350
1088
  3
3D Hidden
350
108A
  3
3dWireframe
350
1089
  3
Basic
350
1087
  3
Brighten
350
108E
  3
ColorChange
350
1092
  3
Conceptual
350
108B
  3
Dim
350
108D
  3
EdgeColorOff
350
1095
  3
Facepattern
350
1091
  3
Flat
350
1083
  3
FlatWithEdges
350
1084
  3
Gouraud
350
1085
  3
GouraudWithEdges
350
1086
  3
JitterOff
350
1093
  3
Linepattern
350
1090
  3
OverhangOff
350
1094
  3
Realistic
350
108C
  3
Thicken
350
108F
  0
XRECORD
  5
16A9
102
{ACAD_REACTORS
330
C
102
}
330
C
100
AcDbXrecord
280
     1
 90
        1
330
EE8
  0
DICTIONARY
  5
3D
102
{ACAD_REACTORS
330
C
102
}
330
C
100
AcDbDictionary
281
     1
  3
CANNOSCALE
350
16A3
  3
CMLEADERSTYLE
350
16A2
  3
CTABLESTYLE
350
1049
  3
DIMASSOC
350
3F
  3
HIDETEXT
350
3E
  3
INDEXCTL
350
16A5
  3
SORTENTS
350
16A4
  3
XCLIPFRAME
350
16A6
  0
DICTIONARY
  5
1345
102
{ACAD_REACTORS
330
C
102
}
330
C
100
AcDbDictionary
281
     1
  0
DICTIONARY
  5
1066
102
{ACAD_REACTORS
330
C
102
}
330
C
100
AcDbDictionary
281
     1
  3
ASEBlockHierarchyIndexRecord
350
1067
1001
DCO15
1040
1602247867.484
  0
DICTIONARY
  5
10B2
102
{ACAD_REACTORS
330
C
102
}
330
C
100
AcDbDictionary
281
     1
  0
XRECORD
  5
16AA
102
{ACAD_REACTORS
330
C
102
}
330
C
100
AcDbXrecord
280
     1
  1
DWGPROPS COOKIE
  2

  3

  4

  6

  7

  8
Julio
  9

300
=
301
=
302
=
303
=
304
=
305
=
306
=
307
=
308
=
309
=
 40
0.0018581712962963
 41
2456149.618904803
 42
2456149.620762801
  1

 90
        0
  0
DICTIONARY
  5
1065
102
{ACAD_REACTORS
330
1051
102
}
330
1051
100
AcDbDictionary
281
     1
  0
DICTIONARY
  5
1155
102
{ACAD_REACTORS
330
1051
102
}
330
1051
100
AcDbDictionary
281
     1
  0
DICTIONARY
  5
1064
102
{ACAD_REACTORS
330
1051
102
}
330
1051
100
AcDbDictionary
281
     1
1001
ACAD
1000
<All
  0
XRECORD
  5
1607
102
{ACAD_REACTORS
330
1606
102
}
330
1606
100
AcDbXrecord
280
     1
290
     1
  0
XRECORD
  5
1609
102
{ACAD_REACTORS
330
1608
102
}
330
1608
100
AcDbXrecord
280
     1
290
     1
  0
XRECORD
  5
160B
102
{ACAD_REACTORS
330
160A
102
}
330
160A
100
AcDbXrecord
280
     1
290
     1
  0
XRECORD
  5
160D
102
{ACAD_REACTORS
330
160C
102
}
330
160C
100
AcDbXrecord
280
     1
290
     1
  0
XRECORD
  5
160F
102
{ACAD_REACTORS
330
160E
102
}
330
160E
100
AcDbXrecord
280
     1
290
     1
  0
XRECORD
  5
1611
102
{ACAD_REACTORS
330
1610
102
}
330
1610
100
AcDbXrecord
280
     1
290
     1
  0
XRECORD
  5
1613
102
{ACAD_REACTORS
330
1612
102
}
330
1612
100
AcDbXrecord
280
     1
290
     1
  0
XRECORD
  5
1615
102
{ACAD_REACTORS
330
1614
102
}
330
1614
100
AcDbXrecord
280
     1
290
     1
  0
XRECORD
  5
1617
102
{ACAD_REACTORS
330
1616
102
}
330
1616
100
AcDbXrecord
280
     1
290
     1
  0
XRECORD
  5
1619
102
{ACAD_REACTORS
330
1618
102
}
330
1618
100
AcDbXrecord
280
     1
290
     1
  0
XRECORD
  5
161B
102
{ACAD_REACTORS
330
161A
102
}
330
161A
100
AcDbXrecord
280
     1
290
     1
  0
XRECORD
  5
161D
102
{ACAD_REACTORS
330
161C
102
}
330
161C
100
AcDbXrecord
280
     1
290
     1
  0
XRECORD
  5
161F
102
{ACAD_REACTORS
330
161E
102
}
330
161E
100
AcDbXrecord
280
     1
290
     1
  0
XRECORD
  5
1621
102
{ACAD_REACTORS
330
1620
102
}
330
1620
100
AcDbXrecord
280
     1
290
     1
  0
XRECORD
  5
1623
102
{ACAD_REACTORS
330
1622
102
}
330
1622
100
AcDbXrecord
280
     1
290
     1
  0
XRECORD
  5
1625
102
{ACAD_REACTORS
330
1624
102
}
330
1624
100
AcDbXrecord
280
     1
290
     1
  0
XRECORD
  5
16AC
102
{ACAD_REACTORS
330
16AB
102
}
330
16AB
100
AcDbXrecord
280
     1
 40
1.570796326794896
  0
LAYOUT
  5
1E
102
{ACAD_XDICTIONARY
360
16AD
102
}
102
{ACAD_REACTORS
330
1A
102
}
330
1A
100
AcDbPlotSettings
  1

  2
Ploter HP500
  4

  6

 40
0.0
 41
0.0
 42
0.0
 43
0.0
 44
0.0
 45
0.0
 46
0.0
 47
0.0
 48
0.0
 49
0.0
140
0.0
141
0.0
142
1.0
143
1.0
 70
   688
 72
     0
 73
     0
 74
     5
  7
sanindusa.ctb
 75
    16
147
1.0
148
0.0
149
0.0
100
AcDbLayout
  1
Layout1
 70
     1
 71
     1
 10
0.0
 20
0.0
 11
420.0
 21
297.0
 12
0.0
 22
0.0
 32
0.0
 14
1.000000000000000E+20
 24
1.000000000000000E+20
 34
1.000000000000000E+20
 15
-1.000000000000000E+20
 25
-1.000000000000000E+20
 35
-1.000000000000000E+20
146
0.0
 13
0.0
 23
0.0
 33
0.0
 16
1.0
 26
0.0
 36
0.0
 17
0.0
 27
1.0
 37
0.0
 76
     0
330
1B
  0
LAYOUT
  5
26
102
{ACAD_XDICTIONARY
360
16B1
102
}
102
{ACAD_REACTORS
330
1A
102
}
330
1A
100
AcDbPlotSettings
  1

  2
Ploter HP500
  4

  6

 40
0.0
 41
0.0
 42
0.0
 43
0.0
 44
0.0
 45
0.0
 46
0.0
 47
0.0
 48
0.0
 49
0.0
140
0.0
141
0.0
142
1.0
143
1.0
 70
   688
 72
     0
 73
     0
 74
     5
  7
sanindusa.ctb
 75
    16
147
1.0
148
0.0
149
0.0
100
AcDbLayout
  1
Layout2
 70
     1
 71
     2
 10
0.0
 20
0.0
 11
12.0
 21
9.0
 12
0.0
 22
0.0
 32
0.0
 14
0.0
 24
0.0
 34
0.0
 15
0.0
 25
0.0
 35
0.0
146
0.0
 13
0.0
 23
0.0
 33
0.0
 16
1.0
 26
0.0
 36
0.0
 17
0.0
 27
1.0
 37
0.0
 76
     0
330
23
  0
LAYOUT
  5
22
102
{ACAD_XDICTIONARY
360
16AF
102
}
102
{ACAD_REACTORS
330
1A
102
}
330
1A
100
AcDbPlotSettings
  1

  2
Ploter HP500
  4
User268
  6

 40
4.995333194732666
 41
16.97565841674804
 42
4.995330810546875
 43
16.97567749023437
 44
209.9733276367187
 45
296.9259948730469
 46
0.0
 47
0.0
 48
0.0
 49
0.0
140
0.0
141
0.0
142
1.0
143
1.0
 70
 11952
 72
     1
 73
     1
 74
     0
  7
sanindusa.ctb
 75
     0
147
1.0
148
-427.5957866592534
149
7.362384574453926
100
AcDbLayout
  1
Model
 70
     1
 71
     0
 10
0.0
 20
0.0
 11
12.0
 21
9.0
 12
0.0
 22
0.0
 32
0.0
 14
0.0
 24
0.0
 34
0.0
 15
0.0
 25
0.0
 35
0.0
146
0.0
 13
0.0
 23
0.0
 33
0.0
 16
1.0
 26
0.0
 36
0.0
 17
0.0
 27
1.0
 37
0.0
 76
     0
330
1F
331
1068
  0
MATERIAL
  5
1072
102
{ACAD_XDICTIONARY
360
1073
102
}
102
{ACAD_REACTORS
330
EE5
102
}
330
EE5
100
AcDbMaterial
  1
ByBlock
 72
     0
 43
0.0008202099737533
 43
0.0
 43
0.0
 43
0.0
 43
0.0
 43
0.0008202099737533
 43
0.0
 43
0.0
 43
0.0
 43
0.0
 43
1.0
 43
0.0
 43
0.0
 43
0.0
 43
0.0
 43
1.0
 77
     0
 47
0.0008202099737533
 47
0.0
 47
0.0
 47
0.0
 47
0.0
 47
0.0008202099737533
 47
0.0
 47
0.0
 47
0.0
 47
0.0
 47
1.0
 47
0.0
 47
0.0
 47
0.0
 47
0.0
 47
1.0
171
     0
 49
0.0008202099737533
 49
0.0
 49
0.0
 49
0.0
 49
0.0
 49
0.0008202099737533
 49
0.0
 49
0.0
 49
0.0
 49
0.0
 49
1.0
 49
0.0
 49
0.0
 49
0.0
 49
0.0
 49
1.0
175
     0
142
0.0008202099737533
142
0.0
142
0.0
142
0.0
142
0.0
142
0.0008202099737533
142
0.0
142
0.0
142
0.0
142
0.0
142
1.0
142
0.0
142
0.0
142
0.0
142
0.0
142
1.0
179
     0
144
0.0008202099737533
144
0.0
144
0.0
144
0.0
144
0.0
144
0.0008202099737533
144
0.0
144
0.0
144
0.0
144
0.0
144
1.0
144
0.0
144
0.0
144
0.0
144
0.0
144
1.0
147
0.0008202099737533
147
0.0
147
0.0
147
0.0
147
0.0
147
0.0008202099737533
147
0.0
147
0.0
147
0.0
147
0.0
147
1.0
147
0.0
147
0.0
147
0.0
147
0.0
147
1.0
  0
MATERIAL
  5
106A
102
{ACAD_XDICTIONARY
360
106B
102
}
102
{ACAD_REACTORS
330
EE5
102
}
330
EE5
100
AcDbMaterial
  1
ByLayer
 72
     0
 43
0.0008202099737533
 43
0.0
 43
0.0
 43
0.0
 43
0.0
 43
0.0008202099737533
 43
0.0
 43
0.0
 43
0.0
 43
0.0
 43
1.0
 43
0.0
 43
0.0
 43
0.0
 43
0.0
 43
1.0
 77
     0
 47
0.0008202099737533
 47
0.0
 47
0.0
 47
0.0
 47
0.0
 47
0.0008202099737533
 47
0.0
 47
0.0
 47
0.0
 47
0.0
 47
1.0
 47
0.0
 47
0.0
 47
0.0
 47
0.0
 47
1.0
171
     0
 49
0.0008202099737533
 49
0.0
 49
0.0
 49
0.0
 49
0.0
 49
0.0008202099737533
 49
0.0
 49
0.0
 49
0.0
 49
0.0
 49
1.0
 49
0.0
 49
0.0
 49
0.0
 49
0.0
 49
1.0
175
     0
142
0.0008202099737533
142
0.0
142
0.0
142
0.0
142
0.0
142
0.0008202099737533
142
0.0
142
0.0
142
0.0
142
0.0
142
1.0
142
0.0
142
0.0
142
0.0
142
0.0
142
1.0
179
     0
144
0.0008202099737533
144
0.0
144
0.0
144
0.0
144
0.0
144
0.0008202099737533
144
0.0
144
0.0
144
0.0
144
0.0
144
1.0
144
0.0
144
0.0
144
0.0
144
0.0
144
1.0
147
0.0008202099737533
147
0.0
147
0.0
147
0.0
147
0.0
147
0.0008202099737533
147
0.0
147
0.0
147
0.0
147
0.0
147
1.0
147
0.0
147
0.0
147
0.0
147
0.0
147
1.0
  0
MATERIAL
  5
107A
102
{ACAD_XDICTIONARY
360
107B
102
}
102
{ACAD_REACTORS
330
EE5
102
}
330
EE5
100
AcDbMaterial
  1
Global
 72
     0
 43
0.0008202099737533
 43
0.0
 43
0.0
 43
0.0
 43
0.0
 43
0.0008202099737533
 43
0.0
 43
0.0
 43
0.0
 43
0.0
 43
1.0
 43
0.0
 43
0.0
 43
0.0
 43
0.0
 43
1.0
 77
     0
 47
0.0008202099737533
 47
0.0
 47
0.0
 47
0.0
 47
0.0
 47
0.0008202099737533
 47
0.0
 47
0.0
 47
0.0
 47
0.0
 47
1.0
 47
0.0
 47
0.0
 47
0.0
 47
0.0
 47
1.0
171
     0
 49
0.0008202099737533
 49
0.0
 49
0.0
 49
0.0
 49
0.0
 49
0.0008202099737533
 49
0.0
 49
0.0
 49
0.0
 49
0.0
 49
1.0
 49
0.0
 49
0.0
 49
0.0
 49
0.0
 49
1.0
175
     0
142
0.0008202099737533
142
0.0
142
0.0
142
0.0
142
0.0
142
0.0008202099737533
142
0.0
142
0.0
142
0.0
142
0.0
142
1.0
142
0.0
142
0.0
142
0.0
142
0.0
142
1.0
179
     0
144
0.0008202099737533
144
0.0
144
0.0
144
0.0
144
0.0
144
0.0008202099737533
144
0.0
144
0.0
144
0.0
144
0.0
144
1.0
144
0.0
144
0.0
144
0.0
144
0.0
144
1.0
147
0.0008202099737533
147
0.0
147
0.0
147
0.0
147
0.0
147
0.0008202099737533
147
0.0
147
0.0
147
0.0
147
0.0
147
1.0
147
0.0
147
0.0
147
0.0
147
0.0
147
1.0
  0
MLEADERSTYLE
  5
10A9
102
{ACAD_REACTORS
330
10A8
102
}
330
10A8
100
AcDbMLeaderStyle
170
     2
171
     1
172
     0
 90
        2
 40
0.0
 41
0.0
173
     1
 91
-1056964608
340
14
 92
       -2
290
     1
 42
2.0
291
     1
 43
0.36
  3
Standard
 44
4.0
300

342
11
174
     1
178
     6
175
     1
176
     0
 93
-1056964608
 45
4.0
292
     0
297
     0
 46
4.0
 94
-1056964608
 47
1.0
 49
1.0
140
1.0
293
     1
141
0.0
294
     1
177
     0
142
1.0
295
     0
296
     0
143
0.125
1001
ACAD_MLEADERVER
1070
     2
  0
MLINESTYLE
  5
18
102
{ACAD_REACTORS
330
17
102
}
330
17
100
AcDbMlineStyle
  2
STANDARD
 70
     0
  3

 62
   256
 51
90.0
 52
90.0
 71
     2
 49
0.5
 62
   256
  6
BYLAYER
 49
-0.5
 62
   256
  6
BYLAYER
  0
ACDBPLACEHOLDER
  5
F
102
{ACAD_REACTORS
330
E
102
}
330
E
  0
SCALE
  5
1097
102
{ACAD_REACTORS
330
1096
102
}
330
1096
100
AcDbScale
 70
     0
300
1:1
140
1.0
141
1.0
290
     1
  0
SCALE
  5
1098
102
{ACAD_REACTORS
330
1096
102
}
330
1096
100
AcDbScale
 70
     0
300
1:2
140
1.0
141
2.0
290
     0
  0
SCALE
  5
1099
102
{ACAD_REACTORS
330
1096
102
}
330
1096
100
AcDbScale
 70
     0
300
1:4
140
1.0
141
4.0
290
     0
  0
SCALE
  5
109A
102
{ACAD_REACTORS
330
1096
102
}
330
1096
100
AcDbScale
 70
     0
300
1:5
140
1.0
141
5.0
290
     0
  0
SCALE
  5
109B
102
{ACAD_REACTORS
330
1096
102
}
330
1096
100
AcDbScale
 70
     0
300
1:8
140
1.0
141
8.0
290
     0
  0
SCALE
  5
109C
102
{ACAD_REACTORS
330
1096
102
}
330
1096
100
AcDbScale
 70
     0
300
1:10
140
1.0
141
10.0
290
     0
  0
SCALE
  5
109D
102
{ACAD_REACTORS
330
1096
102
}
330
1096
100
AcDbScale
 70
     0
300
1:16
140
1.0
141
16.0
290
     0
  0
SCALE
  5
109E
102
{ACAD_REACTORS
330
1096
102
}
330
1096
100
AcDbScale
 70
     0
300
1:20
140
1.0
141
20.0
290
     0
  0
SCALE
  5
109F
102
{ACAD_REACTORS
330
1096
102
}
330
1096
100
AcDbScale
 70
     0
300
1:30
140
1.0
141
30.0
290
     0
  0
SCALE
  5
10A0
102
{ACAD_REACTORS
330
1096
102
}
330
1096
100
AcDbScale
 70
     0
300
1:40
140
1.0
141
40.0
290
     0
  0
SCALE
  5
10A1
102
{ACAD_REACTORS
330
1096
102
}
330
1096
100
AcDbScale
 70
     0
300
1:50
140
1.0
141
50.0
290
     0
  0
SCALE
  5
10A2
102
{ACAD_REACTORS
330
1096
102
}
330
1096
100
AcDbScale
 70
     0
300
1:100
140
1.0
141
100.0
290
     0
  0
SCALE
  5
10A3
102
{ACAD_REACTORS
330
1096
102
}
330
1096
100
AcDbScale
 70
     0
300
2:1
140
2.0
141
1.0
290
     0
  0
SCALE
  5
10A4
102
{ACAD_REACTORS
330
1096
102
}
330
1096
100
AcDbScale
 70
     0
300
4:1
140
4.0
141
1.0
290
     0
  0
SCALE
  5
10A5
102
{ACAD_REACTORS
330
1096
102
}
330
1096
100
AcDbScale
 70
     0
300
8:1
140
8.0
141
1.0
290
     0
  0
SCALE
  5
10A6
102
{ACAD_REACTORS
330
1096
102
}
330
1096
100
AcDbScale
 70
     0
300
10:1
140
10.0
141
1.0
290
     0
  0
SCALE
  5
10A7
102
{ACAD_REACTORS
330
1096
102
}
330
1096
100
AcDbScale
 70
     0
300
100:1
140
100.0
141
1.0
290
     0
  0
TABLESTYLE
  5
EE8
102
{ACAD_XDICTIONARY
360
16A7
102
}
102
{ACAD_REACTORS
330
EE7
102
}
330
EE7
100
AcDbTableStyle
  3
Standard
 70
     0
 71
     0
 40
1.5
 41
1.5
280
     0
281
     0
  7
Standard
140
4.5
170
     2
 62
     0
 63
     7
283
     0
274
    -2
284
     1
 64
     0
275
    -2
285
     1
 65
     0
276
    -2
286
     1
 66
     0
277
    -2
287
     1
 67
     0
278
    -2
288
     1
 68
     0
279
    -2
289
     1
 69
     0
  7
Standard
140
6.0
170
     5
 62
     0
 63
     7
283
     0
274
    -2
284
     1
 64
     0
275
    -2
285
     1
 65
     0
276
    -2
286
     1
 66
     0
277
    -2
287
     1
 67
     0
278
    -2
288
     1
 68
     0
279
    -2
289
     1
 69
     0
  7
Standard
140
4.5
170
     5
 62
     0
 63
     7
283
     0
274
    -2
284
     1
 64
     0
275
    -2
285
     1
 65
     0
276
    -2
286
     1
 66
     0
277
    -2
287
     1
 67
     0
278
    -2
288
     1
 68
     0
279
    -2
289
     1
 69
     0
  0
VISUALSTYLE
  5
1088
102
{ACAD_XDICTIONARY
360
16C1
102
}
102
{ACAD_REACTORS
330
1082
102
}
330
1082
100
AcDbVisualStyle
  2
2dWireframe
 70
     4
 71
     0
 72
     2
 73
     0
 90
        0
 40
-0.6
 41
-30.0
 62
     5
 63
     7
 74
     1
 91
        4
 64
     7
 65
   257
 75
     1
175
     1
 42
1.0
 92
        0
 66
   257
 43
1.0
 76
     1
 77
     6
 78
     2
 67
     7
 79
     5
170
     0
171
     0
290
     0
174
     0
 93
        1
 44
0.0
173
     0
291
     0
 45
0.0
1001
ACAD
1000
AcDbSavedByObjectVersion
1070
     0
  0
VISUALSTYLE
  5
108A
102
{ACAD_XDICTIONARY
360
16C5
102
}
102
{ACAD_REACTORS
330
1082
102
}
330
1082
100
AcDbVisualStyle
  2
3D Hidden
 70
     6
 71
     1
 72
     2
 73
     2
 90
        0
 40
-0.6
 41
-30.0
 62
     5
 63
     7
 74
     2
 91
        2
 64
     7
 65
   257
 75
     2
175
     1
 42
179.0
 92
        0
 66
   257
 43
1.0
 76
     1
 77
     6
 78
     2
 67
     7
 79
     3
170
     0
171
     0
290
     0
174
     0
 93
        1
 44
0.0
173
     0
291
     0
 45
0.0
1001
ACAD
1000
AcDbSavedByObjectVersion
1070
     0
  0
VISUALSTYLE
  5
1089
102
{ACAD_XDICTIONARY
360
16C3
102
}
102
{ACAD_REACTORS
330
1082
102
}
330
1082
100
AcDbVisualStyle
  2
3dWireframe
 70
     5
 71
     0
 72
     2
 73
     0
 90
        0
 40
-0.6
 41
-30.0
 62
     5
 63
     7
 74
     1
 91
        4
 64
     7
 65
   257
 75
     1
175
     1
 42
1.0
 92
        0
 66
   257
 43
1.0
 76
     1
 77
     6
 78
     2
 67
     7
 79
     5
170
     0
171
     0
290
     0
174
     0
 93
        1
 44
0.0
173
     0
291
     0
 45
0.0
1001
ACAD
1000
AcDbSavedByObjectVersion
1070
     0
  0
VISUALSTYLE
  5
1087
102
{ACAD_XDICTIONARY
360
16BF
102
}
102
{ACAD_REACTORS
330
1082
102
}
330
1082
100
AcDbVisualStyle
  2
Basic
 70
     7
 71
     1
 72
     0
 73
     1
 90
        0
 40
-0.6
 41
-30.0
 62
     5
 63
     7
 74
     0
 91
        4
 64
     7
 65
   257
 75
     1
175
     1
 42
1.0
 92
        8
 66
     7
 43
1.0
 76
     1
 77
     6
 78
     2
 67
     7
 79
     5
170
     0
171
     0
290
     0
174
     0
 93
        1
 44
0.0
173
     0
291
     1
 45
0.0
1001
ACAD
1000
AcDbSavedByObjectVersion
1070
     0
  0
VISUALSTYLE
  5
108E
102
{ACAD_XDICTIONARY
360
16CD
102
}
102
{ACAD_REACTORS
330
1082
102
}
330
1082
100
AcDbVisualStyle
  2
Brighten
 70
    12
 71
     2
 72
     2
 73
     0
 90
        0
 40
-0.6
 41
-30.0
 62
     5
 63
     7
 74
     1
 91
        4
 64
     7
 65
   257
 75
     1
175
     1
 42
1.0
 92
        8
 66
     7
 43
1.0
 76
     1
 77
     6
 78
     2
 67
     7
 79
     5
170
     0
171
     0
290
     0
174
     0
 93
        1
 44
50.0
173
     0
291
     1
 45
0.0
1001
ACAD
1000
AcDbSavedByObjectVersion
1070
     0
  0
VISUALSTYLE
  5
1092
102
{ACAD_XDICTIONARY
360
16D5
102
}
102
{ACAD_REACTORS
330
1082
102
}
330
1082
100
AcDbVisualStyle
  2
ColorChange
 70
    16
 71
     2
 72
     2
 73
     3
 90
        0
 40
-0.6
 41
-30.0
 62
     5
 63
     8
 74
     1
 91
        4
 64
     7
 65
   257
 75
     1
175
     1
 42
1.0
 92
        8
 66
     8
 43
1.0
 76
     1
 77
     6
 78
     2
 67
     7
 79
     5
170
     0
171
     0
290
     0
174
     0
 93
        1
 44
0.0
173
     0
291
     1
 45
0.0
1001
ACAD
1000
AcDbSavedByObjectVersion
1070
     0
  0
VISUALSTYLE
  5
108B
102
{ACAD_XDICTIONARY
360
16C7
102
}
102
{ACAD_REACTORS
330
1082
102
}
330
1082
100
AcDbVisualStyle
  2
Conceptual
 70
     9
 71
     3
 72
     2
 73
     0
 90
        0
 40
-0.6
 41
-30.0
 62
     5
 63
     7
 74
     2
 91
        2
 64
     7
 65
   257
 75
     1
175
     1
 42
179.0
 92
        8
 66
     7
 43
1.0
 76
     1
 77
     6
 78
     2
 67
     7
 79
     3
170
     0
171
     0
290
     0
174
     0
 93
        1
 44
0.0
173
     0
291
     0
 45
0.0
1001
ACAD
1000
AcDbSavedByObjectVersion
1070
     0
  0
VISUALSTYLE
  5
108D
102
{ACAD_XDICTIONARY
360
16CB
102
}
102
{ACAD_REACTORS
330
1082
102
}
330
1082
100
AcDbVisualStyle
  2
Dim
 70
    11
 71
     2
 72
     2
 73
     0
 90
        0
 40
-0.6
 41
-30.0
 62
     5
 63
     7
 74
     1
 91
        4
 64
     7
 65
   257
 75
     1
175
     1
 42
1.0
 92
        8
 66
     7
 43
1.0
 76
     1
 77
     6
 78
     2
 67
     7
 79
     5
170
     0
171
     0
290
     0
174
     0
 93
        1
 44
-50.0
173
     0
291
     1
 45
0.0
1001
ACAD
1000
AcDbSavedByObjectVersion
1070
     0
  0
VISUALSTYLE
  5
1095
102
{ACAD_XDICTIONARY
360
16DB
102
}
102
{ACAD_REACTORS
330
1082
102
}
330
1082
100
AcDbVisualStyle
  2
EdgeColorOff
 70
    22
 71
     2
 72
     2
 73
     0
 90
        0
 40
-0.6
 41
-30.0
 62
     5
 63
     7
 74
     1
 91
        4
 64
     7
 65
   257
 75
     1
175
     1
 42
1.0
 92
        8
 66
     7
 43
1.0
 76
     1
 77
     6
 78
     2
 67
     7
 79
     5
170
     0
171
     0
290
     0
174
     0
 93
        1
 44
0.0
173
     0
291
     1
 45
0.0
1001
ACAD
1000
AcDbSavedByObjectVersion
1070
     0
  0
VISUALSTYLE
  5
1091
102
{ACAD_XDICTIONARY
360
16D3
102
}
102
{ACAD_REACTORS
330
1082
102
}
330
1082
100
AcDbVisualStyle
  2
Facepattern
 70
    15
 71
     2
 72
     2
 73
     0
 90
        0
 40
-0.6
 41
-30.0
 62
     5
 63
     7
 74
     1
 91
        4
 64
     7
 65
   257
 75
     1
175
     1
 42
1.0
 92
        8
 66
     7
 43
1.0
 76
     1
 77
     6
 78
     2
 67
     7
 79
     5
170
     0
171
     0
290
     0
174
     0
 93
        1
 44
0.0
173
     0
291
     1
 45
0.0
1001
ACAD
1000
AcDbSavedByObjectVersion
1070
     0
  0
VISUALSTYLE
  5
1083
102
{ACAD_XDICTIONARY
360
16B7
102
}
102
{ACAD_REACTORS
330
1082
102
}
330
1082
100
AcDbVisualStyle
  2
Flat
 70
     0
 71
     2
 72
     1
 73
     1
 90
        2
 40
-0.6
 41
30.0
 62
     5
 63
     7
 74
     0
 91
        4
 64
     7
 65
   257
 75
     1
175
     1
 42
1.0
 92
        8
 66
     7
 43
1.0
 76
     1
 77
     6
 78
     2
 67
     7
 79
     5
170
     0
171
     0
290
     0
174
     0
 93
       13
 44
0.0
173
     0
291
     1
 45
0.0
1001
ACAD
1000
AcDbSavedByObjectVersion
1070
     0
  0
VISUALSTYLE
  5
1084
102
{ACAD_XDICTIONARY
360
16B9
102
}
102
{ACAD_REACTORS
330
1082
102
}
330
1082
100
AcDbVisualStyle
  2
FlatWithEdges
 70
     1
 71
     2
 72
     1
 73
     1
 90
        2
 40
-0.6
 41
30.0
 62
     5
 63
     7
 74
     1
 91
        4
 64
     7
 65
   257
 75
     1
175
     1
 42
1.0
 92
        0
 66
   257
 43
1.0
 76
     1
 77
     6
 78
     2
 67
     7
 79
     5
170
     0
171
     0
290
     0
174
     0
 93
       13
 44
0.0
173
     0
291
     1
 45
0.0
1001
ACAD
1000
AcDbSavedByObjectVersion
1070
     0
  0
VISUALSTYLE
  5
1085
102
{ACAD_XDICTIONARY
360
16BB
102
}
102
{ACAD_REACTORS
330
1082
102
}
330
1082
100
AcDbVisualStyle
  2
Gouraud
 70
     2
 71
     2
 72
     2
 73
     1
 90
        2
 40
-0.6
 41
30.0
 62
     5
 63
     7
 74
     0
 91
        4
 64
     7
 65
   257
 75
     1
175
     1
 42
1.0
 92
        0
 66
     7
 43
1.0
 76
     1
 77
     6
 78
     2
 67
     7
 79
     5
170
     0
171
     0
290
     0
174
     0
 93
       13
 44
0.0
173
     0
291
     1
 45
0.0
1001
ACAD
1000
AcDbSavedByObjectVersion
1070
     0
  0
VISUALSTYLE
  5
1086
102
{ACAD_XDICTIONARY
360
16BD
102
}
102
{ACAD_REACTORS
330
1082
102
}
330
1082
100
AcDbVisualStyle
  2
GouraudWithEdges
 70
     3
 71
     2
 72
     2
 73
     1
 90
        2
 40
-0.6
 41
30.0
 62
     5
 63
     7
 74
     1
 91
        4
 64
     7
 65
   257
 75
     1
175
     1
 42
1.0
 92
        0
 66
   257
 43
1.0
 76
     1
 77
     6
 78
     2
 67
     7
 79
     5
170
     0
171
     0
290
     0
174
     0
 93
       13
 44
0.0
173
     0
291
     1
 45
0.0
1001
ACAD
1000
AcDbSavedByObjectVersion
1070
     0
  0
VISUALSTYLE
  5
1093
102
{ACAD_XDICTIONARY
360
16D7
102
}
102
{ACAD_REACTORS
330
1082
102
}
330
1082
100
AcDbVisualStyle
  2
JitterOff
 70
    20
 71
     2
 72
     2
 73
     0
 90
        0
 40
-0.6
 41
-30.0
 62
     5
 63
     7
 74
     1
 91
        4
 64
     7
 65
   257
 75
     1
175
     1
 42
1.0
 92
       10
 66
     7
 43
1.0
 76
     1
 77
     6
 78
     2
 67
     7
 79
     5
170
     0
171
     0
290
     0
174
     0
 93
        1
 44
0.0
173
     0
291
     1
 45
0.0
1001
ACAD
1000
AcDbSavedByObjectVersion
1070
     0
  0
VISUALSTYLE
  5
1090
102
{ACAD_XDICTIONARY
360
16D1
102
}
102
{ACAD_REACTORS
330
1082
102
}
330
1082
100
AcDbVisualStyle
  2
Linepattern
 70
    14
 71
     2
 72
     2
 73
     0
 90
        0
 40
-0.6
 41
-30.0
 62
     5
 63
     7
 74
     1
 91
        4
 64
     7
 65
   257
 75
     7
175
     7
 42
1.0
 92
        8
 66
     7
 43
1.0
 76
     1
 77
     6
 78
     2
 67
     7
 79
     5
170
     0
171
     0
290
     0
174
     0
 93
        1
 44
0.0
173
     0
291
     1
 45
0.0
1001
ACAD
1000
AcDbSavedByObjectVersion
1070
     0
  0
VISUALSTYLE
  5
1094
102
{ACAD_XDICTIONARY
360
16D9
102
}
102
{ACAD_REACTORS
330
1082
102
}
330
1082
100
AcDbVisualStyle
  2
OverhangOff
 70
    21
 71
     2
 72
     2
 73
     0
 90
        0
 40
-0.6
 41
-30.0
 62
     5
 63
     7
 74
     1
 91
        4
 64
     7
 65
   257
 75
     1
175
     1
 42
1.0
 92
        9
 66
     7
 43
1.0
 76
     1
 77
     6
 78
     2
 67
     7
 79
     5
170
     0
171
     0
290
     0
174
     0
 93
        1
 44
0.0
173
     0
291
     1
 45
0.0
1001
ACAD
1000
AcDbSavedByObjectVersion
1070
     0
  0
VISUALSTYLE
  5
108C
102
{ACAD_XDICTIONARY
360
16C9
102
}
102
{ACAD_REACTORS
330
1082
102
}
330
1082
100
AcDbVisualStyle
  2
Realistic
 70
     8
 71
     2
 72
     2
 73
     0
 90
        0
 40
-0.6
 41
-30.0
 62
     5
 63
     7
 74
     1
 91
        0
 64
     7
 65
   257
 75
     1
175
     1
 42
1.0
 92
        8
 66
     8
 43
1.0
 76
     1
 77
     6
 78
     2
 67
     7
 79
     5
170
     0
171
     0
290
     0
174
     0
 93
       13
 44
0.0
173
     0
291
     0
 45
0.0
1001
ACAD
1000
AcDbSavedByObjectVersion
1070
     0
  0
VISUALSTYLE
  5
108F
102
{ACAD_XDICTIONARY
360
16CF
102
}
102
{ACAD_REACTORS
330
1082
102
}
330
1082
100
AcDbVisualStyle
  2
Thicken
 70
    13
 71
     2
 72
     2
 73
     0
 90
        0
 40
-0.6
 41
-30.0
 62
     5
 63
     7
 74
     1
 91
        4
 64
     7
 65
   257
 75
     1
175
     1
 42
1.0
 92
       12
 66
     7
 43
1.0
 76
     1
 77
     6
 78
     2
 67
     7
 79
     5
170
     0
171
     0
290
     0
174
     0
 93
        1
 44
0.0
173
     0
291
     1
 45
0.0
1001
ACAD
1000
AcDbSavedByObjectVersion
1070
     0
  0
DICTIONARYVAR
  5
16A3
102
{ACAD_REACTORS
330
3D
102
}
330
3D
100
DictionaryVariables
280
     0
  1
1:1
  0
DICTIONARYVAR
  5
16A2
102
{ACAD_REACTORS
330
3D
102
}
330
3D
100
DictionaryVariables
280
     0
  1
STANDARD
  0
DICTIONARYVAR
  5
1049
102
{ACAD_REACTORS
330
3D
102
}
330
3D
100
DictionaryVariables
280
     0
  1
STANDARD
  0
DICTIONARYVAR
  5
3F
102
{ACAD_REACTORS
330
3D
102
}
330
3D
100
DictionaryVariables
280
     0
  1
2
  0
DICTIONARYVAR
  5
3E
102
{ACAD_REACTORS
330
3D
102
}
330
3D
100
DictionaryVariables
280
     0
  1
1
  0
DICTIONARYVAR
  5
16A5
102
{ACAD_REACTORS
330
3D
102
}
330
3D
100
DictionaryVariables
280
     0
  1
0
  0
DICTIONARYVAR
  5
16A4
102
{ACAD_REACTORS
330
3D
102
}
330
3D
100
DictionaryVariables
280
     0
  1
127
  0
DICTIONARYVAR
  5
16A6
102
{ACAD_REACTORS
330
3D
102
}
330
3D
100
DictionaryVariables
280
     0
  1
0
  0
XRECORD
  5
1067
102
{ACAD_REACTORS
330
1066
102
}
330
1066
100
AcDbXrecord
280
     1
  0
DICTIONARY
  5
16AD
330
1E
100
AcDbDictionary
280
     1
281
     1
  3
ACAD_XREC_ROUNDTRIP
360
16AE
  0
DICTIONARY
  5
16B1
330
26
100
AcDbDictionary
280
     1
281
     1
  3
ACAD_XREC_ROUNDTRIP
360
16B2
  0
DICTIONARY
  5
16AF
330
22
100
AcDbDictionary
280
     1
281
     1
  3
ACAD_XREC_ROUNDTRIP
360
16B0
  0
DICTIONARY
  5
1073
330
1072
100
AcDbDictionary
280
     1
281
     1
  3
ACAD_XREC_ROUNDTRIP
360
16B5
  3
BUMPTILE
360
1075
  3
DIFFUSETILE
360
1074
  3
OPACITYTILE
360
1078
  3
REFLECTIONTILE
360
1077
  3
REFRACTIONTILE
360
1079
  3
SPECULARTILE
360
1076
  0
DICTIONARY
  5
106B
330
106A
100
AcDbDictionary
280
     1
281
     1
  3
ACAD_XREC_ROUNDTRIP
360
16B4
  3
BUMPTILE
360
106D
  3
DIFFUSETILE
360
106C
  3
OPACITYTILE
360
1070
  3
REFLECTIONTILE
360
106F
  3
REFRACTIONTILE
360
1071
  3
SPECULARTILE
360
106E
  0
DICTIONARY
  5
107B
330
107A
100
AcDbDictionary
280
     1
281
     1
  3
ACAD_XREC_ROUNDTRIP
360
16B6
  3
BUMPTILE
360
107D
  3
DIFFUSETILE
360
107C
  3
OPACITYTILE
360
1080
  3
REFLECTIONTILE
360
107F
  3
REFRACTIONTILE
360
1081
  3
SPECULARTILE
360
107E
  0
DICTIONARY
  5
16A7
330
EE8
100
AcDbDictionary
280
     1
281
     1
  3
ACAD_ROUNDTRIP_2008_TABLESTYLE_CELLSTYLEMAP
360
16A8
  3
ACAD_XREC_ROUNDTRIP
360
16B3
  0
DICTIONARY
  5
16C1
330
1088
100
AcDbDictionary
280
     1
281
     1
  3
ACAD_XREC_ROUNDTRIP
360
16C2
  0
DICTIONARY
  5
16C5
330
108A
100
AcDbDictionary
280
     1
281
     1
  3
ACAD_XREC_ROUNDTRIP
360
16C6
  0
DICTIONARY
  5
16C3
330
1089
100
AcDbDictionary
280
     1
281
     1
  3
ACAD_XREC_ROUNDTRIP
360
16C4
  0
DICTIONARY
  5
16BF
330
1087
100
AcDbDictionary
280
     1
281
     1
  3
ACAD_XREC_ROUNDTRIP
360
16C0
  0
DICTIONARY
  5
16CD
330
108E
100
AcDbDictionary
280
     1
281
     1
  3
ACAD_XREC_ROUNDTRIP
360
16CE
  0
DICTIONARY
  5
16D5
330
1092
100
AcDbDictionary
280
     1
281
     1
  3
ACAD_XREC_ROUNDTRIP
360
16D6
  0
DICTIONARY
  5
16C7
330
108B
100
AcDbDictionary
280
     1
281
     1
  3
ACAD_XREC_ROUNDTRIP
360
16C8
  0
DICTIONARY
  5
16CB
330
108D
100
AcDbDictionary
280
     1
281
     1
  3
ACAD_XREC_ROUNDTRIP
360
16CC
  0
DICTIONARY
  5
16DB
330
1095
100
AcDbDictionary
280
     1
281
     1
  3
ACAD_XREC_ROUNDTRIP
360
16DC
  0
DICTIONARY
  5
16D3
330
1091
100
AcDbDictionary
280
     1
281
     1
  3
ACAD_XREC_ROUNDTRIP
360
16D4
  0
DICTIONARY
  5
16B7
330
1083
100
AcDbDictionary
280
     1
281
     1
  3
ACAD_XREC_ROUNDTRIP
360
16B8
  0
DICTIONARY
  5
16B9
330
1084
100
AcDbDictionary
280
     1
281
     1
  3
ACAD_XREC_ROUNDTRIP
360
16BA
  0
DICTIONARY
  5
16BB
330
1085
100
AcDbDictionary
280
     1
281
     1
  3
ACAD_XREC_ROUNDTRIP
360
16BC
  0
DICTIONARY
  5
16BD
330
1086
100
AcDbDictionary
280
     1
281
     1
  3
ACAD_XREC_ROUNDTRIP
360
16BE
  0
DICTIONARY
  5
16D7
330
1093
100
AcDbDictionary
280
     1
281
     1
  3
ACAD_XREC_ROUNDTRIP
360
16D8
  0
DICTIONARY
  5
16D1
330
1090
100
AcDbDictionary
280
     1
281
     1
  3
ACAD_XREC_ROUNDTRIP
360
16D2
  0
DICTIONARY
  5
16D9
330
1094
100
AcDbDictionary
280
     1
281
     1
  3
ACAD_XREC_ROUNDTRIP
360
16DA
  0
DICTIONARY
  5
16C9
330
108C
100
AcDbDictionary
280
     1
281
     1
  3
ACAD_XREC_ROUNDTRIP
360
16CA
  0
DICTIONARY
  5
16CF
330
108F
100
AcDbDictionary
280
     1
281
     1
  3
ACAD_XREC_ROUNDTRIP
360
16D0
  0
XRECORD
  5
16AE
102
{ACAD_REACTORS
330
16AD
102
}
330
16AD
100
AcDbXrecord
280
     1
102
SHADEPLOT
 70
     0
102
SHADEPLOTRESLEVEL
 70
     2
102
SHADEPLOTCUSTOMDPI
 70
   300
  0
XRECORD
  5
16B2
102
{ACAD_REACTORS
330
16B1
102
}
330
16B1
100
AcDbXrecord
280
     1
102
SHADEPLOT
 70
     0
102
SHADEPLOTRESLEVEL
 70
     2
102
SHADEPLOTCUSTOMDPI
 70
   300
  0
XRECORD
  5
16B0
102
{ACAD_REACTORS
330
16AF
102
}
330
16AF
100
AcDbXrecord
280
     1
102
SHADEPLOT
 70
     0
102
SHADEPLOTRESLEVEL
 70
     2
102
SHADEPLOTCUSTOMDPI
 70
   300
  0
XRECORD
  5
16B5
102
{ACAD_REACTORS
330
1073
102
}
330
1073
100
AcDbXrecord
280
     1
102
MATERIAL
148
0.0
149
0.0
149
0.0
 93
        0
 94
      127
282
     0
 72
     0
 77
     0
171
     0
175
     0
179
     0
273
     0
  0
XRECORD
  5
1075
102
{ACAD_REACTORS
330
1073
102
}
330
1073
100
AcDbXrecord
280
     1
270
     1
271
     1
  0
XRECORD
  5
1074
102
{ACAD_REACTORS
330
1073
102
}
330
1073
100
AcDbXrecord
280
     1
270
     1
271
     1
  0
XRECORD
  5
1078
102
{ACAD_REACTORS
330
1073
102
}
330
1073
100
AcDbXrecord
280
     1
270
     1
271
     1
  0
XRECORD
  5
1077
102
{ACAD_REACTORS
330
1073
102
}
330
1073
100
AcDbXrecord
280
     1
270
     1
271
     1
  0
XRECORD
  5
1079
102
{ACAD_REACTORS
330
1073
102
}
330
1073
100
AcDbXrecord
280
     1
270
     1
271
     1
  0
XRECORD
  5
1076
102
{ACAD_REACTORS
330
1073
102
}
330
1073
100
AcDbXrecord
280
     1
270
     1
271
     1
  0
XRECORD
  5
16B4
102
{ACAD_REACTORS
330
106B
102
}
330
106B
100
AcDbXrecord
280
     1
102
MATERIAL
148
0.0
149
0.0
149
0.0
 93
        0
 94
      127
282
     0
 72
     0
 77
     0
171
     0
175
     0
179
     0
273
     0
  0
XRECORD
  5
106D
102
{ACAD_REACTORS
330
106B
102
}
330
106B
100
AcDbXrecord
280
     1
270
     1
271
     1
  0
XRECORD
  5
106C
102
{ACAD_REACTORS
330
106B
102
}
330
106B
100
AcDbXrecord
280
     1
270
     1
271
     1
  0
XRECORD
  5
1070
102
{ACAD_REACTORS
330
106B
102
}
330
106B
100
AcDbXrecord
280
     1
270
     1
271
     1
  0
XRECORD
  5
106F
102
{ACAD_REACTORS
330
106B
102
}
330
106B
100
AcDbXrecord
280
     1
270
     1
271
     1
  0
XRECORD
  5
1071
102
{ACAD_REACTORS
330
106B
102
}
330
106B
100
AcDbXrecord
280
     1
270
     1
271
     1
  0
XRECORD
  5
106E
102
{ACAD_REACTORS
330
106B
102
}
330
106B
100
AcDbXrecord
280
     1
270
     1
271
     1
  0
XRECORD
  5
16B6
102
{ACAD_REACTORS
330
107B
102
}
330
107B
100
AcDbXrecord
280
     1
102
MATERIAL
148
0.0
149
0.0
149
0.0
 93
        0
 94
      127
282
     0
 72
     0
 77
     0
171
     0
175
     0
179
     0
273
     0
  0
XRECORD
  5
107D
102
{ACAD_REACTORS
330
107B
102
}
330
107B
100
AcDbXrecord
280
     1
270
     1
271
     1
  0
XRECORD
  5
107C
102
{ACAD_REACTORS
330
107B
102
}
330
107B
100
AcDbXrecord
280
     1
270
     1
271
     1
  0
XRECORD
  5
1080
102
{ACAD_REACTORS
330
107B
102
}
330
107B
100
AcDbXrecord
280
     1
270
     1
271
     1
  0
XRECORD
  5
107F
102
{ACAD_REACTORS
330
107B
102
}
330
107B
100
AcDbXrecord
280
     1
270
     1
271
     1
  0
XRECORD
  5
1081
102
{ACAD_REACTORS
330
107B
102
}
330
107B
100
AcDbXrecord
280
     1
270
     1
271
     1
  0
XRECORD
  5
107E
102
{ACAD_REACTORS
330
107B
102
}
330
107B
100
AcDbXrecord
280
     1
270
     1
271
     1
  0
CELLSTYLEMAP
  5
16A8
102
{ACAD_REACTORS
330
16A7
102
}
330
16A7
100
AcDbCellStyleMap
 90
        3
300
CELLSTYLE
  1
TABLEFORMAT_BEGIN
 90
        5
170
     1
 91
        0
 92
    32768
 62
   257
 93
        1
300
CONTENTFORMAT
  1
CONTENTFORMAT_BEGIN
 90
        0
 91
        0
 92
        4
 93
        0
300

 40
0.0
140
1.0
 94
        5
 62
     0
340
11
144
6.0
309
CONTENTFORMAT_END
171
     1
301
MARGIN
  1
CELLMARGIN_BEGIN
 40
1.5
 40
1.5
 40
1.5
 40
1.5
 40
0.18
 40
0.18
309
CELLMARGIN_END
 94
        6
 95
        1
302
GRIDFORMAT
  1
GRIDFORMAT_BEGIN
 90
        0
 91
        1
 62
     0
 92
       -2
340
0
 93
        0
 40
0.045
309
GRIDFORMAT_END
 95
        2
302
GRIDFORMAT
  1
GRIDFORMAT_BEGIN
 90
        0
 91
        1
 62
     0
 92
       -2
340
0
 93
        0
 40
0.045
309
GRIDFORMAT_END
 95
        4
302
GRIDFORMAT
  1
GRIDFORMAT_BEGIN
 90
        0
 91
        1
 62
     0
 92
       -2
340
0
 93
        0
 40
0.045
309
GRIDFORMAT_END
 95
        8
302
GRIDFORMAT
  1
GRIDFORMAT_BEGIN
 90
        0
 91
        1
 62
     0
 92
       -2
340
0
 93
        0
 40
0.045
309
GRIDFORMAT_END
 95
       16
302
GRIDFORMAT
  1
GRIDFORMAT_BEGIN
 90
        0
 91
        1
 62
     0
 92
       -2
340
0
 93
        0
 40
0.045
309
GRIDFORMAT_END
 95
       32
302
GRIDFORMAT
  1
GRIDFORMAT_BEGIN
 90
        0
 91
        1
 62
     0
 92
       -2
340
0
 93
        0
 40
0.045
309
GRIDFORMAT_END
309
TABLEFORMAT_END
  1
CELLSTYLE_BEGIN
 90
        1
 91
        1
300
_TITLE
309
CELLSTYLE_END
300
CELLSTYLE
  1
TABLEFORMAT_BEGIN
 90
        5
170
     1
 91
        0
 92
        0
 62
   257
 93
        1
300
CONTENTFORMAT
  1
CONTENTFORMAT_BEGIN
 90
        0
 91
        0
 92
        4
 93
        0
300

 40
0.0
140
1.0
 94
        5
 62
     0
340
11
144
4.5
309
CONTENTFORMAT_END
171
     1
301
MARGIN
  1
CELLMARGIN_BEGIN
 40
1.5
 40
1.5
 40
1.5
 40
1.5
 40
0.18
 40
0.18
309
CELLMARGIN_END
 94
        6
 95
        1
302
GRIDFORMAT
  1
GRIDFORMAT_BEGIN
 90
        0
 91
        1
 62
     0
 92
       -2
340
0
 93
        0
 40
0.045
309
GRIDFORMAT_END
 95
        2
302
GRIDFORMAT
  1
GRIDFORMAT_BEGIN
 90
        0
 91
        1
 62
     0
 92
       -2
340
0
 93
        0
 40
0.045
309
GRIDFORMAT_END
 95
        4
302
GRIDFORMAT
  1
GRIDFORMAT_BEGIN
 90
        0
 91
        1
 62
     0
 92
       -2
340
0
 93
        0
 40
0.045
309
GRIDFORMAT_END
 95
        8
302
GRIDFORMAT
  1
GRIDFORMAT_BEGIN
 90
        0
 91
        1
 62
     0
 92
       -2
340
0
 93
        0
 40
0.045
309
GRIDFORMAT_END
 95
       16
302
GRIDFORMAT
  1
GRIDFORMAT_BEGIN
 90
        0
 91
        1
 62
     0
 92
       -2
340
0
 93
        0
 40
0.045
309
GRIDFORMAT_END
 95
       32
302
GRIDFORMAT
  1
GRIDFORMAT_BEGIN
 90
        0
 91
        1
 62
     0
 92
       -2
340
0
 93
        0
 40
0.045
309
GRIDFORMAT_END
309
TABLEFORMAT_END
  1
CELLSTYLE_BEGIN
 90
        2
 91
        1
300
_HEADER
309
CELLSTYLE_END
300
CELLSTYLE
  1
TABLEFORMAT_BEGIN
 90
        5
170
     1
 91
        0
 92
        0
 62
   257
 93
        1
300
CONTENTFORMAT
  1
CONTENTFORMAT_BEGIN
 90
        0
 91
        0
 92
        4
 93
        0
300

 40
0.0
140
1.0
 94
        2
 62
     0
340
11
144
4.5
309
CONTENTFORMAT_END
171
     1
301
MARGIN
  1
CELLMARGIN_BEGIN
 40
1.5
 40
1.5
 40
1.5
 40
1.5
 40
0.18
 40
0.18
309
CELLMARGIN_END
 94
        6
 95
        1
302
GRIDFORMAT
  1
GRIDFORMAT_BEGIN
 90
        0
 91
        1
 62
     0
 92
       -2
340
0
 93
        0
 40
0.045
309
GRIDFORMAT_END
 95
        2
302
GRIDFORMAT
  1
GRIDFORMAT_BEGIN
 90
        0
 91
        1
 62
     0
 92
       -2
340
0
 93
        0
 40
0.045
309
GRIDFORMAT_END
 95
        4
302
GRIDFORMAT
  1
GRIDFORMAT_BEGIN
 90
        0
 91
        1
 62
     0
 92
       -2
340
0
 93
        0
 40
0.045
309
GRIDFORMAT_END
 95
        8
302
GRIDFORMAT
  1
GRIDFORMAT_BEGIN
 90
        0
 91
        1
 62
     0
 92
       -2
340
0
 93
        0
 40
0.045
309
GRIDFORMAT_END
 95
       16
302
GRIDFORMAT
  1
GRIDFORMAT_BEGIN
 90
        0
 91
        1
 62
     0
 92
       -2
340
0
 93
        0
 40
0.045
309
GRIDFORMAT_END
 95
       32
302
GRIDFORMAT
  1
GRIDFORMAT_BEGIN
 90
        0
 91
        1
 62
     0
 92
       -2
340
0
 93
        0
 40
0.045
309
GRIDFORMAT_END
309
TABLEFORMAT_END
  1
CELLSTYLE_BEGIN
 90
        3
 91
        2
300
_DATA
309
CELLSTYLE_END
  0
XRECORD
  5
16B3
102
{ACAD_REACTORS
330
16A7
102
}
330
16A7
100
AcDbXrecord
280
     1
102
ACAD_ROUNDTRIP_PRE2007_TABLESTYLE
 90
        4
 91
        0
  1

 92
        4
 93
        0
  2

 94
        4
 95
        0
  3

  0
XRECORD
  5
16C2
102
{ACAD_REACTORS
330
16C1
102
}
330
16C1
100
AcDbXrecord
280
     1
102
RTVSPropertyOp0
 70
     1
102
RTVSPropertyOp1
 70
     1
102
RTVSPropertyOp2
 70
     1
102
RTVSPropertyOp3
 70
     1
102
RTVSPropertyOp4
 70
     1
102
RTVSPropertyOp5
 70
     1
102
RTVSPropertyOp6
 70
     1
102
RTVSPropertyOp7
 70
     1
102
RTVSPropertyOp8
 70
     1
102
RTVSPropertyOp9
 70
     1
102
RTVSPropertyOp10
 70
     1
102
RTVSPropertyOp11
 70
     1
102
RTVSPropertyOp12
 70
     1
102
RTVSPropertyOp13
 70
     1
102
RTVSPropertyOp14
 70
     1
102
RTVSPropertyOp15
 70
     1
102
RTVSPropertyOp16
 70
     1
102
RTVSPropertyOp17
 70
     1
102
RTVSPropertyOp18
 70
     1
102
RTVSPropertyOp19
 70
     1
102
RTVSPropertyOp20
 70
     1
102
RTVSPropertyOp21
 70
     1
102
RTVSPropertyOp22
 70
     1
102
RTVSPropertyOp23
 70
     1
102
RTVSPropertyOp24
 70
     1
102
RTVSPropertyOp25
 70
     1
102
RTVSPropertyOp26
 70
     1
102
RTVSPropertyOp27
 70
     1
  0
XRECORD
  5
16C6
102
{ACAD_REACTORS
330
16C5
102
}
330
16C5
100
AcDbXrecord
280
     1
102
RTVSPropertyOp0
 70
     1
102
RTVSPropertyOp1
 70
     1
102
RTVSPropertyOp2
 70
     1
102
RTVSPropertyOp3
 70
     1
102
RTVSPropertyOp4
 70
     1
102
RTVSPropertyOp5
 70
     1
102
RTVSPropertyOp6
 70
     1
102
RTVSPropertyOp7
 70
     1
102
RTVSPropertyOp8
 70
     1
102
RTVSPropertyOp9
 70
     1
102
RTVSPropertyOp10
 70
     1
102
RTVSPropertyOp11
 70
     1
102
RTVSPropertyOp12
 70
     1
102
RTVSPropertyOp13
 70
     1
102
RTVSPropertyOp14
 70
     1
102
RTVSPropertyOp15
 70
     1
102
RTVSPropertyOp16
 70
     1
102
RTVSPropertyOp17
 70
     1
102
RTVSPropertyOp18
 70
     1
102
RTVSPropertyOp19
 70
     1
102
RTVSPropertyOp20
 70
     1
102
RTVSPropertyOp21
 70
     1
102
RTVSPropertyOp22
 70
     1
102
RTVSPropertyOp23
 70
     1
102
RTVSPropertyOp24
 70
     1
102
RTVSPropertyOp25
 70
     1
102
RTVSPropertyOp26
 70
     1
102
RTVSPropertyOp27
 70
     1
  0
XRECORD
  5
16C4
102
{ACAD_REACTORS
330
16C3
102
}
330
16C3
100
AcDbXrecord
280
     1
102
RTVSPropertyOp0
 70
     1
102
RTVSPropertyOp1
 70
     1
102
RTVSPropertyOp2
 70
     1
102
RTVSPropertyOp3
 70
     1
102
RTVSPropertyOp4
 70
     1
102
RTVSPropertyOp5
 70
     1
102
RTVSPropertyOp6
 70
     1
102
RTVSPropertyOp7
 70
     1
102
RTVSPropertyOp8
 70
     1
102
RTVSPropertyOp9
 70
     1
102
RTVSPropertyOp10
 70
     1
102
RTVSPropertyOp11
 70
     1
102
RTVSPropertyOp12
 70
     1
102
RTVSPropertyOp13
 70
     1
102
RTVSPropertyOp14
 70
     1
102
RTVSPropertyOp15
 70
     1
102
RTVSPropertyOp16
 70
     1
102
RTVSPropertyOp17
 70
     1
102
RTVSPropertyOp18
 70
     1
102
RTVSPropertyOp19
 70
     1
102
RTVSPropertyOp20
 70
     1
102
RTVSPropertyOp21
 70
     1
102
RTVSPropertyOp22
 70
     1
102
RTVSPropertyOp23
 70
     1
102
RTVSPropertyOp24
 70
     1
102
RTVSPropertyOp25
 70
     1
102
RTVSPropertyOp26
 70
     1
102
RTVSPropertyOp27
 70
     1
  0
XRECORD
  5
16C0
102
{ACAD_REACTORS
330
16BF
102
}
330
16BF
100
AcDbXrecord
280
     1
102
RTVSPropertyOp0
 70
     1
102
RTVSPropertyOp1
 70
     1
102
RTVSPropertyOp2
 70
     1
102
RTVSPropertyOp3
 70
     1
102
RTVSPropertyOp4
 70
     1
102
RTVSPropertyOp5
 70
     1
102
RTVSPropertyOp6
 70
     1
102
RTVSPropertyOp7
 70
     1
102
RTVSPropertyOp8
 70
     1
102
RTVSPropertyOp9
 70
     1
102
RTVSPropertyOp10
 70
     1
102
RTVSPropertyOp11
 70
     1
102
RTVSPropertyOp12
 70
     1
102
RTVSPropertyOp13
 70
     1
102
RTVSPropertyOp14
 70
     1
102
RTVSPropertyOp15
 70
     1
102
RTVSPropertyOp16
 70
     1
102
RTVSPropertyOp17
 70
     1
102
RTVSPropertyOp18
 70
     1
102
RTVSPropertyOp19
 70
     1
102
RTVSPropertyOp20
 70
     1
102
RTVSPropertyOp21
 70
     1
102
RTVSPropertyOp22
 70
     1
102
RTVSPropertyOp23
 70
     1
102
RTVSPropertyOp24
 70
     1
102
RTVSPropertyOp25
 70
     1
102
RTVSPropertyOp26
 70
     1
102
RTVSPropertyOp27
 70
     1
  0
XRECORD
  5
16CE
102
{ACAD_REACTORS
330
16CD
102
}
330
16CD
100
AcDbXrecord
280
     1
102
RTVSPropertyOp0
 70
     1
102
RTVSPropertyOp1
 70
     1
102
RTVSPropertyOp2
 70
     1
102
RTVSPropertyOp3
 70
     1
102
RTVSPropertyOp4
 70
     1
102
RTVSPropertyOp5
 70
     1
102
RTVSPropertyOp6
 70
     1
102
RTVSPropertyOp7
 70
     1
102
RTVSPropertyOp8
 70
     1
102
RTVSPropertyOp9
 70
     1
102
RTVSPropertyOp10
 70
     1
102
RTVSPropertyOp11
 70
     1
102
RTVSPropertyOp12
 70
     1
102
RTVSPropertyOp13
 70
     1
102
RTVSPropertyOp14
 70
     1
102
RTVSPropertyOp15
 70
     1
102
RTVSPropertyOp16
 70
     1
102
RTVSPropertyOp17
 70
     1
102
RTVSPropertyOp18
 70
     1
102
RTVSPropertyOp19
 70
     1
102
RTVSPropertyOp20
 70
     1
102
RTVSPropertyOp21
 70
     1
102
RTVSPropertyOp22
 70
     1
102
RTVSPropertyOp23
 70
     1
102
RTVSPropertyOp24
 70
     1
102
RTVSPropertyOp25
 70
     1
102
RTVSPropertyOp26
 70
     1
102
RTVSPropertyOp27
 70
     1
  0
XRECORD
  5
16D6
102
{ACAD_REACTORS
330
16D5
102
}
330
16D5
100
AcDbXrecord
280
     1
102
RTVSPropertyOp0
 70
     1
102
RTVSPropertyOp1
 70
     1
102
RTVSPropertyOp2
 70
     1
102
RTVSPropertyOp3
 70
     1
102
RTVSPropertyOp4
 70
     1
102
RTVSPropertyOp5
 70
     1
102
RTVSPropertyOp6
 70
     1
102
RTVSPropertyOp7
 70
     1
102
RTVSPropertyOp8
 70
     1
102
RTVSPropertyOp9
 70
     1
102
RTVSPropertyOp10
 70
     1
102
RTVSPropertyOp11
 70
     1
102
RTVSPropertyOp12
 70
     1
102
RTVSPropertyOp13
 70
     1
102
RTVSPropertyOp14
 70
     1
102
RTVSPropertyOp15
 70
     1
102
RTVSPropertyOp16
 70
     1
102
RTVSPropertyOp17
 70
     1
102
RTVSPropertyOp18
 70
     1
102
RTVSPropertyOp19
 70
     1
102
RTVSPropertyOp20
 70
     1
102
RTVSPropertyOp21
 70
     1
102
RTVSPropertyOp22
 70
     1
102
RTVSPropertyOp23
 70
     1
102
RTVSPropertyOp24
 70
     1
102
RTVSPropertyOp25
 70
     1
102
RTVSPropertyOp26
 70
     1
102
RTVSPropertyOp27
 70
     1
  0
XRECORD
  5
16C8
102
{ACAD_REACTORS
330
16C7
102
}
330
16C7
100
AcDbXrecord
280
     1
102
RTVSPropertyOp0
 70
     1
102
RTVSPropertyOp1
 70
     1
102
RTVSPropertyOp2
 70
     1
102
RTVSPropertyOp3
 70
     1
102
RTVSPropertyOp4
 70
     1
102
RTVSPropertyOp5
 70
     1
102
RTVSPropertyOp6
 70
     1
102
RTVSPropertyOp7
 70
     1
102
RTVSPropertyOp8
 70
     1
102
RTVSPropertyOp9
 70
     1
102
RTVSPropertyOp10
 70
     1
102
RTVSPropertyOp11
 70
     1
102
RTVSPropertyOp12
 70
     1
102
RTVSPropertyOp13
 70
     1
102
RTVSPropertyOp14
 70
     1
102
RTVSPropertyOp15
 70
     1
102
RTVSPropertyOp16
 70
     1
102
RTVSPropertyOp17
 70
     1
102
RTVSPropertyOp18
 70
     1
102
RTVSPropertyOp19
 70
     1
102
RTVSPropertyOp20
 70
     1
102
RTVSPropertyOp21
 70
     1
102
RTVSPropertyOp22
 70
     1
102
RTVSPropertyOp23
 70
     1
102
RTVSPropertyOp24
 70
     1
102
RTVSPropertyOp25
 70
     1
102
RTVSPropertyOp26
 70
     1
102
RTVSPropertyOp27
 70
     1
  0
XRECORD
  5
16CC
102
{ACAD_REACTORS
330
16CB
102
}
330
16CB
100
AcDbXrecord
280
     1
102
RTVSPropertyOp0
 70
     1
102
RTVSPropertyOp1
 70
     1
102
RTVSPropertyOp2
 70
     1
102
RTVSPropertyOp3
 70
     1
102
RTVSPropertyOp4
 70
     1
102
RTVSPropertyOp5
 70
     1
102
RTVSPropertyOp6
 70
     1
102
RTVSPropertyOp7
 70
     1
102
RTVSPropertyOp8
 70
     1
102
RTVSPropertyOp9
 70
     1
102
RTVSPropertyOp10
 70
     1
102
RTVSPropertyOp11
 70
     1
102
RTVSPropertyOp12
 70
     1
102
RTVSPropertyOp13
 70
     1
102
RTVSPropertyOp14
 70
     1
102
RTVSPropertyOp15
 70
     1
102
RTVSPropertyOp16
 70
     1
102
RTVSPropertyOp17
 70
     1
102
RTVSPropertyOp18
 70
     1
102
RTVSPropertyOp19
 70
     1
102
RTVSPropertyOp20
 70
     1
102
RTVSPropertyOp21
 70
     1
102
RTVSPropertyOp22
 70
     1
102
RTVSPropertyOp23
 70
     1
102
RTVSPropertyOp24
 70
     1
102
RTVSPropertyOp25
 70
     1
102
RTVSPropertyOp26
 70
     1
102
RTVSPropertyOp27
 70
     1
  0
XRECORD
  5
16DC
102
{ACAD_REACTORS
330
16DB
102
}
330
16DB
100
AcDbXrecord
280
     1
102
RTVSPropertyOp0
 70
     0
102
RTVSPropertyOp1
 70
     0
102
RTVSPropertyOp2
 70
     0
102
RTVSPropertyOp3
 70
     0
102
RTVSPropertyOp4
 70
     0
102
RTVSPropertyOp5
 70
     0
102
RTVSPropertyOp6
 70
     0
102
RTVSPropertyOp7
 70
     0
102
RTVSPropertyOp8
 70
     0
102
RTVSPropertyOp9
 70
     0
102
RTVSPropertyOp10
 70
     0
102
RTVSPropertyOp11
 70
     0
102
RTVSPropertyOp12
 70
     0
102
RTVSPropertyOp13
 70
     0
102
RTVSPropertyOp14
 70
     2
102
RTVSPropertyOp15
 70
     0
102
RTVSPropertyOp16
 70
     0
102
RTVSPropertyOp17
 70
     0
102
RTVSPropertyOp18
 70
     0
102
RTVSPropertyOp19
 70
     0
102
RTVSPropertyOp20
 70
     0
102
RTVSPropertyOp21
 70
     0
102
RTVSPropertyOp22
 70
     0
102
RTVSPropertyOp23
 70
     0
102
RTVSPropertyOp24
 70
     0
102
RTVSPropertyOp25
 70
     0
102
RTVSPropertyOp26
 70
     0
102
RTVSPropertyOp27
 70
     0
  0
XRECORD
  5
16D4
102
{ACAD_REACTORS
330
16D3
102
}
330
16D3
100
AcDbXrecord
280
     1
102
RTVSPropertyOp0
 70
     1
102
RTVSPropertyOp1
 70
     1
102
RTVSPropertyOp2
 70
     1
102
RTVSPropertyOp3
 70
     1
102
RTVSPropertyOp4
 70
     1
102
RTVSPropertyOp5
 70
     1
102
RTVSPropertyOp6
 70
     1
102
RTVSPropertyOp7
 70
     1
102
RTVSPropertyOp8
 70
     1
102
RTVSPropertyOp9
 70
     1
102
RTVSPropertyOp10
 70
     1
102
RTVSPropertyOp11
 70
     1
102
RTVSPropertyOp12
 70
     1
102
RTVSPropertyOp13
 70
     1
102
RTVSPropertyOp14
 70
     1
102
RTVSPropertyOp15
 70
     1
102
RTVSPropertyOp16
 70
     1
102
RTVSPropertyOp17
 70
     1
102
RTVSPropertyOp18
 70
     1
102
RTVSPropertyOp19
 70
     1
102
RTVSPropertyOp20
 70
     1
102
RTVSPropertyOp21
 70
     1
102
RTVSPropertyOp22
 70
     1
102
RTVSPropertyOp23
 70
     1
102
RTVSPropertyOp24
 70
     1
102
RTVSPropertyOp25
 70
     1
102
RTVSPropertyOp26
 70
     1
102
RTVSPropertyOp27
 70
     1
  0
XRECORD
  5
16B8
102
{ACAD_REACTORS
330
16B7
102
}
330
16B7
100
AcDbXrecord
280
     1
102
RTVSPropertyOp0
 70
     1
102
RTVSPropertyOp1
 70
     1
102
RTVSPropertyOp2
 70
     1
102
RTVSPropertyOp3
 70
     1
102
RTVSPropertyOp4
 70
     1
102
RTVSPropertyOp5
 70
     1
102
RTVSPropertyOp6
 70
     1
102
RTVSPropertyOp7
 70
     1
102
RTVSPropertyOp8
 70
     1
102
RTVSPropertyOp9
 70
     1
102
RTVSPropertyOp10
 70
     1
102
RTVSPropertyOp11
 70
     1
102
RTVSPropertyOp12
 70
     1
102
RTVSPropertyOp13
 70
     1
102
RTVSPropertyOp14
 70
     1
102
RTVSPropertyOp15
 70
     1
102
RTVSPropertyOp16
 70
     1
102
RTVSPropertyOp17
 70
     1
102
RTVSPropertyOp18
 70
     1
102
RTVSPropertyOp19
 70
     1
102
RTVSPropertyOp20
 70
     1
102
RTVSPropertyOp21
 70
     1
102
RTVSPropertyOp22
 70
     1
102
RTVSPropertyOp23
 70
     1
102
RTVSPropertyOp24
 70
     1
102
RTVSPropertyOp25
 70
     1
102
RTVSPropertyOp26
 70
     1
102
RTVSPropertyOp27
 70
     1
  0
XRECORD
  5
16BA
102
{ACAD_REACTORS
330
16B9
102
}
330
16B9
100
AcDbXrecord
280
     1
102
RTVSPropertyOp0
 70
     1
102
RTVSPropertyOp1
 70
     1
102
RTVSPropertyOp2
 70
     1
102
RTVSPropertyOp3
 70
     1
102
RTVSPropertyOp4
 70
     1
102
RTVSPropertyOp5
 70
     1
102
RTVSPropertyOp6
 70
     1
102
RTVSPropertyOp7
 70
     1
102
RTVSPropertyOp8
 70
     1
102
RTVSPropertyOp9
 70
     1
102
RTVSPropertyOp10
 70
     1
102
RTVSPropertyOp11
 70
     1
102
RTVSPropertyOp12
 70
     1
102
RTVSPropertyOp13
 70
     1
102
RTVSPropertyOp14
 70
     1
102
RTVSPropertyOp15
 70
     1
102
RTVSPropertyOp16
 70
     1
102
RTVSPropertyOp17
 70
     1
102
RTVSPropertyOp18
 70
     1
102
RTVSPropertyOp19
 70
     1
102
RTVSPropertyOp20
 70
     1
102
RTVSPropertyOp21
 70
     1
102
RTVSPropertyOp22
 70
     1
102
RTVSPropertyOp23
 70
     1
102
RTVSPropertyOp24
 70
     1
102
RTVSPropertyOp25
 70
     1
102
RTVSPropertyOp26
 70
     1
102
RTVSPropertyOp27
 70
     1
  0
XRECORD
  5
16BC
102
{ACAD_REACTORS
330
16BB
102
}
330
16BB
100
AcDbXrecord
280
     1
102
RTVSPropertyOp0
 70
     1
102
RTVSPropertyOp1
 70
     1
102
RTVSPropertyOp2
 70
     1
102
RTVSPropertyOp3
 70
     1
102
RTVSPropertyOp4
 70
     1
102
RTVSPropertyOp5
 70
     1
102
RTVSPropertyOp6
 70
     1
102
RTVSPropertyOp7
 70
     1
102
RTVSPropertyOp8
 70
     1
102
RTVSPropertyOp9
 70
     1
102
RTVSPropertyOp10
 70
     1
102
RTVSPropertyOp11
 70
     1
102
RTVSPropertyOp12
 70
     1
102
RTVSPropertyOp13
 70
     1
102
RTVSPropertyOp14
 70
     1
102
RTVSPropertyOp15
 70
     1
102
RTVSPropertyOp16
 70
     1
102
RTVSPropertyOp17
 70
     1
102
RTVSPropertyOp18
 70
     1
102
RTVSPropertyOp19
 70
     1
102
RTVSPropertyOp20
 70
     1
102
RTVSPropertyOp21
 70
     1
102
RTVSPropertyOp22
 70
     1
102
RTVSPropertyOp23
 70
     1
102
RTVSPropertyOp24
 70
     1
102
RTVSPropertyOp25
 70
     1
102
RTVSPropertyOp26
 70
     1
102
RTVSPropertyOp27
 70
     1
  0
XRECORD
  5
16BE
102
{ACAD_REACTORS
330
16BD
102
}
330
16BD
100
AcDbXrecord
280
     1
102
RTVSPropertyOp0
 70
     1
102
RTVSPropertyOp1
 70
     1
102
RTVSPropertyOp2
 70
     1
102
RTVSPropertyOp3
 70
     1
102
RTVSPropertyOp4
 70
     1
102
RTVSPropertyOp5
 70
     1
102
RTVSPropertyOp6
 70
     1
102
RTVSPropertyOp7
 70
     1
102
RTVSPropertyOp8
 70
     1
102
RTVSPropertyOp9
 70
     1
102
RTVSPropertyOp10
 70
     1
102
RTVSPropertyOp11
 70
     1
102
RTVSPropertyOp12
 70
     1
102
RTVSPropertyOp13
 70
     1
102
RTVSPropertyOp14
 70
     1
102
RTVSPropertyOp15
 70
     1
102
RTVSPropertyOp16
 70
     1
102
RTVSPropertyOp17
 70
     1
102
RTVSPropertyOp18
 70
     1
102
RTVSPropertyOp19
 70
     1
102
RTVSPropertyOp20
 70
     1
102
RTVSPropertyOp21
 70
     1
102
RTVSPropertyOp22
 70
     1
102
RTVSPropertyOp23
 70
     1
102
RTVSPropertyOp24
 70
     1
102
RTVSPropertyOp25
 70
     1
102
RTVSPropertyOp26
 70
     1
102
RTVSPropertyOp27
 70
     1
  0
XRECORD
  5
16D8
102
{ACAD_REACTORS
330
16D7
102
}
330
16D7
100
AcDbXrecord
280
     1
102
RTVSPropertyOp0
 70
     0
102
RTVSPropertyOp1
 70
     0
102
RTVSPropertyOp2
 70
     0
102
RTVSPropertyOp3
 70
     0
102
RTVSPropertyOp4
 70
     0
102
RTVSPropertyOp5
 70
     0
102
RTVSPropertyOp6
 70
     0
102
RTVSPropertyOp7
 70
     0
102
RTVSPropertyOp8
 70
     0
102
RTVSPropertyOp9
 70
     0
102
RTVSPropertyOp10
 70
     0
102
RTVSPropertyOp11
 70
     0
102
RTVSPropertyOp12
 70
     0
102
RTVSPropertyOp13
 70
     0
102
RTVSPropertyOp14
 70
     2
102
RTVSPropertyOp15
 70
     0
102
RTVSPropertyOp16
 70
     0
102
RTVSPropertyOp17
 70
     0
102
RTVSPropertyOp18
 70
     0
102
RTVSPropertyOp19
 70
     0
102
RTVSPropertyOp20
 70
     0
102
RTVSPropertyOp21
 70
     0
102
RTVSPropertyOp22
 70
     0
102
RTVSPropertyOp23
 70
     0
102
RTVSPropertyOp24
 70
     0
102
RTVSPropertyOp25
 70
     0
102
RTVSPropertyOp26
 70
     0
102
RTVSPropertyOp27
 70
     0
  0
XRECORD
  5
16D2
102
{ACAD_REACTORS
330
16D1
102
}
330
16D1
100
AcDbXrecord
280
     1
102
RTVSPropertyOp0
 70
     1
102
RTVSPropertyOp1
 70
     1
102
RTVSPropertyOp2
 70
     1
102
RTVSPropertyOp3
 70
     1
102
RTVSPropertyOp4
 70
     1
102
RTVSPropertyOp5
 70
     1
102
RTVSPropertyOp6
 70
     1
102
RTVSPropertyOp7
 70
     1
102
RTVSPropertyOp8
 70
     1
102
RTVSPropertyOp9
 70
     1
102
RTVSPropertyOp10
 70
     1
102
RTVSPropertyOp11
 70
     1
102
RTVSPropertyOp12
 70
     1
102
RTVSPropertyOp13
 70
     1
102
RTVSPropertyOp14
 70
     1
102
RTVSPropertyOp15
 70
     1
102
RTVSPropertyOp16
 70
     1
102
RTVSPropertyOp17
 70
     1
102
RTVSPropertyOp18
 70
     1
102
RTVSPropertyOp19
 70
     1
102
RTVSPropertyOp20
 70
     1
102
RTVSPropertyOp21
 70
     1
102
RTVSPropertyOp22
 70
     1
102
RTVSPropertyOp23
 70
     1
102
RTVSPropertyOp24
 70
     1
102
RTVSPropertyOp25
 70
     1
102
RTVSPropertyOp26
 70
     1
102
RTVSPropertyOp27
 70
     1
  0
XRECORD
  5
16DA
102
{ACAD_REACTORS
330
16D9
102
}
330
16D9
100
AcDbXrecord
280
     1
102
RTVSPropertyOp0
 70
     0
102
RTVSPropertyOp1
 70
     0
102
RTVSPropertyOp2
 70
     0
102
RTVSPropertyOp3
 70
     0
102
RTVSPropertyOp4
 70
     0
102
RTVSPropertyOp5
 70
     0
102
RTVSPropertyOp6
 70
     0
102
RTVSPropertyOp7
 70
     0
102
RTVSPropertyOp8
 70
     0
102
RTVSPropertyOp9
 70
     0
102
RTVSPropertyOp10
 70
     0
102
RTVSPropertyOp11
 70
     0
102
RTVSPropertyOp12
 70
     0
102
RTVSPropertyOp13
 70
     0
102
RTVSPropertyOp14
 70
     2
102
RTVSPropertyOp15
 70
     0
102
RTVSPropertyOp16
 70
     0
102
RTVSPropertyOp17
 70
     0
102
RTVSPropertyOp18
 70
     0
102
RTVSPropertyOp19
 70
     0
102
RTVSPropertyOp20
 70
     0
102
RTVSPropertyOp21
 70
     0
102
RTVSPropertyOp22
 70
     0
102
RTVSPropertyOp23
 70
     0
102
RTVSPropertyOp24
 70
     0
102
RTVSPropertyOp25
 70
     0
102
RTVSPropertyOp26
 70
     0
102
RTVSPropertyOp27
 70
     0
  0
XRECORD
  5
16CA
102
{ACAD_REACTORS
330
16C9
102
}
330
16C9
100
AcDbXrecord
280
     1
102
RTVSPropertyOp0
 70
     1
102
RTVSPropertyOp1
 70
     1
102
RTVSPropertyOp2
 70
     1
102
RTVSPropertyOp3
 70
     1
102
RTVSPropertyOp4
 70
     1
102
RTVSPropertyOp5
 70
     1
102
RTVSPropertyOp6
 70
     1
102
RTVSPropertyOp7
 70
     1
102
RTVSPropertyOp8
 70
     1
102
RTVSPropertyOp9
 70
     1
102
RTVSPropertyOp10
 70
     1
102
RTVSPropertyOp11
 70
     1
102
RTVSPropertyOp12
 70
     1
102
RTVSPropertyOp13
 70
     1
102
RTVSPropertyOp14
 70
     1
102
RTVSPropertyOp15
 70
     1
102
RTVSPropertyOp16
 70
     1
102
RTVSPropertyOp17
 70
     1
102
RTVSPropertyOp18
 70
     1
102
RTVSPropertyOp19
 70
     1
102
RTVSPropertyOp20
 70
     1
102
RTVSPropertyOp21
 70
     1
102
RTVSPropertyOp22
 70
     1
102
RTVSPropertyOp23
 70
     1
102
RTVSPropertyOp24
 70
     1
102
RTVSPropertyOp25
 70
     1
102
RTVSPropertyOp26
 70
     1
102
RTVSPropertyOp27
 70
     1
  0
XRECORD
  5
16D0
102
{ACAD_REACTORS
330
16CF
102
}
330
16CF
100
AcDbXrecord
280
     1
102
RTVSPropertyOp0
 70
     1
102
RTVSPropertyOp1
 70
     1
102
RTVSPropertyOp2
 70
     1
102
RTVSPropertyOp3
 70
     1
102
RTVSPropertyOp4
 70
     1
102
RTVSPropertyOp5
 70
     1
102
RTVSPropertyOp6
 70
     1
102
RTVSPropertyOp7
 70
     1
102
RTVSPropertyOp8
 70
     1
102
RTVSPropertyOp9
 70
     1
102
RTVSPropertyOp10
 70
     1
102
RTVSPropertyOp11
 70
     1
102
RTVSPropertyOp12
 70
     1
102
RTVSPropertyOp13
 70
     1
102
RTVSPropertyOp14
 70
     1
102
RTVSPropertyOp15
 70
     1
102
RTVSPropertyOp16
 70
     1
102
RTVSPropertyOp17
 70
     1
102
RTVSPropertyOp18
 70
     1
102
RTVSPropertyOp19
 70
     1
102
RTVSPropertyOp20
 70
     1
102
RTVSPropertyOp21
 70
     1
102
RTVSPropertyOp22
 70
     1
102
RTVSPropertyOp23
 70
     1
102
RTVSPropertyOp24
 70
     1
102
RTVSPropertyOp25
 70
     1
102
RTVSPropertyOp26
 70
     1
102
RTVSPropertyOp27
 70
     1
  0
ENDSEC
  0
EOF
