  0
SECTION
  2
HEADER
  9
$ACADVER
  1
AC1015
  9
$ACADMAINTVER
 70
    20
  9
$DWGCODEPAGE
  3
ANSI_1252
  9
$INSBASE
 10
0.0
 20
0.0
 30
0.0
  9
$EXTMIN
 10
1081.180777432051
 20
1464.181268409848
 30
0.0
  9
$EXTMAX
 10
1085.655554140928
 20
1464.931268409848
 30
0.0
  9
$LIMMIN
 10
0.0
 20
0.0
  9
$LIMMAX
 10
420.0
 20
297.0
  9
$ORTHOMODE
 70
     1
  9
$REGENMODE
 70
     1
  9
$FILLMODE
 70
     1
  9
$QTEXTMODE
 70
     0
  9
$MIRRTEXT
 70
     0
  9
$LTSCALE
 40
1.0
  9
$ATTMODE
 70
     1
  9
$TEXTSIZE
 40
2.5
  9
$TRACEWID
 40
1.0
  9
$TEXTSTYLE
  7
Standard
  9
$CLAYER
  8
0
  9
$CELTYPE
  6
ByLayer
  9
$CECOLOR
 62
   256
  9
$CELTSCALE
 40
1.0
  9
$DISPSILH
 70
     0
  9
$DIMSCALE
 40
1.0
  9
$DIMASZ
 40
2.5
  9
$DIMEXO
 40
0.625
  9
$DIMDLI
 40
3.75
  9
$DIMRND
 40
0.0
  9
$DIMDLE
 40
0.0
  9
$DIMEXE
 40
1.25
  9
$DIMTP
 40
0.0
  9
$DIMTM
 40
0.0
  9
$DIMTXT
 40
2.5
  9
$DIMCEN
 40
2.5
  9
$DIMTSZ
 40
0.0
  9
$DIMTOL
 70
     0
  9
$DIMLIM
 70
     0
  9
$DIMTIH
 70
     0
  9
$DIMTOH
 70
     0
  9
$DIMSE1
 70
     0
  9
$DIMSE2
 70
     0
  9
$DIMTAD
 70
     1
  9
$DIMZIN
 70
     8
  9
$DIMBLK
  1

  9
$DIMASO
 70
     1
  9
$DIMSHO
 70
     1
  9
$DIMPOST
  1

  9
$DIMAPOST
  1

  9
$DIMALT
 70
     0
  9
$DIMALTD
 70
     3
  9
$DIMALTF
 40
0.03937007874016
  9
$DIMLFAC
 40
1.0
  9
$DIMTOFL
 70
     1
  9
$DIMTVP
 40
0.0
  9
$DIMTIX
 70
     0
  9
$DIMSOXD
 70
     0
  9
$DIMSAH
 70
     0
  9
$DIMBLK1
  1

  9
$DIMBLK2
  1

  9
$DIMSTYLE
  2
ISO-25
  9
$DIMCLRD
 70
     0
  9
$DIMCLRE
 70
     0
  9
$DIMCLRT
 70
     0
  9
$DIMTFAC
 40
1.0
  9
$DIMGAP
 40
0.625
  9
$DIMJUST
 70
     0
  9
$DIMSD1
 70
     0
  9
$DIMSD2
 70
     0
  9
$DIMTOLJ
 70
     0
  9
$DIMTZIN
 70
     8
  9
$DIMALTZ
 70
     0
  9
$DIMALTTZ
 70
     0
  9
$DIMUPT
 70
     0
  9
$DIMDEC
 70
     2
  9
$DIMTDEC
 70
     2
  9
$DIMALTU
 70
     2
  9
$DIMALTTD
 70
     3
  9
$DIMTXSTY
  7
Standard
  9
$DIMAUNIT
 70
     0
  9
$DIMADEC
 70
     0
  9
$DIMALTRND
 40
0.0
  9
$DIMAZIN
 70
     0
  9
$DIMDSEP
 70
    44
  9
$DIMATFIT
 70
     3
  9
$DIMFRAC
 70
     0
  9
$DIMLDRBLK
  1

  9
$DIMLUNIT
 70
     2
  9
$DIMLWD
 70
    -2
  9
$DIMLWE
 70
    -2
  9
$DIMTMOVE
 70
     0
  9
$LUNITS
 70
     2
  9
$LUPREC
 70
     4
  9
$SKETCHINC
 40
1.0
  9
$FILLETRAD
 40
0.0
  9
$AUNITS
 70
     0
  9
$AUPREC
 70
     0
  9
$MENU
  1
.
  9
$ELEVATION
 40
0.0
  9
$PELEVATION
 40
0.0
  9
$THICKNESS
 40
0.0
  9
$LIMCHECK
 70
     0
  9
$CHAMFERA
 40
0.0
  9
$CHAMFERB
 40
0.0
  9
$CHAMFERC
 40
0.0
  9
$CHAMFERD
 40
0.0
  9
$SKPOLY
 70
     0
  9
$TDCREATE
 40
2454922.699903241
  9
$TDUCREATE
 40
2454922.658236574
  9
$TDUPDATE
 40
2454922.703166227
  9
$TDUUPDATE
 40
2454922.661499560
  9
$TDINDWG
 40
0.0032635301
  9
$TDUSRTIMER
 40
0.0032635301
  9
$USRTIMER
 70
     1
  9
$ANGBASE
 50
0.0
  9
$ANGDIR
 70
     0
  9
$PDMODE
 70
     0
  9
$PDSIZE
 40
0.0
  9
$PLINEWID
 40
0.0
  9
$SPLFRAME
 70
     0
  9
$SPLINETYPE
 70
     6
  9
$SPLINESEGS
 70
     8
  9
$HANDSEED
  5
B72
  9
$SURFTAB1
 70
     6
  9
$SURFTAB2
 70
     6
  9
$SURFTYPE
 70
     6
  9
$SURFU
 70
     6
  9
$SURFV
 70
     6
  9
$UCSBASE
  2

  9
$UCSNAME
  2

  9
$UCSORG
 10
0.0
 20
0.0
 30
0.0
  9
$UCSXDIR
 10
1.0
 20
0.0
 30
0.0
  9
$UCSYDIR
 10
0.0
 20
1.0
 30
0.0
  9
$UCSORTHOREF
  2

  9
$UCSORTHOVIEW
 70
     0
  9
$UCSORGTOP
 10
0.0
 20
0.0
 30
0.0
  9
$UCSORGBOTTOM
 10
0.0
 20
0.0
 30
0.0
  9
$UCSORGLEFT
 10
0.0
 20
0.0
 30
0.0
  9
$UCSORGRIGHT
 10
0.0
 20
0.0
 30
0.0
  9
$UCSORGFRONT
 10
0.0
 20
0.0
 30
0.0
  9
$UCSORGBACK
 10
0.0
 20
0.0
 30
0.0
  9
$PUCSBASE
  2

  9
$PUCSNAME
  2

  9
$PUCSORG
 10
0.0
 20
0.0
 30
0.0
  9
$PUCSXDIR
 10
1.0
 20
0.0
 30
0.0
  9
$PUCSYDIR
 10
0.0
 20
1.0
 30
0.0
  9
$PUCSORTHOREF
  2

  9
$PUCSORTHOVIEW
 70
     0
  9
$PUCSORGTOP
 10
0.0
 20
0.0
 30
0.0
  9
$PUCSORGBOTTOM
 10
0.0
 20
0.0
 30
0.0
  9
$PUCSORGLEFT
 10
0.0
 20
0.0
 30
0.0
  9
$PUCSORGRIGHT
 10
0.0
 20
0.0
 30
0.0
  9
$PUCSORGFRONT
 10
0.0
 20
0.0
 30
0.0
  9
$PUCSORGBACK
 10
0.0
 20
0.0
 30
0.0
  9
$USERI1
 70
     0
  9
$USERI2
 70
     0
  9
$USERI3
 70
     0
  9
$USERI4
 70
     0
  9
$USERI5
 70
     0
  9
$USERR1
 40
0.0
  9
$USERR2
 40
0.0
  9
$USERR3
 40
0.0
  9
$USERR4
 40
0.0
  9
$USERR5
 40
0.0
  9
$WORLDVIEW
 70
     1
  9
$SHADEDGE
 70
     3
  9
$SHADEDIF
 70
    70
  9
$TILEMODE
 70
     1
  9
$MAXACTVP
 70
    64
  9
$PINSBASE
 10
0.0
 20
0.0
 30
0.0
  9
$PLIMCHECK
 70
     0
  9
$PEXTMIN
 10
1.000000000000000E+20
 20
1.000000000000000E+20
 30
1.000000000000000E+20
  9
$PEXTMAX
 10
-1.000000000000000E+20
 20
-1.000000000000000E+20
 30
-1.000000000000000E+20
  9
$PLIMMIN
 10
0.0
 20
0.0
  9
$PLIMMAX
 10
420.0
 20
297.0
  9
$UNITMODE
 70
     0
  9
$VISRETAIN
 70
     1
  9
$PLINEGEN
 70
     0
  9
$PSLTSCALE
 70
     1
  9
$TREEDEPTH
 70
  3020
  9
$CMLSTYLE
  2
Standard
  9
$CMLJUST
 70
     0
  9
$CMLSCALE
 40
20.0
  9
$PROXYGRAPHICS
 70
     1
  9
$MEASUREMENT
 70
     1
  9
$CELWEIGHT
370
    -1
  9
$ENDCAPS
280
     0
  9
$JOINSTYLE
280
     0
  9
$LWDISPLAY
290
     0
  9
$INSUNITS
 70
     4
  9
$HYPERLINKBASE
  1

  9
$STYLESHEET
  1

  9
$XEDIT
290
     1
  9
$CEPSNTYPE
380
     0
  9
$PSTYLEMODE
290
     1
  9
$FINGERPRINTGUID
  2
{AD75CA2B-4FB6-44AF-9BA4-00055BC0F508}
  9
$VERSIONGUID
  2
{A965BB4D-22EF-4ACB-8F0D-3714BAC0DB37}
  9
$EXTNAMES
290
     1
  9
$PSVPSCALE
 40
0.0
  9
$OLESTARTUP
290
     0
  0
ENDSEC
  0
SECTION
  2
CLASSES
  0
CLASS
  1
ACDBDICTIONARYWDFLT
  2
AcDbDictionaryWithDefault
  3
ObjectDBX Classes
 90
        0
280
     0
281
     0
  0
CLASS
  1
TABLESTYLE
  2
AcDbTableStyle
  3
ObjectDBX Classes
 90
     2047
280
     0
281
     0
  0
CLASS
  1
DIMASSOC
  2
AcDbDimAssoc
  3
"AcDbDimAssoc|Product Desc:     AcDim ARX App For Dimension|Company:          Autodesk, Inc.|WEB Address:      www.autodesk.com"
 90
        0
280
     0
281
     0
  0
CLASS
  1
SORTENTSTABLE
  2
AcDbSortentsTable
  3
ObjectDBX Classes
 90
        0
280
     0
281
     0
  0
CLASS
  1
DICTIONARYVAR
  2
AcDbDictionaryVar
  3
ObjectDBX Classes
 90
        0
280
     0
281
     0
  0
CLASS
  1
ACDBPLACEHOLDER
  2
AcDbPlaceHolder
  3
ObjectDBX Classes
 90
        0
280
     0
281
     0
  0
CLASS
  1
LAYOUT
  2
AcDbLayout
  3
ObjectDBX Classes
 90
        0
280
     0
281
     0
  0
ENDSEC
  0
SECTION
  2
TABLES
  0
TABLE
  2
VPORT
  5
8
330
0
100
AcDbSymbolTable
 70
     9
  0
VPORT
  5
B6A
330
8
100
AcDbSymbolTableRecord
100
AcDbViewportTableRecord
  2
*Active
 70
     0
 10
0.0
 20
0.0
 11
1.0
 21
1.0
 12
1083.41816578649
 22
1464.556268409848
 13
0.0
 23
0.0
 14
10.0
 24
10.0
 15
10.0
 25
10.0
 16
0.0
 26
0.0
 36
1.0
 17
0.0
 27
0.0
 37
0.0
 40
2.803800510676386
 41
1.602030456852791
 42
50.0
 43
0.0
 44
0.0
 50
0.0
 51
0.0
 71
     0
 72
  1000
 73
     1
 74
     3
 75
     0
 76
     0
 77
     0
 78
     0
281
     0
 65
     1
110
0.0
120
0.0
130
0.0
111
1.0
121
0.0
131
0.0
112
0.0
122
1.0
132
0.0
 79
     0
146
0.0
  0
ENDTAB
  0
TABLE
  2
LTYPE
  5
5
330
0
100
AcDbSymbolTable
 70
     3
  0
LTYPE
  5
14
330
5
100
AcDbSymbolTableRecord
100
AcDbLinetypeTableRecord
  2
ByBlock
 70
     0
  3

 72
    65
 73
     0
 40
0.0
  0
LTYPE
  5
15
330
5
100
AcDbSymbolTableRecord
100
AcDbLinetypeTableRecord
  2
ByLayer
 70
     0
  3

 72
    65
 73
     0
 40
0.0
  0
LTYPE
  5
16
330
5
100
AcDbSymbolTableRecord
100
AcDbLinetypeTableRecord
  2
Continuous
 70
     0
  3
Solid line
 72
    65
 73
     0
 40
0.0
  0
LTYPE
  5
26A
330
5
100
AcDbSymbolTableRecord
100
AcDbLinetypeTableRecord
  2
DASHDOT
 70
     0
  3
Dash dot __ . __ . __ . __ . __ . __ . __ . __
 72
    65
 73
     4
 40
25.4
 49
12.7
 74
     0
 49
-6.349999999999999
 74
     0
 49
0.0
 74
     0
 49
-6.349999999999999
 74
     0
  0
LTYPE
  5
26B
330
5
100
AcDbSymbolTableRecord
100
AcDbLinetypeTableRecord
  2
HIDDEN
 70
     0
  3
Hidden __ __ __ __ __ __ __ __ __ __ __ __ __ _
 72
    65
 73
     2
 40
9.524999999999998
 49
6.349999999999999
 74
     0
 49
-3.174999999999999
 74
     0
  0
ENDTAB
  0
TABLE
  2
LAYER
  5
2
330
0
100
AcDbSymbolTable
 70
    11
  0
LAYER
  5
10
330
2
100
AcDbSymbolTableRecord
100
AcDbLayerTableRecord
  2
0
 70
     0
 62
     7
  6
Continuous
370
    -3
390
F
  0
LAYER
  5
26C
330
2
100
AcDbSymbolTableRecord
100
AcDbLayerTableRecord
  2
1
 70
     0
 62
     1
  6
Continuous
370
    -3
390
F
  0
LAYER
  5
26D
330
2
100
AcDbSymbolTableRecord
100
AcDbLayerTableRecord
  2
2
 70
     0
 62
     2
  6
Continuous
370
    -3
390
F
  0
LAYER
  5
26E
330
2
100
AcDbSymbolTableRecord
100
AcDbLayerTableRecord
  2
4
 70
     0
 62
     4
  6
Continuous
370
    -3
390
F
  0
LAYER
  5
26F
330
2
100
AcDbSymbolTableRecord
100
AcDbLayerTableRecord
  2
cen
 70
     0
 62
     7
  6
DASHDOT
370
    -3
390
F
  0
LAYER
  5
270
330
2
100
AcDbSymbolTableRecord
100
AcDbLayerTableRecord
  2
hatch
 70
     0
 62
     9
  6
Continuous
370
    -3
390
F
  0
LAYER
  5
271
330
2
100
AcDbSymbolTableRecord
100
AcDbLayerTableRecord
  2
9
 70
     0
 62
     9
  6
Continuous
370
    -3
390
F
  0
LAYER
  5
272
330
2
100
AcDbSymbolTableRecord
100
AcDbLayerTableRecord
  2
cotas
 70
     0
 62
     1
  6
Continuous
370
    -3
390
F
  0
LAYER
  5
273
330
2
100
AcDbSymbolTableRecord
100
AcDbLayerTableRecord
  2
Defpoints
 70
     0
 62
     7
  6
Continuous
290
     0
370
    -3
390
F
  0
LAYER
  5
274
330
2
100
AcDbSymbolTableRecord
100
AcDbLayerTableRecord
  2
SANINDUSA
 70
     0
 62
     3
  6
Continuous
370
    -3
390
F
  0
LAYER
  5
275
330
2
100
AcDbSymbolTableRecord
100
AcDbLayerTableRecord
  2
hid1
 70
     0
 62
     9
  6
HIDDEN
370
    -3
390
F
1001
AcAecLayerStandard
1000

1000

  0
ENDTAB
  0
TABLE
  2
STYLE
  5
3
330
0
100
AcDbSymbolTable
 70
     2
  0
STYLE
  5
11
330
3
100
AcDbSymbolTableRecord
100
AcDbTextStyleTableRecord
  2
Standard
 70
     0
 40
0.0
 41
1.0
 50
0.0
 71
     0
 42
2.5
  3
txt
  4

  0
STYLE
  5
276
330
3
100
AcDbSymbolTableRecord
100
AcDbTextStyleTableRecord
  2
SANINDUSA
 70
     0
 40
0.0
 41
1.0
 50
0.0
 71
     0
 42
2.5
  3
verdana.TTF
  4

1001
ACAD
1000
Verdana
1071
       34
  0
ENDTAB
  0
TABLE
  2
VIEW
  5
6
330
0
100
AcDbSymbolTable
 70
     0
  0
ENDTAB
  0
TABLE
  2
UCS
  5
7
330
0
100
AcDbSymbolTable
 70
     0
  0
ENDTAB
  0
TABLE
  2
APPID
  5
9
330
0
100
AcDbSymbolTable
 70
     7
  0
APPID
  5
12
330
9
100
AcDbSymbolTableRecord
100
AcDbRegAppTableRecord
  2
ACAD
 70
     0
  0
APPID
  5
278
330
9
100
AcDbSymbolTableRecord
100
AcDbRegAppTableRecord
  2
ACAD_DSTYLE_DIMEXT_LENGTH
 70
     0
  0
APPID
  5
279
330
9
100
AcDbSymbolTableRecord
100
AcDbRegAppTableRecord
  2
ACAD_DSTYLE_DIMEXT_ENABLED
 70
     0
  0
APPID
  5
27A
330
9
100
AcDbSymbolTableRecord
100
AcDbRegAppTableRecord
  2
ACAD_DSTYLE_DIMJOGGED_JOGANGLE_SYMBOL
 70
     0
  0
APPID
  5
27B
330
9
100
AcDbSymbolTableRecord
100
AcDbRegAppTableRecord
  2
ACAD_DSTYLE_DIMARC_LENGTH_SYMBOL
 70
     0
  0
APPID
  5
27C
330
9
100
AcDbSymbolTableRecord
100
AcDbRegAppTableRecord
  2
AcAecLayerStandard
 70
     0
  0
APPID
  5
27D
330
9
100
AcDbSymbolTableRecord
100
AcDbRegAppTableRecord
  2
DCO15
 70
     0
  0
ENDTAB
  0
TABLE
  2
DIMSTYLE
  5
A
330
0
100
AcDbSymbolTable
 70
     2
100
AcDbDimStyleTable
 71
     0
  0
DIMSTYLE
105
2B
330
A
100
AcDbSymbolTableRecord
100
AcDbDimStyleTableRecord
  2
ISO-25
 70
     0
 41
2.5
 42
0.625
 43
3.75
 44
1.25
 73
     0
 74
     0
 77
     1
 78
     8
140
2.5
141
2.5
143
0.03937007874016
147
0.625
171
     3
172
     1
271
     2
272
     2
274
     3
278
    44
283
     0
284
     8
340
11
  0
DIMSTYLE
105
277
102
{ACAD_REACTORS
330
2A4
330
2A7
330
2AA
330
2AD
330
2AE
330
2AF
330
2B2
330
2B5
330
2B8
330
2BB
330
2BC
330
2BF
330
2C2
330
49A
330
49D
330
480
330
483
330
486
330
48F
330
490
330
493
330
494
330
497
330
4AC
330
4AF
330
4B2
330
4B5
330
4B8
330
4BB
330
4BE
330
4C1
330
4C4
330
4C7
330
4CA
330
4D5
330
4D8
330
4DB
330
4DC
330
4DF
330
4E2
330
4E5
330
4E8
330
4EB
330
4EE
330
4F1
330
4F5
330
511
330
514
102
}
330
A
100
AcDbSymbolTableRecord
100
AcDbDimStyleTableRecord
  2
SANINDUSA
 70
     0
 40
5.0
 41
2.0
 42
1.0
 43
1.0
 44
1.0
 73
     0
 74
     0
 77
     1
 78
     8
140
2.0
141
0.0
143
0.03937007874016
147
1.0
171
     3
172
     1
176
   256
177
   256
178
   256
179
     1
271
     1
272
     1
274
     3
278
    44
283
     0
284
     8
340
276
371
    -1
372
    -1
1001
ACAD_DSTYLE_DIMEXT_LENGTH
1070
   378
1040
1.0
1001
ACAD_DSTYLE_DIMEXT_ENABLED
1070
   383
1070
     0
1001
ACAD_DSTYLE_DIMARC_LENGTH_SYMBOL
1070
   379
1070
     0
1001
ACAD_DSTYLE_DIMJOGGED_JOGANGLE_SYMBOL
1070
   384
1040
1.570796326794896
  0
ENDTAB
  0
TABLE
  2
BLOCK_RECORD
  5
1
330
0
100
AcDbSymbolTable
 70
    98
  0
BLOCK_RECORD
  5
23
330
1
100
AcDbSymbolTableRecord
100
AcDbBlockTableRecord
  2
*Model_Space
340
26
  0
BLOCK_RECORD
  5
1F
330
1
100
AcDbSymbolTableRecord
100
AcDbBlockTableRecord
  2
*Paper_Space
340
22
  0
BLOCK_RECORD
  5
27
330
1
100
AcDbSymbolTableRecord
100
AcDbBlockTableRecord
  2
*Paper_Space0
340
2A
  0
BLOCK_RECORD
  5
2F
330
1
100
AcDbSymbolTableRecord
100
AcDbBlockTableRecord
  2
*D1
340
0
  0
BLOCK_RECORD
  5
3B
330
1
100
AcDbSymbolTableRecord
100
AcDbBlockTableRecord
  2
*D2
340
0
  0
BLOCK_RECORD
  5
49
330
1
100
AcDbSymbolTableRecord
100
AcDbBlockTableRecord
  2
*D3
340
0
  0
BLOCK_RECORD
  5
57
330
1
100
AcDbSymbolTableRecord
100
AcDbBlockTableRecord
  2
*D4
340
0
  0
BLOCK_RECORD
  5
63
330
1
100
AcDbSymbolTableRecord
100
AcDbBlockTableRecord
  2
*D5
340
0
  0
BLOCK_RECORD
  5
6F
330
1
100
AcDbSymbolTableRecord
100
AcDbBlockTableRecord
  2
*D6
340
0
  0
BLOCK_RECORD
  5
7B
330
1
100
AcDbSymbolTableRecord
100
AcDbBlockTableRecord
  2
*D7
340
0
  0
BLOCK_RECORD
  5
87
330
1
100
AcDbSymbolTableRecord
100
AcDbBlockTableRecord
  2
*D8
340
0
  0
BLOCK_RECORD
  5
93
330
1
100
AcDbSymbolTableRecord
100
AcDbBlockTableRecord
  2
*D9
340
0
  0
BLOCK_RECORD
  5
A1
330
1
100
AcDbSymbolTableRecord
100
AcDbBlockTableRecord
  2
*D10
340
0
  0
BLOCK_RECORD
  5
AD
330
1
100
AcDbSymbolTableRecord
100
AcDbBlockTableRecord
  2
*D11
340
0
  0
BLOCK_RECORD
  5
B9
330
1
100
AcDbSymbolTableRecord
100
AcDbBlockTableRecord
  2
*D12
340
0
  0
BLOCK_RECORD
  5
C5
330
1
100
AcDbSymbolTableRecord
100
AcDbBlockTableRecord
  2
*D13
340
0
  0
BLOCK_RECORD
  5
CE
330
1
100
AcDbSymbolTableRecord
100
AcDbBlockTableRecord
  2
*D14
340
0
  0
BLOCK_RECORD
  5
DA
330
1
100
AcDbSymbolTableRecord
100
AcDbBlockTableRecord
  2
*D15
340
0
  0
BLOCK_RECORD
  5
E6
330
1
100
AcDbSymbolTableRecord
100
AcDbBlockTableRecord
  2
*D16
340
0
  0
BLOCK_RECORD
  5
F2
330
1
100
AcDbSymbolTableRecord
100
AcDbBlockTableRecord
  2
*D17
340
0
  0
BLOCK_RECORD
  5
FE
330
1
100
AcDbSymbolTableRecord
100
AcDbBlockTableRecord
  2
*D18
340
0
  0
BLOCK_RECORD
  5
10A
330
1
100
AcDbSymbolTableRecord
100
AcDbBlockTableRecord
  2
*D19
340
0
  0
BLOCK_RECORD
  5
116
330
1
100
AcDbSymbolTableRecord
100
AcDbBlockTableRecord
  2
*D20
340
0
  0
BLOCK_RECORD
  5
122
330
1
100
AcDbSymbolTableRecord
100
AcDbBlockTableRecord
  2
*D21
340
0
  0
BLOCK_RECORD
  5
12E
330
1
100
AcDbSymbolTableRecord
100
AcDbBlockTableRecord
  2
*D22
340
0
  0
BLOCK_RECORD
  5
13A
330
1
100
AcDbSymbolTableRecord
100
AcDbBlockTableRecord
  2
*D23
340
0
  0
BLOCK_RECORD
  5
146
330
1
100
AcDbSymbolTableRecord
100
AcDbBlockTableRecord
  2
*D24
340
0
  0
BLOCK_RECORD
  5
152
330
1
100
AcDbSymbolTableRecord
100
AcDbBlockTableRecord
  2
*D25
340
0
  0
BLOCK_RECORD
  5
15E
330
1
100
AcDbSymbolTableRecord
100
AcDbBlockTableRecord
  2
*D26
340
0
  0
BLOCK_RECORD
  5
16A
330
1
100
AcDbSymbolTableRecord
100
AcDbBlockTableRecord
  2
*D27
340
0
  0
BLOCK_RECORD
  5
176
330
1
100
AcDbSymbolTableRecord
100
AcDbBlockTableRecord
  2
*D28
340
0
  0
BLOCK_RECORD
  5
182
330
1
100
AcDbSymbolTableRecord
100
AcDbBlockTableRecord
  2
*D29
340
0
  0
BLOCK_RECORD
  5
18E
330
1
100
AcDbSymbolTableRecord
100
AcDbBlockTableRecord
  2
*D30
340
0
  0
BLOCK_RECORD
  5
19A
330
1
100
AcDbSymbolTableRecord
100
AcDbBlockTableRecord
  2
*D31
340
0
  0
BLOCK_RECORD
  5
1A6
330
1
100
AcDbSymbolTableRecord
100
AcDbBlockTableRecord
  2
*D32
340
0
  0
BLOCK_RECORD
  5
1B2
330
1
100
AcDbSymbolTableRecord
100
AcDbBlockTableRecord
  2
*D33
340
0
  0
BLOCK_RECORD
  5
1C0
330
1
100
AcDbSymbolTableRecord
100
AcDbBlockTableRecord
  2
*D34
340
0
  0
BLOCK_RECORD
  5
1CE
330
1
100
AcDbSymbolTableRecord
100
AcDbBlockTableRecord
  2
*D35
340
0
  0
BLOCK_RECORD
  5
1DA
330
1
100
AcDbSymbolTableRecord
100
AcDbBlockTableRecord
  2
*D36
340
0
  0
BLOCK_RECORD
  5
1E7
330
1
100
AcDbSymbolTableRecord
100
AcDbBlockTableRecord
  2
*D37
340
0
  0
BLOCK_RECORD
  5
1F4
330
1
100
AcDbSymbolTableRecord
100
AcDbBlockTableRecord
  2
*D38
340
0
  0
BLOCK_RECORD
  5
200
330
1
100
AcDbSymbolTableRecord
100
AcDbBlockTableRecord
  2
*D39
340
0
  0
BLOCK_RECORD
  5
20E
330
1
100
AcDbSymbolTableRecord
100
AcDbBlockTableRecord
  2
*D40
340
0
  0
BLOCK_RECORD
  5
217
330
1
100
AcDbSymbolTableRecord
100
AcDbBlockTableRecord
  2
*D41
340
0
  0
BLOCK_RECORD
  5
21F
330
1
100
AcDbSymbolTableRecord
100
AcDbBlockTableRecord
  2
*D42
340
0
  0
BLOCK_RECORD
  5
227
330
1
100
AcDbSymbolTableRecord
100
AcDbBlockTableRecord
  2
*D43
340
0
  0
BLOCK_RECORD
  5
22F
330
1
100
AcDbSymbolTableRecord
100
AcDbBlockTableRecord
  2
*D44
340
0
  0
BLOCK_RECORD
  5
238
330
1
100
AcDbSymbolTableRecord
100
AcDbBlockTableRecord
  2
*D45
340
0
  0
BLOCK_RECORD
  5
240
330
1
100
AcDbSymbolTableRecord
100
AcDbBlockTableRecord
  2
*D46
340
0
  0
BLOCK_RECORD
  5
24E
330
1
100
AcDbSymbolTableRecord
100
AcDbBlockTableRecord
  2
*D47
340
0
  0
BLOCK_RECORD
  5
25C
330
1
100
AcDbSymbolTableRecord
100
AcDbBlockTableRecord
  2
*D48
340
0
  0
BLOCK_RECORD
  5
7B5
330
1
100
AcDbSymbolTableRecord
100
AcDbBlockTableRecord
  2
*D50
340
0
  0
BLOCK_RECORD
  5
7C1
330
1
100
AcDbSymbolTableRecord
100
AcDbBlockTableRecord
  2
*D51
340
0
  0
BLOCK_RECORD
  5
7CD
330
1
100
AcDbSymbolTableRecord
100
AcDbBlockTableRecord
  2
*D52
340
0
  0
BLOCK_RECORD
  5
7D9
330
1
100
AcDbSymbolTableRecord
100
AcDbBlockTableRecord
  2
*D53
340
0
  0
BLOCK_RECORD
  5
7E6
330
1
100
AcDbSymbolTableRecord
100
AcDbBlockTableRecord
  2
*D54
340
0
  0
BLOCK_RECORD
  5
7F2
330
1
100
AcDbSymbolTableRecord
100
AcDbBlockTableRecord
  2
*D55
340
0
  0
BLOCK_RECORD
  5
7FE
330
1
100
AcDbSymbolTableRecord
100
AcDbBlockTableRecord
  2
*D56
340
0
  0
BLOCK_RECORD
  5
80A
330
1
100
AcDbSymbolTableRecord
100
AcDbBlockTableRecord
  2
*D57
340
0
  0
BLOCK_RECORD
  5
816
330
1
100
AcDbSymbolTableRecord
100
AcDbBlockTableRecord
  2
*D58
340
0
  0
BLOCK_RECORD
  5
822
330
1
100
AcDbSymbolTableRecord
100
AcDbBlockTableRecord
  2
*D59
340
0
  0
BLOCK_RECORD
  5
837
330
1
100
AcDbSymbolTableRecord
100
AcDbBlockTableRecord
  2
*D60
340
0
  0
BLOCK_RECORD
  5
84C
330
1
100
AcDbSymbolTableRecord
100
AcDbBlockTableRecord
  2
*D61
340
0
  0
BLOCK_RECORD
  5
858
330
1
100
AcDbSymbolTableRecord
100
AcDbBlockTableRecord
  2
*D62
340
0
  0
BLOCK_RECORD
  5
864
330
1
100
AcDbSymbolTableRecord
100
AcDbBlockTableRecord
  2
*D63
340
0
  0
BLOCK_RECORD
  5
879
330
1
100
AcDbSymbolTableRecord
100
AcDbBlockTableRecord
  2
*D64
340
0
  0
BLOCK_RECORD
  5
885
330
1
100
AcDbSymbolTableRecord
100
AcDbBlockTableRecord
  2
*D65
340
0
  0
BLOCK_RECORD
  5
891
330
1
100
AcDbSymbolTableRecord
100
AcDbBlockTableRecord
  2
*D66
340
0
  0
BLOCK_RECORD
  5
89D
330
1
100
AcDbSymbolTableRecord
100
AcDbBlockTableRecord
  2
*D67
340
0
  0
BLOCK_RECORD
  5
8A9
330
1
100
AcDbSymbolTableRecord
100
AcDbBlockTableRecord
  2
*D68
340
0
  0
BLOCK_RECORD
  5
8B5
330
1
100
AcDbSymbolTableRecord
100
AcDbBlockTableRecord
  2
*D69
340
0
  0
BLOCK_RECORD
  5
8C1
330
1
100
AcDbSymbolTableRecord
100
AcDbBlockTableRecord
  2
*D70
340
0
  0
BLOCK_RECORD
  5
8CD
330
1
100
AcDbSymbolTableRecord
100
AcDbBlockTableRecord
  2
*D71
340
0
  0
BLOCK_RECORD
  5
8D9
330
1
100
AcDbSymbolTableRecord
100
AcDbBlockTableRecord
  2
*D72
340
0
  0
BLOCK_RECORD
  5
8E5
330
1
100
AcDbSymbolTableRecord
100
AcDbBlockTableRecord
  2
*D73
340
0
  0
BLOCK_RECORD
  5
8F3
330
1
100
AcDbSymbolTableRecord
100
AcDbBlockTableRecord
  2
*D74
340
0
  0
BLOCK_RECORD
  5
901
330
1
100
AcDbSymbolTableRecord
100
AcDbBlockTableRecord
  2
*D75
340
0
  0
BLOCK_RECORD
  5
90D
330
1
100
AcDbSymbolTableRecord
100
AcDbBlockTableRecord
  2
*D76
340
0
  0
BLOCK_RECORD
  5
924
330
1
100
AcDbSymbolTableRecord
100
AcDbBlockTableRecord
  2
*D77
340
0
  0
BLOCK_RECORD
  5
930
330
1
100
AcDbSymbolTableRecord
100
AcDbBlockTableRecord
  2
*D78
340
0
  0
BLOCK_RECORD
  5
93E
330
1
100
AcDbSymbolTableRecord
100
AcDbBlockTableRecord
  2
*D79
340
0
  0
BLOCK_RECORD
  5
947
330
1
100
AcDbSymbolTableRecord
100
AcDbBlockTableRecord
  2
*D80
340
0
  0
BLOCK_RECORD
  5
94F
330
1
100
AcDbSymbolTableRecord
100
AcDbBlockTableRecord
  2
*D81
340
0
  0
BLOCK_RECORD
  5
957
330
1
100
AcDbSymbolTableRecord
100
AcDbBlockTableRecord
  2
*D82
340
0
  0
BLOCK_RECORD
  5
95F
330
1
100
AcDbSymbolTableRecord
100
AcDbBlockTableRecord
  2
*D83
340
0
  0
BLOCK_RECORD
  5
968
330
1
100
AcDbSymbolTableRecord
100
AcDbBlockTableRecord
  2
*D84
340
0
  0
BLOCK_RECORD
  5
970
330
1
100
AcDbSymbolTableRecord
100
AcDbBlockTableRecord
  2
*D85
340
0
  0
BLOCK_RECORD
  5
97E
330
1
100
AcDbSymbolTableRecord
100
AcDbBlockTableRecord
  2
*D86
340
0
  0
BLOCK_RECORD
  5
98C
330
1
100
AcDbSymbolTableRecord
100
AcDbBlockTableRecord
  2
*D87
340
0
  0
BLOCK_RECORD
  5
99A
330
1
100
AcDbSymbolTableRecord
100
AcDbBlockTableRecord
  2
*D88
340
0
  0
BLOCK_RECORD
  5
9A6
330
1
100
AcDbSymbolTableRecord
100
AcDbBlockTableRecord
  2
*D89
340
0
  0
BLOCK_RECORD
  5
9B4
330
1
100
AcDbSymbolTableRecord
100
AcDbBlockTableRecord
  2
*D90
340
0
  0
BLOCK_RECORD
  5
9D4
330
1
100
AcDbSymbolTableRecord
100
AcDbBlockTableRecord
  2
*D91
340
0
  0
BLOCK_RECORD
  5
9E0
330
1
100
AcDbSymbolTableRecord
100
AcDbBlockTableRecord
  2
*D92
340
0
  0
BLOCK_RECORD
  5
9EC
330
1
100
AcDbSymbolTableRecord
100
AcDbBlockTableRecord
  2
*D93
340
0
  0
BLOCK_RECORD
  5
9F8
330
1
100
AcDbSymbolTableRecord
100
AcDbBlockTableRecord
  2
*D94
340
0
  0
BLOCK_RECORD
  5
A0F
330
1
100
AcDbSymbolTableRecord
100
AcDbBlockTableRecord
  2
*D95
340
0
  0
BLOCK_RECORD
  5
A1B
330
1
100
AcDbSymbolTableRecord
100
AcDbBlockTableRecord
  2
*D96
340
0
  0
BLOCK_RECORD
  5
A27
330
1
100
AcDbSymbolTableRecord
100
AcDbBlockTableRecord
  2
*D97
340
0
  0
ENDTAB
  0
ENDSEC
  0
SECTION
  2
BLOCKS
  0
BLOCK
  5
24
330
23
100
AcDbEntity
  8
0
100
AcDbBlockBegin
  2
*Model_Space
 70
     0
 10
0.0
 20
0.0
 30
0.0
  3
*Model_Space
  1

  0
ENDBLK
  5
25
330
23
100
AcDbEntity
  8
0
100
AcDbBlockEnd
  0
BLOCK
  5
20
330
1F
100
AcDbEntity
 67
     1
  8
0
100
AcDbBlockBegin
  2
*Paper_Space
 70
     0
 10
0.0
 20
0.0
 30
0.0
  3
*Paper_Space
  1

  0
ENDBLK
  5
21
330
1F
100
AcDbEntity
 67
     1
  8
0
100
AcDbBlockEnd
  0
BLOCK
  5
28
330
27
100
AcDbEntity
 67
     1
  8
0
100
AcDbBlockBegin
  2
*Paper_Space0
 70
     0
 10
0.0
 20
0.0
 30
0.0
  3
*Paper_Space0
  1

  0
ENDBLK
  5
29
330
27
100
AcDbEntity
 67
     1
  8
0
100
AcDbBlockEnd
  0
BLOCK
  5
30
330
2F
100
AcDbEntity
  8
0
100
AcDbBlockBegin
  2
*D1
 70
     1
 10
0.0
 20
0.0
 30
0.0
  3
*D1
  1

  0
LINE
  5
31
330
2F
100
AcDbEntity
  8
cotas
100
AcDbLine
 10
2236.547947815521
 20
4843.528650177998
 30
0.0
 11
2236.547947815521
 21
4868.528649053622
 31
0.0
  0
LINE
  5
32
330
2F
100
AcDbEntity
  8
cotas
100
AcDbLine
 10
3432.008679503267
 20
4843.528649053622
 30
0.0
 11
3432.008679503267
 21
4868.528649053622
 31
0.0
  0
LINE
  5
33
330
2F
100
AcDbEntity
  8
cotas
100
AcDbLine
 10
2246.547947815521
 20
4863.528649053622
 30
0.0
 11
3422.008679503266
 21
4863.528649053622
 31
0.0
  0
SOLID
  5
34
330
2F
100
AcDbEntity
  8
cotas
100
AcDbTrace
 10
2246.547947815521
 20
4865.195315720288
 30
0.0
 11
2246.547947815521
 21
4861.861982386955
 31
0.0
 12
2236.547947815521
 22
4863.528649053622
 32
0.0
 13
2236.547947815521
 23
4863.528649053622
 33
0.0
  0
SOLID
  5
35
330
2F
100
AcDbEntity
  8
cotas
100
AcDbTrace
 10
3422.008679503266
 20
4865.195315720288
 30
0.0
 11
3422.008679503266
 21
4861.861982386955
 31
0.0
 12
3432.008679503267
 22
4863.528649053622
 32
0.0
 13
3432.008679503267
 23
4863.528649053622
 33
0.0
  0
MTEXT
  5
36
330
2F
100
AcDbEntity
  8
cotas
100
AcDbMText
 10
2834.278313659394
 20
4874.871832398149
 30
0.0
 40
10.0
 41
0.0
 71
     5
 72
     1
  1
1195,5
  7
SANINDUSA
 73
     1
 44
1.0
1001
ACAD
1000
MTEXTBEGIN
1070
    73
1070
     1
1070
    44
1040
1.0
1070
    74
1070
     0
1000
MTEXTEND
  0
POINT
  5
37
330
2F
100
AcDbEntity
  8
Defpoints
 62
     0
100
AcDbPoint
 10
2236.547947815521
 20
4838.528650177998
 30
0.0
  0
POINT
  5
38
330
2F
100
AcDbEntity
  8
Defpoints
 62
     0
100
AcDbPoint
 10
3432.008679503267
 20
4838.528649053621
 30
0.0
  0
POINT
  5
39
330
2F
100
AcDbEntity
  8
Defpoints
 62
     0
100
AcDbPoint
 10
3432.008679503267
 20
4863.528649053622
 30
0.0
  0
ENDBLK
  5
3A
330
2F
100
AcDbEntity
  8
0
100
AcDbBlockEnd
  0
BLOCK
  5
3C
330
3B
100
AcDbEntity
  8
0
100
AcDbBlockBegin
  2
*D2
 70
     1
 10
0.0
 20
0.0
 30
0.0
  3
*D2
  1

  0
LINE
  5
3D
330
3B
100
AcDbEntity
  8
cotas
100
AcDbLine
 10
3432.008679503267
 20
4843.528649053622
 30
0.0
 11
3432.008679503267
 21
4868.528649053622
 31
0.0
  0
LINE
  5
3E
330
3B
100
AcDbEntity
  8
cotas
100
AcDbLine
 10
3434.278313639769
 20
4778.534831061376
 30
0.0
 11
3434.278313639769
 21
4868.528649053622
 31
0.0
  0
LINE
  5
3F
330
3B
100
AcDbEntity
  8
cotas
100
AcDbLine
 10
3422.008679503266
 20
4863.528649053622
 30
0.0
 11
3412.008679503267
 21
4863.528649053622
 31
0.0
  0
LINE
  5
40
330
3B
100
AcDbEntity
  8
cotas
100
AcDbLine
 10
3444.278313639769
 20
4863.528649053622
 30
0.0
 11
3484.654404976236
 21
4863.528649053622
 31
0.0
  0
LINE
  5
41
330
3B
100
AcDbEntity
  8
cotas
100
AcDbLine
 10
3432.008679503267
 20
4863.528649053622
 30
0.0
 11
3434.278313639769
 21
4863.528649053622
 31
0.0
  0
SOLID
  5
42
330
3B
100
AcDbEntity
  8
cotas
100
AcDbTrace
 10
3422.008679503266
 20
4865.195315720288
 30
0.0
 11
3422.008679503266
 21
4861.861982386955
 31
0.0
 12
3432.008679503267
 22
4863.528649053622
 32
0.0
 13
3432.008679503267
 23
4863.528649053622
 33
0.0
  0
SOLID
  5
43
330
3B
100
AcDbEntity
  8
cotas
100
AcDbTrace
 10
3444.278313639769
 20
4865.195315720288
 30
0.0
 11
3444.278313639769
 21
4861.861982386955
 31
0.0
 12
3434.278313639769
 22
4863.528649053622
 32
0.0
 13
3434.278313639769
 23
4863.528649053622
 33
0.0
  0
MTEXT
  5
44
330
3B
100
AcDbEntity
  8
cotas
100
AcDbMText
 10
3469.466359308003
 20
4874.87519035651
 30
0.0
 40
10.0
 41
0.0
 71
     5
 72
     1
  1
2,3
  7
SANINDUSA
 73
     1
 44
1.0
1001
ACAD
1000
MTEXTBEGIN
1070
    73
1070
     1
1070
    44
1040
1.0
1070
    74
1070
     0
1000
MTEXTEND
  0
POINT
  5
45
330
3B
100
AcDbEntity
  8
Defpoints
 62
     0
100
AcDbPoint
 10
3432.008679503267
 20
4838.528649053621
 30
0.0
  0
POINT
  5
46
330
3B
100
AcDbEntity
  8
Defpoints
 62
     0
100
AcDbPoint
 10
3434.278313639769
 20
4773.534831061376
 30
0.0
  0
POINT
  5
47
330
3B
100
AcDbEntity
  8
Defpoints
 62
     0
100
AcDbPoint
 10
3434.278313639769
 20
4863.528649053622
 30
0.0
  0
ENDBLK
  5
48
330
3B
100
AcDbEntity
  8
0
100
AcDbBlockEnd
  0
BLOCK
  5
4A
330
49
100
AcDbEntity
  8
0
100
AcDbBlockBegin
  2
*D3
 70
     1
 10
0.0
 20
0.0
 30
0.0
  3
*D3
  1

  0
LINE
  5
4B
330
49
100
AcDbEntity
  8
cotas
100
AcDbLine
 10
2236.547947815521
 20
4843.528650177998
 30
0.0
 11
2236.547947815521
 21
4868.528649053622
 31
0.0
  0
LINE
  5
4C
330
49
100
AcDbEntity
  8
cotas
100
AcDbLine
 10
2234.278313639769
 20
4778.534831061376
 30
0.0
 11
2234.278313639769
 21
4868.528649053622
 31
0.0
  0
LINE
  5
4D
330
49
100
AcDbEntity
  8
cotas
100
AcDbLine
 10
2246.547947815521
 20
4863.528649053622
 30
0.0
 11
2256.547947815521
 21
4863.528649053622
 31
0.0
  0
LINE
  5
4E
330
49
100
AcDbEntity
  8
cotas
100
AcDbLine
 10
2224.278313639768
 20
4863.528649053622
 30
0.0
 11
2183.902222303301
 21
4863.528649053622
 31
0.0
  0
LINE
  5
4F
330
49
100
AcDbEntity
  8
cotas
100
AcDbLine
 10
2236.547947815521
 20
4863.528649053622
 30
0.0
 11
2234.278313639769
 21
4863.528649053622
 31
0.0
  0
SOLID
  5
50
330
49
100
AcDbEntity
  8
cotas
100
AcDbTrace
 10
2246.547947815521
 20
4865.195315720288
 30
0.0
 11
2246.547947815521
 21
4861.861982386955
 31
0.0
 12
2236.547947815521
 22
4863.528649053622
 32
0.0
 13
2236.547947815521
 23
4863.528649053622
 33
0.0
  0
SOLID
  5
51
330
49
100
AcDbEntity
  8
cotas
100
AcDbTrace
 10
2224.278313639768
 20
4865.195315720288
 30
0.0
 11
2224.278313639768
 21
4861.861982386955
 31
0.0
 12
2234.278313639769
 22
4863.528649053622
 32
0.0
 13
2234.278313639769
 23
4863.528649053622
 33
0.0
  0
MTEXT
  5
52
330
49
100
AcDbEntity
  8
cotas
100
AcDbMText
 10
2199.090267971535
 20
4874.87519035651
 30
0.0
 40
10.0
 41
0.0
 71
     5
 72
     1
  1
2,3
  7
SANINDUSA
 73
     1
 44
1.0
1001
ACAD
1000
MTEXTBEGIN
1070
    73
1070
     1
1070
    44
1040
1.0
1070
    74
1070
     0
1000
MTEXTEND
  0
POINT
  5
53
330
49
100
AcDbEntity
  8
Defpoints
 62
     0
100
AcDbPoint
 10
2236.547947815521
 20
4838.528650177998
 30
0.0
  0
POINT
  5
54
330
49
100
AcDbEntity
  8
Defpoints
 62
     0
100
AcDbPoint
 10
2234.278313639769
 20
4773.534831061376
 30
0.0
  0
POINT
  5
55
330
49
100
AcDbEntity
  8
Defpoints
 62
     0
100
AcDbPoint
 10
2234.278313639769
 20
4863.528649053622
 30
0.0
  0
ENDBLK
  5
56
330
49
100
AcDbEntity
  8
0
100
AcDbBlockEnd
  0
BLOCK
  5
58
330
57
100
AcDbEntity
  8
0
100
AcDbBlockBegin
  2
*D4
 70
     1
 10
0.0
 20
0.0
 30
0.0
  3
*D4
  1

  0
LINE
  5
59
330
57
100
AcDbEntity
  8
cotas
100
AcDbLine
 10
2234.278313639769
 20
4778.534831061376
 30
0.0
 11
2234.278313639769
 21
4893.528649053622
 31
0.0
  0
LINE
  5
5A
330
57
100
AcDbEntity
  8
cotas
100
AcDbLine
 10
3434.278313639769
 20
4778.534831061376
 30
0.0
 11
3434.278313639769
 21
4893.528649053622
 31
0.0
  0
LINE
  5
5B
330
57
100
AcDbEntity
  8
cotas
100
AcDbLine
 10
2244.278313639768
 20
4888.528649053622
 30
0.0
 11
3424.278313639768
 21
4888.528649053622
 31
0.0
  0
SOLID
  5
5C
330
57
100
AcDbEntity
  8
cotas
100
AcDbTrace
 10
2244.278313639768
 20
4890.195315720289
 30
0.0
 11
2244.278313639768
 21
4886.861982386955
 31
0.0
 12
2234.278313639769
 22
4888.528649053622
 32
0.0
 13
2234.278313639769
 23
4888.528649053622
 33
0.0
  0
SOLID
  5
5D
330
57
100
AcDbEntity
  8
cotas
100
AcDbTrace
 10
3424.278313639768
 20
4890.195315720289
 30
0.0
 11
3424.278313639768
 21
4886.861982386955
 31
0.0
 12
3434.278313639769
 22
4888.528649053622
 32
0.0
 13
3434.278313639769
 23
4888.528649053622
 33
0.0
  0
MTEXT
  5
5E
330
57
100
AcDbEntity
  8
cotas
100
AcDbMText
 10
2834.278313639769
 20
4898.736842472024
 30
0.0
 40
10.0
 41
0.0
 71
     5
 72
     1
  1
1200
  7
SANINDUSA
 73
     1
 44
1.0
1001
ACAD
1000
MTEXTBEGIN
1070
    73
1070
     1
1070
    44
1040
1.0
1070
    74
1070
     0
1000
MTEXTEND
  0
POINT
  5
5F
330
57
100
AcDbEntity
  8
Defpoints
 62
     0
100
AcDbPoint
 10
2234.278313639769
 20
4773.534831061376
 30
0.0
  0
POINT
  5
60
330
57
100
AcDbEntity
  8
Defpoints
 62
     0
100
AcDbPoint
 10
3434.278313639769
 20
4773.534831061376
 30
0.0
  0
POINT
  5
61
330
57
100
AcDbEntity
  8
Defpoints
 62
     0
100
AcDbPoint
 10
3434.278313639769
 20
4888.528649053622
 30
0.0
  0
ENDBLK
  5
62
330
57
100
AcDbEntity
  8
0
100
AcDbBlockEnd
  0
BLOCK
  5
64
330
63
100
AcDbEntity
  8
0
100
AcDbBlockBegin
  2
*D5
 70
     1
 10
0.0
 20
0.0
 30
0.0
  3
*D5
  1

  0
LINE
  5
65
330
63
100
AcDbEntity
  8
cotas
100
AcDbLine
 10
3437.008679503267
 20
4838.528649053621
 30
0.0
 11
3464.278313639769
 21
4838.528649053621
 31
0.0
  0
LINE
  5
66
330
63
100
AcDbEntity
  8
cotas
100
AcDbLine
 10
3439.278313639768
 20
4773.534831061376
 30
0.0
 11
3464.278313639769
 21
4773.534831061376
 31
0.0
  0
LINE
  5
67
330
63
100
AcDbEntity
  8
cotas
100
AcDbLine
 10
3459.278313639769
 20
4828.528649053622
 30
0.0
 11
3459.278313639769
 21
4783.534831061376
 31
0.0
  0
SOLID
  5
68
330
63
100
AcDbEntity
  8
cotas
100
AcDbTrace
 10
3457.611646973102
 20
4828.528649053622
 30
0.0
 11
3460.944980306435
 21
4828.528649053622
 31
0.0
 12
3459.278313639769
 22
4838.528649053621
 32
0.0
 13
3459.278313639769
 23
4838.528649053621
 33
0.0
  0
SOLID
  5
69
330
63
100
AcDbEntity
  8
cotas
100
AcDbTrace
 10
3457.611646973102
 20
4783.534831061376
 30
0.0
 11
3460.944980306435
 21
4783.534831061376
 31
0.0
 12
3459.278313639769
 22
4773.534831061376
 32
0.0
 13
3459.278313639769
 23
4773.534831061376
 33
0.0
  0
MTEXT
  5
6A
330
63
100
AcDbEntity
  8
cotas
100
AcDbMText
 10
3449.08019409645
 20
4806.0317400575
 30
0.0
 40
10.0
 41
0.0
 71
     5
 72
     1
  1
65
  7
SANINDUSA
 11
0.0000000000000001
 21
1.0
 31
0.0
 73
     1
 44
1.0
1001
ACAD
1000
MTEXTBEGIN
1070
    73
1070
     1
1070
    44
1040
1.0
1070
    74
1070
     0
1000
MTEXTEND
  0
POINT
  5
6B
330
63
100
AcDbEntity
  8
Defpoints
 62
     0
100
AcDbPoint
 10
3432.008679503267
 20
4838.528649053621
 30
0.0
  0
POINT
  5
6C
330
63
100
AcDbEntity
  8
Defpoints
 62
     0
100
AcDbPoint
 10
3434.278313639769
 20
4773.534831061376
 30
0.0
  0
POINT
  5
6D
330
63
100
AcDbEntity
  8
Defpoints
 62
     0
100
AcDbPoint
 10
3459.278313639769
 20
4773.534831061376
 30
0.0
  0
ENDBLK
  5
6E
330
63
100
AcDbEntity
  8
0
100
AcDbBlockEnd
  0
BLOCK
  5
70
330
6F
100
AcDbEntity
  8
0
100
AcDbBlockBegin
  2
*D6
 70
     1
 10
0.0
 20
0.0
 30
0.0
  3
*D6
  1

  0
ARC
  5
71
330
6F
100
AcDbEntity
  8
cotas
100
AcDbCircle
 10
3434.278313639769
 20
4773.534831061374
 30
0.0
 40
47.23322968650343
100
AcDbArc
 50
104.1531665498829
 51
167.8468334501219
  0
SOLID
  5
72
330
6F
100
AcDbEntity
  8
cotas
100
AcDbTrace
 10
3422.494925086323
 20
4820.984456823754
 30
0.0
 11
3422.963247081489
 21
4817.684186286363
 31
0.0
 12
3432.629897696072
 22
4820.739287540553
 32
0.0
 13
3432.629897696072
 23
4820.739287540553
 33
0.0
  0
SOLID
  5
73
330
6F
100
AcDbEntity
  8
cotas
100
AcDbTrace
 10
3389.760962881068
 20
4783.302214509736
 30
0.0
 11
3386.446358577394
 21
4783.655073435057
 31
0.0
 12
3387.045083953264
 22
4773.534831061376
 32
0.0
 13
3387.045083953264
 23
4773.534831061376
 33
0.0
  0
MTEXT
  5
74
330
6F
100
AcDbEntity
  8
cotas
100
AcDbMText
 10
3392.132306333083
 20
4814.234757220376
 30
0.0
 40
10.0
 41
0.0
 71
     5
 72
     1
  1
88,0°
  7
SANINDUSA
 11
0.6946583704589663
 21
0.7193398003386812
 31
0.0
 73
     1
 44
1.0
1001
ACAD
1000
MTEXTBEGIN
1070
    73
1070
     1
1070
    44
1040
1.0
1070
    74
1070
     0
1000
MTEXTEND
  0
POINT
  5
75
330
6F
100
AcDbEntity
  8
Defpoints
 62
     0
100
AcDbPoint
 10
3409.7162724286
 20
4813.879398454754
 30
0.0
  0
POINT
  5
76
330
6F
100
AcDbEntity
  8
Defpoints
 62
     0
100
AcDbPoint
 10
2239.281361361258
 20
4773.534831061376
 30
0.0
  0
POINT
  5
77
330
6F
100
AcDbEntity
  8
Defpoints
 62
     0
100
AcDbPoint
 10
3432.177189657414
 20
4833.703149598746
 30
0.0
  0
POINT
  5
78
330
6F
100
AcDbEntity
  8
Defpoints
 62
     0
100
AcDbPoint
 10
3434.278313639769
 20
4773.534831061374
 30
0.0
  0
POINT
  5
79
330
6F
100
AcDbEntity
  8
Defpoints
 62
     0
100
AcDbPoint
 10
3429.275265918263
 20
4773.534831061376
 30
0.0
  0
ENDBLK
  5
7A
330
6F
100
AcDbEntity
  8
0
100
AcDbBlockEnd
  0
BLOCK
  5
7C
330
7B
100
AcDbEntity
  8
0
100
AcDbBlockBegin
  2
*D7
 70
     1
 10
0.0
 20
0.0
 30
0.0
  3
*D7
  1

  0
ARC
  5
7D
330
7B
100
AcDbEntity
  8
cotas
100
AcDbCircle
 10
2234.278313639769
 20
4773.534831061377
 30
0.0
 40
50.29764352441338
100
AcDbArc
 50
11.41019016728356
 51
76.58980983272283
  0
SOLID
  5
7E
330
7B
100
AcDbEntity
  8
cotas
100
AcDbTrace
 10
2285.240286030905
 20
4783.650978793326
 30
0.0
 11
2281.923463584504
 21
4783.319618007833
 31
0.0
 12
2284.575957164182
 22
4773.534831061377
 32
0.0
 13
2284.575957164182
 23
4773.534831061377
 33
0.0
  0
SOLID
  5
7F
330
7B
100
AcDbEntity
  8
cotas
100
AcDbTrace
 10
2245.719931711775
 20
4820.809472728324
 30
0.0
 11
2246.16684607526
 21
4824.112710331467
 31
0.0
 12
2236.033676084087
 22
4823.801834620351
 32
0.0
 13
2236.033676084087
 23
4823.801834620351
 33
0.0
  0
MTEXT
  5
80
330
7B
100
AcDbEntity
  8
cotas
100
AcDbMText
 10
2278.628675784768
 20
4816.363477943435
 30
0.0
 40
10.0
 41
0.0
 71
     5
 72
     1
  1
88,0°
  7
SANINDUSA
 11
0.6946583704590381
 21
-0.719339800338612
 31
0.0
 73
     1
 44
1.0
1001
ACAD
1000
MTEXTBEGIN
1070
    73
1070
     1
1070
    44
1040
1.0
1070
    74
1070
     0
1000
MTEXTEND
  0
POINT
  5
81
330
7B
100
AcDbEntity
  8
Defpoints
 62
     0
100
AcDbPoint
 10
2278.127015310027
 20
4798.175129475593
 30
0.0
  0
POINT
  5
82
330
7B
100
AcDbEntity
  8
Defpoints
 62
     0
100
AcDbPoint
 10
2234.278313639769
 20
4773.534831061376
 30
0.0
  0
POINT
  5
83
330
7B
100
AcDbEntity
  8
Defpoints
 62
     0
100
AcDbPoint
 10
2239.281361361258
 20
4773.534831061377
 30
0.0
  0
POINT
  5
84
330
7B
100
AcDbEntity
  8
Defpoints
 62
     0
100
AcDbPoint
 10
3429.275265918265
 20
4773.534831061377
 30
0.0
  0
POINT
  5
85
330
7B
100
AcDbEntity
  8
Defpoints
 62
     0
100
AcDbPoint
 10
2236.379437621746
 20
4833.703149588282
 30
0.0
  0
ENDBLK
  5
86
330
7B
100
AcDbEntity
  8
0
100
AcDbBlockEnd
  0
BLOCK
  5
88
330
87
100
AcDbEntity
  8
0
100
AcDbBlockBegin
  2
*D8
 70
     1
 10
0.0
 20
0.0
 30
0.0
  3
*D8
  1

  0
LINE
  5
89
330
87
100
AcDbEntity
  8
cotas
100
AcDbLine
 10
3776.327387057969
 20
4843.526812277666
 30
0.0
 11
3776.327387057969
 21
4868.528649043145
 31
0.0
  0
LINE
  5
8A
330
87
100
AcDbEntity
  8
cotas
100
AcDbLine
 10
4524.057817063111
 20
4838.528651537024
 30
0.0
 11
4524.057817063111
 21
4868.528649043145
 31
0.0
  0
LINE
  5
8B
330
87
100
AcDbEntity
  8
cotas
100
AcDbLine
 10
3786.327387057969
 20
4863.528649043145
 30
0.0
 11
4514.05781706311
 21
4863.528649043145
 31
0.0
  0
SOLID
  5
8C
330
87
100
AcDbEntity
  8
cotas
100
AcDbTrace
 10
3786.327387057969
 20
4865.195315709812
 30
0.0
 11
3786.327387057969
 21
4861.861982376479
 31
0.0
 12
3776.327387057969
 22
4863.528649043145
 32
0.0
 13
3776.327387057969
 23
4863.528649043145
 33
0.0
  0
SOLID
  5
8D
330
87
100
AcDbEntity
  8
cotas
100
AcDbTrace
 10
4514.05781706311
 20
4865.195315709812
 30
0.0
 11
4514.05781706311
 21
4861.861982376479
 31
0.0
 12
4524.057817063111
 22
4863.528649043145
 32
0.0
 13
4524.057817063111
 23
4863.528649043145
 33
0.0
  0
MTEXT
  5
8E
330
87
100
AcDbEntity
  8
cotas
100
AcDbMText
 10
4150.192602060539
 20
4874.771093636832
 30
0.0
 40
10.0
 41
0.0
 71
     5
 72
     1
  1
747,7
  7
SANINDUSA
 73
     1
 44
1.0
1001
ACAD
1000
MTEXTBEGIN
1070
    73
1070
     1
1070
    44
1040
1.0
1070
    74
1070
     0
1000
MTEXTEND
  0
POINT
  5
8F
330
87
100
AcDbEntity
  8
Defpoints
 62
     0
100
AcDbPoint
 10
3776.327387057969
 20
4838.526812277667
 30
0.0
  0
POINT
  5
90
330
87
100
AcDbEntity
  8
Defpoints
 62
     0
100
AcDbPoint
 10
4524.057817063111
 20
4833.528651537023
 30
0.0
  0
POINT
  5
91
330
87
100
AcDbEntity
  8
Defpoints
 62
     0
100
AcDbPoint
 10
4524.057817063111
 20
4863.528649043145
 30
0.0
  0
ENDBLK
  5
92
330
87
100
AcDbEntity
  8
0
100
AcDbBlockEnd
  0
BLOCK
  5
94
330
93
100
AcDbEntity
  8
0
100
AcDbBlockBegin
  2
*D9
 70
     1
 10
0.0
 20
0.0
 30
0.0
  3
*D9
  1

  0
LINE
  5
95
330
93
100
AcDbEntity
  8
cotas
100
AcDbLine
 10
3776.327387057969
 20
4843.526812277666
 30
0.0
 11
3776.327387057969
 21
4868.528649043145
 31
0.0
  0
LINE
  5
96
330
93
100
AcDbEntity
  8
cotas
100
AcDbLine
 10
3774.057817063106
 20
4778.534831061376
 30
0.0
 11
3774.057817063106
 21
4868.528649043145
 31
0.0
  0
LINE
  5
97
330
93
100
AcDbEntity
  8
cotas
100
AcDbLine
 10
3786.327387057969
 20
4863.528649043145
 30
0.0
 11
3796.327387057969
 21
4863.528649043145
 31
0.0
  0
LINE
  5
98
330
93
100
AcDbEntity
  8
cotas
100
AcDbLine
 10
3764.057817063105
 20
4863.528649043145
 30
0.0
 11
3723.681725726637
 21
4863.528649043145
 31
0.0
  0
LINE
  5
99
330
93
100
AcDbEntity
  8
cotas
100
AcDbLine
 10
3776.327387057969
 20
4863.528649043145
 30
0.0
 11
3774.057817063106
 21
4863.528649043145
 31
0.0
  0
SOLID
  5
9A
330
93
100
AcDbEntity
  8
cotas
100
AcDbTrace
 10
3786.327387057969
 20
4865.195315709812
 30
0.0
 11
3786.327387057969
 21
4861.861982376479
 31
0.0
 12
3776.327387057969
 22
4863.528649043145
 32
0.0
 13
3776.327387057969
 23
4863.528649043145
 33
0.0
  0
SOLID
  5
9B
330
93
100
AcDbEntity
  8
cotas
100
AcDbTrace
 10
3764.057817063105
 20
4865.195315709812
 30
0.0
 11
3764.057817063105
 21
4861.861982376479
 31
0.0
 12
3774.057817063106
 22
4863.528649043145
 32
0.0
 13
3774.057817063106
 23
4863.528649043145
 33
0.0
  0
MTEXT
  5
9C
330
93
100
AcDbEntity
  8
cotas
100
AcDbMText
 10
3738.869771394872
 20
4874.875190346034
 30
0.0
 40
10.0
 41
0.0
 71
     5
 72
     1
  1
2,3
  7
SANINDUSA
 73
     1
 44
1.0
1001
ACAD
1000
MTEXTBEGIN
1070
    73
1070
     1
1070
    44
1040
1.0
1070
    74
1070
     0
1000
MTEXTEND
  0
POINT
  5
9D
330
93
100
AcDbEntity
  8
Defpoints
 62
     0
100
AcDbPoint
 10
3776.327387057969
 20
4838.526812277667
 30
0.0
  0
POINT
  5
9E
330
93
100
AcDbEntity
  8
Defpoints
 62
     0
100
AcDbPoint
 10
3774.057817063106
 20
4773.534831061376
 30
0.0
  0
POINT
  5
9F
330
93
100
AcDbEntity
  8
Defpoints
 62
     0
100
AcDbPoint
 10
3774.057817063106
 20
4863.528649043145
 30
0.0
  0
ENDBLK
  5
A0
330
93
100
AcDbEntity
  8
0
100
AcDbBlockEnd
  0
BLOCK
  5
A2
330
A1
100
AcDbEntity
  8
0
100
AcDbBlockBegin
  2
*D10
 70
     1
 10
0.0
 20
0.0
 30
0.0
  3
*D10
  1

  0
LINE
  5
A3
330
A1
100
AcDbEntity
  8
cotas
100
AcDbLine
 10
4524.057817063111
 20
4838.528651537024
 30
0.0
 11
4524.057817063111
 21
4893.528649043145
 31
0.0
  0
LINE
  5
A4
330
A1
100
AcDbEntity
  8
cotas
100
AcDbLine
 10
3774.057817063106
 20
4778.534831061376
 30
0.0
 11
3774.057817063106
 21
4893.528649043145
 31
0.0
  0
LINE
  5
A5
330
A1
100
AcDbEntity
  8
cotas
100
AcDbLine
 10
4514.05781706311
 20
4888.528649043145
 30
0.0
 11
3784.057817063106
 21
4888.528649043145
 31
0.0
  0
SOLID
  5
A6
330
A1
100
AcDbEntity
  8
cotas
100
AcDbTrace
 10
4514.05781706311
 20
4890.195315709813
 30
0.0
 11
4514.05781706311
 21
4886.861982376479
 31
0.0
 12
4524.057817063111
 22
4888.528649043145
 32
0.0
 13
4524.057817063111
 23
4888.528649043145
 33
0.0
  0
SOLID
  5
A7
330
A1
100
AcDbEntity
  8
cotas
100
AcDbTrace
 10
3784.057817063106
 20
4890.195315709813
 30
0.0
 11
3784.057817063106
 21
4886.861982376479
 31
0.0
 12
3774.057817063106
 22
4888.528649043145
 32
0.0
 13
3774.057817063106
 23
4888.528649043145
 33
0.0
  0
MTEXT
  5
A8
330
A1
100
AcDbEntity
  8
cotas
100
AcDbMText
 10
4149.057817063108
 20
4898.733484503186
 30
0.0
 40
10.0
 41
0.0
 71
     5
 72
     1
  1
750
  7
SANINDUSA
 73
     1
 44
1.0
1001
ACAD
1000
MTEXTBEGIN
1070
    73
1070
     1
1070
    44
1040
1.0
1070
    74
1070
     0
1000
MTEXTEND
  0
POINT
  5
A9
330
A1
100
AcDbEntity
  8
Defpoints
 62
     0
100
AcDbPoint
 10
4524.057817063111
 20
4833.528651537023
 30
0.0
  0
POINT
  5
AA
330
A1
100
AcDbEntity
  8
Defpoints
 62
     0
100
AcDbPoint
 10
3774.057817063106
 20
4773.534831061376
 30
0.0
  0
POINT
  5
AB
330
A1
100
AcDbEntity
  8
Defpoints
 62
     0
100
AcDbPoint
 10
3774.057817063106
 20
4888.528649043145
 30
0.0
  0
ENDBLK
  5
AC
330
A1
100
AcDbEntity
  8
0
100
AcDbBlockEnd
  0
BLOCK
  5
AE
330
AD
100
AcDbEntity
  8
0
100
AcDbBlockBegin
  2
*D11
 70
     1
 10
0.0
 20
0.0
 30
0.0
  3
*D11
  1

  0
ARC
  5
AF
330
AD
100
AcDbEntity
  8
cotas
100
AcDbCircle
 10
4524.057817063105
 20
4773.534831061376
 30
0.0
 40
45.73764698190932
100
AcDbArc
 50
102.5521363567896
 51
167.4478636432104
  0
SOLID
  5
B0
330
AD
100
AcDbEntity
  8
cotas
100
AcDbTrace
 10
4513.93555146923
 20
4819.835964533665
 30
0.0
 11
4514.299948585533
 21
4816.522608855091
 31
0.0
 12
4524.057817063105
 22
4819.272478043285
 32
0.0
 13
4524.057817063105
 23
4819.272478043285
 33
0.0
  0
SOLID
  5
B1
330
AD
100
AcDbEntity
  8
cotas
100
AcDbTrace
 10
4481.070039269391
 20
4783.292699538949
 30
0.0
 11
4477.756683590817
 21
4783.65709665525
 31
0.0
 12
4478.320170081196
 22
4773.534831061377
 32
0.0
 13
4478.320170081196
 23
4773.534831061377
 33
0.0
  0
MTEXT
  5
B2
330
AD
100
AcDbEntity
  8
cotas
100
AcDbMText
 10
4483.695574863524
 20
4813.897073260957
 30
0.0
 40
10.0
 41
0.0
 71
     5
 72
     1
  1
90,0°
  7
SANINDUSA
 11
0.7071067811865476
 21
0.7071067811865475
 31
0.0
 73
     1
 44
1.0
1001
ACAD
1000
MTEXTBEGIN
1070
    73
1070
     1
1070
    44
1040
1.0
1070
    74
1070
     0
1000
MTEXTEND
  0
POINT
  5
B3
330
AD
100
AcDbEntity
  8
Defpoints
 62
     0
100
AcDbPoint
 10
4501.188993572151
 20
4813.144795257034
 30
0.0
  0
POINT
  5
B4
330
AD
100
AcDbEntity
  8
Defpoints
 62
     0
100
AcDbPoint
 10
3779.054771198207
 20
4773.534831061376
 30
0.0
  0
POINT
  5
B5
330
AD
100
AcDbEntity
  8
Defpoints
 62
     0
100
AcDbPoint
 10
4524.057817063105
 20
4833.528652104781
 30
0.0
  0
POINT
  5
B6
330
AD
100
AcDbEntity
  8
Defpoints
 62
     0
100
AcDbPoint
 10
4524.057817063105
 20
4773.534831061376
 30
0.0
  0
POINT
  5
B7
330
AD
100
AcDbEntity
  8
Defpoints
 62
     0
100
AcDbPoint
 10
4519.057817063105
 20
4773.534831061376
 30
0.0
  0
ENDBLK
  5
B8
330
AD
100
AcDbEntity
  8
0
100
AcDbBlockEnd
  0
BLOCK
  5
BA
330
B9
100
AcDbEntity
  8
0
100
AcDbBlockBegin
  2
*D12
 70
     1
 10
0.0
 20
0.0
 30
0.0
  3
*D12
  1

  0
ARC
  5
BB
330
B9
100
AcDbEntity
  8
cotas
100
AcDbCircle
 10
3774.057817063105
 20
4773.534831061374
 30
0.0
 40
49.51563359813113
100
AcDbArc
 50
11.59100574892023
 51
76.40899425108107
  0
SOLID
  5
BC
330
B9
100
AcDbEntity
  8
cotas
100
AcDbTrace
 10
3824.221816300276
 20
4783.652014452809
 30
0.0
 11
3820.905520841485
 21
4783.31542042269
 31
0.0
 12
3823.573450661236
 22
4773.534831061374
 32
0.0
 13
3823.573450661236
 23
4773.534831061374
 33
0.0
  0
SOLID
  5
BD
330
B9
100
AcDbEntity
  8
cotas
100
AcDbTrace
 10
3785.467409637175
 20
4820.012658838233
 30
0.0
 11
3785.919535665735
 21
4823.31518713719
 31
0.0
 12
3775.785887754584
 22
4823.020301073387
 32
0.0
 13
3775.785887754584
 23
4823.020301073387
 33
0.0
  0
MTEXT
  5
BE
330
B9
100
AcDbEntity
  8
cotas
100
AcDbMText
 10
3817.84564834387
 20
4815.820248202356
 30
0.0
 40
10.0
 41
0.0
 71
     5
 72
     1
  1
88,0°
  7
SANINDUSA
 11
0.694658370459008
 21
-0.7193398003386408
 31
0.0
 73
     1
 44
1.0
1001
ACAD
1000
MTEXTBEGIN
1070
    73
1070
     1
1070
    44
1040
1.0
1070
    74
1070
     0
1000
MTEXTEND
  0
POINT
  5
BF
330
B9
100
AcDbEntity
  8
Defpoints
 62
     0
100
AcDbPoint
 10
3817.224774668276
 20
4797.792030853144
 30
0.0
  0
POINT
  5
C0
330
B9
100
AcDbEntity
  8
Defpoints
 62
     0
100
AcDbPoint
 10
3774.057817063106
 20
4773.534831061376
 30
0.0
  0
POINT
  5
C1
330
B9
100
AcDbEntity
  8
Defpoints
 62
     0
100
AcDbPoint
 10
3779.054771198206
 20
4773.534831061374
 30
0.0
  0
POINT
  5
C2
330
B9
100
AcDbEntity
  8
Defpoints
 62
     0
100
AcDbPoint
 10
4519.057817063105
 20
4773.534831061376
 30
0.0
  0
POINT
  5
C3
330
B9
100
AcDbEntity
  8
Defpoints
 62
     0
100
AcDbPoint
 10
3776.158876930031
 20
4833.701313573273
 30
0.0
  0
ENDBLK
  5
C4
330
B9
100
AcDbEntity
  8
0
100
AcDbBlockEnd
  0
BLOCK
  5
C6
330
C5
100
AcDbEntity
  8
0
100
AcDbBlockBegin
  2
*D13
 70
     1
 10
0.0
 20
0.0
 30
0.0
  3
*D13
  1

  0
LINE
  5
C7
330
C5
100
AcDbEntity
  8
cotas
100
AcDbLine
 10
4561.245864938724
 20
4862.167954286519
 30
0.0
 11
4531.468354495276
 21
4841.953528848538
 31
0.0
  0
MTEXT
  5
C8
330
C5
100
AcDbEntity
  8
cotas
100
AcDbMText
 10
4544.818903606476
 20
4863.228852073358
 30
0.0
 40
10.0
 41
0.0
 71
     5
 72
     1
  1
R5
  7
SANINDUSA
 11
0.8273691556314981
 21
0.5616585086238985
 31
0.0
 73
     1
 44
1.0
1001
ACAD
1000
MTEXTBEGIN
1070
    73
1070
     1
1070
    44
1040
1.0
1070
    74
1070
     0
1000
MTEXTEND
  0
LINE
  5
C9
330
C5
100
AcDbEntity
  8
cotas
100
AcDbLine
 10
4519.057817629014
 20
4833.528651537022
 30
0.0
 11
4523.194662938962
 21
4836.336943762298
 31
0.0
  0
SOLID
  5
CA
330
C5
100
AcDbEntity
  8
cotas
100
AcDbTrace
 10
4530.532256980904
 20
4843.332477441257
 30
0.0
 11
4532.40445200965
 21
4840.574580255818
 31
0.0
 12
4523.194662938962
 22
4836.336943762298
 32
0.0
 13
4523.194662938962
 23
4836.336943762298
 33
0.0
  0
POINT
  5
CB
330
C5
100
AcDbEntity
  8
Defpoints
 62
     0
100
AcDbPoint
 10
4523.194662938962
 20
4836.336943762298
 30
0.0
  0
POINT
  5
CC
330
C5
100
AcDbEntity
  8
Defpoints
 62
     0
100
AcDbPoint
 10
4519.057817629014
 20
4833.528651537022
 30
0.0
  0
ENDBLK
  5
CD
330
C5
100
AcDbEntity
  8
0
100
AcDbBlockEnd
  0
BLOCK
  5
CF
330
CE
100
AcDbEntity
  8
0
100
AcDbBlockBegin
  2
*D14
 70
     1
 10
0.0
 20
0.0
 30
0.0
  3
*D14
  1

  0
LINE
  5
D0
330
CE
100
AcDbEntity
  8
cotas
100
AcDbLine
 10
2229.278361411912
 20
4242.459098782877
 30
0.0
 11
2204.278361411912
 21
4242.459098782877
 31
0.0
  0
LINE
  5
D1
330
CE
100
AcDbEntity
  8
cotas
100
AcDbLine
 10
2234.27531554704
 20
4412.459098782853
 30
0.0
 11
2204.278361411912
 21
4412.459098782853
 31
0.0
  0
LINE
  5
D2
330
CE
100
AcDbEntity
  8
cotas
100
AcDbLine
 10
2209.278361411912
 20
4252.459098782877
 30
0.0
 11
2209.278361411912
 21
4402.459098782852
 31
0.0
  0
SOLID
  5
D3
330
CE
100
AcDbEntity
  8
cotas
100
AcDbTrace
 10
2207.611694745246
 20
4252.459098782877
 30
0.0
 11
2210.945028078579
 21
4252.459098782877
 31
0.0
 12
2209.278361411912
 22
4242.459098782877
 32
0.0
 13
2209.278361411912
 23
4242.459098782877
 33
0.0
  0
SOLID
  5
D4
330
CE
100
AcDbEntity
  8
cotas
100
AcDbTrace
 10
2207.611694745246
 20
4402.459098782852
 30
0.0
 11
2210.945028078579
 21
4402.459098782852
 31
0.0
 12
2209.278361411912
 22
4412.459098782853
 32
0.0
 13
2209.278361411912
 23
4412.459098782853
 33
0.0
  0
MTEXT
  5
D5
330
CE
100
AcDbEntity
  8
cotas
100
AcDbMText
 10
2199.073525951872
 20
4327.459098782865
 30
0.0
 40
10.0
 41
0.0
 71
     5
 72
     1
  1
170
  7
SANINDUSA
 11
0.0000000000000001
 21
1.0
 31
0.0
 73
     1
 44
1.0
1001
ACAD
1000
MTEXTBEGIN
1070
    73
1070
     1
1070
    44
1040
1.0
1070
    74
1070
     0
1000
MTEXTEND
  0
POINT
  5
D6
330
CE
100
AcDbEntity
  8
Defpoints
 62
     0
100
AcDbPoint
 10
2234.278361411912
 20
4242.459098782877
 30
0.0
  0
POINT
  5
D7
330
CE
100
AcDbEntity
  8
Defpoints
 62
     0
100
AcDbPoint
 10
2239.27531554704
 20
4412.459098782853
 30
0.0
  0
POINT
  5
D8
330
CE
100
AcDbEntity
  8
Defpoints
 62
     0
100
AcDbPoint
 10
2209.278361411912
 20
4412.459098782853
 30
0.0
  0
ENDBLK
  5
D9
330
CE
100
AcDbEntity
  8
0
100
AcDbBlockEnd
  0
BLOCK
  5
DB
330
DA
100
AcDbEntity
  8
0
100
AcDbBlockBegin
  2
*D15
 70
     1
 10
0.0
 20
0.0
 30
0.0
  3
*D15
  1

  0
LINE
  5
DC
330
DA
100
AcDbEntity
  8
cotas
100
AcDbLine
 10
2444.271920246405
 20
3753.522122705414
 30
0.0
 11
2444.271920246405
 21
3632.459098782877
 31
0.0
  0
LINE
  5
DD
330
DA
100
AcDbEntity
  8
cotas
100
AcDbLine
 10
2574.27192022348
 20
3753.519681283833
 30
0.0
 11
2574.27192022348
 21
3632.459098782877
 31
0.0
  0
LINE
  5
DE
330
DA
100
AcDbEntity
  8
cotas
100
AcDbLine
 10
2454.271920246405
 20
3637.459098782877
 30
0.0
 11
2564.27192022348
 21
3637.459098782877
 31
0.0
  0
SOLID
  5
DF
330
DA
100
AcDbEntity
  8
cotas
100
AcDbTrace
 10
2454.271920246405
 20
3639.125765449544
 30
0.0
 11
2454.271920246405
 21
3635.79243211621
 31
0.0
 12
2444.271920246405
 22
3637.459098782877
 32
0.0
 13
2444.271920246405
 23
3637.459098782877
 33
0.0
  0
SOLID
  5
E0
330
DA
100
AcDbEntity
  8
cotas
100
AcDbTrace
 10
2564.27192022348
 20
3639.125765449544
 30
0.0
 11
2564.27192022348
 21
3635.79243211621
 31
0.0
 12
2574.27192022348
 22
3637.459098782877
 32
0.0
 13
2574.27192022348
 23
3637.459098782877
 33
0.0
  0
MTEXT
  5
E1
330
DA
100
AcDbEntity
  8
cotas
100
AcDbMText
 10
2509.271920234942
 20
3647.667292201279
 30
0.0
 40
10.0
 41
0.0
 71
     5
 72
     1
  1
130
  7
SANINDUSA
 73
     1
 44
1.0
1001
ACAD
1000
MTEXTBEGIN
1070
    73
1070
     1
1070
    44
1040
1.0
1070
    74
1070
     0
1000
MTEXTEND
  0
POINT
  5
E2
330
DA
100
AcDbEntity
  8
Defpoints
 62
     0
100
AcDbPoint
 10
2444.271920246405
 20
3758.522122705413
 30
0.0
  0
POINT
  5
E3
330
DA
100
AcDbEntity
  8
Defpoints
 62
     0
100
AcDbPoint
 10
2574.27192022348
 20
3758.519681283833
 30
0.0
  0
POINT
  5
E4
330
DA
100
AcDbEntity
  8
Defpoints
 62
     0
100
AcDbPoint
 10
2574.27192022348
 20
3637.459098782877
 30
0.0
  0
ENDBLK
  5
E5
330
DA
100
AcDbEntity
  8
0
100
AcDbBlockEnd
  0
BLOCK
  5
E7
330
E6
100
AcDbEntity
  8
0
100
AcDbBlockBegin
  2
*D16
 70
     1
 10
0.0
 20
0.0
 30
0.0
  3
*D16
  1

  0
LINE
  5
E8
330
E6
100
AcDbEntity
  8
cotas
100
AcDbLine
 10
3094.225981800688
 20
3753.477920034814
 30
0.0
 11
3094.225981800688
 21
3632.459098782877
 31
0.0
  0
LINE
  5
E9
330
E6
100
AcDbEntity
  8
cotas
100
AcDbLine
 10
3224.227380062848
 20
3753.46138286835
 30
0.0
 11
3224.227380062848
 21
3632.459098782877
 31
0.0
  0
LINE
  5
EA
330
E6
100
AcDbEntity
  8
cotas
100
AcDbLine
 10
3104.225981800687
 20
3637.459098782877
 30
0.0
 11
3214.227380062848
 21
3637.459098782877
 31
0.0
  0
SOLID
  5
EB
330
E6
100
AcDbEntity
  8
cotas
100
AcDbTrace
 10
3104.225981800687
 20
3639.125765449544
 30
0.0
 11
3104.225981800687
 21
3635.79243211621
 31
0.0
 12
3094.225981800688
 22
3637.459098782877
 32
0.0
 13
3094.225981800688
 23
3637.459098782877
 33
0.0
  0
SOLID
  5
EC
330
E6
100
AcDbEntity
  8
cotas
100
AcDbTrace
 10
3214.227380062848
 20
3639.125765449544
 30
0.0
 11
3214.227380062848
 21
3635.79243211621
 31
0.0
 12
3224.227380062848
 22
3637.459098782877
 32
0.0
 13
3224.227380062848
 23
3637.459098782877
 33
0.0
  0
MTEXT
  5
ED
330
E6
100
AcDbEntity
  8
cotas
100
AcDbMText
 10
3159.226680931768
 20
3647.667292201279
 30
0.0
 40
10.0
 41
0.0
 71
     5
 72
     1
  1
130
  7
SANINDUSA
 73
     1
 44
1.0
1001
ACAD
1000
MTEXTBEGIN
1070
    73
1070
     1
1070
    44
1040
1.0
1070
    74
1070
     0
1000
MTEXTEND
  0
POINT
  5
EE
330
E6
100
AcDbEntity
  8
Defpoints
 62
     0
100
AcDbPoint
 10
3094.225981800688
 20
3758.477920034814
 30
0.0
  0
POINT
  5
EF
330
E6
100
AcDbEntity
  8
Defpoints
 62
     0
100
AcDbPoint
 10
3224.227380062848
 20
3758.461382868351
 30
0.0
  0
POINT
  5
F0
330
E6
100
AcDbEntity
  8
Defpoints
 62
     0
100
AcDbPoint
 10
3224.227380062848
 20
3637.459098782877
 30
0.0
  0
ENDBLK
  5
F1
330
E6
100
AcDbEntity
  8
0
100
AcDbBlockEnd
  0
BLOCK
  5
F3
330
F2
100
AcDbEntity
  8
0
100
AcDbBlockBegin
  2
*D17
 70
     1
 10
0.0
 20
0.0
 30
0.0
  3
*D17
  1

  0
LINE
  5
F4
330
F2
100
AcDbEntity
  8
cotas
100
AcDbLine
 10
2229.278361411912
 20
4242.459098782877
 30
0.0
 11
2204.278361411912
 21
4242.459098782877
 31
0.0
  0
LINE
  5
F5
330
F2
100
AcDbEntity
  8
cotas
100
AcDbLine
 10
2370.290113275079
 20
4097.440155971031
 30
0.0
 11
2204.278361411912
 21
4097.440155971031
 31
0.0
  0
LINE
  5
F6
330
F2
100
AcDbEntity
  8
cotas
100
AcDbLine
 10
2209.278361411912
 20
4232.459098782877
 30
0.0
 11
2209.278361411912
 21
4107.44015597103
 31
0.0
  0
SOLID
  5
F7
330
F2
100
AcDbEntity
  8
cotas
100
AcDbTrace
 10
2207.611694745246
 20
4232.459098782877
 30
0.0
 11
2210.945028078579
 21
4232.459098782877
 31
0.0
 12
2209.278361411912
 22
4242.459098782877
 32
0.0
 13
2209.278361411912
 23
4242.459098782877
 33
0.0
  0
SOLID
  5
F8
330
F2
100
AcDbEntity
  8
cotas
100
AcDbTrace
 10
2207.611694745246
 20
4107.44015597103
 30
0.0
 11
2210.945028078579
 21
4107.44015597103
 31
0.0
 12
2209.278361411912
 22
4097.440155971031
 32
0.0
 13
2209.278361411912
 23
4097.440155971031
 33
0.0
  0
MTEXT
  5
F9
330
F2
100
AcDbEntity
  8
cotas
100
AcDbMText
 10
2199.157474910904
 20
4169.949627376954
 30
0.0
 40
10.0
 41
0.0
 71
     5
 72
     1
  1
145
  7
SANINDUSA
 11
0.0000000000000001
 21
1.0
 31
0.0
 73
     1
 44
1.0
1001
ACAD
1000
MTEXTBEGIN
1070
    73
1070
     1
1070
    44
1040
1.0
1070
    74
1070
     0
1000
MTEXTEND
  0
POINT
  5
FA
330
F2
100
AcDbEntity
  8
Defpoints
 62
     0
100
AcDbPoint
 10
2234.278361411912
 20
4242.459098782877
 30
0.0
  0
POINT
  5
FB
330
F2
100
AcDbEntity
  8
Defpoints
 62
     0
100
AcDbPoint
 10
2375.290113275079
 20
4097.440155971031
 30
0.0
  0
POINT
  5
FC
330
F2
100
AcDbEntity
  8
Defpoints
 62
     0
100
AcDbPoint
 10
2209.278361411912
 20
4097.440155971031
 30
0.0
  0
ENDBLK
  5
FD
330
F2
100
AcDbEntity
  8
0
100
AcDbBlockEnd
  0
BLOCK
  5
FF
330
FE
100
AcDbEntity
  8
0
100
AcDbBlockBegin
  2
*D18
 70
     1
 10
0.0
 20
0.0
 30
0.0
  3
*D18
  1

  0
LINE
  5
100
330
FE
100
AcDbEntity
  8
cotas
100
AcDbLine
 10
2370.290113275079
 20
4097.440155971031
 30
0.0
 11
2204.278361411912
 21
4097.440155971031
 31
0.0
  0
LINE
  5
101
330
FE
100
AcDbEntity
  8
cotas
100
AcDbLine
 10
2370.278041912994
 20
3962.436663630891
 30
0.0
 11
2204.278361411912
 21
3962.436663630891
 31
0.0
  0
LINE
  5
102
330
FE
100
AcDbEntity
  8
cotas
100
AcDbLine
 10
2209.278361411912
 20
4087.44015597103
 30
0.0
 11
2209.278361411912
 21
3972.436663630891
 31
0.0
  0
SOLID
  5
103
330
FE
100
AcDbEntity
  8
cotas
100
AcDbTrace
 10
2207.611694745246
 20
4087.44015597103
 30
0.0
 11
2210.945028078579
 21
4087.44015597103
 31
0.0
 12
2209.278361411912
 22
4097.440155971031
 32
0.0
 13
2209.278361411912
 23
4097.440155971031
 33
0.0
  0
SOLID
  5
104
330
FE
100
AcDbEntity
  8
cotas
100
AcDbTrace
 10
2207.611694745246
 20
3972.436663630891
 30
0.0
 11
2210.945028078579
 21
3972.436663630891
 31
0.0
 12
2209.278361411912
 22
3962.436663630891
 32
0.0
 13
2209.278361411912
 23
3962.436663630891
 33
0.0
  0
MTEXT
  5
105
330
FE
100
AcDbEntity
  8
cotas
100
AcDbMText
 10
2199.07016799351
 20
4029.938409800961
 30
0.0
 40
10.0
 41
0.0
 71
     5
 72
     1
  1
135
  7
SANINDUSA
 11
0.0000000000000001
 21
1.0
 31
0.0
 73
     1
 44
1.0
1001
ACAD
1000
MTEXTBEGIN
1070
    73
1070
     1
1070
    44
1040
1.0
1070
    74
1070
     0
1000
MTEXTEND
  0
POINT
  5
106
330
FE
100
AcDbEntity
  8
Defpoints
 62
     0
100
AcDbPoint
 10
2375.290113275079
 20
4097.440155971031
 30
0.0
  0
POINT
  5
107
330
FE
100
AcDbEntity
  8
Defpoints
 62
     0
100
AcDbPoint
 10
2375.278041912994
 20
3962.436663630891
 30
0.0
  0
POINT
  5
108
330
FE
100
AcDbEntity
  8
Defpoints
 62
     0
100
AcDbPoint
 10
2209.278361411912
 20
3962.436663630891
 30
0.0
  0
ENDBLK
  5
109
330
FE
100
AcDbEntity
  8
0
100
AcDbBlockEnd
  0
BLOCK
  5
10B
330
10A
100
AcDbEntity
  8
0
100
AcDbBlockBegin
  2
*D19
 70
     1
 10
0.0
 20
0.0
 30
0.0
  3
*D19
  1

  0
LINE
  5
10C
330
10A
100
AcDbEntity
  8
cotas
100
AcDbLine
 10
2370.278041912994
 20
3962.436663630891
 30
0.0
 11
2204.278361411912
 21
3962.436663630891
 31
0.0
  0
LINE
  5
10D
330
10A
100
AcDbEntity
  8
cotas
100
AcDbLine
 10
2370.283391758661
 20
3827.438777978321
 30
0.0
 11
2204.278361411912
 21
3827.438777978321
 31
0.0
  0
LINE
  5
10E
330
10A
100
AcDbEntity
  8
cotas
100
AcDbLine
 10
2209.278361411912
 20
3952.436663630891
 30
0.0
 11
2209.278361411912
 21
3837.43877797832
 31
0.0
  0
SOLID
  5
10F
330
10A
100
AcDbEntity
  8
cotas
100
AcDbTrace
 10
2207.611694745246
 20
3952.436663630891
 30
0.0
 11
2210.945028078579
 21
3952.436663630891
 31
0.0
 12
2209.278361411912
 22
3962.436663630891
 32
0.0
 13
2209.278361411912
 23
3962.436663630891
 33
0.0
  0
SOLID
  5
110
330
10A
100
AcDbEntity
  8
cotas
100
AcDbTrace
 10
2207.611694745246
 20
3837.43877797832
 30
0.0
 11
2210.945028078579
 21
3837.43877797832
 31
0.0
 12
2209.278361411912
 22
3827.438777978321
 32
0.0
 13
2209.278361411912
 23
3827.438777978321
 33
0.0
  0
MTEXT
  5
111
330
10A
100
AcDbEntity
  8
cotas
100
AcDbMText
 10
2199.07016799351
 20
3894.937720804606
 30
0.0
 40
10.0
 41
0.0
 71
     5
 72
     1
  1
135
  7
SANINDUSA
 11
0.0000000000000001
 21
1.0
 31
0.0
 73
     1
 44
1.0
1001
ACAD
1000
MTEXTBEGIN
1070
    73
1070
     1
1070
    44
1040
1.0
1070
    74
1070
     0
1000
MTEXTEND
  0
POINT
  5
112
330
10A
100
AcDbEntity
  8
Defpoints
 62
     0
100
AcDbPoint
 10
2375.278041912994
 20
3962.436663630891
 30
0.0
  0
POINT
  5
113
330
10A
100
AcDbEntity
  8
Defpoints
 62
     0
100
AcDbPoint
 10
2375.283391758661
 20
3827.438777978321
 30
0.0
  0
POINT
  5
114
330
10A
100
AcDbEntity
  8
Defpoints
 62
     0
100
AcDbPoint
 10
2209.278361411912
 20
3827.438777978321
 30
0.0
  0
ENDBLK
  5
115
330
10A
100
AcDbEntity
  8
0
100
AcDbBlockEnd
  0
BLOCK
  5
117
330
116
100
AcDbEntity
  8
0
100
AcDbBlockBegin
  2
*D20
 70
     1
 10
0.0
 20
0.0
 30
0.0
  3
*D20
  1

  0
LINE
  5
118
330
116
100
AcDbEntity
  8
cotas
100
AcDbLine
 10
2574.27192022348
 20
3753.519681283833
 30
0.0
 11
2574.27192022348
 21
3632.459098782877
 31
0.0
  0
LINE
  5
119
330
116
100
AcDbEntity
  8
cotas
100
AcDbLine
 10
2704.271920200555
 20
3753.517239862253
 30
0.0
 11
2704.271920200555
 21
3632.459098782877
 31
0.0
  0
LINE
  5
11A
330
116
100
AcDbEntity
  8
cotas
100
AcDbLine
 10
2584.27192022348
 20
3637.459098782877
 30
0.0
 11
2694.271920200555
 21
3637.459098782877
 31
0.0
  0
SOLID
  5
11B
330
116
100
AcDbEntity
  8
cotas
100
AcDbTrace
 10
2584.27192022348
 20
3639.125765449544
 30
0.0
 11
2584.27192022348
 21
3635.79243211621
 31
0.0
 12
2574.27192022348
 22
3637.459098782877
 32
0.0
 13
2574.27192022348
 23
3637.459098782877
 33
0.0
  0
SOLID
  5
11C
330
116
100
AcDbEntity
  8
cotas
100
AcDbTrace
 10
2694.271920200555
 20
3639.125765449544
 30
0.0
 11
2694.271920200555
 21
3635.79243211621
 31
0.0
 12
2704.271920200555
 22
3637.459098782877
 32
0.0
 13
2704.271920200555
 23
3637.459098782877
 33
0.0
  0
MTEXT
  5
11D
330
116
100
AcDbEntity
  8
cotas
100
AcDbMText
 10
2639.271920212018
 20
3647.667292201279
 30
0.0
 40
10.0
 41
0.0
 71
     5
 72
     1
  1
130
  7
SANINDUSA
 73
     1
 44
1.0
1001
ACAD
1000
MTEXTBEGIN
1070
    73
1070
     1
1070
    44
1040
1.0
1070
    74
1070
     0
1000
MTEXTEND
  0
POINT
  5
11E
330
116
100
AcDbEntity
  8
Defpoints
 62
     0
100
AcDbPoint
 10
2574.27192022348
 20
3758.519681283833
 30
0.0
  0
POINT
  5
11F
330
116
100
AcDbEntity
  8
Defpoints
 62
     0
100
AcDbPoint
 10
2704.271920200555
 20
3758.517239862253
 30
0.0
  0
POINT
  5
120
330
116
100
AcDbEntity
  8
Defpoints
 62
     0
100
AcDbPoint
 10
2704.271920200555
 20
3637.459098782877
 30
0.0
  0
ENDBLK
  5
121
330
116
100
AcDbEntity
  8
0
100
AcDbBlockEnd
  0
BLOCK
  5
123
330
122
100
AcDbEntity
  8
0
100
AcDbBlockBegin
  2
*D21
 70
     1
 10
0.0
 20
0.0
 30
0.0
  3
*D21
  1

  0
LINE
  5
124
330
122
100
AcDbEntity
  8
cotas
100
AcDbLine
 10
2704.271920200555
 20
3753.517239862253
 30
0.0
 11
2704.271920200555
 21
3632.459098782877
 31
0.0
  0
LINE
  5
125
330
122
100
AcDbEntity
  8
cotas
100
AcDbLine
 10
2834.278361411716
 20
3659.728886734264
 30
0.0
 11
2834.278361411716
 21
3632.459098782877
 31
0.0
  0
LINE
  5
126
330
122
100
AcDbEntity
  8
cotas
100
AcDbLine
 10
2714.271920200555
 20
3637.459098782877
 30
0.0
 11
2824.278361411716
 21
3637.459098782877
 31
0.0
  0
SOLID
  5
127
330
122
100
AcDbEntity
  8
cotas
100
AcDbTrace
 10
2714.271920200555
 20
3639.125765449544
 30
0.0
 11
2714.271920200555
 21
3635.79243211621
 31
0.0
 12
2704.271920200555
 22
3637.459098782877
 32
0.0
 13
2704.271920200555
 23
3637.459098782877
 33
0.0
  0
SOLID
  5
128
330
122
100
AcDbEntity
  8
cotas
100
AcDbTrace
 10
2824.278361411716
 20
3639.125765449544
 30
0.0
 11
2824.278361411716
 21
3635.79243211621
 31
0.0
 12
2834.278361411716
 22
3637.459098782877
 32
0.0
 13
2834.278361411716
 23
3637.459098782877
 33
0.0
  0
MTEXT
  5
129
330
122
100
AcDbEntity
  8
cotas
100
AcDbMText
 10
2769.275140806136
 20
3647.667292201279
 30
0.0
 40
10.0
 41
0.0
 71
     5
 72
     1
  1
130
  7
SANINDUSA
 73
     1
 44
1.0
1001
ACAD
1000
MTEXTBEGIN
1070
    73
1070
     1
1070
    44
1040
1.0
1070
    74
1070
     0
1000
MTEXTEND
  0
POINT
  5
12A
330
122
100
AcDbEntity
  8
Defpoints
 62
     0
100
AcDbPoint
 10
2704.271920200555
 20
3758.517239862253
 30
0.0
  0
POINT
  5
12B
330
122
100
AcDbEntity
  8
Defpoints
 62
     0
100
AcDbPoint
 10
2834.278361411716
 20
3664.728886734264
 30
0.0
  0
POINT
  5
12C
330
122
100
AcDbEntity
  8
Defpoints
 62
     0
100
AcDbPoint
 10
2834.278361411716
 20
3637.459098782877
 30
0.0
  0
ENDBLK
  5
12D
330
122
100
AcDbEntity
  8
0
100
AcDbBlockEnd
  0
BLOCK
  5
12F
330
12E
100
AcDbEntity
  8
0
100
AcDbBlockBegin
  2
*D22
 70
     1
 10
0.0
 20
0.0
 30
0.0
  3
*D22
  1

  0
LINE
  5
130
330
12E
100
AcDbEntity
  8
cotas
100
AcDbLine
 10
2834.278361411716
 20
3659.728886734264
 30
0.0
 11
2834.278361411716
 21
3632.459098782877
 31
0.0
  0
LINE
  5
131
330
12E
100
AcDbEntity
  8
cotas
100
AcDbLine
 10
2964.274531717097
 20
3753.51906197556
 30
0.0
 11
2964.274531717097
 21
3632.459098782877
 31
0.0
  0
LINE
  5
132
330
12E
100
AcDbEntity
  8
cotas
100
AcDbLine
 10
2844.278361411716
 20
3637.459098782877
 30
0.0
 11
2954.274531717097
 21
3637.459098782877
 31
0.0
  0
SOLID
  5
133
330
12E
100
AcDbEntity
  8
cotas
100
AcDbTrace
 10
2844.278361411716
 20
3639.125765449544
 30
0.0
 11
2844.278361411716
 21
3635.79243211621
 31
0.0
 12
2834.278361411716
 22
3637.459098782877
 32
0.0
 13
2834.278361411716
 23
3637.459098782877
 33
0.0
  0
SOLID
  5
134
330
12E
100
AcDbEntity
  8
cotas
100
AcDbTrace
 10
2954.274531717097
 20
3639.125765449544
 30
0.0
 11
2954.274531717097
 21
3635.79243211621
 31
0.0
 12
2964.274531717097
 22
3637.459098782877
 32
0.0
 13
2964.274531717097
 23
3637.459098782877
 33
0.0
  0
MTEXT
  5
135
330
12E
100
AcDbEntity
  8
cotas
100
AcDbMText
 10
2899.276446564407
 20
3647.667292201279
 30
0.0
 40
10.0
 41
0.0
 71
     5
 72
     1
  1
130
  7
SANINDUSA
 73
     1
 44
1.0
1001
ACAD
1000
MTEXTBEGIN
1070
    73
1070
     1
1070
    44
1040
1.0
1070
    74
1070
     0
1000
MTEXTEND
  0
POINT
  5
136
330
12E
100
AcDbEntity
  8
Defpoints
 62
     0
100
AcDbPoint
 10
2834.278361411716
 20
3664.728886734264
 30
0.0
  0
POINT
  5
137
330
12E
100
AcDbEntity
  8
Defpoints
 62
     0
100
AcDbPoint
 10
2964.274531717097
 20
3758.519061975559
 30
0.0
  0
POINT
  5
138
330
12E
100
AcDbEntity
  8
Defpoints
 62
     0
100
AcDbPoint
 10
2964.274531717097
 20
3637.459098782877
 30
0.0
  0
ENDBLK
  5
139
330
12E
100
AcDbEntity
  8
0
100
AcDbBlockEnd
  0
BLOCK
  5
13B
330
13A
100
AcDbEntity
  8
0
100
AcDbBlockBegin
  2
*D23
 70
     1
 10
0.0
 20
0.0
 30
0.0
  3
*D23
  1

  0
LINE
  5
13C
330
13A
100
AcDbEntity
  8
cotas
100
AcDbLine
 10
2964.274531717097
 20
3753.51906197556
 30
0.0
 11
2964.274531717097
 21
3632.459098782877
 31
0.0
  0
LINE
  5
13D
330
13A
100
AcDbEntity
  8
cotas
100
AcDbLine
 10
3094.225981800688
 20
3753.477920034814
 30
0.0
 11
3094.225981800688
 21
3632.459098782877
 31
0.0
  0
LINE
  5
13E
330
13A
100
AcDbEntity
  8
cotas
100
AcDbLine
 10
2974.274531717097
 20
3637.459098782877
 30
0.0
 11
3084.225981800687
 21
3637.459098782877
 31
0.0
  0
SOLID
  5
13F
330
13A
100
AcDbEntity
  8
cotas
100
AcDbTrace
 10
2974.274531717097
 20
3639.125765449544
 30
0.0
 11
2974.274531717097
 21
3635.79243211621
 31
0.0
 12
2964.274531717097
 22
3637.459098782877
 32
0.0
 13
2964.274531717097
 23
3637.459098782877
 33
0.0
  0
SOLID
  5
140
330
13A
100
AcDbEntity
  8
cotas
100
AcDbTrace
 10
3084.225981800687
 20
3639.125765449544
 30
0.0
 11
3084.225981800687
 21
3635.79243211621
 31
0.0
 12
3094.225981800688
 22
3637.459098782877
 32
0.0
 13
3094.225981800688
 23
3637.459098782877
 33
0.0
  0
MTEXT
  5
141
330
13A
100
AcDbEntity
  8
cotas
100
AcDbMText
 10
3029.250256758893
 20
3647.667292201279
 30
0.0
 40
10.0
 41
0.0
 71
     5
 72
     1
  1
130
  7
SANINDUSA
 73
     1
 44
1.0
1001
ACAD
1000
MTEXTBEGIN
1070
    73
1070
     1
1070
    44
1040
1.0
1070
    74
1070
     0
1000
MTEXTEND
  0
POINT
  5
142
330
13A
100
AcDbEntity
  8
Defpoints
 62
     0
100
AcDbPoint
 10
2964.274531717097
 20
3758.519061975559
 30
0.0
  0
POINT
  5
143
330
13A
100
AcDbEntity
  8
Defpoints
 62
     0
100
AcDbPoint
 10
3094.225981800688
 20
3758.477920034814
 30
0.0
  0
POINT
  5
144
330
13A
100
AcDbEntity
  8
Defpoints
 62
     0
100
AcDbPoint
 10
3094.225981800688
 20
3637.459098782877
 30
0.0
  0
ENDBLK
  5
145
330
13A
100
AcDbEntity
  8
0
100
AcDbBlockEnd
  0
BLOCK
  5
147
330
146
100
AcDbEntity
  8
0
100
AcDbBlockBegin
  2
*D24
 70
     1
 10
0.0
 20
0.0
 30
0.0
  3
*D24
  1

  0
LINE
  5
148
330
146
100
AcDbEntity
  8
cotas
100
AcDbLine
 10
2276.547995499267
 20
3777.459098782877
 30
0.0
 11
2276.547995499267
 21
3607.459098782877
 31
0.0
  0
LINE
  5
149
330
146
100
AcDbEntity
  8
cotas
100
AcDbLine
 10
3392.008727187014
 20
3777.459098782877
 30
0.0
 11
3392.008727187014
 21
3607.459098782877
 31
0.0
  0
LINE
  5
14A
330
146
100
AcDbEntity
  8
cotas
100
AcDbLine
 10
2286.547995499268
 20
3612.459098782877
 30
0.0
 11
3382.008727187014
 21
3612.459098782877
 31
0.0
  0
SOLID
  5
14B
330
146
100
AcDbEntity
  8
cotas
100
AcDbTrace
 10
2286.547995499268
 20
3614.125765449543
 30
0.0
 11
2286.547995499268
 21
3610.79243211621
 31
0.0
 12
2276.547995499267
 22
3612.459098782877
 32
0.0
 13
2276.547995499267
 23
3612.459098782877
 33
0.0
  0
SOLID
  5
14C
330
146
100
AcDbEntity
  8
cotas
100
AcDbTrace
 10
3382.008727187014
 20
3614.125765449543
 30
0.0
 11
3382.008727187014
 21
3610.79243211621
 31
0.0
 12
3392.008727187014
 22
3612.459098782877
 32
0.0
 13
3392.008727187014
 23
3612.459098782877
 33
0.0
  0
MTEXT
  5
14D
330
146
100
AcDbEntity
  8
cotas
100
AcDbMText
 10
2834.278361343141
 20
3623.71833316837
 30
0.0
 40
10.0
 41
0.0
 71
     5
 72
     1
  1
1115,5
  7
SANINDUSA
 73
     1
 44
1.0
1001
ACAD
1000
MTEXTBEGIN
1070
    73
1070
     1
1070
    44
1040
1.0
1070
    74
1070
     0
1000
MTEXTEND
  0
POINT
  5
14E
330
146
100
AcDbEntity
  8
Defpoints
 62
     0
100
AcDbPoint
 10
2276.547995499267
 20
3782.459098782876
 30
0.0
  0
POINT
  5
14F
330
146
100
AcDbEntity
  8
Defpoints
 62
     0
100
AcDbPoint
 10
3392.008727187014
 20
3782.459098782876
 30
0.0
  0
POINT
  5
150
330
146
100
AcDbEntity
  8
Defpoints
 62
     0
100
AcDbPoint
 10
3392.008727187014
 20
3612.459098782877
 30
0.0
  0
ENDBLK
  5
151
330
146
100
AcDbEntity
  8
0
100
AcDbBlockEnd
  0
BLOCK
  5
153
330
152
100
AcDbEntity
  8
0
100
AcDbBlockBegin
  2
*D25
 70
     1
 10
0.0
 20
0.0
 30
0.0
  3
*D25
  1

  0
LINE
  5
154
330
152
100
AcDbEntity
  8
cotas
100
AcDbLine
 10
3392.008727187014
 20
3777.459098782877
 30
0.0
 11
3392.008727187014
 21
3607.459098782877
 31
0.0
  0
LINE
  5
155
330
152
100
AcDbEntity
  8
cotas
100
AcDbLine
 10
3432.008727187015
 20
3658.27131287433
 30
0.0
 11
3432.008727187015
 21
3607.459098782877
 31
0.0
  0
LINE
  5
156
330
152
100
AcDbEntity
  8
cotas
100
AcDbLine
 10
3402.008727187014
 20
3612.459098782877
 30
0.0
 11
3422.008727187015
 21
3612.459098782877
 31
0.0
  0
SOLID
  5
157
330
152
100
AcDbEntity
  8
cotas
100
AcDbTrace
 10
3402.008727187014
 20
3614.125765449543
 30
0.0
 11
3402.008727187014
 21
3610.79243211621
 31
0.0
 12
3392.008727187014
 22
3612.459098782877
 32
0.0
 13
3392.008727187014
 23
3612.459098782877
 33
0.0
  0
SOLID
  5
158
330
152
100
AcDbEntity
  8
cotas
100
AcDbTrace
 10
3422.008727187015
 20
3614.125765449543
 30
0.0
 11
3422.008727187015
 21
3610.79243211621
 31
0.0
 12
3432.008727187015
 22
3612.459098782877
 32
0.0
 13
3432.008727187015
 23
3612.459098782877
 33
0.0
  0
MTEXT
  5
159
330
152
100
AcDbEntity
  8
cotas
100
AcDbMText
 10
3412.008727187014
 20
3622.663934242917
 30
0.0
 40
10.0
 41
0.0
 71
     5
 72
     1
  1
40
  7
SANINDUSA
 73
     1
 44
1.0
1001
ACAD
1000
MTEXTBEGIN
1070
    73
1070
     1
1070
    44
1040
1.0
1070
    74
1070
     0
1000
MTEXTEND
  0
POINT
  5
15A
330
152
100
AcDbEntity
  8
Defpoints
 62
     0
100
AcDbPoint
 10
3392.008727187014
 20
3782.459098782876
 30
0.0
  0
POINT
  5
15B
330
152
100
AcDbEntity
  8
Defpoints
 62
     0
100
AcDbPoint
 10
3432.008727187015
 20
3663.27131287433
 30
0.0
  0
POINT
  5
15C
330
152
100
AcDbEntity
  8
Defpoints
 62
     0
100
AcDbPoint
 10
3432.008727187015
 20
3612.459098782877
 30
0.0
  0
ENDBLK
  5
15D
330
152
100
AcDbEntity
  8
0
100
AcDbBlockEnd
  0
BLOCK
  5
15F
330
15E
100
AcDbEntity
  8
0
100
AcDbBlockBegin
  2
*D26
 70
     1
 10
0.0
 20
0.0
 30
0.0
  3
*D26
  1

  0
LINE
  5
160
330
15E
100
AcDbEntity
  8
cotas
100
AcDbLine
 10
2276.547995499267
 20
3777.459098782877
 30
0.0
 11
2276.547995499267
 21
3607.459098782877
 31
0.0
  0
LINE
  5
161
330
15E
100
AcDbEntity
  8
cotas
100
AcDbLine
 10
2236.547995499269
 20
3658.271312963975
 30
0.0
 11
2236.547995499269
 21
3607.459098782877
 31
0.0
  0
LINE
  5
162
330
15E
100
AcDbEntity
  8
cotas
100
AcDbLine
 10
2266.547995499267
 20
3612.459098782877
 30
0.0
 11
2246.54799549927
 21
3612.459098782877
 31
0.0
  0
SOLID
  5
163
330
15E
100
AcDbEntity
  8
cotas
100
AcDbTrace
 10
2266.547995499267
 20
3614.125765449543
 30
0.0
 11
2266.547995499267
 21
3610.79243211621
 31
0.0
 12
2276.547995499267
 22
3612.459098782877
 32
0.0
 13
2276.547995499267
 23
3612.459098782877
 33
0.0
  0
SOLID
  5
164
330
15E
100
AcDbEntity
  8
cotas
100
AcDbTrace
 10
2246.54799549927
 20
3614.125765449543
 30
0.0
 11
2246.54799549927
 21
3610.79243211621
 31
0.0
 12
2236.547995499269
 22
3612.459098782877
 32
0.0
 13
2236.547995499269
 23
3612.459098782877
 33
0.0
  0
MTEXT
  5
165
330
15E
100
AcDbEntity
  8
cotas
100
AcDbMText
 10
2256.547995499269
 20
3622.663934242917
 30
0.0
 40
10.0
 41
0.0
 71
     5
 72
     1
  1
40
  7
SANINDUSA
 73
     1
 44
1.0
1001
ACAD
1000
MTEXTBEGIN
1070
    73
1070
     1
1070
    44
1040
1.0
1070
    74
1070
     0
1000
MTEXTEND
  0
POINT
  5
166
330
15E
100
AcDbEntity
  8
Defpoints
 62
     0
100
AcDbPoint
 10
2276.547995499267
 20
3782.459098782876
 30
0.0
  0
POINT
  5
167
330
15E
100
AcDbEntity
  8
Defpoints
 62
     0
100
AcDbPoint
 10
2236.547995499269
 20
3663.271312963976
 30
0.0
  0
POINT
  5
168
330
15E
100
AcDbEntity
  8
Defpoints
 62
     0
100
AcDbPoint
 10
2236.547995499269
 20
3612.459098782877
 30
0.0
  0
ENDBLK
  5
169
330
15E
100
AcDbEntity
  8
0
100
AcDbBlockEnd
  0
BLOCK
  5
16B
330
16A
100
AcDbEntity
  8
0
100
AcDbBlockBegin
  2
*D27
 70
     1
 10
0.0
 20
0.0
 30
0.0
  3
*D27
  1

  0
LINE
  5
16C
330
16A
100
AcDbEntity
  8
cotas
100
AcDbLine
 10
3317.008727187014
 20
3702.459098782877
 30
0.0
 11
3464.278361411913
 21
3702.459098782877
 31
0.0
  0
LINE
  5
16D
330
16A
100
AcDbEntity
  8
cotas
100
AcDbLine
 10
3434.275313690394
 20
3662.459098782877
 30
0.0
 11
3464.278361411913
 21
3662.459098782877
 31
0.0
  0
LINE
  5
16E
330
16A
100
AcDbEntity
  8
cotas
100
AcDbLine
 10
3459.278361411912
 20
3692.459098782876
 30
0.0
 11
3459.278361411912
 21
3672.459098782877
 31
0.0
  0
SOLID
  5
16F
330
16A
100
AcDbEntity
  8
cotas
100
AcDbTrace
 10
3457.611694745246
 20
3692.459098782876
 30
0.0
 11
3460.945028078579
 21
3692.459098782876
 31
0.0
 12
3459.278361411912
 22
3702.459098782877
 32
0.0
 13
3459.278361411912
 23
3702.459098782877
 33
0.0
  0
SOLID
  5
170
330
16A
100
AcDbEntity
  8
cotas
100
AcDbTrace
 10
3457.611694745246
 20
3672.459098782877
 30
0.0
 11
3460.945028078579
 21
3672.459098782877
 31
0.0
 12
3459.278361411912
 22
3662.459098782877
 32
0.0
 13
3459.278361411912
 23
3662.459098782877
 33
0.0
  0
MTEXT
  5
171
330
16A
100
AcDbEntity
  8
cotas
100
AcDbMText
 10
3449.073525951871
 20
3682.459098782878
 30
0.0
 40
10.0
 41
0.0
 71
     5
 72
     1
  1
40
  7
SANINDUSA
 11
0.0000000000000001
 21
1.0
 31
0.0
 73
     1
 44
1.0
1001
ACAD
1000
MTEXTBEGIN
1070
    73
1070
     1
1070
    44
1040
1.0
1070
    74
1070
     0
1000
MTEXTEND
  0
POINT
  5
172
330
16A
100
AcDbEntity
  8
Defpoints
 62
     0
100
AcDbPoint
 10
3312.008727187014
 20
3702.459098782877
 30
0.0
  0
POINT
  5
173
330
16A
100
AcDbEntity
  8
Defpoints
 62
     0
100
AcDbPoint
 10
3429.275313690393
 20
3662.459098782877
 30
0.0
  0
POINT
  5
174
330
16A
100
AcDbEntity
  8
Defpoints
 62
     0
100
AcDbPoint
 10
3459.278361411912
 20
3662.459098782877
 30
0.0
  0
ENDBLK
  5
175
330
16A
100
AcDbEntity
  8
0
100
AcDbBlockEnd
  0
BLOCK
  5
177
330
176
100
AcDbEntity
  8
0
100
AcDbBlockBegin
  2
*D28
 70
     1
 10
0.0
 20
0.0
 30
0.0
  3
*D28
  1

  0
LINE
  5
178
330
176
100
AcDbEntity
  8
cotas
100
AcDbLine
 10
3317.004352137009
 20
3702.459098782877
 30
0.0
 11
3464.278361411913
 21
3702.459098782877
 31
0.0
  0
LINE
  5
179
330
176
100
AcDbEntity
  8
cotas
100
AcDbLine
 10
3317.015920147892
 20
4370.159098459509
 30
0.0
 11
3464.278361411913
 21
4370.159098459509
 31
0.0
  0
LINE
  5
17A
330
176
100
AcDbEntity
  8
cotas
100
AcDbLine
 10
3459.278361411913
 20
3712.459098782877
 30
0.0
 11
3459.278361411913
 21
4360.159098459508
 31
0.0
  0
SOLID
  5
17B
330
176
100
AcDbEntity
  8
cotas
100
AcDbTrace
 10
3457.611694745246
 20
3712.459098782877
 30
0.0
 11
3460.94502807858
 21
3712.459098782877
 31
0.0
 12
3459.278361411913
 22
3702.459098782877
 32
0.0
 13
3459.278361411913
 23
3702.459098782877
 33
0.0
  0
SOLID
  5
17C
330
176
100
AcDbEntity
  8
cotas
100
AcDbTrace
 10
3457.611694745246
 20
4360.159098459508
 30
0.0
 11
3460.94502807858
 21
4360.159098459508
 31
0.0
 12
3459.278361411913
 22
4370.159098459509
 32
0.0
 13
3459.278361411913
 23
4370.159098459509
 33
0.0
  0
MTEXT
  5
17D
330
176
100
AcDbEntity
  8
cotas
100
AcDbMText
 10
3447.941893984108
 20
4036.309098621194
 30
0.0
 40
10.0
 41
0.0
 71
     5
 72
     1
  1
667,7
  7
SANINDUSA
 11
0.0000000000000001
 21
1.0
 31
0.0
 73
     1
 44
1.0
1001
ACAD
1000
MTEXTBEGIN
1070
    73
1070
     1
1070
    44
1040
1.0
1070
    74
1070
     0
1000
MTEXTEND
  0
POINT
  5
17E
330
176
100
AcDbEntity
  8
Defpoints
 62
     0
100
AcDbPoint
 10
3312.004352137009
 20
3702.459098782877
 30
0.0
  0
POINT
  5
17F
330
176
100
AcDbEntity
  8
Defpoints
 62
     0
100
AcDbPoint
 10
3312.015920147892
 20
4370.159098459509
 30
0.0
  0
POINT
  5
180
330
176
100
AcDbEntity
  8
Defpoints
 62
     0
100
AcDbPoint
 10
3459.278361411913
 20
4370.159098459509
 30
0.0
  0
ENDBLK
  5
181
330
176
100
AcDbEntity
  8
0
100
AcDbBlockEnd
  0
BLOCK
  5
183
330
182
100
AcDbEntity
  8
0
100
AcDbBlockBegin
  2
*D29
 70
     1
 10
0.0
 20
0.0
 30
0.0
  3
*D29
  1

  0
LINE
  5
184
330
182
100
AcDbEntity
  8
cotas
100
AcDbLine
 10
3317.008727187015
 20
4370.159098782876
 30
0.0
 11
3464.278361411913
 21
4370.159098782876
 31
0.0
  0
LINE
  5
185
330
182
100
AcDbEntity
  8
cotas
100
AcDbLine
 10
3432.179858927629
 20
4410.156169317436
 30
0.0
 11
3464.278361411913
 21
4410.156169317436
 31
0.0
  0
LINE
  5
186
330
182
100
AcDbEntity
  8
cotas
100
AcDbLine
 10
3459.278361411912
 20
4380.159098782876
 30
0.0
 11
3459.278361411912
 21
4400.156169317436
 31
0.0
  0
SOLID
  5
187
330
182
100
AcDbEntity
  8
cotas
100
AcDbTrace
 10
3457.611694745246
 20
4380.159098782876
 30
0.0
 11
3460.945028078579
 21
4380.159098782876
 31
0.0
 12
3459.278361411912
 22
4370.159098782876
 32
0.0
 13
3459.278361411912
 23
4370.159098782876
 33
0.0
  0
SOLID
  5
188
330
182
100
AcDbEntity
  8
cotas
100
AcDbTrace
 10
3457.611694745246
 20
4400.156169317436
 30
0.0
 11
3460.945028078579
 21
4400.156169317436
 31
0.0
 12
3459.278361411912
 22
4410.156169317436
 32
0.0
 13
3459.278361411912
 23
4410.156169317436
 33
0.0
  0
MTEXT
  5
189
330
182
100
AcDbEntity
  8
cotas
100
AcDbMText
 10
3449.073525951872
 20
4390.157634050157
 30
0.0
 40
10.0
 41
0.0
 71
     5
 72
     1
  1
40
  7
SANINDUSA
 11
0.0000000000000001
 21
1.0
 31
0.0
 73
     1
 44
1.0
1001
ACAD
1000
MTEXTBEGIN
1070
    73
1070
     1
1070
    44
1040
1.0
1070
    74
1070
     0
1000
MTEXTEND
  0
POINT
  5
18A
330
182
100
AcDbEntity
  8
Defpoints
 62
     0
100
AcDbPoint
 10
3312.008727187015
 20
4370.159098782876
 30
0.0
  0
POINT
  5
18B
330
182
100
AcDbEntity
  8
Defpoints
 62
     0
100
AcDbPoint
 10
3427.17985892763
 20
4410.156169317436
 30
0.0
  0
POINT
  5
18C
330
182
100
AcDbEntity
  8
Defpoints
 62
     0
100
AcDbPoint
 10
3459.278361411912
 20
4410.156169317436
 30
0.0
  0
ENDBLK
  5
18D
330
182
100
AcDbEntity
  8
0
100
AcDbBlockEnd
  0
BLOCK
  5
18F
330
18E
100
AcDbEntity
  8
0
100
AcDbBlockBegin
  2
*D30
 70
     1
 10
0.0
 20
0.0
 30
0.0
  3
*D30
  1

  0
LINE
  5
190
330
18E
100
AcDbEntity
  8
cotas
100
AcDbLine
 10
2234.281409133402
 20
3662.459098782877
 30
0.0
 11
2179.278361411912
 21
3662.459098782877
 31
0.0
  0
LINE
  5
191
330
18E
100
AcDbEntity
  8
cotas
100
AcDbLine
 10
2229.278361411912
 20
4242.459098782877
 30
0.0
 11
2179.278361411912
 21
4242.459098782877
 31
0.0
  0
LINE
  5
192
330
18E
100
AcDbEntity
  8
cotas
100
AcDbLine
 10
2184.278361411912
 20
3672.459098782877
 30
0.0
 11
2184.278361411912
 21
4232.459098782877
 31
0.0
  0
SOLID
  5
193
330
18E
100
AcDbEntity
  8
cotas
100
AcDbTrace
 10
2182.611694745245
 20
3672.459098782877
 30
0.0
 11
2185.945028078579
 21
3672.459098782877
 31
0.0
 12
2184.278361411912
 22
3662.459098782877
 32
0.0
 13
2184.278361411912
 23
3662.459098782877
 33
0.0
  0
SOLID
  5
194
330
18E
100
AcDbEntity
  8
cotas
100
AcDbTrace
 10
2182.611694745245
 20
4232.459098782877
 30
0.0
 11
2185.945028078579
 21
4232.459098782877
 31
0.0
 12
2184.278361411912
 22
4242.459098782877
 32
0.0
 13
2184.278361411912
 23
4242.459098782877
 33
0.0
  0
MTEXT
  5
195
330
18E
100
AcDbEntity
  8
cotas
100
AcDbMText
 10
2174.050020243342
 20
3952.459098782878
 30
0.0
 40
10.0
 41
0.0
 71
     5
 72
     1
  1
580
  7
SANINDUSA
 11
0.0000000000000001
 21
1.0
 31
0.0
 73
     1
 44
1.0
1001
ACAD
1000
MTEXTBEGIN
1070
    73
1070
     1
1070
    44
1040
1.0
1070
    74
1070
     0
1000
MTEXTEND
  0
POINT
  5
196
330
18E
100
AcDbEntity
  8
Defpoints
 62
     0
100
AcDbPoint
 10
2239.281409133402
 20
3662.459098782877
 30
0.0
  0
POINT
  5
197
330
18E
100
AcDbEntity
  8
Defpoints
 62
     0
100
AcDbPoint
 10
2234.278361411912
 20
4242.459098782877
 30
0.0
  0
POINT
  5
198
330
18E
100
AcDbEntity
  8
Defpoints
 62
     0
100
AcDbPoint
 10
2184.278361411912
 20
4242.459098782877
 30
0.0
  0
ENDBLK
  5
199
330
18E
100
AcDbEntity
  8
0
100
AcDbBlockEnd
  0
BLOCK
  5
19B
330
19A
100
AcDbEntity
  8
0
100
AcDbBlockBegin
  2
*D31
 70
     1
 10
0.0
 20
0.0
 30
0.0
  3
*D31
  1

  0
LINE
  5
19C
330
19A
100
AcDbEntity
  8
cotas
100
AcDbLine
 10
2236.547995499269
 20
4410.159098782876
 30
0.0
 11
2236.547995499269
 21
4442.459098782877
 31
0.0
  0
LINE
  5
19D
330
19A
100
AcDbEntity
  8
cotas
100
AcDbLine
 10
2834.278361323509
 20
4417.459098782877
 30
0.0
 11
2834.278361323509
 21
4442.459098782877
 31
0.0
  0
LINE
  5
19E
330
19A
100
AcDbEntity
  8
cotas
100
AcDbLine
 10
2246.54799549927
 20
4437.459098782876
 30
0.0
 11
2824.278361323509
 21
4437.459098782876
 31
0.0
  0
SOLID
  5
19F
330
19A
100
AcDbEntity
  8
cotas
100
AcDbTrace
 10
2246.54799549927
 20
4439.125765449544
 30
0.0
 11
2246.54799549927
 21
4435.79243211621
 31
0.0
 12
2236.547995499269
 22
4437.459098782876
 32
0.0
 13
2236.547995499269
 23
4437.459098782876
 33
0.0
  0
SOLID
  5
1A0
330
19A
100
AcDbEntity
  8
cotas
100
AcDbTrace
 10
2824.278361323509
 20
4439.125765449544
 30
0.0
 11
2824.278361323509
 21
4435.79243211621
 31
0.0
 12
2834.278361323509
 22
4437.459098782876
 32
0.0
 13
2834.278361323509
 23
4437.459098782876
 33
0.0
  0
MTEXT
  5
1A1
330
19A
100
AcDbEntity
  8
cotas
100
AcDbMText
 10
2535.413178411389
 20
4448.802282127403
 30
0.0
 40
10.0
 41
0.0
 71
     5
 72
     1
  1
597,7
  7
SANINDUSA
 73
     1
 44
1.0
1001
ACAD
1000
MTEXTBEGIN
1070
    73
1070
     1
1070
    44
1040
1.0
1070
    74
1070
     0
1000
MTEXTEND
  0
POINT
  5
1A2
330
19A
100
AcDbEntity
  8
Defpoints
 62
     0
100
AcDbPoint
 10
2236.547995499269
 20
4405.159098782876
 30
0.0
  0
POINT
  5
1A3
330
19A
100
AcDbEntity
  8
Defpoints
 62
     0
100
AcDbPoint
 10
2834.278361323509
 20
4412.459098782877
 30
0.0
  0
POINT
  5
1A4
330
19A
100
AcDbEntity
  8
Defpoints
 62
     0
100
AcDbPoint
 10
2834.278361323509
 20
4437.459098782876
 30
0.0
  0
ENDBLK
  5
1A5
330
19A
100
AcDbEntity
  8
0
100
AcDbBlockEnd
  0
BLOCK
  5
1A7
330
1A6
100
AcDbEntity
  8
0
100
AcDbBlockBegin
  2
*D32
 70
     1
 10
0.0
 20
0.0
 30
0.0
  3
*D32
  1

  0
LINE
  5
1A8
330
1A6
100
AcDbEntity
  8
cotas
100
AcDbLine
 10
2834.278361323509
 20
4417.459098782877
 30
0.0
 11
2834.278361323509
 21
4442.459098782877
 31
0.0
  0
LINE
  5
1A9
330
1A6
100
AcDbEntity
  8
cotas
100
AcDbLine
 10
3432.008727187014
 20
4410.159098782878
 30
0.0
 11
3432.008727187014
 21
4442.459098782877
 31
0.0
  0
LINE
  5
1AA
330
1A6
100
AcDbEntity
  8
cotas
100
AcDbLine
 10
2844.278361323509
 20
4437.459098782876
 30
0.0
 11
3422.008727187014
 21
4437.459098782876
 31
0.0
  0
SOLID
  5
1AB
330
1A6
100
AcDbEntity
  8
cotas
100
AcDbTrace
 10
2844.278361323509
 20
4439.125765449544
 30
0.0
 11
2844.278361323509
 21
4435.79243211621
 31
0.0
 12
2834.278361323509
 22
4437.459098782876
 32
0.0
 13
2834.278361323509
 23
4437.459098782876
 33
0.0
  0
SOLID
  5
1AC
330
1A6
100
AcDbEntity
  8
cotas
100
AcDbTrace
 10
3422.008727187014
 20
4439.125765449544
 30
0.0
 11
3422.008727187014
 21
4435.79243211621
 31
0.0
 12
3432.008727187014
 22
4437.459098782876
 32
0.0
 13
3432.008727187014
 23
4437.459098782876
 33
0.0
  0
MTEXT
  5
1AD
330
1A6
100
AcDbEntity
  8
cotas
100
AcDbMText
 10
3133.143544255262
 20
4448.802282127403
 30
0.0
 40
10.0
 41
0.0
 71
     5
 72
     1
  1
597,7
  7
SANINDUSA
 73
     1
 44
1.0
1001
ACAD
1000
MTEXTBEGIN
1070
    73
1070
     1
1070
    44
1040
1.0
1070
    74
1070
     0
1000
MTEXTEND
  0
POINT
  5
1AE
330
1A6
100
AcDbEntity
  8
Defpoints
 62
     0
100
AcDbPoint
 10
2834.278361323509
 20
4412.459098782877
 30
0.0
  0
POINT
  5
1AF
330
1A6
100
AcDbEntity
  8
Defpoints
 62
     0
100
AcDbPoint
 10
3432.008727187014
 20
4405.159098782877
 30
0.0
  0
POINT
  5
1B0
330
1A6
100
AcDbEntity
  8
Defpoints
 62
     0
100
AcDbPoint
 10
3432.008727187014
 20
4437.459098782876
 30
0.0
  0
ENDBLK
  5
1B1
330
1A6
100
AcDbEntity
  8
0
100
AcDbBlockEnd
  0
BLOCK
  5
1B3
330
1B2
100
AcDbEntity
  8
0
100
AcDbBlockBegin
  2
*D33
 70
     1
 10
0.0
 20
0.0
 30
0.0
  3
*D33
  1

  0
LINE
  5
1B4
330
1B2
100
AcDbEntity
  8
cotas
100
AcDbLine
 10
3432.008727187014
 20
4410.159098782878
 30
0.0
 11
3432.008727187014
 21
4442.459098782877
 31
0.0
  0
LINE
  5
1B5
330
1B2
100
AcDbEntity
  8
cotas
100
AcDbLine
 10
3434.278361411912
 20
4412.46214464776
 30
0.0
 11
3434.278361411912
 21
4442.459098782877
 31
0.0
  0
LINE
  5
1B6
330
1B2
100
AcDbEntity
  8
cotas
100
AcDbLine
 10
3422.008727187014
 20
4437.459098782876
 30
0.0
 11
3412.008727187014
 21
4437.459098782876
 31
0.0
  0
LINE
  5
1B7
330
1B2
100
AcDbEntity
  8
cotas
100
AcDbLine
 10
3444.278361411913
 20
4437.459098782876
 30
0.0
 11
3484.65445274838
 21
4437.459098782876
 31
0.0
  0
LINE
  5
1B8
330
1B2
100
AcDbEntity
  8
cotas
100
AcDbLine
 10
3432.008727187014
 20
4437.459098782876
 30
0.0
 11
3434.278361411912
 21
4437.459098782876
 31
0.0
  0
SOLID
  5
1B9
330
1B2
100
AcDbEntity
  8
cotas
100
AcDbTrace
 10
3422.008727187014
 20
4439.125765449544
 30
0.0
 11
3422.008727187014
 21
4435.79243211621
 31
0.0
 12
3432.008727187014
 22
4437.459098782876
 32
0.0
 13
3432.008727187014
 23
4437.459098782876
 33
0.0
  0
SOLID
  5
1BA
330
1B2
100
AcDbEntity
  8
cotas
100
AcDbTrace
 10
3444.278361411913
 20
4439.125765449544
 30
0.0
 11
3444.278361411913
 21
4435.79243211621
 31
0.0
 12
3434.278361411912
 22
4437.459098782876
 32
0.0
 13
3434.278361411912
 23
4437.459098782876
 33
0.0
  0
MTEXT
  5
1BB
330
1B2
100
AcDbEntity
  8
cotas
100
AcDbMText
 10
3469.466407080146
 20
4448.805640085764
 30
0.0
 40
10.0
 41
0.0
 71
     5
 72
     1
  1
2,3
  7
SANINDUSA
 73
     1
 44
1.0
1001
ACAD
1000
MTEXTBEGIN
1070
    73
1070
     1
1070
    44
1040
1.0
1070
    74
1070
     0
1000
MTEXTEND
  0
POINT
  5
1BC
330
1B2
100
AcDbEntity
  8
Defpoints
 62
     0
100
AcDbPoint
 10
3432.008727187014
 20
4405.159098782877
 30
0.0
  0
POINT
  5
1BD
330
1B2
100
AcDbEntity
  8
Defpoints
 62
     0
100
AcDbPoint
 10
3434.278361411912
 20
4407.462144647761
 30
0.0
  0
POINT
  5
1BE
330
1B2
100
AcDbEntity
  8
Defpoints
 62
     0
100
AcDbPoint
 10
3434.278361411912
 20
4437.459098782876
 30
0.0
  0
ENDBLK
  5
1BF
330
1B2
100
AcDbEntity
  8
0
100
AcDbBlockEnd
  0
BLOCK
  5
1C1
330
1C0
100
AcDbEntity
  8
0
100
AcDbBlockBegin
  2
*D34
 70
     1
 10
0.0
 20
0.0
 30
0.0
  3
*D34
  1

  0
LINE
  5
1C2
330
1C0
100
AcDbEntity
  8
cotas
100
AcDbLine
 10
2236.547995499269
 20
4410.159098782876
 30
0.0
 11
2236.547995499269
 21
4442.459098782877
 31
0.0
  0
LINE
  5
1C3
330
1C0
100
AcDbEntity
  8
cotas
100
AcDbLine
 10
2234.278361411908
 20
4412.462144647756
 30
0.0
 11
2234.278361411908
 21
4442.459098782877
 31
0.0
  0
LINE
  5
1C4
330
1C0
100
AcDbEntity
  8
cotas
100
AcDbLine
 10
2246.54799549927
 20
4437.459098782876
 30
0.0
 11
2256.547995499269
 21
4437.459098782876
 31
0.0
  0
LINE
  5
1C5
330
1C0
100
AcDbEntity
  8
cotas
100
AcDbLine
 10
2224.278361411908
 20
4437.459098782876
 30
0.0
 11
2183.90227007544
 21
4437.459098782876
 31
0.0
  0
LINE
  5
1C6
330
1C0
100
AcDbEntity
  8
cotas
100
AcDbLine
 10
2236.547995499269
 20
4437.459098782876
 30
0.0
 11
2234.278361411908
 21
4437.459098782876
 31
0.0
  0
SOLID
  5
1C7
330
1C0
100
AcDbEntity
  8
cotas
100
AcDbTrace
 10
2246.54799549927
 20
4439.125765449544
 30
0.0
 11
2246.54799549927
 21
4435.79243211621
 31
0.0
 12
2236.547995499269
 22
4437.459098782876
 32
0.0
 13
2236.547995499269
 23
4437.459098782876
 33
0.0
  0
SOLID
  5
1C8
330
1C0
100
AcDbEntity
  8
cotas
100
AcDbTrace
 10
2224.278361411908
 20
4439.125765449544
 30
0.0
 11
2224.278361411908
 21
4435.79243211621
 31
0.0
 12
2234.278361411908
 22
4437.459098782876
 32
0.0
 13
2234.278361411908
 23
4437.459098782876
 33
0.0
  0
MTEXT
  5
1C9
330
1C0
100
AcDbEntity
  8
cotas
100
AcDbMText
 10
2199.090315743674
 20
4448.805640085764
 30
0.0
 40
10.0
 41
0.0
 71
     5
 72
     1
  1
2,3
  7
SANINDUSA
 73
     1
 44
1.0
1001
ACAD
1000
MTEXTBEGIN
1070
    73
1070
     1
1070
    44
1040
1.0
1070
    74
1070
     0
1000
MTEXTEND
  0
POINT
  5
1CA
330
1C0
100
AcDbEntity
  8
Defpoints
 62
     0
100
AcDbPoint
 10
2236.547995499269
 20
4405.159098782876
 30
0.0
  0
POINT
  5
1CB
330
1C0
100
AcDbEntity
  8
Defpoints
 62
     0
100
AcDbPoint
 10
2234.278361411908
 20
4407.462144647755
 30
0.0
  0
POINT
  5
1CC
330
1C0
100
AcDbEntity
  8
Defpoints
 62
     0
100
AcDbPoint
 10
2234.278361411908
 20
4437.459098782876
 30
0.0
  0
ENDBLK
  5
1CD
330
1C0
100
AcDbEntity
  8
0
100
AcDbBlockEnd
  0
BLOCK
  5
1CF
330
1CE
100
AcDbEntity
  8
0
100
AcDbBlockBegin
  2
*D35
 70
     1
 10
0.0
 20
0.0
 30
0.0
  3
*D35
  1

  0
LINE
  5
1D0
330
1CE
100
AcDbEntity
  8
cotas
100
AcDbLine
 10
4855.995582915632
 20
4843.359397857283
 30
0.0
 11
4855.995582915632
 21
4868.359397857282
 31
0.0
  0
LINE
  5
1D1
330
1CE
100
AcDbEntity
  8
cotas
100
AcDbLine
 10
4895.996631975077
 20
4841.831632549398
 30
0.0
 11
4895.996631975077
 21
4868.359397857282
 31
0.0
  0
LINE
  5
1D2
330
1CE
100
AcDbEntity
  8
cotas
100
AcDbLine
 10
4865.995582915632
 20
4863.359397857283
 30
0.0
 11
4885.996631975078
 21
4863.359397857283
 31
0.0
  0
SOLID
  5
1D3
330
1CE
100
AcDbEntity
  8
cotas
100
AcDbTrace
 10
4865.995582915632
 20
4865.02606452395
 30
0.0
 11
4865.995582915632
 21
4861.692731190616
 31
0.0
 12
4855.995582915632
 22
4863.359397857283
 32
0.0
 13
4855.995582915632
 23
4863.359397857283
 33
0.0
  0
SOLID
  5
1D4
330
1CE
100
AcDbEntity
  8
cotas
100
AcDbTrace
 10
4885.996631975078
 20
4865.02606452395
 30
0.0
 11
4885.996631975078
 21
4861.692731190616
 31
0.0
 12
4895.996631975077
 22
4863.359397857283
 32
0.0
 13
4895.996631975077
 23
4863.359397857283
 33
0.0
  0
MTEXT
  5
1D5
330
1CE
100
AcDbEntity
  8
cotas
100
AcDbMText
 10
4875.996107445355
 20
4873.564233317323
 30
0.0
 40
10.0
 41
0.0
 71
     5
 72
     1
  1
40
  7
SANINDUSA
 73
     1
 44
1.0
1001
ACAD
1000
MTEXTBEGIN
1070
    73
1070
     1
1070
    44
1040
1.0
1070
    74
1070
     0
1000
MTEXTEND
  0
POINT
  5
1D6
330
1CE
100
AcDbEntity
  8
Defpoints
 62
     0
100
AcDbPoint
 10
4855.995582915632
 20
4838.359397857282
 30
0.0
  0
POINT
  5
1D7
330
1CE
100
AcDbEntity
  8
Defpoints
 62
     0
100
AcDbPoint
 10
4895.996631975077
 20
4836.831632549397
 30
0.0
  0
POINT
  5
1D8
330
1CE
100
AcDbEntity
  8
Defpoints
 62
     0
100
AcDbPoint
 10
4895.996631975077
 20
4863.359397857283
 30
0.0
  0
ENDBLK
  5
1D9
330
1CE
100
AcDbEntity
  8
0
100
AcDbBlockEnd
  0
BLOCK
  5
1DB
330
1DA
100
AcDbEntity
  8
0
100
AcDbBlockBegin
  2
*D36
 70
     1
 10
0.0
 20
0.0
 30
0.0
  3
*D36
  1

  0
LINE
  5
1DC
330
1DA
100
AcDbEntity
  8
cotas
100
AcDbLine
 10
4931.250068789303
 20
4804.846723937524
 30
0.0
 11
4825.995582915633
 21
4804.846723937524
 31
0.0
  0
LINE
  5
1DD
330
1DA
100
AcDbEntity
  8
cotas
100
AcDbLine
 10
4850.995582915633
 20
4838.359397857282
 30
0.0
 11
4825.995582915633
 21
4838.359397857282
 31
0.0
  0
LINE
  5
1DE
330
1DA
100
AcDbEntity
  8
cotas
100
AcDbLine
 10
4830.995582915633
 20
4814.846723937524
 30
0.0
 11
4830.995582915633
 21
4828.359397857282
 31
0.0
  0
LINE
  5
1DF
330
1DA
100
AcDbEntity
  8
cotas
100
AcDbLine
 10
4830.995582915633
 20
4838.359397857282
 30
0.0
 11
4830.995582915633
 21
4887.499760516785
 31
0.0
  0
SOLID
  5
1E0
330
1DA
100
AcDbEntity
  8
cotas
100
AcDbTrace
 10
4829.328916248966
 20
4814.846723937524
 30
0.0
 11
4832.6622495823
 21
4814.846723937524
 31
0.0
 12
4830.995582915633
 22
4804.846723937524
 32
0.0
 13
4830.995582915633
 23
4804.846723937524
 33
0.0
  0
SOLID
  5
1E1
330
1DA
100
AcDbEntity
  8
cotas
100
AcDbTrace
 10
4829.328916248966
 20
4828.359397857282
 30
0.0
 11
4832.6622495823
 21
4828.359397857282
 31
0.0
 12
4830.995582915633
 22
4838.359397857282
 32
0.0
 13
4830.995582915633
 23
4838.359397857282
 33
0.0
  0
MTEXT
  5
1E2
330
1DA
100
AcDbEntity
  8
cotas
100
AcDbMText
 10
4819.649041612745
 20
4867.929579187035
 30
0.0
 40
10.0
 41
0.0
 71
     5
 72
     1
  1
33,5
  7
SANINDUSA
 11
0.0000000000000001
 21
1.0
 31
0.0
 73
     1
 44
1.0
1001
ACAD
1000
MTEXTBEGIN
1070
    73
1070
     1
1070
    44
1040
1.0
1070
    74
1070
     0
1000
MTEXTEND
  0
POINT
  5
1E3
330
1DA
100
AcDbEntity
  8
Defpoints
 62
     0
100
AcDbPoint
 10
4936.250068789303
 20
4804.846723937524
 30
0.0
  0
POINT
  5
1E4
330
1DA
100
AcDbEntity
  8
Defpoints
 62
     0
100
AcDbPoint
 10
4855.995582915632
 20
4838.359397857282
 30
0.0
  0
POINT
  5
1E5
330
1DA
100
AcDbEntity
  8
Defpoints
 62
     0
100
AcDbPoint
 10
4830.995582915633
 20
4838.359397857282
 30
0.0
  0
ENDBLK
  5
1E6
330
1DA
100
AcDbEntity
  8
0
100
AcDbBlockEnd
  0
BLOCK
  5
1E8
330
1E7
100
AcDbEntity
  8
0
100
AcDbBlockBegin
  2
*D37
 70
     1
 10
0.0
 20
0.0
 30
0.0
  3
*D37
  1

  0
LINE
  5
1E9
330
1E7
100
AcDbEntity
  8
cotas
100
AcDbLine
 10
4983.853630426093
 20
4803.252567716815
 30
0.0
 11
4800.995582915632
 21
4803.252567716815
 31
0.0
  0
LINE
  5
1EA
330
1E7
100
AcDbEntity
  8
cotas
100
AcDbLine
 10
4850.995582915633
 20
4838.359397857282
 30
0.0
 11
4800.995582915632
 21
4838.359397857282
 31
0.0
  0
LINE
  5
1EB
330
1E7
100
AcDbEntity
  8
cotas
100
AcDbLine
 10
4805.995582915632
 20
4813.252567716816
 30
0.0
 11
4805.995582915632
 21
4828.359397857282
 31
0.0
  0
LINE
  5
1EC
330
1E7
100
AcDbEntity
  8
cotas
100
AcDbLine
 10
4805.995582915632
 20
4838.359397857282
 30
0.0
 11
4805.995582915632
 21
4887.009498596033
 31
0.0
  0
SOLID
  5
1ED
330
1E7
100
AcDbEntity
  8
cotas
100
AcDbTrace
 10
4804.328916248966
 20
4813.252567716816
 30
0.0
 11
4807.6622495823
 21
4813.252567716816
 31
0.0
 12
4805.995582915632
 22
4803.252567716815
 32
0.0
 13
4805.995582915632
 23
4803.252567716815
 33
0.0
  0
SOLID
  5
1EE
330
1E7
100
AcDbEntity
  8
cotas
100
AcDbTrace
 10
4804.328916248966
 20
4828.359397857282
 30
0.0
 11
4807.6622495823
 21
4828.359397857282
 31
0.0
 12
4805.995582915632
 22
4838.359397857282
 32
0.0
 13
4805.995582915632
 23
4838.359397857282
 33
0.0
  0
MTEXT
  5
1EF
330
1E7
100
AcDbEntity
  8
cotas
100
AcDbMText
 10
4794.649041612744
 20
4867.684448226659
 30
0.0
 40
10.0
 41
0.0
 71
     5
 72
     1
  1
35,1
  7
SANINDUSA
 11
0.0000000000000001
 21
1.0
 31
0.0
 73
     1
 44
1.0
1001
ACAD
1000
MTEXTBEGIN
1070
    73
1070
     1
1070
    44
1040
1.0
1070
    74
1070
     0
1000
MTEXTEND
  0
POINT
  5
1F0
330
1E7
100
AcDbEntity
  8
Defpoints
 62
     0
100
AcDbPoint
 10
4988.853630426093
 20
4803.252567716815
 30
0.0
  0
POINT
  5
1F1
330
1E7
100
AcDbEntity
  8
Defpoints
 62
     0
100
AcDbPoint
 10
4855.995582915632
 20
4838.359397857282
 30
0.0
  0
POINT
  5
1F2
330
1E7
100
AcDbEntity
  8
Defpoints
 62
     0
100
AcDbPoint
 10
4805.995582915632
 20
4838.359397857282
 30
0.0
  0
ENDBLK
  5
1F3
330
1E7
100
AcDbEntity
  8
0
100
AcDbBlockEnd
  0
BLOCK
  5
1F5
330
1F4
100
AcDbEntity
  8
0
100
AcDbBlockBegin
  2
*D38
 70
     1
 10
0.0
 20
0.0
 30
0.0
  3
*D38
  1

  0
LINE
  5
1F6
330
1F4
100
AcDbEntity
  8
cotas
100
AcDbLine
 10
5603.731859150737
 20
4843.44884051879
 30
0.0
 11
5603.731859150737
 21
4868.448840518791
 31
0.0
  0
LINE
  5
1F7
330
1F4
100
AcDbEntity
  8
cotas
100
AcDbLine
 10
5563.729986455778
 20
4841.916031372958
 30
0.0
 11
5563.729986455778
 21
4868.448840518791
 31
0.0
  0
LINE
  5
1F8
330
1F4
100
AcDbEntity
  8
cotas
100
AcDbLine
 10
5593.731859150736
 20
4863.44884051879
 30
0.0
 11
5573.729986455778
 21
4863.44884051879
 31
0.0
  0
SOLID
  5
1F9
330
1F4
100
AcDbEntity
  8
cotas
100
AcDbTrace
 10
5593.731859150736
 20
4865.115507185457
 30
0.0
 11
5593.731859150736
 21
4861.782173852123
 31
0.0
 12
5603.731859150737
 22
4863.44884051879
 32
0.0
 13
5603.731859150737
 23
4863.44884051879
 33
0.0
  0
SOLID
  5
1FA
330
1F4
100
AcDbEntity
  8
cotas
100
AcDbTrace
 10
5573.729986455778
 20
4865.115507185457
 30
0.0
 11
5573.729986455778
 21
4861.782173852123
 31
0.0
 12
5563.729986455778
 22
4863.44884051879
 32
0.0
 13
5563.729986455778
 23
4863.44884051879
 33
0.0
  0
MTEXT
  5
1FB
330
1F4
100
AcDbEntity
  8
cotas
100
AcDbMText
 10
5583.730922803257
 20
4873.653675978831
 30
0.0
 40
10.0
 41
0.0
 71
     5
 72
     1
  1
40
  7
SANINDUSA
 73
     1
 44
1.0
1001
ACAD
1000
MTEXTBEGIN
1070
    73
1070
     1
1070
    44
1040
1.0
1070
    74
1070
     0
1000
MTEXTEND
  0
POINT
  5
1FC
330
1F4
100
AcDbEntity
  8
Defpoints
 62
     0
100
AcDbPoint
 10
5603.731859150737
 20
4838.44884051879
 30
0.0
  0
POINT
  5
1FD
330
1F4
100
AcDbEntity
  8
Defpoints
 62
     0
100
AcDbPoint
 10
5563.729986455778
 20
4836.916031372958
 30
0.0
  0
POINT
  5
1FE
330
1F4
100
AcDbEntity
  8
Defpoints
 62
     0
100
AcDbPoint
 10
5563.729986455778
 20
4863.44884051879
 30
0.0
  0
ENDBLK
  5
1FF
330
1F4
100
AcDbEntity
  8
0
100
AcDbBlockEnd
  0
BLOCK
  5
201
330
200
100
AcDbEntity
  8
0
100
AcDbBlockBegin
  2
*D39
 70
     1
 10
0.0
 20
0.0
 30
0.0
  3
*D39
  1

  0
LINE
  5
202
330
200
100
AcDbEntity
  8
cotas
100
AcDbLine
 10
5526.772082626813
 20
4812.98580228575
 30
0.0
 11
5633.731859150735
 21
4812.98580228575
 31
0.0
  0
LINE
  5
203
330
200
100
AcDbEntity
  8
cotas
100
AcDbLine
 10
5608.731859150736
 20
4838.44884051879
 30
0.0
 11
5633.731859150735
 21
4838.44884051879
 31
0.0
  0
LINE
  5
204
330
200
100
AcDbEntity
  8
cotas
100
AcDbLine
 10
5628.731859150736
 20
4802.98580228575
 30
0.0
 11
5628.731859150736
 21
4792.98580228575
 31
0.0
  0
LINE
  5
205
330
200
100
AcDbEntity
  8
cotas
100
AcDbLine
 10
5628.731859150736
 20
4848.44884051879
 30
0.0
 11
5628.731859150736
 21
4897.629498678629
 31
0.0
  0
LINE
  5
206
330
200
100
AcDbEntity
  8
cotas
100
AcDbLine
 10
5628.731859150736
 20
4812.98580228575
 30
0.0
 11
5628.731859150736
 21
4838.44884051879
 31
0.0
  0
SOLID
  5
207
330
200
100
AcDbEntity
  8
cotas
100
AcDbTrace
 10
5627.065192484068
 20
4802.98580228575
 30
0.0
 11
5630.398525817402
 21
4802.98580228575
 31
0.0
 12
5628.731859150736
 22
4812.98580228575
 32
0.0
 13
5628.731859150736
 23
4812.98580228575
 33
0.0
  0
SOLID
  5
208
330
200
100
AcDbEntity
  8
cotas
100
AcDbTrace
 10
5627.065192484068
 20
4848.44884051879
 30
0.0
 11
5630.398525817402
 21
4848.44884051879
 31
0.0
 12
5628.731859150736
 22
4838.44884051879
 32
0.0
 13
5628.731859150736
 23
4838.44884051879
 33
0.0
  0
MTEXT
  5
209
330
200
100
AcDbEntity
  8
cotas
100
AcDbMText
 10
5617.385317847847
 20
4878.039169598711
 30
0.0
 40
10.0
 41
0.0
 71
     5
 72
     1
  1
25,5
  7
SANINDUSA
 11
0.0000000000000001
 21
1.0
 31
0.0
 73
     1
 44
1.0
1001
ACAD
1000
MTEXTBEGIN
1070
    73
1070
     1
1070
    44
1040
1.0
1070
    74
1070
     0
1000
MTEXTEND
  0
POINT
  5
20A
330
200
100
AcDbEntity
  8
Defpoints
 62
     0
100
AcDbPoint
 10
5521.772082626814
 20
4812.98580228575
 30
0.0
  0
POINT
  5
20B
330
200
100
AcDbEntity
  8
Defpoints
 62
     0
100
AcDbPoint
 10
5603.731859150737
 20
4838.44884051879
 30
0.0
  0
POINT
  5
20C
330
200
100
AcDbEntity
  8
Defpoints
 62
     0
100
AcDbPoint
 10
5628.731859150736
 20
4838.44884051879
 30
0.0
  0
ENDBLK
  5
20D
330
200
100
AcDbEntity
  8
0
100
AcDbBlockEnd
  0
BLOCK
  5
20F
330
20E
100
AcDbEntity
  8
0
100
AcDbBlockBegin
  2
*D40
 70
     1
 10
0.0
 20
0.0
 30
0.0
  3
*D40
  1

  0
LINE
  5
210
330
20E
100
AcDbEntity
  8
cotas
100
AcDbLine
 10
5101.120926011759
 20
4855.418237551842
 30
0.0
 11
5124.967759017198
 21
4816.279323505117
 31
0.0
  0
MTEXT
  5
211
330
20E
100
AcDbEntity
  8
cotas
100
AcDbMText
 10
5116.584388834487
 20
4849.657876620756
 30
0.0
 40
10.0
 41
0.0
 71
     5
 72
     1
  1
R3
  7
SANINDUSA
 11
0.5203153948953892
 21
-0.8539741739858737
 31
0.0
 73
     1
 44
1.0
1001
ACAD
1000
MTEXTBEGIN
1070
    73
1070
     1
1070
    44
1040
1.0
1070
    74
1070
     0
1000
MTEXTEND
  0
LINE
  5
212
330
20E
100
AcDbEntity
  8
cotas
100
AcDbLine
 10
5131.731859150883
 20
4805.177659243229
 30
0.0
 11
5130.170912966151
 21
4807.739581765258
 31
0.0
  0
SOLID
  5
213
330
20E
100
AcDbEntity
  8
cotas
100
AcDbTrace
 10
5126.391049307175
 20
4817.146515829943
 30
0.0
 11
5123.544468727221
 21
4815.412131180291
 31
0.0
 12
5130.170912966151
 22
4807.739581765258
 32
0.0
 13
5130.170912966151
 23
4807.739581765258
 33
0.0
  0
POINT
  5
214
330
20E
100
AcDbEntity
  8
Defpoints
 62
     0
100
AcDbPoint
 10
5130.170912966151
 20
4807.739581765258
 30
0.0
  0
POINT
  5
215
330
20E
100
AcDbEntity
  8
Defpoints
 62
     0
100
AcDbPoint
 10
5131.731859150883
 20
4805.177659243229
 30
0.0
  0
ENDBLK
  5
216
330
20E
100
AcDbEntity
  8
0
100
AcDbBlockEnd
  0
BLOCK
  5
218
330
217
100
AcDbEntity
  8
0
100
AcDbBlockBegin
  2
*D41
 70
     1
 10
0.0
 20
0.0
 30
0.0
  3
*D41
  1

  0
LINE
  5
219
330
217
100
AcDbEntity
  8
cotas
100
AcDbLine
 10
5239.487396487652
 20
4854.056262058663
 30
0.0
 11
5215.050991178199
 21
4815.058481471523
 31
0.0
  0
MTEXT
  5
21A
330
217
100
AcDbEntity
  8
cotas
100
AcDbMText
 10
5223.952938116949
 20
4848.490200286171
 30
0.0
 40
10.0
 41
0.0
 71
     5
 72
     1
  1
R3
  7
SANINDUSA
 11
0.5309797410457399
 21
0.8473845140188714
 31
0.0
 73
     1
 44
1.0
1001
ACAD
1000
MTEXTBEGIN
1070
    73
1070
     1
1070
    44
1040
1.0
1070
    74
1070
     0
1000
MTEXTEND
  0
SOLID
  5
21B
330
217
100
AcDbEntity
  8
cotas
100
AcDbTrace
 10
5213.638683654835
 20
4815.943447706598
 30
0.0
 11
5216.463298701563
 21
4814.173515236446
 31
0.0
 12
5209.741193767741
 22
4806.584636331334
 32
0.0
 13
5209.741193767741
 23
4806.584636331334
 33
0.0
  0
POINT
  5
21C
330
217
100
AcDbEntity
  8
Defpoints
 62
     0
100
AcDbPoint
 10
5209.741193767741
 20
4806.584636331334
 30
0.0
  0
POINT
  5
21D
330
217
100
AcDbEntity
  8
Defpoints
 62
     0
100
AcDbPoint
 10
5211.334132990889
 20
4809.126789873406
 30
0.0
  0
ENDBLK
  5
21E
330
217
100
AcDbEntity
  8
0
100
AcDbBlockEnd
  0
BLOCK
  5
220
330
21F
100
AcDbEntity
  8
0
100
AcDbBlockBegin
  2
*D42
 70
     1
 10
0.0
 20
0.0
 30
0.0
  3
*D42
  1

  0
LINE
  5
221
330
21F
100
AcDbEntity
  8
cotas
100
AcDbLine
 10
4946.736323913396
 20
4859.793998912565
 30
0.0
 11
4919.195299435134
 21
4822.128000912428
 31
0.0
  0
MTEXT
  5
222
330
21F
100
AcDbEntity
  8
cotas
100
AcDbMText
 10
4928.227982739334
 20
4851.770739314287
 30
0.0
 40
10.0
 41
0.0
 71
     5
 72
     1
  1
R50
  7
SANINDUSA
 11
0.5902383098547002
 21
0.8072290490188438
 31
0.0
 73
     1
 44
1.0
1001
ACAD
1000
MTEXTBEGIN
1070
    73
1070
     1
1070
    44
1040
1.0
1070
    74
1070
     0
1000
MTEXTEND
  0
SOLID
  5
223
330
21F
100
AcDbEntity
  8
cotas
100
AcDbTrace
 10
4917.849917686769
 20
4823.111731428853
 30
0.0
 11
4920.540681183498
 21
4821.144270396004
 31
0.0
 12
4913.292916336587
 22
4814.05571042224
 32
0.0
 13
4913.292916336587
 23
4814.05571042224
 33
0.0
  0
POINT
  5
224
330
21F
100
AcDbEntity
  8
Defpoints
 62
     0
100
AcDbPoint
 10
4913.292916336587
 20
4814.05571042224
 30
0.0
  0
POINT
  5
225
330
21F
100
AcDbEntity
  8
Defpoints
 62
     0
100
AcDbPoint
 10
4942.814160277966
 20
4854.42992076199
 30
0.0
  0
ENDBLK
  5
226
330
21F
100
AcDbEntity
  8
0
100
AcDbBlockEnd
  0
BLOCK
  5
228
330
227
100
AcDbEntity
  8
0
100
AcDbBlockBegin
  2
*D43
 70
     1
 10
0.0
 20
0.0
 30
0.0
  3
*D43
  1

  0
LINE
  5
229
330
227
100
AcDbEntity
  8
cotas
100
AcDbLine
 10
5129.271378705817
 20
4740.895995748966
 30
0.0
 11
5092.152730294802
 21
4780.107973726845
 31
0.0
  0
MTEXT
  5
22A
330
227
100
AcDbEntity
  8
cotas
100
AcDbMText
 10
5124.68212670894
 20
4760.466287658887
 30
0.0
 40
10.0
 41
0.0
 71
     5
 72
     1
  1
R15
  7
SANINDUSA
 11
0.6874562579439396
 21
-0.7262257868003007
 31
0.0
 73
     1
 44
1.0
1001
ACAD
1000
MTEXTBEGIN
1070
    73
1070
     1
1070
    44
1040
1.0
1070
    74
1070
     0
1000
MTEXTEND
  0
SOLID
  5
22B
330
227
100
AcDbEntity
  8
cotas
100
AcDbTrace
 10
5093.363106606137
 20
4781.253734156751
 30
0.0
 11
5090.942353983468
 21
4778.962213296939
 31
0.0
 12
5085.278167715363
 22
4787.370231594848
 32
0.0
 13
5085.278167715363
 23
4787.370231594848
 33
0.0
  0
POINT
  5
22C
330
227
100
AcDbEntity
  8
Defpoints
 62
     0
100
AcDbPoint
 10
5085.278167715363
 20
4787.370231594848
 30
0.0
  0
POINT
  5
22D
330
227
100
AcDbEntity
  8
Defpoints
 62
     0
100
AcDbPoint
 10
5095.59001158453
 20
4776.476844792835
 30
0.0
  0
ENDBLK
  5
22E
330
227
100
AcDbEntity
  8
0
100
AcDbBlockEnd
  0
BLOCK
  5
230
330
22F
100
AcDbEntity
  8
0
100
AcDbBlockBegin
  2
*D44
 70
     1
 10
0.0
 20
0.0
 30
0.0
  3
*D44
  1

  0
LINE
  5
231
330
22F
100
AcDbEntity
  8
cotas
100
AcDbLine
 10
4916.064168413836
 20
4729.286148191564
 30
0.0
 11
4906.737395046842
 21
4764.047253216548
 31
0.0
  0
MTEXT
  5
232
330
22F
100
AcDbEntity
  8
cotas
100
AcDbMText
 10
4922.455430971208
 20
4744.455931500761
 30
0.0
 40
10.0
 41
0.0
 71
     5
 72
     1
  1
R5
  7
SANINDUSA
 11
0.2591447199748855
 21
-0.9658385031200289
 31
0.0
 73
     1
 44
1.0
1001
ACAD
1000
MTEXTBEGIN
1070
    73
1070
     1
1070
    44
1040
1.0
1070
    74
1070
     0
1000
MTEXTEND
  0
LINE
  5
233
330
22F
100
AcDbEntity
  8
cotas
100
AcDbLine
 10
4902.850224247217
 20
4778.534830763353
 30
0.0
 11
4904.145947847093
 21
4773.705638247748
 31
0.0
  0
SOLID
  5
234
330
22F
100
AcDbEntity
  8
cotas
100
AcDbTrace
 10
4908.347125885375
 20
4764.479161083174
 30
0.0
 11
4905.127664208309
 21
4763.615345349924
 31
0.0
 12
4904.145947847093
 22
4773.705638247748
 32
0.0
 13
4904.145947847093
 23
4773.705638247748
 33
0.0
  0
POINT
  5
235
330
22F
100
AcDbEntity
  8
Defpoints
 62
     0
100
AcDbPoint
 10
4904.145947847093
 20
4773.705638247748
 30
0.0
  0
POINT
  5
236
330
22F
100
AcDbEntity
  8
Defpoints
 62
     0
100
AcDbPoint
 10
4902.850224247217
 20
4778.534830763353
 30
0.0
  0
ENDBLK
  5
237
330
22F
100
AcDbEntity
  8
0
100
AcDbBlockEnd
  0
BLOCK
  5
239
330
238
100
AcDbEntity
  8
0
100
AcDbBlockBegin
  2
*D45
 70
     1
 10
0.0
 20
0.0
 30
0.0
  3
*D45
  1

  0
LINE
  5
23A
330
238
100
AcDbEntity
  8
cotas
100
AcDbLine
 10
5518.602305465368
 20
4867.10551974052
 30
0.0
 11
5541.542820924253
 21
4828.622520339026
 31
0.0
  0
MTEXT
  5
23B
330
238
100
AcDbEntity
  8
cotas
100
AcDbMText
 10
5536.27788531015
 20
4857.384137907287
 30
0.0
 40
10.0
 41
0.0
 71
     5
 72
     1
  1
R50
  7
SANINDUSA
 11
0.5120435844443423
 21
-0.8589594679781987
 31
0.0
 73
     1
 44
1.0
1001
ACAD
1000
MTEXTBEGIN
1070
    73
1070
     1
1070
    44
1040
1.0
1070
    74
1070
     0
1000
MTEXTEND
  0
SOLID
  5
23C
330
238
100
AcDbEntity
  8
cotas
100
AcDbTrace
 10
5542.974420037551
 20
4829.4759263131
 30
0.0
 11
5540.111221810956
 21
4827.769114364952
 31
0.0
 12
5546.663256768698
 22
4820.032925659244
 32
0.0
 13
5546.663256768698
 23
4820.032925659244
 33
0.0
  0
POINT
  5
23D
330
238
100
AcDbEntity
  8
Defpoints
 62
     0
100
AcDbPoint
 10
5546.663256768698
 20
4820.032925659244
 30
0.0
  0
POINT
  5
23E
330
238
100
AcDbEntity
  8
Defpoints
 62
     0
100
AcDbPoint
 10
5521.060494912745
 20
4862.981876433477
 30
0.0
  0
ENDBLK
  5
23F
330
238
100
AcDbEntity
  8
0
100
AcDbBlockEnd
  0
BLOCK
  5
241
330
240
100
AcDbEntity
  8
0
100
AcDbBlockBegin
  2
*D46
 70
     1
 10
0.0
 20
0.0
 30
0.0
  3
*D46
  1

  0
LINE
  5
242
330
240
100
AcDbEntity
  8
cotas
100
AcDbLine
 10
5093.827518592076
 20
4806.251232245919
 30
0.0
 11
5108.753136088216
 21
4816.702262129157
 31
0.0
  0
LINE
  5
243
330
240
100
AcDbEntity
  8
cotas
100
AcDbLine
 10
4954.254723851907
 20
4805.818136978759
 30
0.0
 11
4938.710582213265
 21
4816.702262129137
 31
0.0
  0
ARC
  5
244
330
240
100
AcDbEntity
  8
cotas
100
AcDbCircle
 10
5023.731859150747
 20
4757.169723109288
 30
0.0
 40
98.79181438933366
100
AcDbArc
 50
40.80212731582733
 51
139.1978726841859
  0
SOLID
  5
245
330
240
100
AcDbEntity
  8
cotas
100
AcDbTrace
 10
5099.829498513485
 20
4822.748939837794
 30
0.0
 11
5097.199256243805
 21
4820.701273675084
 31
0.0
 12
5104.657375866771
 22
4813.834379947401
 32
0.0
 13
5104.657375866771
 23
4813.834379947401
 33
0.0
  0
SOLID
  5
246
330
240
100
AcDbEntity
  8
cotas
100
AcDbTrace
 10
4950.264462057674
 20
4820.701273675067
 30
0.0
 11
4947.634219787996
 21
4822.748939837775
 31
0.0
 12
4942.80634243471
 22
4813.834379947381
 32
0.0
 13
4942.80634243471
 23
4813.834379947381
 33
0.0
  0
MTEXT
  5
247
330
240
100
AcDbEntity
  8
cotas
100
AcDbMText
 10
5023.731859150736
 20
4867.304720843148
 30
0.0
 40
10.0
 41
0.0
 71
     5
 72
     1
  1
110,0°
  7
SANINDUSA
 73
     1
 44
1.0
1001
ACAD
1000
MTEXTBEGIN
1070
    73
1070
     1
1070
    44
1040
1.0
1070
    74
1070
     0
1000
MTEXTEND
  0
POINT
  5
248
330
240
100
AcDbEntity
  8
Defpoints
 62
     0
100
AcDbPoint
 10
5054.806306317598
 20
4850.947126163601
 30
0.0
  0
POINT
  5
249
330
240
100
AcDbEntity
  8
Defpoints
 62
     0
100
AcDbPoint
 10
4978.731859150737
 20
4788.679062328736
 30
0.0
  0
POINT
  5
24A
330
240
100
AcDbEntity
  8
Defpoints
 62
     0
100
AcDbPoint
 10
5089.731758370632
 20
4803.383350064162
 30
0.0
  0
POINT
  5
24B
330
240
100
AcDbEntity
  8
Defpoints
 62
     0
100
AcDbPoint
 10
5068.731859150736
 20
4788.679062328736
 30
0.0
  0
POINT
  5
24C
330
240
100
AcDbEntity
  8
Defpoints
 62
     0
100
AcDbPoint
 10
4958.350484073353
 20
4802.950254797003
 30
0.0
  0
ENDBLK
  5
24D
330
240
100
AcDbEntity
  8
0
100
AcDbBlockEnd
  0
BLOCK
  5
24F
330
24E
100
AcDbEntity
  8
0
100
AcDbBlockBegin
  2
*D47
 70
     1
 10
0.0
 20
0.0
 30
0.0
  3
*D47
  1

  0
LINE
  5
250
330
24E
100
AcDbEntity
  8
cotas
100
AcDbLine
 10
4961.731859150749
 20
4778.53483076334
 30
0.0
 11
4825.995582915633
 21
4778.53483076334
 31
0.0
  0
LINE
  5
251
330
24E
100
AcDbEntity
  8
cotas
100
AcDbLine
 10
4848.731859150737
 20
4773.534830763352
 30
0.0
 11
4825.995582915633
 21
4773.534830763352
 31
0.0
  0
LINE
  5
252
330
24E
100
AcDbEntity
  8
cotas
100
AcDbLine
 10
4830.995582915633
 20
4788.534830763341
 30
0.0
 11
4830.995582915633
 21
4798.534830763339
 31
0.0
  0
LINE
  5
253
330
24E
100
AcDbEntity
  8
cotas
100
AcDbLine
 10
4830.995582915633
 20
4763.534830763353
 30
0.0
 11
4830.995582915633
 21
4737.020391542399
 31
0.0
  0
LINE
  5
254
330
24E
100
AcDbEntity
  8
cotas
100
AcDbLine
 10
4830.995582915633
 20
4778.53483076334
 30
0.0
 11
4830.995582915633
 21
4773.534830763352
 31
0.0
  0
SOLID
  5
255
330
24E
100
AcDbEntity
  8
cotas
100
AcDbTrace
 10
4829.328916248966
 20
4788.534830763341
 30
0.0
 11
4832.6622495823
 21
4788.534830763341
 31
0.0
 12
4830.995582915633
 22
4778.53483076334
 32
0.0
 13
4830.995582915633
 23
4778.53483076334
 33
0.0
  0
SOLID
  5
256
330
24E
100
AcDbEntity
  8
cotas
100
AcDbTrace
 10
4829.328916248966
 20
4763.534830763353
 30
0.0
 11
4832.6622495823
 21
4763.534830763353
 31
0.0
 12
4830.995582915633
 22
4773.534830763352
 32
0.0
 13
4830.995582915633
 23
4773.534830763352
 33
0.0
  0
MTEXT
  5
257
330
24E
100
AcDbEntity
  8
cotas
100
AcDbMText
 10
4820.891486206431
 20
4745.277611152878
 30
0.0
 40
10.0
 41
0.0
 71
     5
 72
     1
  1
5
  7
SANINDUSA
 11
0.0000000000000001
 21
1.0
 31
0.0
 73
     1
 44
1.0
1001
ACAD
1000
MTEXTBEGIN
1070
    73
1070
     1
1070
    44
1040
1.0
1070
    74
1070
     0
1000
MTEXTEND
  0
POINT
  5
258
330
24E
100
AcDbEntity
  8
Defpoints
 62
     0
100
AcDbPoint
 10
4966.731859150748
 20
4778.53483076334
 30
0.0
  0
POINT
  5
259
330
24E
100
AcDbEntity
  8
Defpoints
 62
     0
100
AcDbPoint
 10
4853.731859150737
 20
4773.534830763352
 30
0.0
  0
POINT
  5
25A
330
24E
100
AcDbEntity
  8
Defpoints
 62
     0
100
AcDbPoint
 10
4830.995582915633
 20
4773.534830763352
 30
0.0
  0
ENDBLK
  5
25B
330
24E
100
AcDbEntity
  8
0
100
AcDbBlockEnd
  0
BLOCK
  5
25D
330
25C
100
AcDbEntity
  8
0
100
AcDbBlockBegin
  2
*D48
 70
     1
 10
0.0
 20
0.0
 30
0.0
  3
*D48
  1

  0
LINE
  5
25E
330
25C
100
AcDbEntity
  8
cotas
100
AcDbLine
 10
5589.059257733605
 20
4777.528894427178
 30
0.0
 11
5633.731859150735
 21
4777.528894427178
 31
0.0
  0
LINE
  5
25F
330
25C
100
AcDbEntity
  8
cotas
100
AcDbLine
 10
5608.731859150736
 20
4773.534830763352
 30
0.0
 11
5633.731859150735
 21
4773.534830763352
 31
0.0
  0
LINE
  5
260
330
25C
100
AcDbEntity
  8
cotas
100
AcDbLine
 10
5628.731859150736
 20
4787.528894427178
 30
0.0
 11
5628.731859150736
 21
4797.528894427179
 31
0.0
  0
LINE
  5
261
330
25C
100
AcDbEntity
  8
cotas
100
AcDbLine
 10
5628.731859150736
 20
4763.534830763353
 30
0.0
 11
5628.731859150736
 21
4735.972708533669
 31
0.0
  0
LINE
  5
262
330
25C
100
AcDbEntity
  8
cotas
100
AcDbLine
 10
5628.731859150736
 20
4777.528894427178
 30
0.0
 11
5628.731859150736
 21
4773.534830763352
 31
0.0
  0
SOLID
  5
263
330
25C
100
AcDbEntity
  8
cotas
100
AcDbTrace
 10
5627.065192484068
 20
4787.528894427178
 30
0.0
 11
5630.398525817402
 21
4787.528894427178
 31
0.0
 12
5628.731859150736
 22
4777.528894427178
 32
0.0
 13
5628.731859150736
 23
4777.528894427178
 33
0.0
  0
SOLID
  5
264
330
25C
100
AcDbEntity
  8
cotas
100
AcDbTrace
 10
5627.065192484068
 20
4763.534830763353
 30
0.0
 11
5630.398525817402
 21
4763.534830763353
 31
0.0
 12
5628.731859150736
 22
4773.534830763352
 32
0.0
 13
5628.731859150736
 23
4773.534830763352
 33
0.0
  0
MTEXT
  5
265
330
25C
100
AcDbEntity
  8
cotas
100
AcDbMText
 10
5618.731859150734
 20
4744.753769648511
 30
0.0
 40
10.0
 41
0.0
 71
     5
 72
     1
  1
4
  7
SANINDUSA
 11
0.0000000000000001
 21
1.0
 31
0.0
 73
     1
 44
1.0
1001
ACAD
1000
MTEXTBEGIN
1070
    73
1070
     1
1070
    44
1040
1.0
1070
    74
1070
     0
1000
MTEXTEND
  0
POINT
  5
266
330
25C
100
AcDbEntity
  8
Defpoints
 62
     0
100
AcDbPoint
 10
5584.059257733605
 20
4777.528894427178
 30
0.0
  0
POINT
  5
267
330
25C
100
AcDbEntity
  8
Defpoints
 62
     0
100
AcDbPoint
 10
5603.731859150737
 20
4773.534830763352
 30
0.0
  0
POINT
  5
268
330
25C
100
AcDbEntity
  8
Defpoints
 62
     0
100
AcDbPoint
 10
5628.731859150736
 20
4773.534830763352
 30
0.0
  0
ENDBLK
  5
269
330
25C
100
AcDbEntity
  8
0
100
AcDbBlockEnd
  0
BLOCK
  5
7BF
330
7B5
100
AcDbEntity
  8
0
100
AcDbBlockBegin
  2
*D50
 70
     1
 10
0.0
 20
0.0
 30
0.0
  3
*D50
  1

  0
LINE
  5
AA3
330
7B5
100
AcDbEntity
  8
cotas
100
AcDbLine
 10
-935.3447390863065
 20
1183.332094815311
 30
0.0
 11
-935.3447390863065
 21
1062.269070892774
 31
0.0
  0
LINE
  5
AA4
330
7B5
100
AcDbEntity
  8
cotas
100
AcDbLine
 10
-805.3447391092314
 20
1183.32965339373
 30
0.0
 11
-805.3447391092314
 21
1062.269070892774
 31
0.0
  0
LINE
  5
AA5
330
7B5
100
AcDbEntity
  8
cotas
100
AcDbLine
 10
-925.3447390863065
 20
1067.269070892774
 30
0.0
 11
-815.3447391092313
 21
1067.269070892774
 31
0.0
  0
SOLID
  5
AA6
330
7B5
100
AcDbEntity
  8
cotas
100
AcDbTrace
 10
-925.3447390863065
 20
1068.935737559441
 30
0.0
 11
-925.3447390863065
 21
1065.602404226107
 31
0.0
 12
-935.3447390863065
 22
1067.269070892774
 32
0.0
 13
-935.3447390863065
 23
1067.269070892774
 33
0.0
  0
SOLID
  5
AA7
330
7B5
100
AcDbEntity
  8
cotas
100
AcDbTrace
 10
-815.3447391092313
 20
1068.935737559441
 30
0.0
 11
-815.3447391092313
 21
1065.602404226107
 31
0.0
 12
-805.3447391092314
 22
1067.269070892774
 32
0.0
 13
-805.3447391092314
 23
1067.269070892774
 33
0.0
  0
MTEXT
  5
AA8
330
7B5
100
AcDbEntity
  8
cotas
100
AcDbMText
 10
-870.3447390977689
 20
1077.477264311176
 30
0.0
 40
10.0
 41
0.0
 71
     5
 72
     1
  1
130
  7
SANINDUSA
 73
     1
 44
1.0
1001
ACAD
1000
MTEXTBEGIN
1070
    73
1070
     1
1070
    44
1040
1.0
1070
    74
1070
     0
1000
MTEXTEND
  0
POINT
  5
AA9
330
7B5
100
AcDbEntity
  8
Defpoints
 62
     0
100
AcDbPoint
 10
-935.3447390863065
 20
1188.332094815311
 30
0.0
  0
POINT
  5
AAA
330
7B5
100
AcDbEntity
  8
Defpoints
 62
     0
100
AcDbPoint
 10
-805.3447391092314
 20
1188.32965339373
 30
0.0
  0
POINT
  5
AAB
330
7B5
100
AcDbEntity
  8
Defpoints
 62
     0
100
AcDbPoint
 10
-805.3447391092314
 20
1067.269070892774
 30
0.0
  0
ENDBLK
  5
7C0
330
7B5
100
AcDbEntity
  8
0
100
AcDbBlockEnd
  0
BLOCK
  5
7CB
330
7C1
100
AcDbEntity
  8
0
100
AcDbBlockBegin
  2
*D51
 70
     1
 10
0.0
 20
0.0
 30
0.0
  3
*D51
  1

  0
LINE
  5
AB5
330
7C1
100
AcDbEntity
  8
cotas
100
AcDbLine
 10
-675.344739132156
 20
1183.32721197215
 30
0.0
 11
-675.344739132156
 21
1062.269070892774
 31
0.0
  0
LINE
  5
AB6
330
7C1
100
AcDbEntity
  8
cotas
100
AcDbLine
 10
-545.3382979209955
 20
1089.538858844161
 30
0.0
 11
-545.3382979209955
 21
1062.269070892774
 31
0.0
  0
LINE
  5
AB7
330
7C1
100
AcDbEntity
  8
cotas
100
AcDbLine
 10
-665.344739132156
 20
1067.269070892774
 30
0.0
 11
-555.3382979209954
 21
1067.269070892774
 31
0.0
  0
SOLID
  5
AB8
330
7C1
100
AcDbEntity
  8
cotas
100
AcDbTrace
 10
-665.344739132156
 20
1068.935737559441
 30
0.0
 11
-665.344739132156
 21
1065.602404226107
 31
0.0
 12
-675.344739132156
 22
1067.269070892774
 32
0.0
 13
-675.344739132156
 23
1067.269070892774
 33
0.0
  0
SOLID
  5
AB9
330
7C1
100
AcDbEntity
  8
cotas
100
AcDbTrace
 10
-555.3382979209954
 20
1068.935737559441
 30
0.0
 11
-555.3382979209954
 21
1065.602404226107
 31
0.0
 12
-545.3382979209955
 22
1067.269070892774
 32
0.0
 13
-545.3382979209955
 23
1067.269070892774
 33
0.0
  0
MTEXT
  5
ABA
330
7C1
100
AcDbEntity
  8
cotas
100
AcDbMText
 10
-610.3415185265758
 20
1077.477264311176
 30
0.0
 40
10.0
 41
0.0
 71
     5
 72
     1
  1
130
  7
SANINDUSA
 73
     1
 44
1.0
1001
ACAD
1000
MTEXTBEGIN
1070
    73
1070
     1
1070
    44
1040
1.0
1070
    74
1070
     0
1000
MTEXTEND
  0
POINT
  5
ABB
330
7C1
100
AcDbEntity
  8
Defpoints
 62
     0
100
AcDbPoint
 10
-675.344739132156
 20
1188.32721197215
 30
0.0
  0
POINT
  5
ABC
330
7C1
100
AcDbEntity
  8
Defpoints
 62
     0
100
AcDbPoint
 10
-545.3382979209955
 20
1094.538858844161
 30
0.0
  0
POINT
  5
ABD
330
7C1
100
AcDbEntity
  8
Defpoints
 62
     0
100
AcDbPoint
 10
-545.3382979209955
 20
1067.269070892774
 30
0.0
  0
ENDBLK
  5
7CC
330
7C1
100
AcDbEntity
  8
0
100
AcDbBlockEnd
  0
BLOCK
  5
7D7
330
7CD
100
AcDbEntity
  8
0
100
AcDbBlockBegin
  2
*D52
 70
     1
 10
0.0
 20
0.0
 30
0.0
  3
*D52
  1

  0
LINE
  5
AD9
330
7CD
100
AcDbEntity
  8
cotas
100
AcDbLine
 10
-1150.338297920799
 20
1672.269070892774
 30
0.0
 11
-1175.338297920799
 21
1672.269070892774
 31
0.0
  0
LINE
  5
ADA
330
7CD
100
AcDbEntity
  8
cotas
100
AcDbLine
 10
-1145.341343785671
 20
1842.26907089275
 30
0.0
 11
-1175.338297920799
 21
1842.26907089275
 31
0.0
  0
LINE
  5
ADB
330
7CD
100
AcDbEntity
  8
cotas
100
AcDbLine
 10
-1170.338297920799
 20
1682.269070892774
 30
0.0
 11
-1170.338297920799
 21
1832.26907089275
 31
0.0
  0
SOLID
  5
ADC
330
7CD
100
AcDbEntity
  8
cotas
100
AcDbTrace
 10
-1172.004964587466
 20
1682.269070892774
 30
0.0
 11
-1168.671631254132
 21
1682.269070892774
 31
0.0
 12
-1170.338297920799
 22
1672.269070892774
 32
0.0
 13
-1170.338297920799
 23
1672.269070892774
 33
0.0
  0
SOLID
  5
ADD
330
7CD
100
AcDbEntity
  8
cotas
100
AcDbTrace
 10
-1172.004964587466
 20
1832.26907089275
 30
0.0
 11
-1168.671631254132
 21
1832.26907089275
 31
0.0
 12
-1170.338297920799
 22
1842.26907089275
 32
0.0
 13
-1170.338297920799
 23
1842.26907089275
 33
0.0
  0
MTEXT
  5
ADE
330
7CD
100
AcDbEntity
  8
cotas
100
AcDbMText
 10
-1180.54313338084
 20
1757.269070892762
 30
0.0
 40
10.0
 41
0.0
 71
     5
 72
     1
  1
170
  7
SANINDUSA
 11
0.0000000000000001
 21
1.0
 31
0.0
 73
     1
 44
1.0
1001
ACAD
1000
MTEXTBEGIN
1070
    73
1070
     1
1070
    44
1040
1.0
1070
    74
1070
     0
1000
MTEXTEND
  0
POINT
  5
ADF
330
7CD
100
AcDbEntity
  8
Defpoints
 62
     0
100
AcDbPoint
 10
-1145.338297920799
 20
1672.269070892774
 30
0.0
  0
POINT
  5
AE0
330
7CD
100
AcDbEntity
  8
Defpoints
 62
     0
100
AcDbPoint
 10
-1140.341343785671
 20
1842.26907089275
 30
0.0
  0
POINT
  5
AE1
330
7CD
100
AcDbEntity
  8
Defpoints
 62
     0
100
AcDbPoint
 10
-1170.338297920799
 20
1842.26907089275
 30
0.0
  0
ENDBLK
  5
7D8
330
7CD
100
AcDbEntity
  8
0
100
AcDbBlockEnd
  0
BLOCK
  5
7E4
330
7D9
100
AcDbEntity
  8
0
100
AcDbBlockBegin
  2
*D53
 70
     1
 10
0.0
 20
0.0
 30
0.0
  3
*D53
  1

  0
LINE
  5
91A
330
7D9
100
AcDbEntity
  8
cotas
100
AcDbLine
 10
3016.340146595112
 20
1429.503917098051
 30
0.0
 11
2833.482099084651
 21
1429.503917098051
 31
0.0
  0
LINE
  5
91B
330
7D9
100
AcDbEntity
  8
cotas
100
AcDbLine
 10
2883.48209908465
 20
1464.610747238519
 30
0.0
 11
2833.482099084651
 21
1464.610747238519
 31
0.0
  0
LINE
  5
91C
330
7D9
100
AcDbEntity
  8
cotas
100
AcDbLine
 10
2838.482099084651
 20
1439.503917098051
 30
0.0
 11
2838.482099084651
 21
1454.610747238518
 31
0.0
  0
LINE
  5
91D
330
7D9
100
AcDbEntity
  8
cotas
100
AcDbLine
 10
2838.482099084651
 20
1464.610747238519
 30
0.0
 11
2838.482099084651
 21
1513.260847977269
 31
0.0
  0
SOLID
  5
91E
330
7D9
100
AcDbEntity
  8
cotas
100
AcDbTrace
 10
2836.815432417984
 20
1439.503917098051
 30
0.0
 11
2840.148765751317
 21
1439.503917098051
 31
0.0
 12
2838.482099084651
 22
1429.503917098051
 32
0.0
 13
2838.482099084651
 23
1429.503917098051
 33
0.0
  0
SOLID
  5
91F
330
7D9
100
AcDbEntity
  8
cotas
100
AcDbTrace
 10
2836.815432417984
 20
1454.610747238518
 30
0.0
 11
2840.148765751317
 21
1454.610747238518
 31
0.0
 12
2838.482099084651
 22
1464.610747238519
 32
0.0
 13
2838.482099084651
 23
1464.610747238519
 33
0.0
  0
MTEXT
  5
920
330
7D9
100
AcDbEntity
  8
cotas
100
AcDbMText
 10
2827.135557781762
 20
1493.935797607895
 30
0.0
 40
10.0
 41
0.0
 71
     5
 72
     1
  1
35,1
  7
SANINDUSA
 11
0.0000000000000001
 21
1.0
 31
0.0
 73
     1
 44
1.0
1001
ACAD
1000
MTEXTBEGIN
1070
    73
1070
     1
1070
    44
1040
1.0
1070
    74
1070
     0
1000
MTEXTEND
  0
POINT
  5
921
330
7D9
100
AcDbEntity
  8
Defpoints
 62
     0
100
AcDbPoint
 10
3021.340146595111
 20
1429.503917098051
 30
0.0
  0
POINT
  5
922
330
7D9
100
AcDbEntity
  8
Defpoints
 62
     0
100
AcDbPoint
 10
2888.482099084651
 20
1464.610747238519
 30
0.0
  0
POINT
  5
923
330
7D9
100
AcDbEntity
  8
Defpoints
 62
     0
100
AcDbPoint
 10
2838.482099084651
 20
1464.610747238519
 30
0.0
  0
ENDBLK
  5
7E5
330
7D9
100
AcDbEntity
  8
0
100
AcDbBlockEnd
  0
BLOCK
  5
7F0
330
7E6
100
AcDbEntity
  8
0
100
AcDbBlockBegin
  2
*D54
 70
     1
 10
0.0
 20
0.0
 30
0.0
  3
*D54
  1

  0
LINE
  5
9C2
330
7E6
100
AcDbEntity
  8
cotas
100
AcDbLine
 10
266.7648298087865
 20
1404.786180442612
 30
0.0
 11
266.7648298087865
 21
1519.779998434858
 31
0.0
  0
LINE
  5
9C3
330
7E6
100
AcDbEntity
  8
cotas
100
AcDbLine
 10
1466.764829808786
 20
1404.786180442612
 30
0.0
 11
1466.764829808786
 21
1519.779998434858
 31
0.0
  0
LINE
  5
9C4
330
7E6
100
AcDbEntity
  8
cotas
100
AcDbLine
 10
276.7648298087865
 20
1514.779998434858
 30
0.0
 11
1456.764829808786
 21
1514.779998434858
 31
0.0
  0
SOLID
  5
9C5
330
7E6
100
AcDbEntity
  8
cotas
100
AcDbTrace
 10
276.7648298087865
 20
1516.446665101525
 30
0.0
 11
276.7648298087865
 21
1513.113331768191
 31
0.0
 12
266.7648298087865
 22
1514.779998434858
 32
0.0
 13
266.7648298087865
 23
1514.779998434858
 33
0.0
  0
SOLID
  5
9C6
330
7E6
100
AcDbEntity
  8
cotas
100
AcDbTrace
 10
1456.764829808786
 20
1516.446665101525
 30
0.0
 11
1456.764829808786
 21
1513.113331768191
 31
0.0
 12
1466.764829808786
 22
1514.779998434858
 32
0.0
 13
1466.764829808786
 23
1514.779998434858
 33
0.0
  0
MTEXT
  5
9C7
330
7E6
100
AcDbEntity
  8
cotas
100
AcDbMText
 10
866.7648298087865
 20
1524.988191853259
 30
0.0
 40
10.0
 41
0.0
 71
     5
 72
     1
  1
1200
  7
SANINDUSA
 73
     1
 44
1.0
1001
ACAD
1000
MTEXTBEGIN
1070
    73
1070
     1
1070
    44
1040
1.0
1070
    74
1070
     0
1000
MTEXTEND
  0
POINT
  5
9C8
330
7E6
100
AcDbEntity
  8
Defpoints
 62
     0
100
AcDbPoint
 10
266.7648298087865
 20
1399.786180442612
 30
0.0
  0
POINT
  5
9C9
330
7E6
100
AcDbEntity
  8
Defpoints
 62
     0
100
AcDbPoint
 10
1466.764829808786
 20
1399.786180442612
 30
0.0
  0
POINT
  5
9CA
330
7E6
100
AcDbEntity
  8
Defpoints
 62
     0
100
AcDbPoint
 10
1466.764829808786
 20
1514.779998434858
 30
0.0
  0
ENDBLK
  5
7F1
330
7E6
100
AcDbEntity
  8
0
100
AcDbBlockEnd
  0
BLOCK
  5
7FC
330
7F2
100
AcDbEntity
  8
0
100
AcDbBlockBegin
  2
*D55
 70
     1
 10
0.0
 20
0.0
 30
0.0
  3
*D55
  1

  0
LINE
  5
9CB
330
7F2
100
AcDbEntity
  8
cotas
100
AcDbLine
 10
1469.495195672284
 20
1464.779998434858
 30
0.0
 11
1496.764829808786
 21
1464.779998434858
 31
0.0
  0
LINE
  5
9CC
330
7F2
100
AcDbEntity
  8
cotas
100
AcDbLine
 10
1471.764829808786
 20
1399.786180442612
 30
0.0
 11
1496.764829808786
 21
1399.786180442612
 31
0.0
  0
LINE
  5
9CD
330
7F2
100
AcDbEntity
  8
cotas
100
AcDbLine
 10
1491.764829808786
 20
1454.779998434858
 30
0.0
 11
1491.764829808786
 21
1409.786180442612
 31
0.0
  0
SOLID
  5
9CE
330
7F2
100
AcDbEntity
  8
cotas
100
AcDbTrace
 10
1490.09816314212
 20
1454.779998434858
 30
0.0
 11
1493.431496475453
 21
1454.779998434858
 31
0.0
 12
1491.764829808786
 22
1464.779998434858
 32
0.0
 13
1491.764829808786
 23
1464.779998434858
 33
0.0
  0
SOLID
  5
9CF
330
7F2
100
AcDbEntity
  8
cotas
100
AcDbTrace
 10
1490.09816314212
 20
1409.786180442612
 30
0.0
 11
1493.431496475453
 21
1409.786180442612
 31
0.0
 12
1491.764829808786
 22
1399.786180442612
 32
0.0
 13
1491.764829808786
 23
1399.786180442612
 33
0.0
  0
MTEXT
  5
9D0
330
7F2
100
AcDbEntity
  8
cotas
100
AcDbMText
 10
1481.566710265468
 20
1432.283089438735
 30
0.0
 40
10.0
 41
0.0
 71
     5
 72
     1
  1
65
  7
SANINDUSA
 11
0.0000000000000001
 21
1.0
 31
0.0
 73
     1
 44
1.0
1001
ACAD
1000
MTEXTBEGIN
1070
    73
1070
     1
1070
    44
1040
1.0
1070
    74
1070
     0
1000
MTEXTEND
  0
POINT
  5
9D1
330
7F2
100
AcDbEntity
  8
Defpoints
 62
     0
100
AcDbPoint
 10
1464.495195672285
 20
1464.779998434858
 30
0.0
  0
POINT
  5
9D2
330
7F2
100
AcDbEntity
  8
Defpoints
 62
     0
100
AcDbPoint
 10
1466.764829808786
 20
1399.786180442612
 30
0.0
  0
POINT
  5
9D3
330
7F2
100
AcDbEntity
  8
Defpoints
 62
     0
100
AcDbPoint
 10
1491.764829808786
 20
1399.786180442612
 30
0.0
  0
ENDBLK
  5
7FD
330
7F2
100
AcDbEntity
  8
0
100
AcDbBlockEnd
  0
BLOCK
  5
808
330
7FE
100
AcDbEntity
  8
0
100
AcDbBlockBegin
  2
*D56
 70
     1
 10
0.0
 20
0.0
 30
0.0
  3
*D56
  1

  0
LINE
  5
A06
330
7FE
100
AcDbEntity
  8
cotas
100
AcDbLine
 10
2556.544333232129
 20
1464.78000091826
 30
0.0
 11
2556.544333232129
 21
1519.779998424381
 31
0.0
  0
LINE
  5
A07
330
7FE
100
AcDbEntity
  8
cotas
100
AcDbLine
 10
1806.544333232123
 20
1404.786180442612
 30
0.0
 11
1806.544333232123
 21
1519.779998424381
 31
0.0
  0
LINE
  5
A08
330
7FE
100
AcDbEntity
  8
cotas
100
AcDbLine
 10
2546.544333232129
 20
1514.779998424381
 30
0.0
 11
1816.544333232123
 21
1514.779998424381
 31
0.0
  0
SOLID
  5
A09
330
7FE
100
AcDbEntity
  8
cotas
100
AcDbTrace
 10
2546.544333232129
 20
1516.446665091048
 30
0.0
 11
2546.544333232129
 21
1513.113331757715
 31
0.0
 12
2556.544333232129
 22
1514.779998424381
 32
0.0
 13
2556.544333232129
 23
1514.779998424381
 33
0.0
  0
SOLID
  5
A0A
330
7FE
100
AcDbEntity
  8
cotas
100
AcDbTrace
 10
1816.544333232123
 20
1516.446665091048
 30
0.0
 11
1816.544333232123
 21
1513.113331757715
 31
0.0
 12
1806.544333232123
 22
1514.779998424381
 32
0.0
 13
1806.544333232123
 23
1514.779998424381
 33
0.0
  0
MTEXT
  5
A0B
330
7FE
100
AcDbEntity
  8
cotas
100
AcDbMText
 10
2181.544333232126
 20
1524.984833884422
 30
0.0
 40
10.0
 41
0.0
 71
     5
 72
     1
  1
750
  7
SANINDUSA
 73
     1
 44
1.0
1001
ACAD
1000
MTEXTBEGIN
1070
    73
1070
     1
1070
    44
1040
1.0
1070
    74
1070
     0
1000
MTEXTEND
  0
POINT
  5
A0C
330
7FE
100
AcDbEntity
  8
Defpoints
 62
     0
100
AcDbPoint
 10
2556.544333232129
 20
1459.780000918259
 30
0.0
  0
POINT
  5
A0D
330
7FE
100
AcDbEntity
  8
Defpoints
 62
     0
100
AcDbPoint
 10
1806.544333232123
 20
1399.786180442612
 30
0.0
  0
POINT
  5
A0E
330
7FE
100
AcDbEntity
  8
Defpoints
 62
     0
100
AcDbPoint
 10
1806.544333232123
 20
1514.779998424381
 30
0.0
  0
ENDBLK
  5
809
330
7FE
100
AcDbEntity
  8
0
100
AcDbBlockEnd
  0
BLOCK
  5
814
330
80A
100
AcDbEntity
  8
0
100
AcDbBlockBegin
  2
*D57
 70
     1
 10
0.0
 20
0.0
 30
0.0
  3
*D57
  1

  0
LINE
  5
A88
330
80A
100
AcDbEntity
  8
cotas
100
AcDbLine
 10
-1150.338297920799
 20
1672.269070892774
 30
0.0
 11
-1175.338297920799
 21
1672.269070892774
 31
0.0
  0
LINE
  5
A89
330
80A
100
AcDbEntity
  8
cotas
100
AcDbLine
 10
-1009.326546057632
 20
1527.250128080928
 30
0.0
 11
-1175.338297920799
 21
1527.250128080928
 31
0.0
  0
LINE
  5
A8A
330
80A
100
AcDbEntity
  8
cotas
100
AcDbLine
 10
-1170.338297920799
 20
1662.269070892774
 30
0.0
 11
-1170.338297920799
 21
1537.250128080928
 31
0.0
  0
SOLID
  5
A8B
330
80A
100
AcDbEntity
  8
cotas
100
AcDbTrace
 10
-1172.004964587465
 20
1662.269070892774
 30
0.0
 11
-1168.671631254132
 21
1662.269070892774
 31
0.0
 12
-1170.338297920799
 22
1672.269070892774
 32
0.0
 13
-1170.338297920799
 23
1672.269070892774
 33
0.0
  0
SOLID
  5
A8C
330
80A
100
AcDbEntity
  8
cotas
100
AcDbTrace
 10
-1172.004964587465
 20
1537.250128080928
 30
0.0
 11
-1168.671631254132
 21
1537.250128080928
 31
0.0
 12
-1170.338297920799
 22
1527.250128080928
 32
0.0
 13
-1170.338297920799
 23
1527.250128080928
 33
0.0
  0
MTEXT
  5
A8D
330
80A
100
AcDbEntity
  8
cotas
100
AcDbMText
 10
-1180.459184421806
 20
1599.759599486851
 30
0.0
 40
10.0
 41
0.0
 71
     5
 72
     1
  1
145
  7
SANINDUSA
 11
0.0000000000000001
 21
1.0
 31
0.0
 73
     1
 44
1.0
1001
ACAD
1000
MTEXTBEGIN
1070
    73
1070
     1
1070
    44
1040
1.0
1070
    74
1070
     0
1000
MTEXTEND
  0
POINT
  5
A8E
330
80A
100
AcDbEntity
  8
Defpoints
 62
     0
100
AcDbPoint
 10
-1145.338297920799
 20
1672.269070892774
 30
0.0
  0
POINT
  5
A8F
330
80A
100
AcDbEntity
  8
Defpoints
 62
     0
100
AcDbPoint
 10
-1004.326546057632
 20
1527.250128080928
 30
0.0
  0
POINT
  5
A90
330
80A
100
AcDbEntity
  8
Defpoints
 62
     0
100
AcDbPoint
 10
-1170.338297920799
 20
1527.250128080928
 30
0.0
  0
ENDBLK
  5
815
330
80A
100
AcDbEntity
  8
0
100
AcDbBlockEnd
  0
BLOCK
  5
820
330
816
100
AcDbEntity
  8
0
100
AcDbBlockBegin
  2
*D58
 70
     1
 10
0.0
 20
0.0
 30
0.0
  3
*D58
  1

  0
LINE
  5
A91
330
816
100
AcDbEntity
  8
cotas
100
AcDbLine
 10
-1009.326546057632
 20
1527.250128080928
 30
0.0
 11
-1175.338297920799
 21
1527.250128080928
 31
0.0
  0
LINE
  5
A92
330
816
100
AcDbEntity
  8
cotas
100
AcDbLine
 10
-1009.338617419717
 20
1392.246635740788
 30
0.0
 11
-1175.338297920799
 21
1392.246635740788
 31
0.0
  0
LINE
  5
A93
330
816
100
AcDbEntity
  8
cotas
100
AcDbLine
 10
-1170.338297920799
 20
1517.250128080928
 30
0.0
 11
-1170.338297920799
 21
1402.246635740788
 31
0.0
  0
SOLID
  5
A94
330
816
100
AcDbEntity
  8
cotas
100
AcDbTrace
 10
-1172.004964587466
 20
1517.250128080928
 30
0.0
 11
-1168.671631254132
 21
1517.250128080928
 31
0.0
 12
-1170.338297920799
 22
1527.250128080928
 32
0.0
 13
-1170.338297920799
 23
1527.250128080928
 33
0.0
  0
SOLID
  5
A95
330
816
100
AcDbEntity
  8
cotas
100
AcDbTrace
 10
-1172.004964587466
 20
1402.246635740788
 30
0.0
 11
-1168.671631254132
 21
1402.246635740788
 31
0.0
 12
-1170.338297920799
 22
1392.246635740788
 32
0.0
 13
-1170.338297920799
 23
1392.246635740788
 33
0.0
  0
MTEXT
  5
A96
330
816
100
AcDbEntity
  8
cotas
100
AcDbMText
 10
-1180.546491339201
 20
1459.748381910858
 30
0.0
 40
10.0
 41
0.0
 71
     5
 72
     1
  1
135
  7
SANINDUSA
 11
0.0000000000000001
 21
1.0
 31
0.0
 73
     1
 44
1.0
1001
ACAD
1000
MTEXTBEGIN
1070
    73
1070
     1
1070
    44
1040
1.0
1070
    74
1070
     0
1000
MTEXTEND
  0
POINT
  5
A97
330
816
100
AcDbEntity
  8
Defpoints
 62
     0
100
AcDbPoint
 10
-1004.326546057632
 20
1527.250128080928
 30
0.0
  0
POINT
  5
A98
330
816
100
AcDbEntity
  8
Defpoints
 62
     0
100
AcDbPoint
 10
-1004.338617419717
 20
1392.246635740788
 30
0.0
  0
POINT
  5
A99
330
816
100
AcDbEntity
  8
Defpoints
 62
     0
100
AcDbPoint
 10
-1170.338297920799
 20
1392.246635740788
 30
0.0
  0
ENDBLK
  5
821
330
816
100
AcDbEntity
  8
0
100
AcDbBlockEnd
  0
BLOCK
  5
82C
330
822
100
AcDbEntity
  8
0
100
AcDbBlockBegin
  2
*D59
 70
     1
 10
0.0
 20
0.0
 30
0.0
  3
*D59
  1

  0
LINE
  5
A9A
330
822
100
AcDbEntity
  8
cotas
100
AcDbLine
 10
-1009.338617419717
 20
1392.246635740788
 30
0.0
 11
-1175.338297920799
 21
1392.246635740788
 31
0.0
  0
LINE
  5
A9B
330
822
100
AcDbEntity
  8
cotas
100
AcDbLine
 10
-1009.33326757405
 20
1257.248750088217
 30
0.0
 11
-1175.338297920799
 21
1257.248750088217
 31
0.0
  0
LINE
  5
A9C
330
822
100
AcDbEntity
  8
cotas
100
AcDbLine
 10
-1170.338297920799
 20
1382.246635740788
 30
0.0
 11
-1170.338297920799
 21
1267.248750088217
 31
0.0
  0
SOLID
  5
A9D
330
822
100
AcDbEntity
  8
cotas
100
AcDbTrace
 10
-1172.004964587466
 20
1382.246635740788
 30
0.0
 11
-1168.671631254132
 21
1382.246635740788
 31
0.0
 12
-1170.338297920799
 22
1392.246635740788
 32
0.0
 13
-1170.338297920799
 23
1392.246635740788
 33
0.0
  0
SOLID
  5
A9E
330
822
100
AcDbEntity
  8
cotas
100
AcDbTrace
 10
-1172.004964587466
 20
1267.248750088217
 30
0.0
 11
-1168.671631254132
 21
1267.248750088217
 31
0.0
 12
-1170.338297920799
 22
1257.248750088217
 32
0.0
 13
-1170.338297920799
 23
1257.248750088217
 33
0.0
  0
MTEXT
  5
A9F
330
822
100
AcDbEntity
  8
cotas
100
AcDbMText
 10
-1180.546491339201
 20
1324.747692914502
 30
0.0
 40
10.0
 41
0.0
 71
     5
 72
     1
  1
135
  7
SANINDUSA
 11
0.0000000000000001
 21
1.0
 31
0.0
 73
     1
 44
1.0
1001
ACAD
1000
MTEXTBEGIN
1070
    73
1070
     1
1070
    44
1040
1.0
1070
    74
1070
     0
1000
MTEXTEND
  0
POINT
  5
AA0
330
822
100
AcDbEntity
  8
Defpoints
 62
     0
100
AcDbPoint
 10
-1004.338617419717
 20
1392.246635740788
 30
0.0
  0
POINT
  5
AA1
330
822
100
AcDbEntity
  8
Defpoints
 62
     0
100
AcDbPoint
 10
-1004.33326757405
 20
1257.248750088217
 30
0.0
  0
POINT
  5
AA2
330
822
100
AcDbEntity
  8
Defpoints
 62
     0
100
AcDbPoint
 10
-1170.338297920799
 20
1257.248750088217
 30
0.0
  0
ENDBLK
  5
82D
330
822
100
AcDbEntity
  8
0
100
AcDbBlockEnd
  0
BLOCK
  5
841
330
837
100
AcDbEntity
  8
0
100
AcDbBlockBegin
  2
*D60
 70
     1
 10
0.0
 20
0.0
 30
0.0
  3
*D60
  1

  0
LINE
  5
AAC
330
837
100
AcDbEntity
  8
cotas
100
AcDbLine
 10
-805.3447391092314
 20
1183.32965339373
 30
0.0
 11
-805.3447391092314
 21
1062.269070892774
 31
0.0
  0
LINE
  5
AAD
330
837
100
AcDbEntity
  8
cotas
100
AcDbLine
 10
-675.344739132156
 20
1183.32721197215
 30
0.0
 11
-675.344739132156
 21
1062.269070892774
 31
0.0
  0
LINE
  5
AAE
330
837
100
AcDbEntity
  8
cotas
100
AcDbLine
 10
-795.3447391092313
 20
1067.269070892774
 30
0.0
 11
-685.344739132156
 21
1067.269070892774
 31
0.0
  0
SOLID
  5
AAF
330
837
100
AcDbEntity
  8
cotas
100
AcDbTrace
 10
-795.3447391092313
 20
1068.935737559441
 30
0.0
 11
-795.3447391092313
 21
1065.602404226107
 31
0.0
 12
-805.3447391092314
 22
1067.269070892774
 32
0.0
 13
-805.3447391092314
 23
1067.269070892774
 33
0.0
  0
SOLID
  5
AB0
330
837
100
AcDbEntity
  8
cotas
100
AcDbTrace
 10
-685.344739132156
 20
1068.935737559441
 30
0.0
 11
-685.344739132156
 21
1065.602404226107
 31
0.0
 12
-675.344739132156
 22
1067.269070892774
 32
0.0
 13
-675.344739132156
 23
1067.269070892774
 33
0.0
  0
MTEXT
  5
AB1
330
837
100
AcDbEntity
  8
cotas
100
AcDbMText
 10
-740.3447391206936
 20
1077.477264311176
 30
0.0
 40
10.0
 41
0.0
 71
     5
 72
     1
  1
130
  7
SANINDUSA
 73
     1
 44
1.0
1001
ACAD
1000
MTEXTBEGIN
1070
    73
1070
     1
1070
    44
1040
1.0
1070
    74
1070
     0
1000
MTEXTEND
  0
POINT
  5
AB2
330
837
100
AcDbEntity
  8
Defpoints
 62
     0
100
AcDbPoint
 10
-805.3447391092314
 20
1188.32965339373
 30
0.0
  0
POINT
  5
AB3
330
837
100
AcDbEntity
  8
Defpoints
 62
     0
100
AcDbPoint
 10
-675.344739132156
 20
1188.32721197215
 30
0.0
  0
POINT
  5
AB4
330
837
100
AcDbEntity
  8
Defpoints
 62
     0
100
AcDbPoint
 10
-675.344739132156
 20
1067.269070892774
 30
0.0
  0
ENDBLK
  5
842
330
837
100
AcDbEntity
  8
0
100
AcDbBlockEnd
  0
BLOCK
  5
856
330
84C
100
AcDbEntity
  8
0
100
AcDbBlockBegin
  2
*D61
 70
     1
 10
0.0
 20
0.0
 30
0.0
  3
*D61
  1

  0
LINE
  5
ABE
330
84C
100
AcDbEntity
  8
cotas
100
AcDbLine
 10
-545.3382979209955
 20
1089.538858844161
 30
0.0
 11
-545.3382979209955
 21
1062.269070892774
 31
0.0
  0
LINE
  5
ABF
330
84C
100
AcDbEntity
  8
cotas
100
AcDbLine
 10
-415.3421276156141
 20
1183.329034085457
 30
0.0
 11
-415.3421276156141
 21
1062.269070892774
 31
0.0
  0
LINE
  5
AC0
330
84C
100
AcDbEntity
  8
cotas
100
AcDbLine
 10
-535.3382979209954
 20
1067.269070892774
 30
0.0
 11
-425.342127615614
 21
1067.269070892774
 31
0.0
  0
SOLID
  5
AC1
330
84C
100
AcDbEntity
  8
cotas
100
AcDbTrace
 10
-535.3382979209954
 20
1068.935737559441
 30
0.0
 11
-535.3382979209954
 21
1065.602404226107
 31
0.0
 12
-545.3382979209955
 22
1067.269070892774
 32
0.0
 13
-545.3382979209955
 23
1067.269070892774
 33
0.0
  0
SOLID
  5
AC2
330
84C
100
AcDbEntity
  8
cotas
100
AcDbTrace
 10
-425.342127615614
 20
1068.935737559441
 30
0.0
 11
-425.342127615614
 21
1065.602404226107
 31
0.0
 12
-415.3421276156141
 22
1067.269070892774
 32
0.0
 13
-415.3421276156141
 23
1067.269070892774
 33
0.0
  0
MTEXT
  5
AC3
330
84C
100
AcDbEntity
  8
cotas
100
AcDbMText
 10
-480.3402127683048
 20
1077.477264311176
 30
0.0
 40
10.0
 41
0.0
 71
     5
 72
     1
  1
130
  7
SANINDUSA
 73
     1
 44
1.0
1001
ACAD
1000
MTEXTBEGIN
1070
    73
1070
     1
1070
    44
1040
1.0
1070
    74
1070
     0
1000
MTEXTEND
  0
POINT
  5
AC4
330
84C
100
AcDbEntity
  8
Defpoints
 62
     0
100
AcDbPoint
 10
-545.3382979209955
 20
1094.538858844161
 30
0.0
  0
POINT
  5
AC5
330
84C
100
AcDbEntity
  8
Defpoints
 62
     0
100
AcDbPoint
 10
-415.3421276156141
 20
1188.329034085457
 30
0.0
  0
POINT
  5
AC6
330
84C
100
AcDbEntity
  8
Defpoints
 62
     0
100
AcDbPoint
 10
-415.3421276156141
 20
1067.269070892774
 30
0.0
  0
ENDBLK
  5
857
330
84C
100
AcDbEntity
  8
0
100
AcDbBlockEnd
  0
BLOCK
  5
862
330
858
100
AcDbEntity
  8
0
100
AcDbBlockBegin
  2
*D62
 70
     1
 10
0.0
 20
0.0
 30
0.0
  3
*D62
  1

  0
LINE
  5
AC7
330
858
100
AcDbEntity
  8
cotas
100
AcDbLine
 10
-415.3421276156141
 20
1183.329034085457
 30
0.0
 11
-415.3421276156141
 21
1062.269070892774
 31
0.0
  0
LINE
  5
AC8
330
858
100
AcDbEntity
  8
cotas
100
AcDbLine
 10
-285.3906775320238
 20
1183.287892144711
 30
0.0
 11
-285.3906775320238
 21
1062.269070892774
 31
0.0
  0
LINE
  5
AC9
330
858
100
AcDbEntity
  8
cotas
100
AcDbLine
 10
-405.3421276156141
 20
1067.269070892774
 30
0.0
 11
-295.3906775320238
 21
1067.269070892774
 31
0.0
  0
SOLID
  5
ACA
330
858
100
AcDbEntity
  8
cotas
100
AcDbTrace
 10
-405.3421276156141
 20
1068.935737559441
 30
0.0
 11
-405.3421276156141
 21
1065.602404226107
 31
0.0
 12
-415.3421276156141
 22
1067.269070892774
 32
0.0
 13
-415.3421276156141
 23
1067.269070892774
 33
0.0
  0
SOLID
  5
ACB
330
858
100
AcDbEntity
  8
cotas
100
AcDbTrace
 10
-295.3906775320238
 20
1068.935737559441
 30
0.0
 11
-295.3906775320238
 21
1065.602404226107
 31
0.0
 12
-285.3906775320238
 22
1067.269070892774
 32
0.0
 13
-285.3906775320238
 23
1067.269070892774
 33
0.0
  0
MTEXT
  5
ACC
330
858
100
AcDbEntity
  8
cotas
100
AcDbMText
 10
-350.3664025738189
 20
1077.477264311176
 30
0.0
 40
10.0
 41
0.0
 71
     5
 72
     1
  1
130
  7
SANINDUSA
 73
     1
 44
1.0
1001
ACAD
1000
MTEXTBEGIN
1070
    73
1070
     1
1070
    44
1040
1.0
1070
    74
1070
     0
1000
MTEXTEND
  0
POINT
  5
ACD
330
858
100
AcDbEntity
  8
Defpoints
 62
     0
100
AcDbPoint
 10
-415.3421276156141
 20
1188.329034085457
 30
0.0
  0
POINT
  5
ACE
330
858
100
AcDbEntity
  8
Defpoints
 62
     0
100
AcDbPoint
 10
-285.3906775320238
 20
1188.287892144711
 30
0.0
  0
POINT
  5
ACF
330
858
100
AcDbEntity
  8
Defpoints
 62
     0
100
AcDbPoint
 10
-285.3906775320238
 20
1067.269070892774
 30
0.0
  0
ENDBLK
  5
863
330
858
100
AcDbEntity
  8
0
100
AcDbBlockEnd
  0
BLOCK
  5
86E
330
864
100
AcDbEntity
  8
0
100
AcDbBlockBegin
  2
*D63
 70
     1
 10
0.0
 20
0.0
 30
0.0
  3
*D63
  1

  0
LINE
  5
AD0
330
864
100
AcDbEntity
  8
cotas
100
AcDbLine
 10
-285.3906775320238
 20
1183.287892144711
 30
0.0
 11
-285.3906775320238
 21
1062.269070892774
 31
0.0
  0
LINE
  5
AD1
330
864
100
AcDbEntity
  8
cotas
100
AcDbLine
 10
-155.3892792698634
 20
1183.271354978248
 30
0.0
 11
-155.3892792698634
 21
1062.269070892774
 31
0.0
  0
LINE
  5
AD2
330
864
100
AcDbEntity
  8
cotas
100
AcDbLine
 10
-275.3906775320238
 20
1067.269070892774
 30
0.0
 11
-165.3892792698634
 21
1067.269070892774
 31
0.0
  0
SOLID
  5
AD3
330
864
100
AcDbEntity
  8
cotas
100
AcDbTrace
 10
-275.3906775320238
 20
1068.935737559441
 30
0.0
 11
-275.3906775320238
 21
1065.602404226107
 31
0.0
 12
-285.3906775320238
 22
1067.269070892774
 32
0.0
 13
-285.3906775320238
 23
1067.269070892774
 33
0.0
  0
SOLID
  5
AD4
330
864
100
AcDbEntity
  8
cotas
100
AcDbTrace
 10
-165.3892792698634
 20
1068.935737559441
 30
0.0
 11
-165.3892792698634
 21
1065.602404226107
 31
0.0
 12
-155.3892792698634
 22
1067.269070892774
 32
0.0
 13
-155.3892792698634
 23
1067.269070892774
 33
0.0
  0
MTEXT
  5
AD5
330
864
100
AcDbEntity
  8
cotas
100
AcDbMText
 10
-220.3899784009436
 20
1077.477264311176
 30
0.0
 40
10.0
 41
0.0
 71
     5
 72
     1
  1
130
  7
SANINDUSA
 73
     1
 44
1.0
1001
ACAD
1000
MTEXTBEGIN
1070
    73
1070
     1
1070
    44
1040
1.0
1070
    74
1070
     0
1000
MTEXTEND
  0
POINT
  5
AD6
330
864
100
AcDbEntity
  8
Defpoints
 62
     0
100
AcDbPoint
 10
-285.3906775320238
 20
1188.287892144711
 30
0.0
  0
POINT
  5
AD7
330
864
100
AcDbEntity
  8
Defpoints
 62
     0
100
AcDbPoint
 10
-155.3892792698634
 20
1188.271354978248
 30
0.0
  0
POINT
  5
AD8
330
864
100
AcDbEntity
  8
Defpoints
 62
     0
100
AcDbPoint
 10
-155.3892792698634
 20
1067.269070892774
 30
0.0
  0
ENDBLK
  5
86F
330
864
100
AcDbEntity
  8
0
100
AcDbBlockEnd
  0
BLOCK
  5
883
330
879
100
AcDbEntity
  8
0
100
AcDbBlockBegin
  2
*D64
 70
     1
 10
0.0
 20
0.0
 30
0.0
  3
*D64
  1

  0
LINE
  5
AE2
330
879
100
AcDbEntity
  8
cotas
100
AcDbLine
 10
-1103.068663833443
 20
1207.269070892774
 30
0.0
 11
-1103.068663833443
 21
1037.269070892774
 31
0.0
  0
LINE
  5
AE3
330
879
100
AcDbEntity
  8
cotas
100
AcDbLine
 10
12.39206785430269
 20
1207.269070892774
 30
0.0
 11
12.39206785430268
 21
1037.269070892774
 31
0.0
  0
LINE
  5
AE4
330
879
100
AcDbEntity
  8
cotas
100
AcDbLine
 10
-1093.068663833443
 20
1042.269070892774
 30
0.0
 11
2.392067854302684
 21
1042.269070892774
 31
0.0
  0
SOLID
  5
AE5
330
879
100
AcDbEntity
  8
cotas
100
AcDbTrace
 10
-1093.068663833443
 20
1043.935737559441
 30
0.0
 11
-1093.068663833443
 21
1040.602404226107
 31
0.0
 12
-1103.068663833443
 22
1042.269070892774
 32
0.0
 13
-1103.068663833443
 23
1042.269070892774
 33
0.0
  0
SOLID
  5
AE6
330
879
100
AcDbEntity
  8
cotas
100
AcDbTrace
 10
2.392067854302684
 20
1043.935737559441
 30
0.0
 11
2.392067854302684
 21
1040.602404226107
 31
0.0
 12
12.39206785430268
 22
1042.269070892774
 32
0.0
 13
12.39206785430268
 23
1042.269070892774
 33
0.0
  0
MTEXT
  5
AE7
330
879
100
AcDbEntity
  8
cotas
100
AcDbMText
 10
-545.3382979895705
 20
1053.528305278268
 30
0.0
 40
10.0
 41
0.0
 71
     5
 72
     1
  1
1115,5
  7
SANINDUSA
 73
     1
 44
1.0
1001
ACAD
1000
MTEXTBEGIN
1070
    73
1070
     1
1070
    44
1040
1.0
1070
    74
1070
     0
1000
MTEXTEND
  0
POINT
  5
AE8
330
879
100
AcDbEntity
  8
Defpoints
 62
     0
100
AcDbPoint
 10
-1103.068663833443
 20
1212.269070892774
 30
0.0
  0
POINT
  5
AE9
330
879
100
AcDbEntity
  8
Defpoints
 62
     0
100
AcDbPoint
 10
12.39206785430269
 20
1212.269070892774
 30
0.0
  0
POINT
  5
AEA
330
879
100
AcDbEntity
  8
Defpoints
 62
     0
100
AcDbPoint
 10
12.39206785430268
 20
1042.269070892774
 30
0.0
  0
ENDBLK
  5
884
330
879
100
AcDbEntity
  8
0
100
AcDbBlockEnd
  0
BLOCK
  5
88F
330
885
100
AcDbEntity
  8
0
100
AcDbBlockBegin
  2
*D65
 70
     1
 10
0.0
 20
0.0
 30
0.0
  3
*D65
  1

  0
LINE
  5
AEB
330
885
100
AcDbEntity
  8
cotas
100
AcDbLine
 10
12.39206785430269
 20
1207.269070892774
 30
0.0
 11
12.39206785430268
 21
1037.269070892774
 31
0.0
  0
LINE
  5
AEC
330
885
100
AcDbEntity
  8
cotas
100
AcDbLine
 10
52.39206785430361
 20
1088.081284984227
 30
0.0
 11
52.39206785430361
 21
1037.269070892774
 31
0.0
  0
LINE
  5
AED
330
885
100
AcDbEntity
  8
cotas
100
AcDbLine
 10
22.39206785430269
 20
1042.269070892774
 30
0.0
 11
42.39206785430361
 21
1042.269070892774
 31
0.0
  0
SOLID
  5
AEE
330
885
100
AcDbEntity
  8
cotas
100
AcDbTrace
 10
22.39206785430269
 20
1043.935737559441
 30
0.0
 11
22.39206785430269
 21
1040.602404226107
 31
0.0
 12
12.39206785430268
 22
1042.269070892774
 32
0.0
 13
12.39206785430268
 23
1042.269070892774
 33
0.0
  0
SOLID
  5
AEF
330
885
100
AcDbEntity
  8
cotas
100
AcDbTrace
 10
42.39206785430361
 20
1043.935737559441
 30
0.0
 11
42.39206785430361
 21
1040.602404226107
 31
0.0
 12
52.39206785430361
 22
1042.269070892774
 32
0.0
 13
52.39206785430361
 23
1042.269070892774
 33
0.0
  0
MTEXT
  5
AF0
330
885
100
AcDbEntity
  8
cotas
100
AcDbMText
 10
32.39206785430314
 20
1052.473906352815
 30
0.0
 40
10.0
 41
0.0
 71
     5
 72
     1
  1
40
  7
SANINDUSA
 73
     1
 44
1.0
1001
ACAD
1000
MTEXTBEGIN
1070
    73
1070
     1
1070
    44
1040
1.0
1070
    74
1070
     0
1000
MTEXTEND
  0
POINT
  5
AF1
330
885
100
AcDbEntity
  8
Defpoints
 62
     0
100
AcDbPoint
 10
12.39206785430269
 20
1212.269070892774
 30
0.0
  0
POINT
  5
AF2
330
885
100
AcDbEntity
  8
Defpoints
 62
     0
100
AcDbPoint
 10
52.39206785430361
 20
1093.081284984227
 30
0.0
  0
POINT
  5
AF3
330
885
100
AcDbEntity
  8
Defpoints
 62
     0
100
AcDbPoint
 10
52.39206785430361
 20
1042.269070892774
 30
0.0
  0
ENDBLK
  5
890
330
885
100
AcDbEntity
  8
0
100
AcDbBlockEnd
  0
BLOCK
  5
89B
330
891
100
AcDbEntity
  8
0
100
AcDbBlockBegin
  2
*D66
 70
     1
 10
0.0
 20
0.0
 30
0.0
  3
*D66
  1

  0
LINE
  5
AF4
330
891
100
AcDbEntity
  8
cotas
100
AcDbLine
 10
-1103.068663833443
 20
1207.269070892774
 30
0.0
 11
-1103.068663833443
 21
1037.269070892774
 31
0.0
  0
LINE
  5
AF5
330
891
100
AcDbEntity
  8
cotas
100
AcDbLine
 10
-1143.068663833442
 20
1088.081285073872
 30
0.0
 11
-1143.068663833442
 21
1037.269070892774
 31
0.0
  0
LINE
  5
AF6
330
891
100
AcDbEntity
  8
cotas
100
AcDbLine
 10
-1113.068663833443
 20
1042.269070892774
 30
0.0
 11
-1133.068663833442
 21
1042.269070892774
 31
0.0
  0
SOLID
  5
AF7
330
891
100
AcDbEntity
  8
cotas
100
AcDbTrace
 10
-1113.068663833443
 20
1043.935737559441
 30
0.0
 11
-1113.068663833443
 21
1040.602404226107
 31
0.0
 12
-1103.068663833443
 22
1042.269070892774
 32
0.0
 13
-1103.068663833443
 23
1042.269070892774
 33
0.0
  0
SOLID
  5
AF8
330
891
100
AcDbEntity
  8
cotas
100
AcDbTrace
 10
-1133.068663833442
 20
1043.935737559441
 30
0.0
 11
-1133.068663833442
 21
1040.602404226107
 31
0.0
 12
-1143.068663833442
 22
1042.269070892774
 32
0.0
 13
-1143.068663833442
 23
1042.269070892774
 33
0.0
  0
MTEXT
  5
AF9
330
891
100
AcDbEntity
  8
cotas
100
AcDbMText
 10
-1123.068663833443
 20
1052.473906352815
 30
0.0
 40
10.0
 41
0.0
 71
     5
 72
     1
  1
40
  7
SANINDUSA
 73
     1
 44
1.0
1001
ACAD
1000
MTEXTBEGIN
1070
    73
1070
     1
1070
    44
1040
1.0
1070
    74
1070
     0
1000
MTEXTEND
  0
POINT
  5
AFA
330
891
100
AcDbEntity
  8
Defpoints
 62
     0
100
AcDbPoint
 10
-1103.068663833443
 20
1212.269070892774
 30
0.0
  0
POINT
  5
AFB
330
891
100
AcDbEntity
  8
Defpoints
 62
     0
100
AcDbPoint
 10
-1143.068663833442
 20
1093.081285073872
 30
0.0
  0
POINT
  5
AFC
330
891
100
AcDbEntity
  8
Defpoints
 62
     0
100
AcDbPoint
 10
-1143.068663833442
 20
1042.269070892774
 30
0.0
  0
ENDBLK
  5
89C
330
891
100
AcDbEntity
  8
0
100
AcDbBlockEnd
  0
BLOCK
  5
8A7
330
89D
100
AcDbEntity
  8
0
100
AcDbBlockBegin
  2
*D67
 70
     1
 10
0.0
 20
0.0
 30
0.0
  3
*D67
  1

  0
LINE
  5
B49
330
89D
100
AcDbEntity
  8
cotas
100
AcDbLine
 10
-62.60793214569733
 20
1132.269070892774
 30
0.0
 11
84.66170207920093
 21
1132.269070892774
 31
0.0
  0
LINE
  5
B4A
330
89D
100
AcDbEntity
  8
cotas
100
AcDbLine
 10
54.65865435768226
 20
1092.269070892774
 30
0.0
 11
84.66170207920093
 21
1092.269070892774
 31
0.0
  0
LINE
  5
B4B
330
89D
100
AcDbEntity
  8
cotas
100
AcDbLine
 10
79.66170207920095
 20
1122.269070892774
 30
0.0
 11
79.66170207920093
 21
1102.269070892774
 31
0.0
  0
SOLID
  5
B4C
330
89D
100
AcDbEntity
  8
cotas
100
AcDbTrace
 10
77.99503541253428
 20
1122.269070892774
 30
0.0
 11
81.32836874586763
 21
1122.269070892774
 31
0.0
 12
79.66170207920095
 22
1132.269070892774
 32
0.0
 13
79.66170207920095
 23
1132.269070892774
 33
0.0
  0
SOLID
  5
B4D
330
89D
100
AcDbEntity
  8
cotas
100
AcDbTrace
 10
77.99503541253426
 20
1102.269070892774
 30
0.0
 11
81.32836874586761
 21
1102.269070892774
 31
0.0
 12
79.66170207920093
 22
1092.269070892774
 32
0.0
 13
79.66170207920093
 23
1092.269070892774
 33
0.0
  0
MTEXT
  5
B4E
330
89D
100
AcDbEntity
  8
cotas
100
AcDbMText
 10
69.45686661916046
 20
1112.269070892774
 30
0.0
 40
10.0
 41
0.0
 71
     5
 72
     1
  1
40
  7
SANINDUSA
 11
0.0000000000000001
 21
1.0
 31
0.0
 73
     1
 44
1.0
1001
ACAD
1000
MTEXTBEGIN
1070
    73
1070
     1
1070
    44
1040
1.0
1070
    74
1070
     0
1000
MTEXTEND
  0
POINT
  5
B4F
330
89D
100
AcDbEntity
  8
Defpoints
 62
     0
100
AcDbPoint
 10
-67.60793214569732
 20
1132.269070892774
 30
0.0
  0
POINT
  5
B50
330
89D
100
AcDbEntity
  8
Defpoints
 62
     0
100
AcDbPoint
 10
49.65865435768226
 20
1092.269070892774
 30
0.0
  0
POINT
  5
B51
330
89D
100
AcDbEntity
  8
Defpoints
 62
     0
100
AcDbPoint
 10
79.66170207920093
 20
1092.269070892774
 30
0.0
  0
ENDBLK
  5
8A8
330
89D
100
AcDbEntity
  8
0
100
AcDbBlockEnd
  0
BLOCK
  5
8B3
330
8A9
100
AcDbEntity
  8
0
100
AcDbBlockBegin
  2
*D68
 70
     1
 10
0.0
 20
0.0
 30
0.0
  3
*D68
  1

  0
LINE
  5
B06
330
8A9
100
AcDbEntity
  8
cotas
100
AcDbLine
 10
-62.61230719570245
 20
1132.269070892774
 30
0.0
 11
84.66170207920104
 21
1132.269070892774
 31
0.0
  0
LINE
  5
B07
330
8A9
100
AcDbEntity
  8
cotas
100
AcDbLine
 10
-62.60073918481953
 20
1799.969070569406
 30
0.0
 11
84.66170207920118
 21
1799.969070569406
 31
0.0
  0
LINE
  5
B08
330
8A9
100
AcDbEntity
  8
cotas
100
AcDbLine
 10
79.66170207920104
 20
1142.269070892774
 30
0.0
 11
79.66170207920118
 21
1789.969070569406
 31
0.0
  0
SOLID
  5
B09
330
8A9
100
AcDbEntity
  8
cotas
100
AcDbTrace
 10
77.99503541253436
 20
1142.269070892774
 30
0.0
 11
81.3283687458677
 21
1142.269070892774
 31
0.0
 12
79.66170207920104
 22
1132.269070892774
 32
0.0
 13
79.66170207920104
 23
1132.269070892774
 33
0.0
  0
SOLID
  5
B0A
330
8A9
100
AcDbEntity
  8
cotas
100
AcDbTrace
 10
77.9950354125345
 20
1789.969070569406
 30
0.0
 11
81.32836874586784
 21
1789.969070569406
 31
0.0
 12
79.66170207920118
 22
1799.969070569406
 32
0.0
 13
79.66170207920118
 23
1799.969070569406
 33
0.0
  0
MTEXT
  5
B0B
330
8A9
100
AcDbEntity
  8
cotas
100
AcDbMText
 10
68.32523465139697
 20
1466.11907073109
 30
0.0
 40
10.0
 41
0.0
 71
     5
 72
     1
  1
667,7
  7
SANINDUSA
 11
0.0000000000000001
 21
1.0
 31
0.0
 73
     1
 44
1.0
1001
ACAD
1000
MTEXTBEGIN
1070
    73
1070
     1
1070
    44
1040
1.0
1070
    74
1070
     0
1000
MTEXTEND
  0
POINT
  5
B0C
330
8A9
100
AcDbEntity
  8
Defpoints
 62
     0
100
AcDbPoint
 10
-67.61230719570244
 20
1132.269070892774
 30
0.0
  0
POINT
  5
B0D
330
8A9
100
AcDbEntity
  8
Defpoints
 62
     0
100
AcDbPoint
 10
-67.60073918481953
 20
1799.969070569406
 30
0.0
  0
POINT
  5
B0E
330
8A9
100
AcDbEntity
  8
Defpoints
 62
     0
100
AcDbPoint
 10
79.66170207920118
 20
1799.969070569406
 30
0.0
  0
ENDBLK
  5
8B4
330
8A9
100
AcDbEntity
  8
0
100
AcDbBlockEnd
  0
BLOCK
  5
8BF
330
8B5
100
AcDbEntity
  8
0
100
AcDbBlockBegin
  2
*D69
 70
     1
 10
0.0
 20
0.0
 30
0.0
  3
*D69
  1

  0
LINE
  5
B0F
330
8B5
100
AcDbEntity
  8
cotas
100
AcDbLine
 10
-62.60793214569639
 20
1799.969070892773
 30
0.0
 11
84.66170207920095
 21
1799.969070892773
 31
0.0
  0
LINE
  5
B10
330
8B5
100
AcDbEntity
  8
cotas
100
AcDbLine
 10
52.56319959491793
 20
1839.966141427333
 30
0.0
 11
84.66170207920095
 21
1839.966141427333
 31
0.0
  0
LINE
  5
B11
330
8B5
100
AcDbEntity
  8
cotas
100
AcDbLine
 10
79.66170207920093
 20
1809.969070892773
 30
0.0
 11
79.66170207920095
 21
1829.966141427334
 31
0.0
  0
SOLID
  5
B12
330
8B5
100
AcDbEntity
  8
cotas
100
AcDbTrace
 10
77.99503541253426
 20
1809.969070892773
 30
0.0
 11
81.32836874586761
 21
1809.969070892773
 31
0.0
 12
79.66170207920093
 22
1799.969070892773
 32
0.0
 13
79.66170207920093
 23
1799.969070892773
 33
0.0
  0
SOLID
  5
B13
330
8B5
100
AcDbEntity
  8
cotas
100
AcDbTrace
 10
77.99503541253428
 20
1829.966141427334
 30
0.0
 11
81.32836874586763
 21
1829.966141427334
 31
0.0
 12
79.66170207920095
 22
1839.966141427333
 32
0.0
 13
79.66170207920095
 23
1839.966141427333
 33
0.0
  0
MTEXT
  5
B14
330
8B5
100
AcDbEntity
  8
cotas
100
AcDbMText
 10
69.45686661916035
 20
1819.967606160053
 30
0.0
 40
10.0
 41
0.0
 71
     5
 72
     1
  1
40
  7
SANINDUSA
 11
0.0000000000000001
 21
1.0
 31
0.0
 73
     1
 44
1.0
1001
ACAD
1000
MTEXTBEGIN
1070
    73
1070
     1
1070
    44
1040
1.0
1070
    74
1070
     0
1000
MTEXTEND
  0
POINT
  5
B15
330
8B5
100
AcDbEntity
  8
Defpoints
 62
     0
100
AcDbPoint
 10
-67.60793214569639
 20
1799.969070892773
 30
0.0
  0
POINT
  5
B16
330
8B5
100
AcDbEntity
  8
Defpoints
 62
     0
100
AcDbPoint
 10
47.56319959491793
 20
1839.966141427333
 30
0.0
  0
POINT
  5
B17
330
8B5
100
AcDbEntity
  8
Defpoints
 62
     0
100
AcDbPoint
 10
79.66170207920095
 20
1839.966141427333
 30
0.0
  0
ENDBLK
  5
8C0
330
8B5
100
AcDbEntity
  8
0
100
AcDbBlockEnd
  0
BLOCK
  5
8CB
330
8C1
100
AcDbEntity
  8
0
100
AcDbBlockBegin
  2
*D70
 70
     1
 10
0.0
 20
0.0
 30
0.0
  3
*D70
  1

  0
LINE
  5
B18
330
8C1
100
AcDbEntity
  8
cotas
100
AcDbLine
 10
-1145.335250199309
 20
1092.269070892774
 30
0.0
 11
-1200.338297920799
 21
1092.269070892774
 31
0.0
  0
LINE
  5
B19
330
8C1
100
AcDbEntity
  8
cotas
100
AcDbLine
 10
-1150.338297920799
 20
1672.269070892774
 30
0.0
 11
-1200.338297920799
 21
1672.269070892774
 31
0.0
  0
LINE
  5
B1A
330
8C1
100
AcDbEntity
  8
cotas
100
AcDbLine
 10
-1195.338297920799
 20
1102.269070892774
 30
0.0
 11
-1195.338297920799
 21
1662.269070892774
 31
0.0
  0
SOLID
  5
B1B
330
8C1
100
AcDbEntity
  8
cotas
100
AcDbTrace
 10
-1197.004964587466
 20
1102.269070892774
 30
0.0
 11
-1193.671631254132
 21
1102.269070892774
 31
0.0
 12
-1195.338297920799
 22
1092.269070892774
 32
0.0
 13
-1195.338297920799
 23
1092.269070892774
 33
0.0
  0
SOLID
  5
B1C
330
8C1
100
AcDbEntity
  8
cotas
100
AcDbTrace
 10
-1197.004964587466
 20
1662.269070892774
 30
0.0
 11
-1193.671631254132
 21
1662.269070892774
 31
0.0
 12
-1195.338297920799
 22
1672.269070892774
 32
0.0
 13
-1195.338297920799
 23
1672.269070892774
 33
0.0
  0
MTEXT
  5
B1D
330
8C1
100
AcDbEntity
  8
cotas
100
AcDbMText
 10
-1205.566639089369
 20
1382.269070892774
 30
0.0
 40
10.0
 41
0.0
 71
     5
 72
     1
  1
580
  7
SANINDUSA
 11
0.0000000000000001
 21
1.0
 31
0.0
 73
     1
 44
1.0
1001
ACAD
1000
MTEXTBEGIN
1070
    73
1070
     1
1070
    44
1040
1.0
1070
    74
1070
     0
1000
MTEXTEND
  0
POINT
  5
B1E
330
8C1
100
AcDbEntity
  8
Defpoints
 62
     0
100
AcDbPoint
 10
-1140.335250199309
 20
1092.269070892774
 30
0.0
  0
POINT
  5
B1F
330
8C1
100
AcDbEntity
  8
Defpoints
 62
     0
100
AcDbPoint
 10
-1145.338297920799
 20
1672.269070892774
 30
0.0
  0
POINT
  5
B20
330
8C1
100
AcDbEntity
  8
Defpoints
 62
     0
100
AcDbPoint
 10
-1195.338297920799
 20
1672.269070892774
 30
0.0
  0
ENDBLK
  5
8CC
330
8C1
100
AcDbEntity
  8
0
100
AcDbBlockEnd
  0
BLOCK
  5
8D7
330
8CD
100
AcDbEntity
  8
0
100
AcDbBlockBegin
  2
*D71
 70
     1
 10
0.0
 20
0.0
 30
0.0
  3
*D71
  1

  0
LINE
  5
B21
330
8CD
100
AcDbEntity
  8
cotas
100
AcDbLine
 10
-1143.068663833442
 20
1839.969070892773
 30
0.0
 11
-1143.068663833442
 21
1872.269070892774
 31
0.0
  0
LINE
  5
B22
330
8CD
100
AcDbEntity
  8
cotas
100
AcDbLine
 10
-545.3382980092019
 20
1847.269070892774
 30
0.0
 11
-545.3382980092019
 21
1872.269070892774
 31
0.0
  0
LINE
  5
B23
330
8CD
100
AcDbEntity
  8
cotas
100
AcDbLine
 10
-1133.068663833442
 20
1867.269070892774
 30
0.0
 11
-555.3382980092019
 21
1867.269070892774
 31
0.0
  0
SOLID
  5
B24
330
8CD
100
AcDbEntity
  8
cotas
100
AcDbTrace
 10
-1133.068663833442
 20
1868.935737559441
 30
0.0
 11
-1133.068663833442
 21
1865.602404226107
 31
0.0
 12
-1143.068663833442
 22
1867.269070892774
 32
0.0
 13
-1143.068663833442
 23
1867.269070892774
 33
0.0
  0
SOLID
  5
B25
330
8CD
100
AcDbEntity
  8
cotas
100
AcDbTrace
 10
-555.3382980092019
 20
1868.935737559441
 30
0.0
 11
-555.3382980092019
 21
1865.602404226107
 31
0.0
 12
-545.3382980092019
 22
1867.269070892774
 32
0.0
 13
-545.3382980092019
 23
1867.269070892774
 33
0.0
  0
MTEXT
  5
B26
330
8CD
100
AcDbEntity
  8
cotas
100
AcDbMText
 10
-844.2034809213218
 20
1878.612254237301
 30
0.0
 40
10.0
 41
0.0
 71
     5
 72
     1
  1
597,7
  7
SANINDUSA
 73
     1
 44
1.0
1001
ACAD
1000
MTEXTBEGIN
1070
    73
1070
     1
1070
    44
1040
1.0
1070
    74
1070
     0
1000
MTEXTEND
  0
POINT
  5
B27
330
8CD
100
AcDbEntity
  8
Defpoints
 62
     0
100
AcDbPoint
 10
-1143.068663833442
 20
1834.969070892773
 30
0.0
  0
POINT
  5
B28
330
8CD
100
AcDbEntity
  8
Defpoints
 62
     0
100
AcDbPoint
 10
-545.3382980092019
 20
1842.269070892774
 30
0.0
  0
POINT
  5
B29
330
8CD
100
AcDbEntity
  8
Defpoints
 62
     0
100
AcDbPoint
 10
-545.3382980092019
 20
1867.269070892774
 30
0.0
  0
ENDBLK
  5
8D8
330
8CD
100
AcDbEntity
  8
0
100
AcDbBlockEnd
  0
BLOCK
  5
8E3
330
8D9
100
AcDbEntity
  8
0
100
AcDbBlockBegin
  2
*D72
 70
     1
 10
0.0
 20
0.0
 30
0.0
  3
*D72
  1

  0
LINE
  5
B2A
330
8D9
100
AcDbEntity
  8
cotas
100
AcDbLine
 10
-545.3382980092019
 20
1847.269070892774
 30
0.0
 11
-545.3382980092019
 21
1872.269070892774
 31
0.0
  0
LINE
  5
B2B
330
8D9
100
AcDbEntity
  8
cotas
100
AcDbLine
 10
52.39206785430269
 20
1839.969070892775
 30
0.0
 11
52.39206785430269
 21
1872.269070892774
 31
0.0
  0
LINE
  5
B2C
330
8D9
100
AcDbEntity
  8
cotas
100
AcDbLine
 10
-535.3382980092019
 20
1867.269070892774
 30
0.0
 11
42.39206785430269
 21
1867.269070892774
 31
0.0
  0
SOLID
  5
B2D
330
8D9
100
AcDbEntity
  8
cotas
100
AcDbTrace
 10
-535.3382980092019
 20
1868.935737559441
 30
0.0
 11
-535.3382980092019
 21
1865.602404226107
 31
0.0
 12
-545.3382980092019
 22
1867.269070892774
 32
0.0
 13
-545.3382980092019
 23
1867.269070892774
 33
0.0
  0
SOLID
  5
B2E
330
8D9
100
AcDbEntity
  8
cotas
100
AcDbTrace
 10
42.39206785430269
 20
1868.935737559441
 30
0.0
 11
42.39206785430269
 21
1865.602404226107
 31
0.0
 12
52.39206785430269
 22
1867.269070892774
 32
0.0
 13
52.39206785430269
 23
1867.269070892774
 33
0.0
  0
MTEXT
  5
B2F
330
8D9
100
AcDbEntity
  8
cotas
100
AcDbMText
 10
-246.4731150774496
 20
1878.612254237301
 30
0.0
 40
10.0
 41
0.0
 71
     5
 72
     1
  1
597,7
  7
SANINDUSA
 73
     1
 44
1.0
1001
ACAD
1000
MTEXTBEGIN
1070
    73
1070
     1
1070
    44
1040
1.0
1070
    74
1070
     0
1000
MTEXTEND
  0
POINT
  5
B30
330
8D9
100
AcDbEntity
  8
Defpoints
 62
     0
100
AcDbPoint
 10
-545.3382980092019
 20
1842.269070892774
 30
0.0
  0
POINT
  5
B31
330
8D9
100
AcDbEntity
  8
Defpoints
 62
     0
100
AcDbPoint
 10
52.39206785430269
 20
1834.969070892775
 30
0.0
  0
POINT
  5
B32
330
8D9
100
AcDbEntity
  8
Defpoints
 62
     0
100
AcDbPoint
 10
52.39206785430269
 20
1867.269070892774
 30
0.0
  0
ENDBLK
  5
8E4
330
8D9
100
AcDbEntity
  8
0
100
AcDbBlockEnd
  0
BLOCK
  5
8F1
330
8E5
100
AcDbEntity
  8
0
100
AcDbBlockBegin
  2
*D73
 70
     1
 10
0.0
 20
0.0
 30
0.0
  3
*D73
  1

  0
LINE
  5
B33
330
8E5
100
AcDbEntity
  8
cotas
100
AcDbLine
 10
52.39206785430269
 20
1839.969070892775
 30
0.0
 11
52.39206785430269
 21
1872.269070892774
 31
0.0
  0
LINE
  5
B34
330
8E5
100
AcDbEntity
  8
cotas
100
AcDbLine
 10
54.66170207920095
 20
1842.272116757658
 30
0.0
 11
54.66170207920095
 21
1872.269070892774
 31
0.0
  0
LINE
  5
B35
330
8E5
100
AcDbEntity
  8
cotas
100
AcDbLine
 10
42.39206785430269
 20
1867.269070892774
 30
0.0
 11
32.39206785430269
 21
1867.269070892774
 31
0.0
  0
LINE
  5
B36
330
8E5
100
AcDbEntity
  8
cotas
100
AcDbLine
 10
64.66170207920095
 20
1867.269070892774
 30
0.0
 11
105.0377934156683
 21
1867.269070892774
 31
0.0
  0
LINE
  5
B37
330
8E5
100
AcDbEntity
  8
cotas
100
AcDbLine
 10
52.39206785430269
 20
1867.269070892774
 30
0.0
 11
54.66170207920095
 21
1867.269070892774
 31
0.0
  0
SOLID
  5
B38
330
8E5
100
AcDbEntity
  8
cotas
100
AcDbTrace
 10
42.39206785430269
 20
1868.935737559441
 30
0.0
 11
42.39206785430269
 21
1865.602404226107
 31
0.0
 12
52.39206785430269
 22
1867.269070892774
 32
0.0
 13
52.39206785430269
 23
1867.269070892774
 33
0.0
  0
SOLID
  5
B39
330
8E5
100
AcDbEntity
  8
cotas
100
AcDbTrace
 10
64.66170207920095
 20
1868.935737559441
 30
0.0
 11
64.66170207920095
 21
1865.602404226107
 31
0.0
 12
54.66170207920095
 22
1867.269070892774
 32
0.0
 13
54.66170207920095
 23
1867.269070892774
 33
0.0
  0
MTEXT
  5
B3A
330
8E5
100
AcDbEntity
  8
cotas
100
AcDbMText
 10
89.84974774743466
 20
1878.615612195662
 30
0.0
 40
10.0
 41
0.0
 71
     5
 72
     1
  1
2,3
  7
SANINDUSA
 73
     1
 44
1.0
1001
ACAD
1000
MTEXTBEGIN
1070
    73
1070
     1
1070
    44
1040
1.0
1070
    74
1070
     0
1000
MTEXTEND
  0
POINT
  5
B3B
330
8E5
100
AcDbEntity
  8
Defpoints
 62
     0
100
AcDbPoint
 10
52.39206785430269
 20
1834.969070892775
 30
0.0
  0
POINT
  5
B3C
330
8E5
100
AcDbEntity
  8
Defpoints
 62
     0
100
AcDbPoint
 10
54.66170207920095
 20
1837.272116757658
 30
0.0
  0
POINT
  5
B3D
330
8E5
100
AcDbEntity
  8
Defpoints
 62
     0
100
AcDbPoint
 10
54.66170207920095
 20
1867.269070892774
 30
0.0
  0
ENDBLK
  5
8F2
330
8E5
100
AcDbEntity
  8
0
100
AcDbBlockEnd
  0
BLOCK
  5
8FF
330
8F3
100
AcDbEntity
  8
0
100
AcDbBlockBegin
  2
*D74
 70
     1
 10
0.0
 20
0.0
 30
0.0
  3
*D74
  1

  0
LINE
  5
B3E
330
8F3
100
AcDbEntity
  8
cotas
100
AcDbLine
 10
-1143.068663833442
 20
1839.969070892773
 30
0.0
 11
-1143.068663833442
 21
1872.269070892774
 31
0.0
  0
LINE
  5
B3F
330
8F3
100
AcDbEntity
  8
cotas
100
AcDbLine
 10
-1145.338297920803
 20
1842.272116757653
 30
0.0
 11
-1145.338297920803
 21
1872.269070892774
 31
0.0
  0
LINE
  5
B40
330
8F3
100
AcDbEntity
  8
cotas
100
AcDbLine
 10
-1133.068663833442
 20
1867.269070892774
 30
0.0
 11
-1123.068663833442
 21
1867.269070892774
 31
0.0
  0
LINE
  5
B41
330
8F3
100
AcDbEntity
  8
cotas
100
AcDbLine
 10
-1155.338297920804
 20
1867.269070892774
 30
0.0
 11
-1195.714389257271
 21
1867.269070892774
 31
0.0
  0
LINE
  5
B42
330
8F3
100
AcDbEntity
  8
cotas
100
AcDbLine
 10
-1143.068663833442
 20
1867.269070892774
 30
0.0
 11
-1145.338297920803
 21
1867.269070892774
 31
0.0
  0
SOLID
  5
B43
330
8F3
100
AcDbEntity
  8
cotas
100
AcDbTrace
 10
-1133.068663833442
 20
1868.935737559441
 30
0.0
 11
-1133.068663833442
 21
1865.602404226107
 31
0.0
 12
-1143.068663833442
 22
1867.269070892774
 32
0.0
 13
-1143.068663833442
 23
1867.269070892774
 33
0.0
  0
SOLID
  5
B44
330
8F3
100
AcDbEntity
  8
cotas
100
AcDbTrace
 10
-1155.338297920804
 20
1868.935737559441
 30
0.0
 11
-1155.338297920804
 21
1865.602404226107
 31
0.0
 12
-1145.338297920803
 22
1867.269070892774
 32
0.0
 13
-1145.338297920803
 23
1867.269070892774
 33
0.0
  0
MTEXT
  5
B45
330
8F3
100
AcDbEntity
  8
cotas
100
AcDbMText
 10
-1180.526343589037
 20
1878.615612195662
 30
0.0
 40
10.0
 41
0.0
 71
     5
 72
     1
  1
2,3
  7
SANINDUSA
 73
     1
 44
1.0
1001
ACAD
1000
MTEXTBEGIN
1070
    73
1070
     1
1070
    44
1040
1.0
1070
    74
1070
     0
1000
MTEXTEND
  0
POINT
  5
B46
330
8F3
100
AcDbEntity
  8
Defpoints
 62
     0
100
AcDbPoint
 10
-1143.068663833442
 20
1834.969070892773
 30
0.0
  0
POINT
  5
B47
330
8F3
100
AcDbEntity
  8
Defpoints
 62
     0
100
AcDbPoint
 10
-1145.338297920803
 20
1837.272116757653
 30
0.0
  0
POINT
  5
B48
330
8F3
100
AcDbEntity
  8
Defpoints
 62
     0
100
AcDbPoint
 10
-1145.338297920803
 20
1867.269070892774
 30
0.0
  0
ENDBLK
  5
900
330
8F3
100
AcDbEntity
  8
0
100
AcDbBlockEnd
  0
BLOCK
  5
90B
330
901
100
AcDbEntity
  8
0
100
AcDbBlockBegin
  2
*D75
 70
     1
 10
0.0
 20
0.0
 30
0.0
  3
*D75
  1

  0
LINE
  5
902
330
901
100
AcDbEntity
  8
cotas
100
AcDbLine
 10
2888.482099084651
 20
1469.610747238519
 30
0.0
 11
2888.482099084651
 21
1494.610747238519
 31
0.0
  0
LINE
  5
903
330
901
100
AcDbEntity
  8
cotas
100
AcDbLine
 10
2928.483148144096
 20
1468.082981930634
 30
0.0
 11
2928.483148144096
 21
1494.610747238519
 31
0.0
  0
LINE
  5
904
330
901
100
AcDbEntity
  8
cotas
100
AcDbLine
 10
2898.482099084651
 20
1489.610747238519
 30
0.0
 11
2918.483148144096
 21
1489.610747238519
 31
0.0
  0
SOLID
  5
905
330
901
100
AcDbEntity
  8
cotas
100
AcDbTrace
 10
2898.482099084651
 20
1491.277413905185
 30
0.0
 11
2898.482099084651
 21
1487.944080571852
 31
0.0
 12
2888.482099084651
 22
1489.610747238519
 32
0.0
 13
2888.482099084651
 23
1489.610747238519
 33
0.0
  0
SOLID
  5
906
330
901
100
AcDbEntity
  8
cotas
100
AcDbTrace
 10
2918.483148144096
 20
1491.277413905185
 30
0.0
 11
2918.483148144096
 21
1487.944080571852
 31
0.0
 12
2928.483148144096
 22
1489.610747238519
 32
0.0
 13
2928.483148144096
 23
1489.610747238519
 33
0.0
  0
MTEXT
  5
907
330
901
100
AcDbEntity
  8
cotas
100
AcDbMText
 10
2908.482623614373
 20
1499.815582698559
 30
0.0
 40
10.0
 41
0.0
 71
     5
 72
     1
  1
40
  7
SANINDUSA
 73
     1
 44
1.0
1001
ACAD
1000
MTEXTBEGIN
1070
    73
1070
     1
1070
    44
1040
1.0
1070
    74
1070
     0
1000
MTEXTEND
  0
POINT
  5
908
330
901
100
AcDbEntity
  8
Defpoints
 62
     0
100
AcDbPoint
 10
2888.482099084651
 20
1464.610747238519
 30
0.0
  0
POINT
  5
909
330
901
100
AcDbEntity
  8
Defpoints
 62
     0
100
AcDbPoint
 10
2928.483148144096
 20
1463.082981930634
 30
0.0
  0
POINT
  5
90A
330
901
100
AcDbEntity
  8
Defpoints
 62
     0
100
AcDbPoint
 10
2928.483148144096
 20
1489.610747238519
 30
0.0
  0
ENDBLK
  5
90C
330
901
100
AcDbEntity
  8
0
100
AcDbBlockEnd
  0
BLOCK
  5
918
330
90D
100
AcDbEntity
  8
0
100
AcDbBlockBegin
  2
*D76
 70
     1
 10
0.0
 20
0.0
 30
0.0
  3
*D76
  1

  0
LINE
  5
A42
330
90D
100
AcDbEntity
  8
cotas
100
AcDbLine
 10
2963.736584958322
 20
1431.09807331876
 30
0.0
 11
2858.482099084651
 21
1431.09807331876
 31
0.0
  0
LINE
  5
A43
330
90D
100
AcDbEntity
  8
cotas
100
AcDbLine
 10
2883.48209908465
 20
1464.610747238519
 30
0.0
 11
2858.482099084651
 21
1464.610747238519
 31
0.0
  0
LINE
  5
A44
330
90D
100
AcDbEntity
  8
cotas
100
AcDbLine
 10
2863.482099084651
 20
1441.09807331876
 30
0.0
 11
2863.482099084651
 21
1454.610747238518
 31
0.0
  0
LINE
  5
A45
330
90D
100
AcDbEntity
  8
cotas
100
AcDbLine
 10
2863.482099084651
 20
1464.610747238519
 30
0.0
 11
2863.482099084651
 21
1513.751109898022
 31
0.0
  0
SOLID
  5
A46
330
90D
100
AcDbEntity
  8
cotas
100
AcDbTrace
 10
2861.815432417984
 20
1441.09807331876
 30
0.0
 11
2865.148765751317
 21
1441.09807331876
 31
0.0
 12
2863.482099084651
 22
1431.09807331876
 32
0.0
 13
2863.482099084651
 23
1431.09807331876
 33
0.0
  0
SOLID
  5
A47
330
90D
100
AcDbEntity
  8
cotas
100
AcDbTrace
 10
2861.815432417984
 20
1454.610747238518
 30
0.0
 11
2865.148765751317
 21
1454.610747238518
 31
0.0
 12
2863.482099084651
 22
1464.610747238519
 32
0.0
 13
2863.482099084651
 23
1464.610747238519
 33
0.0
  0
MTEXT
  5
A48
330
90D
100
AcDbEntity
  8
cotas
100
AcDbMText
 10
2852.135557781762
 20
1494.180928568271
 30
0.0
 40
10.0
 41
0.0
 71
     5
 72
     1
  1
33,5
  7
SANINDUSA
 11
0.0000000000000001
 21
1.0
 31
0.0
 73
     1
 44
1.0
1001
ACAD
1000
MTEXTBEGIN
1070
    73
1070
     1
1070
    44
1040
1.0
1070
    74
1070
     0
1000
MTEXTEND
  0
POINT
  5
A49
330
90D
100
AcDbEntity
  8
Defpoints
 62
     0
100
AcDbPoint
 10
2968.736584958321
 20
1431.09807331876
 30
0.0
  0
POINT
  5
A4A
330
90D
100
AcDbEntity
  8
Defpoints
 62
     0
100
AcDbPoint
 10
2888.482099084651
 20
1464.610747238519
 30
0.0
  0
POINT
  5
A4B
330
90D
100
AcDbEntity
  8
Defpoints
 62
     0
100
AcDbPoint
 10
2863.482099084651
 20
1464.610747238519
 30
0.0
  0
ENDBLK
  5
919
330
90D
100
AcDbEntity
  8
0
100
AcDbBlockEnd
  0
BLOCK
  5
92E
330
924
100
AcDbEntity
  8
0
100
AcDbBlockBegin
  2
*D77
 70
     1
 10
0.0
 20
0.0
 30
0.0
  3
*D77
  1

  0
LINE
  5
925
330
924
100
AcDbEntity
  8
cotas
100
AcDbLine
 10
3636.218375319755
 20
1469.700189900026
 30
0.0
 11
3636.218375319755
 21
1494.700189900026
 31
0.0
  0
LINE
  5
926
330
924
100
AcDbEntity
  8
cotas
100
AcDbLine
 10
3596.216502624797
 20
1468.167380754194
 30
0.0
 11
3596.216502624797
 21
1494.700189900026
 31
0.0
  0
LINE
  5
927
330
924
100
AcDbEntity
  8
cotas
100
AcDbLine
 10
3626.218375319755
 20
1489.700189900026
 30
0.0
 11
3606.216502624796
 21
1489.700189900026
 31
0.0
  0
SOLID
  5
928
330
924
100
AcDbEntity
  8
cotas
100
AcDbTrace
 10
3626.218375319755
 20
1491.366856566693
 30
0.0
 11
3626.218375319755
 21
1488.03352323336
 31
0.0
 12
3636.218375319755
 22
1489.700189900026
 32
0.0
 13
3636.218375319755
 23
1489.700189900026
 33
0.0
  0
SOLID
  5
929
330
924
100
AcDbEntity
  8
cotas
100
AcDbTrace
 10
3606.216502624796
 20
1491.366856566693
 30
0.0
 11
3606.216502624796
 21
1488.03352323336
 31
0.0
 12
3596.216502624797
 22
1489.700189900026
 32
0.0
 13
3596.216502624797
 23
1489.700189900026
 33
0.0
  0
MTEXT
  5
92A
330
924
100
AcDbEntity
  8
cotas
100
AcDbMText
 10
3616.217438972276
 20
1499.905025360067
 30
0.0
 40
10.0
 41
0.0
 71
     5
 72
     1
  1
40
  7
SANINDUSA
 73
     1
 44
1.0
1001
ACAD
1000
MTEXTBEGIN
1070
    73
1070
     1
1070
    44
1040
1.0
1070
    74
1070
     0
1000
MTEXTEND
  0
POINT
  5
92B
330
924
100
AcDbEntity
  8
Defpoints
 62
     0
100
AcDbPoint
 10
3636.218375319755
 20
1464.700189900026
 30
0.0
  0
POINT
  5
92C
330
924
100
AcDbEntity
  8
Defpoints
 62
     0
100
AcDbPoint
 10
3596.216502624797
 20
1463.167380754194
 30
0.0
  0
POINT
  5
92D
330
924
100
AcDbEntity
  8
Defpoints
 62
     0
100
AcDbPoint
 10
3596.216502624797
 20
1489.700189900026
 30
0.0
  0
ENDBLK
  5
92F
330
924
100
AcDbEntity
  8
0
100
AcDbBlockEnd
  0
BLOCK
  5
93C
330
930
100
AcDbEntity
  8
0
100
AcDbBlockBegin
  2
*D78
 70
     1
 10
0.0
 20
0.0
 30
0.0
  3
*D78
  1

  0
LINE
  5
A4C
330
930
100
AcDbEntity
  8
cotas
100
AcDbLine
 10
3559.258598795832
 20
1439.237151666986
 30
0.0
 11
3666.218375319753
 21
1439.237151666986
 31
0.0
  0
LINE
  5
A4D
330
930
100
AcDbEntity
  8
cotas
100
AcDbLine
 10
3641.218375319755
 20
1464.700189900026
 30
0.0
 11
3666.218375319753
 21
1464.700189900026
 31
0.0
  0
LINE
  5
A4E
330
930
100
AcDbEntity
  8
cotas
100
AcDbLine
 10
3661.218375319753
 20
1429.237151666986
 30
0.0
 11
3661.218375319753
 21
1419.237151666985
 31
0.0
  0
LINE
  5
A4F
330
930
100
AcDbEntity
  8
cotas
100
AcDbLine
 10
3661.218375319753
 20
1474.700189900026
 30
0.0
 11
3661.218375319753
 21
1523.880848059865
 31
0.0
  0
LINE
  5
A50
330
930
100
AcDbEntity
  8
cotas
100
AcDbLine
 10
3661.218375319753
 20
1439.237151666986
 30
0.0
 11
3661.218375319753
 21
1464.700189900026
 31
0.0
  0
SOLID
  5
A51
330
930
100
AcDbEntity
  8
cotas
100
AcDbTrace
 10
3659.551708653086
 20
1429.237151666986
 30
0.0
 11
3662.885041986419
 21
1429.237151666986
 31
0.0
 12
3661.218375319753
 22
1439.237151666986
 32
0.0
 13
3661.218375319753
 23
1439.237151666986
 33
0.0
  0
SOLID
  5
A52
330
930
100
AcDbEntity
  8
cotas
100
AcDbTrace
 10
3659.551708653086
 20
1474.700189900026
 30
0.0
 11
3662.885041986419
 21
1474.700189900026
 31
0.0
 12
3661.218375319753
 22
1464.700189900026
 32
0.0
 13
3661.218375319753
 23
1464.700189900026
 33
0.0
  0
MTEXT
  5
A53
330
930
100
AcDbEntity
  8
cotas
100
AcDbMText
 10
3649.871834016864
 20
1504.290518979947
 30
0.0
 40
10.0
 41
0.0
 71
     5
 72
     1
  1
25,5
  7
SANINDUSA
 11
0.0000000000000001
 21
1.0
 31
0.0
 73
     1
 44
1.0
1001
ACAD
1000
MTEXTBEGIN
1070
    73
1070
     1
1070
    44
1040
1.0
1070
    74
1070
     0
1000
MTEXTEND
  0
POINT
  5
A54
330
930
100
AcDbEntity
  8
Defpoints
 62
     0
100
AcDbPoint
 10
3554.258598795831
 20
1439.237151666986
 30
0.0
  0
POINT
  5
A55
330
930
100
AcDbEntity
  8
Defpoints
 62
     0
100
AcDbPoint
 10
3636.218375319755
 20
1464.700189900026
 30
0.0
  0
POINT
  5
A56
330
930
100
AcDbEntity
  8
Defpoints
 62
     0
100
AcDbPoint
 10
3661.218375319753
 20
1464.700189900026
 30
0.0
  0
ENDBLK
  5
93D
330
930
100
AcDbEntity
  8
0
100
AcDbBlockEnd
  0
BLOCK
  5
945
330
93E
100
AcDbEntity
  8
0
100
AcDbBlockBegin
  2
*D79
 70
     1
 10
0.0
 20
0.0
 30
0.0
  3
*D79
  1

  0
LINE
  5
A57
330
93E
100
AcDbEntity
  8
cotas
100
AcDbLine
 10
3133.607442180757
 20
1481.669586933065
 30
0.0
 11
3157.454275186211
 21
1442.53067288635
 31
0.0
  0
MTEXT
  5
A58
330
93E
100
AcDbEntity
  8
cotas
100
AcDbMText
 10
3149.070905003486
 20
1475.909226001985
 30
0.0
 40
10.0
 41
0.0
 71
     5
 72
     1
  1
R3
  7
SANINDUSA
 11
0.5203153948957448
 21
-0.853974173985657
 31
0.0
 73
     1
 44
1.0
1001
ACAD
1000
MTEXTBEGIN
1070
    73
1070
     1
1070
    44
1040
1.0
1070
    74
1070
     0
1000
MTEXTEND
  0
LINE
  5
A59
330
93E
100
AcDbEntity
  8
cotas
100
AcDbLine
 10
3164.2183753199
 20
1431.429008624464
 30
0.0
 11
3162.657429135169
 21
1433.990931146494
 31
0.0
  0
SOLID
  5
A5A
330
93E
100
AcDbEntity
  8
cotas
100
AcDbTrace
 10
3158.877565476187
 20
1443.397865211177
 30
0.0
 11
3156.030984896235
 21
1441.663480561524
 31
0.0
 12
3162.657429135169
 22
1433.990931146494
 32
0.0
 13
3162.657429135169
 23
1433.990931146494
 33
0.0
  0
POINT
  5
A5B
330
93E
100
AcDbEntity
  8
Defpoints
 62
     0
100
AcDbPoint
 10
3162.657429135169
 20
1433.990931146494
 30
0.0
  0
POINT
  5
A5C
330
93E
100
AcDbEntity
  8
Defpoints
 62
     0
100
AcDbPoint
 10
3164.2183753199
 20
1431.429008624464
 30
0.0
  0
ENDBLK
  5
946
330
93E
100
AcDbEntity
  8
0
100
AcDbBlockEnd
  0
BLOCK
  5
94D
330
947
100
AcDbEntity
  8
0
100
AcDbBlockBegin
  2
*D80
 70
     1
 10
0.0
 20
0.0
 30
0.0
  3
*D80
  1

  0
LINE
  5
A5D
330
947
100
AcDbEntity
  8
cotas
100
AcDbLine
 10
3271.973912656669
 20
1480.307611439898
 30
0.0
 11
3247.537507347217
 21
1441.309830852759
 31
0.0
  0
MTEXT
  5
A5E
330
947
100
AcDbEntity
  8
cotas
100
AcDbMText
 10
3256.439454285967
 20
1474.741549667408
 30
0.0
 40
10.0
 41
0.0
 71
     5
 72
     1
  1
R3
  7
SANINDUSA
 11
0.5309797410457399
 21
0.8473845140188714
 31
0.0
 73
     1
 44
1.0
1001
ACAD
1000
MTEXTBEGIN
1070
    73
1070
     1
1070
    44
1040
1.0
1070
    74
1070
     0
1000
MTEXTEND
  0
SOLID
  5
A5F
330
947
100
AcDbEntity
  8
cotas
100
AcDbTrace
 10
3246.125199823852
 20
1442.194797087835
 30
0.0
 11
3248.949814870581
 21
1440.424864617683
 31
0.0
 12
3242.227709936759
 22
1432.83598571257
 32
0.0
 13
3242.227709936759
 23
1432.83598571257
 33
0.0
  0
POINT
  5
A60
330
947
100
AcDbEntity
  8
Defpoints
 62
     0
100
AcDbPoint
 10
3242.227709936759
 20
1432.83598571257
 30
0.0
  0
POINT
  5
A61
330
947
100
AcDbEntity
  8
Defpoints
 62
     0
100
AcDbPoint
 10
3243.820649159907
 20
1435.378139254643
 30
0.0
  0
ENDBLK
  5
94E
330
947
100
AcDbEntity
  8
0
100
AcDbBlockEnd
  0
BLOCK
  5
955
330
94F
100
AcDbEntity
  8
0
100
AcDbBlockBegin
  2
*D81
 70
     1
 10
0.0
 20
0.0
 30
0.0
  3
*D81
  1

  0
LINE
  5
A62
330
94F
100
AcDbEntity
  8
cotas
100
AcDbLine
 10
2979.222840082413
 20
1486.045348293802
 30
0.0
 11
2951.68181560415
 21
1448.379350293664
 31
0.0
  0
MTEXT
  5
A63
330
94F
100
AcDbEntity
  8
cotas
100
AcDbMText
 10
2960.714498908352
 20
1478.022088695524
 30
0.0
 40
10.0
 41
0.0
 71
     5
 72
     1
  1
R50
  7
SANINDUSA
 11
0.5902383098547204
 21
0.807229049018829
 31
0.0
 73
     1
 44
1.0
1001
ACAD
1000
MTEXTBEGIN
1070
    73
1070
     1
1070
    44
1040
1.0
1070
    74
1070
     0
1000
MTEXTEND
  0
SOLID
  5
A64
330
94F
100
AcDbEntity
  8
cotas
100
AcDbTrace
 10
2950.336433855786
 20
1449.363080810089
 30
0.0
 11
2953.027197352515
 21
1447.395619777239
 31
0.0
 12
2945.779432505603
 22
1440.307059803476
 32
0.0
 13
2945.779432505603
 23
1440.307059803476
 33
0.0
  0
POINT
  5
A65
330
94F
100
AcDbEntity
  8
Defpoints
 62
     0
100
AcDbPoint
 10
2945.779432505603
 20
1440.307059803476
 30
0.0
  0
POINT
  5
A66
330
94F
100
AcDbEntity
  8
Defpoints
 62
     0
100
AcDbPoint
 10
2975.300676446984
 20
1480.681270143227
 30
0.0
  0
ENDBLK
  5
956
330
94F
100
AcDbEntity
  8
0
100
AcDbBlockEnd
  0
BLOCK
  5
95D
330
957
100
AcDbEntity
  8
0
100
AcDbBlockBegin
  2
*D82
 70
     1
 10
0.0
 20
0.0
 30
0.0
  3
*D82
  1

  0
LINE
  5
A67
330
957
100
AcDbEntity
  8
cotas
100
AcDbLine
 10
3161.757894874833
 20
1367.147345130201
 30
0.0
 11
3124.63924646382
 21
1406.359323108081
 31
0.0
  0
MTEXT
  5
A68
330
957
100
AcDbEntity
  8
cotas
100
AcDbMText
 10
3157.168642877957
 20
1386.717637040121
 30
0.0
 40
10.0
 41
0.0
 71
     5
 72
     1
  1
R15
  7
SANINDUSA
 11
0.687456257943908
 21
-0.7262257868003305
 31
0.0
 73
     1
 44
1.0
1001
ACAD
1000
MTEXTBEGIN
1070
    73
1070
     1
1070
    44
1040
1.0
1070
    74
1070
     0
1000
MTEXTEND
  0
SOLID
  5
A69
330
957
100
AcDbEntity
  8
cotas
100
AcDbTrace
 10
3125.849622775154
 20
1407.505083537988
 30
0.0
 11
3123.428870152487
 21
1405.213562678175
 31
0.0
 12
3117.764683884381
 22
1413.621580976085
 32
0.0
 13
3117.764683884381
 23
1413.621580976085
 33
0.0
  0
POINT
  5
A6A
330
957
100
AcDbEntity
  8
Defpoints
 62
     0
100
AcDbPoint
 10
3117.764683884381
 20
1413.621580976085
 30
0.0
  0
POINT
  5
A6B
330
957
100
AcDbEntity
  8
Defpoints
 62
     0
100
AcDbPoint
 10
3128.076527753548
 20
1402.728194174071
 30
0.0
  0
ENDBLK
  5
95E
330
957
100
AcDbEntity
  8
0
100
AcDbBlockEnd
  0
BLOCK
  5
966
330
95F
100
AcDbEntity
  8
0
100
AcDbBlockBegin
  2
*D83
 70
     1
 10
0.0
 20
0.0
 30
0.0
  3
*D83
  1

  0
LINE
  5
A6C
330
95F
100
AcDbEntity
  8
cotas
100
AcDbLine
 10
2948.550684582863
 20
1355.537497572801
 30
0.0
 11
2939.223911215863
 21
1390.298602597785
 31
0.0
  0
MTEXT
  5
A6D
330
95F
100
AcDbEntity
  8
cotas
100
AcDbMText
 10
2954.941947140233
 20
1370.707280882
 30
0.0
 40
10.0
 41
0.0
 71
     5
 72
     1
  1
R5
  7
SANINDUSA
 11
0.2591447199750553
 21
-0.9658385031199834
 31
0.0
 73
     1
 44
1.0
1001
ACAD
1000
MTEXTBEGIN
1070
    73
1070
     1
1070
    44
1040
1.0
1070
    74
1070
     0
1000
MTEXTEND
  0
LINE
  5
A6E
330
95F
100
AcDbEntity
  8
cotas
100
AcDbLine
 10
2935.336740416236
 20
1404.786180144589
 30
0.0
 11
2936.632464016112
 21
1399.956987628985
 31
0.0
  0
SOLID
  5
A6F
330
95F
100
AcDbEntity
  8
cotas
100
AcDbTrace
 10
2940.833642054397
 20
1390.73051046441
 30
0.0
 11
2937.61418037733
 21
1389.86669473116
 31
0.0
 12
2936.632464016112
 22
1399.956987628985
 32
0.0
 13
2936.632464016112
 23
1399.956987628985
 33
0.0
  0
POINT
  5
A70
330
95F
100
AcDbEntity
  8
Defpoints
 62
     0
100
AcDbPoint
 10
2936.632464016112
 20
1399.956987628985
 30
0.0
  0
POINT
  5
A71
330
95F
100
AcDbEntity
  8
Defpoints
 62
     0
100
AcDbPoint
 10
2935.336740416236
 20
1404.786180144589
 30
0.0
  0
ENDBLK
  5
967
330
95F
100
AcDbEntity
  8
0
100
AcDbBlockEnd
  0
BLOCK
  5
96E
330
968
100
AcDbEntity
  8
0
100
AcDbBlockBegin
  2
*D84
 70
     1
 10
0.0
 20
0.0
 30
0.0
  3
*D84
  1

  0
LINE
  5
A72
330
968
100
AcDbEntity
  8
cotas
100
AcDbLine
 10
3551.088821634387
 20
1493.356869121757
 30
0.0
 11
3574.029337093273
 21
1454.873869720262
 31
0.0
  0
MTEXT
  5
A73
330
968
100
AcDbEntity
  8
cotas
100
AcDbMText
 10
3568.76440147917
 20
1483.635487288524
 30
0.0
 40
10.0
 41
0.0
 71
     5
 72
     1
  1
R50
  7
SANINDUSA
 11
0.5120435844443361
 21
-0.858959467978202
 31
0.0
 73
     1
 44
1.0
1001
ACAD
1000
MTEXTBEGIN
1070
    73
1070
     1
1070
    44
1040
1.0
1070
    74
1070
     0
1000
MTEXTEND
  0
SOLID
  5
A74
330
968
100
AcDbEntity
  8
cotas
100
AcDbTrace
 10
3575.46093620657
 20
1455.727275694336
 30
0.0
 11
3572.597737979976
 21
1454.020463746188
 31
0.0
 12
3579.149772937717
 22
1446.28427504048
 32
0.0
 13
3579.149772937717
 23
1446.28427504048
 33
0.0
  0
POINT
  5
A75
330
968
100
AcDbEntity
  8
Defpoints
 62
     0
100
AcDbPoint
 10
3579.149772937717
 20
1446.28427504048
 30
0.0
  0
POINT
  5
A76
330
968
100
AcDbEntity
  8
Defpoints
 62
     0
100
AcDbPoint
 10
3553.547011081763
 20
1489.233225814713
 30
0.0
  0
ENDBLK
  5
96F
330
968
100
AcDbEntity
  8
0
100
AcDbBlockEnd
  0
BLOCK
  5
97C
330
970
100
AcDbEntity
  8
0
100
AcDbBlockBegin
  2
*D85
 70
     1
 10
0.0
 20
0.0
 30
0.0
  3
*D85
  1

  0
LINE
  5
971
330
970
100
AcDbEntity
  8
cotas
100
AcDbLine
 10
3126.314034761095
 20
1432.502581627155
 30
0.0
 11
3141.239652257234
 21
1442.953611510393
 31
0.0
  0
LINE
  5
972
330
970
100
AcDbEntity
  8
cotas
100
AcDbLine
 10
2986.741240020926
 20
1432.069486359995
 30
0.0
 11
2971.197098382284
 21
1442.953611510373
 31
0.0
  0
ARC
  5
973
330
970
100
AcDbEntity
  8
cotas
100
AcDbCircle
 10
3056.218375319766
 20
1383.421072490523
 30
0.0
 40
98.79181438933395
100
AcDbArc
 50
40.80212731582771
 51
139.1978726841858
  0
SOLID
  5
974
330
970
100
AcDbEntity
  8
cotas
100
AcDbTrace
 10
3132.316014682503
 20
1449.000289219029
 30
0.0
 11
3129.685772412824
 21
1446.95262305632
 31
0.0
 12
3137.14389203579
 22
1440.085729328637
 32
0.0
 13
3137.14389203579
 23
1440.085729328637
 33
0.0
  0
SOLID
  5
975
330
970
100
AcDbEntity
  8
cotas
100
AcDbTrace
 10
2982.750978226694
 20
1446.952623056303
 30
0.0
 11
2980.120735957014
 21
1449.000289219011
 31
0.0
 12
2975.292858603729
 22
1440.085729328617
 32
0.0
 13
2975.292858603729
 23
1440.085729328617
 33
0.0
  0
MTEXT
  5
976
330
970
100
AcDbEntity
  8
cotas
100
AcDbMText
 10
3056.218375319754
 20
1493.556070224384
 30
0.0
 40
10.0
 41
0.0
 71
     5
 72
     1
  1
110,0°
  7
SANINDUSA
 73
     1
 44
1.0
1001
ACAD
1000
MTEXTBEGIN
1070
    73
1070
     1
1070
    44
1040
1.0
1070
    74
1070
     0
1000
MTEXTEND
  0
POINT
  5
977
330
970
100
AcDbEntity
  8
Defpoints
 62
     0
100
AcDbPoint
 10
3087.292822486618
 20
1477.198475544837
 30
0.0
  0
POINT
  5
978
330
970
100
AcDbEntity
  8
Defpoints
 62
     0
100
AcDbPoint
 10
3011.218375319755
 20
1414.930411709973
 30
0.0
  0
POINT
  5
979
330
970
100
AcDbEntity
  8
Defpoints
 62
     0
100
AcDbPoint
 10
3122.218274539651
 20
1429.634699445398
 30
0.0
  0
POINT
  5
97A
330
970
100
AcDbEntity
  8
Defpoints
 62
     0
100
AcDbPoint
 10
3101.218375319755
 20
1414.930411709973
 30
0.0
  0
POINT
  5
97B
330
970
100
AcDbEntity
  8
Defpoints
 62
     0
100
AcDbPoint
 10
2990.83700024237
 20
1429.201604178239
 30
0.0
  0
ENDBLK
  5
97D
330
970
100
AcDbEntity
  8
0
100
AcDbBlockEnd
  0
BLOCK
  5
98A
330
97E
100
AcDbEntity
  8
0
100
AcDbBlockBegin
  2
*D86
 70
     1
 10
0.0
 20
0.0
 30
0.0
  3
*D86
  1

  0
LINE
  5
A77
330
97E
100
AcDbEntity
  8
cotas
100
AcDbLine
 10
2994.218375319766
 20
1404.786180144577
 30
0.0
 11
2858.482099084651
 21
1404.786180144577
 31
0.0
  0
LINE
  5
A78
330
97E
100
AcDbEntity
  8
cotas
100
AcDbLine
 10
2881.218375319754
 20
1399.786180144589
 30
0.0
 11
2858.482099084651
 21
1399.786180144589
 31
0.0
  0
LINE
  5
A79
330
97E
100
AcDbEntity
  8
cotas
100
AcDbLine
 10
2863.482099084651
 20
1414.786180144577
 30
0.0
 11
2863.482099084651
 21
1424.786180144576
 31
0.0
  0
LINE
  5
A7A
330
97E
100
AcDbEntity
  8
cotas
100
AcDbLine
 10
2863.482099084651
 20
1389.786180144589
 30
0.0
 11
2863.482099084651
 21
1363.271740923636
 31
0.0
  0
LINE
  5
A7B
330
97E
100
AcDbEntity
  8
cotas
100
AcDbLine
 10
2863.482099084651
 20
1404.786180144577
 30
0.0
 11
2863.482099084651
 21
1399.786180144589
 31
0.0
  0
SOLID
  5
A7C
330
97E
100
AcDbEntity
  8
cotas
100
AcDbTrace
 10
2861.815432417984
 20
1414.786180144577
 30
0.0
 11
2865.148765751318
 21
1414.786180144577
 31
0.0
 12
2863.482099084651
 22
1404.786180144577
 32
0.0
 13
2863.482099084651
 23
1404.786180144577
 33
0.0
  0
SOLID
  5
A7D
330
97E
100
AcDbEntity
  8
cotas
100
AcDbTrace
 10
2861.815432417984
 20
1389.786180144589
 30
0.0
 11
2865.148765751318
 21
1389.786180144589
 31
0.0
 12
2863.482099084651
 22
1399.786180144589
 32
0.0
 13
2863.482099084651
 23
1399.786180144589
 33
0.0
  0
MTEXT
  5
A7E
330
97E
100
AcDbEntity
  8
cotas
100
AcDbMText
 10
2853.37800237545
 20
1371.528960534113
 30
0.0
 40
10.0
 41
0.0
 71
     5
 72
     1
  1
5
  7
SANINDUSA
 11
0.0000000000000001
 21
1.0
 31
0.0
 73
     1
 44
1.0
1001
ACAD
1000
MTEXTBEGIN
1070
    73
1070
     1
1070
    44
1040
1.0
1070
    74
1070
     0
1000
MTEXTEND
  0
POINT
  5
A7F
330
97E
100
AcDbEntity
  8
Defpoints
 62
     0
100
AcDbPoint
 10
2999.218375319766
 20
1404.786180144577
 30
0.0
  0
POINT
  5
A80
330
97E
100
AcDbEntity
  8
Defpoints
 62
     0
100
AcDbPoint
 10
2886.218375319754
 20
1399.786180144589
 30
0.0
  0
POINT
  5
A81
330
97E
100
AcDbEntity
  8
Defpoints
 62
     0
100
AcDbPoint
 10
2863.482099084651
 20
1399.786180144589
 30
0.0
  0
ENDBLK
  5
98B
330
97E
100
AcDbEntity
  8
0
100
AcDbBlockEnd
  0
BLOCK
  5
998
330
98C
100
AcDbEntity
  8
0
100
AcDbBlockBegin
  2
*D87
 70
     1
 10
0.0
 20
0.0
 30
0.0
  3
*D87
  1

  0
LINE
  5
98D
330
98C
100
AcDbEntity
  8
cotas
100
AcDbLine
 10
3621.545773902624
 20
1403.780243808415
 30
0.0
 11
3666.218375319754
 21
1403.780243808415
 31
0.0
  0
LINE
  5
98E
330
98C
100
AcDbEntity
  8
cotas
100
AcDbLine
 10
3641.218375319755
 20
1399.786180144589
 30
0.0
 11
3666.218375319754
 21
1399.786180144589
 31
0.0
  0
LINE
  5
98F
330
98C
100
AcDbEntity
  8
cotas
100
AcDbLine
 10
3661.218375319754
 20
1413.780243808415
 30
0.0
 11
3661.218375319754
 21
1423.780243808415
 31
0.0
  0
LINE
  5
990
330
98C
100
AcDbEntity
  8
cotas
100
AcDbLine
 10
3661.218375319754
 20
1389.786180144589
 30
0.0
 11
3661.218375319754
 21
1362.224057914905
 31
0.0
  0
LINE
  5
991
330
98C
100
AcDbEntity
  8
cotas
100
AcDbLine
 10
3661.218375319754
 20
1403.780243808415
 30
0.0
 11
3661.218375319754
 21
1399.786180144589
 31
0.0
  0
SOLID
  5
992
330
98C
100
AcDbEntity
  8
cotas
100
AcDbTrace
 10
3659.551708653088
 20
1413.780243808415
 30
0.0
 11
3662.88504198642
 21
1413.780243808415
 31
0.0
 12
3661.218375319754
 22
1403.780243808415
 32
0.0
 13
3661.218375319754
 23
1403.780243808415
 33
0.0
  0
SOLID
  5
993
330
98C
100
AcDbEntity
  8
cotas
100
AcDbTrace
 10
3659.551708653088
 20
1389.786180144589
 30
0.0
 11
3662.88504198642
 21
1389.786180144589
 31
0.0
 12
3661.218375319754
 22
1399.786180144589
 32
0.0
 13
3661.218375319754
 23
1399.786180144589
 33
0.0
  0
MTEXT
  5
994
330
98C
100
AcDbEntity
  8
cotas
100
AcDbMText
 10
3651.218375319754
 20
1371.005119029748
 30
0.0
 40
10.0
 41
0.0
 71
     5
 72
     1
  1
4
  7
SANINDUSA
 11
0.0000000000000001
 21
1.0
 31
0.0
 73
     1
 44
1.0
1001
ACAD
1000
MTEXTBEGIN
1070
    73
1070
     1
1070
    44
1040
1.0
1070
    74
1070
     0
1000
MTEXTEND
  0
POINT
  5
995
330
98C
100
AcDbEntity
  8
Defpoints
 62
     0
100
AcDbPoint
 10
3616.545773902624
 20
1403.780243808415
 30
0.0
  0
POINT
  5
996
330
98C
100
AcDbEntity
  8
Defpoints
 62
     0
100
AcDbPoint
 10
3636.218375319755
 20
1399.786180144589
 30
0.0
  0
POINT
  5
997
330
98C
100
AcDbEntity
  8
Defpoints
 62
     0
100
AcDbPoint
 10
3661.218375319754
 20
1399.786180144589
 30
0.0
  0
ENDBLK
  5
999
330
98C
100
AcDbEntity
  8
0
100
AcDbBlockEnd
  0
BLOCK
  5
9A4
330
99A
100
AcDbEntity
  8
0
100
AcDbBlockBegin
  2
*D88
 70
     1
 10
0.0
 20
0.0
 30
0.0
  3
*D88
  1

  0
LINE
  5
99B
330
99A
100
AcDbEntity
  8
cotas
100
AcDbLine
 10
269.0344639845394
 20
1469.779999559234
 30
0.0
 11
269.0344639845394
 21
1494.779998434858
 31
0.0
  0
LINE
  5
99C
330
99A
100
AcDbEntity
  8
cotas
100
AcDbLine
 10
1464.495195672285
 20
1469.779998434858
 30
0.0
 11
1464.495195672285
 21
1494.779998434858
 31
0.0
  0
LINE
  5
99D
330
99A
100
AcDbEntity
  8
cotas
100
AcDbLine
 10
279.0344639845393
 20
1489.779998434858
 30
0.0
 11
1454.495195672285
 21
1489.779998434858
 31
0.0
  0
SOLID
  5
99E
330
99A
100
AcDbEntity
  8
cotas
100
AcDbTrace
 10
279.0344639845393
 20
1491.446665101524
 30
0.0
 11
279.0344639845393
 21
1488.113331768191
 31
0.0
 12
269.0344639845394
 22
1489.779998434858
 32
0.0
 13
269.0344639845394
 23
1489.779998434858
 33
0.0
  0
SOLID
  5
99F
330
99A
100
AcDbEntity
  8
cotas
100
AcDbTrace
 10
1454.495195672285
 20
1491.446665101524
 30
0.0
 11
1454.495195672285
 21
1488.113331768191
 31
0.0
 12
1464.495195672285
 22
1489.779998434858
 32
0.0
 13
1464.495195672285
 23
1489.779998434858
 33
0.0
  0
MTEXT
  5
9A0
330
99A
100
AcDbEntity
  8
cotas
100
AcDbMText
 10
866.764829828412
 20
1501.123181779384
 30
0.0
 40
10.0
 41
0.0
 71
     5
 72
     1
  1
1195,5
  7
SANINDUSA
 73
     1
 44
1.0
1001
ACAD
1000
MTEXTBEGIN
1070
    73
1070
     1
1070
    44
1040
1.0
1070
    74
1070
     0
1000
MTEXTEND
  0
POINT
  5
9A1
330
99A
100
AcDbEntity
  8
Defpoints
 62
     0
100
AcDbPoint
 10
269.0344639845394
 20
1464.779999559234
 30
0.0
  0
POINT
  5
9A2
330
99A
100
AcDbEntity
  8
Defpoints
 62
     0
100
AcDbPoint
 10
1464.495195672285
 20
1464.779998434858
 30
0.0
  0
POINT
  5
9A3
330
99A
100
AcDbEntity
  8
Defpoints
 62
     0
100
AcDbPoint
 10
1464.495195672285
 20
1489.779998434858
 30
0.0
  0
ENDBLK
  5
9A5
330
99A
100
AcDbEntity
  8
0
100
AcDbBlockEnd
  0
BLOCK
  5
9B2
330
9A6
100
AcDbEntity
  8
0
100
AcDbBlockBegin
  2
*D89
 70
     1
 10
0.0
 20
0.0
 30
0.0
  3
*D89
  1

  0
LINE
  5
9A7
330
9A6
100
AcDbEntity
  8
cotas
100
AcDbLine
 10
1464.495195672285
 20
1469.779998434858
 30
0.0
 11
1464.495195672285
 21
1494.779998434858
 31
0.0
  0
LINE
  5
9A8
330
9A6
100
AcDbEntity
  8
cotas
100
AcDbLine
 10
1466.764829808786
 20
1404.786180442612
 30
0.0
 11
1466.764829808786
 21
1494.779998434858
 31
0.0
  0
LINE
  5
9A9
330
9A6
100
AcDbEntity
  8
cotas
100
AcDbLine
 10
1454.495195672285
 20
1489.779998434858
 30
0.0
 11
1444.495195672285
 21
1489.779998434858
 31
0.0
  0
LINE
  5
9AA
330
9A6
100
AcDbEntity
  8
cotas
100
AcDbLine
 10
1476.764829808786
 20
1489.779998434858
 30
0.0
 11
1517.140921145254
 21
1489.779998434858
 31
0.0
  0
LINE
  5
9AB
330
9A6
100
AcDbEntity
  8
cotas
100
AcDbLine
 10
1464.495195672285
 20
1489.779998434858
 30
0.0
 11
1466.764829808786
 21
1489.779998434858
 31
0.0
  0
SOLID
  5
9AC
330
9A6
100
AcDbEntity
  8
cotas
100
AcDbTrace
 10
1454.495195672285
 20
1491.446665101524
 30
0.0
 11
1454.495195672285
 21
1488.113331768191
 31
0.0
 12
1464.495195672285
 22
1489.779998434858
 32
0.0
 13
1464.495195672285
 23
1489.779998434858
 33
0.0
  0
SOLID
  5
9AD
330
9A6
100
AcDbEntity
  8
cotas
100
AcDbTrace
 10
1476.764829808786
 20
1491.446665101524
 30
0.0
 11
1476.764829808786
 21
1488.113331768191
 31
0.0
 12
1466.764829808786
 22
1489.779998434858
 32
0.0
 13
1466.764829808786
 23
1489.779998434858
 33
0.0
  0
MTEXT
  5
9AE
330
9A6
100
AcDbEntity
  8
cotas
100
AcDbMText
 10
1501.95287547702
 20
1501.126539737746
 30
0.0
 40
10.0
 41
0.0
 71
     5
 72
     1
  1
2,3
  7
SANINDUSA
 73
     1
 44
1.0
1001
ACAD
1000
MTEXTBEGIN
1070
    73
1070
     1
1070
    44
1040
1.0
1070
    74
1070
     0
1000
MTEXTEND
  0
POINT
  5
9AF
330
9A6
100
AcDbEntity
  8
Defpoints
 62
     0
100
AcDbPoint
 10
1464.495195672285
 20
1464.779998434858
 30
0.0
  0
POINT
  5
9B0
330
9A6
100
AcDbEntity
  8
Defpoints
 62
     0
100
AcDbPoint
 10
1466.764829808786
 20
1399.786180442612
 30
0.0
  0
POINT
  5
9B1
330
9A6
100
AcDbEntity
  8
Defpoints
 62
     0
100
AcDbPoint
 10
1466.764829808786
 20
1489.779998434858
 30
0.0
  0
ENDBLK
  5
9B3
330
9A6
100
AcDbEntity
  8
0
100
AcDbBlockEnd
  0
BLOCK
  5
9C0
330
9B4
100
AcDbEntity
  8
0
100
AcDbBlockBegin
  2
*D90
 70
     1
 10
0.0
 20
0.0
 30
0.0
  3
*D90
  1

  0
LINE
  5
9B5
330
9B4
100
AcDbEntity
  8
cotas
100
AcDbLine
 10
269.0344639845394
 20
1469.779999559234
 30
0.0
 11
269.0344639845394
 21
1494.779998434858
 31
0.0
  0
LINE
  5
9B6
330
9B4
100
AcDbEntity
  8
cotas
100
AcDbLine
 10
266.7648298087865
 20
1404.786180442612
 30
0.0
 11
266.7648298087865
 21
1494.779998434858
 31
0.0
  0
LINE
  5
9B7
330
9B4
100
AcDbEntity
  8
cotas
100
AcDbLine
 10
279.0344639845393
 20
1489.779998434858
 30
0.0
 11
289.0344639845393
 21
1489.779998434858
 31
0.0
  0
LINE
  5
9B8
330
9B4
100
AcDbEntity
  8
cotas
100
AcDbLine
 10
256.7648298087866
 20
1489.779998434858
 30
0.0
 11
216.3887384723191
 21
1489.779998434858
 31
0.0
  0
LINE
  5
9B9
330
9B4
100
AcDbEntity
  8
cotas
100
AcDbLine
 10
269.0344639845394
 20
1489.779998434858
 30
0.0
 11
266.7648298087865
 21
1489.779998434858
 31
0.0
  0
SOLID
  5
9BA
330
9B4
100
AcDbEntity
  8
cotas
100
AcDbTrace
 10
279.0344639845393
 20
1491.446665101524
 30
0.0
 11
279.0344639845393
 21
1488.113331768191
 31
0.0
 12
269.0344639845394
 22
1489.779998434858
 32
0.0
 13
269.0344639845394
 23
1489.779998434858
 33
0.0
  0
SOLID
  5
9BB
330
9B4
100
AcDbEntity
  8
cotas
100
AcDbTrace
 10
256.7648298087866
 20
1491.446665101524
 30
0.0
 11
256.7648298087866
 21
1488.113331768191
 31
0.0
 12
266.7648298087865
 22
1489.779998434858
 32
0.0
 13
266.7648298087865
 23
1489.779998434858
 33
0.0
  0
MTEXT
  5
9BC
330
9B4
100
AcDbEntity
  8
cotas
100
AcDbMText
 10
231.5767841405528
 20
1501.126539737746
 30
0.0
 40
10.0
 41
0.0
 71
     5
 72
     1
  1
2,3
  7
SANINDUSA
 73
     1
 44
1.0
1001
ACAD
1000
MTEXTBEGIN
1070
    73
1070
     1
1070
    44
1040
1.0
1070
    74
1070
     0
1000
MTEXTEND
  0
POINT
  5
9BD
330
9B4
100
AcDbEntity
  8
Defpoints
 62
     0
100
AcDbPoint
 10
269.0344639845394
 20
1464.779999559234
 30
0.0
  0
POINT
  5
9BE
330
9B4
100
AcDbEntity
  8
Defpoints
 62
     0
100
AcDbPoint
 10
266.7648298087865
 20
1399.786180442612
 30
0.0
  0
POINT
  5
9BF
330
9B4
100
AcDbEntity
  8
Defpoints
 62
     0
100
AcDbPoint
 10
266.7648298087865
 20
1489.779998434858
 30
0.0
  0
ENDBLK
  5
9C1
330
9B4
100
AcDbEntity
  8
0
100
AcDbBlockEnd
  0
BLOCK
  5
9DE
330
9D4
100
AcDbEntity
  8
0
100
AcDbBlockBegin
  2
*D91
 70
     1
 10
0.0
 20
0.0
 30
0.0
  3
*D91
  1

  0
ARC
  5
9D5
330
9D4
100
AcDbEntity
  8
cotas
100
AcDbCircle
 10
1466.764829808786
 20
1399.786180442612
 30
0.0
 40
47.2332296865032
100
AcDbArc
 50
104.1531665498832
 51
167.8468334501218
  0
SOLID
  5
9D6
330
9D4
100
AcDbEntity
  8
cotas
100
AcDbTrace
 10
1454.981441255341
 20
1447.235806204988
 30
0.0
 11
1455.449763250506
 21
1443.935535667599
 31
0.0
 12
1465.116413865089
 22
1446.990636921789
 32
0.0
 13
1465.116413865089
 23
1446.990636921789
 33
0.0
  0
SOLID
  5
9D7
330
9D4
100
AcDbEntity
  8
cotas
100
AcDbTrace
 10
1422.247479050086
 20
1409.553563890972
 30
0.0
 11
1418.932874746412
 21
1409.906422816294
 31
0.0
 12
1419.531600122283
 22
1399.786180442612
 32
0.0
 13
1419.531600122283
 23
1399.786180442612
 33
0.0
  0
MTEXT
  5
9D8
330
9D4
100
AcDbEntity
  8
cotas
100
AcDbMText
 10
1424.6188225021
 20
1440.486106601612
 30
0.0
 40
10.0
 41
0.0
 71
     5
 72
     1
  1
88,0°
  7
SANINDUSA
 11
0.6946583704589683
 21
0.7193398003386794
 31
0.0
 73
     1
 44
1.0
1001
ACAD
1000
MTEXTBEGIN
1070
    73
1070
     1
1070
    44
1040
1.0
1070
    74
1070
     0
1000
MTEXTEND
  0
POINT
  5
9D9
330
9D4
100
AcDbEntity
  8
Defpoints
 62
     0
100
AcDbPoint
 10
1442.202788597617
 20
1440.130747835989
 30
0.0
  0
POINT
  5
9DA
330
9D4
100
AcDbEntity
  8
Defpoints
 62
     0
100
AcDbPoint
 10
271.7678775302761
 20
1399.786180442612
 30
0.0
  0
POINT
  5
9DB
330
9D4
100
AcDbEntity
  8
Defpoints
 62
     0
100
AcDbPoint
 10
1464.663705826431
 20
1459.954498979981
 30
0.0
  0
POINT
  5
9DC
330
9D4
100
AcDbEntity
  8
Defpoints
 62
     0
100
AcDbPoint
 10
1466.764829808786
 20
1399.786180442612
 30
0.0
  0
POINT
  5
9DD
330
9D4
100
AcDbEntity
  8
Defpoints
 62
     0
100
AcDbPoint
 10
1461.761782087282
 20
1399.786180442612
 30
0.0
  0
ENDBLK
  5
9DF
330
9D4
100
AcDbEntity
  8
0
100
AcDbBlockEnd
  0
BLOCK
  5
9EA
330
9E0
100
AcDbEntity
  8
0
100
AcDbBlockBegin
  2
*D92
 70
     1
 10
0.0
 20
0.0
 30
0.0
  3
*D92
  1

  0
ARC
  5
9E1
330
9E0
100
AcDbEntity
  8
cotas
100
AcDbCircle
 10
266.7648298087865
 20
1399.786180442612
 30
0.0
 40
50.29764352441342
100
AcDbArc
 50
11.41019016728355
 51
76.58980983272293
  0
SOLID
  5
9E2
330
9E0
100
AcDbEntity
  8
cotas
100
AcDbTrace
 10
317.7268021999232
 20
1409.902328174562
 30
0.0
 11
314.4099797535223
 21
1409.570967389069
 31
0.0
 12
317.0624733331999
 22
1399.786180442612
 32
0.0
 13
317.0624733331999
 23
1399.786180442612
 33
0.0
  0
SOLID
  5
9E3
330
9E0
100
AcDbEntity
  8
cotas
100
AcDbTrace
 10
278.2064478807924
 20
1447.060822109559
 30
0.0
 11
278.6533622442781
 21
1450.364059712703
 31
0.0
 12
268.5201922531046
 22
1450.053184001588
 32
0.0
 13
268.5201922531046
 23
1450.053184001588
 33
0.0
  0
MTEXT
  5
9E4
330
9E0
100
AcDbEntity
  8
cotas
100
AcDbMText
 10
311.1151919537856
 20
1442.614827324671
 30
0.0
 40
10.0
 41
0.0
 71
     5
 72
     1
  1
88,0°
  7
SANINDUSA
 11
0.6946583704590381
 21
-0.719339800338612
 31
0.0
 73
     1
 44
1.0
1001
ACAD
1000
MTEXTBEGIN
1070
    73
1070
     1
1070
    44
1040
1.0
1070
    74
1070
     0
1000
MTEXTEND
  0
POINT
  5
9E5
330
9E0
100
AcDbEntity
  8
Defpoints
 62
     0
100
AcDbPoint
 10
310.613531479045
 20
1424.426478856829
 30
0.0
  0
POINT
  5
9E6
330
9E0
100
AcDbEntity
  8
Defpoints
 62
     0
100
AcDbPoint
 10
266.7648298087865
 20
1399.786180442612
 30
0.0
  0
POINT
  5
9E7
330
9E0
100
AcDbEntity
  8
Defpoints
 62
     0
100
AcDbPoint
 10
271.7678775302761
 20
1399.786180442613
 30
0.0
  0
POINT
  5
9E8
330
9E0
100
AcDbEntity
  8
Defpoints
 62
     0
100
AcDbPoint
 10
1461.761782087282
 20
1399.786180442613
 30
0.0
  0
POINT
  5
9E9
330
9E0
100
AcDbEntity
  8
Defpoints
 62
     0
100
AcDbPoint
 10
268.8659537907638
 20
1459.954498969517
 30
0.0
  0
ENDBLK
  5
9EB
330
9E0
100
AcDbEntity
  8
0
100
AcDbBlockEnd
  0
BLOCK
  5
9F6
330
9EC
100
AcDbEntity
  8
0
100
AcDbBlockBegin
  2
*D93
 70
     1
 10
0.0
 20
0.0
 30
0.0
  3
*D93
  1

  0
LINE
  5
9ED
330
9EC
100
AcDbEntity
  8
cotas
100
AcDbLine
 10
1808.813903226987
 20
1469.778161658902
 30
0.0
 11
1808.813903226987
 21
1494.779998424381
 31
0.0
  0
LINE
  5
9EE
330
9EC
100
AcDbEntity
  8
cotas
100
AcDbLine
 10
2556.544333232129
 20
1464.78000091826
 30
0.0
 11
2556.544333232129
 21
1494.779998424381
 31
0.0
  0
LINE
  5
9EF
330
9EC
100
AcDbEntity
  8
cotas
100
AcDbLine
 10
1818.813903226987
 20
1489.779998424381
 30
0.0
 11
2546.544333232129
 21
1489.779998424381
 31
0.0
  0
SOLID
  5
9F0
330
9EC
100
AcDbEntity
  8
cotas
100
AcDbTrace
 10
1818.813903226987
 20
1491.446665091048
 30
0.0
 11
1818.813903226987
 21
1488.113331757715
 31
0.0
 12
1808.813903226987
 22
1489.779998424381
 32
0.0
 13
1808.813903226987
 23
1489.779998424381
 33
0.0
  0
SOLID
  5
9F1
330
9EC
100
AcDbEntity
  8
cotas
100
AcDbTrace
 10
2546.544333232129
 20
1491.446665091048
 30
0.0
 11
2546.544333232129
 21
1488.113331757715
 31
0.0
 12
2556.544333232129
 22
1489.779998424381
 32
0.0
 13
2556.544333232129
 23
1489.779998424381
 33
0.0
  0
MTEXT
  5
9F2
330
9EC
100
AcDbEntity
  8
cotas
100
AcDbMText
 10
2182.679118229558
 20
1501.022443018068
 30
0.0
 40
10.0
 41
0.0
 71
     5
 72
     1
  1
747,7
  7
SANINDUSA
 73
     1
 44
1.0
1001
ACAD
1000
MTEXTBEGIN
1070
    73
1070
     1
1070
    44
1040
1.0
1070
    74
1070
     0
1000
MTEXTEND
  0
POINT
  5
9F3
330
9EC
100
AcDbEntity
  8
Defpoints
 62
     0
100
AcDbPoint
 10
1808.813903226987
 20
1464.778161658902
 30
0.0
  0
POINT
  5
9F4
330
9EC
100
AcDbEntity
  8
Defpoints
 62
     0
100
AcDbPoint
 10
2556.544333232129
 20
1459.780000918259
 30
0.0
  0
POINT
  5
9F5
330
9EC
100
AcDbEntity
  8
Defpoints
 62
     0
100
AcDbPoint
 10
2556.544333232129
 20
1489.779998424381
 30
0.0
  0
ENDBLK
  5
9F7
330
9EC
100
AcDbEntity
  8
0
100
AcDbBlockEnd
  0
BLOCK
  5
A04
330
9F8
100
AcDbEntity
  8
0
100
AcDbBlockBegin
  2
*D94
 70
     1
 10
0.0
 20
0.0
 30
0.0
  3
*D94
  1

  0
LINE
  5
9F9
330
9F8
100
AcDbEntity
  8
cotas
100
AcDbLine
 10
1808.813903226987
 20
1469.778161658902
 30
0.0
 11
1808.813903226987
 21
1494.779998424381
 31
0.0
  0
LINE
  5
9FA
330
9F8
100
AcDbEntity
  8
cotas
100
AcDbLine
 10
1806.544333232123
 20
1404.786180442612
 30
0.0
 11
1806.544333232123
 21
1494.779998424381
 31
0.0
  0
LINE
  5
9FB
330
9F8
100
AcDbEntity
  8
cotas
100
AcDbLine
 10
1818.813903226987
 20
1489.779998424381
 30
0.0
 11
1828.813903226986
 21
1489.779998424381
 31
0.0
  0
LINE
  5
9FC
330
9F8
100
AcDbEntity
  8
cotas
100
AcDbLine
 10
1796.544333232123
 20
1489.779998424381
 30
0.0
 11
1756.168241895656
 21
1489.779998424381
 31
0.0
  0
LINE
  5
9FD
330
9F8
100
AcDbEntity
  8
cotas
100
AcDbLine
 10
1808.813903226987
 20
1489.779998424381
 30
0.0
 11
1806.544333232123
 21
1489.779998424381
 31
0.0
  0
SOLID
  5
9FE
330
9F8
100
AcDbEntity
  8
cotas
100
AcDbTrace
 10
1818.813903226987
 20
1491.446665091048
 30
0.0
 11
1818.813903226987
 21
1488.113331757715
 31
0.0
 12
1808.813903226987
 22
1489.779998424381
 32
0.0
 13
1808.813903226987
 23
1489.779998424381
 33
0.0
  0
SOLID
  5
9FF
330
9F8
100
AcDbEntity
  8
cotas
100
AcDbTrace
 10
1796.544333232123
 20
1491.446665091048
 30
0.0
 11
1796.544333232123
 21
1488.113331757715
 31
0.0
 12
1806.544333232123
 22
1489.779998424381
 32
0.0
 13
1806.544333232123
 23
1489.779998424381
 33
0.0
  0
MTEXT
  5
A00
330
9F8
100
AcDbEntity
  8
cotas
100
AcDbMText
 10
1771.356287563889
 20
1501.126539727269
 30
0.0
 40
10.0
 41
0.0
 71
     5
 72
     1
  1
2,3
  7
SANINDUSA
 73
     1
 44
1.0
1001
ACAD
1000
MTEXTBEGIN
1070
    73
1070
     1
1070
    44
1040
1.0
1070
    74
1070
     0
1000
MTEXTEND
  0
POINT
  5
A01
330
9F8
100
AcDbEntity
  8
Defpoints
 62
     0
100
AcDbPoint
 10
1808.813903226987
 20
1464.778161658902
 30
0.0
  0
POINT
  5
A02
330
9F8
100
AcDbEntity
  8
Defpoints
 62
     0
100
AcDbPoint
 10
1806.544333232123
 20
1399.786180442612
 30
0.0
  0
POINT
  5
A03
330
9F8
100
AcDbEntity
  8
Defpoints
 62
     0
100
AcDbPoint
 10
1806.544333232123
 20
1489.779998424381
 30
0.0
  0
ENDBLK
  5
A05
330
9F8
100
AcDbEntity
  8
0
100
AcDbBlockEnd
  0
BLOCK
  5
A19
330
A0F
100
AcDbEntity
  8
0
100
AcDbBlockBegin
  2
*D95
 70
     1
 10
0.0
 20
0.0
 30
0.0
  3
*D95
  1

  0
ARC
  5
A10
330
A0F
100
AcDbEntity
  8
cotas
100
AcDbCircle
 10
2556.544333232123
 20
1399.786180442612
 30
0.0
 40
45.73764698190901
100
AcDbArc
 50
102.552136356789
 51
167.4478636432103
  0
SOLID
  5
A11
330
A0F
100
AcDbEntity
  8
cotas
100
AcDbTrace
 10
2546.422067638248
 20
1446.087313914901
 30
0.0
 11
2546.786464754551
 21
1442.773958236327
 31
0.0
 12
2556.544333232123
 22
1445.523827424521
 32
0.0
 13
2556.544333232123
 23
1445.523827424521
 33
0.0
  0
SOLID
  5
A12
330
A0F
100
AcDbEntity
  8
cotas
100
AcDbTrace
 10
2513.556555438408
 20
1409.544048920184
 30
0.0
 11
2510.243199759834
 21
1409.908446036487
 31
0.0
 12
2510.806686250214
 22
1399.786180442612
 32
0.0
 13
2510.806686250214
 23
1399.786180442612
 33
0.0
  0
MTEXT
  5
A13
330
A0F
100
AcDbEntity
  8
cotas
100
AcDbMText
 10
2516.182091032542
 20
1440.148422642193
 30
0.0
 40
10.0
 41
0.0
 71
     5
 72
     1
  1
90,0°
  7
SANINDUSA
 11
0.7071067811865476
 21
0.7071067811865475
 31
0.0
 73
     1
 44
1.0
1001
ACAD
1000
MTEXTBEGIN
1070
    73
1070
     1
1070
    44
1040
1.0
1070
    74
1070
     0
1000
MTEXTEND
  0
POINT
  5
A14
330
A0F
100
AcDbEntity
  8
Defpoints
 62
     0
100
AcDbPoint
 10
2533.675509741169
 20
1439.39614463827
 30
0.0
  0
POINT
  5
A15
330
A0F
100
AcDbEntity
  8
Defpoints
 62
     0
100
AcDbPoint
 10
1811.541287367225
 20
1399.786180442612
 30
0.0
  0
POINT
  5
A16
330
A0F
100
AcDbEntity
  8
Defpoints
 62
     0
100
AcDbPoint
 10
2556.544333232124
 20
1459.780001486017
 30
0.0
  0
POINT
  5
A17
330
A0F
100
AcDbEntity
  8
Defpoints
 62
     0
100
AcDbPoint
 10
2556.544333232123
 20
1399.786180442612
 30
0.0
  0
POINT
  5
A18
330
A0F
100
AcDbEntity
  8
Defpoints
 62
     0
100
AcDbPoint
 10
2551.544333232123
 20
1399.786180442612
 30
0.0
  0
ENDBLK
  5
A1A
330
A0F
100
AcDbEntity
  8
0
100
AcDbBlockEnd
  0
BLOCK
  5
A25
330
A1B
100
AcDbEntity
  8
0
100
AcDbBlockBegin
  2
*D96
 70
     1
 10
0.0
 20
0.0
 30
0.0
  3
*D96
  1

  0
ARC
  5
A1C
330
A1B
100
AcDbEntity
  8
cotas
100
AcDbCircle
 10
1806.544333232123
 20
1399.786180442612
 30
0.0
 40
49.51563359813071
100
AcDbArc
 50
11.59100574892032
 51
76.40899425108123
  0
SOLID
  5
A1D
330
A1B
100
AcDbEntity
  8
cotas
100
AcDbTrace
 10
1856.708332469294
 20
1409.903363834045
 30
0.0
 11
1853.392037010503
 21
1409.566769803927
 31
0.0
 12
1856.059966830254
 22
1399.786180442612
 32
0.0
 13
1856.059966830254
 23
1399.786180442612
 33
0.0
  0
SOLID
  5
A1E
330
A1B
100
AcDbEntity
  8
cotas
100
AcDbTrace
 10
1817.953925806194
 20
1446.264008219469
 30
0.0
 11
1818.406051834752
 21
1449.566536518426
 31
0.0
 12
1808.272403923602
 22
1449.271650454623
 32
0.0
 13
1808.272403923602
 23
1449.271650454623
 33
0.0
  0
MTEXT
  5
A1F
330
A1B
100
AcDbEntity
  8
cotas
100
AcDbMText
 10
1850.332164512889
 20
1442.071597583595
 30
0.0
 40
10.0
 41
0.0
 71
     5
 72
     1
  1
88,0°
  7
SANINDUSA
 11
0.694658370459008
 21
-0.7193398003386408
 31
0.0
 73
     1
 44
1.0
1001
ACAD
1000
MTEXTBEGIN
1070
    73
1070
     1
1070
    44
1040
1.0
1070
    74
1070
     0
1000
MTEXTEND
  0
POINT
  5
A20
330
A1B
100
AcDbEntity
  8
Defpoints
 62
     0
100
AcDbPoint
 10
1849.711290837293
 20
1424.043380234381
 30
0.0
  0
POINT
  5
A21
330
A1B
100
AcDbEntity
  8
Defpoints
 62
     0
100
AcDbPoint
 10
1806.544333232123
 20
1399.786180442612
 30
0.0
  0
POINT
  5
A22
330
A1B
100
AcDbEntity
  8
Defpoints
 62
     0
100
AcDbPoint
 10
1811.541287367225
 20
1399.786180442612
 30
0.0
  0
POINT
  5
A23
330
A1B
100
AcDbEntity
  8
Defpoints
 62
     0
100
AcDbPoint
 10
2551.544333232123
 20
1399.786180442612
 30
0.0
  0
POINT
  5
A24
330
A1B
100
AcDbEntity
  8
Defpoints
 62
     0
100
AcDbPoint
 10
1808.645393099048
 20
1459.952662954508
 30
0.0
  0
ENDBLK
  5
A26
330
A1B
100
AcDbEntity
  8
0
100
AcDbBlockEnd
  0
BLOCK
  5
A2E
330
A27
100
AcDbEntity
  8
0
100
AcDbBlockBegin
  2
*D97
 70
     1
 10
0.0
 20
0.0
 30
0.0
  3
*D97
  1

  0
LINE
  5
A82
330
A27
100
AcDbEntity
  8
cotas
100
AcDbLine
 10
2593.732381107743
 20
1488.419303667756
 30
0.0
 11
2563.954870664296
 21
1468.204878229775
 31
0.0
  0
MTEXT
  5
A83
330
A27
100
AcDbEntity
  8
cotas
100
AcDbMText
 10
2577.305419775496
 20
1489.480201454595
 30
0.0
 40
10.0
 41
0.0
 71
     5
 72
     1
  1
R5
  7
SANINDUSA
 11
0.8273691556315071
 21
0.5616585086238853
 31
0.0
 73
     1
 44
1.0
1001
ACAD
1000
MTEXTBEGIN
1070
    73
1070
     1
1070
    44
1040
1.0
1070
    74
1070
     0
1000
MTEXTEND
  0
LINE
  5
A84
330
A27
100
AcDbEntity
  8
cotas
100
AcDbLine
 10
2551.544333798033
 20
1459.78000091826
 30
0.0
 11
2555.681179107982
 21
1462.588293143536
 31
0.0
  0
SOLID
  5
A85
330
A27
100
AcDbEntity
  8
cotas
100
AcDbTrace
 10
2563.018773149924
 20
1469.583826822494
 30
0.0
 11
2564.89096817867
 21
1466.825929637055
 31
0.0
 12
2555.681179107982
 22
1462.588293143536
 32
0.0
 13
2555.681179107982
 23
1462.588293143536
 33
0.0
  0
POINT
  5
A86
330
A27
100
AcDbEntity
  8
Defpoints
 62
     0
100
AcDbPoint
 10
2555.681179107982
 20
1462.588293143536
 30
0.0
  0
POINT
  5
A87
330
A27
100
AcDbEntity
  8
Defpoints
 62
     0
100
AcDbPoint
 10
2551.544333798033
 20
1459.78000091826
 30
0.0
  0
ENDBLK
  5
A2F
330
A27
100
AcDbEntity
  8
0
100
AcDbBlockEnd
  0
ENDSEC
  0
SECTION
  2
ENTITIES
  0
ARC
  5
51F
330
23
100
AcDbEntity
  8
SANINDUSA
100
AcDbCircle
 10
1082.599978636823
 20
1464.548779339557
 30
0.0
 40
0.0049999989569115
100
AcDbArc
 50
89.9613966247919
 51
177.9999894506468
  0
LWPOLYLINE
  5
520
330
23
100
AcDbEntity
  8
SANINDUSA
100
AcDbPolyline
 90
       21
 70
   128
 43
0.0
 10
1082.599982005603
 20
1464.553779337379
 10
1082.609982002201
 20
1464.553772602448
 10
1082.649981988724
 20
1464.553745771478
 10
1082.729981962735
 20
1464.553692949725
 10
1082.80998193908
 20
1464.553642291113
 10
1082.905706576402
 20
1464.553587098809
 10
1082.953568897786
 20
1464.553562901954
 10
1083.001431221571
 20
1464.553541755629
 10
1083.049293547303
 20
1464.553524303176
 10
1083.097155875629
 20
1464.553511219196
 10
1083.145018216881
 20
1464.55350313353
 10
1083.192880559867
 20
1464.553500397397
 10
1083.241023827721
 20
1464.553503165528
 10
1083.289167095575
 20
1464.553511344739
 10
1083.337310360878
 20
1464.553524574649
 10
1083.385453624737
 20
1464.553542212208
 10
1083.433596885718
 20
1464.553563571485
 10
1083.481740144857
 20
1464.553587998776
 10
1083.5780267027
 20
1464.553643669743
 10
1083.681902909805
 20
1464.553710031366
 10
1083.785779113964
 20
1464.553779337389
  0
LINE
  5
523
330
23
100
AcDbEntity
  8
SANINDUSA
100
AcDbLine
 10
1082.592880559781
 20
1464.488785519397
 30
0.0
 11
1082.594981683763
 21
1464.548953837924
 31
0.0
  0
LINE
  5
525
330
23
100
AcDbEntity
  8
SANINDUSA
100
AcDbLine
 10
1082.597883607502
 20
1464.488785519397
 30
0.0
 11
1082.592880559781
 21
1464.488785519397
 31
0.0
  0
ARC
  5
527
330
23
100
AcDbEntity
  8
SANINDUSA
100
AcDbCircle
 10
1083.785782482738
 20
1464.548779339567
 30
0.0
 40
0.0049999989569131
100
AcDbArc
 50
2.000010549353239
 51
90.03860331007038
  0
LINE
  5
529
330
23
100
AcDbEntity
  8
SANINDUSA
100
AcDbLine
 10
1083.790779435799
 20
1464.548953837935
 30
0.0
 11
1083.792880559781
 21
1464.488785519397
 31
0.0
  0
LINE
  5
52A
330
23
100
AcDbEntity
  8
SANINDUSA
100
AcDbLine
 10
1083.792880559781
 20
1464.488785519397
 30
0.0
 11
1083.787877512059
 21
1464.488785519397
 31
0.0
  0
LINE
  5
52B
330
23
100
AcDbEntity
  8
SANINDUSA
100
AcDbLine
 10
1082.597883607502
 20
1464.488785519397
 30
0.0
 11
1083.787877512059
 21
1464.488785519397
 31
0.0
  0
LWPOLYLINE
  5
52D
330
23
100
AcDbEntity
  8
SANINDUSA
100
AcDbPolyline
 90
       15
 70
   128
 43
0.0
 10
1083.991786229182
 20
1464.553777500613
 10
1084.038649383571
 20
1464.553738545394
 10
1084.132375706387
 20
1464.55367241999
 10
1084.179238875399
 20
1464.553646795654
 10
1084.22738187403
 20
1464.553626545674
 10
1084.27552487547
 20
1464.553612578673
 10
1084.32366787869
 20
1464.553604948981
 10
1084.371810892903
 20
1464.553603431343
 10
1084.419953901042
 20
1464.553608015626
 10
1084.468096907945
 20
1464.553618831581
 10
1084.516239912544
 20
1464.553635957824
 10
1084.564382923947
 20
1464.553659368179
 10
1084.619481773463
 20
1464.553693193141
 10
1084.674580617286
 20
1464.553733695263
 10
1084.729679459656
 20
1464.553779337379
  0
LINE
  5
531
330
23
100
AcDbEntity
  8
SANINDUSA
100
AcDbLine
 10
1083.989680804114
 20
1464.488785519397
 30
0.0
 11
1084.729683849979
 21
1464.488785519397
 31
0.0
  0
LINE
  5
532
330
23
100
AcDbEntity
  8
SANINDUSA
100
AcDbLine
 10
1083.984683849979
 20
1464.488785519397
 30
0.0
 11
1083.986784909846
 21
1464.548952001909
 31
0.0
  0
LINE
  5
534
330
23
100
AcDbEntity
  8
SANINDUSA
100
AcDbLine
 10
1083.989680804114
 20
1464.488785519397
 30
0.0
 11
1083.984683849979
 21
1464.488785519397
 31
0.0
  0
LINE
  5
536
330
23
100
AcDbEntity
  8
SANINDUSA
100
AcDbLine
 10
1084.734683849979
 20
1464.548779340441
 30
0.0
 11
1084.734683849979
 21
1464.488785519397
 31
0.0
  0
LINE
  5
537
330
23
100
AcDbEntity
  8
SANINDUSA
100
AcDbLine
 10
1084.734683849979
 20
1464.488785519397
 30
0.0
 11
1084.729683849979
 21
1464.488785519397
 31
0.0
  0
ARC
  5
53A
330
23
100
AcDbEntity
  8
SANINDUSA
100
AcDbCircle
 10
1083.991781862918
 20
1464.548777503551
 30
0.0
 40
0.004999998968691
100
AcDbArc
 50
89.94996628632966
 51
177.9999895678233
  0
ARC
  5
53B
330
23
100
AcDbEntity
  8
SANINDUSA
100
AcDbCircle
 10
1084.729683850545
 20
1464.548779339873
 30
0.0
 40
0.0049999994340954
100
AcDbArc
 50
0.0000065007484358
 51
90.05031589055469
  0
ARC
  5
563
330
23
100
AcDbEntity
  8
SANINDUSA
370
    -2
100
AcDbCircle
 10
1081.303065399882
 20
1464.301287307912
 30
0.0
 40
0.0786367090988361
100
AcDbArc
 50
180.0142356361002
 51
269.9863569221188
  0
ARC
  5
569
330
23
100
AcDbEntity
  8
SANINDUSA
370
    -2
100
AcDbCircle
 10
1082.258489457366
 20
1464.301287312436
 30
0.0
 40
0.0786367171155613
100
AcDbArc
 50
270.0137036429717
 51
359.9857262452839
  0
ARC
  5
56B
330
23
100
AcDbEntity
  8
SANINDUSA
370
    -2
100
AcDbCircle
 10
1081.303065891634
 20
1464.808980993266
 30
0.0
 40
0.07863779678516
100
AcDbArc
 50
90.02144355949315
 51
179.983878456328
  0
ARC
  5
56F
330
23
100
AcDbEntity
  8
SANINDUSA
370
    -2
100
AcDbCircle
 10
1082.258488856639
 20
1464.808980923567
 30
0.0
 40
0.0786383180426136
100
AcDbArc
 50
0.0164460600044512
 51
89.97754687029082
  0
ARC
  5
573
330
23
100
AcDbEntity
  8
SANINDUSA
370
    -2
100
AcDbCircle
 10
1082.258387652204
 20
1464.301376208712
 30
0.0
 40
0.0371246744991202
100
AcDbArc
 50
270.096428343781
 51
359.8952826681038
  0
ARC
  5
576
330
23
100
AcDbEntity
  8
SANINDUSA
370
    -2
100
AcDbCircle
 10
1082.258434238277
 20
1464.808927672583
 30
0.0
 40
0.0371779251250962
100
AcDbArc
 50
0.1144254814144344
 51
89.71598280519501
  0
LWPOLYLINE
  5
57A
330
23
100
AcDbEntity
  8
SANINDUSA
370
    -2
100
AcDbPolyline
 90
        6
 70
   128
 43
0.0
 10
1081.303046675174
 20
1464.222650601043
 10
1081.402050999991
 20
1464.222640138435
 10
1081.600059989593
 20
1464.222621319106
 10
1081.798069992013
 20
1464.222614239167
 10
1082.028289165063
 20
1464.22262683735
 10
1082.258508265206
 20
1464.22265059757
  0
LWPOLYLINE
  5
57B
330
23
100
AcDbEntity
  8
SANINDUSA
370
    -2
100
AcDbPolyline
 90
        8
 70
   128
 43
0.0
 10
1082.258519673507
 20
1464.887619235571
 10
1082.159578282556
 20
1464.887639180234
 10
1081.961695691447
 20
1464.887711369248
 10
1081.862754095283
 20
1464.887798235092
 10
1081.763812151291
 20
1464.887834528258
 10
1081.648617991674
 20
1464.887754894881
 10
1081.533424272806
 20
1464.887680171213
 10
1081.303036460602
 20
1464.887618784547
  0
ARC
  5
57D
330
23
100
AcDbEntity
  8
SANINDUSA
370
    -2
100
AcDbCircle
 10
1081.303166679767
 20
1464.301375813706
 30
0.0
 40
0.0371232246476343
100
AcDbArc
 50
180.1028909312495
 51
269.9063391289614
  0
ARC
  5
580
330
23
100
AcDbEntity
  8
SANINDUSA
370
    -2
100
AcDbCircle
 10
1081.30312178531
 20
1464.808921488884
 30
0.0
 40
0.0371653120001132
100
AcDbArc
 50
90.25345829894444
 51
179.8857256906216
  0
LWPOLYLINE
  5
583
330
23
100
AcDbEntity
  8
SANINDUSA
370
    -2
100
AcDbPolyline
 90
        5
 70
   128
 43
0.0
 10
1081.187875446053
 20
1464.92916734998
 10
1081.395628262511
 20
1464.929173436484
 10
1081.780777431719
 20
1464.929179754659
 10
1082.165926606204
 20
1464.929173436482
 10
1082.373679418048
 20
1464.92916734998
  0
LINE
  5
589
330
23
100
AcDbEntity
  8
SANINDUSA
370
    -2
100
AcDbLine
 10
1082.373679353934
 20
1464.181268409848
 30
0.0
 11
1081.187875510168
 21
1464.181268409848
 31
0.0
  0
LWPOLYLINE
  5
592
330
23
100
AcDbEntity
  8
SANINDUSA
370
    -2
100
AcDbPolyline
 90
        5
 70
   128
 43
0.0
 10
1081.182878556033
 20
1464.186268409847
 10
1081.182874383024
 20
1464.351566605714
 10
1081.182872447264
 20
1464.544141207973
 10
1081.182873947388
 20
1464.736715796679
 10
1081.182878491918
 20
1464.924170395845
  0
LWPOLYLINE
  5
594
330
23
100
AcDbEntity
  8
SANINDUSA
370
    -2
100
AcDbPolyline
 90
       15
 70
   128
 43
0.0
 10
1082.378676372184
 20
1464.924170395845
 10
1082.378678961217
 20
1464.830443104494
 10
1082.378680028495
 20
1464.783579454055
 10
1082.378680916701
 20
1464.736715796677
 10
1082.378681617672
 20
1464.688572154007
 10
1082.378682100695
 20
1464.640428509139
 10
1082.378682364379
 20
1464.592284862872
 10
1082.378682416822
 20
1464.54414120797
 10
1082.378682258409
 20
1464.495997557109
 10
1082.378681884494
 20
1464.447853907216
 10
1082.378681291969
 20
1464.399710259128
 10
1082.378680481069
 20
1464.351566605711
 10
1082.378679307499
 20
1464.296467203687
 10
1082.378677899166
 20
1464.241367806198
 10
1082.378676308069
 20
1464.186268409847
  0
ARC
  5
59A
330
23
100
AcDbEntity
  8
SANINDUSA
370
    -2
100
AcDbCircle
 10
1082.373677830537
 20
1464.186266887379
 30
0.0
 40
0.0049984777635569
100
AcDbArc
 50
270.0174621569924
 51
0.0174515134830103
  0
ARC
  5
59B
330
23
100
AcDbEntity
  8
SANINDUSA
370
    -2
100
AcDbCircle
 10
1081.187877033565
 20
1464.186266887379
 30
0.0
 40
0.0049984777635568
100
AcDbArc
 50
179.982548486517
 51
269.9825378430075
  0
ARC
  5
59C
330
23
100
AcDbEntity
  8
SANINDUSA
370
    -2
100
AcDbCircle
 10
1082.373672283253
 20
1464.924163261049
 30
0.0
 40
0.0050040940173372
100
AcDbArc
 50
0.0816918717898928
 51
89.91830812821012
  0
ARC
  5
59D
330
23
100
AcDbEntity
  8
SANINDUSA
370
    -2
100
AcDbCircle
 10
1081.187882580849
 20
1464.92416326105
 30
0.0
 40
0.005004094017337
100
AcDbArc
 50
90.08169187178989
 51
179.9183081282101
  0
LWPOLYLINE
  5
59E
330
23
100
AcDbEntity
  8
SANINDUSA
370
    -2
100
AcDbPolyline
 90
        5
 70
   128
 43
0.0
 10
1082.337126172042
 20
1464.301267722139
 10
1082.337130832773
 20
1464.350791277453
 10
1082.337134869542
 20
1464.400314899672
 10
1082.337140795383
 20
1464.604658752654
 10
1082.337127171443
 20
1464.809003495742
  0
LWPOLYLINE
  5
59F
330
23
100
AcDbEntity
  8
SANINDUSA
370
    -2
100
AcDbPolyline
 90
        4
 70
   128
 43
0.0
 10
1081.224428097965
 20
1464.809003119895
 10
1081.224419172264
 20
1464.710081614938
 10
1081.224414645417
 20
1464.505675122603
 10
1081.22442869321
 20
1464.301267769935
  0
LWPOLYLINE
  5
5A0
330
23
100
AcDbEntity
  8
SANINDUSA
370
    -2
100
AcDbPolyline
 90
       14
 70
   128
 43
0.0
 10
1082.258618529805
 20
1464.846105140938
 10
1082.169412047332
 20
1464.846465883625
 10
1082.08021120871
 20
1464.84689894988
 10
1081.991006497722
 20
1464.847446215231
 10
1081.90181283049
 20
1464.847966745694
 10
1081.851557624569
 20
1464.848227771321
 10
1081.8012969028
 20
1464.848622760108
 10
1081.775699044095
 20
1464.848704051517
 10
1081.750102617797
 20
1464.848513778598
 10
1081.698886554041
 20
1464.84815138957
 10
1081.599930823355
 20
1464.84760364238
 10
1081.500960122129
 20
1464.846998212957
 10
1081.401962520166
 20
1464.846506841699
 10
1081.302957378329
 20
1464.846086437245
  0
LWPOLYLINE
  5
5A1
330
23
100
AcDbEntity
  8
SANINDUSA
370
    -2
100
AcDbPolyline
 90
        5
 70
   128
 43
0.0
 10
1081.265956547229
 20
1464.808995613671
 10
1081.265594990617
 20
1464.596354097046
 10
1081.265599667207
 20
1464.555126058927
 10
1081.265706062588
 20
1464.455080596896
 10
1081.266043514978
 20
1464.301309148391
  0
LWPOLYLINE
  5
5A2
330
23
100
AcDbEntity
  8
SANINDUSA
370
    -2
100
AcDbPolyline
 90
        6
 70
   128
 43
0.0
 10
1082.295512264699
 20
1464.301308357387
 10
1082.295802086033
 20
1464.428215718871
 10
1082.295958542451
 20
1464.555123445672
 10
1082.295931006051
 20
1464.655181834628
 10
1082.295812486268
 20
1464.732091930757
 10
1082.295612089261
 20
1464.809001920624
  0
LWPOLYLINE
  5
5A3
330
23
100
AcDbEntity
  8
SANINDUSA
370
    -2
100
AcDbPolyline
 90
        7
 70
   128
 43
0.0
 10
1081.303105994807
 20
1464.264252638659
 10
1081.481854655229
 20
1464.263727652803
 10
1081.660603561166
 20
1464.26332242996
 10
1081.760641662047
 20
1464.263230980983
 10
1081.960680816053
 20
1464.263437287352
 10
1082.160719447715
 20
1464.263965827021
 10
1082.258450132712
 20
1464.26425158679
  0
LINE
  5
5A5
330
23
100
AcDbEntity
  8
SANINDUSA
370
    -2
100
AcDbLine
 10
1082.375780477916
 20
1464.931268409848
 30
0.0
 11
1081.185774386186
 21
1464.931268409848
 31
0.0
  0
ELLIPSE
  5
5A8
330
23
100
AcDbEntity
  8
SANINDUSA
370
    -2
100
AcDbEllipse
 10
1082.37577438433
 20
1464.926265362126
 30
0.0
 11
-0.0035398427229958
 21
-0.0035398427229958
 31
0.0
210
0.0
220
0.0
230
0.9999999999999996
 40
0.998782765958717
 41
2.356803477777928
 42
3.926381829401614
  0
ELLIPSE
  5
5AA
330
23
100
AcDbEntity
  8
SANINDUSA
370
    -2
100
AcDbEllipse
 10
1081.185780479773
 20
1464.926265362126
 30
0.0
 11
0.003539842722996
 21
-0.0035398427229958
 31
0.0
210
0.0
220
0.0
230
1.0
 40
0.9987827659587368
 41
2.356803477777947
 42
3.926381829401641
  0
LINE
  5
5AC
330
23
100
AcDbEntity
  8
SANINDUSA
370
    -2
100
AcDbLine
 10
1081.180777432051
 20
1464.926271455713
 30
0.0
 11
1081.180777432051
 21
1464.186268409847
 31
0.0
  0
LINE
  5
5AD
330
23
100
AcDbEntity
  8
SANINDUSA
370
    -2
100
AcDbLine
 10
1082.380777432051
 20
1464.186268409847
 30
0.0
 11
1082.380777432051
 21
1464.926271455713
 31
0.0
  0
LINE
  5
5AF
330
23
100
AcDbEntity
  8
SANINDUSA
370
    -2
100
AcDbLine
 10
1082.37577438433
 20
1464.181268409848
 30
0.0
 11
1082.373679353934
 21
1464.181268409848
 31
0.0
  0
ELLIPSE
  5
5B0
330
23
100
AcDbEntity
  8
SANINDUSA
370
    -2
100
AcDbEllipse
 10
1082.37577438433
 20
1464.186268409847
 30
0.0
 11
-0.0050030477214941
 21
0.0
 31
0.0
210
0.0
220
0.0
230
1.0
 40
0.9993908270191061
 41
1.570796326794896
 42
3.141592653589793
  0
LINE
  5
5B1
330
23
100
AcDbEntity
  8
SANINDUSA
370
    -2
100
AcDbLine
 10
1081.187875510168
 20
1464.181268409848
 30
0.0
 11
1081.185780479773
 21
1464.181268409848
 31
0.0
  0
ELLIPSE
  5
5B2
330
23
100
AcDbEntity
  8
SANINDUSA
370
    -2
100
AcDbEllipse
 10
1081.185780479773
 20
1464.186268409847
 30
0.0
 11
0.0050030477214941
 21
0.0
 31
0.0
210
0.0
220
0.0
230
1.0
 40
0.9993908270191061
 41
3.141592653589793
 42
4.712388980384703
  0
CIRCLE
  5
5B4
330
23
100
AcDbEntity
  8
SANINDUSA
370
    -2
100
AcDbCircle
 10
1082.170804924275
 20
1464.34627212116
 30
0.0
 40
0.0398272543478251
  0
CIRCLE
  5
5B6
330
23
100
AcDbEntity
  8
SANINDUSA
370
    -2
100
AcDbCircle
 10
1081.39080771276
 20
1464.346271807878
 30
0.0
 40
0.0398269487959453
  0
CIRCLE
  5
5B8
330
23
100
AcDbEntity
  8
SANINDUSA
370
    -2
100
AcDbCircle
 10
1082.040804723699
 20
1464.346277247532
 30
0.0
 40
0.0398269577740068
  0
CIRCLE
  5
5BA
330
23
100
AcDbEntity
  8
SANINDUSA
370
    -2
100
AcDbCircle
 10
1081.520808180813
 20
1464.346276917907
 30
0.0
 40
0.0398266403434658
  0
CIRCLE
  5
5BC
330
23
100
AcDbEntity
  8
SANINDUSA
370
    -2
100
AcDbCircle
 10
1082.170798877445
 20
1464.481273791621
 30
0.0
 40
0.0398271165761956
  0
CIRCLE
  5
5BE
330
23
100
AcDbEntity
  8
SANINDUSA
370
    -2
100
AcDbCircle
 10
1081.390813329082
 20
1464.481273357359
 30
0.0
 40
0.0398267023091509
  0
CIRCLE
  5
5C0
330
23
100
AcDbEntity
  8
SANINDUSA
370
    -2
100
AcDbCircle
 10
1081.910805406375
 20
1464.346281682058
 30
0.0
 40
0.0398266006902659
  0
CIRCLE
  5
5C2
330
23
100
AcDbEntity
  8
SANINDUSA
370
    -2
100
AcDbCircle
 10
1081.650807664479
 20
1464.346281441547
 30
0.0
 40
0.0398263929348495
  0
CIRCLE
  5
5C4
330
23
100
AcDbEntity
  8
SANINDUSA
370
    -2
100
AcDbCircle
 10
1081.78080658308
 20
1464.346283369942
 30
0.0
 40
0.0398263720501494
  0
CIRCLE
  5
5C6
330
23
100
AcDbEntity
  8
SANINDUSA
370
    -2
100
AcDbCircle
 10
1081.390820172527
 20
1464.61626995688
 30
0.0
 40
0.0398271895593705
  0
CIRCLE
  5
5C8
330
23
100
AcDbEntity
  8
SANINDUSA
370
    -2
100
AcDbCircle
 10
1082.170791510152
 20
1464.616270436931
 30
0.0
 40
0.0398274723409672
  0
CIRCLE
  5
5CE
330
23
100
AcDbEntity
  8
SANINDUSA
370
    -2
100
AcDbCircle
 10
1082.040798252736
 20
1464.481280512689
 30
0.0
 40
0.0398262382468619
  0
CIRCLE
  5
5D0
330
23
100
AcDbEntity
  8
SANINDUSA
370
    -2
100
AcDbCircle
 10
1081.520814234485
 20
1464.481280042304
 30
0.0
 40
0.0398257830030547
  0
CIRCLE
  5
5D9
330
23
100
AcDbEntity
  8
SANINDUSA
370
    -2
100
AcDbCircle
 10
1081.910801150656
 20
1464.481286883581
 30
0.0
 40
0.0398252298113115
  0
CIRCLE
  5
5DB
330
23
100
AcDbEntity
  8
SANINDUSA
370
    -2
100
AcDbCircle
 10
1081.650811921103
 20
1464.481286560091
 30
0.0
 40
0.0398249454765641
  0
CIRCLE
  5
5DD
330
23
100
AcDbEntity
  8
SANINDUSA
370
    -2
100
AcDbCircle
 10
1082.040788779639
 20
1464.616276313047
 30
0.0
 40
0.0398256248622155
  0
CIRCLE
  5
5DF
330
23
100
AcDbEntity
  8
SANINDUSA
370
    -2
100
AcDbCircle
 10
1081.520822849054
 20
1464.616275659295
 30
0.0
 40
0.0398250894242401
  0
CIRCLE
  5
5E3
330
23
100
AcDbEntity
  8
SANINDUSA
370
    -2
100
AcDbCircle
 10
1081.780806701181
 20
1464.481289496522
 30
0.0
 40
0.0398246678528595
  0
LWPOLYLINE
  5
5E9
330
23
100
AcDbEntity
  8
SANINDUSA
370
    -2
100
AcDbPolyline
 90
       56
 70
   128
 43
0.0
 10
1081.780777432051
 20
1464.695268510627
 10
1081.789935845972
 20
1464.695910348821
 10
1081.798917737663
 20
1464.697811408439
 10
1081.805911677553
 20
1464.700249615237
 10
1081.812611108352
 20
1464.703463371779
 10
1081.818889904763
 20
1464.707392306464
 10
1081.82468013207
 20
1464.712007328112
 10
1081.829935757298
 20
1464.717256515688
 10
1081.834557734125
 20
1464.723041165385
 10
1081.838490994514
 20
1464.729310371737
 10
1081.841709970875
 20
1464.736000801815
 10
1081.844153792151
 20
1464.742986550329
 10
1081.845786923503
 20
1464.750199364929
 10
1081.846606761867
 20
1464.757572931472
 10
1081.846597234374
 20
1464.764968231486
 10
1081.845747908595
 20
1464.772304171249
 10
1081.844078223544
 20
1464.7795221259
 10
1081.841618749476
 20
1464.786485324661
 10
1081.838390903208
 20
1464.793104711136
 10
1081.834429405926
 20
1464.799340903695
 10
1081.829808506398
 20
1464.80507500956
 10
1081.824586714146
 20
1464.810222656408
 10
1081.818803710357
 20
1464.814768769842
 10
1081.812569040676
 20
1464.818628188234
 10
1081.805950873096
 20
1464.82175075676
 10
1081.799006666102
 20
1464.824131312775
 10
1081.791865283928
 20
1464.825732973012
 10
1081.784483296776
 20
1464.826544051714
 10
1081.777034071064
 20
1464.826541962274
 10
1081.769652556696
 20
1464.825726673344
 10
1081.762268527064
 20
1464.824050677202
 10
1081.755098475351
 20
1464.821541600171
 10
1081.748284858366
 20
1464.818241406193
 10
1081.742015467266
 20
1464.814246174491
 10
1081.736219905857
 20
1464.809551213134
 10
1081.731010904133
 20
1464.804247154402
 10
1081.72651324854
 20
1464.798472034091
 10
1081.722675021582
 20
1464.792211747284
 10
1081.719567258579
 20
1464.785584139652
 10
1081.717225412146
 20
1464.778635860035
 10
1081.715665596284
 20
1464.771447584313
 10
1081.7149159282
 20
1464.764153551906
 10
1081.714996003968
 20
1464.756790747233
 10
1081.715897871302
 20
1464.749459388948
 10
1081.717604097359
 20
1464.742296479605
 10
1081.720117567616
 20
1464.735352936863
 10
1081.72339953845
 20
1464.728711660472
 10
1081.727388237029
 20
1464.722497070787
 10
1081.732062412118
 20
1464.716766560243
 10
1081.737363233331
 20
1464.711576483936
 10
1081.743191061455
 20
1464.707024189494
 10
1081.749502391296
 20
1464.703159404141
 10
1081.756226745113
 20
1464.700012637644
 10
1081.763237739134
 20
1464.6976429014
 10
1081.771927953895
 20
1464.695867480851
 10
1081.780777432051
 20
1464.695268510627
  0
CIRCLE
  5
5EE
330
23
100
AcDbEntity
  8
SANINDUSA
370
    -2
100
AcDbCircle
 10
1081.910793856804
 20
1464.616284366528
 30
0.0
 40
0.0398229139833315
  0
CIRCLE
  5
5F0
330
23
100
AcDbEntity
  8
SANINDUSA
370
    -2
100
AcDbCircle
 10
1081.650818757532
 20
1464.61628388607
 30
0.0
 40
0.039822430316375
  0
CIRCLE
  5
5F2
330
23
100
AcDbEntity
  8
SANINDUSA
370
    -2
100
AcDbCircle
 10
1081.780806635334
 20
1464.616288394789
 30
0.0
 40
0.0398211325128436
  0
CIRCLE
  5
5F3
330
23
100
AcDbEntity
  8
SANINDUSA
370
    -2
100
AcDbCircle
 10
1081.780777432051
 20
1464.761268409847
 30
0.0
 40
0.045
  0
ARC
  5
5F4
330
23
100
AcDbEntity
  8
SANINDUSA
370
    -2
100
AcDbCircle
 10
1085.447916430648
 20
1464.529297478824
 30
0.0
 40
0.0029731653316745
100
AcDbArc
 50
277.8712124766347
 51
342.2352878772472
  0
ARC
  5
5F5
330
23
100
AcDbEntity
  8
SANINDUSA
370
    -2
100
AcDbCircle
 10
1085.312991041617
 20
1464.526323916623
 30
0.0
 40
0.0028391389652886
100
AcDbArc
 50
280.6207511847272
 51
343.8259170106236
  0
LWPOLYLINE
  5
5F6
330
23
100
AcDbEntity
  8
SANINDUSA
370
    -2
100
AcDbPolyline
 90
       11
 70
   128
 43
0.0
 10
1085.396865820583
 20
1464.525365504242
 10
1085.39736498815
 20
1464.525360677571
 10
1085.397734713063
 20
1464.525351829195
 10
1085.397812416178
 20
1464.525348329035
 10
1085.397756577039
 20
1464.525353528257
 10
1085.397575754969
 20
1464.525380146433
 10
1085.39731249536
 20
1464.525441359731
 10
1085.396944737335
 20
1464.525572079078
 10
1085.396387601523
 20
1464.52588737157
 10
1085.3958669104
 20
1464.52636321301
 10
1085.395641820177
 20
1464.526711745682
  0
ARC
  5
5F7
330
23
100
AcDbEntity
  8
SANINDUSA
370
    -2
100
AcDbCircle
 10
1085.178079915494
 20
1464.523667646036
 30
0.0
 40
0.002758451918958
100
AcDbArc
 50
285.0601208244735
 51
343.6751328580174
  0
LWPOLYLINE
  5
5F8
330
23
100
AcDbEntity
  8
SANINDUSA
370
    -2
100
AcDbPolyline
 90
        9
 70
   128
 43
0.0
 10
1085.262538332452
 20
1464.522451223458
 10
1085.262547170474
 20
1464.522450350265
 10
1085.262452509152
 20
1464.522467003092
 10
1085.262265628537
 20
1464.522512891461
 10
1085.261956733889
 20
1464.522621615299
 10
1085.261527669462
 20
1464.52284500641
 10
1085.261005446339
 20
1464.523263896036
 10
1085.260521304919
 20
1464.523905229749
 10
1085.260332374311
 20
1464.524403616143
  0
ARC
  5
5F9
330
23
100
AcDbEntity
  8
SANINDUSA
370
    -2
100
AcDbCircle
 10
1085.184039843349
 20
1464.521506591021
 30
0.0
 40
0.0035815696942777
100
AcDbArc
 50
87.02756699306592
 51
157.106618798671
  0
ARC
  5
5FA
330
23
100
AcDbEntity
  8
SANINDUSA
370
    -2
100
AcDbCircle
 10
1085.257401479156
 20
1464.523168573419
 30
0.0
 40
0.0031419319621901
100
AcDbArc
 50
21.26867901796412
 51
90.07093674524279
  0
ARC
  5
5FB
330
23
100
AcDbEntity
  8
SANINDUSA
370
    -2
100
AcDbCircle
 10
1085.45354213323
 20
1464.527466268443
 30
0.0
 40
0.0029588473129614
100
AcDbArc
 50
95.91817530200895
 51
161.9276149605276
  0
ARC
  5
5FC
330
23
100
AcDbEntity
  8
SANINDUSA
370
    -2
100
AcDbCircle
 10
1085.318499518242
 20
1464.524721193193
 30
0.0
 40
0.0028774731671871
100
AcDbArc
 50
93.47128502289606
 51
163.6752091359495
  0
ARC
  5
5FD
330
23
100
AcDbEntity
  8
SANINDUSA
370
    -2
100
AcDbCircle
 10
1085.39252236222
 20
1464.526215557478
 30
0.0
 40
0.0030026726118457
100
AcDbArc
 50
20.50266989256906
 51
89.20302030818374
  0
ARC
  5
5FE
330
23
100
AcDbEntity
  8
SANINDUSA
370
    -2
100
AcDbCircle
 10
1085.447977988517
 20
1464.529988978976
 30
0.0
 40
0.0028651345614221
100
AcDbArc
 50
278.2003123475984
 51
343.289726531241
  0
ARC
  5
5FF
330
23
100
AcDbEntity
  8
SANINDUSA
370
    -2
100
AcDbCircle
 10
1085.533136584406
 20
1464.531048653993
 30
0.0
 40
0.0029423585336871
100
AcDbArc
 50
199.3719880714017
 51
266.161790831646
  0
ARC
  5
600
330
23
100
AcDbEntity
  8
SANINDUSA
370
    -2
100
AcDbCircle
 10
1085.313030636325
 20
1464.528108687737
 30
0.0
 40
0.002815613470687
100
AcDbArc
 50
282.3486495320763
 51
343.4951168260392
  0
LWPOLYLINE
  5
601
330
23
100
AcDbEntity
  8
SANINDUSA
370
    -2
100
AcDbPolyline
 90
        9
 70
   128
 43
0.0
 10
1085.397690543774
 20
1464.526480419536
 10
1085.397695173571
 20
1464.526480069872
 10
1085.397620650647
 20
1464.526490038415
 10
1085.397439168003
 20
1464.526525444933
 10
1085.397172171708
 20
1464.526601762653
 10
1085.396778179327
 20
1464.526768565847
 10
1085.396243295017
 20
1464.527119856339
 10
1085.395726239364
 20
1464.527668727445
 10
1085.395345482281
 20
1464.528390786544
  0
LWPOLYLINE
  5
602
330
23
100
AcDbEntity
  8
SANINDUSA
370
    -2
100
AcDbPolyline
 90
        9
 70
   128
 43
0.0
 10
1085.180732227729
 20
1464.526045755673
 10
1085.180582509178
 20
1464.525621617544
 10
1085.180176251524
 20
1464.525034927231
 10
1085.179751540771
 20
1464.524643526227
 10
1085.179385939593
 20
1464.524410037116
 10
1085.179109176882
 20
1464.524281997234
 10
1085.178927950618
 20
1464.524219631467
 10
1085.178854562891
 20
1464.524200268737
 10
1085.178857888652
 20
1464.524200857451
  0
LWPOLYLINE
  5
603
330
23
100
AcDbEntity
  8
SANINDUSA
370
    -2
100
AcDbPolyline
 90
        9
 70
   128
 43
0.0
 10
1085.26240082979
 20
1464.524775783378
 10
1085.262410577806
 20
1464.524774507248
 10
1085.262307888254
 20
1464.524797501269
 10
1085.26209790973
 20
1464.524861740592
 10
1085.261765605588
 20
1464.525005248067
 10
1085.261318522958
 20
1464.525288348384
 10
1085.260817599777
 20
1464.525778594594
 10
1085.260390311171
 20
1464.52649732113
 10
1085.260312962101
 20
1464.526809365533
  0
ARC
  5
604
330
23
100
AcDbEntity
  8
SANINDUSA
370
    -2
100
AcDbCircle
 10
1085.453554361267
 20
1464.528228502024
 30
0.0
 40
0.0029601177046117
100
AcDbArc
 50
95.03886664522958
 51
161.7172684365732
  0
ARC
  5
605
330
23
100
AcDbEntity
  8
SANINDUSA
370
    -2
100
AcDbCircle
 10
1085.527568745686
 20
1464.529099536357
 30
0.0
 40
0.0029463378105255
100
AcDbArc
 50
19.46917313097375
 51
86.30930841723801
  0
ARC
  5
606
330
23
100
AcDbEntity
  8
SANINDUSA
370
    -2
100
AcDbCircle
 10
1085.184075021766
 20
1464.52465500904
 30
0.0
 40
0.003590236975803
100
AcDbArc
 50
85.42748377444171
 51
157.3556737650323
  0
ARC
  5
607
330
23
100
AcDbEntity
  8
SANINDUSA
370
    -2
100
AcDbCircle
 10
1085.257324219266
 20
1464.525439042456
 30
0.0
 40
0.0032369325550982
100
AcDbArc
 50
21.3595750613317
 51
88.5108014332175
  0
ARC
  5
608
330
23
100
AcDbEntity
  8
SANINDUSA
370
    -2
100
AcDbCircle
 10
1085.318825397231
 20
1464.526085650814
 30
0.0
 40
0.0033284144198798
100
AcDbArc
 50
88.84094563182184
 51
158.6039904949555
  0
ARC
  5
609
330
23
100
AcDbEntity
  8
SANINDUSA
370
    -2
100
AcDbCircle
 10
1085.392462031331
 20
1464.527314473985
 30
0.0
 40
0.0030700252262381
100
AcDbArc
 50
20.45307224106088
 51
89.25302882732562
  0
ARC
  5
60A
330
23
100
AcDbEntity
  8
SANINDUSA
370
    -2
100
AcDbCircle
 10
1085.447975101926
 20
1464.530923179111
 30
0.0
 40
0.0029027011679351
100
AcDbArc
 50
277.6629251523363
 51
342.259799474749
  0
ARC
  5
60B
330
23
100
AcDbEntity
  8
SANINDUSA
370
    -2
100
AcDbCircle
 10
1085.533157996437
 20
1464.531480268657
 30
0.0
 40
0.0029783807114816
100
AcDbArc
 50
200.0317831585167
 51
266.0724020213748
  0
LWPOLYLINE
  5
60C
330
23
100
AcDbEntity
  8
SANINDUSA
370
    -2
100
AcDbPolyline
 90
       10
 70
   128
 43
0.0
 10
1085.315734640214
 20
1464.529189983174
 10
1085.315680975429
 20
1464.528980772809
 10
1085.315293729698
 20
1464.528322951605
 10
1085.314840584946
 20
1464.527855276932
 10
1085.314404877185
 20
1464.527555783638
 10
1085.314053661859
 20
1464.527388012686
 10
1085.313810357664
 20
1464.527304096194
 10
1085.313633203755
 20
1464.527259070419
 10
1085.313544814658
 20
1464.527242456431
 10
1085.313552972898
 20
1464.527243388506
  0
LWPOLYLINE
  5
60E
330
23
100
AcDbEntity
  8
SANINDUSA
370
    -2
100
AcDbPolyline
 90
       10
 70
   128
 43
0.0
 10
1085.397722210446
 20
1464.527722232833
 10
1085.397724364312
 20
1464.527722071722
 10
1085.397655201422
 20
1464.527731061393
 10
1085.397474881517
 20
1464.527765213341
 10
1085.397221039689
 20
1464.527835393738
 10
1085.396843713978
 20
1464.527988533316
 10
1085.396309300831
 20
1464.528324356945
 10
1085.39579076714
 20
1464.52884846244
 10
1085.395373762771
 20
1464.529586052581
 10
1085.395362760785
 20
1464.529635277971
  0
ARC
  5
60F
330
23
100
AcDbEntity
  8
SANINDUSA
370
    -2
100
AcDbCircle
 10
1085.178080540665
 20
1464.529707037041
 30
0.0
 40
0.0027880816958923
100
AcDbArc
 50
282.2281487781065
 51
342.6754110822711
  0
LWPOLYLINE
  5
610
330
23
100
AcDbEntity
  8
SANINDUSA
370
    -2
100
AcDbPolyline
 90
        9
 70
   128
 43
0.0
 10
1085.262501796009
 20
1464.527052013742
 10
1085.262510479371
 20
1464.527051000376
 10
1085.262412629604
 20
1464.527070622622
 10
1085.262218053396
 20
1464.527123962021
 10
1085.261901572813
 20
1464.527246492511
 10
1085.26146763681
 20
1464.527492602343
 10
1085.26095534295
 20
1464.527938645989
 10
1085.260493610973
 20
1464.528609847984
 10
1085.260350228796
 20
1464.529049552683
  0
ARC
  5
611
330
23
100
AcDbEntity
  8
SANINDUSA
370
    -2
100
AcDbCircle
 10
1085.318628647145
 20
1464.528143594942
 30
0.0
 40
0.0030782962275543
100
AcDbArc
 50
95.36226948666616
 51
159.8485787757979
  0
ARC
  5
612
330
23
100
AcDbEntity
  8
SANINDUSA
370
    -2
100
AcDbCircle
 10
1085.392476250808
 20
1464.528617767056
 30
0.0
 40
0.0030491779248653
100
AcDbArc
 50
19.83324632593891
 51
88.63814312553474
  0
ARC
  5
613
330
23
100
AcDbEntity
  8
SANINDUSA
370
    -2
100
AcDbCircle
 10
1085.183873735045
 20
1464.527635269529
 30
0.0
 40
0.0033453660031822
100
AcDbArc
 50
86.20666102111744
 51
158.2405436480751
  0
ARC
  5
614
330
23
100
AcDbEntity
  8
SANINDUSA
370
    -2
100
AcDbCircle
 10
1085.257374935177
 20
1464.527818424613
 30
0.0
 40
0.0031816761101585
100
AcDbArc
 50
20.6854375538567
 51
88.68133800878901
  0
ARC
  5
615
330
23
100
AcDbEntity
  8
SANINDUSA
370
    -2
100
AcDbCircle
 10
1085.453501095966
 20
1464.529166914689
 30
0.0
 40
0.002878690436004
100
AcDbArc
 50
93.87914306520604
 51
162.3248529983258
  0
ARC
  5
616
330
23
100
AcDbEntity
  8
SANINDUSA
370
    -2
100
AcDbCircle
 10
1085.527578230437
 20
1464.529546329844
 30
0.0
 40
0.0029245668808919
100
AcDbArc
 50
18.69025081265856
 51
85.83516038486937
  0
LWPOLYLINE
  5
618
330
23
100
AcDbEntity
  8
SANINDUSA
370
    -2
100
AcDbPolyline
 90
        2
 70
   128
 43
0.0
 10
1085.533424047588
 20
1464.515618810814
 10
1085.573764999652
 20
1464.516237703865
  0
ARC
  5
619
330
23
100
AcDbEntity
  8
SANINDUSA
370
    -2
100
AcDbCircle
 10
1085.147412293361
 20
1464.491727533129
 30
0.0
 40
0.0150000000000087
100
AcDbArc
 50
90.97114261798889
 51
172.1141995624361
  0
ARC
  5
61C
330
23
100
AcDbEntity
  8
SANINDUSA
370
    -2
100
AcDbCircle
 10
1085.003728934138
 20
1464.491502266237
 30
0.0
 40
0.0150000000000249
100
AcDbArc
 50
8.755418614173995
 51
83.17439601792754
  0
LWPOLYLINE
  5
61D
330
23
100
AcDbEntity
  8
SANINDUSA
370
    -2
100
AcDbPolyline
 90
       37
 70
   128
 43
0.0
 10
1085.141554040148
 20
1464.5186340384
 10
1085.140927632804
 20
1464.518633902353
 10
1085.139011142336
 20
1464.518633375416
 10
1085.137292460052
 20
1464.518632842326
 10
1085.135134054696
 20
1464.51863210482
 10
1085.132500837351
 20
1464.51863111267
 10
1085.129430244311
 20
1464.518629839053
 10
1085.126092244763
 20
1464.51862832291
 10
1085.122381040401
 20
1464.518626484221
 10
1085.118253021469
 20
1464.518624251671
 10
1085.11378138539
 20
1464.518621604912
 10
1085.109202144061
 20
1464.518618634848
 10
1085.104358330526
 20
1464.51861518572
 10
1085.09920271347
 20
1464.518611135739
 10
1085.093836000446
 20
1464.518606460571
 10
1085.088534649864
 20
1464.518601324191
 10
1085.083107203133
 20
1464.518595449615
 10
1085.077508121157
 20
1464.518588607524
 10
1085.071854319289
 20
1464.518580687573
 10
1085.066434070584
 20
1464.518571911739
 10
1085.06104043584
 20
1464.518561811309
 10
1085.055634771346
 20
1464.5185499619
 10
1085.050337226115
 20
1464.518536181438
 10
1085.045418462727
 20
1464.518520903179
 10
1085.040675912203
 20
1464.518503256053
 10
1085.036082383452
 20
1464.518482643291
 10
1085.031747541215
 20
1464.518459067359
 10
1085.027891019642
 20
1464.518433715045
 10
1085.024338865323
 20
1464.518405555343
 10
1085.021078281708
 20
1464.518374207107
 10
1085.018194362542
 20
1464.518340631224
 10
1085.015815251595
 20
1464.51830757887
 10
1085.013830022017
 20
1464.518275329801
 10
1085.012238777148
 20
1464.518245705827
 10
1085.011089577764
 20
1464.518221801493
 10
1085.010403706192
 20
1464.51820636289
 10
1085.01017276585
 20
1464.518200943133
  0
LINE
  5
61E
330
23
100
AcDbEntity
  8
SANINDUSA
370
    -2
100
AcDbLine
 10
1085.141554040148
 20
1464.5186340384
 30
0.0
 11
1085.120554140928
 21
1464.503929750665
 31
0.0
  0
LINE
  5
61F
330
23
100
AcDbEntity
  8
SANINDUSA
370
    -2
100
AcDbLine
 10
1085.030554140928
 20
1464.503929750665
 30
0.0
 11
1085.120554140928
 21
1464.503929750665
 31
0.0
  0
LINE
  5
620
330
23
100
AcDbEntity
  8
SANINDUSA
370
    -2
100
AcDbLine
 10
1085.030554140928
 20
1464.503929750665
 30
0.0
 11
1085.01017276585
 21
1464.518200943133
 31
0.0
  0
LINE
  5
625
330
23
100
AcDbEntity
  8
SANINDUSA
370
    -2
100
AcDbLine
 10
1084.944615658594
 20
1464.552204663229
 30
0.0
 11
1084.912825323538
 21
1464.553418835661
 31
0.0
  0
LINE
  5
626
330
23
100
AcDbEntity
  8
SANINDUSA
370
    -2
100
AcDbLine
 10
1084.940634684083
 20
1464.542349418192
 30
0.0
 11
1084.918464178013
 21
1464.543196179235
 31
0.0
  0
ARC
  5
627
330
23
100
AcDbEntity
  8
SANINDUSA
370
    -2
100
AcDbCircle
 10
1084.918426012708
 20
1464.542196907796
 30
0.0
 40
0.001
100
AcDbArc
 50
87.81275788761965
 51
177.9999999962464
  0
LWPOLYLINE
  5
628
330
23
100
AcDbEntity
  8
SANINDUSA
370
    -2
100
AcDbPolyline
 90
        5
 70
   128
 43
0.0
 10
1085.650549750611
 20
1464.553779337092
 10
1085.485253214906
 20
1464.553659368133
 10
1085.292681183854
 20
1464.553603431536
 10
1085.100109166339
 20
1464.553646795734
 10
1084.912656520121
 20
1464.553777500337
  0
LINE
  5
62A
330
23
100
AcDbEntity
  8
SANINDUSA
370
    -2
100
AcDbLine
 10
1085.650367999031
 20
1464.553500804015
 30
0.0
 11
1085.618144018515
 21
1464.552266031523
 31
0.0
  0
LINE
  5
62B
330
23
100
AcDbEntity
  8
SANINDUSA
370
    -2
100
AcDbLine
 10
1085.644515850594
 20
1464.543269220028
 30
0.0
 11
1085.621460395872
 21
1464.542385771093
 31
0.0
  0
ARC
  5
62C
330
23
100
AcDbEntity
  8
SANINDUSA
370
    -2
100
AcDbCircle
 10
1085.644554140928
 20
1464.542269953372
 30
0.0
 40
0.001
100
AcDbArc
 50
0.0
 51
92.19441098173337
  0
LINE
  5
630
330
23
100
AcDbEntity
  8
SANINDUSA
370
    -2
100
AcDbLine
 10
1085.533226364361
 20
1464.527617182426
 30
0.0
 11
1085.573594364404
 21
1464.528236490622
 31
0.0
  0
LINE
  5
631
330
23
100
AcDbEntity
  8
SANINDUSA
370
    -2
100
AcDbLine
 10
1085.398233008937
 20
1464.5248765371
 30
0.0
 11
1085.447920218733
 21
1464.526002969685
 31
0.0
  0
LINE
  5
632
330
23
100
AcDbEntity
  8
SANINDUSA
370
    -2
100
AcDbLine
 10
1085.263235534324
 20
1464.521378521708
 30
0.0
 11
1085.312925931081
 21
1464.522700902704
 31
0.0
  0
LINE
  5
633
330
23
100
AcDbEntity
  8
SANINDUSA
370
    -2
100
AcDbLine
 10
1085.141554040148
 20
1464.5186340384
 30
0.0
 11
1085.177918688797
 21
1464.519309303332
 31
0.0
  0
LWPOLYLINE
  5
634
330
23
100
AcDbEntity
  8
SANINDUSA
370
    -2
100
AcDbPolyline
 90
        3
 70
   128
 43
0.0
 10
1084.988072350566
 20
1464.520097412273
 10
1084.999090294094
 20
1464.518905133144
 10
1085.01017276585
 20
1464.518200943133
  0
ARC
  5
636
330
23
100
AcDbEntity
  8
SANINDUSA
370
    -2
100
AcDbCircle
 10
1085.261617077555
 20
1464.52791795924
 30
0.0
 40
0.005778542217125
100
AcDbArc
 50
265.9130405040174
 51
286.218560143102
  0
LWPOLYLINE
  5
637
330
23
100
AcDbEntity
  8
SANINDUSA
370
    -2
100
AcDbPolyline
 90
        5
 70
   128
 43
0.0
 10
1085.180280247039
 20
1464.520592998444
 10
1085.179400599651
 20
1464.520627162124
 10
1085.178149658303
 20
1464.520743563339
 10
1085.177937631589
 20
1464.520866332196
 10
1085.178121578936
 20
1464.520905487966
  0
LWPOLYLINE
  5
638
330
23
100
AcDbEntity
  8
SANINDUSA
370
    -2
100
AcDbPolyline
 90
        3
 70
   128
 43
0.0
 10
1085.262456784887
 20
1464.522466250904
 10
1085.262690337267
 20
1464.522456425169
 10
1085.263231036905
 20
1464.522369384164
  0
LWPOLYLINE
  5
63D
330
23
100
AcDbEntity
  8
SANINDUSA
370
    -2
100
AcDbPolyline
 90
        3
 70
   128
 43
0.0
 10
1085.449087830953
 20
1464.526297168182
 10
1085.448153930201
 20
1464.526301123834
 10
1085.448077222043
 20
1464.526309794683
  0
LWPOLYLINE
  5
63F
330
23
100
AcDbEntity
  8
SANINDUSA
370
    -2
100
AcDbPolyline
 90
        3
 70
   128
 43
0.0
 10
1085.533209859632
 20
1464.528099049499
 10
1085.532440530132
 20
1464.528068917715
 10
1085.531861726868
 20
1464.528056328293
  0
ARC
  5
640
330
23
100
AcDbEntity
  8
SANINDUSA
370
    -2
100
AcDbCircle
 10
1085.449443772293
 20
1464.547474503042
 30
0.0
 40
0.0204310861594057
100
AcDbArc
 50
266.2363797684556
 51
271.1071871931226
  0
LWPOLYLINE
  5
642
330
23
100
AcDbEntity
  8
SANINDUSA
370
    -2
100
AcDbPolyline
 90
        3
 70
   128
 43
0.0
 10
1085.397759744324
 20
1464.526374241589
 10
1085.397446443181
 20
1464.526341360888
 10
1085.395970518536
 20
1464.526268529151
  0
LWPOLYLINE
  5
644
330
23
100
AcDbEntity
  8
SANINDUSA
370
    -2
100
AcDbPolyline
 90
        3
 70
   128
 43
0.0
 10
1085.315522088832
 20
1464.525064644786
 10
1085.314381353855
 20
1464.525096846468
 10
1085.313838104123
 20
1464.525133758844
  0
LWPOLYLINE
  5
645
330
23
100
AcDbEntity
  8
SANINDUSA
370
    -2
100
AcDbPolyline
 90
        3
 70
   128
 43
0.0
 10
1085.313282916267
 20
1464.525324069407
 10
1085.313595659324
 20
1464.525372548043
 10
1085.313798836256
 20
1464.525387209707
  0
ARC
  5
646
330
23
100
AcDbEntity
  8
SANINDUSA
370
    -2
100
AcDbCircle
 10
1085.259592951802
 20
1464.546894360717
 30
0.0
 40
0.0225868344574069
100
AcDbArc
 50
271.8589243516217
 51
277.4692341264068
  0
LWPOLYLINE
  5
647
330
23
100
AcDbEntity
  8
SANINDUSA
370
    -2
100
AcDbPolyline
 90
        3
 70
   128
 43
0.0
 10
1085.18109769132
 20
1464.523621586347
 10
1085.179377016269
 20
1464.523734991716
 10
1085.17926656022
 20
1464.523749363722
  0
ARC
  5
648
330
23
100
AcDbEntity
  8
SANINDUSA
370
    -2
100
AcDbCircle
 10
1085.259750482078
 20
1464.5531263679
 30
0.0
 40
0.0264342557989008
100
AcDbArc
 50
271.2114139240271
 51
276.158996815326
  0
LWPOLYLINE
  5
649
330
23
100
AcDbEntity
  8
SANINDUSA
370
    -2
100
AcDbPolyline
 90
        3
 70
   128
 43
0.0
 10
1085.181000061136
 20
1464.526571515655
 10
1085.179370547458
 20
1464.526658830191
 10
1085.178958234922
 20
1464.526699713815
  0
LWPOLYLINE
  5
64B
330
23
100
AcDbEntity
  8
SANINDUSA
370
    -2
100
AcDbPolyline
 90
        3
 70
   128
 43
0.0
 10
1085.397782523012
 20
1464.527630282378
 10
1085.397440503014
 20
1464.527599480408
 10
1085.395850861078
 20
1464.527536437512
  0
LWPOLYLINE
  5
64C
330
23
100
AcDbEntity
  8
SANINDUSA
370
    -2
100
AcDbPolyline
 90
        3
 70
   128
 43
0.0
 10
1085.315598881552
 20
1464.526979385517
 10
1085.314373824984
 20
1464.527018708098
 10
1085.313140141845
 20
1464.527100218075
  0
ARC
  5
64F
330
23
100
AcDbEntity
  8
SANINDUSA
370
    -2
100
AcDbCircle
 10
1085.531903343242
 20
1464.553038344401
 30
0.0
 40
0.0245766192433641
100
AcDbArc
 50
269.7045432046331
 51
273.0379328875768
  0
ARC
  5
650
330
23
100
AcDbEntity
  8
SANINDUSA
370
    -2
100
AcDbCircle
 10
1085.449646308132
 20
1464.5512881319
 30
0.0
 40
0.0233507414061807
100
AcDbArc
 50
266.1756392447944
 51
270.7578102489216
  0
ARC
  5
653
330
23
100
AcDbEntity
  8
SANINDUSA
370
    -2
100
AcDbCircle
 10
1085.398161281887
 20
1464.527875679516
 30
0.0
 40
0.0029999999999577
100
AcDbArc
 50
200.848702147793
 51
271.3700163035032
  0
ARC
  5
654
330
23
100
AcDbEntity
  8
SANINDUSA
370
    -2
100
AcDbCircle
 10
1085.398161281887
 20
1464.527875679516
 30
0.0
 40
0.0149999999999577
100
AcDbArc
 50
228.5820258377374
 51
271.3700163035032
  0
ARC
  5
655
330
23
100
AcDbEntity
  8
SANINDUSA
370
    -2
100
AcDbCircle
 10
1085.312846187413
 20
1464.525699842676
 30
0.0
 40
0.0030000000005585
100
AcDbArc
 50
271.5231712569202
 51
342.0499560059149
  0
ARC
  5
656
330
23
100
AcDbEntity
  8
SANINDUSA
370
    -2
100
AcDbCircle
 10
1085.312846187413
 20
1464.525699842676
 30
0.0
 40
0.0150000000005585
100
AcDbArc
 50
271.5231712569202
 51
314.3285533538112
  0
ARC
  5
657
330
23
100
AcDbEntity
  8
SANINDUSA
370
    -2
100
AcDbCircle
 10
1085.263156414768
 20
1464.524377478209
 30
0.0
 40
0.0030000000000205
100
AcDbArc
 50
200.9789048962251
 51
271.511247439762
  0
ARC
  5
658
330
23
100
AcDbEntity
  8
SANINDUSA
370
    -2
100
AcDbCircle
 10
1085.263156414768
 20
1464.524377478209
 30
0.0
 40
0.0150000000000205
100
AcDbArc
 50
228.6237565831612
 51
271.511247439762
  0
ARC
  5
659
330
23
100
AcDbEntity
  8
SANINDUSA
370
    -2
100
AcDbCircle
 10
1085.177856383542
 20
1464.522308656271
 30
0.0
 40
0.0030000000000065
100
AcDbArc
 50
271.1900282664672
 51
341.7366679379071
  0
ARC
  5
65A
330
23
100
AcDbEntity
  8
SANINDUSA
370
    -2
100
AcDbCircle
 10
1085.177856383542
 20
1464.522308656271
 30
0.0
 40
0.0150000000000065
100
AcDbArc
 50
271.1900282664672
 51
314.1241555250329
  0
ARC
  5
65B
330
23
100
AcDbEntity
  8
SANINDUSA
370
    -2
100
AcDbCircle
 10
1085.533176943554
 20
1464.530616775329
 30
0.0
 40
0.002999999999989
100
AcDbArc
 50
200.4243491581424
 51
270.9439105798029
  0
ARC
  5
65C
330
23
100
AcDbEntity
  8
SANINDUSA
370
    -2
100
AcDbCircle
 10
1085.533176943554
 20
1464.530616775329
 30
0.0
 40
0.0149999999999891
100
AcDbArc
 50
228.1780858806606
 51
270.9439105798029
  0
ARC
  5
65D
330
23
100
AcDbEntity
  8
SANINDUSA
370
    -2
100
AcDbCircle
 10
1085.447856175546
 20
1464.529002286019
 30
0.0
 40
0.0030000000002992
100
AcDbArc
 50
271.2232276945663
 51
341.743006958699
  0
ARC
  5
65E
330
23
100
AcDbEntity
  8
SANINDUSA
370
    -2
100
AcDbCircle
 10
1085.447856175546
 20
1464.529002286019
 30
0.0
 40
0.0150000000002992
100
AcDbArc
 50
271.2232276945663
 51
313.9896577023081
  0
ARC
  5
65F
330
23
100
AcDbEntity
  8
SANINDUSA
370
    -2
100
AcDbCircle
 10
1085.392554140927
 20
1464.525740270828
 30
0.0
 40
0.0030000000002169
100
AcDbArc
 50
20.84870215996755
 51
91.38486710589484
  0
ARC
  5
661
330
23
100
AcDbEntity
  8
SANINDUSA
370
    -2
100
AcDbCircle
 10
1085.318554140929
 20
1464.523850716752
 30
0.0
 40
0.0030000000007835
100
AcDbArc
 50
91.51900370779229
 51
162.0499560059148
  0
ARC
  5
662
330
23
100
AcDbEntity
  8
SANINDUSA
370
    -2
100
AcDbCircle
 10
1085.257554140927
 20
1464.522229333006
 30
0.0
 40
0.0030000000002084
100
AcDbArc
 50
20.97890489622513
 51
91.50385195260273
  0
ARC
  5
664
330
23
100
AcDbEntity
  8
SANINDUSA
370
    -2
100
AcDbCircle
 10
1085.183554140928
 20
1464.520428347579
 30
0.0
 40
0.0030000000000865
100
AcDbArc
 50
91.2254595893726
 51
161.736667937907
  0
ARC
  5
665
330
23
100
AcDbEntity
  8
SANINDUSA
370
    -2
100
AcDbCircle
 10
1085.527554140928
 20
1464.528522953316
 30
0.0
 40
0.0030000000000522
100
AcDbArc
 50
20.42434916268866
 51
90.96235922123126
  0
ARC
  5
667
330
23
100
AcDbEntity
  8
SANINDUSA
370
    -2
100
AcDbCircle
 10
1085.453554140928
 20
1464.52712260772
 30
0.0
 40
0.0030000000003537
100
AcDbArc
 50
91.20519601499246
 51
161.743006958699
  0
LINE
  5
668
330
23
100
AcDbEntity
  8
SANINDUSA
370
    -2
100
AcDbLine
 10
1085.318474615397
 20
1464.526849662515
 30
0.0
 11
1085.392481636515
 21
1464.528739394552
 31
0.0
  0
LINE
  5
669
330
23
100
AcDbEntity
  8
SANINDUSA
370
    -2
100
AcDbLine
 10
1085.323327765377
 20
1464.514969673832
 30
0.0
 11
1085.388238074654
 21
1464.51662712591
 31
0.0
  0
LINE
  5
66A
330
23
100
AcDbEntity
  8
SANINDUSA
370
    -2
100
AcDbLine
 10
1085.453491041666
 20
1464.530121944061
 30
0.0
 11
1085.527503754286
 21
1464.531522530151
 31
0.0
  0
LINE
  5
66B
330
23
100
AcDbEntity
  8
SANINDUSA
370
    -2
100
AcDbLine
 10
1085.458274103243
 20
1464.518210308327
 30
0.0
 11
1085.523174680358
 21
1464.519438460118
 31
0.0
  0
LINE
  5
66C
330
23
100
AcDbEntity
  8
SANINDUSA
370
    -2
100
AcDbLine
 10
1085.183489980906
 20
1464.523427661416
 30
0.0
 11
1085.257475408464
 21
1464.525228299695
 31
0.0
  0
LINE
  5
66D
330
23
100
AcDbEntity
  8
SANINDUSA
370
    -2
100
AcDbLine
 10
1085.188299615923
 20
1464.511541163646
 30
0.0
 11
1085.253241402925
 21
1464.513121700131
 31
0.0
  0
ARC
  5
66F
330
23
100
AcDbEntity
  8
SANINDUSA
370
    -2
100
AcDbCircle
 10
1084.994636442055
 20
1464.569680609098
 30
0.0
 40
0.0500158045462165
100
AcDbArc
 50
204.1076001832148
 51
262.4587269734453
  0
ARC
  5
670
330
23
100
AcDbEntity
  8
SANINDUSA
370
    -2
100
AcDbCircle
 10
1084.994636442055
 20
1464.569680609098
 30
0.0
 40
0.0600158045462165
100
AcDbArc
 50
207.6658026126209
 51
257.8324884646444
  0
ARC
  5
671
330
23
100
AcDbEntity
  8
SANINDUSA
370
    -2
100
AcDbCircle
 10
1084.981776108123
 20
1464.510035490139
 30
0.0
 40
0.001
100
AcDbArc
 50
290.000000000605
 51
77.83248846464442
  0
ARC
  5
672
330
23
100
AcDbEntity
  8
SANINDUSA
370
    -2
100
AcDbCircle
 10
1084.940596518778
 20
1464.541350146753
 30
0.0
 40
0.001
100
AcDbArc
 50
27.66580261262087
 51
87.81275788761965
  0
ARC
  5
675
330
23
100
AcDbEntity
  8
SANINDUSA
370
    -2
100
AcDbCircle
 10
1084.944419476197
 20
1464.547208513465
 30
0.0
 40
0.0050000000000002
100
AcDbArc
 50
24.09932643344221
 51
87.87417808416838
  0
ARC
  5
676
330
23
100
AcDbEntity
  8
SANINDUSA
370
    -2
100
AcDbCircle
 10
1084.912652153868
 20
1464.548777503275
 30
0.0
 40
0.004999998968697
100
AcDbArc
 50
89.94996641660511
 51
177.9999895678233
  0
ARC
  5
677
330
23
100
AcDbEntity
  8
SANINDUSA
370
    -2
100
AcDbCircle
 10
1084.912639750251
 20
1464.548422280593
 30
0.0
 40
0.0050000000000001
100
AcDbArc
 50
87.75251776412913
 51
177.9999999962464
  0
ARC
  5
67A
330
23
100
AcDbEntity
  8
SANINDUSA
370
    -2
100
AcDbCircle
 10
1085.572882776689
 20
1464.57823256477
 30
0.0
 40
0.0500011378596512
100
AcDbArc
 50
270.815428427652
 51
325.7402388087491
  0
ARC
  5
67B
330
23
100
AcDbEntity
  8
SANINDUSA
370
    -2
100
AcDbCircle
 10
1085.572882776689
 20
1464.57823256477
 30
0.0
 40
0.0600011378596512
100
AcDbArc
 50
286.6377041304488
 51
322.8414648803705
  0
ARC
  5
67C
330
23
100
AcDbEntity
  8
SANINDUSA
370
    -2
100
AcDbCircle
 10
1085.621498686206
 20
1464.541386504436
 30
0.0
 40
0.001
100
AcDbArc
 50
92.19441098173337
 51
142.8414648803704
  0
ARC
  5
67E
330
23
100
AcDbEntity
  8
SANINDUSA
370
    -2
100
AcDbCircle
 10
1085.618340879143
 20
1464.547269908436
 30
0.0
 40
0.0050000000000007
100
AcDbArc
 50
92.13238232601069
 51
145.7408548776552
  0
ARC
  5
67F
330
23
100
AcDbEntity
  8
SANINDUSA
370
    -2
100
AcDbCircle
 10
1085.650554140928
 20
1464.548504270097
 30
0.0
 40
0.005
100
AcDbArc
 50
0.0
 51
92.25530007258734
  0
LINE
  5
680
330
23
100
AcDbEntity
  8
SANINDUSA
370
    -2
100
AcDbLine
 10
1085.655554140928
 20
1464.488785519099
 30
0.0
 11
1085.655554140928
 21
1464.548779339585
 31
0.0
  0
LINE
  5
681
330
23
100
AcDbEntity
  8
SANINDUSA
370
    -2
100
AcDbLine
 10
1085.645554140928
 20
1464.501649826553
 30
0.0
 11
1085.645554140928
 21
1464.542269953372
 31
0.0
  0
LINE
  5
682
330
23
100
AcDbEntity
  8
SANINDUSA
370
    -2
100
AcDbLine
 10
1085.655554140928
 20
1464.488785519099
 30
0.0
 11
1085.643054140928
 21
1464.488785519099
 31
0.0
  0
ARC
  5
683
330
23
100
AcDbEntity
  8
SANINDUSA
370
    -2
100
AcDbCircle
 10
1085.635554140927
 20
1464.483754269099
 30
0.0
 40
0.0090312500000001
100
AcDbArc
 50
33.85502613172002
 51
146.14497386828
  0
ARC
  5
684
330
23
100
AcDbEntity
  8
SANINDUSA
370
    -2
100
AcDbCircle
 10
1085.635554140927
 20
1464.483754269099
 30
0.0
 40
0.0190312500000001
100
AcDbArc
 50
63.30134852359162
 51
126.8400923095812
  0
ARC
  5
685
330
23
100
AcDbEntity
  8
SANINDUSA
370
    -2
100
AcDbCircle
 10
1085.644554140928
 20
1464.501649826553
 30
0.0
 40
0.001
100
AcDbArc
 50
243.3013485235916
 51
0.0
  0
ARC
  5
686
330
23
100
AcDbEntity
  8
SANINDUSA
370
    -2
100
AcDbCircle
 10
1085.623543728778
 20
1464.499785519099
 30
0.0
 40
0.001
100
AcDbArc
 50
270.0
 51
306.8400923095813
  0
LINE
  5
687
330
23
100
AcDbEntity
  8
SANINDUSA
370
    -2
100
AcDbLine
 10
1085.628054140928
 20
1464.488785519099
 30
0.0
 11
1085.598440892274
 21
1464.488785519099
 31
0.0
  0
LINE
  5
688
330
23
100
AcDbEntity
  8
SANINDUSA
370
    -2
100
AcDbLine
 10
1085.623543728778
 20
1464.498785519099
 30
0.0
 11
1085.601904993889
 21
1464.498785519099
 31
0.0
  0
ARC
  5
689
330
23
100
AcDbEntity
  8
SANINDUSA
370
    -2
100
AcDbCircle
 10
1085.601904993889
 20
1464.499785519099
 30
0.0
 40
0.001
100
AcDbArc
 50
210.0000000027197
 51
270.0
  0
ARC
  5
68A
330
23
100
AcDbEntity
  8
SANINDUSA
370
    -2
100
AcDbCircle
 10
1085.598440892274
 20
1464.493785519099
 30
0.0
 40
0.005
100
AcDbArc
 50
210.0000000027197
 51
270.0
  0
LINE
  5
68B
330
23
100
AcDbEntity
  8
SANINDUSA
370
    -2
100
AcDbLine
 10
1085.581086912599
 20
1464.51384349361
 30
0.0
 11
1085.594110765255
 21
1464.491285519099
 31
0.0
  0
LINE
  5
68C
330
23
100
AcDbEntity
  8
SANINDUSA
370
    -2
100
AcDbLine
 10
1085.589747166636
 20
1464.51884349361
 30
0.0
 11
1085.601038968485
 21
1464.499285519099
 31
0.0
  0
ARC
  5
68D
330
23
100
AcDbEntity
  8
SANINDUSA
370
    -2
100
AcDbCircle
 10
1085.576756785579
 20
1464.51134349361
 30
0.0
 40
0.0050000000003368
100
AcDbArc
 50
29.99999999143759
 51
93.31422925285817
  0
ARC
  5
68E
330
23
100
AcDbEntity
  8
SANINDUSA
370
    -2
100
AcDbCircle
 10
1085.576756785579
 20
1464.51134349361
 30
0.0
 40
0.0150000000003368
100
AcDbArc
 50
29.99999999143759
 51
31.8442175283081
  0
ARC
  5
68F
330
23
100
AcDbEntity
  8
SANINDUSA
370
    -2
100
AcDbCircle
 10
1085.59034855784
 20
1464.519785278186
 30
0.0
 40
0.001
100
AcDbArc
 50
106.6377041304487
 51
211.8442175283081
  0
LINE
  5
690
330
23
100
AcDbEntity
  8
SANINDUSA
370
    -2
100
AcDbLine
 10
1085.573764999652
 20
1464.516237703865
 30
0.0
 11
1085.576467725775
 21
1464.51633513106
 31
0.0
  0
LINE
  5
691
330
23
100
AcDbEntity
  8
SANINDUSA
370
    -2
100
AcDbLine
 10
1085.120554140928
 20
1464.493785519099
 30
0.0
 11
1085.132554140928
 21
1464.493785519099
 31
0.0
  0
LINE
  5
692
330
23
100
AcDbEntity
  8
SANINDUSA
370
    -2
100
AcDbLine
 10
1085.120554140928
 20
1464.493785519099
 30
0.0
 11
1085.120554140928
 21
1464.503929750665
 31
0.0
  0
LINE
  5
693
330
23
100
AcDbEntity
  8
SANINDUSA
370
    -2
100
AcDbLine
 10
1085.030554140928
 20
1464.503929750665
 30
0.0
 11
1085.030554140928
 21
1464.493785519099
 31
0.0
  0
LINE
  5
694
330
23
100
AcDbEntity
  8
SANINDUSA
370
    -2
100
AcDbLine
 10
1085.018554140928
 20
1464.493785519099
 30
0.0
 11
1085.030554140928
 21
1464.493785519099
 31
0.0
  0
LWPOLYLINE
  5
695
330
23
100
AcDbEntity
  8
SANINDUSA
370
    -2
100
AcDbPolyline
 90
        3
 70
   128
 43
0.0
 10
1085.005511649438
 20
1464.506395953697
 10
1085.00383485356
 20
1464.506312791561
 10
1085.003207310287
 20
1464.506129854315
  0
LINE
  5
696
330
23
100
AcDbEntity
  8
SANINDUSA
370
    -2
100
AcDbLine
 10
1084.956382606741
 20
1464.489087055995
 30
0.0
 11
1085.003207310287
 21
1464.506129854315
 31
0.0
  0
LINE
  5
697
330
23
100
AcDbEntity
  8
SANINDUSA
370
    -2
100
AcDbLine
 10
1084.953956564283
 20
1464.498845826478
 30
0.0
 11
1084.982118128266
 21
1464.509095797519
 31
0.0
  0
ARC
  5
698
330
23
100
AcDbEntity
  8
SANINDUSA
370
    -2
100
AcDbCircle
 10
1084.954672506024
 20
1464.493785519099
 30
0.0
 40
0.005
100
AcDbArc
 50
270.0
 51
290.000000000605
  0
ARC
  5
699
330
23
100
AcDbEntity
  8
SANINDUSA
370
    -2
100
AcDbCircle
 10
1084.925554140928
 20
1464.483754269099
 30
0.0
 40
0.0090312500000001
100
AcDbArc
 50
33.85502613172002
 51
146.14497386828
  0
ARC
  5
69A
330
23
100
AcDbEntity
  8
SANINDUSA
370
    -2
100
AcDbCircle
 10
1084.925554140928
 20
1464.483754269099
 30
0.0
 40
0.0190312500000001
100
AcDbArc
 50
53.15990769041877
 51
115.2230343181405
  0
ARC
  5
69B
330
23
100
AcDbEntity
  8
SANINDUSA
370
    -2
100
AcDbCircle
 10
1084.917017963558
 20
1464.501875655704
 30
0.0
 40
0.001
100
AcDbArc
 50
177.9999999962464
 51
295.2230343181405
  0
ARC
  5
69C
330
23
100
AcDbEntity
  8
SANINDUSA
370
    -2
100
AcDbCircle
 10
1084.937564553077
 20
1464.499785519099
 30
0.0
 40
0.001
100
AcDbArc
 50
233.1599076904188
 51
270.0
  0
LINE
  5
69D
330
23
100
AcDbEntity
  8
SANINDUSA
370
    -2
100
AcDbLine
 10
1084.918054140928
 20
1464.488785519099
 30
0.0
 11
1084.905554140928
 21
1464.488785519099
 31
0.0
  0
LINE
  5
69E
330
23
100
AcDbEntity
  8
SANINDUSA
370
    -2
100
AcDbLine
 10
1084.954672506024
 20
1464.488785519099
 30
0.0
 11
1084.933054140928
 21
1464.488785519099
 31
0.0
  0
LINE
  5
69F
330
23
100
AcDbEntity
  8
SANINDUSA
370
    -2
100
AcDbLine
 10
1084.95361454414
 20
1464.498785519099
 30
0.0
 11
1084.937564553077
 21
1464.498785519099
 31
0.0
  0
ARC
  5
6A0
330
23
100
AcDbEntity
  8
SANINDUSA
370
    -2
100
AcDbCircle
 10
1084.95361454414
 20
1464.499785519099
 30
0.0
 40
0.001
100
AcDbArc
 50
270.0
 51
290.000000000605
  0
LINE
  5
6A1
330
23
100
AcDbEntity
  8
SANINDUSA
370
    -2
100
AcDbLine
 10
1084.907655200763
 20
1464.548952000723
 30
0.0
 11
1084.905554140928
 21
1464.488785519099
 31
0.0
  0
LINE
  5
6A2
330
23
100
AcDbEntity
  8
SANINDUSA
370
    -2
100
AcDbLine
 10
1084.917426621881
 20
1464.542231807292
 30
0.0
 11
1084.916018572731
 21
1464.501910555201
 31
0.0
  0
LINE
  5
6A3
330
23
100
AcDbEntity
  8
SANINDUSA
370
    -2
100
AcDbLine
 10
1085.120554140928
 20
1464.493785519099
 30
0.0
 11
1085.030554140928
 21
1464.493785519099
 31
0.0
  0
ARC
  5
6A4
330
23
100
AcDbEntity
  8
SANINDUSA
370
    -2
100
AcDbCircle
 10
1085.650554141494
 20
1464.548779339585
 30
0.0
 40
0.0049999994340947
100
AcDbArc
 50
0.0000065007484358
 51
90.05031582541695
  0
LWPOLYLINE
  5
6AC
330
23
100
AcDbEntity
  8
SANINDUSA
370
    -2
100
AcDbPolyline
 90
       19
 70
   128
 43
0.0
 10
1085.25704895391
 20
1464.526320782673
 10
1085.256986133807
 20
1464.52633069612
 10
1085.255437713613
 20
1464.526393186496
 10
1085.252944787527
 20
1464.526434574925
 10
1085.24944617555
 20
1464.526456175474
 10
1085.245235523555
 20
1464.526456712562
 10
1085.240191596194
 20
1464.526436368404
 10
1085.234737130269
 20
1464.526396594671
 10
1085.228715983951
 20
1464.526335566902
 10
1085.222632121107
 20
1464.526257365119
 10
1085.216312305431
 20
1464.52615840415
 10
1085.210285206397
 20
1464.526045494848
 10
1085.20437958331
 20
1464.525913899208
 10
1085.199089940913
 20
1464.525773328764
 10
1085.194265330172
 20
1464.525618756786
 10
1085.190310600153
 20
1464.525462661286
 10
1085.187111630476
 20
1464.52530062325
 10
1085.18493694496
 20
1464.525146934575
 10
1085.184568514117
 20
1464.525101839021
  0
LWPOLYLINE
  5
6AD
330
23
100
AcDbEntity
  8
SANINDUSA
370
    -2
100
AcDbPolyline
 90
       19
 70
   128
 43
0.0
 10
1085.183967427164
 20
1464.524814781869
 10
1085.184840944029
 20
1464.524735962275
 10
1085.187034239504
 20
1464.524657962474
 10
1085.190101826948
 20
1464.524612276657
 10
1085.194132438337
 20
1464.524598379254
 10
1085.198789273455
 20
1464.524617538189
 10
1085.204205049079
 20
1464.524669726628
 10
1085.209927636124
 20
1464.524749500736
 10
1085.216118910832
 20
1464.524857608107
 10
1085.222261175334
 20
1464.524983392778
 10
1085.228528783815
 20
1464.525128794359
 10
1085.234396370062
 20
1464.525280273175
 10
1085.240032101696
 20
1464.525441138403
 10
1085.244962614829
 20
1464.525597315159
 10
1085.249330572262
 20
1464.525753213532
 10
1085.252768684472
 20
1464.525896048956
 10
1085.255377031377
 20
1464.526030699908
 10
1085.256946758285
 20
1464.526147895158
 10
1085.257207227178
 20
1464.526197100913
  0
LWPOLYLINE
  5
6AE
330
23
100
AcDbEntity
  8
SANINDUSA
370
    -2
100
AcDbPolyline
 90
       22
 70
   128
 43
0.0
 10
1085.527442758852
 20
1464.531670385773
 10
1085.527000686602
 20
1464.53167566317
 10
1085.525431682267
 20
1464.531666838338
 10
1085.522926743085
 20
1464.531643985415
 10
1085.519416238235
 20
1464.53160640585
 10
1085.515194485866
 20
1464.53155696098
 10
1085.510140398985
 20
1464.531493695685
 10
1085.504677589314
 20
1464.531421211454
 10
1085.498649654933
 20
1464.531336582783
 10
1085.4925619181
 20
1464.531246051682
 10
1085.486240000477
 20
1464.531146201468
 10
1085.480214316885
 20
1464.531044770373
 10
1085.474311655298
 20
1464.530938423518
 10
1085.469027889331
 20
1464.53083598984
 10
1085.464210237885
 20
1464.530734737978
 10
1085.460263651802
 20
1464.530643719315
 10
1085.457073671598
 20
1464.53056113188
 10
1085.454908353781
 20
1464.530494894493
 10
1085.453705258492
 20
1464.530444165706
 10
1085.453585825413
 20
1464.530431929283
 10
1085.453498142827
 20
1464.530422945832
 10
1085.453566741297
 20
1464.530418414854
  0
ARC
  5
6B0
330
23
100
AcDbEntity
  8
SANINDUSA
370
    -2
100
AcDbCircle
 10
1085.391432175014
 20
1462.875117616042
 30
0.0
 40
1.654102855933441
100
AcDbArc
 50
89.97287244090129
 51
92.52106055190203
  0
ARC
  5
6B1
330
23
100
AcDbEntity
  8
SANINDUSA
370
    -2
100
AcDbCircle
 10
1085.308411562382
 20
1466.645048131507
 30
0.0
 40
2.117523371611904
100
AcDbArc
 50
270.2769451816014
 51
272.2717642551471
  0
LINE
  5
6B4
330
23
100
AcDbEntity
  8
SANINDUSA
370
    -2
100
AcDbLine
 10
1085.598440892274
 20
1464.488785519099
 30
0.0
 11
1085.576790257179
 21
1464.488785519099
 31
0.0
  0
LINE
  5
6BA
330
23
100
AcDbEntity
  8
SANINDUSA
370
    -2
100
AcDbLine
 10
1085.576790257179
 20
1464.488785519099
 30
0.0
 11
1085.325554140928
 21
1464.488785519099
 31
0.0
  0
LINE
  5
6BC
330
23
100
AcDbEntity
  8
SANINDUSA
370
    -2
100
AcDbLine
 10
1085.325554140928
 20
1464.488785519099
 30
0.0
 11
1085.191053183234
 21
1464.488785519099
 31
0.0
  0
LINE
  5
6BF
330
23
100
AcDbEntity
  8
SANINDUSA
370
    -2
100
AcDbLine
 10
1085.191053183234
 20
1464.488785519099
 30
0.0
 11
1085.053938603817
 21
1464.488785519099
 31
0.0
  0
LINE
  5
6C2
330
23
100
AcDbEntity
  8
SANINDUSA
370
    -2
100
AcDbLine
 10
1084.993424148285
 20
1464.488785519099
 30
0.0
 11
1084.954672506024
 21
1464.488785519099
 31
0.0
  0
LINE
  5
6C4
330
23
100
AcDbEntity
  8
SANINDUSA
370
    -2
100
AcDbLine
 10
1085.053938603817
 20
1464.488785519099
 30
0.0
 11
1084.993424148285
 21
1464.488785519099
 31
0.0
  0
LWPOLYLINE
  5
6C7
330
23
100
AcDbEntity
  8
SANINDUSA
370
    -2
100
AcDbPolyline
 90
       43
 70
   128
 43
0.0
 10
1085.527446370179
 20
1464.532040582013
 10
1085.52752326926
 20
1464.532044379663
 10
1085.527409692308
 20
1464.532047814989
 10
1085.527015052856
 20
1464.532059751526
 10
1085.525447952356
 20
1464.532065048919
 10
1085.522944197127
 20
1464.532060292436
 10
1085.51943482266
 20
1464.532045570168
 10
1085.515214378019
 20
1464.532022095702
 10
1085.510161503855
 20
1464.531988895186
 10
1085.50470003486
 20
1464.531948228931
 10
1085.49867327126
 20
1464.531898192572
 10
1085.49258652019
 20
1464.53184215288
 10
1085.486265353823
 20
1464.531777603318
 10
1085.480239789807
 20
1464.53170913661
 10
1085.474337038382
 20
1464.531634077396
 10
1085.469052353062
 20
1464.531558252279
 10
1085.464233717133
 20
1464.531479278597
 10
1085.460285736664
 20
1464.531403909657
 10
1085.457094417737
 20
1464.531330427718
 10
1085.454927791365
 20
1464.531265730743
 10
1085.453723383423
 20
1464.531208926391
 10
1085.453643254298
 20
1464.531197878996
 10
1085.45351546829
 20
1464.531180261151
 10
1085.4536144178
 20
1464.531168675817
 10
1085.453716915215
 20
1464.531156675084
 10
1085.454862405575
 20
1464.531131771767
 10
1085.457067264264
 20
1464.531122937465
 10
1085.460146596819
 20
1464.531131397493
 10
1085.464189019636
 20
1464.531157507467
 10
1085.468855713756
 20
1464.531198800347
 10
1085.474280377099
 20
1464.531255811748
 10
1085.480008273833
 20
1464.531322885463
 10
1085.486203381187
 20
1464.531400892676
 10
1085.492346102719
 20
1464.531482278188
 10
1085.498612710458
 20
1464.531568449773
 10
1085.504477300714
 20
1464.531651499142
 10
1085.510108710669
 20
1464.531733406893
 10
1085.51503410071
 20
1464.53180721093
 10
1085.519395611762
 20
1464.53187526989
 10
1085.522826872359
 20
1464.531932356035
 10
1085.525427013641
 20
1464.531980843972
 10
1085.526980590772
 20
1464.532017579566
 10
1085.527446370179
 20
1464.532040582013
  0
LWPOLYLINE
  5
6C8
330
23
100
AcDbEntity
  8
SANINDUSA
370
    -2
100
AcDbPolyline
 90
       19
 70
   128
 43
0.0
 10
1085.257029550289
 20
1464.528696741139
 10
1085.257015830895
 20
1464.528699795985
 10
1085.255468233142
 20
1464.528803160694
 10
1085.252974950735
 20
1464.528890719918
 10
1085.249475819262
 20
1464.528965081647
 10
1085.245265243759
 20
1464.529021098747
 10
1085.240221291817
 20
1464.5290612267
 10
1085.234767727121
 20
1464.529082514391
 10
1085.228747323598
 20
1464.529085579934
 10
1085.222664970003
 20
1464.529069745477
 10
1085.216346366798
 20
1464.529033715891
 10
1085.210320486955
 20
1464.528979368176
 10
1085.204415721496
 20
1464.528903734179
 10
1085.199125929843
 20
1464.528811662993
 10
1085.194301033552
 20
1464.528699047034
 10
1085.190344988027
 20
1464.528574069693
 10
1085.187145007355
 20
1464.528432227963
 10
1085.184969380118
 20
1464.528284992739
 10
1085.184704258235
 20
1464.528250764199
  0
LWPOLYLINE
  5
6C9
330
23
100
AcDbEntity
  8
SANINDUSA
370
    -2
100
AcDbPolyline
 90
       18
 70
   128
 43
0.0
 10
1085.184173241704
 20
1464.527880631701
 10
1085.184873606366
 20
1464.527791632411
 10
1085.187068716064
 20
1464.52765630932
 10
1085.190137038304
 20
1464.527543377894
 10
1085.194168327425
 20
1464.527451381707
 10
1085.198823551438
 20
1464.52738948296
 10
1085.204237670822
 20
1464.527356754865
 10
1085.209957436582
 20
1464.527356085168
 10
1085.216146172683
 20
1464.527386865005
 10
1085.222286751513
 20
1464.527445351367
 10
1085.228552979543
 20
1464.527531541171
 10
1085.234420917432
 20
1464.527636435579
 10
1085.240056970599
 20
1464.527761195334
 10
1085.244989047806
 20
1464.52789387203
 10
1085.249358200814
 20
1464.52803713351
 10
1085.252797808476
 20
1464.528178372103
 10
1085.255407155256
 20
1464.528321610869
 10
1085.256964890827
 20
1464.528455505985
  0
ARC
  5
6CA
330
23
100
AcDbEntity
  8
SANINDUSA
370
    -2
100
AcDbCircle
 10
1085.374026312299
 20
1463.140437566184
 30
0.0
 40
1.39007084416297
100
AcDbArc
 50
89.25282229696533
 51
92.25892925094942
  0
LWPOLYLINE
  5
6CB
330
23
100
AcDbEntity
  8
SANINDUSA
370
    -2
100
AcDbPolyline
 90
       19
 70
   128
 43
0.0
 10
1085.3188094997
 20
1464.529259583304
 10
1085.319852243351
 20
1464.5291918413
 10
1085.322051043343
 20
1464.529136182376
 10
1085.325124163233
 20
1464.529104795717
 10
1085.329160456783
 20
1464.529097603266
 10
1085.333821898393
 20
1464.529115493984
 10
1085.339241968448
 20
1464.529158699624
 10
1085.344967114183
 20
1464.529222833111
 10
1085.351160366882
 20
1464.529308522703
 10
1085.357303094003
 20
1464.529407226378
 10
1085.363570510877
 20
1464.529520314953
 10
1085.369437081413
 20
1464.529637061387
 10
1085.375071144873
 20
1464.529759822462
 10
1085.379999708683
 20
1464.529877712052
 10
1085.3843650478
 20
1464.529993963366
 10
1085.38780038432
 20
1464.530099048863
 10
1085.390405260498
 20
1464.530196629527
 10
1085.391967984328
 20
1464.530279891189
 10
1085.392308385924
 20
1464.530324780349
  0
ARC
  5
6CD
330
23
100
AcDbEntity
  8
SANINDUSA
370
    -2
100
AcDbCircle
 10
1085.364843514228
 20
1462.94754985173
 30
0.0
 40
1.584359733218873
100
AcDbArc
 50
89.01064814001861
 51
91.66720438771571
  0
ARC
  5
6CE
330
23
100
AcDbEntity
  8
SANINDUSA
370
    -2
100
AcDbCircle
 10
1085.346603054609
 20
1465.898622305882
 30
0.0
 40
1.36776947064606
100
AcDbArc
 50
268.8346016025442
 51
271.9165852383339
  0
LWPOLYLINE
  5
6CF
330
23
100
AcDbEntity
  8
SANINDUSA
370
    -2
100
AcDbPolyline
 90
       19
 70
   128
 43
0.0
 10
1085.25709978279
 20
1464.531015879346
 10
1085.257036181799
 20
1464.531027464931
 10
1085.25547872228
 20
1464.531116183602
 10
1085.2529793696
 20
1464.531194992966
 10
1085.249474316682
 20
1464.531266443617
 10
1085.245258353802
 20
1464.531325467399
 10
1085.240209509635
 20
1464.531374616952
 10
1085.234752145756
 20
1464.531410386389
 10
1085.228728669624
 20
1464.531434220655
 10
1085.222644912851
 20
1464.531444258281
 10
1085.216325715485
 20
1464.53144065628
 10
1085.210301197494
 20
1464.531423322303
 10
1085.204398539494
 20
1464.531391092098
 10
1085.199112441957
 20
1464.531345812692
 10
1085.194291816486
 20
1464.531285148773
 10
1085.190340598771
 20
1464.531213119272
 10
1085.187145892245
 20
1464.531126610276
 10
1085.184975536767
 20
1464.531032032939
 10
1085.184438392308
 20
1464.53098494335
  0
LWPOLYLINE
  5
6D0
330
23
100
AcDbEntity
  8
SANINDUSA
370
    -2
100
AcDbPolyline
 90
       19
 70
   128
 43
0.0
 10
1085.183967346726
 20
1464.530767520153
 10
1085.184898239416
 20
1464.530677237029
 10
1085.187099897687
 20
1464.530565981827
 10
1085.190175135504
 20
1464.530464827286
 10
1085.194213375121
 20
1464.530372284829
 10
1085.198874405182
 20
1464.530297570203
 10
1085.204293792192
 20
1464.530239787756
 10
1085.210016197304
 20
1464.530204655356
 10
1085.216206791199
 20
1464.530191531796
 10
1085.222346683822
 20
1464.530201332045
 10
1085.228611496314
 20
1464.530233611414
 10
1085.234476652523
 20
1464.530284575633
 10
1085.240109231891
 20
1464.530354306379
 10
1085.245037471195
 20
1464.53043560424
 10
1085.249402047343
 20
1464.530529524114
 10
1085.252837062462
 20
1464.53062725231
 10
1085.255441090539
 20
1464.530731005558
 10
1085.257003737186
 20
1464.530832685648
 10
1085.257236961256
 20
1464.530876589988
  0
LWPOLYLINE
  5
6D1
330
23
100
AcDbEntity
  8
SANINDUSA
370
    -2
100
AcDbPolyline
 90
       43
 70
   128
 43
0.0
 10
1085.527469882259
 20
1464.532468382904
 10
1085.527539315178
 20
1464.53247115257
 10
1085.527441999921
 20
1464.532474110509
 10
1085.527030706045
 20
1464.532486611958
 10
1085.525462036027
 20
1464.532497164509
 10
1085.522957420738
 20
1464.532502474844
 10
1085.519447255982
 20
1464.532503043627
 10
1085.515226334045
 20
1464.53249898485
 10
1085.510173090797
 20
1464.53249012705
 10
1085.504711691845
 20
1464.53247695386
 10
1085.498685098768
 20
1464.532458626017
 10
1085.492598922115
 20
1464.532436093125
 10
1085.486278403018
 20
1464.532408001471
 10
1085.480253642299
 20
1464.53237599588
 10
1085.474351756722
 20
1464.532338456943
 10
1085.469067758654
 20
1464.532297962332
 10
1085.464249918611
 20
1464.532252930795
 10
1085.460302504092
 20
1464.532206961749
 10
1085.457111916538
 20
1464.532158818324
 10
1085.454946008399
 20
1464.532112901112
 10
1085.453742363775
 20
1464.532068523039
 10
1085.453655325451
 20
1464.53205812155
 10
1085.453534869979
 20
1464.532043726554
 10
1085.453628086073
 20
1464.532033278657
 10
1085.45373694544
 20
1464.532021077422
 10
1085.454883461516
 20
1464.531991578229
 10
1085.457089387806
 20
1464.53197048115
 10
1085.460169433802
 20
1464.531960258022
 10
1085.46421247843
 20
1464.531961064878
 10
1085.468879197585
 20
1464.531972939939
 10
1085.474303782387
 20
1464.531995973131
 10
1085.480031206423
 20
1464.532027675598
 10
1085.486225766613
 20
1464.532068133004
 10
1085.492367942629
 20
1464.532113034397
 10
1085.49863390834
 20
1464.532162713954
 10
1085.50449808061
 20
1464.532212203137
 10
1085.510128912731
 20
1464.532262310155
 10
1085.515053905522
 20
1464.532308510609
 10
1085.519414812563
 20
1464.532352106846
 10
1085.522845494641
 20
1464.532389691455
 10
1085.525444860332
 20
1464.532422854555
 10
1085.526997051207
 20
1464.532449521758
 10
1085.527469882259
 20
1464.532468382904
  0
LINE
  5
6D9
330
23
100
AcDbEntity
  8
SANINDUSA
370
    -2
100
AcDbLine
 10
1085.635554140927
 20
1464.488785519099
 30
0.0
 11
1085.628054140928
 21
1464.488785519099
 31
0.0
  0
LINE
  5
6DA
330
23
100
AcDbEntity
  8
SANINDUSA
370
    -2
100
AcDbLine
 10
1085.643054140928
 20
1464.488785519099
 30
0.0
 11
1085.635554140927
 21
1464.488785519099
 31
0.0
  0
LINE
  5
6DB
330
23
100
AcDbEntity
  8
SANINDUSA
370
    -2
100
AcDbLine
 10
1084.918054140928
 20
1464.488785519099
 30
0.0
 11
1084.933054140928
 21
1464.488785519099
 31
0.0
  0
LWPOLYLINE
  5
6E7
330
23
100
AcDbEntity
  8
SANINDUSA
370
    -2
100
AcDbPolyline
 90
        3
 70
   128
 43
0.0
 10
1085.532831153759
 20
1464.528113626639
 10
1085.533220528063
 20
1464.528102119223
 10
1085.533209859632
 20
1464.528099049499
  0
LWPOLYLINE
  5
6E8
330
23
100
AcDbEntity
  8
SANINDUSA
370
    -2
100
AcDbPolyline
 90
        3
 70
   128
 43
0.0
 10
1085.398224388596
 20
1464.526431180938
 10
1085.398213958112
 20
1464.526421910958
 10
1085.397759744324
 20
1464.526374241589
  0
LWPOLYLINE
  5
6E9
330
23
100
AcDbEntity
  8
SANINDUSA
370
    -2
100
AcDbPolyline
 90
        4
 70
   128
 43
0.0
 10
1085.313838104123
 20
1464.525133758844
 10
1085.31314880403
 20
1464.525180594953
 10
1085.312941931829
 20
1464.525271213044
 10
1085.313282916267
 20
1464.525324069407
  0
LWPOLYLINE
  5
6EB
330
23
100
AcDbEntity
  8
SANINDUSA
370
    -2
100
AcDbPolyline
 90
        3
 70
   128
 43
0.0
 10
1085.263221791352
 20
1464.524646108374
 10
1085.26321197658
 20
1464.524628870973
 10
1085.262529100274
 20
1464.524499179919
  0
LWPOLYLINE
  5
6EC
330
23
100
AcDbEntity
  8
SANINDUSA
370
    -2
100
AcDbPolyline
 90
        5
 70
   128
 43
0.0
 10
1085.17926656022
 20
1464.523749363722
 10
1085.178139889712
 20
1464.523895960623
 10
1085.177931146806
 20
1464.524047477899
 10
1085.178582701415
 20
1464.524200233711
 10
1085.178850543662
 20
1464.524226893113
  0
LWPOLYLINE
  5
6EE
330
23
100
AcDbEntity
  8
SANINDUSA
370
    -2
100
AcDbPolyline
 90
        3
 70
   128
 43
0.0
 10
1085.263214353381
 20
1464.526951107405
 10
1085.263204390972
 20
1464.526937070639
 10
1085.262586557164
 20
1464.526844690675
  0
LWPOLYLINE
  5
6EF
330
23
100
AcDbEntity
  8
SANINDUSA
370
    -2
100
AcDbPolyline
 90
        4
 70
   128
 43
0.0
 10
1085.178958234922
 20
1464.526699713815
 10
1085.178134287
 20
1464.526781413918
 10
1085.17792701917
 20
1464.526890555749
 10
1085.178379799126
 20
1464.526963332109
  0
LWPOLYLINE
  5
6F1
330
23
100
AcDbEntity
  8
SANINDUSA
370
    -2
100
AcDbPolyline
 90
        3
 70
   128
 43
0.0
 10
1085.398217560906
 20
1464.527676811958
 10
1085.398207260569
 20
1464.527668533806
 10
1085.397782523012
 20
1464.527630282378
  0
LWPOLYLINE
  5
6F2
330
23
100
AcDbEntity
  8
SANINDUSA
370
    -2
100
AcDbPolyline
 90
        3
 70
   128
 43
0.0
 10
1085.313140141845
 20
1464.527100218075
 10
1085.312933526334
 20
1464.527179368496
 10
1085.313206315354
 20
1464.527213446682
  0
LINE
  5
6F4
330
23
100
AcDbEntity
  8
SANINDUSA
370
    -2
100
AcDbLine
 10
1085.532812061096
 20
1464.528510614829
 30
0.0
 11
1085.533215556854
 21
1464.528498697503
 31
0.0
  0
LINE
  5
6FA
330
23
100
AcDbEntity
  8
SANINDUSA
370
    -2
100
AcDbLine
 10
1085.257491910473
 20
1464.526250881064
 30
0.0
 11
1085.25704895391
 21
1464.526320782673
 31
0.0
  0
LWPOLYLINE
  5
6FB
330
23
100
AcDbEntity
  8
SANINDUSA
370
    -2
100
AcDbPolyline
 90
        5
 70
   128
 43
0.0
 10
1085.184568514117
 20
1464.525101839021
 10
1085.183723863893
 20
1464.524998454709
 10
1085.183510626654
 20
1464.524915166776
 10
1085.183705995091
 20
1464.524838371534
 10
1085.183967427164
 20
1464.524814781869
  0
LINE
  5
6FC
330
23
100
AcDbEntity
  8
SANINDUSA
370
    -2
100
AcDbLine
 10
1085.257207227178
 20
1464.526197100913
 30
0.0
 11
1085.257491910473
 21
1464.526250881064
 31
0.0
  0
LINE
  5
6FD
330
23
100
AcDbEntity
  8
SANINDUSA
370
    -2
100
AcDbLine
 10
1085.392490679874
 20
1464.529203102632
 30
0.0
 11
1085.392215335142
 21
1464.529220286576
 31
0.0
  0
LWPOLYLINE
  5
6FE
330
23
100
AcDbEntity
  8
SANINDUSA
370
    -2
100
AcDbPolyline
 90
        3
 70
   128
 43
0.0
 10
1085.318673796774
 20
1464.527619499976
 10
1085.31848729675
 20
1464.527578616501
 10
1085.318646794542
 20
1464.527549496479
  0
LINE
  5
6FF
330
23
100
AcDbEntity
  8
SANINDUSA
370
    -2
100
AcDbLine
 10
1085.392348871711
 20
1464.529189025275
 30
0.0
 11
1085.392490679874
 21
1464.529203102632
 31
0.0
  0
LINE
  5
708
330
23
100
AcDbEntity
  8
SANINDUSA
370
    -2
100
AcDbLine
 10
1085.25752294016
 20
1464.528586879859
 30
0.0
 11
1085.257029550289
 21
1464.528696741139
 31
0.0
  0
LWPOLYLINE
  5
709
330
23
100
AcDbEntity
  8
SANINDUSA
370
    -2
100
AcDbPolyline
 90
        5
 70
   128
 43
0.0
 10
1085.184704258235
 20
1464.528250764199
 10
1085.183755440854
 20
1464.528128267202
 10
1085.183541539556
 20
1464.52803199943
 10
1085.183737381957
 20
1464.527936018858
 10
1085.184173241704
 20
1464.527880631701
  0
LWPOLYLINE
  5
70A
330
23
100
AcDbEntity
  8
SANINDUSA
370
    -2
100
AcDbPolyline
 90
        3
 70
   128
 43
0.0
 10
1085.256964890827
 20
1464.528455505985
 10
1085.256978741064
 20
1464.528456696482
 10
1085.25752294016
 20
1464.528586879859
  0
LINE
  5
70B
330
23
100
AcDbEntity
  8
SANINDUSA
370
    -2
100
AcDbLine
 10
1085.392511962375
 20
1464.530351626216
 30
0.0
 11
1085.392153310529
 21
1464.5303902142
 31
0.0
  0
LWPOLYLINE
  5
70C
330
23
100
AcDbEntity
  8
SANINDUSA
370
    -2
100
AcDbPolyline
 90
        5
 70
   128
 43
0.0
 10
1085.319235919361
 20
1464.52942819417
 10
1085.318725239245
 20
1464.529382419268
 10
1085.318514264872
 20
1464.529321718656
 10
1085.318712394171
 20
1464.52926589178
 10
1085.3188094997
 20
1464.529259583304
  0
LINE
  5
70D
330
23
100
AcDbEntity
  8
SANINDUSA
370
    -2
100
AcDbLine
 10
1085.392308385924
 20
1464.530324780349
 30
0.0
 11
1085.392511962375
 21
1464.530351626216
 31
0.0
  0
LINE
  5
714
330
23
100
AcDbEntity
  8
SANINDUSA
370
    -2
100
AcDbLine
 10
1085.392534240013
 20
1464.53163929292
 30
0.0
 11
1085.392200003082
 21
1464.531673390714
 31
0.0
  0
LWPOLYLINE
  5
715
330
23
100
AcDbEntity
  8
SANINDUSA
370
    -2
100
AcDbPolyline
 90
        4
 70
   128
 43
0.0
 10
1085.318747994219
 20
1464.531238889161
 10
1085.318538385735
 20
1464.531188254777
 10
1085.318738253836
 20
1464.531138692568
 10
1085.318784488339
 20
1464.531135760354
  0
LINE
  5
716
330
23
100
AcDbEntity
  8
SANINDUSA
370
    -2
100
AcDbLine
 10
1085.392347400017
 20
1464.531617997296
 30
0.0
 11
1085.392534240013
 21
1464.53163929292
 31
0.0
  0
LINE
  5
717
330
23
100
AcDbEntity
  8
SANINDUSA
370
    -2
100
AcDbLine
 10
1085.257545540546
 20
1464.53093467992
 30
0.0
 11
1085.25709978279
 21
1464.531015879346
 31
0.0
  0
LWPOLYLINE
  5
718
330
23
100
AcDbEntity
  8
SANINDUSA
370
    -2
100
AcDbPolyline
 90
        5
 70
   128
 43
0.0
 10
1085.184438392308
 20
1464.53098494335
 10
1085.183767144464
 20
1464.530926097383
 10
1085.183556575809
 20
1464.530858154017
 10
1085.183755942775
 20
1464.530788023277
 10
1085.183967346726
 20
1464.530767520153
  0
LINE
  5
719
330
23
100
AcDbEntity
  8
SANINDUSA
370
    -2
100
AcDbLine
 10
1085.257236961256
 20
1464.530876589988
 30
0.0
 11
1085.257545540546
 21
1464.53093467992
 31
0.0
  0
LINE
  5
73D
330
23
100
AcDbEntity
  8
SANINDUSA
100
AcDbLine
 10
1085.448176391481
 20
1464.51400570435
 30
0.0
 11
1085.398501255483
 21
1464.512879532746
 31
0.0
  0
LINE
  5
73F
330
23
100
AcDbEntity
  8
SANINDUSA
100
AcDbLine
 10
1085.31324490575
 20
1464.510705142822
 30
0.0
 11
1085.263156414768
 21
1464.509377478209
 31
0.0
  0
LINE
  5
741
330
23
100
AcDbEntity
  8
SANINDUSA
100
AcDbLine
 10
1085.178167909815
 20
1464.507311891575
 30
0.0
 11
1085.147158060993
 21
1464.506725378504
 31
0.0
  0
ENDSEC
  0
SECTION
  2
OBJECTS
  0
DICTIONARY
  5
C
330
0
100
AcDbDictionary
281
     1
  3
ACAD_COLOR
350
1C
  3
ACAD_GROUP
350
D
  3
ACAD_LAYOUT
350
1A
  3
ACAD_MATERIAL
350
1B
  3
ACAD_MLINESTYLE
350
17
  3
ACAD_PLOTSETTINGS
350
19
  3
ACAD_PLOTSTYLENAME
350
E
  3
ACAD_TABLESTYLE
350
1D
  3
ACDBHEADERROUNDTRIPXREC
350
B6B
  3
AcDbVariableDictionary
350
B56
  3
ASE_INDEX_DICTIONARY
350
B53
  0
DICTIONARY
  5
1C
102
{ACAD_REACTORS
330
C
102
}
330
C
100
AcDbDictionary
281
     1
  0
DICTIONARY
  5
D
102
{ACAD_REACTORS
330
C
102
}
330
C
100
AcDbDictionary
281
     1
  0
DICTIONARY
  5
1A
102
{ACAD_REACTORS
330
C
102
}
330
C
100
AcDbDictionary
281
     1
  3
Layout1
350
22
  3
Layout2
350
2A
  3
Model
350
26
  0
DICTIONARY
  5
1B
102
{ACAD_REACTORS
330
C
102
}
330
C
100
AcDbDictionary
281
     1
  0
DICTIONARY
  5
17
102
{ACAD_REACTORS
330
C
102
}
330
C
100
AcDbDictionary
281
     1
  3
Standard
350
18
  0
DICTIONARY
  5
19
102
{ACAD_REACTORS
330
C
102
}
330
C
100
AcDbDictionary
281
     1
  0
ACDBDICTIONARYWDFLT
  5
E
102
{ACAD_REACTORS
330
C
102
}
330
C
100
AcDbDictionary
281
     1
  3
Normal
350
F
100
AcDbDictionaryWithDefault
340
F
  0
DICTIONARY
  5
1D
102
{ACAD_REACTORS
330
C
102
}
330
C
100
AcDbDictionary
281
     1
  3
Standard
350
1E
  0
DICTIONARY
  5
B6B
102
{ACAD_REACTORS
330
C
102
}
330
C
100
AcDbDictionary
281
     1
  0
DICTIONARY
  5
B56
102
{ACAD_REACTORS
330
C
102
}
330
C
100
AcDbDictionary
281
     1
  3
CTABLESTYLE
350
B57
  3
DIMASSOC
350
B68
  3
HIDETEXT
350
B67
  3
PROJECTNAME
350
B69
  0
DICTIONARY
  5
B53
102
{ACAD_REACTORS
330
C
102
}
330
C
100
AcDbDictionary
281
     1
  3
ASEBlockHierarchyIndexRecord
350
B54
1001
DCO15
1040
1651924049.562
  0
LAYOUT
  5
22
102
{ACAD_XDICTIONARY
360
B6C
102
}
102
{ACAD_REACTORS
330
1A
102
}
330
1A
100
AcDbPlotSettings
  1

  2
C:\Documents and Settings\Julio\Application Data\Autodesk\AutoCAD 2006\R16.2\enu\plotters\Default Windows System Printer.pc3
  4

  6

 40
0.0
 41
0.0
 42
0.0
 43
0.0
 44
0.0
 45
0.0
 46
0.0
 47
0.0
 48
0.0
 49
0.0
140
0.0
141
0.0
142
1.0
143
1.0
 70
   688
 72
     0
 73
     0
 74
     5
  7

 75
    16
147
1.0
148
0.0
149
0.0
100
AcDbLayout
  1
Layout1
 70
     1
 71
     1
 10
0.0
 20
0.0
 11
420.0
 21
297.0
 12
0.0
 22
0.0
 32
0.0
 14
1.000000000000000E+20
 24
1.000000000000000E+20
 34
1.000000000000000E+20
 15
-1.000000000000000E+20
 25
-1.000000000000000E+20
 35
-1.000000000000000E+20
146
0.0
 13
0.0
 23
0.0
 33
0.0
 16
1.0
 26
0.0
 36
0.0
 17
0.0
 27
1.0
 37
0.0
 76
     0
330
1F
  0
LAYOUT
  5
2A
102
{ACAD_XDICTIONARY
360
B70
102
}
102
{ACAD_REACTORS
330
1A
102
}
330
1A
100
AcDbPlotSettings
  1

  2
C:\Documents and Settings\Julio\Application Data\Autodesk\AutoCAD 2006\R16.2\enu\plotters\Default Windows System Printer.pc3
  4

  6

 40
0.0
 41
0.0
 42
0.0
 43
0.0
 44
0.0
 45
0.0
 46
0.0
 47
0.0
 48
0.0
 49
0.0
140
0.0
141
0.0
142
1.0
143
1.0
 70
   688
 72
     0
 73
     0
 74
     5
  7

 75
    16
147
1.0
148
0.0
149
0.0
100
AcDbLayout
  1
Layout2
 70
     1
 71
     2
 10
0.0
 20
0.0
 11
12.0
 21
9.0
 12
0.0
 22
0.0
 32
0.0
 14
0.0
 24
0.0
 34
0.0
 15
0.0
 25
0.0
 35
0.0
146
0.0
 13
0.0
 23
0.0
 33
0.0
 16
1.0
 26
0.0
 36
0.0
 17
0.0
 27
1.0
 37
0.0
 76
     0
330
27
  0
LAYOUT
  5
26
102
{ACAD_XDICTIONARY
360
B6E
102
}
102
{ACAD_REACTORS
330
1A
102
}
330
1A
100
AcDbPlotSettings
  1

  2
C:\Documents and Settings\Julio\Application Data\Autodesk\AutoCAD 2006\R16.2\enu\plotters\Default Windows System Printer.pc3
  4

  6

 40
0.0
 41
0.0
 42
0.0
 43
0.0
 44
0.0
 45
0.0
 46
0.0
 47
0.0
 48
0.0
 49
0.0
140
0.0
141
0.0
142
1.0
143
1.0
 70
  1712
 72
     0
 73
     0
 74
     0
  7

 75
     0
147
1.0
148
0.0
149
0.0
100
AcDbLayout
  1
Model
 70
     1
 71
     0
 10
0.0
 20
0.0
 11
12.0
 21
9.0
 12
0.0
 22
0.0
 32
0.0
 14
0.0
 24
0.0
 34
0.0
 15
0.0
 25
0.0
 35
0.0
146
0.0
 13
0.0
 23
0.0
 33
0.0
 16
1.0
 26
0.0
 36
0.0
 17
0.0
 27
1.0
 37
0.0
 76
     0
330
23
  0
MLINESTYLE
  5
18
102
{ACAD_REACTORS
330
17
102
}
330
17
100
AcDbMlineStyle
  2
STANDARD
 70
     0
  3

 62
   256
 51
90.0
 52
90.0
 71
     2
 49
0.5
 62
   256
  6
BYLAYER
 49
-0.5
 62
   256
  6
BYLAYER
  0
ACDBPLACEHOLDER
  5
F
102
{ACAD_REACTORS
330
E
102
}
330
E
  0
TABLESTYLE
  5
1E
102
{ACAD_REACTORS
330
1D
102
}
330
1D
100
AcDbTableStyle
  3
Standard
 70
     0
 71
     0
 40
1.5
 41
1.5
280
     0
281
     0
  7
Standard
140
4.5
170
     2
 62
     0
 63
     7
283
     0
274
    -2
284
     1
 64
     0
275
    -2
285
     1
 65
     0
276
    -2
286
     1
 66
     0
277
    -2
287
     1
 67
     0
278
    -2
288
     1
 68
     0
279
    -2
289
     1
 69
     0
  7
Standard
140
6.0
170
     5
 62
     0
 63
     7
283
     0
274
    -2
284
     1
 64
     0
275
    -2
285
     1
 65
     0
276
    -2
286
     1
 66
     0
277
    -2
287
     1
 67
     0
278
    -2
288
     1
 68
     0
279
    -2
289
     1
 69
     0
  7
Standard
140
4.5
170
     5
 62
     0
 63
     7
283
     0
274
    -2
284
     1
 64
     0
275
    -2
285
     1
 65
     0
276
    -2
286
     1
 66
     0
277
    -2
287
     1
 67
     0
278
    -2
288
     1
 68
     0
279
    -2
289
     1
 69
     0
  0
DICTIONARYVAR
  5
B57
102
{ACAD_REACTORS
330
B56
102
}
330
B56
100
DictionaryVariables
280
     0
  1
STANDARD
  0
DICTIONARYVAR
  5
B68
102
{ACAD_REACTORS
330
B56
102
}
330
B56
100
DictionaryVariables
280
     0
  1
2
  0
DICTIONARYVAR
  5
B67
102
{ACAD_REACTORS
330
B56
102
}
330
B56
100
DictionaryVariables
280
     0
  1
1
  0
DICTIONARYVAR
  5
B69
102
{ACAD_REACTORS
330
B56
102
}
330
B56
100
DictionaryVariables
280
     0
  1

  0
XRECORD
  5
B54
102
{ACAD_REACTORS
330
B53
102
}
330
B53
100
AcDbXrecord
280
     1
  0
DICTIONARY
  5
B6C
330
22
100
AcDbDictionary
280
     1
281
     1
  3
ACAD_XREC_ROUNDTRIP
360
B6D
  0
DICTIONARY
  5
B70
330
2A
100
AcDbDictionary
280
     1
281
     1
  3
ACAD_XREC_ROUNDTRIP
360
B71
  0
DICTIONARY
  5
B6E
330
26
100
AcDbDictionary
280
     1
281
     1
  3
ACAD_XREC_ROUNDTRIP
360
B6F
  0
XRECORD
  5
B6D
102
{ACAD_REACTORS
330
B6C
102
}
330
B6C
100
AcDbXrecord
280
     1
102
SHADEPLOT
 70
     0
102
SHADEPLOTRESLEVEL
 70
     2
102
SHADEPLOTCUSTOMDPI
 70
   300
  0
XRECORD
  5
B71
102
{ACAD_REACTORS
330
B70
102
}
330
B70
100
AcDbXrecord
280
     1
102
SHADEPLOT
 70
     0
102
SHADEPLOTRESLEVEL
 70
     2
102
SHADEPLOTCUSTOMDPI
 70
   300
  0
XRECORD
  5
B6F
102
{ACAD_REACTORS
330
B6E
102
}
330
B6E
100
AcDbXrecord
280
     1
102
SHADEPLOT
 70
     0
102
SHADEPLOTRESLEVEL
 70
     2
102
SHADEPLOTCUSTOMDPI
 70
   300
  0
ENDSEC
  0
EOF
