  0
SECTION
  2
HEADER
  9
$ACADVER
  1
AC1015
  9
$ACADMAINTVER
 70
    20
  9
$DWGCODEPAGE
  3
ANSI_1252
  9
$INSBASE
 10
0.0
 20
0.0
 30
0.0
  9
$EXTMIN
 10
1462.593956648322
 20
1673.448736474442
 30
0.0
  9
$EXTMAX
 10
1467.615810969308
 20
1674.152925690025
 30
0.0
  9
$LIMMIN
 10
0.0
 20
0.0
  9
$LIMMAX
 10
420.0
 20
297.0
  9
$ORTHOMODE
 70
     1
  9
$REGENMODE
 70
     1
  9
$FILLMODE
 70
     1
  9
$QTEXTMODE
 70
     0
  9
$MIRRTEXT
 70
     1
  9
$LTSCALE
 40
1.0
  9
$ATTMODE
 70
     1
  9
$TEXTSIZE
 40
2.5
  9
$TRACEWID
 40
1.0
  9
$TEXTSTYLE
  7
SANINDUSA
  9
$CLAYER
  8
cotas
  9
$CELTYPE
  6
ByLayer
  9
$CECOLOR
 62
   256
  9
$CELTSCALE
 40
1.0
  9
$DISPSILH
 70
     0
  9
$DIMSCALE
 40
1.0
  9
$DIMASZ
 40
2.0
  9
$DIMEXO
 40
1.0
  9
$DIMDLI
 40
1.0
  9
$DIMRND
 40
0.0
  9
$DIMDLE
 40
0.0
  9
$DIMEXE
 40
1.0
  9
$DIMTP
 40
0.0
  9
$DIMTM
 40
0.0
  9
$DIMTXT
 40
2.0
  9
$DIMCEN
 40
0.0
  9
$DIMTSZ
 40
0.0
  9
$DIMTOL
 70
     0
  9
$DIMLIM
 70
     0
  9
$DIMTIH
 70
     0
  9
$DIMTOH
 70
     0
  9
$DIMSE1
 70
     0
  9
$DIMSE2
 70
     0
  9
$DIMTAD
 70
     1
  9
$DIMZIN
 70
     8
  9
$DIMBLK
  1

  9
$DIMASO
 70
     1
  9
$DIMSHO
 70
     1
  9
$DIMPOST
  1

  9
$DIMAPOST
  1

  9
$DIMALT
 70
     0
  9
$DIMALTD
 70
     3
  9
$DIMALTF
 40
0.03937007874016
  9
$DIMLFAC
 40
1.0
  9
$DIMTOFL
 70
     1
  9
$DIMTVP
 40
0.0
  9
$DIMTIX
 70
     0
  9
$DIMSOXD
 70
     0
  9
$DIMSAH
 70
     0
  9
$DIMBLK1
  1

  9
$DIMBLK2
  1

  9
$DIMSTYLE
  2
SANINDUSA
  9
$DIMCLRD
 70
   256
  9
$DIMCLRE
 70
   256
  9
$DIMCLRT
 70
   256
  9
$DIMTFAC
 40
1.0
  9
$DIMGAP
 40
1.0
  9
$DIMJUST
 70
     0
  9
$DIMSD1
 70
     0
  9
$DIMSD2
 70
     0
  9
$DIMTOLJ
 70
     0
  9
$DIMTZIN
 70
     8
  9
$DIMALTZ
 70
     0
  9
$DIMALTTZ
 70
     0
  9
$DIMUPT
 70
     0
  9
$DIMDEC
 70
     1
  9
$DIMTDEC
 70
     1
  9
$DIMALTU
 70
     2
  9
$DIMALTTD
 70
     3
  9
$DIMTXSTY
  7
SANINDUSA
  9
$DIMAUNIT
 70
     0
  9
$DIMADEC
 70
     1
  9
$DIMALTRND
 40
0.0
  9
$DIMAZIN
 70
     0
  9
$DIMDSEP
 70
    44
  9
$DIMATFIT
 70
     3
  9
$DIMFRAC
 70
     0
  9
$DIMLDRBLK
  1

  9
$DIMLUNIT
 70
     2
  9
$DIMLWD
 70
    -1
  9
$DIMLWE
 70
    -1
  9
$DIMTMOVE
 70
     0
  9
$LUNITS
 70
     2
  9
$LUPREC
 70
     4
  9
$SKETCHINC
 40
1.0
  9
$FILLETRAD
 40
0.0
  9
$AUNITS
 70
     0
  9
$AUPREC
 70
     0
  9
$MENU
  1
.
  9
$ELEVATION
 40
0.0
  9
$PELEVATION
 40
0.0
  9
$THICKNESS
 40
0.0
  9
$LIMCHECK
 70
     0
  9
$CHAMFERA
 40
10.0
  9
$CHAMFERB
 40
10.0
  9
$CHAMFERC
 40
20.0
  9
$CHAMFERD
 40
0.0
  9
$SKPOLY
 70
     0
  9
$TDCREATE
 40
2453481.647305220
  9
$TDUCREATE
 40
2453481.605638553
  9
$TDUPDATE
 40
2456142.683578554
  9
$TDUUPDATE
 40
2456142.641911887
  9
$TDINDWG
 40
0.0067475231
  9
$TDUSRTIMER
 40
0.0067475231
  9
$USRTIMER
 70
     1
  9
$ANGBASE
 50
0.0
  9
$ANGDIR
 70
     0
  9
$PDMODE
 70
     0
  9
$PDSIZE
 40
0.0
  9
$PLINEWID
 40
0.0
  9
$SPLFRAME
 70
     0
  9
$SPLINETYPE
 70
     6
  9
$SPLINESEGS
 70
     8
  9
$HANDSEED
  5
1FE7
  9
$SURFTAB1
 70
     6
  9
$SURFTAB2
 70
     6
  9
$SURFTYPE
 70
     6
  9
$SURFU
 70
     6
  9
$SURFV
 70
     6
  9
$UCSBASE
  2

  9
$UCSNAME
  2

  9
$UCSORG
 10
0.0
 20
0.0
 30
0.0
  9
$UCSXDIR
 10
1.0
 20
0.0
 30
0.0
  9
$UCSYDIR
 10
0.0
 20
1.0
 30
0.0
  9
$UCSORTHOREF
  2

  9
$UCSORTHOVIEW
 70
     0
  9
$UCSORGTOP
 10
0.0
 20
0.0
 30
0.0
  9
$UCSORGBOTTOM
 10
0.0
 20
0.0
 30
0.0
  9
$UCSORGLEFT
 10
0.0
 20
0.0
 30
0.0
  9
$UCSORGRIGHT
 10
0.0
 20
0.0
 30
0.0
  9
$UCSORGFRONT
 10
0.0
 20
0.0
 30
0.0
  9
$UCSORGBACK
 10
0.0
 20
0.0
 30
0.0
  9
$PUCSBASE
  2

  9
$PUCSNAME
  2

  9
$PUCSORG
 10
0.0
 20
0.0
 30
0.0
  9
$PUCSXDIR
 10
1.0
 20
0.0
 30
0.0
  9
$PUCSYDIR
 10
0.0
 20
1.0
 30
0.0
  9
$PUCSORTHOREF
  2

  9
$PUCSORTHOVIEW
 70
     0
  9
$PUCSORGTOP
 10
0.0
 20
0.0
 30
0.0
  9
$PUCSORGBOTTOM
 10
0.0
 20
0.0
 30
0.0
  9
$PUCSORGLEFT
 10
0.0
 20
0.0
 30
0.0
  9
$PUCSORGRIGHT
 10
0.0
 20
0.0
 30
0.0
  9
$PUCSORGFRONT
 10
0.0
 20
0.0
 30
0.0
  9
$PUCSORGBACK
 10
0.0
 20
0.0
 30
0.0
  9
$USERI1
 70
     0
  9
$USERI2
 70
     0
  9
$USERI3
 70
     0
  9
$USERI4
 70
     0
  9
$USERI5
 70
     0
  9
$USERR1
 40
0.0
  9
$USERR2
 40
0.0
  9
$USERR3
 40
0.0
  9
$USERR4
 40
0.0
  9
$USERR5
 40
0.0
  9
$WORLDVIEW
 70
     1
  9
$SHADEDGE
 70
     3
  9
$SHADEDIF
 70
    70
  9
$TILEMODE
 70
     1
  9
$MAXACTVP
 70
    64
  9
$PINSBASE
 10
0.0
 20
0.0
 30
0.0
  9
$PLIMCHECK
 70
     0
  9
$PEXTMIN
 10
1.000000000000000E+20
 20
1.000000000000000E+20
 30
1.000000000000000E+20
  9
$PEXTMAX
 10
-1.000000000000000E+20
 20
-1.000000000000000E+20
 30
-1.000000000000000E+20
  9
$PLIMMIN
 10
0.0
 20
0.0
  9
$PLIMMAX
 10
420.0
 20
297.0
  9
$UNITMODE
 70
     0
  9
$VISRETAIN
 70
     1
  9
$PLINEGEN
 70
     0
  9
$PSLTSCALE
 70
     1
  9
$TREEDEPTH
 70
  3020
  9
$CMLSTYLE
  2
Standard
  9
$CMLJUST
 70
     0
  9
$CMLSCALE
 40
20.0
  9
$PROXYGRAPHICS
 70
     1
  9
$MEASUREMENT
 70
     1
  9
$CELWEIGHT
370
    -1
  9
$ENDCAPS
280
     0
  9
$JOINSTYLE
280
     0
  9
$LWDISPLAY
290
     0
  9
$INSUNITS
 70
     4
  9
$HYPERLINKBASE
  1

  9
$STYLESHEET
  1
monochrome.ctb
  9
$XEDIT
290
     1
  9
$CEPSNTYPE
380
     0
  9
$PSTYLEMODE
290
     1
  9
$FINGERPRINTGUID
  2
{B98A73AA-52AA-4C10-B469-C0E7150AC31F}
  9
$VERSIONGUID
  2
{C6B361FB-4CF0-4685-BEC4-F95E7FD4E01C}
  9
$EXTNAMES
290
     1
  9
$PSVPSCALE
 40
0.0
  9
$OLESTARTUP
290
     0
  0
ENDSEC
  0
SECTION
  2
CLASSES
  0
CLASS
  1
ACDBDICTIONARYWDFLT
  2
AcDbDictionaryWithDefault
  3
ObjectDBX Classes
 90
        0
280
     0
281
     0
  0
CLASS
  1
ACDBPLACEHOLDER
  2
AcDbPlaceHolder
  3
ObjectDBX Classes
 90
        0
280
     0
281
     0
  0
CLASS
  1
LAYOUT
  2
AcDbLayout
  3
ObjectDBX Classes
 90
        0
280
     0
281
     0
  0
CLASS
  1
DICTIONARYVAR
  2
AcDbDictionaryVar
  3
ObjectDBX Classes
 90
        0
280
     0
281
     0
  0
CLASS
  1
DIMASSOC
  2
AcDbDimAssoc
  3
"AcDbDimAssoc|Product Desc:     AcDim ARX App For Dimension|Company:          Autodesk, Inc.|WEB Address:      www.autodesk.com"
 90
    32768
280
     0
281
     0
  0
CLASS
  1
MATERIAL
  2
AcDbMaterial
  3
ObjectDBX Classes
 90
     1153
280
     0
281
     0
  0
CLASS
  1
VISUALSTYLE
  2
AcDbVisualStyle
  3
ObjectDBX Classes
 90
     4095
280
     0
281
     0
  0
CLASS
  1
TABLESTYLE
  2
AcDbTableStyle
  3
ObjectDBX Classes
 90
     4095
280
     0
281
     0
  0
CLASS
  1
SCALE
  2
AcDbScale
  3
ObjectDBX Classes
 90
     1153
280
     0
281
     0
  0
CLASS
  1
MLEADERSTYLE
  2
AcDbMLeaderStyle
  3
ACDB_MLEADERSTYLE_CLASS
 90
     4095
280
     0
281
     0
  0
CLASS
  1
CELLSTYLEMAP
  2
AcDbCellStyleMap
  3
ObjectDBX Classes
 90
     1152
280
     0
281
     0
  0
ENDSEC
  0
SECTION
  2
TABLES
  0
TABLE
  2
VPORT
  5
8
330
0
100
AcDbSymbolTable
 70
     1
  0
VPORT
  5
1F35
330
8
100
AcDbSymbolTableRecord
100
AcDbViewportTableRecord
  2
*Active
 70
     0
 10
0.0
 20
0.0
 11
1.0
 21
1.0
 12
1465.324331214899
 22
1673.825316385178
 13
0.0
 23
0.0
 14
10.0
 24
10.0
 15
10.0
 25
10.0
 16
0.0
 26
0.0
 36
1.0
 17
0.0
 27
0.0
 37
0.0
 40
3.623415894312998
 41
1.645464025026068
 42
50.0
 43
0.0
 44
0.0
 50
0.0
 51
0.0
 71
     0
 72
   100
 73
     1
 74
     2
 75
     0
 76
     0
 77
     0
 78
     0
281
     0
 65
     1
110
0.0
120
0.0
130
0.0
111
1.0
121
0.0
131
0.0
112
0.0
122
1.0
132
0.0
 79
     0
146
0.0
  0
ENDTAB
  0
TABLE
  2
LTYPE
  5
5
330
0
100
AcDbSymbolTable
 70
     3
  0
LTYPE
  5
14
330
5
100
AcDbSymbolTableRecord
100
AcDbLinetypeTableRecord
  2
ByBlock
 70
     0
  3

 72
    65
 73
     0
 40
0.0
  0
LTYPE
  5
15
330
5
100
AcDbSymbolTableRecord
100
AcDbLinetypeTableRecord
  2
ByLayer
 70
     0
  3

 72
    65
 73
     0
 40
0.0
  0
LTYPE
  5
16
330
5
100
AcDbSymbolTableRecord
100
AcDbLinetypeTableRecord
  2
Continuous
 70
     0
  3
Solid line
 72
    65
 73
     0
 40
0.0
  0
LTYPE
  5
2D
330
5
100
AcDbSymbolTableRecord
100
AcDbLinetypeTableRecord
  2
DASHDOT
 70
     0
  3
Dash dot __ . __ . __ . __ . __ . __ . __ . __
 72
    65
 73
     4
 40
25.4
 49
12.7
 74
     0
 49
-6.349999999999999
 74
     0
 49
0.0
 74
     0
 49
-6.349999999999999
 74
     0
  0
LTYPE
  5
2E
330
5
100
AcDbSymbolTableRecord
100
AcDbLinetypeTableRecord
  2
HIDDEN
 70
     0
  3
Hidden __ __ __ __ __ __ __ __ __ __ __ __ __ _
 72
    65
 73
     2
 40
9.524999999999998
 49
6.349999999999999
 74
     0
 49
-3.174999999999999
 74
     0
  0
ENDTAB
  0
TABLE
  2
LAYER
  5
2
330
0
100
AcDbSymbolTable
 70
    17
  0
LAYER
  5
10
102
{ACAD_XDICTIONARY
360
1F80
102
}
330
2
100
AcDbSymbolTableRecord
100
AcDbLayerTableRecord
  2
0
 70
     0
 62
     7
  6
Continuous
370
    -3
390
F
  0
LAYER
  5
2F
102
{ACAD_XDICTIONARY
360
1F82
102
}
330
2
100
AcDbSymbolTableRecord
100
AcDbLayerTableRecord
  2
1
 70
     0
 62
     1
  6
Continuous
370
    -3
390
F
  0
LAYER
  5
30
102
{ACAD_XDICTIONARY
360
1F84
102
}
330
2
100
AcDbSymbolTableRecord
100
AcDbLayerTableRecord
  2
2
 70
     0
 62
     2
  6
Continuous
370
    -3
390
F
  0
LAYER
  5
31
102
{ACAD_XDICTIONARY
360
1F86
102
}
330
2
100
AcDbSymbolTableRecord
100
AcDbLayerTableRecord
  2
3
 70
     0
 62
     3
  6
Continuous
370
    -3
390
F
  0
LAYER
  5
32
102
{ACAD_XDICTIONARY
360
1F88
102
}
330
2
100
AcDbSymbolTableRecord
100
AcDbLayerTableRecord
  2
4
 70
     0
 62
     4
  6
Continuous
370
    -3
390
F
  0
LAYER
  5
33
102
{ACAD_XDICTIONARY
360
1F8A
102
}
330
2
100
AcDbSymbolTableRecord
100
AcDbLayerTableRecord
  2
5
 70
     0
 62
     5
  6
Continuous
370
    -3
390
F
  0
LAYER
  5
34
102
{ACAD_XDICTIONARY
360
1F8C
102
}
330
2
100
AcDbSymbolTableRecord
100
AcDbLayerTableRecord
  2
6
 70
     0
 62
     6
  6
Continuous
370
    -3
390
F
  0
LAYER
  5
35
102
{ACAD_XDICTIONARY
360
1F8E
102
}
330
2
100
AcDbSymbolTableRecord
100
AcDbLayerTableRecord
  2
7
 70
     0
 62
     7
  6
Continuous
370
    -3
390
F
  0
LAYER
  5
36
102
{ACAD_XDICTIONARY
360
1F90
102
}
330
2
100
AcDbSymbolTableRecord
100
AcDbLayerTableRecord
  2
cen
 70
     0
 62
     7
  6
DASHDOT
370
    -3
390
F
  0
LAYER
  5
37
102
{ACAD_XDICTIONARY
360
1F92
102
}
330
2
100
AcDbSymbolTableRecord
100
AcDbLayerTableRecord
  2
hid
 70
     0
 62
     7
  6
HIDDEN
370
    -3
390
F
  0
LAYER
  5
5D6
102
{ACAD_XDICTIONARY
360
1F94
102
}
330
2
100
AcDbSymbolTableRecord
100
AcDbLayerTableRecord
  2
hatch
 70
     0
 62
     9
  6
Continuous
370
    -3
390
F
  0
LAYER
  5
8AF
102
{ACAD_XDICTIONARY
360
1F96
102
}
330
2
100
AcDbSymbolTableRecord
100
AcDbLayerTableRecord
  2
9
 70
     0
 62
     9
  6
Continuous
370
    -3
390
F
  0
LAYER
  5
8F8
102
{ACAD_XDICTIONARY
360
1F98
102
}
330
2
100
AcDbSymbolTableRecord
100
AcDbLayerTableRecord
  2
leg fin
 70
     0
 62
     9
  6
Continuous
370
    -3
390
F
  0
LAYER
  5
91D
102
{ACAD_XDICTIONARY
360
1F9A
102
}
330
2
100
AcDbSymbolTableRecord
100
AcDbLayerTableRecord
  2
cotas
 70
     0
 62
     1
  6
Continuous
370
    -3
390
F
  0
LAYER
  5
92F
330
2
100
AcDbSymbolTableRecord
100
AcDbLayerTableRecord
  2
Defpoints
 70
     0
 62
     7
  6
Continuous
290
     0
370
    -3
390
F
  0
LAYER
  5
D86
102
{ACAD_XDICTIONARY
360
1F9C
102
}
330
2
100
AcDbSymbolTableRecord
100
AcDbLayerTableRecord
  2
indusa
 70
     0
 62
     3
  6
Continuous
370
    -3
390
F
  0
LAYER
  5
1F33
102
{ACAD_XDICTIONARY
360
1F9E
102
}
330
2
100
AcDbSymbolTableRecord
100
AcDbLayerTableRecord
  2
SANINDUSA
 70
     0
 62
     3
  6
Continuous
370
    -3
390
F
  0
ENDTAB
  0
TABLE
  2
STYLE
  5
3
330
0
100
AcDbSymbolTable
 70
     3
  0
STYLE
  5
11
330
3
100
AcDbSymbolTableRecord
100
AcDbTextStyleTableRecord
  2
Standard
 70
     0
 40
0.0
 41
1.0
 50
0.0
 71
     0
 42
2.5
  3
Avgardn.ttf
  4

1001
ACAD
1000
AvantGarde Bk BT
1071
       34
  0
STYLE
  5
2C
330
3
100
AcDbSymbolTableRecord
100
AcDbTextStyleTableRecord
  2

 70
     1
 40
0.0
 41
1.0
 50
0.0
 71
     0
 42
2.5
  3
ltypeshp.shx
  4

  0
STYLE
  5
91F
330
3
100
AcDbSymbolTableRecord
100
AcDbTextStyleTableRecord
  2
SANINDUSA
 70
     0
 40
0.0
 41
1.0
 50
0.0
 71
     0
 42
2.5
  3
verdana.TTF
  4

1001
ACAD
1000
Verdana
1071
       34
  0
ENDTAB
  0
TABLE
  2
VIEW
  5
6
330
0
100
AcDbSymbolTable
 70
     0
  0
ENDTAB
  0
TABLE
  2
UCS
  5
7
330
0
100
AcDbSymbolTable
 70
     0
  0
ENDTAB
  0
TABLE
  2
APPID
  5
9
330
0
100
AcDbSymbolTable
 70
     3
  0
APPID
  5
12
330
9
100
AcDbSymbolTableRecord
100
AcDbRegAppTableRecord
  2
ACAD
 70
     0
  0
APPID
  5
3A
330
9
100
AcDbSymbolTableRecord
100
AcDbRegAppTableRecord
  2
DCO15
 70
     0
  0
APPID
  5
1FE6
330
9
100
AcDbSymbolTableRecord
100
AcDbRegAppTableRecord
  2
ACAD_MLEADERVER
 70
     0
  0
ENDTAB
  0
TABLE
  2
DIMSTYLE
  5
A
330
0
100
AcDbSymbolTable
 70
     2
100
AcDbDimStyleTable
 71
     1
340
921
  0
DIMSTYLE
105
45
330
A
100
AcDbSymbolTableRecord
100
AcDbDimStyleTableRecord
  2
STANDARD
 70
     0
289
     0
340
11
  0
DIMSTYLE
105
921
330
A
100
AcDbSymbolTableRecord
100
AcDbDimStyleTableRecord
  2
SANINDUSA
 70
     0
 41
2.0
 42
1.0
 43
1.0
 44
1.0
 73
     0
 74
     0
 77
     1
 78
     8
140
2.0
141
0.0
143
0.03937007874016
147
1.0
171
     3
172
     1
176
   256
177
   256
178
   256
179
     1
271
     1
272
     1
274
     3
278
    44
283
     0
284
     8
340
91F
371
    -1
372
    -1
  0
ENDTAB
  0
TABLE
  2
BLOCK_RECORD
  5
1
330
0
100
AcDbSymbolTable
 70
    84
  0
BLOCK_RECORD
  5
1F
330
1
100
AcDbSymbolTableRecord
100
AcDbBlockTableRecord
  2
*Model_Space
340
22
  0
BLOCK_RECORD
  5
1B
330
1
100
AcDbSymbolTableRecord
100
AcDbBlockTableRecord
  2
*Paper_Space
340
1E
  0
BLOCK_RECORD
  5
23
330
1
100
AcDbSymbolTableRecord
100
AcDbBlockTableRecord
  2
*Paper_Space0
340
26
  0
BLOCK_RECORD
  5
919
330
1
100
AcDbSymbolTableRecord
100
AcDbBlockTableRecord
  2
_DotSmall
340
0
  0
BLOCK_RECORD
  5
922
330
1
100
AcDbSymbolTableRecord
100
AcDbBlockTableRecord
  2
base para cotas
340
0
310
2800000020000000200000000100080000000000000400000000000000000000000000000000000000000000000080000080000000808000800000008000800080800000C0C0C000C0DCC000F0CAA6000020400000206000002080000020A0000020C0000020E00000400000004020000040400000406000004080000040A0
310
000040C0000040E00000600000006020000060400000606000006080000060A0000060C0000060E00000800000008020000080400000806000008080000080A0000080C0000080E00000A0000000A0200000A0400000A0600000A0800000A0A00000A0C00000A0E00000C0000000C0200000C0400000C0600000C0800000C0
310
A00000C0C00000C0E00000E0000000E0200000E0400000E0600000E0800000E0A00000E0C00000E0E00040000000400020004000400040006000400080004000A0004000C0004000E00040200000402020004020400040206000402080004020A0004020C0004020E000404000004040200040404000404060004040800040
310
40A0004040C0004040E00040600000406020004060400040606000406080004060A0004060C0004060E00040800000408020004080400040806000408080004080A0004080C0004080E00040A0000040A0200040A0400040A0600040A0800040A0A00040A0C00040A0E00040C0000040C0200040C0400040C0600040C08000
310
40C0A00040C0C00040C0E00040E0000040E0200040E0400040E0600040E0800040E0A00040E0C00040E0E00080000000800020008000400080006000800080008000A0008000C0008000E00080200000802020008020400080206000802080008020A0008020C0008020E00080400000804020008040400080406000804080
310
008040A0008040C0008040E00080600000806020008060400080606000806080008060A0008060C0008060E00080800000808020008080400080806000808080008080A0008080C0008080E00080A0000080A0200080A0400080A0600080A0800080A0A00080A0C00080A0E00080C0000080C0200080C0400080C0600080C0
310
800080C0A00080C0C00080C0E00080E0000080E0200080E0400080E0600080E0800080E0A00080E0C00080E0E000C0000000C0002000C0004000C0006000C0008000C000A000C000C000C000E000C0200000C0202000C0204000C0206000C0208000C020A000C020C000C020E000C0400000C0402000C0404000C0406000C0
310
408000C040A000C040C000C040E000C0600000C0602000C0604000C0606000C0608000C060A000C060C000C060E000C0800000C0802000C0804000C0806000C0808000C080A000C080C000C080E000C0A00000C0A02000C0A04000C0A06000C0A08000C0A0A000C0A0C000C0A0E000C0C00000C0C02000C0C04000C0C06000
310
C0C08000C0C0A000F0FBFF00A4A0A000808080000000FF0000FF000000FFFF00FF000000FF00FF00FFFF0000FFFFFF00A4A4A4A4A4A4A4A4A4A4A4A4A4A4A4A4A4A4A4A4A4A4A4A4A4A4A4A4A4A4A4A4A4A4A4A4A4A4A4A4A4A4A4A4A4A4A4A4A4A4A4A4A4A4A4A4A4A4A4A4A4A4A4A4A4A4A4A4A4A4A4A4A4A4A4A4A4A4A4
310
A4A4A4A4A4A4A4A4A4A4A4A4A4A4A4A4A4A4A4A4A4A4A4A4A4A4A4A4A4A4A4A4A4A4A4A4A4A4A4A4A4A4A4A4A4A4A4A4A4A4A4A4A4A4A4A4A4A4A4A4A4A4A4A4A4A4A4A4A4A4A4A4A4A4A4A4A4A4A4A4A4A4A4A4A4A4A4A4A4A4A4A4A4A4A4A4A4A4A4A4A4A4A4A4A4A4A4A4A4A4A4A4A4A4A4A4A4A4A4A4A4A4A4A4A4A4A4
310
A4A4A4A4A4A4A4A4A4A4A4A4A4A4A4A4A4A4A4A4A4A4A4A4A4A4A4A4A4A4A4A4A4A4A4A4A4A4A4A4A4A4A4A4A4A4A4A4A4A4A4A4A4A4A4A4A4A4A4A4A4A4A4A4A4A4A4A4A4A4A4A4A4A4A4A4A4A4A4A4A4A4A4A4A4A4A4A4A4A4A4A4A4A4A4A4A4A4A4A4A4A4A4A4A4A4A4A4A4A4A4A4A4A4A4A4A4A4A4A4A4A4A4A4A4A4A4
310
A4A4A4A4A4A4A4A4A4A4A4A4A4A4A4A4A4A4A4A4A4A4A4A4A4A4A4A4A4A4A4A4A4A4A4A4A4A4A4A4A4A4A4A4A4A4A4A4A4A4A4A4A4A4A4A4A4A4A4A4A4A4A4A4A4A4A4A4A4A4A4A4A4A4A4A4A4A4A4A4A4A4A4A4A4A4A4A4A4A4A4A4A4A4A4A4A4A4A4A4A4A4A4A4A4A4A4A4A4A4A4A4A4A4A4A4F9F9F9F9F9F9F9F9F9F9F9
310
F9F9F9F9F9F9F9F9F9F9F9F9F9F9F9F9F9F9F9A4A4F9F9F9F9F9F9F9F9F9F9F9F9F9F9F9F9F9F9F9F9F9F9F9F9F9F9F9F9F9F9A4A4F9F9F9F9F9F9F9F9F9F9F9F9F9F9F9F9F9F9F9F9F9F9F9F9F9F9F9F9F9F9A4A4F9A4A4A4A4A4A4A4A4A4A4A4A4A4A4A4A4A4A4A4A4A4A4A4A4A4A4A4A4F9A4A4A4A4A4A4A4A4A4A4A4A4
310
A4A4A4A4A4A4A4A4A4A4A4A4A4A4A4A4A4A4A4A4A4A4A4A4A4A4A4A4A4A4A4A4A4A4A4A4A4A4A4A4A4A4A4A4A4A4A4A4A4A4A4A4A4A4A4A4A4A4A4A4A4A4A4A4A4A4A4A4A4A4A4A4A4A4A4A4A4A4A4A4A4A4A4A4A4A4A4A4A4A4A4A4A4A4A4A4A4A4A4A4A4A4A4A4A4A4A4A4A4A4A4A4A4A4A4A4A4A4A4A4A4A4A4A4A4A4A4
310
A4A4A4A4A4A4A4A4A4A4A4A4A4A4A4A4A4A4A4A4A4A4A4A4A4A4A4A4A4A4A4A4A4A4A4A4A4A4A4A4A4A4A4A4A4A4A4A4A4A4A4A4A4A4A4A4A4A4A4A4A4A4A4A4A4A4A4A4A4A4A4A4A4A4A4A4A4A4A4A4A4A4A4A4A4A4A4A4A4A4A4A4A4A4A4A4A4A4A4A4A4A4A4A4A4A4A4A4A4A4A4A4A4A4A4A4A4A4A4A4A4A4A4A4A4A4A4
310
A4A4A4A4A4A4A4A4A4A4A4A4A4A4A4A4A4A4A4A4A4A4A4A4A4A4A4A4A4A4A4A4A4A4A4A4A4A4A4A4A4A4A4A4A4A4A4A4A4A4A4A4A4A4A4A4A4A4A4A4A4A4A4A4A4A4A4A4A4A4A4A4A4A4A4A4A4A4A4A4A4A4A4A4A4A4A4A4A4A4A4A4A4A4A4A4A4A4A4A4A4A4A4A4A4A4A4A4A4A4A4A4A4A4A4A4A4A4A4A4A4A4A4A4A4A4A4
310
A4A4A4A4A4A4A4A4A4A4A4A4A4A4A4A4A4A4A4A4A4A4A4A4A4A4A4A4A4A4A4A4A4A4A4A4A4A4A4A4A4A4A4A4A4A4A4A4A4A4A4A4A4A4A4A4
1001
ACAD
1000
DesignCenter Data
1002
{
1070
     1
1070
     4
1002
}
  0
BLOCK_RECORD
  5
AA8
330
1
100
AcDbSymbolTableRecord
100
AcDbBlockTableRecord
  2
_CLOSED
340
0
  0
ENDTAB
  0
ENDSEC
  0
SECTION
  2
BLOCKS
  0
BLOCK
  5
20
330
1F
100
AcDbEntity
  8
0
100
AcDbBlockBegin
  2
*Model_Space
 70
     0
 10
0.0
 20
0.0
 30
0.0
  3
*Model_Space
  1

  0
ENDBLK
  5
21
330
1F
100
AcDbEntity
  8
0
100
AcDbBlockEnd
  0
BLOCK
  5
1C
330
1B
100
AcDbEntity
 67
     1
  8
0
100
AcDbBlockBegin
  2
*Paper_Space
 70
     0
 10
0.0
 20
0.0
 30
0.0
  3
*Paper_Space
  1

  0
ENDBLK
  5
1D
330
1B
100
AcDbEntity
 67
     1
  8
0
100
AcDbBlockEnd
  0
BLOCK
  5
24
330
23
100
AcDbEntity
 67
     1
  8
0
100
AcDbBlockBegin
  2
*Paper_Space0
 70
     0
 10
0.0
 20
0.0
 30
0.0
  3
*Paper_Space0
  1

  0
ENDBLK
  5
25
330
23
100
AcDbEntity
 67
     1
  8
0
100
AcDbBlockEnd
  0
BLOCK
  5
91B
330
919
100
AcDbEntity
  8
0
100
AcDbBlockBegin
  2
_DotSmall
 70
     0
 10
0.0
 20
0.0
 30
0.0
  3
_DotSmall
  1

  0
LWPOLYLINE
  5
91A
330
919
100
AcDbEntity
  8
0
  6
ByBlock
 62
     0
100
AcDbPolyline
 90
        2
 70
     1
 43
0.5
 10
-0.0625
 20
0.0
 42
1.0
 10
0.0625
 20
0.0
 42
1.0
  0
ENDBLK
  5
91C
330
919
100
AcDbEntity
  8
0
100
AcDbBlockEnd
  0
BLOCK
  5
92A
330
922
100
AcDbEntity
  8
0
100
AcDbBlockBegin
  2
base para cotas
 70
     0
 10
0.0
 20
0.0
 30
0.0
  3
base para cotas
  1

  0
LINE
  5
B36
330
922
100
AcDbEntity
  8
cotas
100
AcDbLine
 10
0.0
 20
-30.0
 30
0.0
 11
327.1260136525398
 21
-30.0
 31
0.0
  0
LINE
  5
B37
330
922
100
AcDbEntity
  8
cotas
100
AcDbLine
 10
0.0
 20
-25.0
 30
0.0
 11
327.1260136525398
 21
-25.0
 31
0.0
  0
LINE
  5
B38
330
922
100
AcDbEntity
  8
cotas
100
AcDbLine
 10
0.0
 20
-20.0
 30
0.0
 11
327.1260136525398
 21
-20.0
 31
0.0
  0
LINE
  5
B39
330
922
100
AcDbEntity
  8
cotas
100
AcDbLine
 10
0.0
 20
-15.0
 30
0.0
 11
327.1260136525398
 21
-15.0
 31
0.0
  0
LINE
  5
B3A
330
922
100
AcDbEntity
  8
cotas
100
AcDbLine
 10
0.0
 20
-10.0
 30
0.0
 11
327.1260136525398
 21
-10.0
 31
0.0
  0
LINE
  5
B3B
330
922
100
AcDbEntity
  8
cotas
100
AcDbLine
 10
0.0
 20
0.0
 30
0.0
 11
0.0
 21
-30.0
 31
0.0
  0
LINE
  5
B3C
330
922
100
AcDbEntity
  8
cotas
100
AcDbLine
 10
327.1260136525398
 20
-30.0
 30
0.0
 11
327.1260136525398
 21
0.0
 31
0.0
  0
ENDBLK
  5
92B
330
922
100
AcDbEntity
  8
0
100
AcDbBlockEnd
  0
BLOCK
  5
AAD
330
AA8
100
AcDbEntity
  8
0
100
AcDbBlockBegin
  2
_CLOSED
 70
     0
 10
0.0
 20
0.0
 30
0.0
  3
_CLOSED
  1

  0
LINE
  5
AA9
330
AA8
100
AcDbEntity
  8
0
100
AcDbLine
 10
-1.0
 20
0.166667
 30
0.0
 11
0.0
 21
0.0
 31
0.0
  0
LINE
  5
AAA
330
AA8
100
AcDbEntity
  8
0
100
AcDbLine
 10
0.0
 20
0.0
 30
0.0
 11
-1.0
 21
-0.166667
 31
0.0
  0
LINE
  5
AAB
330
AA8
100
AcDbEntity
  8
0
100
AcDbLine
 10
-1.0
 20
0.166667
 30
0.0
 11
-1.0
 21
-0.166667
 31
0.0
  0
LINE
  5
AAC
330
AA8
100
AcDbEntity
  8
0
100
AcDbLine
 10
0.0
 20
0.0
 30
0.0
 11
-1.0
 21
0.0
 31
0.0
  0
ENDBLK
  5
AAE
330
AA8
100
AcDbEntity
  8
0
100
AcDbBlockEnd
  0
ENDSEC
  0
SECTION
  2
ENTITIES
  0
LWPOLYLINE
  5
1521
330
1F
100
AcDbEntity
  8
SANINDUSA
100
AcDbPolyline
 90
       15
 70
   128
 43
0.0
 10
1463.925848159309
 20
1673.513865149839
 10
1463.924595403702
 20
1673.515482855358
 10
1463.922746569208
 20
1673.51792597899
 10
1463.920429100347
 20
1673.521021561674
 10
1463.917734892076
 20
1673.524642461011
 10
1463.914800971099
 20
1673.528601259508
 10
1463.911642651
 20
1673.532874807798
 10
1463.908332308076
 20
1673.537363542306
 10
1463.903430453735
 20
1673.54402348432
 10
1463.898389957333
 20
1673.550884749564
 10
1463.896006112992
 20
1673.554133665032
 10
1463.895322220542
 20
1673.555066184448
 10
1463.895124120601
 20
1673.555336340228
 10
1463.895066947578
 20
1673.555414312177
 10
1463.895043232787
 20
1673.55544665456
  0
LWPOLYLINE
  5
1522
330
1F
100
AcDbEntity
  8
SANINDUSA
100
AcDbPolyline
 90
       15
 70
   128
 43
0.0
 10
1463.895043232787
 20
1673.55544665456
 10
1463.895073504402
 20
1673.555420345623
 10
1463.895148089588
 20
1673.555355525213
 10
1463.895404846915
 20
1673.555132396656
 10
1463.896290752682
 20
1673.554362686744
 10
1463.899372586642
 20
1673.551687064056
 10
1463.905780825546
 20
1673.546133770381
 10
1463.912015159846
 20
1673.540746152111
 10
1463.9162471347
 20
1673.537099237957
 10
1463.920285661029
 20
1673.533629123265
 10
1463.924038044741
 20
1673.530416907653
 10
1463.927482814973
 20
1673.527483268467
 10
1463.930446627491
 20
1673.524978802411
 10
1463.932811725591
 20
1673.52300712395
 10
1463.934414632079
 20
1673.521708779648
  0
LINE
  5
1523
330
1F
100
AcDbEntity
  8
SANINDUSA
100
AcDbLine
 10
1463.938865634286
 20
1673.516868224419
 30
0.0
 11
1463.938865634286
 21
1674.056655499326
 31
0.0
  0
LINE
  5
1527
330
1F
100
AcDbEntity
  8
SANINDUSA
100
AcDbLine
 10
1463.998145863905
 20
1673.460831082234
 30
0.0
 11
1463.998145863905
 21
1674.140831082234
 31
0.0
  0
ARC
  5
152B
330
1F
100
AcDbEntity
  8
SANINDUSA
100
AcDbCircle
 10
1463.296051256114
 20
1666.587081082234
 30
0.0
 40
6.950935621827517
100
AcDbArc
 50
84.76493918088346
 51
95.23506081911653
  0
LWPOLYLINE
  5
152C
330
1F
100
AcDbEntity
  8
SANINDUSA
100
AcDbPolyline
 90
       15
 70
   128
 43
0.0
 10
1462.69705927944
 20
1673.55544665456
 10
1462.69703556465
 20
1673.555414312177
 10
1462.696978391626
 20
1673.555336340228
 10
1462.696780291685
 20
1673.555066184448
 10
1462.696096399235
 20
1673.554133665032
 10
1462.693712554894
 20
1673.550884749564
 10
1462.688672058492
 20
1673.54402348432
 10
1462.683770204151
 20
1673.537363542306
 10
1462.680459861227
 20
1673.532874807798
 10
1462.677301541128
 20
1673.528601259508
 10
1462.674367620152
 20
1673.524642461011
 10
1462.67167341188
 20
1673.521021561674
 10
1462.669355943019
 20
1673.51792597899
 10
1462.667507108526
 20
1673.515482855358
 10
1462.666254352919
 20
1673.513865149839
  0
LINE
  5
1531
330
1F
100
AcDbEntity
  8
SANINDUSA
100
AcDbLine
 10
1462.653236877941
 20
1674.056655499326
 30
0.0
 11
1462.653236877941
 21
1673.516868224419
 31
0.0
  0
LINE
  5
1532
330
1F
100
AcDbEntity
  8
SANINDUSA
100
AcDbLine
 10
1462.593956648322
 20
1674.140831082234
 30
0.0
 11
1462.593956648322
 21
1673.460831082234
 31
0.0
  0
LWPOLYLINE
  5
1534
330
1F
100
AcDbEntity
  8
SANINDUSA
100
AcDbPolyline
 90
       15
 70
   128
 43
0.0
 10
1462.657687880148
 20
1673.521708779648
 10
1462.659290786636
 20
1673.52300712395
 10
1462.661655884736
 20
1673.524978802411
 10
1462.664619697255
 20
1673.527483268467
 10
1462.668064467486
 20
1673.530416907653
 10
1462.671816851198
 20
1673.533629123265
 10
1462.675855377527
 20
1673.537099237957
 10
1462.680087352382
 20
1673.540746152111
 10
1462.686321686681
 20
1673.546133770381
 10
1462.692729925585
 20
1673.551687064056
 10
1462.695811759545
 20
1673.554362686744
 10
1462.696697665312
 20
1673.555132396656
 10
1462.696954422639
 20
1673.555355525213
 10
1462.697029007825
 20
1673.555420345623
 10
1462.69705927944
 20
1673.55544665456
  0
LINE
  5
153A
330
1F
100
AcDbEntity
  8
SANINDUSA
100
AcDbLine
 10
1462.606051256114
 20
1673.448736474442
 30
0.0
 11
1463.986051256114
 21
1673.448736474442
 31
0.0
  0
ARC
  5
1543
330
1F
100
AcDbEntity
  8
SANINDUSA
100
AcDbCircle
 10
1462.606051256114
 20
1673.460831082234
 30
0.0
 40
0.0120946077913862
100
AcDbArc
 50
180.0
 51
270.0
  0
LWPOLYLINE
  5
1545
330
1F
100
AcDbEntity
  8
SANINDUSA
100
AcDbPolyline
 90
        3
 70
   128
 43
0.0
 10
1462.666152631782
 20
1673.513758577581
 10
1462.663426452539
 20
1673.510769208693
 10
1462.661834186373
 20
1673.509022625417
  0
LINE
  5
1546
330
1F
100
AcDbEntity
  8
SANINDUSA
100
AcDbLine
 10
1462.666254352919
 20
1673.513865149839
 30
0.0
 11
1462.666152631782
 21
1673.513758577581
 31
0.0
  0
LWPOLYLINE
  5
1548
330
1F
100
AcDbEntity
  8
SANINDUSA
100
AcDbPolyline
 90
        9
 70
   128
 43
0.0
 10
1462.661834186373
 20
1673.509022625417
 10
1462.660231760167
 20
1673.509092027397
 10
1462.658665850979
 20
1673.509482807848
 10
1462.657201175469
 20
1673.510178816403
 10
1462.655898266461
 20
1673.511151288082
 10
1462.654810971217
 20
1673.512360032099
 10
1462.653984226005
 20
1673.513755092891
 10
1462.653452198955
 20
1673.515278814704
 10
1462.653236877941
 20
1673.516868224419
  0
LINE
  5
154A
330
1F
100
AcDbEntity
  8
SANINDUSA
100
AcDbLine
 10
1462.653236877941
 20
1673.516868224419
 30
0.0
 11
1462.657560661878
 21
1673.521604663889
 31
0.0
  0
LINE
  5
154C
330
1F
100
AcDbEntity
  8
SANINDUSA
100
AcDbLine
 10
1462.657560661878
 20
1673.521604663889
 30
0.0
 11
1462.657687880148
 21
1673.521708779648
 31
0.0
  0
LINE
  5
1558
330
1F
100
AcDbEntity
  8
SANINDUSA
100
AcDbLine
 10
1463.934414632079
 20
1673.521708779648
 30
0.0
 11
1463.934541850349
 21
1673.521604663889
 31
0.0
  0
LINE
  5
1559
330
1F
100
AcDbEntity
  8
SANINDUSA
100
AcDbLine
 10
1463.925949880445
 20
1673.513758577581
 30
0.0
 11
1463.925848159309
 21
1673.513865149839
 31
0.0
  0
LWPOLYLINE
  5
155A
330
1F
100
AcDbEntity
  8
SANINDUSA
100
AcDbPolyline
 90
        3
 70
   128
 43
0.0
 10
1463.930268325855
 20
1673.509022625417
 10
1463.927542172062
 20
1673.512012720366
 10
1463.925949880445
 20
1673.513758577581
  0
LWPOLYLINE
  5
155C
330
1F
100
AcDbEntity
  8
SANINDUSA
100
AcDbPolyline
 90
        9
 70
   128
 43
0.0
 10
1463.938865634286
 20
1673.516868224419
 10
1463.938650313273
 20
1673.515278814704
 10
1463.938118286223
 20
1673.513755092891
 10
1463.93729154101
 20
1673.512360032099
 10
1463.936204245766
 20
1673.511151288082
 10
1463.934901336759
 20
1673.510178816403
 10
1463.933436661248
 20
1673.509482807848
 10
1463.931870752061
 20
1673.509092027397
 10
1463.930268325855
 20
1673.509022625417
  0
LINE
  5
155D
330
1F
100
AcDbEntity
  8
SANINDUSA
100
AcDbLine
 10
1463.934541850349
 20
1673.521604663889
 30
0.0
 11
1463.938865634286
 21
1673.516868224419
 31
0.0
  0
ARC
  5
1566
330
1F
100
AcDbEntity
  8
SANINDUSA
100
AcDbCircle
 10
1463.986051256114
 20
1673.460831082234
 30
0.0
 40
0.0120946077913862
100
AcDbArc
 50
270.0
 51
0.0
  0
LWPOLYLINE
  5
156D
330
1F
100
AcDbEntity
  8
SANINDUSA
100
AcDbPolyline
 90
       14
 70
   128
 43
0.0
 10
1463.189808801914
 20
1673.907237459079
 10
1463.188209093835
 20
1673.904920873633
 10
1463.186247331221
 20
1673.902901756583
 10
1463.183971093656
 20
1673.901242648985
 10
1463.181448515559
 20
1673.899989798425
 10
1463.178769606298
 20
1673.899193500101
 10
1463.175994727191
 20
1673.898861650775
 10
1463.173244056555
 20
1673.899006689559
 10
1463.170556065173
 20
1673.899608677312
 10
1463.168011548371
 20
1673.900652610949
 10
1463.165673320673
 20
1673.902101005518
 10
1463.163582322836
 20
1673.903942115354
 10
1463.16182241082
 20
1673.906101980283
 10
1463.161381209301
 20
1673.906780926488
  0
LWPOLYLINE
  5
1572
330
1F
100
AcDbEntity
  8
SANINDUSA
100
AcDbPolyline
 90
       14
 70
   128
 43
0.0
 10
1463.189808801914
 20
1673.842247358894
 10
1463.188209093835
 20
1673.839930773448
 10
1463.186247331221
 20
1673.837911656398
 10
1463.183971093656
 20
1673.8362525488
 10
1463.181448515559
 20
1673.83499969824
 10
1463.178769606298
 20
1673.834203399916
 10
1463.175994727191
 20
1673.83387155059
 10
1463.173244056555
 20
1673.834016589374
 10
1463.170556065173
 20
1673.834618577127
 10
1463.168011548371
 20
1673.835662510764
 10
1463.165673320673
 20
1673.837110905333
 10
1463.163582322836
 20
1673.838952015169
 10
1463.16182241082
 20
1673.841111880098
 10
1463.161381209301
 20
1673.841790826302
  0
LWPOLYLINE
  5
1577
330
1F
100
AcDbEntity
  8
SANINDUSA
100
AcDbPolyline
 90
       12
 70
   128
 43
0.0
 10
1463.161646124841
 20
1673.848177217772
 10
1463.163587029291
 20
1673.85040821138
 10
1463.165870662899
 20
1673.852286711376
 10
1463.168441423778
 20
1673.853752301308
 10
1463.171222396215
 20
1673.854763046555
 10
1463.174101802667
 20
1673.855275032763
 10
1463.177026257309
 20
1673.855292665777
 10
1463.179868072697
 20
1673.854818946579
 10
1463.182592293544
 20
1673.853880875599
 10
1463.185135403956
 20
1673.852493644162
 10
1463.187417439158
 20
1673.850708948944
 10
1463.189338889094
 20
1673.848621949396
  0
LWPOLYLINE
  5
1578
330
1F
100
AcDbEntity
  8
SANINDUSA
100
AcDbPolyline
 90
       12
 70
   128
 43
0.0
 10
1463.161646124841
 20
1673.913167317958
 10
1463.163587029291
 20
1673.915398311565
 10
1463.165870662899
 20
1673.917276811562
 10
1463.168441423778
 20
1673.918742401493
 10
1463.171222396215
 20
1673.91975314674
 10
1463.174101802667
 20
1673.920265132948
 10
1463.177026257309
 20
1673.920282765963
 10
1463.179868072697
 20
1673.919809046764
 10
1463.182592293544
 20
1673.918870975784
 10
1463.185135403956
 20
1673.917483744347
 10
1463.187417439158
 20
1673.915699049129
 10
1463.189338889094
 20
1673.913612049581
  0
LWPOLYLINE
  5
1579
330
1F
100
AcDbEntity
  8
SANINDUSA
100
AcDbPolyline
 90
       14
 70
   128
 43
0.0
 10
1463.189808801914
 20
1673.777257258709
 10
1463.188209093835
 20
1673.774940673263
 10
1463.186247331221
 20
1673.772921556213
 10
1463.183971093656
 20
1673.771262448615
 10
1463.181448515559
 20
1673.770009598054
 10
1463.178769606298
 20
1673.769213299731
 10
1463.175994727191
 20
1673.768881450404
 10
1463.173244056555
 20
1673.769026489189
 10
1463.170556065173
 20
1673.769628476941
 10
1463.168011548371
 20
1673.770672410578
 10
1463.165673320673
 20
1673.772120805148
 10
1463.163582322836
 20
1673.773961914984
 10
1463.16182241082
 20
1673.776121779913
 10
1463.161381209301
 20
1673.776800726117
  0
LWPOLYLINE
  5
157E
330
1F
100
AcDbEntity
  8
SANINDUSA
100
AcDbPolyline
 90
       14
 70
   128
 43
0.0
 10
1463.189808801914
 20
1673.712267158523
 10
1463.188209093835
 20
1673.709950573078
 10
1463.186247331221
 20
1673.707931456028
 10
1463.183971093656
 20
1673.706272348429
 10
1463.181448515559
 20
1673.705019497869
 10
1463.178769606298
 20
1673.704223199546
 10
1463.175994727191
 20
1673.703891350219
 10
1463.173244056555
 20
1673.704036389003
 10
1463.170556065173
 20
1673.704638376756
 10
1463.168011548371
 20
1673.705682310393
 10
1463.165673320673
 20
1673.707130704963
 10
1463.163582322836
 20
1673.708971814799
 10
1463.16182241082
 20
1673.711131679728
 10
1463.161381209301
 20
1673.711810625932
  0
LWPOLYLINE
  5
1583
330
1F
100
AcDbEntity
  8
SANINDUSA
100
AcDbPolyline
 90
       12
 70
   128
 43
0.0
 10
1463.161646124841
 20
1673.718197017402
 10
1463.163587029291
 20
1673.72042801101
 10
1463.165870662899
 20
1673.722306511006
 10
1463.168441423778
 20
1673.723772100938
 10
1463.171222396215
 20
1673.724782846185
 10
1463.174101802667
 20
1673.725294832392
 10
1463.177026257309
 20
1673.725312465407
 10
1463.179868072697
 20
1673.724838746209
 10
1463.182592293544
 20
1673.723900675228
 10
1463.185135403956
 20
1673.722513443792
 10
1463.187417439158
 20
1673.720728748573
 10
1463.189338889094
 20
1673.718641749026
  0
LWPOLYLINE
  5
1585
330
1F
100
AcDbEntity
  8
SANINDUSA
100
AcDbPolyline
 90
       14
 70
   128
 43
0.0
 10
1463.189808801914
 20
1673.647277058338
 10
1463.188209093835
 20
1673.644960472892
 10
1463.186247331221
 20
1673.642941355842
 10
1463.183971093656
 20
1673.641282248244
 10
1463.181448515559
 20
1673.640029397684
 10
1463.178769606298
 20
1673.639233099361
 10
1463.175994727191
 20
1673.638901250034
 10
1463.173244056555
 20
1673.639046288818
 10
1463.170556065173
 20
1673.639648276571
 10
1463.168011548371
 20
1673.640692210208
 10
1463.165673320673
 20
1673.642140604777
 10
1463.163582322836
 20
1673.643981714613
 10
1463.16182241082
 20
1673.646141579542
 10
1463.161381209301
 20
1673.646820525747
  0
LWPOLYLINE
  5
1589
330
1F
100
AcDbEntity
  8
SANINDUSA
100
AcDbPolyline
 90
       12
 70
   128
 43
0.0
 10
1463.161646124841
 20
1673.653206917217
 10
1463.163587029291
 20
1673.655437910825
 10
1463.165870662899
 20
1673.657316410821
 10
1463.168441423778
 20
1673.658782000752
 10
1463.171222396215
 20
1673.659792746
 10
1463.174101802667
 20
1673.660304732207
 10
1463.177026257309
 20
1673.660322365222
 10
1463.179868072697
 20
1673.659848646024
 10
1463.182592293544
 20
1673.658910575043
 10
1463.185135403956
 20
1673.657523343607
 10
1463.187417439158
 20
1673.655738648388
 10
1463.189338889094
 20
1673.653651648841
  0
LWPOLYLINE
  5
158A
330
1F
100
AcDbEntity
  8
SANINDUSA
100
AcDbPolyline
 90
       12
 70
   128
 43
0.0
 10
1463.161646124841
 20
1673.783187117587
 10
1463.163587029291
 20
1673.785418111195
 10
1463.165870662899
 20
1673.787296611191
 10
1463.168441423778
 20
1673.788762201123
 10
1463.171222396215
 20
1673.78977294637
 10
1463.174101802667
 20
1673.790284932577
 10
1463.177026257309
 20
1673.790302565592
 10
1463.179868072697
 20
1673.789828846394
 10
1463.182592293544
 20
1673.788890775413
 10
1463.185135403956
 20
1673.787503543977
 10
1463.187417439158
 20
1673.785718848758
 10
1463.189338889094
 20
1673.783631849211
  0
ARC
  5
158B
330
1F
100
AcDbEntity
  8
SANINDUSA
100
AcDbCircle
 10
1463.296051256114
 20
1666.607911566579
 30
0.0
 40
6.973308768930184
100
AcDbArc
 50
85.07234536655793
 51
94.92765463344206
  0
ARC
  5
158C
330
1F
100
AcDbEntity
  8
SANINDUSA
100
AcDbCircle
 10
1463.296051256114
 20
1667.147081082234
 30
0.0
 40
6.946564378172487
100
AcDbArc
 50
84.74971040700967
 51
95.25028959299033
  0
ARC
  5
158E
330
1F
100
AcDbEntity
  8
SANINDUSA
100
AcDbCircle
 10
1463.296051256114
 20
1667.125142274139
 30
0.0
 40
6.922467908147784
100
AcDbArc
 50
85.04798847028517
 51
94.95201152971482
  0
LINE
  5
1592
330
1F
100
AcDbEntity
  8
SANINDUSA
100
AcDbLine
 10
1463.986051256114
 20
1674.152925690025
 30
0.0
 11
1462.606051256114
 21
1674.152925690025
 31
0.0
  0
LWPOLYLINE
  5
1593
330
1F
100
AcDbEntity
  8
SANINDUSA
100
AcDbPolyline
 90
       15
 70
   128
 43
0.0
 10
1462.666356451981
 20
1674.0590374114
 10
1462.667607198397
 20
1674.057509476215
 10
1462.669528825353
 20
1674.055224410693
 10
1462.672008238159
 20
1674.052313264452
 10
1462.674945279627
 20
1674.048889845364
 10
1462.678652799702
 20
1674.04459035556
 10
1462.682696958575
 20
1674.039918190273
 10
1462.686496651898
 20
1674.035540408816
 10
1462.690441460472
 20
1674.03100499113
 10
1462.694460009482
 20
1674.02639327059
 10
1462.697280005603
 20
1674.023161667877
 10
1462.698126127754
 20
1674.02219276754
 10
1462.698382713899
 20
1674.021899014312
 10
1462.698468135115
 20
1674.021801226383
 10
1462.698494532023
 20
1674.021771008588
  0
LWPOLYLINE
  5
1594
330
1F
100
AcDbEntity
  8
SANINDUSA
100
AcDbPolyline
 90
       15
 70
   128
 43
0.0
 10
1462.698494532023
 20
1674.021771008588
 10
1462.698462216738
 20
1674.021794793826
 10
1462.698357954312
 20
1674.021871537371
 10
1462.698044502579
 20
1674.022102280665
 10
1462.697010384072
 20
1674.022863784277
 10
1462.693559268707
 20
1674.025407922513
 10
1462.688641805133
 20
1674.029040753271
 10
1462.683815529397
 20
1674.032615752748
 10
1462.679167723625
 20
1674.036068894133
 10
1462.67422214564
 20
1674.039757254206
 10
1462.66968922728
 20
1674.043155207496
 10
1462.666098287579
 20
1674.045865242257
 10
1462.663067487858
 20
1674.048174215923
 10
1462.66071901541
 20
1674.04999253949
 10
1462.659190701068
 20
1674.051216651167
  0
ARC
  5
159B
330
1F
100
AcDbEntity
  8
SANINDUSA
100
AcDbCircle
 10
1462.606051256114
 20
1674.140831082234
 30
0.0
 40
0.0120946077913864
100
AcDbArc
 50
90.0
 51
180.0
  0
LWPOLYLINE
  5
159C
330
1F
100
AcDbEntity
  8
SANINDUSA
100
AcDbPolyline
 90
        3
 70
   128
 43
0.0
 10
1462.660394408284
 20
1674.064500906988
 10
1462.663141299653
 20
1674.061997249697
 10
1462.666257971375
 20
1674.059155457478
  0
LINE
  5
159D
330
1F
100
AcDbEntity
  8
SANINDUSA
100
AcDbLine
 10
1462.666257971375
 20
1674.059155457479
 30
0.0
 11
1462.666356451981
 21
1674.0590374114
 31
0.0
  0
LWPOLYLINE
  5
15A0
330
1F
100
AcDbEntity
  8
SANINDUSA
100
AcDbPolyline
 90
        9
 70
   128
 43
0.0
 10
1462.653236877941
 20
1674.056655499326
 10
1462.65340544619
 20
1674.058081377734
 10
1462.653827164701
 20
1674.059460438183
 10
1462.65448818657
 20
1674.060747399956
 10
1462.655366807497
 20
1674.061900006348
 10
1462.656434178429
 20
1674.062880412142
 10
1462.657655252811
 20
1674.063656426233
 10
1462.658989937315
 20
1674.064202568614
 10
1462.660394408284
 20
1674.064500906988
  0
LINE
  5
15A1
330
1F
100
AcDbEntity
  8
SANINDUSA
100
AcDbLine
 10
1462.659094393667
 20
1674.051309496462
 30
0.0
 11
1462.653236877941
 21
1674.056655499326
 31
0.0
  0
LINE
  5
15A3
330
1F
100
AcDbEntity
  8
SANINDUSA
100
AcDbLine
 10
1462.659190701068
 20
1674.051216651167
 30
0.0
 11
1462.659094393667
 21
1674.051309496462
 31
0.0
  0
LWPOLYLINE
  5
15A8
330
1F
100
AcDbEntity
  8
SANINDUSA
100
AcDbPolyline
 90
       14
 70
   128
 43
0.0
 10
1462.949870479262
 20
1673.834556817595
 10
1462.948350454114
 20
1673.832187201191
 10
1462.946458470443
 20
1673.830102576022
 10
1462.944239954087
 20
1673.828367064101
 10
1462.94176142778
 20
1673.827029201991
 10
1462.939111138956
 20
1673.826142314999
 10
1462.936349145575
 20
1673.825716346839
 10
1462.933595133605
 20
1673.825767813972
 10
1462.930888229478
 20
1673.826278096296
 10
1462.928309691897
 20
1673.82723494541
 10
1462.925923573486
 20
1673.82860303292
 10
1462.923771190666
 20
1673.830372011417
 10
1462.921938865407
 20
1673.832470813501
 10
1462.921474836294
 20
1673.833134372093
  0
LWPOLYLINE
  5
15A9
330
1F
100
AcDbEntity
  8
SANINDUSA
100
AcDbPolyline
 90
       12
 70
   128
 43
0.0
 10
1462.921522476485
 20
1673.839526076559
 10
1462.923386410743
 20
1673.841821746927
 10
1462.925604860043
 20
1673.843776775829
 10
1462.928124308649
 20
1673.845328891968
 10
1462.930869310978
 20
1673.846433570802
 10
1462.933729647066
 20
1673.84704312434
 10
1462.936651812153
 20
1673.847160141444
 10
1462.939508090561
 20
1673.846783281608
 10
1462.942262629253
 20
1673.845938341624
 10
1462.944851432571
 20
1673.844638345307
 10
1462.94719282439
 20
1673.842932241668
 10
1462.949184116963
 20
1673.840911753091
  0
LWPOLYLINE
  5
15AA
330
1F
100
AcDbEntity
  8
SANINDUSA
100
AcDbPolyline
 90
       14
 70
   128
 43
0.0
 10
1462.949870479262
 20
1673.89954691778
 10
1462.948350454114
 20
1673.897177301376
 10
1462.946458470443
 20
1673.895092676207
 10
1462.944239954087
 20
1673.893357164286
 10
1462.94176142778
 20
1673.892019302176
 10
1462.939111138956
 20
1673.891132415185
 10
1462.936349145575
 20
1673.890706447025
 10
1462.933595133605
 20
1673.890757914158
 10
1462.930888229478
 20
1673.891268196481
 10
1462.928309691897
 20
1673.892225045595
 10
1462.925923573486
 20
1673.893593133106
 10
1462.923771190666
 20
1673.895362111602
 10
1462.921938865407
 20
1673.897460913686
 10
1462.921474836294
 20
1673.898124472278
  0
LWPOLYLINE
  5
15AB
330
1F
100
AcDbEntity
  8
SANINDUSA
100
AcDbPolyline
 90
       12
 70
   128
 43
0.0
 10
1462.921522476485
 20
1673.904516176744
 10
1462.923386410743
 20
1673.906811847112
 10
1462.925604860043
 20
1673.908766876014
 10
1462.928124308649
 20
1673.910318992153
 10
1462.930869310978
 20
1673.911423670987
 10
1462.933729647066
 20
1673.912033224526
 10
1462.936651812153
 20
1673.912150241629
 10
1462.939508090561
 20
1673.911773381793
 10
1462.942262629253
 20
1673.91092844181
 10
1462.944851432571
 20
1673.909628445492
 10
1462.94719282439
 20
1673.907922341853
 10
1462.949184116963
 20
1673.905901853276
  0
LWPOLYLINE
  5
15B4
330
1F
100
AcDbEntity
  8
SANINDUSA
100
AcDbPolyline
 90
       14
 70
   128
 43
0.0
 10
1462.949870479262
 20
1673.704576617225
 10
1462.948350454114
 20
1673.702207000821
 10
1462.946458470443
 20
1673.700122375652
 10
1462.944239954087
 20
1673.698386863731
 10
1462.94176142778
 20
1673.697049001621
 10
1462.939111138956
 20
1673.696162114629
 10
1462.936349145575
 20
1673.695736146469
 10
1462.933595133605
 20
1673.695787613602
 10
1462.930888229478
 20
1673.696297895926
 10
1462.928309691897
 20
1673.697254745039
 10
1462.925923573486
 20
1673.69862283255
 10
1462.923771190666
 20
1673.700391811046
 10
1462.921938865407
 20
1673.702490613131
 10
1462.921474836294
 20
1673.703154171722
  0
LWPOLYLINE
  5
15B5
330
1F
100
AcDbEntity
  8
SANINDUSA
100
AcDbPolyline
 90
       12
 70
   128
 43
0.0
 10
1462.921522476485
 20
1673.709545876188
 10
1462.923386410743
 20
1673.711841546557
 10
1462.925604860043
 20
1673.713796575459
 10
1462.928124308649
 20
1673.715348691597
 10
1462.930869310978
 20
1673.716453370431
 10
1462.933729647066
 20
1673.71706292397
 10
1462.936651812153
 20
1673.717179941074
 10
1462.939508090561
 20
1673.716803081237
 10
1462.942262629253
 20
1673.715958141254
 10
1462.944851432571
 20
1673.714658144936
 10
1462.94719282439
 20
1673.712952041298
 10
1462.949184116963
 20
1673.71093155272
  0
LWPOLYLINE
  5
15B6
330
1F
100
AcDbEntity
  8
SANINDUSA
100
AcDbPolyline
 90
       14
 70
   128
 43
0.0
 10
1462.949870479262
 20
1673.76956671741
 10
1462.948350454114
 20
1673.767197101006
 10
1462.946458470443
 20
1673.765112475837
 10
1462.944239954087
 20
1673.763376963916
 10
1462.94176142778
 20
1673.762039101806
 10
1462.939111138956
 20
1673.761152214814
 10
1462.936349145575
 20
1673.760726246654
 10
1462.933595133605
 20
1673.760777713787
 10
1462.930888229478
 20
1673.761287996111
 10
1462.928309691897
 20
1673.762244845225
 10
1462.925923573486
 20
1673.763612932735
 10
1462.923771190666
 20
1673.765381911231
 10
1462.921938865407
 20
1673.767480713316
 10
1462.921474836294
 20
1673.768144271907
  0
LWPOLYLINE
  5
15B7
330
1F
100
AcDbEntity
  8
SANINDUSA
100
AcDbPolyline
 90
       12
 70
   128
 43
0.0
 10
1462.921522476485
 20
1673.774535976373
 10
1462.923386410743
 20
1673.776831646742
 10
1462.925604860043
 20
1673.778786675644
 10
1462.928124308649
 20
1673.780338791783
 10
1462.930869310978
 20
1673.781443470617
 10
1462.933729647066
 20
1673.782053024155
 10
1462.936651812153
 20
1673.782170041259
 10
1462.939508090561
 20
1673.781793181423
 10
1462.942262629253
 20
1673.780948241439
 10
1462.944851432571
 20
1673.779648245122
 10
1462.94719282439
 20
1673.777942141483
 10
1462.949184116963
 20
1673.775921652906
  0
LWPOLYLINE
  5
15BF
330
1F
100
AcDbEntity
  8
SANINDUSA
100
AcDbPolyline
 90
       14
 70
   128
 43
0.0
 10
1462.949870479262
 20
1673.639586517039
 10
1462.948350454114
 20
1673.637216900636
 10
1462.946458470443
 20
1673.635132275467
 10
1462.944239954087
 20
1673.633396763545
 10
1462.94176142778
 20
1673.632058901436
 10
1462.939111138956
 20
1673.631172014444
 10
1462.936349145575
 20
1673.630746046284
 10
1462.933595133605
 20
1673.630797513417
 10
1462.930888229478
 20
1673.631307795741
 10
1462.928309691897
 20
1673.632264644854
 10
1462.925923573486
 20
1673.633632732365
 10
1462.923771190666
 20
1673.635401710861
 10
1462.921938865407
 20
1673.637500512946
 10
1462.921474836294
 20
1673.638164071537
  0
LWPOLYLINE
  5
15C1
330
1F
100
AcDbEntity
  8
SANINDUSA
100
AcDbPolyline
 90
       12
 70
   128
 43
0.0
 10
1462.921522476485
 20
1673.644555776003
 10
1462.923386410743
 20
1673.646851446372
 10
1462.925604860043
 20
1673.648806475273
 10
1462.928124308649
 20
1673.650358591412
 10
1462.930869310978
 20
1673.651463270246
 10
1462.933729647066
 20
1673.652072823785
 10
1462.936651812153
 20
1673.652189840889
 10
1462.939508090561
 20
1673.651812981052
 10
1462.942262629253
 20
1673.650968041069
 10
1462.944851432571
 20
1673.649668044751
 10
1462.94719282439
 20
1673.647961941113
 10
1462.949184116963
 20
1673.645941452535
  0
LINE
  5
15C5
330
1F
100
AcDbEntity
  8
SANINDUSA
100
AcDbLine
 10
1462.698494532023
 20
1674.021771008588
 30
0.0
 11
1462.69705927944
 21
1673.55544665456
 31
0.0
  0
LWPOLYLINE
  5
15C7
330
1F
100
AcDbEntity
  8
SANINDUSA
100
AcDbPolyline
 90
       14
 70
   128
 43
0.0
 10
1462.830034045586
 20
1673.632683919593
 10
1462.82855452657
 20
1673.630288811073
 10
1462.826698257559
 20
1673.628172330765
 10
1462.824509567672
 20
1673.626399363481
 10
1462.822054144848
 20
1673.625019569398
 10
1462.819419317171
 20
1673.624087765979
 10
1462.816664964868
 20
1673.623614916253
 10
1462.813910475813
 20
1673.623619568489
 10
1462.811195287351
 20
1673.624083770272
 10
1462.80860085468
 20
1673.624996656051
 10
1462.8061918218
 20
1673.626323991185
 10
1462.804009675079
 20
1673.628056131972
 10
1462.802141932253
 20
1673.630123488423
 10
1462.801666688842
 20
1673.630779064454
  0
LWPOLYLINE
  5
15CA
330
1F
100
AcDbEntity
  8
SANINDUSA
100
AcDbPolyline
 90
       12
 70
   128
 43
0.0
 10
1462.801605655008
 20
1673.637170655091
 10
1462.803430290621
 20
1673.639497673375
 10
1462.805615181393
 20
1673.641490124782
 10
1462.808107878011
 20
1673.643084837457
 10
1462.810833702768
 20
1673.64423601101
 10
1462.813683262382
 20
1673.644894091031
 10
1462.816603015811
 20
1673.645060756635
 10
1462.819465288619
 20
1673.644732496841
 10
1462.822233794372
 20
1673.643934495354
 10
1462.824844325237
 20
1673.642678686429
 10
1462.827214384694
 20
1673.641012623829
 10
1462.829239740436
 20
1673.639026271394
  0
LWPOLYLINE
  5
15CC
330
1F
100
AcDbEntity
  8
SANINDUSA
100
AcDbPolyline
 90
       14
 70
   128
 43
0.0
 10
1462.830034045586
 20
1673.697674019778
 10
1462.82855452657
 20
1673.695278911258
 10
1462.826698257559
 20
1673.69316243095
 10
1462.824509567672
 20
1673.691389463666
 10
1462.822054144848
 20
1673.690009669583
 10
1462.819419317171
 20
1673.689077866164
 10
1462.816664964868
 20
1673.688605016438
 10
1462.813910475813
 20
1673.688609668674
 10
1462.811195287351
 20
1673.689073870457
 10
1462.80860085468
 20
1673.689986756237
 10
1462.8061918218
 20
1673.69131409137
 10
1462.804009675079
 20
1673.693046232157
 10
1462.802141932253
 20
1673.695113588608
 10
1462.801666688842
 20
1673.695769164639
  0
LWPOLYLINE
  5
15CD
330
1F
100
AcDbEntity
  8
SANINDUSA
100
AcDbPolyline
 90
       12
 70
   128
 43
0.0
 10
1462.801605655008
 20
1673.702160755276
 10
1462.803430290621
 20
1673.70448777356
 10
1462.805615181393
 20
1673.706480224967
 10
1462.808107878011
 20
1673.708074937642
 10
1462.810833702768
 20
1673.709226111195
 10
1462.813683262382
 20
1673.709884191216
 10
1462.816603015811
 20
1673.71005085682
 10
1462.819465288619
 20
1673.709722597027
 10
1462.822233794372
 20
1673.708924595539
 10
1462.824844325237
 20
1673.707668786614
 10
1462.827214384694
 20
1673.706002724015
 10
1462.829239740436
 20
1673.70401637158
  0
LWPOLYLINE
  5
15CE
330
1F
100
AcDbEntity
  8
SANINDUSA
100
AcDbPolyline
 90
       14
 70
   128
 43
0.0
 10
1462.830034045586
 20
1673.762664119963
 10
1462.82855452657
 20
1673.760269011443
 10
1462.826698257559
 20
1673.758152531136
 10
1462.824509567672
 20
1673.756379563851
 10
1462.822054144848
 20
1673.754999769768
 10
1462.819419317171
 20
1673.754067966349
 10
1462.816664964868
 20
1673.753595116623
 10
1462.813910475813
 20
1673.753599768859
 10
1462.811195287351
 20
1673.754063970642
 10
1462.80860085468
 20
1673.754976856422
 10
1462.8061918218
 20
1673.756304191555
 10
1462.804009675079
 20
1673.758036332342
 10
1462.802141932253
 20
1673.760103688794
 10
1462.801666688842
 20
1673.760759264824
  0
LWPOLYLINE
  5
15CF
330
1F
100
AcDbEntity
  8
SANINDUSA
100
AcDbPolyline
 90
       12
 70
   128
 43
0.0
 10
1462.801605655008
 20
1673.767150855462
 10
1462.803430290621
 20
1673.769477873745
 10
1462.805615181393
 20
1673.771470325152
 10
1462.808107878011
 20
1673.773065037827
 10
1462.810833702768
 20
1673.77421621138
 10
1462.813683262382
 20
1673.774874291401
 10
1462.816603015811
 20
1673.775040957005
 10
1462.819465288619
 20
1673.774712697212
 10
1462.822233794372
 20
1673.773914695725
 10
1462.824844325237
 20
1673.7726588868
 10
1462.827214384694
 20
1673.7709928242
 10
1462.829239740436
 20
1673.769006471765
  0
LWPOLYLINE
  5
15D0
330
1F
100
AcDbEntity
  8
SANINDUSA
100
AcDbPolyline
 90
       14
 70
   128
 43
0.0
 10
1462.830034045586
 20
1673.827654220149
 10
1462.82855452657
 20
1673.825259111628
 10
1462.826698257559
 20
1673.823142631321
 10
1462.824509567672
 20
1673.821369664036
 10
1462.822054144848
 20
1673.819989869953
 10
1462.819419317171
 20
1673.819058066534
 10
1462.816664964868
 20
1673.818585216809
 10
1462.813910475813
 20
1673.818589869044
 10
1462.811195287351
 20
1673.819054070827
 10
1462.80860085468
 20
1673.819966956607
 10
1462.8061918218
 20
1673.82129429174
 10
1462.804009675079
 20
1673.823026432527
 10
1462.802141932253
 20
1673.825093788979
 10
1462.801666688842
 20
1673.825749365009
  0
LWPOLYLINE
  5
15D1
330
1F
100
AcDbEntity
  8
SANINDUSA
100
AcDbPolyline
 90
       12
 70
   128
 43
0.0
 10
1462.801605655008
 20
1673.832140955647
 10
1462.803430290621
 20
1673.83446797393
 10
1462.805615181393
 20
1673.836460425337
 10
1462.808107878011
 20
1673.838055138012
 10
1462.810833702768
 20
1673.839206311565
 10
1462.813683262382
 20
1673.839864391586
 10
1462.816603015811
 20
1673.84003105719
 10
1462.819465288619
 20
1673.839702797397
 10
1462.822233794372
 20
1673.83890479591
 10
1462.824844325237
 20
1673.837648986985
 10
1462.827214384694
 20
1673.835982924385
 10
1462.829239740436
 20
1673.83399657195
  0
LWPOLYLINE
  5
15E1
330
1F
100
AcDbEntity
  8
SANINDUSA
100
AcDbPolyline
 90
        5
 70
   128
 43
0.0
 10
1462.801666688842
 20
1673.630779064454
 10
1462.80085071235
 20
1673.632516491462
 10
1462.800661468852
 20
1673.634429328677
 10
1462.801110243131
 20
1673.636251281985
 10
1462.801605655008
 20
1673.637170655091
  0
LWPOLYLINE
  5
15E2
330
1F
100
AcDbEntity
  8
SANINDUSA
100
AcDbPolyline
 90
        5
 70
   128
 43
0.0
 10
1462.801666688842
 20
1673.695769164639
 10
1462.80085071235
 20
1673.697506591647
 10
1462.800661468852
 20
1673.699419428862
 10
1462.801110243131
 20
1673.70124138217
 10
1462.801605655008
 20
1673.702160755276
  0
LWPOLYLINE
  5
15E3
330
1F
100
AcDbEntity
  8
SANINDUSA
100
AcDbPolyline
 90
        5
 70
   128
 43
0.0
 10
1462.801666688842
 20
1673.760759264824
 10
1462.80085071235
 20
1673.762496691832
 10
1462.800661468852
 20
1673.764409529047
 10
1462.801110243131
 20
1673.766231482355
 10
1462.801605655008
 20
1673.767150855462
  0
LWPOLYLINE
  5
15E4
330
1F
100
AcDbEntity
  8
SANINDUSA
100
AcDbPolyline
 90
        5
 70
   128
 43
0.0
 10
1462.801666688842
 20
1673.825749365009
 10
1462.80085071235
 20
1673.827486792017
 10
1462.800661468852
 20
1673.829399629233
 10
1462.801110243131
 20
1673.83122158254
 10
1462.801605655008
 20
1673.832140955647
  0
LWPOLYLINE
  5
15F1
330
1F
100
AcDbEntity
  8
SANINDUSA
100
AcDbPolyline
 90
       14
 70
   128
 43
0.0
 10
1462.889937592507
 20
1673.636389826101
 10
1462.888437766248
 20
1673.634007377578
 10
1462.886563572206
 20
1673.63190674896
 10
1462.884359889481
 20
1673.630152445987
 10
1462.881892825799
 20
1673.628793568804
 10
1462.879250172088
 20
1673.62788419075
 10
1462.876491899611
 20
1673.627434765572
 10
1462.873737549603
 20
1673.62746282627
 10
1462.871026405375
 20
1673.627950085925
 10
1462.868439826815
 20
1673.628884987142
 10
1462.866042164559
 20
1673.630232747149
 10
1462.863874821499
 20
1673.631983370028
 10
1462.862024720625
 20
1673.634066524545
 10
1462.861555067398
 20
1673.634726115682
  0
LWPOLYLINE
  5
15F3
330
1F
100
AcDbEntity
  8
SANINDUSA
100
AcDbPolyline
 90
       12
 70
   128
 43
0.0
 10
1462.861548370334
 20
1673.641117994125
 10
1462.863392721893
 20
1673.643429421947
 10
1462.865594471462
 20
1673.645403233401
 10
1462.868100634604
 20
1673.646976704645
 10
1462.870836146961
 20
1673.648104671584
 10
1462.873691197944
 20
1673.64873851126
 10
1462.876612262718
 20
1673.648880357738
 10
1462.879471641615
 20
1673.648527785187
 10
1462.882233263595
 20
1673.647706284777
 10
1462.884833024597
 20
1673.646428335993
 10
1462.887188835333
 20
1673.644742191966
 10
1462.889197232039
 20
1673.642738699088
  0
LWPOLYLINE
  5
15F7
330
1F
100
AcDbEntity
  8
SANINDUSA
100
AcDbPolyline
 90
        5
 70
   128
 43
0.0
 10
1462.861555067398
 20
1673.634726115682
 10
1462.860753890154
 20
1673.636470414389
 10
1462.860580914417
 20
1673.638384790766
 10
1462.861045160813
 20
1673.640202864416
 10
1462.861548370334
 20
1673.641117994125
  0
LWPOLYLINE
  5
15FD
330
1F
100
AcDbEntity
  8
SANINDUSA
100
AcDbPolyline
 90
        5
 70
   128
 43
0.0
 10
1462.829239740436
 20
1673.639026271394
 10
1462.830249446693
 20
1673.637389630678
 10
1462.830658396344
 20
1673.635507334682
 10
1462.830418947001
 20
1673.633641614586
 10
1462.830034045586
 20
1673.632683919593
  0
LWPOLYLINE
  5
1601
330
1F
100
AcDbEntity
  8
SANINDUSA
100
AcDbPolyline
 90
        5
 70
   128
 43
0.0
 10
1462.921474836294
 20
1673.638164071537
 10
1462.920688516179
 20
1673.639915115925
 10
1462.920531820701
 20
1673.641830893159
 10
1462.921011505672
 20
1673.643644955805
 10
1462.921522476485
 20
1673.644555776003
  0
LWPOLYLINE
  5
1605
330
1F
100
AcDbEntity
  8
SANINDUSA
100
AcDbPolyline
 90
        5
 70
   128
 43
0.0
 10
1462.889197232039
 20
1673.642738699088
 10
1462.890192988829
 20
1673.641093536647
 10
1462.890585922411
 20
1673.639207833246
 10
1462.890330621332
 20
1673.63734421547
 10
1462.889937592507
 20
1673.636389826101
  0
LWPOLYLINE
  5
160C
330
1F
100
AcDbEntity
  8
SANINDUSA
100
AcDbPolyline
 90
       14
 70
   128
 43
0.0
 10
1462.889937592507
 20
1673.831360126656
 10
1462.888437766248
 20
1673.828977678134
 10
1462.886563572206
 20
1673.826877049515
 10
1462.884359889481
 20
1673.825122746542
 10
1462.881892825799
 20
1673.82376386936
 10
1462.879250172088
 20
1673.822854491305
 10
1462.876491899611
 20
1673.822405066127
 10
1462.873737549603
 20
1673.822433126825
 10
1462.871026405375
 20
1673.82292038648
 10
1462.868439826815
 20
1673.823855287698
 10
1462.866042164559
 20
1673.825203047705
 10
1462.863874821499
 20
1673.826953670583
 10
1462.862024720625
 20
1673.8290368251
 10
1462.861555067398
 20
1673.829696416238
  0
LWPOLYLINE
  5
160D
330
1F
100
AcDbEntity
  8
SANINDUSA
100
AcDbPolyline
 90
       12
 70
   128
 43
0.0
 10
1462.861548370334
 20
1673.836088294681
 10
1462.863392721893
 20
1673.838399722502
 10
1462.865594471462
 20
1673.840373533956
 10
1462.868100634604
 20
1673.841947005201
 10
1462.870836146961
 20
1673.84307497214
 10
1462.873691197944
 20
1673.843708811816
 10
1462.876612262718
 20
1673.843850658293
 10
1462.879471641615
 20
1673.843498085743
 10
1462.882233263595
 20
1673.842676585333
 10
1462.884833024597
 20
1673.841398636548
 10
1462.887188835333
 20
1673.839712492521
 10
1462.889197232039
 20
1673.837708999643
  0
LWPOLYLINE
  5
1612
330
1F
100
AcDbEntity
  8
SANINDUSA
100
AcDbPolyline
 90
       14
 70
   128
 43
0.0
 10
1462.889937592507
 20
1673.766370026471
 10
1462.888437766248
 20
1673.763987577949
 10
1462.886563572206
 20
1673.76188694933
 10
1462.884359889481
 20
1673.760132646357
 10
1462.881892825799
 20
1673.758773769174
 10
1462.879250172088
 20
1673.75786439112
 10
1462.876491899611
 20
1673.757414965942
 10
1462.873737549603
 20
1673.75744302664
 10
1462.871026405375
 20
1673.757930286295
 10
1462.868439826815
 20
1673.758865187513
 10
1462.866042164559
 20
1673.760212947519
 10
1462.863874821499
 20
1673.761963570398
 10
1462.862024720625
 20
1673.764046724915
 10
1462.861555067398
 20
1673.764706316053
  0
LWPOLYLINE
  5
1613
330
1F
100
AcDbEntity
  8
SANINDUSA
100
AcDbPolyline
 90
       12
 70
   128
 43
0.0
 10
1462.861548370334
 20
1673.771098194496
 10
1462.863392721893
 20
1673.773409622317
 10
1462.865594471462
 20
1673.775383433771
 10
1462.868100634604
 20
1673.776956905016
 10
1462.870836146961
 20
1673.778084871955
 10
1462.873691197944
 20
1673.77871871163
 10
1462.876612262718
 20
1673.778860558108
 10
1462.879471641615
 20
1673.778507985558
 10
1462.882233263595
 20
1673.777686485147
 10
1462.884833024597
 20
1673.776408536363
 10
1462.887188835333
 20
1673.774722392336
 10
1462.889197232039
 20
1673.772718899458
  0
LWPOLYLINE
  5
1618
330
1F
100
AcDbEntity
  8
SANINDUSA
100
AcDbPolyline
 90
       14
 70
   128
 43
0.0
 10
1462.889937592507
 20
1673.701379926286
 10
1462.888437766248
 20
1673.698997477764
 10
1462.886563572206
 20
1673.696896849145
 10
1462.884359889481
 20
1673.695142546172
 10
1462.881892825799
 20
1673.693783668989
 10
1462.879250172088
 20
1673.692874290935
 10
1462.876491899611
 20
1673.692424865757
 10
1462.873737549603
 20
1673.692452926455
 10
1462.871026405375
 20
1673.69294018611
 10
1462.868439826815
 20
1673.693875087328
 10
1462.866042164559
 20
1673.695222847334
 10
1462.863874821499
 20
1673.696973470213
 10
1462.862024720625
 20
1673.69905662473
 10
1462.861555067398
 20
1673.699716215867
  0
LWPOLYLINE
  5
1619
330
1F
100
AcDbEntity
  8
SANINDUSA
100
AcDbPolyline
 90
       12
 70
   128
 43
0.0
 10
1462.861548370334
 20
1673.706108094311
 10
1462.863392721893
 20
1673.708419522132
 10
1462.865594471462
 20
1673.710393333586
 10
1462.868100634604
 20
1673.71196680483
 10
1462.870836146961
 20
1673.713094771769
 10
1462.873691197944
 20
1673.713728611445
 10
1462.876612262718
 20
1673.713870457923
 10
1462.879471641615
 20
1673.713517885372
 10
1462.882233263595
 20
1673.712696384962
 10
1462.884833024597
 20
1673.711418436178
 10
1462.887188835333
 20
1673.709732292151
 10
1462.889197232039
 20
1673.707728799273
  0
LWPOLYLINE
  5
161D
330
1F
100
AcDbEntity
  8
SANINDUSA
100
AcDbPolyline
 90
        5
 70
   128
 43
0.0
 10
1462.861555067398
 20
1673.829696416238
 10
1462.860753890154
 20
1673.831440714945
 10
1462.860580914417
 20
1673.833355091321
 10
1462.861045160813
 20
1673.835173164972
 10
1462.861548370334
 20
1673.836088294681
  0
LWPOLYLINE
  5
1622
330
1F
100
AcDbEntity
  8
SANINDUSA
100
AcDbPolyline
 90
        5
 70
   128
 43
0.0
 10
1462.861555067398
 20
1673.764706316053
 10
1462.860753890154
 20
1673.766450614759
 10
1462.860580914417
 20
1673.768364991136
 10
1462.861045160813
 20
1673.770183064787
 10
1462.861548370334
 20
1673.771098194496
  0
LWPOLYLINE
  5
1626
330
1F
100
AcDbEntity
  8
SANINDUSA
100
AcDbPolyline
 90
        5
 70
   128
 43
0.0
 10
1462.861555067398
 20
1673.699716215867
 10
1462.860753890154
 20
1673.701460514574
 10
1462.860580914417
 20
1673.703374890951
 10
1462.861045160813
 20
1673.705192964602
 10
1462.861548370334
 20
1673.706108094311
  0
LWPOLYLINE
  5
1628
330
1F
100
AcDbEntity
  8
SANINDUSA
100
AcDbPolyline
 90
        5
 70
   128
 43
0.0
 10
1462.829239740436
 20
1673.70401637158
 10
1462.830249446693
 20
1673.702379730863
 10
1462.830658396344
 20
1673.700497434868
 10
1462.830418947001
 20
1673.698631714772
 10
1462.830034045586
 20
1673.697674019778
  0
LWPOLYLINE
  5
1629
330
1F
100
AcDbEntity
  8
SANINDUSA
100
AcDbPolyline
 90
        5
 70
   128
 43
0.0
 10
1462.829239740436
 20
1673.769006471765
 10
1462.830249446693
 20
1673.767369831049
 10
1462.830658396344
 20
1673.765487535053
 10
1462.830418947001
 20
1673.763621814957
 10
1462.830034045586
 20
1673.762664119963
  0
LWPOLYLINE
  5
162A
330
1F
100
AcDbEntity
  8
SANINDUSA
100
AcDbPolyline
 90
        5
 70
   128
 43
0.0
 10
1462.829239740436
 20
1673.83399657195
 10
1462.830249446693
 20
1673.832359931234
 10
1462.830658396344
 20
1673.830477635238
 10
1462.830418947001
 20
1673.828611915142
 10
1462.830034045586
 20
1673.827654220149
  0
LWPOLYLINE
  5
163C
330
1F
100
AcDbEntity
  8
SANINDUSA
100
AcDbPolyline
 90
        5
 70
   128
 43
0.0
 10
1462.921474836294
 20
1673.833134372093
 10
1462.920688516179
 20
1673.834885416481
 10
1462.920531820701
 20
1673.836801193715
 10
1462.921011505672
 20
1673.83861525636
 10
1462.921522476485
 20
1673.839526076559
  0
LWPOLYLINE
  5
1640
330
1F
100
AcDbEntity
  8
SANINDUSA
100
AcDbPolyline
 90
        5
 70
   128
 43
0.0
 10
1462.889197232039
 20
1673.837708999643
 10
1462.890192988829
 20
1673.836063837203
 10
1462.890585922411
 20
1673.834178133801
 10
1462.890330621332
 20
1673.832314516025
 10
1462.889937592507
 20
1673.831360126656
  0
LWPOLYLINE
  5
1648
330
1F
100
AcDbEntity
  8
SANINDUSA
100
AcDbPolyline
 90
        5
 70
   128
 43
0.0
 10
1462.921474836294
 20
1673.768144271907
 10
1462.920688516179
 20
1673.769895316296
 10
1462.920531820701
 20
1673.77181109353
 10
1462.921011505672
 20
1673.773625156175
 10
1462.921522476485
 20
1673.774535976373
  0
LWPOLYLINE
  5
164C
330
1F
100
AcDbEntity
  8
SANINDUSA
100
AcDbPolyline
 90
        5
 70
   128
 43
0.0
 10
1462.889197232039
 20
1673.772718899458
 10
1462.890192988829
 20
1673.771073737018
 10
1462.890585922411
 20
1673.769188033616
 10
1462.890330621332
 20
1673.76732441584
 10
1462.889937592507
 20
1673.766370026471
  0
LWPOLYLINE
  5
1652
330
1F
100
AcDbEntity
  8
SANINDUSA
100
AcDbPolyline
 90
        5
 70
   128
 43
0.0
 10
1462.921474836294
 20
1673.703154171722
 10
1462.920688516179
 20
1673.70490521611
 10
1462.920531820701
 20
1673.706820993345
 10
1462.921011505672
 20
1673.70863505599
 10
1462.921522476485
 20
1673.709545876188
  0
LWPOLYLINE
  5
1656
330
1F
100
AcDbEntity
  8
SANINDUSA
100
AcDbPolyline
 90
        5
 70
   128
 43
0.0
 10
1462.889197232039
 20
1673.707728799273
 10
1462.890192988829
 20
1673.706083636832
 10
1462.890585922411
 20
1673.704197933431
 10
1462.890330621332
 20
1673.702334315655
 10
1462.889937592507
 20
1673.701379926286
  0
LWPOLYLINE
  5
1660
330
1F
100
AcDbEntity
  8
SANINDUSA
100
AcDbPolyline
 90
       14
 70
   128
 43
0.0
 10
1462.830034045586
 20
1673.892644320334
 10
1462.82855452657
 20
1673.890249211814
 10
1462.826698257559
 20
1673.888132731506
 10
1462.824509567672
 20
1673.886359764221
 10
1462.822054144848
 20
1673.884979970138
 10
1462.819419317171
 20
1673.88404816672
 10
1462.816664964868
 20
1673.883575316994
 10
1462.813910475813
 20
1673.883579969229
 10
1462.811195287351
 20
1673.884044171012
 10
1462.80860085468
 20
1673.884957056792
 10
1462.8061918218
 20
1673.886284391925
 10
1462.804009675079
 20
1673.888016532713
 10
1462.802141932253
 20
1673.890083889164
 10
1462.801666688842
 20
1673.890739465194
  0
LWPOLYLINE
  5
1661
330
1F
100
AcDbEntity
  8
SANINDUSA
100
AcDbPolyline
 90
       12
 70
   128
 43
0.0
 10
1462.801605655008
 20
1673.897131055832
 10
1462.803430290621
 20
1673.899458074115
 10
1462.805615181393
 20
1673.901450525522
 10
1462.808107878011
 20
1673.903045238197
 10
1462.810833702768
 20
1673.90419641175
 10
1462.813683262382
 20
1673.904854491771
 10
1462.816603015811
 20
1673.905021157375
 10
1462.819465288619
 20
1673.904692897582
 10
1462.822233794372
 20
1673.903894896095
 10
1462.824844325237
 20
1673.90263908717
 10
1462.827214384694
 20
1673.90097302457
 10
1462.829239740436
 20
1673.898986672135
  0
LWPOLYLINE
  5
1666
330
1F
100
AcDbEntity
  8
SANINDUSA
100
AcDbPolyline
 90
        5
 70
   128
 43
0.0
 10
1462.801666688842
 20
1673.890739465194
 10
1462.80085071235
 20
1673.892476892202
 10
1462.800661468852
 20
1673.894389729418
 10
1462.801110243131
 20
1673.896211682725
 10
1462.801605655008
 20
1673.897131055832
  0
LWPOLYLINE
  5
166C
330
1F
100
AcDbEntity
  8
SANINDUSA
100
AcDbPolyline
 90
       14
 70
   128
 43
0.0
 10
1462.889937592507
 20
1673.896350226841
 10
1462.888437766248
 20
1673.893967778319
 10
1462.886563572206
 20
1673.8918671497
 10
1462.884359889481
 20
1673.890112846727
 10
1462.881892825799
 20
1673.888753969545
 10
1462.879250172088
 20
1673.88784459149
 10
1462.876491899611
 20
1673.887395166313
 10
1462.873737549603
 20
1673.887423227011
 10
1462.871026405375
 20
1673.887910486665
 10
1462.868439826815
 20
1673.888845387883
 10
1462.866042164559
 20
1673.89019314789
 10
1462.863874821499
 20
1673.891943770769
 10
1462.862024720625
 20
1673.894026925285
 10
1462.861555067398
 20
1673.894686516423
  0
LWPOLYLINE
  5
166D
330
1F
100
AcDbEntity
  8
SANINDUSA
100
AcDbPolyline
 90
       12
 70
   128
 43
0.0
 10
1462.861548370334
 20
1673.901078394866
 10
1462.863392721893
 20
1673.903389822688
 10
1462.865594471462
 20
1673.905363634141
 10
1462.868100634604
 20
1673.906937105386
 10
1462.870836146961
 20
1673.908065072325
 10
1462.873691197944
 20
1673.908698912001
 10
1462.876612262718
 20
1673.908840758478
 10
1462.879471641615
 20
1673.908488185928
 10
1462.882233263595
 20
1673.907666685518
 10
1462.884833024597
 20
1673.906388736734
 10
1462.887188835333
 20
1673.904702592706
 10
1462.889197232039
 20
1673.902699099828
  0
LWPOLYLINE
  5
1671
330
1F
100
AcDbEntity
  8
SANINDUSA
100
AcDbPolyline
 90
        5
 70
   128
 43
0.0
 10
1462.861555067398
 20
1673.894686516423
 10
1462.860753890154
 20
1673.89643081513
 10
1462.860580914417
 20
1673.898345191507
 10
1462.861045160813
 20
1673.900163265157
 10
1462.861548370334
 20
1673.901078394866
  0
LWPOLYLINE
  5
1674
330
1F
100
AcDbEntity
  8
SANINDUSA
100
AcDbPolyline
 90
        5
 70
   128
 43
0.0
 10
1462.829239740436
 20
1673.898986672135
 10
1462.830249446693
 20
1673.897350031419
 10
1462.830658396344
 20
1673.895467735423
 10
1462.830418947001
 20
1673.893602015327
 10
1462.830034045586
 20
1673.892644320334
  0
LWPOLYLINE
  5
167C
330
1F
100
AcDbEntity
  8
SANINDUSA
100
AcDbPolyline
 90
        5
 70
   128
 43
0.0
 10
1462.921474836294
 20
1673.898124472278
 10
1462.920688516179
 20
1673.899875516666
 10
1462.920531820701
 20
1673.9017912939
 10
1462.921011505672
 20
1673.903605356545
 10
1462.921522476485
 20
1673.904516176744
  0
LWPOLYLINE
  5
1680
330
1F
100
AcDbEntity
  8
SANINDUSA
100
AcDbPolyline
 90
        5
 70
   128
 43
0.0
 10
1462.889197232039
 20
1673.902699099828
 10
1462.890192988829
 20
1673.901053937388
 10
1462.890585922411
 20
1673.899168233986
 10
1462.890330621332
 20
1673.897304616211
 10
1462.889937592507
 20
1673.896350226841
  0
LWPOLYLINE
  5
168A
330
1F
100
AcDbEntity
  8
SANINDUSA
100
AcDbPolyline
 90
       14
 70
   128
 43
0.0
 10
1463.069806950969
 20
1673.839421665785
 10
1463.068246858941
 20
1673.837078226261
 10
1463.066319707349
 20
1673.835026058638
 10
1463.064072005622
 20
1673.833328503601
 10
1463.061571092068
 20
1673.832032960076
 10
1463.058906107966
 20
1673.831191245801
 10
1463.056137271658
 20
1673.830812282302
 10
1463.053384532617
 20
1673.830910549458
 10
1463.050686695057
 20
1673.831466764863
 10
1463.048124797701
 20
1673.832467300804
 10
1463.045762283292
 20
1673.833875745348
 10
1463.04364028636
 20
1673.835681050359
 10
1463.041843908167
 20
1673.837810691573
 10
1463.041391227444
 20
1673.838482040974
  0
LWPOLYLINE
  5
168B
330
1F
100
AcDbEntity
  8
SANINDUSA
100
AcDbPolyline
 90
       12
 70
   128
 43
0.0
 10
1463.041547527893
 20
1673.844872012217
 10
1463.043450222164
 20
1673.847135671277
 10
1463.045701588914
 20
1673.849052712715
 10
1463.048247061446
 20
1673.850561783793
 10
1463.051010448107
 20
1673.851619648683
 10
1463.053880734098
 20
1673.852180499592
 10
1463.056804466408
 20
1673.852247834381
 10
1463.059653925019
 20
1673.851822483405
 10
1463.062393700654
 20
1673.850930849093
 10
1463.064960028322
 20
1673.849587041052
 10
1463.067272075896
 20
1673.847841389397
 10
1463.069228729864
 20
1673.84578734855
  0
LWPOLYLINE
  5
1690
330
1F
100
AcDbEntity
  8
SANINDUSA
100
AcDbPolyline
 90
       14
 70
   128
 43
0.0
 10
1463.069806950969
 20
1673.7744315656
 10
1463.068246858941
 20
1673.772088126076
 10
1463.066319707349
 20
1673.770035958452
 10
1463.064072005622
 20
1673.768338403416
 10
1463.061571092068
 20
1673.76704285989
 10
1463.058906107966
 20
1673.766201145616
 10
1463.056137271658
 20
1673.765822182116
 10
1463.053384532617
 20
1673.765920449273
 10
1463.050686695057
 20
1673.766476664678
 10
1463.048124797701
 20
1673.767477200619
 10
1463.045762283292
 20
1673.768885645162
 10
1463.04364028636
 20
1673.770690950174
 10
1463.041843908167
 20
1673.772820591388
 10
1463.041391227444
 20
1673.773491940789
  0
LWPOLYLINE
  5
1695
330
1F
100
AcDbEntity
  8
SANINDUSA
100
AcDbPolyline
 90
       14
 70
   128
 43
0.0
 10
1463.069806950969
 20
1673.709441465415
 10
1463.068246858941
 20
1673.707098025891
 10
1463.066319707349
 20
1673.705045858267
 10
1463.064072005622
 20
1673.703348303231
 10
1463.061571092068
 20
1673.702052759705
 10
1463.058906107966
 20
1673.70121104543
 10
1463.056137271658
 20
1673.700832081931
 10
1463.053384532617
 20
1673.700930349088
 10
1463.050686695057
 20
1673.701486564493
 10
1463.048124797701
 20
1673.702487100434
 10
1463.045762283292
 20
1673.703895544977
 10
1463.04364028636
 20
1673.705700849989
 10
1463.041843908167
 20
1673.707830491203
 10
1463.041391227444
 20
1673.708501840603
  0
LWPOLYLINE
  5
169A
330
1F
100
AcDbEntity
  8
SANINDUSA
100
AcDbPolyline
 90
       12
 70
   128
 43
0.0
 10
1463.041547527893
 20
1673.714891811846
 10
1463.043450222164
 20
1673.717155470907
 10
1463.045701588914
 20
1673.719072512345
 10
1463.048247061446
 20
1673.720581583423
 10
1463.051010448107
 20
1673.721639448312
 10
1463.053880734098
 20
1673.722200299222
 10
1463.056804466408
 20
1673.72226763401
 10
1463.059653925019
 20
1673.721842283035
 10
1463.062393700654
 20
1673.720950648722
 10
1463.064960028322
 20
1673.719606840681
 10
1463.067272075896
 20
1673.717861189026
 10
1463.069228729864
 20
1673.71580714818
  0
LWPOLYLINE
  5
169C
330
1F
100
AcDbEntity
  8
SANINDUSA
100
AcDbPolyline
 90
       14
 70
   128
 43
0.0
 10
1463.069806950969
 20
1673.644451365229
 10
1463.068246858941
 20
1673.642107925706
 10
1463.066319707349
 20
1673.640055758082
 10
1463.064072005622
 20
1673.638358203046
 10
1463.061571092068
 20
1673.63706265952
 10
1463.058906107966
 20
1673.636220945245
 10
1463.056137271658
 20
1673.635841981746
 10
1463.053384532617
 20
1673.635940248903
 10
1463.050686695057
 20
1673.636496464308
 10
1463.048124797701
 20
1673.637497000249
 10
1463.045762283292
 20
1673.638905444792
 10
1463.04364028636
 20
1673.640710749804
 10
1463.041843908167
 20
1673.642840391018
 10
1463.041391227444
 20
1673.643511740418
  0
LWPOLYLINE
  5
16A0
330
1F
100
AcDbEntity
  8
SANINDUSA
100
AcDbPolyline
 90
       12
 70
   128
 43
0.0
 10
1463.041547527893
 20
1673.649901711661
 10
1463.043450222164
 20
1673.652165370722
 10
1463.045701588914
 20
1673.65408241216
 10
1463.048247061446
 20
1673.655591483238
 10
1463.051010448107
 20
1673.656649348127
 10
1463.053880734098
 20
1673.657210199037
 10
1463.056804466408
 20
1673.657277533825
 10
1463.059653925019
 20
1673.65685218285
 10
1463.062393700654
 20
1673.655960548537
 10
1463.064960028322
 20
1673.654616740496
 10
1463.067272075896
 20
1673.652871088841
 10
1463.069228729864
 20
1673.650817047994
  0
LWPOLYLINE
  5
16A1
330
1F
100
AcDbEntity
  8
SANINDUSA
100
AcDbPolyline
 90
       12
 70
   128
 43
0.0
 10
1463.041547527893
 20
1673.779881912032
 10
1463.043450222164
 20
1673.782145571092
 10
1463.045701588914
 20
1673.78406261253
 10
1463.048247061446
 20
1673.785571683608
 10
1463.051010448107
 20
1673.786629548498
 10
1463.053880734098
 20
1673.787190399407
 10
1463.056804466408
 20
1673.787257734195
 10
1463.059653925019
 20
1673.78683238322
 10
1463.062393700654
 20
1673.785940748907
 10
1463.064960028322
 20
1673.784596940866
 10
1463.067272075896
 20
1673.782851289212
 10
1463.069228729864
 20
1673.780797248365
  0
LWPOLYLINE
  5
16A5
330
1F
100
AcDbEntity
  8
SANINDUSA
100
AcDbPolyline
 90
       14
 70
   128
 43
0.0
 10
1463.009828375976
 20
1673.642273761462
 10
1463.008288261755
 20
1673.639917148372
 10
1463.006378625142
 20
1673.637848677256
 10
1463.004145435432
 20
1673.63613208177
 10
1463.001655625563
 20
1673.634815331388
 10
1462.998997893095
 20
1673.633950999532
 10
1462.996232378353
 20
1673.633548519164
 10
1462.993478903385
 20
1673.633623389013
 10
1462.990776434921
 20
1673.634156657141
 10
1462.988206124606
 20
1673.635135385022
 10
1462.985831722426
 20
1673.636523701199
 10
1462.983694455346
 20
1673.638310907511
 10
1462.981880038079
 20
1673.640425205535
 10
1462.981421666603
 20
1673.641092683642
  0
LWPOLYLINE
  5
16A7
330
1F
100
AcDbEntity
  8
SANINDUSA
100
AcDbPolyline
 90
       12
 70
   128
 43
0.0
 10
1462.981523640606
 20
1673.647483752359
 10
1462.983407022903
 20
1673.649763499424
 10
1462.985642011662
 20
1673.651699604532
 10
1462.988174563714
 20
1673.653230253431
 10
1462.990928857701
 20
1673.654311564353
 10
1462.993794272248
 20
1673.654896787717
 10
1462.996717326534
 20
1673.654988966992
 10
1462.999570298101
 20
1673.654587847097
 10
1463.002317554503
 20
1673.653719528583
 10
1463.004895213108
 20
1673.652397578651
 10
1463.007222016855
 20
1673.650671638659
 10
1463.009196061433
 20
1673.648634300352
  0
LWPOLYLINE
  5
16A9
330
1F
100
AcDbEntity
  8
SANINDUSA
100
AcDbPolyline
 90
        5
 70
   128
 43
0.0
 10
1462.981421666603
 20
1673.641092683642
 10
1462.980650260426
 20
1673.642850347206
 10
1462.980509856526
 20
1673.644767386892
 10
1462.981004945418
 20
1673.646577307474
 10
1462.981523640606
 20
1673.647483752359
  0
LWPOLYLINE
  5
16AE
330
1F
100
AcDbEntity
  8
SANINDUSA
100
AcDbPolyline
 90
        5
 70
   128
 43
0.0
 10
1462.949184116963
 20
1673.645941452535
 10
1462.950165852347
 20
1673.644287887226
 10
1462.950542741473
 20
1673.642398912651
 10
1462.950271607101
 20
1673.640537531834
 10
1462.949870479262
 20
1673.639586517039
  0
LWPOLYLINE
  5
16B5
330
1F
100
AcDbEntity
  8
SANINDUSA
100
AcDbPolyline
 90
        5
 70
   128
 43
0.0
 10
1463.041391227444
 20
1673.643511740418
 10
1463.040634790935
 20
1673.645275896176
 10
1463.040510688758
 20
1673.647194059815
 10
1463.041021145803
 20
1673.648999707576
 10
1463.041547527893
 20
1673.649901711661
  0
LWPOLYLINE
  5
16B8
330
1F
100
AcDbEntity
  8
SANINDUSA
100
AcDbPolyline
 90
        5
 70
   128
 43
0.0
 10
1463.009196061433
 20
1673.648634300352
 10
1463.010163704485
 20
1673.646972451637
 10
1463.010524521926
 20
1673.645080342359
 10
1463.010237573851
 20
1673.643221332977
 10
1463.009828375976
 20
1673.642273761462
  0
LWPOLYLINE
  5
16BE
330
1F
100
AcDbEntity
  8
SANINDUSA
100
AcDbPolyline
 90
       14
 70
   128
 43
0.0
 10
1463.009828375976
 20
1673.837244062018
 10
1463.008288261755
 20
1673.834887448927
 10
1463.006378625142
 20
1673.832818977812
 10
1463.004145435432
 20
1673.831102382325
 10
1463.001655625563
 20
1673.829785631943
 10
1462.998997893095
 20
1673.828921300088
 10
1462.996232378353
 20
1673.828518819719
 10
1462.993478903385
 20
1673.828593689569
 10
1462.990776434921
 20
1673.829126957696
 10
1462.988206124606
 20
1673.830105685578
 10
1462.985831722426
 20
1673.831494001755
 10
1462.983694455346
 20
1673.833281208066
 10
1462.981880038079
 20
1673.835395506091
 10
1462.981421666603
 20
1673.836062984198
  0
LWPOLYLINE
  5
16BF
330
1F
100
AcDbEntity
  8
SANINDUSA
100
AcDbPolyline
 90
       12
 70
   128
 43
0.0
 10
1462.981523640606
 20
1673.842454052915
 10
1462.983407022903
 20
1673.844733799979
 10
1462.985642011662
 20
1673.846669905087
 10
1462.988174563714
 20
1673.848200553987
 10
1462.990928857701
 20
1673.849281864908
 10
1462.993794272248
 20
1673.849867088272
 10
1462.996717326534
 20
1673.849959267548
 10
1462.999570298101
 20
1673.849558147653
 10
1463.002317554503
 20
1673.848689829139
 10
1463.004895213108
 20
1673.847367879207
 10
1463.007222016855
 20
1673.845641939214
 10
1463.009196061433
 20
1673.843604600908
  0
LWPOLYLINE
  5
16C4
330
1F
100
AcDbEntity
  8
SANINDUSA
100
AcDbPolyline
 90
       14
 70
   128
 43
0.0
 10
1463.009828375976
 20
1673.772253961833
 10
1463.008288261755
 20
1673.769897348742
 10
1463.006378625142
 20
1673.767828877627
 10
1463.004145435432
 20
1673.76611228214
 10
1463.001655625563
 20
1673.764795531758
 10
1462.998997893095
 20
1673.763931199903
 10
1462.996232378353
 20
1673.763528719534
 10
1462.993478903385
 20
1673.763603589384
 10
1462.990776434921
 20
1673.764136857511
 10
1462.988206124606
 20
1673.765115585393
 10
1462.985831722426
 20
1673.766503901569
 10
1462.983694455346
 20
1673.768291107881
 10
1462.981880038079
 20
1673.770405405906
 10
1462.981421666603
 20
1673.771072884012
  0
LWPOLYLINE
  5
16C5
330
1F
100
AcDbEntity
  8
SANINDUSA
100
AcDbPolyline
 90
       12
 70
   128
 43
0.0
 10
1462.981523640606
 20
1673.777463952729
 10
1462.983407022903
 20
1673.779743699794
 10
1462.985642011662
 20
1673.781679804902
 10
1462.988174563714
 20
1673.783210453801
 10
1462.990928857701
 20
1673.784291764723
 10
1462.993794272248
 20
1673.784876988087
 10
1462.996717326534
 20
1673.784969167362
 10
1462.999570298101
 20
1673.784568047467
 10
1463.002317554503
 20
1673.783699728953
 10
1463.004895213108
 20
1673.782377779022
 10
1463.007222016855
 20
1673.780651839029
 10
1463.009196061433
 20
1673.778614500723
  0
LWPOLYLINE
  5
16CA
330
1F
100
AcDbEntity
  8
SANINDUSA
100
AcDbPolyline
 90
       14
 70
   128
 43
0.0
 10
1463.009828375976
 20
1673.707263861648
 10
1463.008288261755
 20
1673.704907248557
 10
1463.006378625142
 20
1673.702838777442
 10
1463.004145435432
 20
1673.701122181955
 10
1463.001655625563
 20
1673.699805431573
 10
1462.998997893095
 20
1673.698941099717
 10
1462.996232378353
 20
1673.698538619349
 10
1462.993478903385
 20
1673.698613489198
 10
1462.990776434921
 20
1673.699146757326
 10
1462.988206124606
 20
1673.700125485207
 10
1462.985831722426
 20
1673.701513801384
 10
1462.983694455346
 20
1673.703301007696
 10
1462.981880038079
 20
1673.70541530572
 10
1462.981421666603
 20
1673.706082783827
  0
LWPOLYLINE
  5
16CB
330
1F
100
AcDbEntity
  8
SANINDUSA
100
AcDbPolyline
 90
       12
 70
   128
 43
0.0
 10
1462.981523640606
 20
1673.712473852544
 10
1462.983407022903
 20
1673.714753599609
 10
1462.985642011662
 20
1673.716689704717
 10
1462.988174563714
 20
1673.718220353616
 10
1462.990928857701
 20
1673.719301664538
 10
1462.993794272248
 20
1673.719886887902
 10
1462.996717326534
 20
1673.719979067177
 10
1462.999570298101
 20
1673.719577947282
 10
1463.002317554503
 20
1673.718709628768
 10
1463.004895213108
 20
1673.717387678836
 10
1463.007222016855
 20
1673.715661738844
 10
1463.009196061433
 20
1673.713624400537
  0
LWPOLYLINE
  5
16D0
330
1F
100
AcDbEntity
  8
SANINDUSA
100
AcDbPolyline
 90
        5
 70
   128
 43
0.0
 10
1462.981421666603
 20
1673.836062984198
 10
1462.980650260426
 20
1673.837820647762
 10
1462.980509856526
 20
1673.839737687447
 10
1462.981004945418
 20
1673.84154760803
 10
1462.981523640606
 20
1673.842454052915
  0
LWPOLYLINE
  5
16D4
330
1F
100
AcDbEntity
  8
SANINDUSA
100
AcDbPolyline
 90
        5
 70
   128
 43
0.0
 10
1462.949184116963
 20
1673.840911753091
 10
1462.950165852347
 20
1673.839258187782
 10
1462.950542741473
 20
1673.837369213207
 10
1462.950271607101
 20
1673.83550783239
 10
1462.949870479262
 20
1673.834556817595
  0
LWPOLYLINE
  5
16D9
330
1F
100
AcDbEntity
  8
SANINDUSA
100
AcDbPolyline
 90
        5
 70
   128
 43
0.0
 10
1462.981421666603
 20
1673.771072884012
 10
1462.980650260426
 20
1673.772830547577
 10
1462.980509856526
 20
1673.774747587262
 10
1462.981004945418
 20
1673.776557507844
 10
1462.981523640606
 20
1673.777463952729
  0
LWPOLYLINE
  5
16DE
330
1F
100
AcDbEntity
  8
SANINDUSA
100
AcDbPolyline
 90
        5
 70
   128
 43
0.0
 10
1462.949184116963
 20
1673.775921652906
 10
1462.950165852347
 20
1673.774268087596
 10
1462.950542741473
 20
1673.772379113022
 10
1462.950271607101
 20
1673.770517732204
 10
1462.949870479262
 20
1673.76956671741
  0
LWPOLYLINE
  5
16E3
330
1F
100
AcDbEntity
  8
SANINDUSA
100
AcDbPolyline
 90
        5
 70
   128
 43
0.0
 10
1462.981421666603
 20
1673.706082783827
 10
1462.980650260426
 20
1673.707840447392
 10
1462.980509856526
 20
1673.709757487077
 10
1462.981004945418
 20
1673.711567407659
 10
1462.981523640606
 20
1673.712473852544
  0
LWPOLYLINE
  5
16E8
330
1F
100
AcDbEntity
  8
SANINDUSA
100
AcDbPolyline
 90
        5
 70
   128
 43
0.0
 10
1462.949184116963
 20
1673.71093155272
 10
1462.950165852347
 20
1673.709277987411
 10
1462.950542741473
 20
1673.707389012836
 10
1462.950271607101
 20
1673.705527632019
 10
1462.949870479262
 20
1673.704576617225
  0
LWPOLYLINE
  5
16EF
330
1F
100
AcDbEntity
  8
SANINDUSA
100
AcDbPolyline
 90
        5
 70
   128
 43
0.0
 10
1463.041391227444
 20
1673.838482040974
 10
1463.040634790935
 20
1673.840246196731
 10
1463.040510688758
 20
1673.842164360371
 10
1463.041021145803
 20
1673.843970008132
 10
1463.041547527893
 20
1673.844872012217
  0
LWPOLYLINE
  5
16F2
330
1F
100
AcDbEntity
  8
SANINDUSA
100
AcDbPolyline
 90
        5
 70
   128
 43
0.0
 10
1463.009196061433
 20
1673.843604600908
 10
1463.010163704485
 20
1673.841942752193
 10
1463.010524521926
 20
1673.840050642915
 10
1463.010237573851
 20
1673.838191633532
 10
1463.009828375976
 20
1673.837244062018
  0
LWPOLYLINE
  5
16F9
330
1F
100
AcDbEntity
  8
SANINDUSA
100
AcDbPolyline
 90
        5
 70
   128
 43
0.0
 10
1463.041391227444
 20
1673.773491940789
 10
1463.040634790935
 20
1673.775256096546
 10
1463.040510688758
 20
1673.777174260185
 10
1463.041021145803
 20
1673.778979907946
 10
1463.041547527893
 20
1673.779881912032
  0
LWPOLYLINE
  5
16FF
330
1F
100
AcDbEntity
  8
SANINDUSA
100
AcDbPolyline
 90
        5
 70
   128
 43
0.0
 10
1463.041391227444
 20
1673.708501840603
 10
1463.040634790935
 20
1673.710265996361
 10
1463.040510688758
 20
1673.71218416
 10
1463.041021145803
 20
1673.713989807761
 10
1463.041547527893
 20
1673.714891811846
  0
LWPOLYLINE
  5
1702
330
1F
100
AcDbEntity
  8
SANINDUSA
100
AcDbPolyline
 90
        5
 70
   128
 43
0.0
 10
1463.009196061433
 20
1673.778614500723
 10
1463.010163704485
 20
1673.776952652008
 10
1463.010524521926
 20
1673.77506054273
 10
1463.010237573851
 20
1673.773201533347
 10
1463.009828375976
 20
1673.772253961833
  0
LWPOLYLINE
  5
1706
330
1F
100
AcDbEntity
  8
SANINDUSA
100
AcDbPolyline
 90
        5
 70
   128
 43
0.0
 10
1463.009196061433
 20
1673.713624400537
 10
1463.010163704485
 20
1673.711962551823
 10
1463.010524521926
 20
1673.710070442544
 10
1463.010237573851
 20
1673.708211433162
 10
1463.009828375976
 20
1673.707263861648
  0
LWPOLYLINE
  5
170D
330
1F
100
AcDbEntity
  8
SANINDUSA
100
AcDbPolyline
 90
       14
 70
   128
 43
0.0
 10
1463.129801871067
 20
1673.646119171019
 10
1463.128221913941
 20
1673.643789074364
 10
1463.126277386596
 20
1673.641753358492
 10
1463.124015335239
 20
1673.640074966546
 10
1463.12150349868
 20
1673.638800723475
 10
1463.118831455477
 20
1673.63798168759
 10
1463.116059497639
 20
1673.637626268338
 10
1463.113307693397
 20
1673.637747925704
 10
1463.110614681648
 20
1673.638327048202
 10
1463.108061382337
 20
1673.639349319918
 10
1463.105710926378
 20
1673.640777791075
 10
1463.103604352899
 20
1673.64260106436
 10
1463.10182614356
 20
1673.644745894909
 10
1463.101379186294
 20
1673.6454210671
  0
LWPOLYLINE
  5
170F
330
1F
100
AcDbEntity
  8
SANINDUSA
100
AcDbPolyline
 90
       12
 70
   128
 43
0.0
 10
1463.101589801897
 20
1673.651809479223
 10
1463.10351167068
 20
1673.654056886739
 10
1463.10577925277
 20
1673.655954726012
 10
1463.108337461886
 20
1673.657442110245
 10
1463.111109741577
 20
1673.658476452676
 10
1463.113984691649
 20
1673.659012890612
 10
1463.116908890755
 20
1673.659055376049
 10
1463.11975463055
 20
1673.658605824723
 10
1463.122486727482
 20
1673.657690939028
 10
1463.125041538809
 20
1673.656325369961
 10
1463.127338663175
 20
1673.654560132759
 10
1463.129277785173
 20
1673.652489537767
  0
LWPOLYLINE
  5
1713
330
1F
100
AcDbEntity
  8
SANINDUSA
100
AcDbPolyline
 90
        5
 70
   128
 43
0.0
 10
1463.101379186294
 20
1673.6454210671
 10
1463.100637774103
 20
1673.647191587599
 10
1463.100529982614
 20
1673.649110736613
 10
1463.101055770933
 20
1673.650911981103
 10
1463.101589801897
 20
1673.651809479223
  0
LWPOLYLINE
  5
1716
330
1F
100
AcDbEntity
  8
SANINDUSA
100
AcDbPolyline
 90
        5
 70
   128
 43
0.0
 10
1463.069228729864
 20
1673.650817047994
 10
1463.070182210676
 20
1673.649147035934
 10
1463.070526930365
 20
1673.647251928648
 10
1463.070224189317
 20
1673.645395425006
 10
1463.069806950969
 20
1673.644451365229
  0
LWPOLYLINE
  5
171D
330
1F
100
AcDbEntity
  8
SANINDUSA
100
AcDbPolyline
 90
        5
 70
   128
 43
0.0
 10
1463.161381209301
 20
1673.646820525747
 10
1463.16065487499
 20
1673.648597283075
 10
1463.160563401977
 20
1673.650517278815
 10
1463.161104483585
 20
1673.652313989903
 10
1463.161646124841
 20
1673.653206917217
  0
LWPOLYLINE
  5
1723
330
1F
100
AcDbEntity
  8
SANINDUSA
100
AcDbPolyline
 90
        5
 70
   128
 43
0.0
 10
1463.129277785173
 20
1673.652489537767
 10
1463.13021703486
 20
1673.650811483012
 10
1463.130545631893
 20
1673.648913514632
 10
1463.130227119744
 20
1673.647059650852
 10
1463.129801871067
 20
1673.646119171019
  0
LWPOLYLINE
  5
1726
330
1F
100
AcDbEntity
  8
SANINDUSA
100
AcDbPolyline
 90
       14
 70
   128
 43
0.0
 10
1463.129801871067
 20
1673.841089471574
 10
1463.128221913941
 20
1673.83875937492
 10
1463.126277386596
 20
1673.836723659048
 10
1463.124015335239
 20
1673.835045267102
 10
1463.12150349868
 20
1673.83377102403
 10
1463.118831455477
 20
1673.832951988145
 10
1463.116059497639
 20
1673.832596568894
 10
1463.113307693397
 20
1673.832718226259
 10
1463.110614681648
 20
1673.833297348758
 10
1463.108061382337
 20
1673.834319620473
 10
1463.105710926378
 20
1673.83574809163
 10
1463.103604352899
 20
1673.837571364915
 10
1463.10182614356
 20
1673.839716195464
 10
1463.101379186294
 20
1673.840391367656
  0
LWPOLYLINE
  5
1727
330
1F
100
AcDbEntity
  8
SANINDUSA
100
AcDbPolyline
 90
       12
 70
   128
 43
0.0
 10
1463.101589801897
 20
1673.846779779778
 10
1463.10351167068
 20
1673.849027187295
 10
1463.10577925277
 20
1673.850925026567
 10
1463.108337461886
 20
1673.8524124108
 10
1463.111109741577
 20
1673.853446753232
 10
1463.113984691649
 20
1673.853983191168
 10
1463.116908890755
 20
1673.854025676604
 10
1463.11975463055
 20
1673.853576125278
 10
1463.122486727482
 20
1673.852661239584
 10
1463.125041538809
 20
1673.851295670517
 10
1463.127338663175
 20
1673.849530433315
 10
1463.129277785173
 20
1673.847459838322
  0
LWPOLYLINE
  5
172E
330
1F
100
AcDbEntity
  8
SANINDUSA
100
AcDbPolyline
 90
       14
 70
   128
 43
0.0
 10
1463.129801871067
 20
1673.711109271204
 10
1463.128221913941
 20
1673.708779174549
 10
1463.126277386596
 20
1673.706743458677
 10
1463.124015335239
 20
1673.705065066732
 10
1463.12150349868
 20
1673.70379082366
 10
1463.118831455477
 20
1673.702971787775
 10
1463.116059497639
 20
1673.702616368523
 10
1463.113307693397
 20
1673.702738025889
 10
1463.110614681648
 20
1673.703317148387
 10
1463.108061382337
 20
1673.704339420103
 10
1463.105710926378
 20
1673.70576789126
 10
1463.103604352899
 20
1673.707591164545
 10
1463.10182614356
 20
1673.709735995094
 10
1463.101379186294
 20
1673.710411167285
  0
LWPOLYLINE
  5
172F
330
1F
100
AcDbEntity
  8
SANINDUSA
100
AcDbPolyline
 90
       12
 70
   128
 43
0.0
 10
1463.101589801897
 20
1673.716799579408
 10
1463.10351167068
 20
1673.719046986924
 10
1463.10577925277
 20
1673.720944826197
 10
1463.108337461886
 20
1673.72243221043
 10
1463.111109741577
 20
1673.723466552861
 10
1463.113984691649
 20
1673.724002990797
 10
1463.116908890755
 20
1673.724045476234
 10
1463.11975463055
 20
1673.723595924908
 10
1463.122486727482
 20
1673.722681039214
 10
1463.125041538809
 20
1673.721315470146
 10
1463.127338663175
 20
1673.719550232945
 10
1463.129277785173
 20
1673.717479637952
  0
LWPOLYLINE
  5
1730
330
1F
100
AcDbEntity
  8
SANINDUSA
100
AcDbPolyline
 90
       14
 70
   128
 43
0.0
 10
1463.129801871067
 20
1673.776099371389
 10
1463.128221913941
 20
1673.773769274735
 10
1463.126277386596
 20
1673.771733558863
 10
1463.124015335239
 20
1673.770055166917
 10
1463.12150349868
 20
1673.768780923845
 10
1463.118831455477
 20
1673.76796188796
 10
1463.116059497639
 20
1673.767606468708
 10
1463.113307693397
 20
1673.767728126074
 10
1463.110614681648
 20
1673.768307248572
 10
1463.108061382337
 20
1673.769329520288
 10
1463.105710926378
 20
1673.770757991445
 10
1463.103604352899
 20
1673.77258126473
 10
1463.10182614356
 20
1673.774726095279
 10
1463.101379186294
 20
1673.77540126747
  0
LWPOLYLINE
  5
1735
330
1F
100
AcDbEntity
  8
SANINDUSA
100
AcDbPolyline
 90
       12
 70
   128
 43
0.0
 10
1463.101589801897
 20
1673.781789679593
 10
1463.10351167068
 20
1673.78403708711
 10
1463.10577925277
 20
1673.785934926382
 10
1463.108337461886
 20
1673.787422310615
 10
1463.111109741577
 20
1673.788456653047
 10
1463.113984691649
 20
1673.788993090983
 10
1463.116908890755
 20
1673.789035576419
 10
1463.11975463055
 20
1673.788586025093
 10
1463.122486727482
 20
1673.787671139399
 10
1463.125041538809
 20
1673.786305570332
 10
1463.127338663175
 20
1673.78454033313
 10
1463.129277785173
 20
1673.782469738137
  0
LWPOLYLINE
  5
1738
330
1F
100
AcDbEntity
  8
SANINDUSA
100
AcDbPolyline
 90
        5
 70
   128
 43
0.0
 10
1463.101379186294
 20
1673.840391367656
 10
1463.100637774103
 20
1673.842161888154
 10
1463.100529982614
 20
1673.844081037168
 10
1463.101055770933
 20
1673.845882281659
 10
1463.101589801897
 20
1673.846779779778
  0
LWPOLYLINE
  5
173C
330
1F
100
AcDbEntity
  8
SANINDUSA
100
AcDbPolyline
 90
        5
 70
   128
 43
0.0
 10
1463.069228729864
 20
1673.84578734855
 10
1463.070182210676
 20
1673.844117336489
 10
1463.070526930365
 20
1673.842222229204
 10
1463.070224189317
 20
1673.840365725561
 10
1463.069806950969
 20
1673.839421665785
  0
LWPOLYLINE
  5
1742
330
1F
100
AcDbEntity
  8
SANINDUSA
100
AcDbPolyline
 90
        5
 70
   128
 43
0.0
 10
1463.101379186294
 20
1673.77540126747
 10
1463.100637774103
 20
1673.777171787969
 10
1463.100529982614
 20
1673.779090936983
 10
1463.101055770933
 20
1673.780892181474
 10
1463.101589801897
 20
1673.781789679593
  0
LWPOLYLINE
  5
1746
330
1F
100
AcDbEntity
  8
SANINDUSA
100
AcDbPolyline
 90
        5
 70
   128
 43
0.0
 10
1463.069228729864
 20
1673.780797248365
 10
1463.070182210676
 20
1673.779127236304
 10
1463.070526930365
 20
1673.777232129019
 10
1463.070224189317
 20
1673.775375625376
 10
1463.069806950969
 20
1673.7744315656
  0
LWPOLYLINE
  5
174A
330
1F
100
AcDbEntity
  8
SANINDUSA
100
AcDbPolyline
 90
        5
 70
   128
 43
0.0
 10
1463.101379186294
 20
1673.710411167285
 10
1463.100637774103
 20
1673.712181687784
 10
1463.100529982614
 20
1673.714100836798
 10
1463.101055770933
 20
1673.715902081288
 10
1463.101589801897
 20
1673.716799579408
  0
LWPOLYLINE
  5
174E
330
1F
100
AcDbEntity
  8
SANINDUSA
100
AcDbPolyline
 90
        5
 70
   128
 43
0.0
 10
1463.069228729864
 20
1673.71580714818
 10
1463.070182210676
 20
1673.714137136119
 10
1463.070526930365
 20
1673.712242028833
 10
1463.070224189317
 20
1673.710385525191
 10
1463.069806950969
 20
1673.709441465415
  0
LWPOLYLINE
  5
1756
330
1F
100
AcDbEntity
  8
SANINDUSA
100
AcDbPolyline
 90
        5
 70
   128
 43
0.0
 10
1463.161381209301
 20
1673.841790826302
 10
1463.16065487499
 20
1673.84356758363
 10
1463.160563401977
 20
1673.84548757937
 10
1463.161104483585
 20
1673.847284290458
 10
1463.161646124841
 20
1673.848177217772
  0
LWPOLYLINE
  5
175C
330
1F
100
AcDbEntity
  8
SANINDUSA
100
AcDbPolyline
 90
        5
 70
   128
 43
0.0
 10
1463.129277785173
 20
1673.847459838322
 10
1463.13021703486
 20
1673.845781783567
 10
1463.130545631893
 20
1673.843883815187
 10
1463.130227119744
 20
1673.842029951408
 10
1463.129801871067
 20
1673.841089471574
  0
LWPOLYLINE
  5
1760
330
1F
100
AcDbEntity
  8
SANINDUSA
100
AcDbPolyline
 90
        5
 70
   128
 43
0.0
 10
1463.161381209301
 20
1673.776800726117
 10
1463.16065487499
 20
1673.778577483445
 10
1463.160563401977
 20
1673.780497479185
 10
1463.161104483585
 20
1673.782294190273
 10
1463.161646124841
 20
1673.783187117587
  0
LWPOLYLINE
  5
1766
330
1F
100
AcDbEntity
  8
SANINDUSA
100
AcDbPolyline
 90
        5
 70
   128
 43
0.0
 10
1463.129277785173
 20
1673.782469738137
 10
1463.13021703486
 20
1673.780791683382
 10
1463.130545631893
 20
1673.778893715002
 10
1463.130227119744
 20
1673.777039851223
 10
1463.129801871067
 20
1673.776099371389
  0
LWPOLYLINE
  5
176A
330
1F
100
AcDbEntity
  8
SANINDUSA
100
AcDbPolyline
 90
        5
 70
   128
 43
0.0
 10
1463.161381209301
 20
1673.711810625932
 10
1463.16065487499
 20
1673.71358738326
 10
1463.160563401977
 20
1673.715507379
 10
1463.161104483585
 20
1673.717304090088
 10
1463.161646124841
 20
1673.718197017402
  0
LWPOLYLINE
  5
1770
330
1F
100
AcDbEntity
  8
SANINDUSA
100
AcDbPolyline
 90
        5
 70
   128
 43
0.0
 10
1463.129277785173
 20
1673.717479637952
 10
1463.13021703486
 20
1673.715801583197
 10
1463.130545631893
 20
1673.713903614817
 10
1463.130227119744
 20
1673.712049751037
 10
1463.129801871067
 20
1673.711109271204
  0
LWPOLYLINE
  5
1772
330
1F
100
AcDbEntity
  8
SANINDUSA
100
AcDbPolyline
 90
       14
 70
   128
 43
0.0
 10
1463.069806950969
 20
1673.90441176597
 10
1463.068246858941
 20
1673.902068326446
 10
1463.066319707349
 20
1673.900016158823
 10
1463.064072005622
 20
1673.898318603786
 10
1463.061571092068
 20
1673.897023060261
 10
1463.058906107966
 20
1673.896181345986
 10
1463.056137271658
 20
1673.895802382487
 10
1463.053384532617
 20
1673.895900649643
 10
1463.050686695057
 20
1673.896456865048
 10
1463.048124797701
 20
1673.897457400989
 10
1463.045762283292
 20
1673.898865845533
 10
1463.04364028636
 20
1673.900671150544
 10
1463.041843908167
 20
1673.902800791759
 10
1463.041391227444
 20
1673.903472141159
  0
LWPOLYLINE
  5
1773
330
1F
100
AcDbEntity
  8
SANINDUSA
100
AcDbPolyline
 90
       12
 70
   128
 43
0.0
 10
1463.041547527893
 20
1673.909862112402
 10
1463.043450222164
 20
1673.912125771462
 10
1463.045701588914
 20
1673.914042812901
 10
1463.048247061446
 20
1673.915551883979
 10
1463.051010448107
 20
1673.916609748868
 10
1463.053880734098
 20
1673.917170599778
 10
1463.056804466408
 20
1673.917237934566
 10
1463.059653925019
 20
1673.91681258359
 10
1463.062393700654
 20
1673.915920949278
 10
1463.064960028322
 20
1673.914577141237
 10
1463.067272075896
 20
1673.912831489582
 10
1463.069228729864
 20
1673.910777448735
  0
LWPOLYLINE
  5
177A
330
1F
100
AcDbEntity
  8
SANINDUSA
100
AcDbPolyline
 90
       14
 70
   128
 43
0.0
 10
1463.009828375976
 20
1673.902234162203
 10
1463.008288261755
 20
1673.899877549112
 10
1463.006378625142
 20
1673.897809077997
 10
1463.004145435432
 20
1673.89609248251
 10
1463.001655625563
 20
1673.894775732128
 10
1462.998997893095
 20
1673.893911400273
 10
1462.996232378353
 20
1673.893508919904
 10
1462.993478903385
 20
1673.893583789754
 10
1462.990776434921
 20
1673.894117057881
 10
1462.988206124606
 20
1673.895095785763
 10
1462.985831722426
 20
1673.89648410194
 10
1462.983694455346
 20
1673.898271308252
 10
1462.981880038079
 20
1673.900385606276
 10
1462.981421666603
 20
1673.901053084383
  0
LWPOLYLINE
  5
177B
330
1F
100
AcDbEntity
  8
SANINDUSA
100
AcDbPolyline
 90
       12
 70
   128
 43
0.0
 10
1462.981523640606
 20
1673.9074441531
 10
1462.983407022903
 20
1673.909723900165
 10
1462.985642011662
 20
1673.911660005272
 10
1462.988174563714
 20
1673.913190654172
 10
1462.990928857701
 20
1673.914271965093
 10
1462.993794272248
 20
1673.914857188457
 10
1462.996717326534
 20
1673.914949367733
 10
1462.999570298101
 20
1673.914548247838
 10
1463.002317554503
 20
1673.913679929324
 10
1463.004895213108
 20
1673.912357979392
 10
1463.007222016855
 20
1673.910632039399
 10
1463.009196061433
 20
1673.908594701093
  0
LWPOLYLINE
  5
1780
330
1F
100
AcDbEntity
  8
SANINDUSA
100
AcDbPolyline
 90
        5
 70
   128
 43
0.0
 10
1462.981421666603
 20
1673.901053084383
 10
1462.980650260426
 20
1673.902810747947
 10
1462.980509856526
 20
1673.904727787632
 10
1462.981004945418
 20
1673.906537708215
 10
1462.981523640606
 20
1673.9074441531
  0
LWPOLYLINE
  5
1784
330
1F
100
AcDbEntity
  8
SANINDUSA
100
AcDbPolyline
 90
        5
 70
   128
 43
0.0
 10
1462.949184116963
 20
1673.905901853276
 10
1462.950165852347
 20
1673.904248287967
 10
1462.950542741473
 20
1673.902359313392
 10
1462.950271607101
 20
1673.900497932575
 10
1462.949870479262
 20
1673.89954691778
  0
LWPOLYLINE
  5
178B
330
1F
100
AcDbEntity
  8
SANINDUSA
100
AcDbPolyline
 90
        5
 70
   128
 43
0.0
 10
1463.041391227444
 20
1673.903472141159
 10
1463.040634790935
 20
1673.905236296917
 10
1463.040510688758
 20
1673.907154460556
 10
1463.041021145803
 20
1673.908960108317
 10
1463.041547527893
 20
1673.909862112402
  0
LWPOLYLINE
  5
178E
330
1F
100
AcDbEntity
  8
SANINDUSA
100
AcDbPolyline
 90
        5
 70
   128
 43
0.0
 10
1463.009196061433
 20
1673.908594701093
 10
1463.010163704485
 20
1673.906932852378
 10
1463.010524521926
 20
1673.9050407431
 10
1463.010237573851
 20
1673.903181733718
 10
1463.009828375976
 20
1673.902234162203
  0
LWPOLYLINE
  5
1794
330
1F
100
AcDbEntity
  8
SANINDUSA
100
AcDbPolyline
 90
       14
 70
   128
 43
0.0
 10
1463.129801871067
 20
1673.906079571759
 10
1463.128221913941
 20
1673.903749475105
 10
1463.126277386596
 20
1673.901713759233
 10
1463.124015335239
 20
1673.900035367287
 10
1463.12150349868
 20
1673.898761124216
 10
1463.118831455477
 20
1673.897942088331
 10
1463.116059497639
 20
1673.897586669079
 10
1463.113307693397
 20
1673.897708326444
 10
1463.110614681648
 20
1673.898287448943
 10
1463.108061382337
 20
1673.899309720658
 10
1463.105710926378
 20
1673.900738191815
 10
1463.103604352899
 20
1673.9025614651
 10
1463.10182614356
 20
1673.904706295649
 10
1463.101379186294
 20
1673.905381467841
  0
LWPOLYLINE
  5
1797
330
1F
100
AcDbEntity
  8
SANINDUSA
100
AcDbPolyline
 90
       12
 70
   128
 43
0.0
 10
1463.101589801897
 20
1673.911769879964
 10
1463.10351167068
 20
1673.91401728748
 10
1463.10577925277
 20
1673.915915126752
 10
1463.108337461886
 20
1673.917402510985
 10
1463.111109741577
 20
1673.918436853417
 10
1463.113984691649
 20
1673.918973291353
 10
1463.116908890755
 20
1673.91901577679
 10
1463.11975463055
 20
1673.918566225463
 10
1463.122486727482
 20
1673.917651339769
 10
1463.125041538809
 20
1673.916285770702
 10
1463.127338663175
 20
1673.9145205335
 10
1463.129277785173
 20
1673.912449938508
  0
LWPOLYLINE
  5
179A
330
1F
100
AcDbEntity
  8
SANINDUSA
100
AcDbPolyline
 90
        5
 70
   128
 43
0.0
 10
1463.101379186294
 20
1673.905381467841
 10
1463.100637774103
 20
1673.907151988339
 10
1463.100529982614
 20
1673.909071137354
 10
1463.101055770933
 20
1673.910872381844
 10
1463.101589801897
 20
1673.911769879964
  0
LWPOLYLINE
  5
179E
330
1F
100
AcDbEntity
  8
SANINDUSA
100
AcDbPolyline
 90
        5
 70
   128
 43
0.0
 10
1463.069228729864
 20
1673.910777448735
 10
1463.070182210676
 20
1673.909107436674
 10
1463.070526930365
 20
1673.907212329389
 10
1463.070224189317
 20
1673.905355825746
 10
1463.069806950969
 20
1673.90441176597
  0
LWPOLYLINE
  5
17A4
330
1F
100
AcDbEntity
  8
SANINDUSA
100
AcDbPolyline
 90
        5
 70
   128
 43
0.0
 10
1463.161381209301
 20
1673.906780926488
 10
1463.16065487499
 20
1673.908557683815
 10
1463.160563401977
 20
1673.910477679555
 10
1463.161104483585
 20
1673.912274390644
 10
1463.161646124841
 20
1673.913167317958
  0
LWPOLYLINE
  5
17AA
330
1F
100
AcDbEntity
  8
SANINDUSA
100
AcDbPolyline
 90
        5
 70
   128
 43
0.0
 10
1463.129277785173
 20
1673.912449938508
 10
1463.13021703486
 20
1673.910771883752
 10
1463.130545631893
 20
1673.908873915373
 10
1463.130227119744
 20
1673.907020051593
 10
1463.129801871067
 20
1673.906079571759
  0
LWPOLYLINE
  5
17C4
330
1F
100
AcDbEntity
  8
SANINDUSA
100
AcDbPolyline
 90
        5
 70
   128
 43
0.0
 10
1463.669740736099
 20
1673.904532974954
 10
1463.670548977086
 20
1673.90278805819
 10
1463.670731542228
 20
1673.900870531863
 10
1463.670272261806
 20
1673.89904642777
 10
1463.66977637136
 20
1673.898141192308
  0
LWPOLYLINE
  5
17C5
330
1F
100
AcDbEntity
  8
SANINDUSA
100
AcDbPolyline
 90
        5
 70
   128
 43
0.0
 10
1463.669740736099
 20
1673.839542874769
 10
1463.670548977086
 20
1673.837797958005
 10
1463.670731542228
 20
1673.835880431678
 10
1463.670272261806
 20
1673.834056327584
 10
1463.66977637136
 20
1673.833151092123
  0
LWPOLYLINE
  5
17C6
330
1F
100
AcDbEntity
  8
SANINDUSA
100
AcDbPolyline
 90
        5
 70
   128
 43
0.0
 10
1463.669740736099
 20
1673.774552774583
 10
1463.670548977086
 20
1673.77280785782
 10
1463.670731542228
 20
1673.770890331493
 10
1463.670272261806
 20
1673.769066227399
 10
1463.66977637136
 20
1673.768160991938
  0
LWPOLYLINE
  5
17C7
330
1F
100
AcDbEntity
  8
SANINDUSA
100
AcDbPolyline
 90
        5
 70
   128
 43
0.0
 10
1463.669740736099
 20
1673.709562674398
 10
1463.670548977086
 20
1673.707817757635
 10
1463.670731542228
 20
1673.705900231308
 10
1463.670272261806
 20
1673.704076127214
 10
1463.66977637136
 20
1673.703170891752
  0
LWPOLYLINE
  5
17C8
330
1F
100
AcDbEntity
  8
SANINDUSA
100
AcDbPolyline
 90
        5
 70
   128
 43
0.0
 10
1463.669740736099
 20
1673.644572574213
 10
1463.670548977086
 20
1673.64282765745
 10
1463.670731542228
 20
1673.640910131123
 10
1463.670272261806
 20
1673.639086027029
 10
1463.66977637136
 20
1673.638180791567
  0
LWPOLYLINE
  5
17CC
330
1F
100
AcDbEntity
  8
SANINDUSA
100
AcDbPolyline
 90
       14
 70
   128
 43
0.0
 10
1463.429869921889
 20
1673.906768703322
 10
1463.428192379855
 20
1673.904507826394
 10
1463.426163105747
 20
1673.902556551202
 10
1463.423831777898
 20
1673.900975765559
 10
1463.421268063661
 20
1673.899809374621
 10
1463.418563630306
 20
1673.899104585344
 10
1463.415779072736
 20
1673.898867238409
 10
1463.413034922719
 20
1673.899105681206
 10
1463.410368950921
 20
1673.899798678598
 10
1463.407861395904
 20
1673.900928490156
 10
1463.405573761494
 20
1673.902455517699
 10
1463.40354656546
 20
1673.904366630881
 10
1463.401861100831
 20
1673.906585062235
 10
1463.401443236858
 20
1673.907278611312
  0
LWPOLYLINE
  5
17D0
330
1F
100
AcDbEntity
  8
SANINDUSA
100
AcDbPolyline
 90
       14
 70
   128
 43
0.0
 10
1463.429869921889
 20
1673.841778603137
 10
1463.428192379855
 20
1673.839517726209
 10
1463.426163105747
 20
1673.837566451017
 10
1463.423831777898
 20
1673.835985665374
 10
1463.421268063661
 20
1673.834819274435
 10
1463.418563630306
 20
1673.834114485159
 10
1463.415779072736
 20
1673.833877138224
 10
1463.413034922719
 20
1673.834115581021
 10
1463.410368950921
 20
1673.834808578413
 10
1463.407861395904
 20
1673.835938389971
 10
1463.405573761494
 20
1673.837465417513
 10
1463.40354656546
 20
1673.839376530696
 10
1463.401861100831
 20
1673.84159496205
 10
1463.401443236858
 20
1673.842288511127
  0
LWPOLYLINE
  5
17D1
330
1F
100
AcDbEntity
  8
SANINDUSA
100
AcDbPolyline
 90
       12
 70
   128
 43
0.0
 10
1463.401925121551
 20
1673.848662208072
 10
1463.403940752854
 20
1673.850825946288
 10
1463.406286931296
 20
1673.852625746168
 10
1463.408906033106
 20
1673.854003115932
 10
1463.411719761345
 20
1673.85491875935
 10
1463.414614910081
 20
1673.855332586462
 10
1463.417538274129
 20
1673.855250815008
 10
1463.420362341866
 20
1673.854680783982
 10
1463.423053096155
 20
1673.853650666248
 10
1463.425547574278
 20
1673.852177803083
 10
1463.427767615238
 20
1673.850316579075
 10
1463.429617001683
 20
1673.848165480757
  0
LWPOLYLINE
  5
17D2
330
1F
100
AcDbEntity
  8
SANINDUSA
100
AcDbPolyline
 90
       12
 70
   128
 43
0.0
 10
1463.401925121551
 20
1673.913652308257
 10
1463.403940752854
 20
1673.915816046473
 10
1463.406286931296
 20
1673.917615846353
 10
1463.408906033106
 20
1673.918993216117
 10
1463.411719761345
 20
1673.919908859535
 10
1463.414614910081
 20
1673.920322686647
 10
1463.417538274129
 20
1673.920240915193
 10
1463.420362341866
 20
1673.919670884167
 10
1463.423053096155
 20
1673.918640766433
 10
1463.425547574278
 20
1673.917167903269
 10
1463.427767615238
 20
1673.91530667926
 10
1463.429617001683
 20
1673.913155580942
  0
LWPOLYLINE
  5
17D6
330
1F
100
AcDbEntity
  8
SANINDUSA
100
AcDbPolyline
 90
       14
 70
   128
 43
0.0
 10
1463.429869921889
 20
1673.776788502952
 10
1463.428192379855
 20
1673.774527626023
 10
1463.426163105747
 20
1673.772576350832
 10
1463.423831777898
 20
1673.770995565188
 10
1463.421268063661
 20
1673.76982917425
 10
1463.418563630306
 20
1673.769124384974
 10
1463.415779072736
 20
1673.768887038038
 10
1463.413034922719
 20
1673.769125480835
 10
1463.410368950921
 20
1673.769818478227
 10
1463.407861395904
 20
1673.770948289786
 10
1463.405573761494
 20
1673.772475317328
 10
1463.40354656546
 20
1673.774386430511
 10
1463.401861100831
 20
1673.776604861865
 10
1463.401443236858
 20
1673.777298410942
  0
LWPOLYLINE
  5
17DA
330
1F
100
AcDbEntity
  8
SANINDUSA
100
AcDbPolyline
 90
       14
 70
   128
 43
0.0
 10
1463.429869921889
 20
1673.711798402767
 10
1463.428192379855
 20
1673.709537525838
 10
1463.426163105747
 20
1673.707586250647
 10
1463.423831777898
 20
1673.706005465003
 10
1463.421268063661
 20
1673.704839074065
 10
1463.418563630306
 20
1673.704134284789
 10
1463.415779072736
 20
1673.703896937853
 10
1463.413034922719
 20
1673.70413538065
 10
1463.410368950921
 20
1673.704828378042
 10
1463.407861395904
 20
1673.705958189601
 10
1463.405573761494
 20
1673.707485217143
 10
1463.40354656546
 20
1673.709396330326
 10
1463.401861100831
 20
1673.71161476168
 10
1463.401443236858
 20
1673.712308310756
  0
LWPOLYLINE
  5
17DB
330
1F
100
AcDbEntity
  8
SANINDUSA
100
AcDbPolyline
 90
       12
 70
   128
 43
0.0
 10
1463.401925121551
 20
1673.718682007701
 10
1463.403940752854
 20
1673.720845745917
 10
1463.406286931296
 20
1673.722645545798
 10
1463.408906033106
 20
1673.724022915562
 10
1463.411719761345
 20
1673.724938558979
 10
1463.414614910081
 20
1673.725352386092
 10
1463.417538274129
 20
1673.725270614637
 10
1463.420362341866
 20
1673.724700583612
 10
1463.423053096155
 20
1673.723670465877
 10
1463.425547574278
 20
1673.722197602713
 10
1463.427767615238
 20
1673.720336378704
 10
1463.429617001683
 20
1673.718185280386
  0
LWPOLYLINE
  5
17DF
330
1F
100
AcDbEntity
  8
SANINDUSA
100
AcDbPolyline
 90
       14
 70
   128
 43
0.0
 10
1463.429869921889
 20
1673.646808302581
 10
1463.428192379855
 20
1673.644547425653
 10
1463.426163105747
 20
1673.642596150461
 10
1463.423831777898
 20
1673.641015364818
 10
1463.421268063661
 20
1673.63984897388
 10
1463.418563630306
 20
1673.639144184603
 10
1463.415779072736
 20
1673.638906837668
 10
1463.413034922719
 20
1673.639145280465
 10
1463.410368950921
 20
1673.639838277857
 10
1463.407861395904
 20
1673.640968089416
 10
1463.405573761494
 20
1673.642495116958
 10
1463.40354656546
 20
1673.644406230141
 10
1463.401861100831
 20
1673.646624661494
 10
1463.401443236858
 20
1673.647318210571
  0
LWPOLYLINE
  5
17E0
330
1F
100
AcDbEntity
  8
SANINDUSA
100
AcDbPolyline
 90
       12
 70
   128
 43
0.0
 10
1463.401925121551
 20
1673.653691907516
 10
1463.403940752854
 20
1673.655855645732
 10
1463.406286931296
 20
1673.657655445613
 10
1463.408906033106
 20
1673.659032815376
 10
1463.411719761345
 20
1673.659948458794
 10
1463.414614910081
 20
1673.660362285907
 10
1463.417538274129
 20
1673.660280514452
 10
1463.420362341866
 20
1673.659710483426
 10
1463.423053096155
 20
1673.658680365692
 10
1463.425547574278
 20
1673.657207502528
 10
1463.427767615238
 20
1673.655346278519
 10
1463.429617001683
 20
1673.653195180201
  0
LWPOLYLINE
  5
17E1
330
1F
100
AcDbEntity
  8
SANINDUSA
100
AcDbPolyline
 90
       12
 70
   128
 43
0.0
 10
1463.401925121551
 20
1673.783672107887
 10
1463.403940752854
 20
1673.785835846103
 10
1463.406286931296
 20
1673.787635645983
 10
1463.408906033106
 20
1673.789013015747
 10
1463.411719761345
 20
1673.789928659165
 10
1463.414614910081
 20
1673.790342486277
 10
1463.417538274129
 20
1673.790260714823
 10
1463.420362341866
 20
1673.789690683797
 10
1463.423053096155
 20
1673.788660566062
 10
1463.425547574278
 20
1673.787187702898
 10
1463.427767615238
 20
1673.785326478889
 10
1463.429617001683
 20
1673.783175380572
  0
LWPOLYLINE
  5
17E5
330
1F
100
AcDbEntity
  8
SANINDUSA
100
AcDbPolyline
 90
       12
 70
   128
 43
0.0
 10
1463.341855996208
 20
1673.84930672915
 10
1463.343853160879
 20
1673.85148751876
 10
1463.346183954569
 20
1673.853307192287
 10
1463.348791252825
 20
1673.854706770358
 10
1463.351597095589
 20
1673.855646292766
 10
1463.354488621822
 20
1673.856084708936
 10
1463.357412575406
 20
1673.856027784226
 10
1463.360241386933
 20
1673.855481773725
 10
1463.362940801
 20
1673.854474560191
 10
1463.365447709745
 20
1673.853022949195
 10
1463.367683492676
 20
1673.851180659118
 10
1463.369551098687
 20
1673.84904535525
  0
LWPOLYLINE
  5
17E6
330
1F
100
AcDbEntity
  8
SANINDUSA
100
AcDbPolyline
 90
       12
 70
   128
 43
0.0
 10
1463.221712157934
 20
1673.84906422524
 10
1463.22367195783
 20
1673.85127864376
 10
1463.225971477973
 20
1673.853137668768
 10
1463.22855460489
 20
1673.854581358515
 10
1463.231344069162
 20
1673.855568433556
 10
1463.234227723969
 20
1673.856055931047
 10
1463.237152222869
 20
1673.856048710366
 10
1463.239989908542
 20
1673.855550857519
 10
1463.242706056492
 20
1673.854589669025
 10
1463.24523728226
 20
1673.853180875439
 10
1463.247504063432
 20
1673.85137685114
 10
1463.249407702489
 20
1673.849273597814
  0
LWPOLYLINE
  5
17E7
330
1F
100
AcDbEntity
  8
SANINDUSA
100
AcDbPolyline
 90
       21
 70
   128
 43
0.0
 10
1463.281783561684
 20
1673.8494407381
 10
1463.282709028806
 20
1673.850562233752
 10
1463.283723316689
 20
1673.851604122893
 10
1463.284819845394
 20
1673.852559117348
 10
1463.286077355987
 20
1673.853477837263
 10
1463.287320829197
 20
1673.854231716296
 10
1463.288632143886
 20
1673.854883550648
 10
1463.289974481154
 20
1673.855415776843
 10
1463.291470416903
 20
1673.85586285605
 10
1463.29287784506
 20
1673.856152794012
 10
1463.294314841709
 20
1673.856324523558
 10
1463.295740752728
 20
1673.856374222015
 10
1463.297282443611
 20
1673.85629375575
 10
1463.298685393728
 20
1673.856097836504
 10
1463.301419015728
 20
1673.855362949101
 10
1463.302823673384
 20
1673.854787568654
 10
1463.304091825393
 20
1673.854137706646
 10
1463.30531068633
 20
1673.853381127526
 10
1463.306448546697
 20
1673.852539548828
 10
1463.307594195016
 20
1673.851534091651
 10
1463.309479885666
 20
1673.849414736497
  0
LWPOLYLINE
  5
17E8
330
1F
100
AcDbEntity
  8
SANINDUSA
100
AcDbPolyline
 90
       14
 70
   128
 43
0.0
 10
1463.309841354407
 20
1673.843033080363
 10
1463.308202492555
 20
1673.840744018433
 10
1463.306206685823
 20
1673.838758535434
 10
1463.303902570199
 20
1673.837138354716
 10
1463.301359056525
 20
1673.835928559166
 10
1463.298666996245
 20
1673.835177906905
 10
1463.295886876213
 20
1673.834893267647
 10
1463.293139068861
 20
1673.835085036146
 10
1463.290461700423
 20
1673.835732622287
 10
1463.287935299478
 20
1673.836819651948
 10
1463.285622034185
 20
1673.838307577991
 10
1463.283562639691
 20
1673.840183960616
 10
1463.281839702425
 20
1673.842373425109
 10
1463.281410107607
 20
1673.843059771918
  0
LWPOLYLINE
  5
17ED
330
1F
100
AcDbEntity
  8
SANINDUSA
100
AcDbPolyline
 90
       14
 70
   128
 43
0.0
 10
1463.309841354407
 20
1673.713052879993
 10
1463.308202492555
 20
1673.710763818063
 10
1463.306206685823
 20
1673.708778335063
 10
1463.303902570199
 20
1673.707158154346
 10
1463.301359056525
 20
1673.705948358795
 10
1463.298666996245
 20
1673.705197706535
 10
1463.295886876213
 20
1673.704913067277
 10
1463.293139068861
 20
1673.705104835776
 10
1463.290461700423
 20
1673.705752421917
 10
1463.287935299478
 20
1673.706839451578
 10
1463.285622034185
 20
1673.708327377621
 10
1463.283562639691
 20
1673.710203760245
 10
1463.281839702425
 20
1673.712393224738
 10
1463.281410107607
 20
1673.713079571548
  0
LWPOLYLINE
  5
17EE
330
1F
100
AcDbEntity
  8
SANINDUSA
100
AcDbPolyline
 90
       12
 70
   128
 43
0.0
 10
1463.281783561684
 20
1673.71946053773
 10
1463.283762115438
 20
1673.721658221181
 10
1463.286077355987
 20
1673.723497636893
 10
1463.288672662322
 20
1673.724919322157
 10
1463.291470416903
 20
1673.72588265568
 10
1463.294358111734
 20
1673.726345629234
 10
1463.297282443611
 20
1673.72631355538
 10
1463.300115794559
 20
1673.725791604852
 10
1463.302823673384
 20
1673.724807368284
 10
1463.305342831639
 20
1673.723377114329
 10
1463.307594195016
 20
1673.721553891281
 10
1463.309479885666
 20
1673.719434536127
  0
LWPOLYLINE
  5
17EF
330
1F
100
AcDbEntity
  8
SANINDUSA
100
AcDbPolyline
 90
       14
 70
   128
 43
0.0
 10
1463.309841354407
 20
1673.778042980178
 10
1463.308202492555
 20
1673.775753918248
 10
1463.306206685823
 20
1673.773768435249
 10
1463.303902570199
 20
1673.772148254531
 10
1463.301359056525
 20
1673.77093845898
 10
1463.298666996245
 20
1673.77018780672
 10
1463.295886876213
 20
1673.769903167462
 10
1463.293139068861
 20
1673.770094935961
 10
1463.290461700423
 20
1673.770742522102
 10
1463.287935299478
 20
1673.771829551763
 10
1463.285622034185
 20
1673.773317477806
 10
1463.283562639691
 20
1673.775193860431
 10
1463.281839702425
 20
1673.777383324924
 10
1463.281410107607
 20
1673.778069671733
  0
LWPOLYLINE
  5
17F9
330
1F
100
AcDbEntity
  8
SANINDUSA
100
AcDbPolyline
 90
       14
 70
   128
 43
0.0
 10
1463.309841354407
 20
1673.648062779807
 10
1463.308202492555
 20
1673.645773717878
 10
1463.306206685823
 20
1673.643788234878
 10
1463.303902570199
 20
1673.642168054161
 10
1463.301359056525
 20
1673.64095825861
 10
1463.298666996245
 20
1673.64020760635
 10
1463.295886876213
 20
1673.639922967092
 10
1463.293139068861
 20
1673.640114735591
 10
1463.290461700423
 20
1673.640762321732
 10
1463.287935299478
 20
1673.641849351392
 10
1463.285622034185
 20
1673.643337277436
 10
1463.283562639691
 20
1673.64521366006
 10
1463.281839702425
 20
1673.647403124553
 10
1463.281410107607
 20
1673.648089471363
  0
LWPOLYLINE
  5
17FC
330
1F
100
AcDbEntity
  8
SANINDUSA
100
AcDbPolyline
 90
       12
 70
   128
 43
0.0
 10
1463.281783561684
 20
1673.654470437544
 10
1463.283762115438
 20
1673.656668120996
 10
1463.286077355987
 20
1673.658507536708
 10
1463.288672662322
 20
1673.659929221972
 10
1463.291470416903
 20
1673.660892555495
 10
1463.294358111734
 20
1673.661355529048
 10
1463.297282443611
 20
1673.661323455195
 10
1463.300115794559
 20
1673.660801504667
 10
1463.302823673384
 20
1673.659817268099
 10
1463.305342831639
 20
1673.658387014144
 10
1463.307594195016
 20
1673.656563791096
 10
1463.309479885666
 20
1673.654444435942
  0
LWPOLYLINE
  5
17FE
330
1F
100
AcDbEntity
  8
SANINDUSA
100
AcDbPolyline
 90
       12
 70
   128
 43
0.0
 10
1463.281783561684
 20
1673.784450637915
 10
1463.283762115438
 20
1673.786648321366
 10
1463.286077355987
 20
1673.788487737078
 10
1463.288672662322
 20
1673.789909422342
 10
1463.291470416903
 20
1673.790872755865
 10
1463.294358111734
 20
1673.791335729419
 10
1463.297282443611
 20
1673.791303655565
 10
1463.300115794559
 20
1673.790781705037
 10
1463.302823673384
 20
1673.789797468469
 10
1463.305342831639
 20
1673.788367214515
 10
1463.307594195016
 20
1673.786543991466
 10
1463.309479885666
 20
1673.784424636312
  0
LWPOLYLINE
  5
1802
330
1F
100
AcDbEntity
  8
SANINDUSA
100
AcDbPolyline
 90
       14
 70
   128
 43
0.0
 10
1463.249823408287
 20
1673.647924943537
 10
1463.248204064826
 20
1673.645622036662
 10
1463.246225208671
 20
1673.643619664306
 10
1463.243934949346
 20
1673.641979960917
 10
1463.241401811957
 20
1673.640748593382
 10
1463.238716230177
 20
1673.639975090149
 10
1463.235938630272
 20
1673.639666834722
 10
1463.233189291965
 20
1673.639835244447
 10
1463.230506515146
 20
1673.640460053964
 10
1463.227970964681
 20
1673.641525574102
 10
1463.22564513417
 20
1673.642993787444
 10
1463.223569863041
 20
1673.64485260082
 10
1463.221828375492
 20
1673.647027344088
 10
1463.221392961596
 20
1673.647710015255
  0
LWPOLYLINE
  5
1803
330
1F
100
AcDbEntity
  8
SANINDUSA
100
AcDbPolyline
 90
       12
 70
   128
 43
0.0
 10
1463.221712157934
 20
1673.654093924685
 10
1463.22367195783
 20
1673.656308343205
 10
1463.225971477973
 20
1673.658167368212
 10
1463.22855460489
 20
1673.65961105796
 10
1463.231344069162
 20
1673.660598133001
 10
1463.234227723969
 20
1673.661085630491
 10
1463.237152222869
 20
1673.661078409811
 10
1463.239989908542
 20
1673.660580556964
 10
1463.242706056492
 20
1673.659619368469
 10
1463.24523728226
 20
1673.658210574884
 10
1463.247504063432
 20
1673.656406550585
 10
1463.249407702489
 20
1673.654303297259
  0
LWPOLYLINE
  5
1808
330
1F
100
AcDbEntity
  8
SANINDUSA
100
AcDbPolyline
 90
        5
 70
   128
 43
0.0
 10
1463.221392961596
 20
1673.647710015255
 10
1463.22068175764
 20
1673.64949288105
 10
1463.22060660971
 20
1673.651413584805
 10
1463.221162945517
 20
1673.653205632686
 10
1463.221712157934
 20
1673.654093924685
  0
LWPOLYLINE
  5
180E
330
1F
100
AcDbEntity
  8
SANINDUSA
100
AcDbPolyline
 90
        5
 70
   128
 43
0.0
 10
1463.189338889094
 20
1673.653651648841
 10
1463.1902638398
 20
1673.651965672623
 10
1463.190576290436
 20
1673.650064980268
 10
1463.190242030198
 20
1673.648213890285
 10
1463.189808801914
 20
1673.647277058338
  0
LWPOLYLINE
  5
1811
330
1F
100
AcDbEntity
  8
SANINDUSA
100
AcDbPolyline
 90
        5
 70
   128
 43
0.0
 10
1463.281410107607
 20
1673.648089471363
 10
1463.280714085387
 20
1673.649878316821
 10
1463.280655267971
 20
1673.651799589828
 10
1463.281226817783
 20
1673.653586845036
 10
1463.281783561684
 20
1673.654470437544
  0
LWPOLYLINE
  5
1818
330
1F
100
AcDbEntity
  8
SANINDUSA
100
AcDbPolyline
 90
        5
 70
   128
 43
0.0
 10
1463.249407702489
 20
1673.654303297259
 10
1463.250318287392
 20
1673.652609521382
 10
1463.250614569059
 20
1673.650706242368
 10
1463.250264584879
 20
1673.648858059914
 10
1463.249823408287
 20
1673.647924943537
  0
LWPOLYLINE
  5
181B
330
1F
100
AcDbEntity
  8
SANINDUSA
100
AcDbPolyline
 90
       14
 70
   128
 43
0.0
 10
1463.249823408287
 20
1673.842895244092
 10
1463.248204064826
 20
1673.840592337217
 10
1463.246225208671
 20
1673.838589964861
 10
1463.243934949346
 20
1673.836950261473
 10
1463.241401811957
 20
1673.835718893938
 10
1463.238716230177
 20
1673.834945390705
 10
1463.235938630272
 20
1673.834637135277
 10
1463.233189291965
 20
1673.834805545002
 10
1463.230506515146
 20
1673.835430354519
 10
1463.227970964681
 20
1673.836495874657
 10
1463.22564513417
 20
1673.837964088
 10
1463.223569863041
 20
1673.839822901376
 10
1463.221828375492
 20
1673.841997644644
 10
1463.221392961596
 20
1673.842680315811
  0
LWPOLYLINE
  5
1820
330
1F
100
AcDbEntity
  8
SANINDUSA
100
AcDbPolyline
 90
       14
 70
   128
 43
0.0
 10
1463.249823408287
 20
1673.777905143907
 10
1463.248204064826
 20
1673.775602237032
 10
1463.246225208671
 20
1673.773599864676
 10
1463.243934949346
 20
1673.771960161288
 10
1463.241401811957
 20
1673.770728793752
 10
1463.238716230177
 20
1673.76995529052
 10
1463.235938630272
 20
1673.769647035092
 10
1463.233189291965
 20
1673.769815444817
 10
1463.230506515146
 20
1673.770440254334
 10
1463.227970964681
 20
1673.771505774472
 10
1463.22564513417
 20
1673.772973987814
 10
1463.223569863041
 20
1673.77483280119
 10
1463.221828375492
 20
1673.777007544458
 10
1463.221392961596
 20
1673.777690215625
  0
LWPOLYLINE
  5
1825
330
1F
100
AcDbEntity
  8
SANINDUSA
100
AcDbPolyline
 90
       14
 70
   128
 43
0.0
 10
1463.249823408287
 20
1673.712915043722
 10
1463.248204064826
 20
1673.710612136847
 10
1463.246225208671
 20
1673.708609764491
 10
1463.243934949346
 20
1673.706970061102
 10
1463.241401811957
 20
1673.705738693567
 10
1463.238716230177
 20
1673.704965190335
 10
1463.235938630272
 20
1673.704656934907
 10
1463.233189291965
 20
1673.704825344632
 10
1463.230506515146
 20
1673.705450154149
 10
1463.227970964681
 20
1673.706515674287
 10
1463.22564513417
 20
1673.707983887629
 10
1463.223569863041
 20
1673.709842701005
 10
1463.221828375492
 20
1673.712017444273
 10
1463.221392961596
 20
1673.71270011544
  0
LWPOLYLINE
  5
1828
330
1F
100
AcDbEntity
  8
SANINDUSA
100
AcDbPolyline
 90
       12
 70
   128
 43
0.0
 10
1463.221712157934
 20
1673.71908402487
 10
1463.22367195783
 20
1673.72129844339
 10
1463.225971477973
 20
1673.723157468397
 10
1463.22855460489
 20
1673.724601158145
 10
1463.231344069162
 20
1673.725588233186
 10
1463.234227723969
 20
1673.726075730676
 10
1463.237152222869
 20
1673.726068509996
 10
1463.239989908542
 20
1673.725570657149
 10
1463.242706056492
 20
1673.724609468655
 10
1463.24523728226
 20
1673.723200675069
 10
1463.247504063432
 20
1673.72139665077
 10
1463.249407702489
 20
1673.719293397444
  0
LWPOLYLINE
  5
1829
330
1F
100
AcDbEntity
  8
SANINDUSA
100
AcDbPolyline
 90
       12
 70
   128
 43
0.0
 10
1463.221712157934
 20
1673.784074125055
 10
1463.22367195783
 20
1673.786288543575
 10
1463.225971477973
 20
1673.788147568583
 10
1463.22855460489
 20
1673.78959125833
 10
1463.231344069162
 20
1673.790578333371
 10
1463.234227723969
 20
1673.791065830862
 10
1463.237152222869
 20
1673.791058610181
 10
1463.239989908542
 20
1673.790560757334
 10
1463.242706056492
 20
1673.78959956884
 10
1463.24523728226
 20
1673.788190775254
 10
1463.247504063432
 20
1673.786386750955
 10
1463.249407702489
 20
1673.784283497629
  0
LWPOLYLINE
  5
182C
330
1F
100
AcDbEntity
  8
SANINDUSA
100
AcDbPolyline
 90
        5
 70
   128
 43
0.0
 10
1463.221392961596
 20
1673.842680315811
 10
1463.22068175764
 20
1673.844463181605
 10
1463.22060660971
 20
1673.84638388536
 10
1463.221162945517
 20
1673.848175933242
 10
1463.221712157934
 20
1673.84906422524
  0
LWPOLYLINE
  5
1832
330
1F
100
AcDbEntity
  8
SANINDUSA
100
AcDbPolyline
 90
        5
 70
   128
 43
0.0
 10
1463.189338889094
 20
1673.848621949396
 10
1463.1902638398
 20
1673.846935973178
 10
1463.190576290436
 20
1673.845035280823
 10
1463.190242030198
 20
1673.84318419084
 10
1463.189808801914
 20
1673.842247358894
  0
LWPOLYLINE
  5
1836
330
1F
100
AcDbEntity
  8
SANINDUSA
100
AcDbPolyline
 90
        5
 70
   128
 43
0.0
 10
1463.221392961596
 20
1673.777690215625
 10
1463.22068175764
 20
1673.77947308142
 10
1463.22060660971
 20
1673.781393785175
 10
1463.221162945517
 20
1673.783185833056
 10
1463.221712157934
 20
1673.784074125055
  0
LWPOLYLINE
  5
183C
330
1F
100
AcDbEntity
  8
SANINDUSA
100
AcDbPolyline
 90
        5
 70
   128
 43
0.0
 10
1463.221392961596
 20
1673.71270011544
 10
1463.22068175764
 20
1673.714482981235
 10
1463.22060660971
 20
1673.71640368499
 10
1463.221162945517
 20
1673.718195732871
 10
1463.221712157934
 20
1673.71908402487
  0
LWPOLYLINE
  5
1842
330
1F
100
AcDbEntity
  8
SANINDUSA
100
AcDbPolyline
 90
        5
 70
   128
 43
0.0
 10
1463.189338889094
 20
1673.783631849211
 10
1463.1902638398
 20
1673.781945872993
 10
1463.190576290436
 20
1673.780045180638
 10
1463.190242030198
 20
1673.778194090655
 10
1463.189808801914
 20
1673.777257258709
  0
LWPOLYLINE
  5
1846
330
1F
100
AcDbEntity
  8
SANINDUSA
100
AcDbPolyline
 90
        5
 70
   128
 43
0.0
 10
1463.189338889094
 20
1673.718641749026
 10
1463.1902638398
 20
1673.716955772808
 10
1463.190576290436
 20
1673.715055080453
 10
1463.190242030198
 20
1673.71320399047
 10
1463.189808801914
 20
1673.712267158523
  0
LWPOLYLINE
  5
184A
330
1F
100
AcDbEntity
  8
SANINDUSA
100
AcDbPolyline
 90
        5
 70
   128
 43
0.0
 10
1463.281410107607
 20
1673.843059771918
 10
1463.280714085387
 20
1673.844848617376
 10
1463.280655267971
 20
1673.846769890384
 10
1463.281226817783
 20
1673.848557145592
 10
1463.281783561684
 20
1673.8494407381
  0
LWPOLYLINE
  5
1851
330
1F
100
AcDbEntity
  8
SANINDUSA
100
AcDbPolyline
 90
        5
 70
   128
 43
0.0
 10
1463.249407702489
 20
1673.849273597814
 10
1463.250318287392
 20
1673.847579821937
 10
1463.250614569059
 20
1673.845676542924
 10
1463.250264584879
 20
1673.843828360469
 10
1463.249823408287
 20
1673.842895244092
  0
LWPOLYLINE
  5
1854
330
1F
100
AcDbEntity
  8
SANINDUSA
100
AcDbPolyline
 90
        5
 70
   128
 43
0.0
 10
1463.281410107607
 20
1673.778069671733
 10
1463.280714085387
 20
1673.779858517191
 10
1463.280655267971
 20
1673.781779790199
 10
1463.281226817783
 20
1673.783567045407
 10
1463.281783561684
 20
1673.784450637915
  0
LWPOLYLINE
  5
185B
330
1F
100
AcDbEntity
  8
SANINDUSA
100
AcDbPolyline
 90
        5
 70
   128
 43
0.0
 10
1463.249407702489
 20
1673.784283497629
 10
1463.250318287392
 20
1673.782589721752
 10
1463.250614569059
 20
1673.780686442738
 10
1463.250264584879
 20
1673.778838260284
 10
1463.249823408287
 20
1673.777905143907
  0
LWPOLYLINE
  5
185E
330
1F
100
AcDbEntity
  8
SANINDUSA
100
AcDbPolyline
 90
        5
 70
   128
 43
0.0
 10
1463.281410107607
 20
1673.713079571548
 10
1463.280714085387
 20
1673.714868417006
 10
1463.280655267971
 20
1673.716789690014
 10
1463.281226817783
 20
1673.718576945221
 10
1463.281783561684
 20
1673.71946053773
  0
LWPOLYLINE
  5
1865
330
1F
100
AcDbEntity
  8
SANINDUSA
100
AcDbPolyline
 90
        5
 70
   128
 43
0.0
 10
1463.249407702489
 20
1673.719293397444
 10
1463.250318287392
 20
1673.717599621567
 10
1463.250614569059
 20
1673.715696342553
 10
1463.250264584879
 20
1673.713848160099
 10
1463.249823408287
 20
1673.712915043722
  0
LWPOLYLINE
  5
1869
330
1F
100
AcDbEntity
  8
SANINDUSA
100
AcDbPolyline
 90
       14
 70
   128
 43
0.0
 10
1463.369858304257
 20
1673.647690557191
 10
1463.368200042413
 20
1673.645415505582
 10
1463.366187429292
 20
1673.64344705538
 10
1463.36386962383
 20
1673.641846514384
 10
1463.361315917628
 20
1673.640658378221
 10
1463.358617573339
 20
1673.639930631164
 10
1463.355835134029
 20
1673.63966962864
 10
1463.353089056148
 20
1673.639884742058
 10
1463.350417289519
 20
1673.640555058038
 10
1463.347900220615
 20
1673.641663518689
 10
1463.345599687662
 20
1673.643171049938
 10
1463.343556318586
 20
1673.645064866251
 10
1463.341852056076
 20
1673.647268893789
 10
1463.341428311373
 20
1673.647958866656
  0
LWPOLYLINE
  5
186A
330
1F
100
AcDbEntity
  8
SANINDUSA
100
AcDbPolyline
 90
       12
 70
   128
 43
0.0
 10
1463.341855996208
 20
1673.654336428594
 10
1463.343853160879
 20
1673.656517218204
 10
1463.346183954569
 20
1673.658336891732
 10
1463.348791252825
 20
1673.659736469802
 10
1463.351597095589
 20
1673.660675992211
 10
1463.354488621822
 20
1673.66111440838
 10
1463.357412575406
 20
1673.66105748367
 10
1463.360241386933
 20
1673.66051147317
 10
1463.362940801
 20
1673.659504259635
 10
1463.365447709745
 20
1673.65805264864
 10
1463.367683492676
 20
1673.656210358563
 10
1463.369551098687
 20
1673.654075054694
  0
LWPOLYLINE
  5
186F
330
1F
100
AcDbEntity
  8
SANINDUSA
100
AcDbPolyline
 90
        5
 70
   128
 43
0.0
 10
1463.341428311373
 20
1673.647958866656
 10
1463.340747521174
 20
1673.649753562541
 10
1463.34070503852
 20
1673.651675265999
 10
1463.341291761046
 20
1673.653457599412
 10
1463.341855996208
 20
1673.654336428594
  0
LWPOLYLINE
  5
1870
330
1F
100
AcDbEntity
  8
SANINDUSA
100
AcDbPolyline
 90
        5
 70
   128
 43
0.0
 10
1463.309479885666
 20
1673.654444435942
 10
1463.310376038979
 20
1673.652742982773
 10
1463.310656130271
 20
1673.650837254604
 10
1463.310290447435
 20
1673.648992113202
 10
1463.309841354407
 20
1673.648062779807
  0
LWPOLYLINE
  5
187B
330
1F
100
AcDbEntity
  8
SANINDUSA
100
AcDbPolyline
 90
        5
 70
   128
 43
0.0
 10
1463.401443236858
 20
1673.647318210571
 10
1463.400777727863
 20
1673.649118627224
 10
1463.40075158304
 20
1673.651040622298
 10
1463.401353435892
 20
1673.652817905151
 10
1463.401925121551
 20
1673.653691907516
  0
LWPOLYLINE
  5
1880
330
1F
100
AcDbEntity
  8
SANINDUSA
100
AcDbPolyline
 90
        5
 70
   128
 43
0.0
 10
1463.369551098687
 20
1673.654075054694
 10
1463.370432755666
 20
1673.652366047156
 10
1463.370696636349
 20
1673.650458007511
 10
1463.370315281275
 20
1673.648616040463
 10
1463.369858304257
 20
1673.647690557191
  0
LWPOLYLINE
  5
1888
330
1F
100
AcDbEntity
  8
SANINDUSA
100
AcDbPolyline
 90
       14
 70
   128
 43
0.0
 10
1463.369858304257
 20
1673.842660857747
 10
1463.368200042413
 20
1673.840385806137
 10
1463.366187429292
 20
1673.838417355936
 10
1463.36386962383
 20
1673.83681681494
 10
1463.361315917628
 20
1673.835628678777
 10
1463.358617573339
 20
1673.83490093172
 10
1463.355835134029
 20
1673.834639929195
 10
1463.353089056148
 20
1673.834855042614
 10
1463.350417289519
 20
1673.835525358594
 10
1463.347900220615
 20
1673.836633819244
 10
1463.345599687662
 20
1673.838141350493
 10
1463.343556318586
 20
1673.840035166806
 10
1463.341852056076
 20
1673.842239194345
 10
1463.341428311373
 20
1673.842929167212
  0
LWPOLYLINE
  5
188D
330
1F
100
AcDbEntity
  8
SANINDUSA
100
AcDbPolyline
 90
       14
 70
   128
 43
0.0
 10
1463.369858304257
 20
1673.777670757562
 10
1463.368200042413
 20
1673.775395705952
 10
1463.366187429292
 20
1673.773427255751
 10
1463.36386962383
 20
1673.771826714755
 10
1463.361315917628
 20
1673.770638578591
 10
1463.358617573339
 20
1673.769910831535
 10
1463.355835134029
 20
1673.76964982901
 10
1463.353089056148
 20
1673.769864942428
 10
1463.350417289519
 20
1673.770535258409
 10
1463.347900220615
 20
1673.771643719059
 10
1463.345599687662
 20
1673.773151250308
 10
1463.343556318586
 20
1673.775045066621
 10
1463.341852056076
 20
1673.77724909416
 10
1463.341428311373
 20
1673.777939067027
  0
LWPOLYLINE
  5
1892
330
1F
100
AcDbEntity
  8
SANINDUSA
100
AcDbPolyline
 90
       14
 70
   128
 43
0.0
 10
1463.369858304257
 20
1673.712680657377
 10
1463.368200042413
 20
1673.710405605767
 10
1463.366187429292
 20
1673.708437155565
 10
1463.36386962383
 20
1673.706836614569
 10
1463.361315917628
 20
1673.705648478406
 10
1463.358617573339
 20
1673.70492073135
 10
1463.355835134029
 20
1673.704659728825
 10
1463.353089056148
 20
1673.704874842243
 10
1463.350417289519
 20
1673.705545158223
 10
1463.347900220615
 20
1673.706653618874
 10
1463.345599687662
 20
1673.708161150123
 10
1463.343556318586
 20
1673.710054966436
 10
1463.341852056076
 20
1673.712258993975
 10
1463.341428311373
 20
1673.712948966842
  0
LWPOLYLINE
  5
1893
330
1F
100
AcDbEntity
  8
SANINDUSA
100
AcDbPolyline
 90
       12
 70
   128
 43
0.0
 10
1463.341855996208
 20
1673.71932652878
 10
1463.343853160879
 20
1673.721507318389
 10
1463.346183954569
 20
1673.723326991917
 10
1463.348791252825
 20
1673.724726569987
 10
1463.351597095589
 20
1673.725666092396
 10
1463.354488621822
 20
1673.726104508566
 10
1463.357412575406
 20
1673.726047583855
 10
1463.360241386933
 20
1673.725501573355
 10
1463.362940801
 20
1673.72449435982
 10
1463.365447709745
 20
1673.723042748825
 10
1463.367683492676
 20
1673.721200458748
 10
1463.369551098687
 20
1673.719065154879
  0
LWPOLYLINE
  5
1894
330
1F
100
AcDbEntity
  8
SANINDUSA
100
AcDbPolyline
 90
       12
 70
   128
 43
0.0
 10
1463.341855996208
 20
1673.784316628965
 10
1463.343853160879
 20
1673.786497418574
 10
1463.346183954569
 20
1673.788317092102
 10
1463.348791252825
 20
1673.789716670172
 10
1463.351597095589
 20
1673.790656192581
 10
1463.354488621822
 20
1673.791094608751
 10
1463.357412575406
 20
1673.791037684041
 10
1463.360241386933
 20
1673.79049167354
 10
1463.362940801
 20
1673.789484460006
 10
1463.365447709745
 20
1673.78803284901
 10
1463.367683492676
 20
1673.786190558933
 10
1463.369551098687
 20
1673.784055255064
  0
LWPOLYLINE
  5
1898
330
1F
100
AcDbEntity
  8
SANINDUSA
100
AcDbPolyline
 90
        5
 70
   128
 43
0.0
 10
1463.341428311373
 20
1673.842929167212
 10
1463.340747521174
 20
1673.844723863097
 10
1463.34070503852
 20
1673.846645566554
 10
1463.341291761046
 20
1673.848427899968
 10
1463.341855996208
 20
1673.84930672915
  0
LWPOLYLINE
  5
1899
330
1F
100
AcDbEntity
  8
SANINDUSA
100
AcDbPolyline
 90
        5
 70
   128
 43
0.0
 10
1463.309479885666
 20
1673.849414736497
 10
1463.310376038979
 20
1673.847713283329
 10
1463.310656130271
 20
1673.84580755516
 10
1463.310290447435
 20
1673.843962413757
 10
1463.309841354407
 20
1673.843033080363
  0
LWPOLYLINE
  5
18A2
330
1F
100
AcDbEntity
  8
SANINDUSA
100
AcDbPolyline
 90
        5
 70
   128
 43
0.0
 10
1463.341428311373
 20
1673.777939067027
 10
1463.340747521174
 20
1673.779733762912
 10
1463.34070503852
 20
1673.781655466369
 10
1463.341291761046
 20
1673.783437799783
 10
1463.341855996208
 20
1673.784316628965
  0
LWPOLYLINE
  5
18A3
330
1F
100
AcDbEntity
  8
SANINDUSA
100
AcDbPolyline
 90
        5
 70
   128
 43
0.0
 10
1463.309479885666
 20
1673.784424636312
 10
1463.310376038979
 20
1673.782723183144
 10
1463.310656130271
 20
1673.780817454974
 10
1463.310290447435
 20
1673.778972313572
 10
1463.309841354407
 20
1673.778042980178
  0
LWPOLYLINE
  5
18AC
330
1F
100
AcDbEntity
  8
SANINDUSA
100
AcDbPolyline
 90
        5
 70
   128
 43
0.0
 10
1463.341428311373
 20
1673.712948966842
 10
1463.340747521174
 20
1673.714743662726
 10
1463.34070503852
 20
1673.716665366184
 10
1463.341291761046
 20
1673.718447699597
 10
1463.341855996208
 20
1673.71932652878
  0
LWPOLYLINE
  5
18AD
330
1F
100
AcDbEntity
  8
SANINDUSA
100
AcDbPolyline
 90
        5
 70
   128
 43
0.0
 10
1463.309479885666
 20
1673.719434536127
 10
1463.310376038979
 20
1673.717733082959
 10
1463.310656130271
 20
1673.715827354789
 10
1463.310290447435
 20
1673.713982213387
 10
1463.309841354407
 20
1673.713052879993
  0
LWPOLYLINE
  5
18B8
330
1F
100
AcDbEntity
  8
SANINDUSA
100
AcDbPolyline
 90
        5
 70
   128
 43
0.0
 10
1463.401443236858
 20
1673.842288511127
 10
1463.400777727863
 20
1673.84408892778
 10
1463.40075158304
 20
1673.846010922854
 10
1463.401353435892
 20
1673.847788205707
 10
1463.401925121551
 20
1673.848662208072
  0
LWPOLYLINE
  5
18BD
330
1F
100
AcDbEntity
  8
SANINDUSA
100
AcDbPolyline
 90
        5
 70
   128
 43
0.0
 10
1463.369551098687
 20
1673.84904535525
 10
1463.370432755666
 20
1673.847336347712
 10
1463.370696636349
 20
1673.845428308067
 10
1463.370315281275
 20
1673.843586341019
 10
1463.369858304257
 20
1673.842660857747
  0
LWPOLYLINE
  5
18C6
330
1F
100
AcDbEntity
  8
SANINDUSA
100
AcDbPolyline
 90
        5
 70
   128
 43
0.0
 10
1463.401443236858
 20
1673.777298410942
 10
1463.400777727863
 20
1673.779098827595
 10
1463.40075158304
 20
1673.781020822668
 10
1463.401353435892
 20
1673.782798105521
 10
1463.401925121551
 20
1673.783672107887
  0
LWPOLYLINE
  5
18D0
330
1F
100
AcDbEntity
  8
SANINDUSA
100
AcDbPolyline
 90
        5
 70
   128
 43
0.0
 10
1463.401443236858
 20
1673.712308310756
 10
1463.400777727863
 20
1673.71410872741
 10
1463.40075158304
 20
1673.716030722483
 10
1463.401353435892
 20
1673.717808005336
 10
1463.401925121551
 20
1673.718682007701
  0
LWPOLYLINE
  5
18D5
330
1F
100
AcDbEntity
  8
SANINDUSA
100
AcDbPolyline
 90
        5
 70
   128
 43
0.0
 10
1463.369551098687
 20
1673.784055255064
 10
1463.370432755666
 20
1673.782346247527
 10
1463.370696636349
 20
1673.780438207882
 10
1463.370315281275
 20
1673.778596240834
 10
1463.369858304257
 20
1673.777670757562
  0
LWPOLYLINE
  5
18D9
330
1F
100
AcDbEntity
  8
SANINDUSA
100
AcDbPolyline
 90
        5
 70
   128
 43
0.0
 10
1463.369551098687
 20
1673.719065154879
 10
1463.370432755666
 20
1673.717356147341
 10
1463.370696636349
 20
1673.715448107697
 10
1463.370315281275
 20
1673.713606140648
 10
1463.369858304257
 20
1673.712680657377
  0
LWPOLYLINE
  5
18DE
330
1F
100
AcDbEntity
  8
SANINDUSA
100
AcDbPolyline
 90
       69
 70
   128
 43
0.0
 10
1463.296051256113
 20
1673.961564475255
 10
1463.292169427706
 20
1673.96174391568
 10
1463.288320717689
 20
1673.962280706031
 10
1463.284537961901
 20
1673.963170266603
 10
1463.280853433479
 20
1673.964405007978
 10
1463.277298567521
 20
1673.965974395779
 10
1463.273903692891
 20
1673.967865040542
 10
1463.270697773461
 20
1673.970060811952
 10
1463.267708161005
 20
1673.972542976463
 10
1463.264960361844
 20
1673.975290357122
 10
1463.262477819229
 20
1673.978279514245
 10
1463.260281713341
 20
1673.981484945398
 10
1463.25839078058
 20
1673.984879302973
 10
1463.256821153717
 20
1673.988433627507
 10
1463.255586224257
 20
1673.992117594757
 10
1463.25469652818
 20
1673.995899774413
 10
1463.25415965606
 20
1673.999747898253
 10
1463.253980188302
 20
1674.003629135439
 10
1463.25415965606
 20
1674.007510372626
 10
1463.25469652818
 20
1674.011358496465
 10
1463.255586224257
 20
1674.015140676122
 10
1463.256821153717
 20
1674.018824643372
 10
1463.25839078058
 20
1674.022378967906
 10
1463.260281713341
 20
1674.025773325481
 10
1463.262477819229
 20
1674.028978756634
 10
1463.264960361844
 20
1674.031967913757
 10
1463.267708161005
 20
1674.034715294416
 10
1463.270697773461
 20
1674.037197458926
 10
1463.273903692891
 20
1674.039393230337
 10
1463.277298567521
 20
1674.0412838751
 10
1463.280853433479
 20
1674.042853262901
 10
1463.284537961901
 20
1674.044088004276
 10
1463.288320717689
 20
1674.044977564848
 10
1463.292169427706
 20
1674.045514355199
 10
1463.296051256113
 20
1674.045693795624
 10
1463.299933084521
 20
1674.045514355199
 10
1463.303781794538
 20
1674.044977564848
 10
1463.307564550327
 20
1674.044088004276
 10
1463.311249078748
 20
1674.042853262901
 10
1463.314803944706
 20
1674.0412838751
 10
1463.318198819336
 20
1674.039393230337
 10
1463.321404738767
 20
1674.037197458926
 10
1463.324394351222
 20
1674.034715294416
 10
1463.327142150383
 20
1674.031967913757
 10
1463.329624692997
 20
1674.028978756634
 10
1463.331820798886
 20
1674.025773325481
 10
1463.333711731647
 20
1674.022378967906
 10
1463.33528135851
 20
1674.018824643372
 10
1463.336516287971
 20
1674.015140676122
 10
1463.337405984048
 20
1674.011358496465
 10
1463.337942856167
 20
1674.007510372626
 10
1463.338122323926
 20
1674.003629135439
 10
1463.337942856167
 20
1673.999747898253
 10
1463.337405984048
 20
1673.995899774413
 10
1463.336516287971
 20
1673.992117594757
 10
1463.33528135851
 20
1673.988433627507
 10
1463.333711731647
 20
1673.984879302973
 10
1463.331820798886
 20
1673.981484945398
 10
1463.329624692997
 20
1673.978279514245
 10
1463.327142150383
 20
1673.975290357122
 10
1463.324394351222
 20
1673.972542976463
 10
1463.321404738767
 20
1673.970060811952
 10
1463.318198819336
 20
1673.967865040542
 10
1463.314803944706
 20
1673.965974395779
 10
1463.311249078748
 20
1673.964405007978
 10
1463.307564550327
 20
1673.963170266603
 10
1463.303781794538
 20
1673.962280706031
 10
1463.299933084521
 20
1673.96174391568
 10
1463.296051256113
 20
1673.961564475255
  0
LWPOLYLINE
  5
18E0
330
1F
100
AcDbEntity
  8
SANINDUSA
100
AcDbPolyline
 90
       59
 70
   128
 43
0.0
 10
1463.296051256113
 20
1674.03345004223
 10
1463.292807685561
 20
1674.033274207729
 10
1463.289602142907
 20
1674.032748765725
 10
1463.286472210209
 20
1674.031879876546
 10
1463.283454583067
 20
1674.030677727121
 10
1463.280584640398
 20
1674.029156411555
 10
1463.277896029658
 20
1674.027333765882
 10
1463.275420272348
 20
1674.025231158954
 10
1463.27318639446
 20
1674.022873241917
 10
1463.271220586169
 20
1674.020287659191
 10
1463.26954589478
 20
1674.01750472437
 10
1463.268181954519
 20
1674.01455706482
 10
1463.267144756338
 20
1674.011479239155
 10
1463.266446460437
 20
1674.008307332066
 10
1463.266095253698
 20
1674.005078531264
 10
1463.266095253698
 20
1674.001830691486
 10
1463.266446460437
 20
1673.998601890684
 10
1463.267144756338
 20
1673.995429983595
 10
1463.268181954519
 20
1673.99235215793
 10
1463.26954589478
 20
1673.989404498381
 10
1463.271220586169
 20
1673.98662156356
 10
1463.27318639446
 20
1673.984035980834
 10
1463.275420272348
 20
1673.981678063796
 10
1463.277896029658
 20
1673.979575456869
 10
1463.280584640398
 20
1673.977752811195
 10
1463.283454583067
 20
1673.976231495629
 10
1463.286472210209
 20
1673.975029346205
 10
1463.289602142907
 20
1673.974160457025
 10
1463.292807685561
 20
1673.973635015022
 10
1463.296051256113
 20
1673.97345918052
 10
1463.299294826666
 20
1673.973635015022
 10
1463.30250036932
 20
1673.974160457025
 10
1463.305630302017
 20
1673.975029346205
 10
1463.30864792916
 20
1673.976231495629
 10
1463.311517871829
 20
1673.977752811195
 10
1463.314206482569
 20
1673.979575456869
 10
1463.316682239879
 20
1673.981678063796
 10
1463.318916117767
 20
1673.984035980834
 10
1463.320881926058
 20
1673.98662156356
 10
1463.322556617447
 20
1673.989404498381
 10
1463.323920557708
 20
1673.99235215793
 10
1463.324957755889
 20
1673.995429983595
 10
1463.32565605179
 20
1673.998601890684
 10
1463.326007258529
 20
1674.001830691486
 10
1463.326007258529
 20
1674.005078531264
 10
1463.32565605179
 20
1674.008307332066
 10
1463.324957755889
 20
1674.011479239155
 10
1463.323920557708
 20
1674.01455706482
 10
1463.322556617447
 20
1674.01750472437
 10
1463.320881926058
 20
1674.020287659191
 10
1463.318916117767
 20
1674.022873241917
 10
1463.316682239879
 20
1674.025231158954
 10
1463.314206482569
 20
1674.027333765882
 10
1463.311517871829
 20
1674.029156411555
 10
1463.30864792916
 20
1674.030677727121
 10
1463.305630302017
 20
1674.031879876546
 10
1463.30250036932
 20
1674.032748765725
 10
1463.299294826666
 20
1674.033274207729
 10
1463.296051256113
 20
1674.03345004223
  0
LWPOLYLINE
  5
18E1
330
1F
100
AcDbEntity
  8
SANINDUSA
100
AcDbPolyline
 90
       24
 70
   128
 43
0.0
 10
1463.309841354407
 20
1673.908023180548
 10
1463.309084854812
 20
1673.906863953955
 10
1463.308235671348
 20
1673.905770774657
 10
1463.307299377071
 20
1673.904751182587
 10
1463.306206685823
 20
1673.903748635619
 10
1463.305110176572
 20
1673.902903637056
 10
1463.303938889174
 20
1673.902147741639
 10
1463.302725682173
 20
1673.901501256232
 10
1463.301359056525
 20
1673.900918659351
 10
1463.300053851189
 20
1673.900491848052
 10
1463.29870790339
 20
1673.90017395289
 10
1463.297359281131
 20
1673.899973048569
 10
1463.295886876213
 20
1673.899883367832
 10
1463.29453330051
 20
1673.899918571837
 10
1463.291858195786
 20
1673.900324445965
 10
1463.290461700423
 20
1673.900722722472
 10
1463.28796847557
 20
1673.901790356082
 10
1463.28680766585
 20
1673.902466459199
 10
1463.285622034185
 20
1673.903297678177
 10
1463.284570473694
 20
1673.904176193248
 10
1463.283587976223
 20
1673.905144604871
 10
1463.282699949413
 20
1673.906175817307
 10
1463.281839702425
 20
1673.907363525294
 10
1463.281410107607
 20
1673.908049872104
  0
LWPOLYLINE
  5
18E6
330
1F
100
AcDbEntity
  8
SANINDUSA
100
AcDbPolyline
 90
       21
 70
   128
 43
0.0
 10
1463.281783561684
 20
1673.914430838285
 10
1463.282709028806
 20
1673.915552333937
 10
1463.283723316689
 20
1673.916594223078
 10
1463.284819845394
 20
1673.917549217534
 10
1463.286077355987
 20
1673.918467937448
 10
1463.287320829197
 20
1673.919221816482
 10
1463.288632143886
 20
1673.919873650833
 10
1463.289974481154
 20
1673.920405877028
 10
1463.291470416903
 20
1673.920852956235
 10
1463.29287784506
 20
1673.921142894197
 10
1463.294314841709
 20
1673.921314623743
 10
1463.295740752728
 20
1673.9213643222
 10
1463.297282443611
 20
1673.921283855936
 10
1463.298685393728
 20
1673.921087936689
 10
1463.301419015728
 20
1673.920353049286
 10
1463.302823673384
 20
1673.919777668839
 10
1463.304091825393
 20
1673.919127806831
 10
1463.30531068633
 20
1673.918371227711
 10
1463.306448546697
 20
1673.917529649014
 10
1463.307594195016
 20
1673.916524191837
 10
1463.309479885666
 20
1673.914404836683
  0
LWPOLYLINE
  5
18E9
330
1F
100
AcDbEntity
  8
SANINDUSA
100
AcDbPolyline
 90
       14
 70
   128
 43
0.0
 10
1463.249823408287
 20
1673.907885344277
 10
1463.248204064826
 20
1673.905582437402
 10
1463.246225208671
 20
1673.903580065047
 10
1463.243934949346
 20
1673.901940361658
 10
1463.241401811957
 20
1673.900708994123
 10
1463.238716230177
 20
1673.89993549089
 10
1463.235938630272
 20
1673.899627235462
 10
1463.233189291965
 20
1673.899795645187
 10
1463.230506515146
 20
1673.900420454704
 10
1463.227970964681
 20
1673.901485974842
 10
1463.22564513417
 20
1673.902954188185
 10
1463.223569863041
 20
1673.904813001561
 10
1463.221828375492
 20
1673.906987744829
 10
1463.221392961596
 20
1673.907670415996
  0
LWPOLYLINE
  5
18EC
330
1F
100
AcDbEntity
  8
SANINDUSA
100
AcDbPolyline
 90
       12
 70
   128
 43
0.0
 10
1463.221712157934
 20
1673.914054325425
 10
1463.22367195783
 20
1673.916268743946
 10
1463.225971477973
 20
1673.918127768953
 10
1463.22855460489
 20
1673.919571458701
 10
1463.231344069162
 20
1673.920558533741
 10
1463.234227723969
 20
1673.921046031232
 10
1463.237152222869
 20
1673.921038810551
 10
1463.239989908542
 20
1673.920540957705
 10
1463.242706056492
 20
1673.91957976921
 10
1463.24523728226
 20
1673.918170975625
 10
1463.247504063432
 20
1673.916366951325
 10
1463.249407702489
 20
1673.914263697999
  0
LWPOLYLINE
  5
18EF
330
1F
100
AcDbEntity
  8
SANINDUSA
100
AcDbPolyline
 90
        5
 70
   128
 43
0.0
 10
1463.221392961596
 20
1673.907670415996
 10
1463.22068175764
 20
1673.90945328179
 10
1463.22060660971
 20
1673.911373985546
 10
1463.221162945517
 20
1673.913166033427
 10
1463.221712157934
 20
1673.914054325425
  0
LWPOLYLINE
  5
18F5
330
1F
100
AcDbEntity
  8
SANINDUSA
100
AcDbPolyline
 90
        5
 70
   128
 43
0.0
 10
1463.189338889094
 20
1673.913612049581
 10
1463.1902638398
 20
1673.911926073363
 10
1463.190576290436
 20
1673.910025381008
 10
1463.190242030198
 20
1673.908174291025
 10
1463.189808801914
 20
1673.907237459079
  0
LWPOLYLINE
  5
18F9
330
1F
100
AcDbEntity
  8
SANINDUSA
100
AcDbPolyline
 90
       15
 70
   128
 43
0.0
 10
1463.281410107607
 20
1673.908049872104
 10
1463.281184749618
 20
1673.908466642129
 10
1463.280993515493
 20
1673.908900144056
 10
1463.280838314795
 20
1673.909347822854
 10
1463.280714085387
 20
1673.909838717561
 10
1463.2806381152
 20
1673.910306419873
 10
1463.280601827565
 20
1673.910782293669
 10
1463.280605997335
 20
1673.911252694451
 10
1463.280655267971
 20
1673.911759990569
 10
1463.280739922623
 20
1673.912215157081
 10
1463.280862714803
 20
1673.912664853278
 10
1463.281019593161
 20
1673.913097035231
 10
1463.281226817783
 20
1673.913547245777
 10
1463.281579161758
 20
1673.914144613544
 10
1463.281783561684
 20
1673.914430838285
  0
LWPOLYLINE
  5
1900
330
1F
100
AcDbEntity
  8
SANINDUSA
100
AcDbPolyline
 90
        5
 70
   128
 43
0.0
 10
1463.249407702489
 20
1673.914263697999
 10
1463.250318287392
 20
1673.912569922122
 10
1463.250614569059
 20
1673.910666643109
 10
1463.250264584879
 20
1673.908818460654
 10
1463.249823408287
 20
1673.907885344277
  0
LWPOLYLINE
  5
1905
330
1F
100
AcDbEntity
  8
SANINDUSA
100
AcDbPolyline
 90
       14
 70
   128
 43
0.0
 10
1463.369858304257
 20
1673.907650957932
 10
1463.368200042413
 20
1673.905375906322
 10
1463.366187429292
 20
1673.903407456121
 10
1463.36386962383
 20
1673.901806915125
 10
1463.361315917628
 20
1673.900618778962
 10
1463.358617573339
 20
1673.899891031905
 10
1463.355835134029
 20
1673.89963002938
 10
1463.353089056148
 20
1673.899845142799
 10
1463.350417289519
 20
1673.900515458779
 10
1463.347900220615
 20
1673.901623919429
 10
1463.345599687662
 20
1673.903131450678
 10
1463.343556318586
 20
1673.905025266991
 10
1463.341852056076
 20
1673.90722929453
 10
1463.341428311373
 20
1673.907919267397
  0
LWPOLYLINE
  5
1906
330
1F
100
AcDbEntity
  8
SANINDUSA
100
AcDbPolyline
 90
       12
 70
   128
 43
0.0
 10
1463.341855996208
 20
1673.914296829335
 10
1463.343853160879
 20
1673.916477618945
 10
1463.346183954569
 20
1673.918297292473
 10
1463.348791252825
 20
1673.919696870543
 10
1463.351597095589
 20
1673.920636392951
 10
1463.354488621822
 20
1673.921074809121
 10
1463.357412575406
 20
1673.921017884411
 10
1463.360241386933
 20
1673.92047187391
 10
1463.362940801
 20
1673.919464660376
 10
1463.365447709745
 20
1673.918013049381
 10
1463.367683492676
 20
1673.916170759303
 10
1463.369551098687
 20
1673.914035455435
  0
LWPOLYLINE
  5
190A
330
1F
100
AcDbEntity
  8
SANINDUSA
100
AcDbPolyline
 90
        5
 70
   128
 43
0.0
 10
1463.341428311373
 20
1673.907919267397
 10
1463.340747521174
 20
1673.909713963282
 10
1463.34070503852
 20
1673.91163566674
 10
1463.341291761046
 20
1673.913418000153
 10
1463.341855996208
 20
1673.914296829335
  0
LWPOLYLINE
  5
190B
330
1F
100
AcDbEntity
  8
SANINDUSA
100
AcDbPolyline
 90
        5
 70
   128
 43
0.0
 10
1463.309479885666
 20
1673.914404836683
 10
1463.310376038979
 20
1673.912703383514
 10
1463.310656130271
 20
1673.910797655345
 10
1463.310290447435
 20
1673.908952513942
 10
1463.309841354407
 20
1673.908023180548
  0
LWPOLYLINE
  5
1916
330
1F
100
AcDbEntity
  8
SANINDUSA
100
AcDbPolyline
 90
        5
 70
   128
 43
0.0
 10
1463.401443236858
 20
1673.907278611312
 10
1463.400777727863
 20
1673.909079027965
 10
1463.40075158304
 20
1673.911001023039
 10
1463.401353435892
 20
1673.912778305892
 10
1463.401925121551
 20
1673.913652308257
  0
LWPOLYLINE
  5
191B
330
1F
100
AcDbEntity
  8
SANINDUSA
100
AcDbPolyline
 90
        5
 70
   128
 43
0.0
 10
1463.369551098687
 20
1673.914035455435
 10
1463.370432755666
 20
1673.912326447897
 10
1463.370696636349
 20
1673.910418408252
 10
1463.370315281275
 20
1673.908576441204
 10
1463.369858304257
 20
1673.907650957932
  0
LWPOLYLINE
  5
1925
330
1F
100
AcDbEntity
  8
SANINDUSA
100
AcDbPolyline
 90
       14
 70
   128
 43
0.0
 10
1463.549859818951
 20
1673.838484289731
 10
1463.548144081507
 20
1673.836252251143
 10
1463.546081926433
 20
1673.834335747631
 10
1463.543724060057
 20
1673.832794813872
 10
1463.541140886111
 20
1673.831672164605
 10
1463.538424861196
 20
1673.83101344198
 10
1463.535636670761
 20
1673.830823455955
 10
1463.532896971073
 20
1673.831108504146
 10
1463.530243166317
 20
1673.831846712529
 10
1463.527755181852
 20
1673.833018979497
 10
1463.525493839397
 20
1673.834584667264
 10
1463.523499427635
 20
1673.836529958737
 10
1463.521851922702
 20
1673.838776715879
 10
1463.521445910326
 20
1673.839477266803
  0
LWPOLYLINE
  5
1926
330
1F
100
AcDbEntity
  8
SANINDUSA
100
AcDbPolyline
 90
       12
 70
   128
 43
0.0
 10
1463.522036086384
 20
1673.845841852664
 10
1463.524088212766
 20
1673.847971020376
 10
1463.52646465111
 20
1673.849730684326
 10
1463.529106791536
 20
1673.851063340562
 10
1463.531935680333
 20
1673.851931029276
 10
1463.534837446343
 20
1673.85229559036
 10
1463.537758997782
 20
1673.852164144935
 10
1463.540572966218
 20
1673.851546198137
 10
1463.543245818408
 20
1673.850470496915
 10
1463.545714895552
 20
1673.848955450165
 10
1463.547902972557
 20
1673.847056763045
 10
1463.549715520368
 20
1673.844874543179
  0
LWPOLYLINE
  5
1929
330
1F
100
AcDbEntity
  8
SANINDUSA
100
AcDbPolyline
 90
       14
 70
   128
 43
0.0
 10
1463.549859818951
 20
1673.773494189546
 10
1463.548144081507
 20
1673.771262150958
 10
1463.546081926433
 20
1673.769345647446
 10
1463.543724060057
 20
1673.767804713687
 10
1463.541140886111
 20
1673.76668206442
 10
1463.538424861196
 20
1673.766023341795
 10
1463.535636670761
 20
1673.76583335577
 10
1463.532896971073
 20
1673.76611840396
 10
1463.530243166317
 20
1673.766856612344
 10
1463.527755181852
 20
1673.768028879312
 10
1463.525493839397
 20
1673.769594567078
 10
1463.523499427635
 20
1673.771539858552
 10
1463.521851922702
 20
1673.773786615694
 10
1463.521445910326
 20
1673.774487166618
  0
LWPOLYLINE
  5
192C
330
1F
100
AcDbEntity
  8
SANINDUSA
100
AcDbPolyline
 90
       14
 70
   128
 43
0.0
 10
1463.549859818951
 20
1673.708504089361
 10
1463.548144081507
 20
1673.706272050773
 10
1463.546081926433
 20
1673.704355547261
 10
1463.543724060057
 20
1673.702814613502
 10
1463.541140886111
 20
1673.701691964235
 10
1463.538424861196
 20
1673.701033241609
 10
1463.535636670761
 20
1673.700843255585
 10
1463.532896971073
 20
1673.701128303775
 10
1463.530243166317
 20
1673.701866512159
 10
1463.527755181852
 20
1673.703038779127
 10
1463.525493839397
 20
1673.704604466893
 10
1463.523499427635
 20
1673.706549758367
 10
1463.521851922702
 20
1673.708796515508
 10
1463.521445910326
 20
1673.709497066433
  0
LWPOLYLINE
  5
192D
330
1F
100
AcDbEntity
  8
SANINDUSA
100
AcDbPolyline
 90
       12
 70
   128
 43
0.0
 10
1463.522036086384
 20
1673.715861652294
 10
1463.524088212766
 20
1673.717990820006
 10
1463.52646465111
 20
1673.719750483955
 10
1463.529106791536
 20
1673.721083140191
 10
1463.531935680333
 20
1673.721950828905
 10
1463.534837446343
 20
1673.72231538999
 10
1463.537758997782
 20
1673.722183944565
 10
1463.540572966218
 20
1673.721565997766
 10
1463.543245818408
 20
1673.720490296545
 10
1463.545714895552
 20
1673.718975249795
 10
1463.547902972557
 20
1673.717076562675
 10
1463.549715520368
 20
1673.714894342809
  0
LWPOLYLINE
  5
1930
330
1F
100
AcDbEntity
  8
SANINDUSA
100
AcDbPolyline
 90
       14
 70
   128
 43
0.0
 10
1463.549859818951
 20
1673.643513989176
 10
1463.548144081507
 20
1673.641281950587
 10
1463.546081926433
 20
1673.639365447076
 10
1463.543724060057
 20
1673.637824513317
 10
1463.541140886111
 20
1673.63670186405
 10
1463.538424861196
 20
1673.636043141424
 10
1463.535636670761
 20
1673.635853155399
 10
1463.532896971073
 20
1673.63613820359
 10
1463.530243166317
 20
1673.636876411974
 10
1463.527755181852
 20
1673.638048678942
 10
1463.525493839397
 20
1673.639614366708
 10
1463.523499427635
 20
1673.641559658182
 10
1463.521851922702
 20
1673.643806415323
 10
1463.521445910326
 20
1673.644506966248
  0
LWPOLYLINE
  5
1931
330
1F
100
AcDbEntity
  8
SANINDUSA
100
AcDbPolyline
 90
       12
 70
   128
 43
0.0
 10
1463.522036086384
 20
1673.650871552109
 10
1463.524088212766
 20
1673.653000719821
 10
1463.52646465111
 20
1673.65476038377
 10
1463.529106791536
 20
1673.656093040006
 10
1463.531935680333
 20
1673.65696072872
 10
1463.534837446343
 20
1673.657325289804
 10
1463.537758997782
 20
1673.65719384438
 10
1463.540572966218
 20
1673.656575897581
 10
1463.543245818408
 20
1673.65550019636
 10
1463.545714895552
 20
1673.65398514961
 10
1463.547902972557
 20
1673.652086462489
 10
1463.549715520368
 20
1673.649904242624
  0
LWPOLYLINE
  5
1932
330
1F
100
AcDbEntity
  8
SANINDUSA
100
AcDbPolyline
 90
       12
 70
   128
 43
0.0
 10
1463.522036086384
 20
1673.780851752479
 10
1463.524088212766
 20
1673.782980920191
 10
1463.52646465111
 20
1673.784740584141
 10
1463.529106791536
 20
1673.786073240376
 10
1463.531935680333
 20
1673.786940929091
 10
1463.534837446343
 20
1673.787305490175
 10
1463.537758997782
 20
1673.78717404475
 10
1463.540572966218
 20
1673.786556097952
 10
1463.543245818408
 20
1673.78548039673
 10
1463.545714895552
 20
1673.78396534998
 10
1463.547902972557
 20
1673.78206666286
 10
1463.549715520368
 20
1673.779884442994
  0
LWPOLYLINE
  5
1935
330
1F
100
AcDbEntity
  8
SANINDUSA
100
AcDbPolyline
 90
       14
 70
   128
 43
0.0
 10
1463.489871871742
 20
1673.645416079716
 10
1463.488175170713
 20
1673.643169540806
 10
1463.486129382222
 20
1673.641235581595
 10
1463.483784700414
 20
1673.639674665509
 10
1463.48121116336
 20
1673.638530104062
 10
1463.47850083632
 20
1673.637848323483
 10
1463.475714361663
 20
1673.637634649284
 10
1463.472972337761
 20
1673.637896404234
 10
1463.470312353398
 20
1673.638612032972
 10
1463.467814493428
 20
1673.639763113816
 10
1463.465539922832
 20
1673.64130952733
 10
1463.463529046295
 20
1673.643237799313
 10
1463.461862501314
 20
1673.645470474211
 10
1463.461450548259
 20
1673.646167549392
  0
LWPOLYLINE
  5
1936
330
1F
100
AcDbEntity
  8
SANINDUSA
100
AcDbPolyline
 90
       12
 70
   128
 43
0.0
 10
1463.461986597998
 20
1673.652536920874
 10
1463.464020550312
 20
1673.654683451376
 10
1463.466381944005
 20
1673.656463247582
 10
1463.469012660152
 20
1673.65781830953
 10
1463.471834070587
 20
1673.658710007807
 10
1463.474732632663
 20
1673.659099215964
 10
1463.477655195978
 20
1673.658992603674
 10
1463.480474315899
 20
1673.658398593304
 10
1463.483156216015
 20
1673.657345645791
 10
1463.485638083301
 20
1673.655851636867
 10
1463.487842221902
 20
1673.65397161339
 10
1463.489673255173
 20
1673.65180487603
  0
LWPOLYLINE
  5
193B
330
1F
100
AcDbEntity
  8
SANINDUSA
100
AcDbPolyline
 90
        5
 70
   128
 43
0.0
 10
1463.461450548259
 20
1673.646167549392
 10
1463.460800368548
 20
1673.647973556742
 10
1463.460790563446
 20
1673.649895704576
 10
1463.461407503143
 20
1673.651667808468
 10
1463.461986597998
 20
1673.652536920874
  0
LWPOLYLINE
  5
193E
330
1F
100
AcDbEntity
  8
SANINDUSA
100
AcDbPolyline
 90
        5
 70
   128
 43
0.0
 10
1463.429617001683
 20
1673.653195180201
 10
1463.430484098635
 20
1673.651478741762
 10
1463.430731749644
 20
1673.649568528488
 10
1463.430334749883
 20
1673.647729868869
 10
1463.429869921889
 20
1673.646808302581
  0
LWPOLYLINE
  5
1948
330
1F
100
AcDbEntity
  8
SANINDUSA
100
AcDbPolyline
 90
        5
 70
   128
 43
0.0
 10
1463.521445910326
 20
1673.644506966248
 10
1463.520811106872
 20
1673.646318433819
 10
1463.520817642199
 20
1673.648240595547
 10
1463.52144962417
 20
1673.650007392453
 10
1463.522036086384
 20
1673.650871552109
  0
LWPOLYLINE
  5
194A
330
1F
100
AcDbEntity
  8
SANINDUSA
100
AcDbPolyline
 90
        5
 70
   128
 43
0.0
 10
1463.489673255173
 20
1673.65180487603
 10
1463.490525729452
 20
1673.650081130694
 10
1463.490757132896
 20
1673.648168881796
 10
1463.49034451713
 20
1673.646333662439
 10
1463.489871871742
 20
1673.645416079716
  0
LWPOLYLINE
  5
1951
330
1F
100
AcDbEntity
  8
SANINDUSA
100
AcDbPolyline
 90
       14
 70
   128
 43
0.0
 10
1463.489871871742
 20
1673.840386380271
 10
1463.488175170713
 20
1673.838139841362
 10
1463.486129382222
 20
1673.83620588215
 10
1463.483784700414
 20
1673.834644966065
 10
1463.48121116336
 20
1673.833500404617
 10
1463.47850083632
 20
1673.832818624039
 10
1463.475714361663
 20
1673.83260494984
 10
1463.472972337761
 20
1673.832866704789
 10
1463.470312353398
 20
1673.833582333528
 10
1463.467814493428
 20
1673.834733414371
 10
1463.465539922832
 20
1673.836279827886
 10
1463.463529046295
 20
1673.838208099869
 10
1463.461862501314
 20
1673.840440774766
 10
1463.461450548259
 20
1673.841137849947
  0
LWPOLYLINE
  5
1952
330
1F
100
AcDbEntity
  8
SANINDUSA
100
AcDbPolyline
 90
       12
 70
   128
 43
0.0
 10
1463.461986597998
 20
1673.847507221429
 10
1463.464020550312
 20
1673.849653751932
 10
1463.466381944005
 20
1673.851433548137
 10
1463.469012660152
 20
1673.852788610085
 10
1463.471834070587
 20
1673.853680308362
 10
1463.474732632663
 20
1673.85406951652
 10
1463.477655195978
 20
1673.853962904229
 10
1463.480474315899
 20
1673.85336889386
 10
1463.483156216015
 20
1673.852315946346
 10
1463.485638083301
 20
1673.850821937422
 10
1463.487842221902
 20
1673.848941913946
 10
1463.489673255173
 20
1673.846775176586
  0
LWPOLYLINE
  5
1957
330
1F
100
AcDbEntity
  8
SANINDUSA
100
AcDbPolyline
 90
       14
 70
   128
 43
0.0
 10
1463.489871871742
 20
1673.710406179901
 10
1463.488175170713
 20
1673.708159640991
 10
1463.486129382222
 20
1673.70622568178
 10
1463.483784700414
 20
1673.704664765695
 10
1463.48121116336
 20
1673.703520204247
 10
1463.47850083632
 20
1673.702838423668
 10
1463.475714361663
 20
1673.70262474947
 10
1463.472972337761
 20
1673.702886504419
 10
1463.470312353398
 20
1673.703602133157
 10
1463.467814493428
 20
1673.704753214001
 10
1463.465539922832
 20
1673.706299627516
 10
1463.463529046295
 20
1673.708227899498
 10
1463.461862501314
 20
1673.710460574396
 10
1463.461450548259
 20
1673.711157649577
  0
LWPOLYLINE
  5
1958
330
1F
100
AcDbEntity
  8
SANINDUSA
100
AcDbPolyline
 90
       12
 70
   128
 43
0.0
 10
1463.461986597998
 20
1673.717527021059
 10
1463.464020550312
 20
1673.719673551562
 10
1463.466381944005
 20
1673.721453347767
 10
1463.469012660152
 20
1673.722808409715
 10
1463.471834070587
 20
1673.723700107992
 10
1463.474732632663
 20
1673.724089316149
 10
1463.477655195978
 20
1673.723982703859
 10
1463.480474315899
 20
1673.723388693489
 10
1463.483156216015
 20
1673.722335745976
 10
1463.485638083301
 20
1673.720841737052
 10
1463.487842221902
 20
1673.718961713575
 10
1463.489673255173
 20
1673.716794976215
  0
LWPOLYLINE
  5
1959
330
1F
100
AcDbEntity
  8
SANINDUSA
100
AcDbPolyline
 90
       14
 70
   128
 43
0.0
 10
1463.489871871742
 20
1673.775396280086
 10
1463.488175170713
 20
1673.773149741177
 10
1463.486129382222
 20
1673.771215781965
 10
1463.483784700414
 20
1673.76965486588
 10
1463.48121116336
 20
1673.768510304432
 10
1463.47850083632
 20
1673.767828523854
 10
1463.475714361663
 20
1673.767614849655
 10
1463.472972337761
 20
1673.767876604604
 10
1463.470312353398
 20
1673.768592233342
 10
1463.467814493428
 20
1673.769743314186
 10
1463.465539922832
 20
1673.771289727701
 10
1463.463529046295
 20
1673.773217999683
 10
1463.461862501314
 20
1673.775450674581
 10
1463.461450548259
 20
1673.776147749762
  0
LWPOLYLINE
  5
195A
330
1F
100
AcDbEntity
  8
SANINDUSA
100
AcDbPolyline
 90
       12
 70
   128
 43
0.0
 10
1463.461986597998
 20
1673.782517121244
 10
1463.464020550312
 20
1673.784663651747
 10
1463.466381944005
 20
1673.786443447952
 10
1463.469012660152
 20
1673.7877985099
 10
1463.471834070587
 20
1673.788690208177
 10
1463.474732632663
 20
1673.789079416335
 10
1463.477655195978
 20
1673.788972804044
 10
1463.480474315899
 20
1673.788378793674
 10
1463.483156216015
 20
1673.787325846161
 10
1463.485638083301
 20
1673.785831837237
 10
1463.487842221902
 20
1673.78395181376
 10
1463.489673255173
 20
1673.781785076401
  0
LWPOLYLINE
  5
195E
330
1F
100
AcDbEntity
  8
SANINDUSA
100
AcDbPolyline
 90
        5
 70
   128
 43
0.0
 10
1463.461450548259
 20
1673.841137849947
 10
1463.460800368548
 20
1673.842943857297
 10
1463.460790563446
 20
1673.844866005131
 10
1463.461407503143
 20
1673.846638109024
 10
1463.461986597998
 20
1673.847507221429
  0
LWPOLYLINE
  5
1962
330
1F
100
AcDbEntity
  8
SANINDUSA
100
AcDbPolyline
 90
        5
 70
   128
 43
0.0
 10
1463.429617001683
 20
1673.848165480757
 10
1463.430484098635
 20
1673.846449042317
 10
1463.430731749644
 20
1673.844538829044
 10
1463.430334749883
 20
1673.842700169424
 10
1463.429869921889
 20
1673.841778603137
  0
LWPOLYLINE
  5
196B
330
1F
100
AcDbEntity
  8
SANINDUSA
100
AcDbPolyline
 90
        5
 70
   128
 43
0.0
 10
1463.461450548259
 20
1673.776147749762
 10
1463.460800368548
 20
1673.777953757112
 10
1463.460790563446
 20
1673.779875904946
 10
1463.461407503143
 20
1673.781648008839
 10
1463.461986597998
 20
1673.782517121244
  0
LWPOLYLINE
  5
196F
330
1F
100
AcDbEntity
  8
SANINDUSA
100
AcDbPolyline
 90
        5
 70
   128
 43
0.0
 10
1463.429617001683
 20
1673.783175380572
 10
1463.430484098635
 20
1673.781458942132
 10
1463.430731749644
 20
1673.779548728858
 10
1463.430334749883
 20
1673.777710069239
 10
1463.429869921889
 20
1673.776788502952
  0
LWPOLYLINE
  5
1972
330
1F
100
AcDbEntity
  8
SANINDUSA
100
AcDbPolyline
 90
        5
 70
   128
 43
0.0
 10
1463.461450548259
 20
1673.711157649577
 10
1463.460800368548
 20
1673.712963656927
 10
1463.460790563446
 20
1673.714885804761
 10
1463.461407503143
 20
1673.716657908653
 10
1463.461986597998
 20
1673.717527021059
  0
LWPOLYLINE
  5
1976
330
1F
100
AcDbEntity
  8
SANINDUSA
100
AcDbPolyline
 90
        5
 70
   128
 43
0.0
 10
1463.429617001683
 20
1673.718185280386
 10
1463.430484098635
 20
1673.716468841947
 10
1463.430731749644
 20
1673.714558628673
 10
1463.430334749883
 20
1673.712719969054
 10
1463.429869921889
 20
1673.711798402767
  0
LWPOLYLINE
  5
1984
330
1F
100
AcDbEntity
  8
SANINDUSA
100
AcDbPolyline
 90
        5
 70
   128
 43
0.0
 10
1463.521445910326
 20
1673.839477266803
 10
1463.520811106872
 20
1673.841288734374
 10
1463.520817642199
 20
1673.843210896103
 10
1463.52144962417
 20
1673.844977693009
 10
1463.522036086384
 20
1673.845841852664
  0
LWPOLYLINE
  5
1986
330
1F
100
AcDbEntity
  8
SANINDUSA
100
AcDbPolyline
 90
        5
 70
   128
 43
0.0
 10
1463.489673255173
 20
1673.846775176586
 10
1463.490525729452
 20
1673.84505143125
 10
1463.490757132896
 20
1673.843139182352
 10
1463.49034451713
 20
1673.841303962994
 10
1463.489871871742
 20
1673.840386380271
  0
LWPOLYLINE
  5
1990
330
1F
100
AcDbEntity
  8
SANINDUSA
100
AcDbPolyline
 90
        5
 70
   128
 43
0.0
 10
1463.521445910326
 20
1673.774487166618
 10
1463.520811106872
 20
1673.776298634189
 10
1463.520817642199
 20
1673.778220795917
 10
1463.52144962417
 20
1673.779987592823
 10
1463.522036086384
 20
1673.780851752479
  0
LWPOLYLINE
  5
1992
330
1F
100
AcDbEntity
  8
SANINDUSA
100
AcDbPolyline
 90
        5
 70
   128
 43
0.0
 10
1463.489673255173
 20
1673.781785076401
 10
1463.490525729452
 20
1673.780061331065
 10
1463.490757132896
 20
1673.778149082166
 10
1463.49034451713
 20
1673.776313862809
 10
1463.489871871742
 20
1673.775396280086
  0
LWPOLYLINE
  5
199C
330
1F
100
AcDbEntity
  8
SANINDUSA
100
AcDbPolyline
 90
        5
 70
   128
 43
0.0
 10
1463.521445910326
 20
1673.709497066433
 10
1463.520811106872
 20
1673.711308534004
 10
1463.520817642199
 20
1673.713230695732
 10
1463.52144962417
 20
1673.714997492638
 10
1463.522036086384
 20
1673.715861652294
  0
LWPOLYLINE
  5
199E
330
1F
100
AcDbEntity
  8
SANINDUSA
100
AcDbPolyline
 90
        5
 70
   128
 43
0.0
 10
1463.489673255173
 20
1673.716794976215
 10
1463.490525729452
 20
1673.715071230879
 10
1463.490757132896
 20
1673.713158981981
 10
1463.49034451713
 20
1673.711323762624
 10
1463.489871871742
 20
1673.710406179901
  0
LWPOLYLINE
  5
19A5
330
1F
100
AcDbEntity
  8
SANINDUSA
100
AcDbPolyline
 90
       14
 70
   128
 43
0.0
 10
1463.609829429667
 20
1673.641102168378
 10
1463.60809477976
 20
1673.638884791366
 10
1463.606016407084
 20
1673.636985882013
 10
1463.603645526487
 20
1673.635465041906
 10
1463.601052902271
 20
1673.634364385925
 10
1463.5983313757
 20
1673.633728768843
 10
1463.595541670921
 20
1673.633562484717
 10
1463.592804493378
 20
1673.633870805556
 10
1463.590157059954
 20
1673.634631540253
 10
1463.58767913074
 20
1673.635824908654
 10
1463.585431179797
 20
1673.637409757558
 10
1463.583453376896
 20
1673.639371927986
 10
1463.581825031037
 20
1673.641632605052
 10
1463.581424988672
 20
1673.642336581109
  0
LWPOLYLINE
  5
19A6
330
1F
100
AcDbEntity
  8
SANINDUSA
100
AcDbPolyline
 90
       12
 70
   128
 43
0.0
 10
1463.582069248411
 20
1673.648695921538
 10
1463.584139400604
 20
1673.650807572637
 10
1463.586530711913
 20
1673.652546977201
 10
1463.589184085736
 20
1673.653857131447
 10
1463.592020248521
 20
1673.654700747912
 10
1463.594925008826
 20
1673.655040635585
 10
1463.597845337319
 20
1673.654884366523
 10
1463.600653950976
 20
1673.654242527939
 10
1463.603317562137
 20
1673.653144150724
 10
1463.605773670761
 20
1673.651608175603
 10
1463.60794552809
 20
1673.649690962009
 10
1463.609739459495
 20
1673.647493417294
  0
LWPOLYLINE
  5
19AB
330
1F
100
AcDbEntity
  8
SANINDUSA
100
AcDbPolyline
 90
        5
 70
   128
 43
0.0
 10
1463.581424988672
 20
1673.642336581109
 10
1463.580805607337
 20
1673.644153378031
 10
1463.580828482621
 20
1673.646075414786
 10
1463.581475461207
 20
1673.647836777062
 10
1463.582069248411
 20
1673.648695921538
  0
LWPOLYLINE
  5
19B2
330
1F
100
AcDbEntity
  8
SANINDUSA
100
AcDbPolyline
 90
        5
 70
   128
 43
0.0
 10
1463.549715520368
 20
1673.649904242624
 10
1463.550553310389
 20
1673.648173314924
 10
1463.550768449549
 20
1673.646259168552
 10
1463.550340247588
 20
1673.644427522044
 10
1463.549859818951
 20
1673.643513989176
  0
LWPOLYLINE
  5
19BB
330
1F
100
AcDbEntity
  8
SANINDUSA
100
AcDbPolyline
 90
        5
 70
   128
 43
0.0
 10
1463.641383450086
 20
1673.639656550775
 10
1463.640779535617
 20
1673.641478545794
 10
1463.640818749205
 20
1673.643400318717
 10
1463.641480677666
 20
1673.645156119113
 10
1463.642081746962
 20
1673.646010186338
  0
LWPOLYLINE
  5
19BE
330
1F
100
AcDbEntity
  8
SANINDUSA
100
AcDbPolyline
 90
        5
 70
   128
 43
0.0
 10
1463.609739459495
 20
1673.647493417294
 10
1463.610562504729
 20
1673.645755432282
 10
1463.610761364063
 20
1673.643839526725
 10
1463.610317606842
 20
1673.642011585394
 10
1463.609829429667
 20
1673.641102168378
  0
LWPOLYLINE
  5
19C0
330
1F
100
AcDbEntity
  8
SANINDUSA
100
AcDbPolyline
 90
       14
 70
   128
 43
0.0
 10
1463.66977637136
 20
1673.638180791567
 10
1463.668022934312
 20
1673.635978236326
 10
1463.665928494187
 20
1673.634097058319
 10
1463.663544770653
 20
1673.632596421737
 10
1463.660942883473
 20
1673.63151783856
 10
1463.658216051865
 20
1673.630905372941
 10
1463.655425034285
 20
1673.630762802728
 10
1463.652690576634
 20
1673.631094373941
 10
1463.650049705807
 20
1673.63187757999
 10
1463.647582010863
 20
1673.633091963611
 10
1463.645347613837
 20
1673.634695859154
 10
1463.643386562684
 20
1673.636674766777
 10
1463.641777493538
 20
1673.638949200445
 10
1463.641383450086
 20
1673.639656550775
  0
LWPOLYLINE
  5
19C1
330
1F
100
AcDbEntity
  8
SANINDUSA
100
AcDbPolyline
 90
       12
 70
   128
 43
0.0
 10
1463.642081746962
 20
1673.646010186338
 10
1463.644169775407
 20
1673.648104168267
 10
1463.646575786919
 20
1673.649823187784
 10
1463.649240202446
 20
1673.651110745387
 10
1463.652083434318
 20
1673.651930228655
 10
1463.654990979062
 20
1673.652245418362
 10
1463.657909873631
 20
1673.652064336951
 10
1463.660712929597
 20
1673.651398652953
 10
1463.663367107296
 20
1673.650277679096
 10
1463.665810069958
 20
1673.648720886572
 10
1463.667965550705
 20
1673.646785285016
 10
1463.669740736099
 20
1673.644572574213
  0
LWPOLYLINE
  5
19C5
330
1F
100
AcDbEntity
  8
SANINDUSA
100
AcDbPolyline
 90
       14
 70
   128
 43
0.0
 10
1463.609829429667
 20
1673.836072468934
 10
1463.60809477976
 20
1673.833855091922
 10
1463.606016407084
 20
1673.831956182568
 10
1463.603645526487
 20
1673.830435342462
 10
1463.601052902271
 20
1673.82933468648
 10
1463.5983313757
 20
1673.828699069398
 10
1463.595541670921
 20
1673.828532785273
 10
1463.592804493378
 20
1673.828841106112
 10
1463.590157059954
 20
1673.829601840808
 10
1463.58767913074
 20
1673.83079520921
 10
1463.585431179797
 20
1673.832380058114
 10
1463.583453376896
 20
1673.834342228541
 10
1463.581825031037
 20
1673.836602905607
 10
1463.581424988672
 20
1673.837306881664
  0
LWPOLYLINE
  5
19C6
330
1F
100
AcDbEntity
  8
SANINDUSA
100
AcDbPolyline
 90
       12
 70
   128
 43
0.0
 10
1463.582069248411
 20
1673.843666222093
 10
1463.584139400604
 20
1673.845777873192
 10
1463.586530711913
 20
1673.847517277757
 10
1463.589184085736
 20
1673.848827432002
 10
1463.592020248521
 20
1673.849671048468
 10
1463.594925008826
 20
1673.85001093614
 10
1463.597845337319
 20
1673.849854667079
 10
1463.600653950976
 20
1673.849212828494
 10
1463.603317562137
 20
1673.848114451279
 10
1463.605773670761
 20
1673.846578476159
 10
1463.60794552809
 20
1673.844661262565
 10
1463.609739459495
 20
1673.84246371785
  0
LWPOLYLINE
  5
19C9
330
1F
100
AcDbEntity
  8
SANINDUSA
100
AcDbPolyline
 90
       14
 70
   128
 43
0.0
 10
1463.609829429667
 20
1673.771082368749
 10
1463.60809477976
 20
1673.768864991737
 10
1463.606016407084
 20
1673.766966082383
 10
1463.603645526487
 20
1673.765445242277
 10
1463.601052902271
 20
1673.764344586295
 10
1463.5983313757
 20
1673.763708969213
 10
1463.595541670921
 20
1673.763542685088
 10
1463.592804493378
 20
1673.763851005926
 10
1463.590157059954
 20
1673.764611740623
 10
1463.58767913074
 20
1673.765805109025
 10
1463.585431179797
 20
1673.767389957928
 10
1463.583453376896
 20
1673.769352128356
 10
1463.581825031037
 20
1673.771612805422
 10
1463.581424988672
 20
1673.772316781479
  0
LWPOLYLINE
  5
19CA
330
1F
100
AcDbEntity
  8
SANINDUSA
100
AcDbPolyline
 90
       12
 70
   128
 43
0.0
 10
1463.582069248411
 20
1673.778676121908
 10
1463.584139400604
 20
1673.780787773007
 10
1463.586530711913
 20
1673.782527177572
 10
1463.589184085736
 20
1673.783837331817
 10
1463.592020248521
 20
1673.784680948282
 10
1463.594925008826
 20
1673.785020835955
 10
1463.597845337319
 20
1673.784864566893
 10
1463.600653950976
 20
1673.784222728309
 10
1463.603317562137
 20
1673.783124351094
 10
1463.605773670761
 20
1673.781588375973
 10
1463.60794552809
 20
1673.77967116238
 10
1463.609739459495
 20
1673.777473617665
  0
LWPOLYLINE
  5
19CD
330
1F
100
AcDbEntity
  8
SANINDUSA
100
AcDbPolyline
 90
       14
 70
   128
 43
0.0
 10
1463.609829429667
 20
1673.706092268563
 10
1463.60809477976
 20
1673.703874891551
 10
1463.606016407084
 20
1673.701975982198
 10
1463.603645526487
 20
1673.700455142091
 10
1463.601052902271
 20
1673.69935448611
 10
1463.5983313757
 20
1673.698718869028
 10
1463.595541670921
 20
1673.698552584903
 10
1463.592804493378
 20
1673.698860905741
 10
1463.590157059954
 20
1673.699621640438
 10
1463.58767913074
 20
1673.700815008839
 10
1463.585431179797
 20
1673.702399857743
 10
1463.583453376896
 20
1673.704362028171
 10
1463.581825031037
 20
1673.706622705237
 10
1463.581424988672
 20
1673.707326681294
  0
LWPOLYLINE
  5
19CE
330
1F
100
AcDbEntity
  8
SANINDUSA
100
AcDbPolyline
 90
       12
 70
   128
 43
0.0
 10
1463.582069248411
 20
1673.713686021723
 10
1463.584139400604
 20
1673.715797672822
 10
1463.586530711913
 20
1673.717537077387
 10
1463.589184085736
 20
1673.718847231632
 10
1463.592020248521
 20
1673.719690848097
 10
1463.594925008826
 20
1673.72003073577
 10
1463.597845337319
 20
1673.719874466708
 10
1463.600653950976
 20
1673.719232628124
 10
1463.603317562137
 20
1673.718134250909
 10
1463.605773670761
 20
1673.716598275788
 10
1463.60794552809
 20
1673.714681062195
 10
1463.609739459495
 20
1673.712483517479
  0
LWPOLYLINE
  5
19D3
330
1F
100
AcDbEntity
  8
SANINDUSA
100
AcDbPolyline
 90
        5
 70
   128
 43
0.0
 10
1463.581424988672
 20
1673.837306881664
 10
1463.580805607337
 20
1673.839123678586
 10
1463.580828482621
 20
1673.841045715342
 10
1463.581475461207
 20
1673.842807077618
 10
1463.582069248411
 20
1673.843666222093
  0
LWPOLYLINE
  5
19DA
330
1F
100
AcDbEntity
  8
SANINDUSA
100
AcDbPolyline
 90
        5
 70
   128
 43
0.0
 10
1463.549715520368
 20
1673.844874543179
 10
1463.550553310389
 20
1673.84314361548
 10
1463.550768449549
 20
1673.841229469108
 10
1463.550340247588
 20
1673.8393978226
 10
1463.549859818951
 20
1673.838484289731
  0
LWPOLYLINE
  5
19DF
330
1F
100
AcDbEntity
  8
SANINDUSA
100
AcDbPolyline
 90
        5
 70
   128
 43
0.0
 10
1463.581424988672
 20
1673.772316781479
 10
1463.580805607337
 20
1673.774133578401
 10
1463.580828482621
 20
1673.776055615156
 10
1463.581475461207
 20
1673.777816977433
 10
1463.582069248411
 20
1673.778676121908
  0
LWPOLYLINE
  5
19E9
330
1F
100
AcDbEntity
  8
SANINDUSA
100
AcDbPolyline
 90
        5
 70
   128
 43
0.0
 10
1463.581424988672
 20
1673.707326681294
 10
1463.580805607337
 20
1673.709143478216
 10
1463.580828482621
 20
1673.711065514971
 10
1463.581475461207
 20
1673.712826877248
 10
1463.582069248411
 20
1673.713686021723
  0
LWPOLYLINE
  5
19F1
330
1F
100
AcDbEntity
  8
SANINDUSA
100
AcDbPolyline
 90
        5
 70
   128
 43
0.0
 10
1463.549715520368
 20
1673.779884442994
 10
1463.550553310389
 20
1673.778153515294
 10
1463.550768449549
 20
1673.776239368923
 10
1463.550340247588
 20
1673.774407722415
 10
1463.549859818951
 20
1673.773494189546
  0
LWPOLYLINE
  5
19F2
330
1F
100
AcDbEntity
  8
SANINDUSA
100
AcDbPolyline
 90
        5
 70
   128
 43
0.0
 10
1463.549715520368
 20
1673.714894342809
 10
1463.550553310389
 20
1673.713163415109
 10
1463.550768449549
 20
1673.711249268738
 10
1463.550340247588
 20
1673.709417622229
 10
1463.549859818951
 20
1673.708504089361
  0
LWPOLYLINE
  5
19FB
330
1F
100
AcDbEntity
  8
SANINDUSA
100
AcDbPolyline
 90
        5
 70
   128
 43
0.0
 10
1463.641383450086
 20
1673.834626851331
 10
1463.640779535617
 20
1673.836448846349
 10
1463.640818749205
 20
1673.838370619272
 10
1463.641480677666
 20
1673.840126419669
 10
1463.642081746962
 20
1673.840980486894
  0
LWPOLYLINE
  5
19FE
330
1F
100
AcDbEntity
  8
SANINDUSA
100
AcDbPolyline
 90
        5
 70
   128
 43
0.0
 10
1463.609739459495
 20
1673.84246371785
 10
1463.610562504729
 20
1673.840725732837
 10
1463.610761364063
 20
1673.83880982728
 10
1463.610317606842
 20
1673.83698188595
 10
1463.609829429667
 20
1673.836072468934
  0
LWPOLYLINE
  5
19FF
330
1F
100
AcDbEntity
  8
SANINDUSA
100
AcDbPolyline
 90
       14
 70
   128
 43
0.0
 10
1463.66977637136
 20
1673.833151092123
 10
1463.668022934312
 20
1673.830948536882
 10
1463.665928494187
 20
1673.829067358874
 10
1463.663544770653
 20
1673.827566722293
 10
1463.660942883473
 20
1673.826488139116
 10
1463.658216051865
 20
1673.825875673497
 10
1463.655425034285
 20
1673.825733103284
 10
1463.652690576634
 20
1673.826064674496
 10
1463.650049705807
 20
1673.826847880546
 10
1463.647582010863
 20
1673.828062264166
 10
1463.645347613837
 20
1673.82966615971
 10
1463.643386562684
 20
1673.831645067332
 10
1463.641777493538
 20
1673.833919501
 10
1463.641383450086
 20
1673.834626851331
  0
LWPOLYLINE
  5
1A00
330
1F
100
AcDbEntity
  8
SANINDUSA
100
AcDbPolyline
 90
       12
 70
   128
 43
0.0
 10
1463.642081746962
 20
1673.840980486894
 10
1463.644169775407
 20
1673.843074468823
 10
1463.646575786919
 20
1673.84479348834
 10
1463.649240202446
 20
1673.846081045942
 10
1463.652083434318
 20
1673.846900529211
 10
1463.654990979062
 20
1673.847215718917
 10
1463.657909873631
 20
1673.847034637507
 10
1463.660712929597
 20
1673.846368953508
 10
1463.663367107296
 20
1673.845247979652
 10
1463.665810069958
 20
1673.843691187128
 10
1463.667965550705
 20
1673.841755585571
 10
1463.669740736099
 20
1673.839542874769
  0
LWPOLYLINE
  5
1A0B
330
1F
100
AcDbEntity
  8
SANINDUSA
100
AcDbPolyline
 90
        5
 70
   128
 43
0.0
 10
1463.641383450086
 20
1673.769636751146
 10
1463.640779535617
 20
1673.771458746164
 10
1463.640818749205
 20
1673.773380519087
 10
1463.641480677666
 20
1673.775136319484
 10
1463.642081746962
 20
1673.775990386709
  0
LWPOLYLINE
  5
1A0E
330
1F
100
AcDbEntity
  8
SANINDUSA
100
AcDbPolyline
 90
        5
 70
   128
 43
0.0
 10
1463.609739459495
 20
1673.777473617665
 10
1463.610562504729
 20
1673.775735632652
 10
1463.610761364063
 20
1673.773819727095
 10
1463.610317606842
 20
1673.771991785764
 10
1463.609829429667
 20
1673.771082368749
  0
LWPOLYLINE
  5
1A17
330
1F
100
AcDbEntity
  8
SANINDUSA
100
AcDbPolyline
 90
        5
 70
   128
 43
0.0
 10
1463.641383450086
 20
1673.70464665096
 10
1463.640779535617
 20
1673.706468645979
 10
1463.640818749205
 20
1673.708390418902
 10
1463.641480677666
 20
1673.710146219299
 10
1463.642081746962
 20
1673.711000286524
  0
LWPOLYLINE
  5
1A1A
330
1F
100
AcDbEntity
  8
SANINDUSA
100
AcDbPolyline
 90
        5
 70
   128
 43
0.0
 10
1463.609739459495
 20
1673.712483517479
 10
1463.610562504729
 20
1673.710745532467
 10
1463.610761364063
 20
1673.70882962691
 10
1463.610317606842
 20
1673.707001685579
 10
1463.609829429667
 20
1673.706092268563
  0
LWPOLYLINE
  5
1A1B
330
1F
100
AcDbEntity
  8
SANINDUSA
100
AcDbPolyline
 90
       14
 70
   128
 43
0.0
 10
1463.66977637136
 20
1673.703170891752
 10
1463.668022934312
 20
1673.700968336511
 10
1463.665928494187
 20
1673.699087158504
 10
1463.663544770653
 20
1673.697586521922
 10
1463.660942883473
 20
1673.696507938745
 10
1463.658216051865
 20
1673.695895473127
 10
1463.655425034285
 20
1673.695752902913
 10
1463.652690576634
 20
1673.696084474126
 10
1463.650049705807
 20
1673.696867680176
 10
1463.647582010863
 20
1673.698082063796
 10
1463.645347613837
 20
1673.699685959339
 10
1463.643386562684
 20
1673.701664866962
 10
1463.641777493538
 20
1673.70393930063
 10
1463.641383450086
 20
1673.70464665096
  0
LWPOLYLINE
  5
1A1C
330
1F
100
AcDbEntity
  8
SANINDUSA
100
AcDbPolyline
 90
       12
 70
   128
 43
0.0
 10
1463.642081746962
 20
1673.711000286524
 10
1463.644169775407
 20
1673.713094268453
 10
1463.646575786919
 20
1673.714813287969
 10
1463.649240202446
 20
1673.716100845572
 10
1463.652083434318
 20
1673.716920328841
 10
1463.654990979062
 20
1673.717235518547
 10
1463.657909873631
 20
1673.717054437137
 10
1463.660712929597
 20
1673.716388753138
 10
1463.663367107296
 20
1673.715267779281
 10
1463.665810069958
 20
1673.713710986757
 10
1463.667965550705
 20
1673.711775385201
 10
1463.669740736099
 20
1673.709562674398
  0
LWPOLYLINE
  5
1A1D
330
1F
100
AcDbEntity
  8
SANINDUSA
100
AcDbPolyline
 90
       14
 70
   128
 43
0.0
 10
1463.66977637136
 20
1673.768160991938
 10
1463.668022934312
 20
1673.765958436697
 10
1463.665928494187
 20
1673.764077258689
 10
1463.663544770653
 20
1673.762576622108
 10
1463.660942883473
 20
1673.76149803893
 10
1463.658216051865
 20
1673.760885573312
 10
1463.655425034285
 20
1673.760743003099
 10
1463.652690576634
 20
1673.761074574311
 10
1463.650049705807
 20
1673.761857780361
 10
1463.647582010863
 20
1673.763072163981
 10
1463.645347613837
 20
1673.764676059525
 10
1463.643386562684
 20
1673.766654967147
 10
1463.641777493538
 20
1673.768929400815
 10
1463.641383450086
 20
1673.769636751146
  0
LWPOLYLINE
  5
1A1E
330
1F
100
AcDbEntity
  8
SANINDUSA
100
AcDbPolyline
 90
       12
 70
   128
 43
0.0
 10
1463.642081746962
 20
1673.775990386709
 10
1463.644169775407
 20
1673.778084368638
 10
1463.646575786919
 20
1673.779803388154
 10
1463.649240202446
 20
1673.781090945757
 10
1463.652083434318
 20
1673.781910429026
 10
1463.654990979062
 20
1673.782225618732
 10
1463.657909873631
 20
1673.782044537322
 10
1463.660712929597
 20
1673.781378853323
 10
1463.663367107296
 20
1673.780257879466
 10
1463.665810069958
 20
1673.778701086943
 10
1463.667965550705
 20
1673.776765485386
 10
1463.669740736099
 20
1673.774552774583
  0
LWPOLYLINE
  5
1A25
330
1F
100
AcDbEntity
  8
SANINDUSA
100
AcDbPolyline
 90
       14
 70
   128
 43
0.0
 10
1463.549859818951
 20
1673.903474389916
 10
1463.548144081507
 20
1673.901242351328
 10
1463.546081926433
 20
1673.899325847817
 10
1463.543724060057
 20
1673.897784914058
 10
1463.541140886111
 20
1673.89666226479
 10
1463.538424861196
 20
1673.896003542165
 10
1463.535636670761
 20
1673.89581355614
 10
1463.532896971073
 20
1673.896098604331
 10
1463.530243166317
 20
1673.896836812714
 10
1463.527755181852
 20
1673.898009079682
 10
1463.525493839397
 20
1673.899574767449
 10
1463.523499427635
 20
1673.901520058923
 10
1463.521851922702
 20
1673.903766816064
 10
1463.521445910326
 20
1673.904467366988
  0
LWPOLYLINE
  5
1A26
330
1F
100
AcDbEntity
  8
SANINDUSA
100
AcDbPolyline
 90
       12
 70
   128
 43
0.0
 10
1463.522036086384
 20
1673.91083195285
 10
1463.524088212766
 20
1673.912961120562
 10
1463.52646465111
 20
1673.914720784511
 10
1463.529106791536
 20
1673.916053440747
 10
1463.531935680333
 20
1673.916921129461
 10
1463.534837446343
 20
1673.917285690545
 10
1463.537758997782
 20
1673.91715424512
 10
1463.540572966218
 20
1673.916536298322
 10
1463.543245818408
 20
1673.9154605971
 10
1463.545714895552
 20
1673.91394555035
 10
1463.547902972557
 20
1673.91204686323
 10
1463.549715520368
 20
1673.909864643364
  0
LWPOLYLINE
  5
1A29
330
1F
100
AcDbEntity
  8
SANINDUSA
100
AcDbPolyline
 90
       14
 70
   128
 43
0.0
 10
1463.489871871742
 20
1673.905376480456
 10
1463.488175170713
 20
1673.903129941547
 10
1463.486129382222
 20
1673.901195982336
 10
1463.483784700414
 20
1673.89963506625
 10
1463.48121116336
 20
1673.898490504802
 10
1463.47850083632
 20
1673.897808724224
 10
1463.475714361663
 20
1673.897595050025
 10
1463.472972337761
 20
1673.897856804974
 10
1463.470312353398
 20
1673.898572433713
 10
1463.467814493428
 20
1673.899723514556
 10
1463.465539922832
 20
1673.901269928071
 10
1463.463529046295
 20
1673.903198200054
 10
1463.461862501314
 20
1673.905430874951
 10
1463.461450548259
 20
1673.906127950132
  0
LWPOLYLINE
  5
1A2A
330
1F
100
AcDbEntity
  8
SANINDUSA
100
AcDbPolyline
 90
       12
 70
   128
 43
0.0
 10
1463.461986597998
 20
1673.912497321614
 10
1463.464020550312
 20
1673.914643852117
 10
1463.466381944005
 20
1673.916423648323
 10
1463.469012660152
 20
1673.917778710271
 10
1463.471834070587
 20
1673.918670408547
 10
1463.474732632663
 20
1673.919059616705
 10
1463.477655195978
 20
1673.918953004414
 10
1463.480474315899
 20
1673.918358994045
 10
1463.483156216015
 20
1673.917306046531
 10
1463.485638083301
 20
1673.915812037607
 10
1463.487842221902
 20
1673.913932014131
 10
1463.489673255173
 20
1673.911765276771
  0
LWPOLYLINE
  5
1A2E
330
1F
100
AcDbEntity
  8
SANINDUSA
100
AcDbPolyline
 90
        5
 70
   128
 43
0.0
 10
1463.461450548259
 20
1673.906127950132
 10
1463.460800368548
 20
1673.907933957482
 10
1463.460790563446
 20
1673.909856105316
 10
1463.461407503143
 20
1673.911628209209
 10
1463.461986597998
 20
1673.912497321614
  0
LWPOLYLINE
  5
1A32
330
1F
100
AcDbEntity
  8
SANINDUSA
100
AcDbPolyline
 90
        5
 70
   128
 43
0.0
 10
1463.429617001683
 20
1673.913155580942
 10
1463.430484098635
 20
1673.911439142502
 10
1463.430731749644
 20
1673.909528929229
 10
1463.430334749883
 20
1673.907690269609
 10
1463.429869921889
 20
1673.906768703322
  0
LWPOLYLINE
  5
1A3C
330
1F
100
AcDbEntity
  8
SANINDUSA
100
AcDbPolyline
 90
        5
 70
   128
 43
0.0
 10
1463.521445910326
 20
1673.904467366988
 10
1463.520811106872
 20
1673.90627883456
 10
1463.520817642199
 20
1673.908200996288
 10
1463.52144962417
 20
1673.909967793194
 10
1463.522036086384
 20
1673.91083195285
  0
LWPOLYLINE
  5
1A3E
330
1F
100
AcDbEntity
  8
SANINDUSA
100
AcDbPolyline
 90
        5
 70
   128
 43
0.0
 10
1463.489673255173
 20
1673.911765276771
 10
1463.490525729452
 20
1673.910041531435
 10
1463.490757132896
 20
1673.908129282537
 10
1463.49034451713
 20
1673.90629406318
 10
1463.489871871742
 20
1673.905376480456
  0
LWPOLYLINE
  5
1A45
330
1F
100
AcDbEntity
  8
SANINDUSA
100
AcDbPolyline
 90
       14
 70
   128
 43
0.0
 10
1463.609829429667
 20
1673.901062569119
 10
1463.60809477976
 20
1673.898845192107
 10
1463.606016407084
 20
1673.896946282754
 10
1463.603645526487
 20
1673.895425442647
 10
1463.601052902271
 20
1673.894324786666
 10
1463.5983313757
 20
1673.893689169583
 10
1463.595541670921
 20
1673.893522885458
 10
1463.592804493378
 20
1673.893831206297
 10
1463.590157059954
 20
1673.894591940993
 10
1463.58767913074
 20
1673.895785309395
 10
1463.585431179797
 20
1673.897370158299
 10
1463.583453376896
 20
1673.899332328726
 10
1463.581825031037
 20
1673.901593005792
 10
1463.581424988672
 20
1673.902296981849
  0
LWPOLYLINE
  5
1A46
330
1F
100
AcDbEntity
  8
SANINDUSA
100
AcDbPolyline
 90
       12
 70
   128
 43
0.0
 10
1463.582069248411
 20
1673.908656322278
 10
1463.584139400604
 20
1673.910767973377
 10
1463.586530711913
 20
1673.912507377942
 10
1463.589184085736
 20
1673.913817532187
 10
1463.592020248521
 20
1673.914661148653
 10
1463.594925008826
 20
1673.915001036325
 10
1463.597845337319
 20
1673.914844767264
 10
1463.600653950976
 20
1673.914202928679
 10
1463.603317562137
 20
1673.913104551465
 10
1463.605773670761
 20
1673.911568576344
 10
1463.60794552809
 20
1673.90965136275
 10
1463.609739459495
 20
1673.907453818035
  0
LWPOLYLINE
  5
1A4B
330
1F
100
AcDbEntity
  8
SANINDUSA
100
AcDbPolyline
 90
        5
 70
   128
 43
0.0
 10
1463.581424988672
 20
1673.902296981849
 10
1463.580805607337
 20
1673.904113778772
 10
1463.580828482621
 20
1673.906035815527
 10
1463.581475461207
 20
1673.907797177803
 10
1463.582069248411
 20
1673.908656322278
  0
LWPOLYLINE
  5
1A52
330
1F
100
AcDbEntity
  8
SANINDUSA
100
AcDbPolyline
 90
        5
 70
   128
 43
0.0
 10
1463.549715520368
 20
1673.909864643364
 10
1463.550553310389
 20
1673.908133715665
 10
1463.550768449549
 20
1673.906219569293
 10
1463.550340247588
 20
1673.904387922785
 10
1463.549859818951
 20
1673.903474389916
  0
LWPOLYLINE
  5
1A5B
330
1F
100
AcDbEntity
  8
SANINDUSA
100
AcDbPolyline
 90
        5
 70
   128
 43
0.0
 10
1463.641383450086
 20
1673.899616951516
 10
1463.640779535617
 20
1673.901438946534
 10
1463.640818749205
 20
1673.903360719458
 10
1463.641480677666
 20
1673.905116519854
 10
1463.642081746962
 20
1673.905970587079
  0
LWPOLYLINE
  5
1A5E
330
1F
100
AcDbEntity
  8
SANINDUSA
100
AcDbPolyline
 90
        5
 70
   128
 43
0.0
 10
1463.609739459495
 20
1673.907453818035
 10
1463.610562504729
 20
1673.905715833023
 10
1463.610761364063
 20
1673.903799927466
 10
1463.610317606842
 20
1673.901971986135
 10
1463.609829429667
 20
1673.901062569119
  0
LWPOLYLINE
  5
1A5F
330
1F
100
AcDbEntity
  8
SANINDUSA
100
AcDbPolyline
 90
       14
 70
   128
 43
0.0
 10
1463.66977637136
 20
1673.898141192308
 10
1463.668022934312
 20
1673.895938637067
 10
1463.665928494187
 20
1673.894057459059
 10
1463.663544770653
 20
1673.892556822478
 10
1463.660942883473
 20
1673.891478239301
 10
1463.658216051865
 20
1673.890865773682
 10
1463.655425034285
 20
1673.890723203469
 10
1463.652690576634
 20
1673.891054774681
 10
1463.650049705807
 20
1673.891837980731
 10
1463.647582010863
 20
1673.893052364351
 10
1463.645347613837
 20
1673.894656259895
 10
1463.643386562684
 20
1673.896635167517
 10
1463.641777493538
 20
1673.898909601186
 10
1463.641383450086
 20
1673.899616951516
  0
LWPOLYLINE
  5
1A60
330
1F
100
AcDbEntity
  8
SANINDUSA
100
AcDbPolyline
 90
       12
 70
   128
 43
0.0
 10
1463.642081746962
 20
1673.905970587079
 10
1463.644169775407
 20
1673.908064569008
 10
1463.646575786919
 20
1673.909783588525
 10
1463.649240202446
 20
1673.911071146127
 10
1463.652083434318
 20
1673.911890629396
 10
1463.654990979062
 20
1673.912205819102
 10
1463.657909873631
 20
1673.912024737692
 10
1463.660712929597
 20
1673.911359053693
 10
1463.663367107296
 20
1673.910238079837
 10
1463.665810069958
 20
1673.908681287313
 10
1463.667965550705
 20
1673.906745685756
 10
1463.669740736099
 20
1673.904532974954
  0
LWPOLYLINE
  5
1A68
330
1F
100
AcDbEntity
  8
SANINDUSA
100
AcDbPolyline
 90
       15
 70
   128
 43
0.0
 10
1463.893607980205
 20
1674.021771008588
 10
1463.893634377112
 20
1674.021801226383
 10
1463.893719798328
 20
1674.021899014312
 10
1463.893976384474
 20
1674.02219276754
 10
1463.894822506624
 20
1674.023161667877
 10
1463.897642502746
 20
1674.02639327059
 10
1463.901661051756
 20
1674.03100499113
 10
1463.905605860329
 20
1674.035540408816
 10
1463.909405553652
 20
1674.039918190273
 10
1463.913449712525
 20
1674.04459035556
 10
1463.917157232601
 20
1674.048889845364
 10
1463.920094274068
 20
1674.052313264452
 10
1463.922573686874
 20
1674.055224410693
 10
1463.924495313831
 20
1674.057509476215
 10
1463.925746060247
 20
1674.0590374114
  0
LWPOLYLINE
  5
1A69
330
1F
100
AcDbEntity
  8
SANINDUSA
100
AcDbPolyline
 90
       15
 70
   128
 43
0.0
 10
1463.932911811159
 20
1674.051216651167
 10
1463.931383496817
 20
1674.04999253949
 10
1463.929035024369
 20
1674.048174215923
 10
1463.926004224648
 20
1674.045865242257
 10
1463.922413284947
 20
1674.043155207496
 10
1463.917880366588
 20
1674.039757254206
 10
1463.912934788602
 20
1674.036068894133
 10
1463.90828698283
 20
1674.032615752748
 10
1463.903460707095
 20
1674.029040753271
 10
1463.89854324352
 20
1674.025407922513
 10
1463.895092128155
 20
1674.022863784277
 10
1463.894058009649
 20
1674.022102280665
 10
1463.893744557915
 20
1674.021871537371
 10
1463.893640295489
 20
1674.021794793826
 10
1463.893607980205
 20
1674.021771008588
  0
LINE
  5
1A6C
330
1F
100
AcDbEntity
  8
SANINDUSA
100
AcDbLine
 10
1463.895043232787
 20
1673.55544665456
 30
0.0
 11
1463.893607980205
 21
1674.021771008588
 31
0.0
  0
LWPOLYLINE
  5
1A73
330
1F
100
AcDbEntity
  8
SANINDUSA
100
AcDbPolyline
 90
        5
 70
   128
 43
0.0
 10
1463.729715015368
 20
1673.641141924397
 10
1463.730508393716
 20
1673.639390201944
 10
1463.730674651475
 20
1673.63747119338
 10
1463.730199881034
 20
1673.635651058306
 10
1463.729696313143
 20
1673.634750069798
  0
LWPOLYLINE
  5
1A77
330
1F
100
AcDbEntity
  8
SANINDUSA
100
AcDbPolyline
 90
        5
 70
   128
 43
0.0
 10
1463.701316962847
 20
1673.636467068867
 10
1463.700728558874
 20
1673.63829413035
 10
1463.700784107933
 20
1673.640215500603
 10
1463.701460938447
 20
1673.641965612271
 10
1463.70206924641
 20
1673.642814540544
  0
LWPOLYLINE
  5
1A79
330
1F
100
AcDbEntity
  8
SANINDUSA
100
AcDbPolyline
 90
       14
 70
   128
 43
0.0
 10
1463.729696313143
 20
1673.634750069798
 10
1463.727924215631
 20
1673.632562495453
 10
1463.72581385937
 20
1673.630699184698
 10
1463.723417465113
 20
1673.629218860056
 10
1463.720806502942
 20
1673.628162427604
 10
1463.718074563298
 20
1673.627573157697
 10
1463.715282434555
 20
1673.627454311696
 10
1463.71255089435
 20
1673.627809109328
 10
1463.70991677691
 20
1673.628614730148
 10
1463.707459494515
 20
1673.629850041253
 10
1463.705238812831
 20
1673.631472867562
 10
1463.703294655103
 20
1673.633468369413
 10
1463.701704978918
 20
1673.635756395366
 10
1463.701316962847
 20
1673.636467068867
  0
LWPOLYLINE
  5
1A7C
330
1F
100
AcDbEntity
  8
SANINDUSA
100
AcDbPolyline
 90
       12
 70
   128
 43
0.0
 10
1463.70206924641
 20
1673.642814540544
 10
1463.704175000257
 20
1673.644890702022
 10
1463.706595538149
 20
1673.6465892123
 10
1463.709270802888
 20
1673.647854080239
 10
1463.712120898438
 20
1673.648649371108
 10
1463.715031017564
 20
1673.648939840077
 10
1463.717948267331
 20
1673.648733959401
 10
1463.7207455631
 20
1673.648044478079
 10
1463.723390115585
 20
1673.646900988566
 10
1463.725819755792
 20
1673.64532349111
 10
1463.727958704233
 20
1673.643369641428
 10
1463.729715015368
 20
1673.641141924397
  0
LWPOLYLINE
  5
1A81
330
1F
100
AcDbEntity
  8
SANINDUSA
100
AcDbPolyline
 90
        5
 70
   128
 43
0.0
 10
1463.789657964436
 20
1673.637201715694
 10
1463.790436422827
 20
1673.635443314106
 10
1463.790586361193
 20
1673.633522961944
 10
1463.790096135032
 20
1673.631706927387
 10
1463.789584926077
 20
1673.630810250925
  0
LWPOLYLINE
  5
1A88
330
1F
100
AcDbEntity
  8
SANINDUSA
100
AcDbPolyline
 90
       14
 70
   128
 43
0.0
 10
1463.789584926077
 20
1673.630810250925
 10
1463.787794296127
 20
1673.628637815516
 10
1463.785668176194
 20
1673.626792506629
 10
1463.783259284341
 20
1673.625332600874
 10
1463.780639435811
 20
1673.624298395471
 10
1463.777902585499
 20
1673.623732363847
 10
1463.775109547312
 20
1673.623637250645
 10
1463.772381121893
 20
1673.624015249063
 10
1463.769753948144
 20
1673.624843226451
 10
1463.767307255825
 20
1673.626099375796
 10
1463.765100449917
 20
1673.627741015629
 10
1463.76317332607
 20
1673.629752967542
 10
1463.761603157693
 20
1673.632054420481
 10
1463.761221197035
 20
1673.632768365809
  0
LWPOLYLINE
  5
1A8B
330
1F
100
AcDbEntity
  8
SANINDUSA
100
AcDbPolyline
 90
       12
 70
   128
 43
0.0
 10
1463.762027412936
 20
1673.639109215024
 10
1463.764150740054
 20
1673.64116740606
 10
1463.766585629454
 20
1673.642845284388
 10
1463.769271550129
 20
1673.644087371283
 10
1463.772128303451
 20
1673.644858412295
 10
1463.775040786716
 20
1673.645124139541
 10
1463.777956180924
 20
1673.644893474474
 10
1463.780747514404
 20
1673.644180245641
 10
1463.783382250618
 20
1673.643014323084
 10
1463.785798392839
 20
1673.641416234663
 10
1463.787920654445
 20
1673.639444278013
 10
1463.789657964436
 20
1673.637201715694
  0
LWPOLYLINE
  5
1A8D
330
1F
100
AcDbEntity
  8
SANINDUSA
100
AcDbPolyline
 90
        5
 70
   128
 43
0.0
 10
1463.761221197035
 20
1673.632768365809
 10
1463.760648346068
 20
1673.634600361761
 10
1463.760720226584
 20
1673.636521190532
 10
1463.761411910255
 20
1673.638265487035
 10
1463.762027412936
 20
1673.639109215024
  0
LWPOLYLINE
  5
1A8E
330
1F
100
AcDbEntity
  8
SANINDUSA
100
AcDbPolyline
 90
        5
 70
   128
 43
0.0
 10
1463.729715015368
 20
1673.836112224952
 10
1463.730508393716
 20
1673.834360502499
 10
1463.730674651475
 20
1673.832441493935
 10
1463.730199881034
 20
1673.830621358862
 10
1463.729696313143
 20
1673.829720370354
  0
LWPOLYLINE
  5
1A96
330
1F
100
AcDbEntity
  8
SANINDUSA
100
AcDbPolyline
 90
        5
 70
   128
 43
0.0
 10
1463.701316962847
 20
1673.831437369423
 10
1463.700728558874
 20
1673.833264430905
 10
1463.700784107933
 20
1673.835185801159
 10
1463.701460938447
 20
1673.836935912827
 10
1463.70206924641
 20
1673.8377848411
  0
LWPOLYLINE
  5
1A98
330
1F
100
AcDbEntity
  8
SANINDUSA
100
AcDbPolyline
 90
       14
 70
   128
 43
0.0
 10
1463.729696313143
 20
1673.829720370354
 10
1463.727924215631
 20
1673.827532796008
 10
1463.72581385937
 20
1673.825669485253
 10
1463.723417465113
 20
1673.824189160611
 10
1463.720806502942
 20
1673.82313272816
 10
1463.718074563298
 20
1673.822543458253
 10
1463.715282434555
 20
1673.822424612252
 10
1463.71255089435
 20
1673.822779409883
 10
1463.70991677691
 20
1673.823585030704
 10
1463.707459494515
 20
1673.824820341809
 10
1463.705238812831
 20
1673.826443168118
 10
1463.703294655103
 20
1673.828438669969
 10
1463.701704978918
 20
1673.830726695922
 10
1463.701316962847
 20
1673.831437369423
  0
LWPOLYLINE
  5
1A99
330
1F
100
AcDbEntity
  8
SANINDUSA
100
AcDbPolyline
 90
       12
 70
   128
 43
0.0
 10
1463.70206924641
 20
1673.8377848411
 10
1463.704175000257
 20
1673.839861002578
 10
1463.706595538149
 20
1673.841559512855
 10
1463.709270802888
 20
1673.842824380794
 10
1463.712120898438
 20
1673.843619671663
 10
1463.715031017564
 20
1673.843910140632
 10
1463.717948267331
 20
1673.843704259956
 10
1463.7207455631
 20
1673.843014778634
 10
1463.723390115585
 20
1673.841871289122
 10
1463.725819755792
 20
1673.840293791666
 10
1463.727958704233
 20
1673.838339941984
 10
1463.729715015368
 20
1673.836112224952
  0
LWPOLYLINE
  5
1AA2
330
1F
100
AcDbEntity
  8
SANINDUSA
100
AcDbPolyline
 90
        5
 70
   128
 43
0.0
 10
1463.729715015368
 20
1673.771122124767
 10
1463.730508393716
 20
1673.769370402314
 10
1463.730674651475
 20
1673.76745139375
 10
1463.730199881034
 20
1673.765631258677
 10
1463.729696313143
 20
1673.764730270168
  0
LWPOLYLINE
  5
1AA6
330
1F
100
AcDbEntity
  8
SANINDUSA
100
AcDbPolyline
 90
        5
 70
   128
 43
0.0
 10
1463.701316962847
 20
1673.766447269237
 10
1463.700728558874
 20
1673.76827433072
 10
1463.700784107933
 20
1673.770195700973
 10
1463.701460938447
 20
1673.771945812642
 10
1463.70206924641
 20
1673.772794740914
  0
LWPOLYLINE
  5
1AA8
330
1F
100
AcDbEntity
  8
SANINDUSA
100
AcDbPolyline
 90
       14
 70
   128
 43
0.0
 10
1463.729696313143
 20
1673.764730270168
 10
1463.727924215631
 20
1673.762542695823
 10
1463.72581385937
 20
1673.760679385068
 10
1463.723417465113
 20
1673.759199060426
 10
1463.720806502942
 20
1673.758142627975
 10
1463.718074563298
 20
1673.757553358067
 10
1463.715282434555
 20
1673.757434512067
 10
1463.71255089435
 20
1673.757789309698
 10
1463.70991677691
 20
1673.758594930518
 10
1463.707459494515
 20
1673.759830241624
 10
1463.705238812831
 20
1673.761453067933
 10
1463.703294655103
 20
1673.763448569784
 10
1463.701704978918
 20
1673.765736595736
 10
1463.701316962847
 20
1673.766447269237
  0
LWPOLYLINE
  5
1AA9
330
1F
100
AcDbEntity
  8
SANINDUSA
100
AcDbPolyline
 90
       12
 70
   128
 43
0.0
 10
1463.70206924641
 20
1673.772794740914
 10
1463.704175000257
 20
1673.774870902393
 10
1463.706595538149
 20
1673.77656941267
 10
1463.709270802888
 20
1673.777834280609
 10
1463.712120898438
 20
1673.778629571478
 10
1463.715031017564
 20
1673.778920040447
 10
1463.717948267331
 20
1673.778714159771
 10
1463.7207455631
 20
1673.778024678449
 10
1463.723390115585
 20
1673.776881188937
 10
1463.725819755792
 20
1673.775303691481
 10
1463.727958704233
 20
1673.773349841799
 10
1463.729715015368
 20
1673.771122124767
  0
LWPOLYLINE
  5
1AB2
330
1F
100
AcDbEntity
  8
SANINDUSA
100
AcDbPolyline
 90
        5
 70
   128
 43
0.0
 10
1463.729715015368
 20
1673.706132024582
 10
1463.730508393716
 20
1673.704380302129
 10
1463.730674651475
 20
1673.702461293565
 10
1463.730199881034
 20
1673.700641158491
 10
1463.729696313143
 20
1673.699740169983
  0
LWPOLYLINE
  5
1AB6
330
1F
100
AcDbEntity
  8
SANINDUSA
100
AcDbPolyline
 90
        5
 70
   128
 43
0.0
 10
1463.701316962847
 20
1673.701457169052
 10
1463.700728558874
 20
1673.703284230535
 10
1463.700784107933
 20
1673.705205600788
 10
1463.701460938447
 20
1673.706955712457
 10
1463.70206924641
 20
1673.707804640729
  0
LWPOLYLINE
  5
1AB8
330
1F
100
AcDbEntity
  8
SANINDUSA
100
AcDbPolyline
 90
       14
 70
   128
 43
0.0
 10
1463.729696313143
 20
1673.699740169983
 10
1463.727924215631
 20
1673.697552595638
 10
1463.72581385937
 20
1673.695689284883
 10
1463.723417465113
 20
1673.694208960241
 10
1463.720806502942
 20
1673.69315252779
 10
1463.718074563298
 20
1673.692563257882
 10
1463.715282434555
 20
1673.692444411882
 10
1463.71255089435
 20
1673.692799209513
 10
1463.70991677691
 20
1673.693604830333
 10
1463.707459494515
 20
1673.694840141438
 10
1463.705238812831
 20
1673.696462967748
 10
1463.703294655103
 20
1673.698458469598
 10
1463.701704978918
 20
1673.700746495551
 10
1463.701316962847
 20
1673.701457169052
  0
LWPOLYLINE
  5
1AB9
330
1F
100
AcDbEntity
  8
SANINDUSA
100
AcDbPolyline
 90
       12
 70
   128
 43
0.0
 10
1463.70206924641
 20
1673.707804640729
 10
1463.704175000257
 20
1673.709880802208
 10
1463.706595538149
 20
1673.711579312485
 10
1463.709270802888
 20
1673.712844180424
 10
1463.712120898438
 20
1673.713639471293
 10
1463.715031017564
 20
1673.713929940262
 10
1463.717948267331
 20
1673.713724059586
 10
1463.7207455631
 20
1673.713034578264
 10
1463.723390115585
 20
1673.711891088752
 10
1463.725819755792
 20
1673.710313591296
 10
1463.727958704233
 20
1673.708359741614
 10
1463.729715015368
 20
1673.706132024582
  0
LWPOLYLINE
  5
1AC0
330
1F
100
AcDbEntity
  8
SANINDUSA
100
AcDbPolyline
 90
        5
 70
   128
 43
0.0
 10
1463.789657964436
 20
1673.832172016249
 10
1463.790436422827
 20
1673.830413614662
 10
1463.790586361193
 20
1673.828493262499
 10
1463.790096135032
 20
1673.826677227943
 10
1463.789584926077
 20
1673.82578055148
  0
LWPOLYLINE
  5
1AC7
330
1F
100
AcDbEntity
  8
SANINDUSA
100
AcDbPolyline
 90
       12
 70
   128
 43
0.0
 10
1463.762027412936
 20
1673.83407951558
 10
1463.764150740054
 20
1673.836137706615
 10
1463.766585629454
 20
1673.837815584943
 10
1463.769271550129
 20
1673.839057671838
 10
1463.772128303451
 20
1673.839828712851
 10
1463.775040786716
 20
1673.840094440097
 10
1463.777956180924
 20
1673.839863775029
 10
1463.780747514404
 20
1673.839150546196
 10
1463.783382250618
 20
1673.83798462364
 10
1463.785798392839
 20
1673.836386535219
 10
1463.787920654445
 20
1673.834414578569
 10
1463.789657964436
 20
1673.832172016249
  0
LWPOLYLINE
  5
1ACC
330
1F
100
AcDbEntity
  8
SANINDUSA
100
AcDbPolyline
 90
       14
 70
   128
 43
0.0
 10
1463.789584926077
 20
1673.82578055148
 10
1463.787794296127
 20
1673.823608116072
 10
1463.785668176194
 20
1673.821762807185
 10
1463.783259284341
 20
1673.820302901429
 10
1463.780639435811
 20
1673.819268696027
 10
1463.777902585499
 20
1673.818702664403
 10
1463.775109547312
 20
1673.818607551201
 10
1463.772381121893
 20
1673.818985549619
 10
1463.769753948144
 20
1673.819813527007
 10
1463.767307255825
 20
1673.821069676351
 10
1463.765100449917
 20
1673.822711316184
 10
1463.76317332607
 20
1673.824723268098
 10
1463.761603157693
 20
1673.827024721036
 10
1463.761221197035
 20
1673.827738666364
  0
LWPOLYLINE
  5
1ACD
330
1F
100
AcDbEntity
  8
SANINDUSA
100
AcDbPolyline
 90
        5
 70
   128
 43
0.0
 10
1463.761221197035
 20
1673.827738666364
 10
1463.760648346068
 20
1673.829570662316
 10
1463.760720226584
 20
1673.831491491088
 10
1463.761411910255
 20
1673.833235787591
 10
1463.762027412936
 20
1673.83407951558
  0
LWPOLYLINE
  5
1AD0
330
1F
100
AcDbEntity
  8
SANINDUSA
100
AcDbPolyline
 90
        5
 70
   128
 43
0.0
 10
1463.789657964436
 20
1673.767181916064
 10
1463.790436422827
 20
1673.765423514477
 10
1463.790586361193
 20
1673.763503162314
 10
1463.790096135032
 20
1673.761687127758
 10
1463.789584926077
 20
1673.760790451295
  0
LWPOLYLINE
  5
1AD7
330
1F
100
AcDbEntity
  8
SANINDUSA
100
AcDbPolyline
 90
       12
 70
   128
 43
0.0
 10
1463.762027412936
 20
1673.769089415395
 10
1463.764150740054
 20
1673.77114760643
 10
1463.766585629454
 20
1673.772825484758
 10
1463.769271550129
 20
1673.774067571653
 10
1463.772128303451
 20
1673.774838612666
 10
1463.775040786716
 20
1673.775104339912
 10
1463.777956180924
 20
1673.774873674844
 10
1463.780747514404
 20
1673.774160446011
 10
1463.783382250618
 20
1673.772994523455
 10
1463.785798392839
 20
1673.771396435033
 10
1463.787920654445
 20
1673.769424478384
 10
1463.789657964436
 20
1673.767181916064
  0
LWPOLYLINE
  5
1ADC
330
1F
100
AcDbEntity
  8
SANINDUSA
100
AcDbPolyline
 90
       14
 70
   128
 43
0.0
 10
1463.789584926077
 20
1673.760790451295
 10
1463.787794296127
 20
1673.758618015887
 10
1463.785668176194
 20
1673.756772707
 10
1463.783259284341
 20
1673.755312801244
 10
1463.780639435811
 20
1673.754278595842
 10
1463.777902585499
 20
1673.753712564218
 10
1463.775109547312
 20
1673.753617451016
 10
1463.772381121893
 20
1673.753995449433
 10
1463.769753948144
 20
1673.754823426822
 10
1463.767307255825
 20
1673.756079576166
 10
1463.765100449917
 20
1673.757721215999
 10
1463.76317332607
 20
1673.759733167913
 10
1463.761603157693
 20
1673.762034620851
 10
1463.761221197035
 20
1673.762748566179
  0
LWPOLYLINE
  5
1AEC
330
1F
100
AcDbEntity
  8
SANINDUSA
100
AcDbPolyline
 90
        5
 70
   128
 43
0.0
 10
1463.761221197035
 20
1673.762748566179
 10
1463.760648346068
 20
1673.764580562131
 10
1463.760720226584
 20
1673.766501390903
 10
1463.761411910255
 20
1673.768245687406
 10
1463.762027412936
 20
1673.769089415395
  0
LWPOLYLINE
  5
1AED
330
1F
100
AcDbEntity
  8
SANINDUSA
100
AcDbPolyline
 90
        5
 70
   128
 43
0.0
 10
1463.729715015368
 20
1673.901102325137
 10
1463.730508393716
 20
1673.899350602685
 10
1463.730674651475
 20
1673.89743159412
 10
1463.730199881034
 20
1673.895611459047
 10
1463.729696313143
 20
1673.894710470539
  0
LWPOLYLINE
  5
1AF5
330
1F
100
AcDbEntity
  8
SANINDUSA
100
AcDbPolyline
 90
        5
 70
   128
 43
0.0
 10
1463.701316962847
 20
1673.896427469608
 10
1463.700728558874
 20
1673.898254531091
 10
1463.700784107933
 20
1673.900175901344
 10
1463.701460938447
 20
1673.901926013012
 10
1463.70206924641
 20
1673.902774941285
  0
LWPOLYLINE
  5
1AF7
330
1F
100
AcDbEntity
  8
SANINDUSA
100
AcDbPolyline
 90
       14
 70
   128
 43
0.0
 10
1463.729696313143
 20
1673.894710470539
 10
1463.727924215631
 20
1673.892522896193
 10
1463.72581385937
 20
1673.890659585438
 10
1463.723417465113
 20
1673.889179260796
 10
1463.720806502942
 20
1673.888122828345
 10
1463.718074563298
 20
1673.887533558438
 10
1463.715282434555
 20
1673.887414712437
 10
1463.71255089435
 20
1673.887769510068
 10
1463.70991677691
 20
1673.888575130889
 10
1463.707459494515
 20
1673.889810441994
 10
1463.705238812831
 20
1673.891433268303
 10
1463.703294655103
 20
1673.893428770154
 10
1463.701704978918
 20
1673.895716796107
 10
1463.701316962847
 20
1673.896427469608
  0
LWPOLYLINE
  5
1AF8
330
1F
100
AcDbEntity
  8
SANINDUSA
100
AcDbPolyline
 90
       12
 70
   128
 43
0.0
 10
1463.70206924641
 20
1673.902774941285
 10
1463.704175000257
 20
1673.904851102763
 10
1463.706595538149
 20
1673.906549613041
 10
1463.709270802888
 20
1673.907814480979
 10
1463.712120898438
 20
1673.908609771848
 10
1463.715031017564
 20
1673.908900240817
 10
1463.717948267331
 20
1673.908694360141
 10
1463.7207455631
 20
1673.908004878819
 10
1463.723390115585
 20
1673.906861389307
 10
1463.725819755792
 20
1673.905283891851
 10
1463.727958704233
 20
1673.903330042169
 10
1463.729715015368
 20
1673.901102325137
  0
LWPOLYLINE
  5
1AFF
330
1F
100
AcDbEntity
  8
SANINDUSA
100
AcDbPolyline
 90
        5
 70
   128
 43
0.0
 10
1463.789657964436
 20
1673.897162116435
 10
1463.790436422827
 20
1673.895403714847
 10
1463.790586361193
 20
1673.893483362684
 10
1463.790096135032
 20
1673.891667328128
 10
1463.789584926077
 20
1673.890770651665
  0
LWPOLYLINE
  5
1B06
330
1F
100
AcDbEntity
  8
SANINDUSA
100
AcDbPolyline
 90
       12
 70
   128
 43
0.0
 10
1463.762027412936
 20
1673.899069615765
 10
1463.764150740054
 20
1673.9011278068
 10
1463.766585629454
 20
1673.902805685128
 10
1463.769271550129
 20
1673.904047772023
 10
1463.772128303451
 20
1673.904818813036
 10
1463.775040786716
 20
1673.905084540282
 10
1463.777956180924
 20
1673.904853875214
 10
1463.780747514404
 20
1673.904140646381
 10
1463.783382250618
 20
1673.902974723825
 10
1463.785798392839
 20
1673.901376635404
 10
1463.787920654445
 20
1673.899404678754
 10
1463.789657964436
 20
1673.897162116435
  0
LWPOLYLINE
  5
1B0B
330
1F
100
AcDbEntity
  8
SANINDUSA
100
AcDbPolyline
 90
       14
 70
   128
 43
0.0
 10
1463.789584926077
 20
1673.890770651665
 10
1463.787794296127
 20
1673.888598216257
 10
1463.785668176194
 20
1673.88675290737
 10
1463.783259284341
 20
1673.885293001614
 10
1463.780639435811
 20
1673.884258796212
 10
1463.777902585499
 20
1673.883692764588
 10
1463.775109547312
 20
1673.883597651386
 10
1463.772381121893
 20
1673.883975649804
 10
1463.769753948144
 20
1673.884803627192
 10
1463.767307255825
 20
1673.886059776537
 10
1463.765100449917
 20
1673.887701416369
 10
1463.76317332607
 20
1673.889713368283
 10
1463.761603157693
 20
1673.892014821222
 10
1463.761221197035
 20
1673.892728766549
  0
LWPOLYLINE
  5
1B0C
330
1F
100
AcDbEntity
  8
SANINDUSA
100
AcDbPolyline
 90
        5
 70
   128
 43
0.0
 10
1463.761221197035
 20
1673.892728766549
 10
1463.760648346068
 20
1673.894560762501
 10
1463.760720226584
 20
1673.896481591273
 10
1463.761411910255
 20
1673.898225887776
 10
1463.762027412936
 20
1673.899069615765
  0
LINE
  5
1B0D
330
1F
100
AcDbEntity
  8
SANINDUSA
100
AcDbLine
 10
1463.925746060247
 20
1674.0590374114
 30
0.0
 11
1463.925844540852
 21
1674.059155457479
 31
0.0
  0
LWPOLYLINE
  5
1B0E
330
1F
100
AcDbEntity
  8
SANINDUSA
100
AcDbPolyline
 90
        3
 70
   128
 43
0.0
 10
1463.925844540852
 20
1674.059155457478
 10
1463.928591406979
 20
1674.061660120726
 10
1463.931708103943
 20
1674.064500906988
  0
LINE
  5
1B0F
330
1F
100
AcDbEntity
  8
SANINDUSA
100
AcDbLine
 10
1463.93300811856
 20
1674.051309496462
 30
0.0
 11
1463.932911811159
 21
1674.051216651167
 31
0.0
  0
LWPOLYLINE
  5
1B11
330
1F
100
AcDbEntity
  8
SANINDUSA
100
AcDbPolyline
 90
        9
 70
   128
 43
0.0
 10
1463.931708103943
 20
1674.064500906988
 10
1463.933112574912
 20
1674.064202568614
 10
1463.934447259416
 20
1674.063656426233
 10
1463.935668333798
 20
1674.062880412142
 10
1463.93673570473
 20
1674.061900006348
 10
1463.937614325657
 20
1674.060747399956
 10
1463.938275347526
 20
1674.059460438183
 10
1463.938697066037
 20
1674.058081377734
 10
1463.938865634286
 20
1674.056655499326
  0
LINE
  5
1B12
330
1F
100
AcDbEntity
  8
SANINDUSA
100
AcDbLine
 10
1463.938865634286
 20
1674.056655499326
 30
0.0
 11
1463.93300811856
 21
1674.051309496462
 31
0.0
  0
ARC
  5
1B1B
330
1F
100
AcDbEntity
  8
SANINDUSA
100
AcDbCircle
 10
1463.986051256114
 20
1674.140831082234
 30
0.0
 40
0.0120946077913862
100
AcDbArc
 50
0.0
 51
90.0
  0
LINE
  5
1B28
330
1F
100
AcDbEntity
  8
SANINDUSA
100
AcDbLine
 10
1466.617976645432
 20
1673.793190064236
 30
0.0
 11
1465.935790781067
 21
1673.793190064236
 31
0.0
  0
LINE
  5
1B2A
330
1F
100
AcDbEntity
  8
SANINDUSA
100
AcDbLine
 10
1466.556372809794
 20
1673.913190064235
 30
0.0
 11
1466.002328108389
 21
1673.913190064235
 31
0.0
  0
LINE
  5
1B2F
330
1F
100
AcDbEntity
  8
SANINDUSA
100
AcDbLine
 10
1466.628872067487
 20
1673.908277326267
 30
0.0
 11
1466.628872067487
 21
1673.793190064236
 31
0.0
  0
LINE
  5
1B32
330
1F
100
AcDbEntity
  8
SANINDUSA
100
AcDbLine
 10
1466.628872067487
 20
1673.793190064236
 30
0.0
 11
1466.617976645432
 21
1673.793190064236
 31
0.0
  0
ARC
  5
1B33
330
1F
100
AcDbEntity
  8
SANINDUSA
100
AcDbCircle
 10
1466.623872829011
 20
1673.908190064236
 30
0.0
 40
0.005
100
AcDbArc
 50
1.000000000001755
 51
90.0
  0
LINE
  5
1B35
330
1F
100
AcDbEntity
  8
SANINDUSA
100
AcDbLine
 10
1466.556372809794
 20
1673.913190064235
 30
0.0
 11
1466.623872829011
 21
1673.913190064235
 31
0.0
  0
LINE
  5
1BF0
330
1F
100
AcDbEntity
  8
SANINDUSA
100
AcDbLine
 10
1465.928700563166
 20
1673.908277326267
 30
0.0
 11
1465.926691707535
 21
1673.793190064236
 31
0.0
  0
LINE
  5
1C2F
330
1F
100
AcDbEntity
  8
SANINDUSA
100
AcDbLine
 10
1465.926691707535
 20
1673.793190064236
 30
0.0
 11
1465.937693383144
 21
1673.793190064236
 31
0.0
  0
ARC
  5
1C33
330
1F
100
AcDbEntity
  8
SANINDUSA
100
AcDbCircle
 10
1465.933699801642
 20
1673.908190064236
 30
0.0
 40
0.005
100
AcDbArc
 50
90.0
 51
178.9999999999982
  0
LINE
  5
1C45
330
1F
100
AcDbEntity
  8
SANINDUSA
100
AcDbLine
 10
1465.933699801642
 20
1673.913190064235
 30
0.0
 11
1465.971199820859
 21
1673.913190064235
 31
0.0
  0
LINE
  5
1C46
330
1F
100
AcDbEntity
  8
SANINDUSA
100
AcDbLine
 10
1466.002328108389
 20
1673.913190064235
 30
0.0
 11
1465.971199820859
 21
1673.913190064235
 31
0.0
  0
LWPOLYLINE
  5
1E5F
330
1F
100
AcDbEntity
  8
SANINDUSA
100
AcDbPolyline
 90
       12
 70
   128
 43
0.0
 10
1463.762027412936
 20
1673.703294831561
 10
1463.764150740054
 20
1673.705353022596
 10
1463.766585629454
 20
1673.707030900924
 10
1463.769271550129
 20
1673.708272987819
 10
1463.772128303451
 20
1673.709044028831
 10
1463.775040786716
 20
1673.709309756078
 10
1463.777956180924
 20
1673.70907909101
 10
1463.780747514404
 20
1673.708365862177
 10
1463.783382250618
 20
1673.70719993962
 10
1463.785798392839
 20
1673.705601851199
 10
1463.787920654445
 20
1673.70362989455
 10
1463.789657964436
 20
1673.70138733223
  0
LWPOLYLINE
  5
1E60
330
1F
100
AcDbEntity
  8
SANINDUSA
100
AcDbPolyline
 90
       14
 70
   128
 43
0.0
 10
1463.789584926077
 20
1673.694995867461
 10
1463.787794296127
 20
1673.692823432053
 10
1463.785668176194
 20
1673.690978123166
 10
1463.783259284341
 20
1673.68951821741
 10
1463.780639435811
 20
1673.688484012008
 10
1463.777902585499
 20
1673.687917980383
 10
1463.775109547312
 20
1673.687822867182
 10
1463.772381121893
 20
1673.688200865599
 10
1463.769753948144
 20
1673.689028842987
 10
1463.767307255825
 20
1673.690284992332
 10
1463.765100449917
 20
1673.691926632165
 10
1463.76317332607
 20
1673.693938584079
 10
1463.761603157693
 20
1673.696240037017
 10
1463.761221197035
 20
1673.696953982345
  0
LWPOLYLINE
  5
1E61
330
1F
100
AcDbEntity
  8
SANINDUSA
100
AcDbPolyline
 90
        5
 70
   128
 43
0.0
 10
1463.761221197035
 20
1673.696953982345
 10
1463.760648346068
 20
1673.698785978297
 10
1463.760720226584
 20
1673.700706807069
 10
1463.761411910255
 20
1673.702451103572
 10
1463.762027412936
 20
1673.703294831561
  0
LWPOLYLINE
  5
1E62
330
1F
100
AcDbEntity
  8
SANINDUSA
100
AcDbPolyline
 90
        5
 70
   128
 43
0.0
 10
1463.789657964436
 20
1673.70138733223
 10
1463.790436422827
 20
1673.699628930642
 10
1463.790586361193
 20
1673.69770857848
 10
1463.790096135032
 20
1673.695892543923
 10
1463.789584926077
 20
1673.694995867461
  0
LINE
  5
1EC6
330
1F
100
AcDbEntity
  8
SANINDUSA
100
AcDbLine
 10
1467.543311711615
 20
1673.913190064235
 30
0.0
 11
1466.98926701021
 21
1673.913190064235
 31
0.0
  0
LWPOLYLINE
  5
1EC7
330
1F
100
AcDbEntity
  8
SANINDUSA
100
AcDbPolyline
 90
        8
 70
   128
 43
0.0
 10
1467.485527940342
 20
1673.831174303586
 10
1467.426327909692
 20
1673.830140963207
 10
1467.422178552656
 20
1673.830441570384
 10
1467.418403265473
 20
1673.831401666333
 10
1467.417815595377
 20
1673.831442739387
 10
1467.416937459515
 20
1673.831465373974
 10
1467.416512345798
 20
1673.83146597708
 10
1467.415953221914
 20
1673.83145977568
  0
LWPOLYLINE
  5
1EC8
330
1F
100
AcDbEntity
  8
SANINDUSA
100
AcDbPolyline
 90
        7
 70
   128
 43
0.0
 10
1467.421417214556
 20
1673.841985321006
 10
1467.420636313108
 20
1673.842190067129
 10
1467.41949239767
 20
1673.842352379091
 10
1467.418341036108
 20
1673.842432849299
 10
1467.417087003891
 20
1673.842465172887
 10
1467.41645914822
 20
1673.842466063621
 10
1467.415831225323
 20
1673.842459099151
  0
LINE
  5
1EC9
330
1F
100
AcDbEntity
  8
SANINDUSA
100
AcDbLine
 10
1467.604915547253
 20
1673.793190064236
 30
0.0
 11
1466.922729682887
 21
1673.793190064236
 31
0.0
  0
LINE
  5
1ECA
330
1F
100
AcDbEntity
  8
SANINDUSA
100
AcDbLine
 10
1467.033106257151
 20
1673.824277406058
 30
0.0
 11
1467.024423057641
 21
1673.832662674354
 31
0.0
  0
LINE
  5
1ECB
330
1F
100
AcDbEntity
  8
SANINDUSA
100
AcDbLine
 10
1467.033308993047
 20
1673.812662674355
 30
0.0
 11
1467.022307317439
 21
1673.812662674355
 31
0.0
  0
LWPOLYLINE
  5
1ECC
330
1F
100
AcDbEntity
  8
SANINDUSA
100
AcDbPolyline
 90
       15
 70
   128
 43
0.0
 10
1467.007518887981
 20
1673.866892466164
 10
1467.009046823166
 20
1673.860971096733
 10
1467.011331888687
 20
1673.855484449355
 10
1467.014243034929
 20
1673.85059652318
 10
1467.017666454016
 20
1673.846328032243
 10
1467.021965943821
 20
1673.842337645297
 10
1467.026638109108
 20
1673.83917154174
 10
1467.031015890565
 20
1673.837049944608
 10
1467.03555130825
 20
1673.835562679808
 10
1467.040163028791
 20
1673.834709568536
 10
1467.043394631504
 20
1673.834486283774
 10
1467.044363531841
 20
1673.834477980269
 10
1467.044657285069
 20
1673.834480788607
 10
1467.044755072998
 20
1673.83448227329
 10
1467.044785290793
 20
1673.834482787629
  0
LWPOLYLINE
  5
1ECD
330
1F
100
AcDbEntity
  8
SANINDUSA
100
AcDbPolyline
 90
       15
 70
   128
 43
0.0
 10
1467.044785290793
 20
1673.834482787629
 10
1467.044761505555
 20
1673.834482385571
 10
1467.04468476201
 20
1673.834481267153
 10
1467.044454018716
 20
1673.834479548762
 10
1467.043692515104
 20
1673.834491385248
 10
1467.041148376867
 20
1673.834726368091
 10
1467.03751554611
 20
1673.83559610687
 10
1467.033940546633
 20
1673.83709968802
 10
1467.030487405248
 20
1673.839237043442
 10
1467.026799045175
 20
1673.842419875795
 10
1467.023401091885
 20
1673.846425583924
 10
1467.020691057124
 20
1673.850707160172
 10
1467.018382083458
 20
1673.855606347325
 10
1467.016563759891
 20
1673.861101789857
 10
1467.015339648214
 20
1673.867028978041
  0
LINE
  5
1ECE
330
1F
100
AcDbEntity
  8
SANINDUSA
100
AcDbLine
 10
1467.104991824126
 20
1673.835533696578
 30
0.0
 11
1467.020862503757
 21
1673.834065213829
 31
0.0
  0
LINE
  5
1ECF
330
1F
100
AcDbEntity
  8
SANINDUSA
100
AcDbLine
 10
1466.926534887042
 20
1673.902190064235
 30
0.0
 11
1466.958138722679
 21
1673.902190064235
 31
0.0
  0
LINE
  5
1ED0
330
1F
100
AcDbEntity
  8
SANINDUSA
100
AcDbLine
 10
1466.920638703463
 20
1673.913190064235
 30
0.0
 11
1466.958138722679
 21
1673.913190064235
 31
0.0
  0
LINE
  5
1ED1
330
1F
100
AcDbEntity
  8
SANINDUSA
100
AcDbLine
 10
1466.926534887042
 20
1673.902190064235
 30
0.0
 11
1466.924632284964
 21
1673.793190064236
 31
0.0
  0
LINE
  5
1ED2
330
1F
100
AcDbEntity
  8
SANINDUSA
100
AcDbLine
 10
1466.915639464987
 20
1673.908277326267
 30
0.0
 11
1466.913630609356
 21
1673.793190064236
 31
0.0
  0
LINE
  5
1ED3
330
1F
100
AcDbEntity
  8
SANINDUSA
100
AcDbLine
 10
1466.913630609356
 20
1673.793190064236
 30
0.0
 11
1466.924632284964
 21
1673.793190064236
 31
0.0
  0
ARC
  5
1ED4
330
1F
100
AcDbEntity
  8
SANINDUSA
100
AcDbCircle
 10
1466.920638703463
 20
1673.908190064236
 30
0.0
 40
0.005
100
AcDbArc
 50
90.0
 51
178.9999999999982
  0
LINE
  5
1ED5
330
1F
100
AcDbEntity
  8
SANINDUSA
100
AcDbLine
 10
1466.98926701021
 20
1673.913190064235
 30
0.0
 11
1466.958138722679
 21
1673.913190064235
 31
0.0
  0
ARC
  5
1ED6
330
1F
100
AcDbEntity
  8
SANINDUSA
100
AcDbCircle
 10
1467.018248020836
 20
1673.874025670981
 30
0.0
 40
0.051
100
AcDbArc
 50
190.000000000006
 51
270.357590270401
  0
ARC
  5
1ED7
330
1F
100
AcDbEntity
  8
SANINDUSA
100
AcDbCircle
 10
1467.018248020836
 20
1673.874025670981
 30
0.0
 40
0.04
100
AcDbArc
 50
190.000000000006
 51
271.0000000000018
  0
LINE
  5
1ED8
330
1F
100
AcDbEntity
  8
SANINDUSA
100
AcDbLine
 10
1466.972910838975
 20
1673.9007947869
 30
0.0
 11
1466.978855710716
 21
1673.867079743875
 31
0.0
  0
ARC
  5
1ED9
330
1F
100
AcDbEntity
  8
SANINDUSA
100
AcDbCircle
 10
1466.958138722679
 20
1673.898190064235
 30
0.0
 40
0.015
100
AcDbArc
 50
10.00000000000596
 51
90.0
  0
ARC
  5
1EDA
330
1F
100
AcDbEntity
  8
SANINDUSA
100
AcDbCircle
 10
1466.958138722679
 20
1673.898190064235
 30
0.0
 40
0.004
100
AcDbArc
 50
10.00000000000596
 51
90.0
  0
LINE
  5
1EDB
330
1F
100
AcDbEntity
  8
SANINDUSA
100
AcDbLine
 10
1466.962077953692
 20
1673.898884656946
 30
0.0
 11
1466.968022825433
 21
1673.86516961392
 31
0.0
  0
LWPOLYLINE
  5
1EDC
330
1F
100
AcDbEntity
  8
SANINDUSA
100
AcDbPolyline
 90
       10
 70
   128
 43
0.0
 10
1467.009900800055
 20
1673.9007947869
 10
1467.009283801832
 20
1673.902616501798
 10
1467.008413378791
 20
1673.904278667111
 10
1467.006943242158
 20
1673.9062393556
 10
1467.005237474213
 20
1673.907894997531
 10
1467.002151895883
 20
1673.910016705774
 10
1466.998831592175
 20
1673.911533122909
 10
1466.99411163404
 20
1673.912784962492
 10
1466.989291836785
 20
1673.913190053674
 10
1466.98926701021
 20
1673.913190064235
  0
LWPOLYLINE
  5
1EDD
330
1F
100
AcDbEntity
  8
SANINDUSA
100
AcDbPolyline
 90
       10
 70
   128
 43
0.0
 10
1466.98926701021
 20
1673.913190064235
 10
1466.989282385742
 20
1673.913190053674
 10
1466.99226736164
 20
1673.912785108426
 10
1466.995191075927
 20
1673.911534005059
 10
1466.997250171668
 20
1673.910017062143
 10
1466.999164004049
 20
1673.907894302577
 10
1467.000221576001
 20
1673.906238662285
 10
1467.00113319338
 20
1673.904277857819
 10
1467.001672811963
 20
1673.902616136945
 10
1467.002055392393
 20
1673.9007947869
  0
LINE
  5
1EDE
330
1F
100
AcDbEntity
  8
SANINDUSA
100
AcDbLine
 10
1467.007400841903
 20
1673.867575164457
 30
0.0
 11
1467.007518887981
 21
1673.866892466164
 31
0.0
  0
LINE
  5
1EDF
330
1F
100
AcDbEntity
  8
SANINDUSA
100
AcDbLine
 10
1467.015339648214
 20
1673.867028978042
 30
0.0
 11
1467.01524680292
 21
1673.867575164457
 31
0.0
  0
ARC
  5
1EE0
330
1F
100
AcDbEntity
  8
SANINDUSA
100
AcDbCircle
 10
1467.020949765789
 20
1673.829065975353
 30
0.0
 40
0.0050000000000001
100
AcDbArc
 50
46.00000000000671
 51
91.00000000002784
  0
LINE
  5
1EE1
330
1F
100
AcDbEntity
  8
SANINDUSA
100
AcDbLine
 10
1467.018946117094
 20
1673.834031763175
 30
0.0
 11
1467.020862503757
 21
1673.834065213829
 31
0.0
  0
LINE
  5
1EE2
330
1F
100
AcDbEntity
  8
SANINDUSA
100
AcDbLine
 10
1467.022187451762
 20
1673.819529774356
 30
0.0
 11
1467.022307317439
 21
1673.812662674355
 31
0.0
  0
LINE
  5
1EE3
330
1F
100
AcDbEntity
  8
SANINDUSA
100
AcDbLine
 10
1467.022187451762
 20
1673.819529774356
 30
0.0
 11
1467.018566316277
 21
1673.823026664245
 31
0.0
  0
LINE
  5
1EE4
330
1F
100
AcDbEntity
  8
SANINDUSA
100
AcDbLine
 10
1467.01524680292
 20
1673.867575164457
 30
0.0
 11
1467.009900800055
 21
1673.9007947869
 31
0.0
  0
LWPOLYLINE
  5
1EE5
330
1F
100
AcDbEntity
  8
SANINDUSA
100
AcDbPolyline
 90
        3
 70
   128
 43
0.0
 10
1467.002055392393
 20
1673.9007947869
 10
1467.004559049684
 20
1673.885232451337
 10
1467.007400841902
 20
1673.867575164457
  0
LWPOLYLINE
  5
1EE6
330
1F
100
AcDbEntity
  8
SANINDUSA
100
AcDbPolyline
 90
       14
 70
   128
 43
0.0
 10
1467.286033147563
 20
1673.829191831625
 10
1467.285893655388
 20
1673.829188984232
 10
1467.285691213906
 20
1673.829184017083
 10
1467.285014011516
 20
1673.82915517185
 10
1467.283259134752
 20
1673.828912952927
 10
1467.279900490753
 20
1673.827940069517
 10
1467.275849216425
 20
1673.827514347846
 10
1467.231357609137
 20
1673.826737743952
 10
1467.227208252101
 20
1673.827038351129
 10
1467.223432964918
 20
1673.827998447078
 10
1467.222845294822
 20
1673.828039520132
 10
1467.22196715896
 20
1673.828062154719
 10
1467.221542045243
 20
1673.828062757825
 10
1467.220982921358
 20
1673.828056556424
  0
LWPOLYLINE
  5
1EE7
330
1F
100
AcDbEntity
  8
SANINDUSA
100
AcDbPolyline
 90
        7
 70
   128
 43
0.0
 10
1467.226446914
 20
1673.838582101751
 10
1467.225666012553
 20
1673.838786847874
 10
1467.224522097114
 20
1673.838949159836
 10
1467.223370735552
 20
1673.839029630044
 10
1467.222116703335
 20
1673.839061953632
 10
1467.221488847665
 20
1673.839062844365
 10
1467.220860924768
 20
1673.839055879896
  0
LWPOLYLINE
  5
1EE8
330
1F
100
AcDbEntity
  8
SANINDUSA
100
AcDbPolyline
 90
        8
 70
   128
 43
0.0
 10
1467.107668703451
 20
1673.824578746072
 10
1467.145869016055
 20
1673.825245535009
 10
1467.149920290383
 20
1673.82567125668
 10
1467.153278934381
 20
1673.82664414009
 10
1467.155033811146
 20
1673.826886359013
 10
1467.155711013536
 20
1673.826915204246
 10
1467.155913455018
 20
1673.826920171395
 10
1467.156052947193
 20
1673.826923018788
  0
LINE
  5
1EE9
330
1F
100
AcDbEntity
  8
SANINDUSA
100
AcDbLine
 10
1467.104991824126
 20
1673.835533696578
 30
0.0
 11
1467.145196955912
 21
1673.836235479764
 31
0.0
  0
LINE
  5
1EEA
330
1F
100
AcDbEntity
  8
SANINDUSA
100
AcDbLine
 10
1467.033308993047
 20
1673.812662674355
 30
0.0
 11
1467.09331813273
 21
1673.812662674355
 31
0.0
  0
LINE
  5
1EEB
330
1F
100
AcDbEntity
  8
SANINDUSA
100
AcDbLine
 10
1467.033106257151
 20
1673.824277406058
 30
0.0
 11
1467.09309711886
 21
1673.825324550445
 31
0.0
  0
LINE
  5
1EEC
330
1F
100
AcDbEntity
  8
SANINDUSA
100
AcDbLine
 10
1467.033106257151
 20
1673.824277406058
 30
0.0
 11
1467.033308993047
 21
1673.812662674355
 31
0.0
  0
LINE
  5
1EED
330
1F
100
AcDbEntity
  8
SANINDUSA
100
AcDbLine
 10
1467.101482387156
 20
1673.834007749954
 30
0.0
 11
1467.09309711886
 21
1673.825324550445
 31
0.0
  0
LINE
  5
1EEE
330
1F
100
AcDbEntity
  8
SANINDUSA
100
AcDbLine
 10
1467.09331813273
 20
1673.812662674355
 30
0.0
 11
1467.104319808338
 21
1673.812662674355
 31
0.0
  0
LINE
  5
1EEF
330
1F
100
AcDbEntity
  8
SANINDUSA
100
AcDbLine
 10
1467.09331813273
 20
1673.812662674355
 30
0.0
 11
1467.09309711886
 21
1673.825324550445
 31
0.0
  0
ARC
  5
1EF0
330
1F
100
AcDbEntity
  8
SANINDUSA
100
AcDbCircle
 10
1467.105079086158
 20
1673.830534458102
 30
0.0
 40
0.005
100
AcDbArc
 50
91.00000000000177
 51
136.0000000000067
  0
LINE
  5
1EF1
330
1F
100
AcDbEntity
  8
SANINDUSA
100
AcDbLine
 10
1467.104319808338
 20
1673.812662674355
 30
0.0
 11
1467.104174962765
 21
1673.820960871684
 31
0.0
  0
LINE
  5
1EF2
330
1F
100
AcDbEntity
  8
SANINDUSA
100
AcDbLine
 10
1467.107668703451
 20
1673.824578746072
 30
0.0
 11
1467.104174962765
 21
1673.820960871684
 31
0.0
  0
LWPOLYLINE
  5
1EF3
330
1F
100
AcDbEntity
  8
SANINDUSA
100
AcDbPolyline
 90
       14
 70
   128
 43
0.0
 10
1467.221043047378
 20
1673.828057425207
 10
1467.220903555203
 20
1673.828054577813
 10
1467.220701113721
 20
1673.828049610665
 10
1467.220023911331
 20
1673.828020765432
 10
1467.218269034566
 20
1673.827778546509
 10
1467.214910390568
 20
1673.826805663099
 10
1467.21085911624
 20
1673.826379941427
 10
1467.166367508952
 20
1673.825603337533
 10
1467.162218151915
 20
1673.825903944711
 10
1467.158442864732
 20
1673.82686404066
 10
1467.157855194636
 20
1673.826905113713
 10
1467.156977058775
 20
1673.826927748301
 10
1467.156551945058
 20
1673.826928351406
 10
1467.155992821173
 20
1673.826922150006
  0
LINE
  5
1EF4
330
1F
100
AcDbEntity
  8
SANINDUSA
100
AcDbLine
 10
1467.166669544087
 20
1673.836610285184
 30
0.0
 11
1467.210187056097
 21
1673.837369886182
 31
0.0
  0
LWPOLYLINE
  5
1EF5
330
1F
100
AcDbEntity
  8
SANINDUSA
100
AcDbPolyline
 90
        3
 70
   128
 43
0.0
 10
1467.145196955912
 20
1673.836235479764
 10
1467.147798621234
 20
1673.836508871596
 10
1467.150391946438
 20
1673.837260068528
  0
LINE
  5
1EF6
330
1F
100
AcDbEntity
  8
SANINDUSA
100
AcDbLine
 10
1467.155870824583
 20
1673.837921473477
 30
0.0
 11
1467.155863157005
 21
1673.837921887488
 31
0.0
  0
LWPOLYLINE
  5
1EF7
330
1F
100
AcDbEntity
  8
SANINDUSA
100
AcDbPolyline
 90
        6
 70
   128
 43
0.0
 10
1467.155828455721
 20
1673.837920727804
 10
1467.15566629963
 20
1673.837917417781
 10
1467.155342016298
 20
1673.837909461094
 10
1467.15404552919
 20
1673.837854237614
 10
1467.150861988556
 20
1673.837414825685
 10
1467.150391946438
 20
1673.837260068528
  0
LINE
  5
1EF8
330
1F
100
AcDbEntity
  8
SANINDUSA
100
AcDbLine
 10
1467.155863157005
 20
1673.837921887488
 30
0.0
 11
1467.155828455721
 21
1673.837920727804
 31
0.0
  0
LWPOLYLINE
  5
1EF9
330
1F
100
AcDbEntity
  8
SANINDUSA
100
AcDbPolyline
 90
        7
 70
   128
 43
0.0
 10
1467.155870824583
 20
1673.837921473477
 10
1467.155865528355
 20
1673.837921387798
 10
1467.155860232168
 20
1673.837921299675
 10
1467.155849639897
 20
1673.83792111724
 10
1467.155844343813
 20
1673.837921023124
 10
1467.155839047764
 20
1673.837920927013
 10
1467.155828455721
 20
1673.837920727804
  0
LWPOLYLINE
  5
1EFA
330
1F
100
AcDbEntity
  8
SANINDUSA
100
AcDbPolyline
 90
        7
 70
   128
 43
0.0
 10
1467.161456813815
 20
1673.837447695332
 10
1467.160675912368
 20
1673.837652441455
 10
1467.159531996929
 20
1673.837814753417
 10
1467.158380635367
 20
1673.837895223625
 10
1467.15712660315
 20
1673.837927547213
 10
1467.15649874748
 20
1673.837928437947
 10
1467.155870824583
 20
1673.837921473477
  0
LWPOLYLINE
  5
1EFB
330
1F
100
AcDbEntity
  8
SANINDUSA
100
AcDbPolyline
 90
        3
 70
   128
 43
0.0
 10
1467.161456813815
 20
1673.837447695332
 10
1467.163984884551
 20
1673.836804779878
 10
1467.166669544087
 20
1673.836610285184
  0
LINE
  5
1EFC
330
1F
100
AcDbEntity
  8
SANINDUSA
100
AcDbLine
 10
1467.220860924768
 20
1673.839055879896
 30
0.0
 11
1467.22085325719
 21
1673.839056293907
 31
0.0
  0
LWPOLYLINE
  5
1EFD
330
1F
100
AcDbEntity
  8
SANINDUSA
100
AcDbPolyline
 90
        6
 70
   128
 43
0.0
 10
1467.220818555906
 20
1673.839055134221
 10
1467.220656399815
 20
1673.839051824199
 10
1467.220332116483
 20
1673.839043867513
 10
1467.219035629376
 20
1673.838988644033
 10
1467.215852088742
 20
1673.838549232104
 10
1467.215382046623
 20
1673.838394474946
  0
LINE
  5
1EFE
330
1F
100
AcDbEntity
  8
SANINDUSA
100
AcDbLine
 10
1467.22085325719
 20
1673.839056293907
 30
0.0
 11
1467.220818555906
 21
1673.839055134222
 31
0.0
  0
LWPOLYLINE
  5
1EFF
330
1F
100
AcDbEntity
  8
SANINDUSA
100
AcDbPolyline
 90
        7
 70
   128
 43
0.0
 10
1467.220860924768
 20
1673.839055879896
 10
1467.22085562854
 20
1673.839055794216
 10
1467.220850332353
 20
1673.839055706093
 10
1467.220839740082
 20
1673.839055523659
 10
1467.220834443998
 20
1673.839055429542
 10
1467.220829147949
 20
1673.839055333431
 10
1467.220818555906
 20
1673.839055134221
  0
LWPOLYLINE
  5
1F00
330
1F
100
AcDbEntity
  8
SANINDUSA
100
AcDbPolyline
 90
        3
 70
   128
 43
0.0
 10
1467.210187056097
 20
1673.837369886182
 10
1467.212788721419
 20
1673.837643278014
 10
1467.215382046623
 20
1673.838394474946
  0
LINE
  5
1F01
330
1F
100
AcDbEntity
  8
SANINDUSA
100
AcDbLine
 10
1467.296649744458
 20
1673.838879098022
 30
0.0
 11
1467.340167256467
 21
1673.839638699019
 31
0.0
  0
LWPOLYLINE
  5
1F02
330
1F
100
AcDbEntity
  8
SANINDUSA
100
AcDbPolyline
 90
       14
 70
   128
 43
0.0
 10
1467.351023247749
 20
1673.830326238044
 10
1467.350883755574
 20
1673.83032339065
 10
1467.350681314091
 20
1673.830318423502
 10
1467.350004111701
 20
1673.830289578269
 10
1467.348249234937
 20
1673.830047359345
 10
1467.344890590938
 20
1673.829074475936
 10
1467.34083931661
 20
1673.828648754264
 10
1467.296347709322
 20
1673.82787215037
 10
1467.292198352286
 20
1673.828172757547
 10
1467.288423065103
 20
1673.829132853497
 10
1467.287835395007
 20
1673.82917392655
 10
1467.286957259145
 20
1673.829196561138
 10
1467.286532145428
 20
1673.829197164243
 10
1467.285973021544
 20
1673.829190962843
  0
LINE
  5
1F03
330
1F
100
AcDbEntity
  8
SANINDUSA
100
AcDbLine
 10
1467.231659644272
 20
1673.837744691603
 30
0.0
 11
1467.275177156282
 21
1673.838504292601
 31
0.0
  0
LWPOLYLINE
  5
1F04
330
1F
100
AcDbEntity
  8
SANINDUSA
100
AcDbPolyline
 90
        3
 70
   128
 43
0.0
 10
1467.226446914
 20
1673.838582101751
 10
1467.228974984736
 20
1673.837939186296
 10
1467.231659644272
 20
1673.837744691603
  0
LINE
  5
1F05
330
1F
100
AcDbEntity
  8
SANINDUSA
100
AcDbLine
 10
1467.285851024953
 20
1673.840190286314
 30
0.0
 11
1467.285843357375
 21
1673.840190700325
 31
0.0
  0
LWPOLYLINE
  5
1F06
330
1F
100
AcDbEntity
  8
SANINDUSA
100
AcDbPolyline
 90
        6
 70
   128
 43
0.0
 10
1467.285808656091
 20
1673.84018954064
 10
1467.285646500001
 20
1673.840186230618
 10
1467.285322216668
 20
1673.840178273931
 10
1467.284025729561
 20
1673.840123050451
 10
1467.280842188927
 20
1673.839683638522
 10
1467.280372146808
 20
1673.839528881364
  0
LINE
  5
1F07
330
1F
100
AcDbEntity
  8
SANINDUSA
100
AcDbLine
 10
1467.285843357375
 20
1673.840190700325
 30
0.0
 11
1467.285808656091
 21
1673.84018954064
 31
0.0
  0
LWPOLYLINE
  5
1F08
330
1F
100
AcDbEntity
  8
SANINDUSA
100
AcDbPolyline
 90
        7
 70
   128
 43
0.0
 10
1467.285851024953
 20
1673.840190286314
 10
1467.285845728725
 20
1673.840190200634
 10
1467.285840432538
 20
1673.840190112512
 10
1467.285829840267
 20
1673.840189930077
 10
1467.285824544183
 20
1673.84018983596
 10
1467.285819248135
 20
1673.84018973985
 10
1467.285808656091
 20
1673.84018954064
  0
LWPOLYLINE
  5
1F09
330
1F
100
AcDbEntity
  8
SANINDUSA
100
AcDbPolyline
 90
        7
 70
   128
 43
0.0
 10
1467.291437014185
 20
1673.839716508169
 10
1467.290656112738
 20
1673.839921254292
 10
1467.289512197299
 20
1673.840083566254
 10
1467.288360835737
 20
1673.840164036462
 10
1467.28710680352
 20
1673.84019636005
 10
1467.28647894785
 20
1673.840197250784
 10
1467.285851024953
 20
1673.840190286314
  0
LWPOLYLINE
  5
1F0A
330
1F
100
AcDbEntity
  8
SANINDUSA
100
AcDbPolyline
 90
        3
 70
   128
 43
0.0
 10
1467.275177156282
 20
1673.8385042926
 10
1467.277778821605
 20
1673.838777684433
 10
1467.280372146808
 20
1673.839528881364
  0
LWPOLYLINE
  5
1F0B
330
1F
100
AcDbEntity
  8
SANINDUSA
100
AcDbPolyline
 90
        3
 70
   128
 43
0.0
 10
1467.291437014185
 20
1673.839716508169
 10
1467.293965084921
 20
1673.839073592715
 10
1467.296649744457
 20
1673.838879098021
  0
LWPOLYLINE
  5
1F0C
330
1F
100
AcDbEntity
  8
SANINDUSA
100
AcDbPolyline
 90
       14
 70
   128
 43
0.0
 10
1467.416013347934
 20
1673.831460644462
 10
1467.415873855759
 20
1673.831457797068
 10
1467.415671414276
 20
1673.83145282992
 10
1467.414994211886
 20
1673.831423984687
 10
1467.413239335122
 20
1673.831181765764
 10
1467.409880691124
 20
1673.830208882354
 10
1467.405829416795
 20
1673.829783160682
 10
1467.361337809507
 20
1673.829006556788
 10
1467.357188452471
 20
1673.829307163966
 10
1467.353413165288
 20
1673.830267259915
 10
1467.352825495192
 20
1673.830308332969
 10
1467.35194735933
 20
1673.830330967556
 10
1467.351522245613
 20
1673.830331570662
 10
1467.350963121729
 20
1673.830325369261
  0
LINE
  5
1F0D
330
1F
100
AcDbEntity
  8
SANINDUSA
100
AcDbLine
 10
1467.361639844643
 20
1673.84001350444
 30
0.0
 11
1467.405157356653
 21
1673.840773105437
 31
0.0
  0
LWPOLYLINE
  5
1F0E
330
1F
100
AcDbEntity
  8
SANINDUSA
100
AcDbPolyline
 90
        6
 70
   128
 43
0.0
 10
1467.350798756276
 20
1673.841323947059
 10
1467.350636600186
 20
1673.841320637037
 10
1467.350312316854
 20
1673.841312680349
 10
1467.349015829746
 20
1673.841257456869
 10
1467.345832289112
 20
1673.840818044941
 10
1467.345362246993
 20
1673.840663287783
  0
LWPOLYLINE
  5
1F0F
330
1F
100
AcDbEntity
  8
SANINDUSA
100
AcDbPolyline
 90
        3
 70
   128
 43
0.0
 10
1467.340167256467
 20
1673.839638699019
 10
1467.34276892179
 20
1673.839912090851
 10
1467.345362246993
 20
1673.840663287783
  0
LINE
  5
1F10
330
1F
100
AcDbEntity
  8
SANINDUSA
100
AcDbLine
 10
1467.350841125138
 20
1673.841324692733
 30
0.0
 11
1467.35083345756
 21
1673.841325106744
 31
0.0
  0
LINE
  5
1F11
330
1F
100
AcDbEntity
  8
SANINDUSA
100
AcDbLine
 10
1467.35083345756
 20
1673.841325106744
 30
0.0
 11
1467.350798756277
 21
1673.841323947059
 31
0.0
  0
LWPOLYLINE
  5
1F12
330
1F
100
AcDbEntity
  8
SANINDUSA
100
AcDbPolyline
 90
        7
 70
   128
 43
0.0
 10
1467.350841125138
 20
1673.841324692733
 10
1467.35083582891
 20
1673.841324607053
 10
1467.350830532723
 20
1673.84132451893
 10
1467.350819940453
 20
1673.841324336495
 10
1467.350814644368
 20
1673.841324242379
 10
1467.35080934832
 20
1673.841324146268
 10
1467.350798756276
 20
1673.841323947059
  0
LWPOLYLINE
  5
1F13
330
1F
100
AcDbEntity
  8
SANINDUSA
100
AcDbPolyline
 90
        7
 70
   128
 43
0.0
 10
1467.35642711437
 20
1673.840850914588
 10
1467.355646212923
 20
1673.84105566071
 10
1467.354502297485
 20
1673.841217972672
 10
1467.353350935922
 20
1673.841298442881
 10
1467.352096903706
 20
1673.841330766468
 10
1467.351469048035
 20
1673.841331657202
 10
1467.350841125138
 20
1673.841324692733
  0
LWPOLYLINE
  5
1F14
330
1F
100
AcDbEntity
  8
SANINDUSA
100
AcDbPolyline
 90
        3
 70
   128
 43
0.0
 10
1467.35642711437
 20
1673.840850914588
 10
1467.358955185106
 20
1673.840207999133
 10
1467.361639844643
 20
1673.84001350444
  0
LWPOLYLINE
  5
1F15
330
1F
100
AcDbEntity
  8
SANINDUSA
100
AcDbPolyline
 90
        3
 70
   128
 43
0.0
 10
1467.405157356652
 20
1673.840773105437
 10
1467.407759021975
 20
1673.841046497269
 10
1467.410352347179
 20
1673.841797694201
  0
LINE
  5
1F16
330
1F
100
AcDbEntity
  8
SANINDUSA
100
AcDbLine
 10
1467.415831225323
 20
1673.842459099151
 30
0.0
 11
1467.415823557745
 21
1673.842459513162
 31
0.0
  0
LINE
  5
1F17
330
1F
100
AcDbEntity
  8
SANINDUSA
100
AcDbLine
 10
1467.415823557745
 20
1673.842459513162
 30
0.0
 11
1467.415788856462
 21
1673.842458353477
 31
0.0
  0
LWPOLYLINE
  5
1F18
330
1F
100
AcDbEntity
  8
SANINDUSA
100
AcDbPolyline
 90
        7
 70
   128
 43
0.0
 10
1467.415831225323
 20
1673.842459099151
 10
1467.415825929095
 20
1673.842459013471
 10
1467.415820632908
 20
1673.842458925349
 10
1467.415810040638
 20
1673.842458742914
 10
1467.415804744554
 20
1673.842458648797
 10
1467.415799448505
 20
1673.842458552686
 10
1467.415788856462
 20
1673.842458353477
  0
LWPOLYLINE
  5
1F19
330
1F
100
AcDbEntity
  8
SANINDUSA
100
AcDbPolyline
 90
        6
 70
   128
 43
0.0
 10
1467.415788856462
 20
1673.842458353477
 10
1467.415626700371
 20
1673.842455043455
 10
1467.415302417039
 20
1673.842447086768
 10
1467.414005929931
 20
1673.842391863288
 10
1467.410822389297
 20
1673.841952451359
 10
1467.410352347179
 20
1673.841797694201
  0
ARC
  5
1F1A
330
1F
100
AcDbEntity
  8
SANINDUSA
100
AcDbCircle
 10
1467.484637867614
 20
1673.882166536039
 30
0.0
 40
0.0510000000000002
100
AcDbArc
 50
271.0000000000148
 51
349.999999999994
  0
ARC
  5
1F1B
330
1F
100
AcDbEntity
  8
SANINDUSA
100
AcDbCircle
 10
1467.484637867614
 20
1673.882166536039
 30
0.0
 40
0.0400000000000001
100
AcDbArc
 50
271.0000000000148
 51
349.999999999994
  0
LINE
  5
1F1C
330
1F
100
AcDbEntity
  8
SANINDUSA
100
AcDbLine
 10
1467.426629944828
 20
1673.841147910858
 30
0.0
 11
1467.485335963871
 21
1673.842172628232
 31
0.0
  0
LWPOLYLINE
  5
1F1D
330
1F
100
AcDbEntity
  8
SANINDUSA
100
AcDbPolyline
 90
        3
 70
   128
 43
0.0
 10
1467.421417214556
 20
1673.841985321006
 10
1467.423945285291
 20
1673.841342405552
 10
1467.426629944828
 20
1673.841147910858
  0
LINE
  5
1F1E
330
1F
100
AcDbEntity
  8
SANINDUSA
100
AcDbLine
 10
1467.543311711615
 20
1673.902190064235
 30
0.0
 11
1467.604915547253
 21
1673.902190064235
 31
0.0
  0
LINE
  5
1F1F
330
1F
100
AcDbEntity
  8
SANINDUSA
100
AcDbLine
 10
1467.543311711615
 20
1673.913190064235
 30
0.0
 11
1467.610811730831
 21
1673.913190064235
 31
0.0
  0
ARC
  5
1F20
330
1F
100
AcDbEntity
  8
SANINDUSA
100
AcDbCircle
 10
1467.543311711615
 20
1673.898190064235
 30
0.0
 40
0.0040000000000004
100
AcDbArc
 50
90.0
 51
169.9999999999939
  0
ARC
  5
1F21
330
1F
100
AcDbEntity
  8
SANINDUSA
100
AcDbCircle
 10
1467.543311711615
 20
1673.898190064235
 30
0.0
 40
0.0150000000000005
100
AcDbArc
 50
90.0
 51
169.9999999999939
  0
LINE
  5
1F22
330
1F
100
AcDbEntity
  8
SANINDUSA
100
AcDbLine
 10
1467.534863063018
 20
1673.873310478978
 30
0.0
 11
1467.539372480603
 21
1673.898884656946
 31
0.0
  0
LINE
  5
1F23
330
1F
100
AcDbEntity
  8
SANINDUSA
100
AcDbLine
 10
1467.524030177735
 20
1673.875220608932
 30
0.0
 11
1467.52853959532
 21
1673.9007947869
 31
0.0
  0
LINE
  5
1F24
330
1F
100
AcDbEntity
  8
SANINDUSA
100
AcDbLine
 10
1467.615810969308
 20
1673.908277326267
 30
0.0
 11
1467.615810969308
 21
1673.793190064236
 31
0.0
  0
LINE
  5
1F25
330
1F
100
AcDbEntity
  8
SANINDUSA
100
AcDbLine
 10
1467.604915547253
 20
1673.902190064235
 30
0.0
 11
1467.604915547253
 21
1673.793190064236
 31
0.0
  0
LINE
  5
1F26
330
1F
100
AcDbEntity
  8
SANINDUSA
100
AcDbLine
 10
1467.615810969308
 20
1673.793190064236
 30
0.0
 11
1467.604915547253
 21
1673.793190064236
 31
0.0
  0
ARC
  5
1F27
330
1F
100
AcDbEntity
  8
SANINDUSA
100
AcDbCircle
 10
1467.610811730831
 20
1673.908190064236
 30
0.0
 40
0.005
100
AcDbArc
 50
1.000000000001755
 51
90.0
  0
LINE
  5
1F28
330
1F
100
AcDbEntity
  8
SANINDUSA
100
AcDbLine
 10
1465.689326633933
 20
1673.913190064235
 30
0.0
 11
1465.135281932528
 21
1673.913190064235
 31
0.0
  0
LINE
  5
1F29
330
1F
100
AcDbEntity
  8
SANINDUSA
100
AcDbLine
 10
1465.750930469571
 20
1673.793190064236
 30
0.0
 11
1464.359645531674
 21
1673.793190064236
 31
0.0
  0
LINE
  5
1F2A
330
1F
100
AcDbEntity
  8
SANINDUSA
100
AcDbLine
 10
1464.366653625781
 20
1673.913190064235
 30
0.0
 11
1465.104153644997
 21
1673.913190064235
 31
0.0
  0
LINE
  5
1F2B
330
1F
100
AcDbEntity
  8
SANINDUSA
100
AcDbLine
 10
1464.361654387305
 20
1673.908277326267
 30
0.0
 11
1464.359645531674
 21
1673.793190064236
 31
0.0
  0
LINE
  5
1F2C
330
1F
100
AcDbEntity
  8
SANINDUSA
100
AcDbLine
 10
1465.059645531674
 20
1673.793190064236
 30
0.0
 11
1465.070647207282
 21
1673.793190064236
 31
0.0
  0
ARC
  5
1F2D
330
1F
100
AcDbEntity
  8
SANINDUSA
100
AcDbCircle
 10
1464.366653625781
 20
1673.908190064236
 30
0.0
 40
0.005
100
AcDbArc
 50
90.0
 51
178.9999999999982
  0
LINE
  5
1F2E
330
1F
100
AcDbEntity
  8
SANINDUSA
100
AcDbLine
 10
1465.135281932528
 20
1673.913190064235
 30
0.0
 11
1465.104153644997
 21
1673.913190064235
 31
0.0
  0
LINE
  5
1F2F
330
1F
100
AcDbEntity
  8
SANINDUSA
100
AcDbLine
 10
1465.689326633933
 20
1673.913190064235
 30
0.0
 11
1465.75682665315
 21
1673.913190064235
 31
0.0
  0
LINE
  5
1F30
330
1F
100
AcDbEntity
  8
SANINDUSA
100
AcDbLine
 10
1465.761825891625
 20
1673.793190064236
 30
0.0
 11
1465.750930469571
 21
1673.793190064236
 31
0.0
  0
LINE
  5
1F31
330
1F
100
AcDbEntity
  8
SANINDUSA
100
AcDbLine
 10
1465.761825891625
 20
1673.908277326267
 30
0.0
 11
1465.761825891625
 21
1673.793190064236
 31
0.0
  0
ARC
  5
1F32
330
1F
100
AcDbEntity
  8
SANINDUSA
100
AcDbCircle
 10
1465.75682665315
 20
1673.908190064236
 30
0.0
 40
0.005
100
AcDbArc
 50
1.000000000001755
 51
90.0
  0
ENDSEC
  0
SECTION
  2
OBJECTS
  0
DICTIONARY
  5
C
330
0
100
AcDbDictionary
281
     1
  3
ACAD_COLOR
350
1F64
  3
ACAD_GROUP
350
D
  3
ACAD_LAYOUT
350
1A
  3
ACAD_MATERIAL
350
1F37
  3
ACAD_MLEADERSTYLE
350
1F79
  3
ACAD_MLINESTYLE
350
17
  3
ACAD_PLOTSETTINGS
350
19
  3
ACAD_PLOTSTYLENAME
350
E
  3
ACAD_SCALELIST
350
1F67
  3
ACAD_TABLESTYLE
350
1F65
  3
ACAD_VISUALSTYLE
350
1F50
  3
ACDB_RECOMPOSE_DATA
350
1FA8
  3
AcDbVariableDictionary
350
3D
  3
ASE_INDEX_DICTIONARY
350
1E63
  3
DWGPROPS
350
1FA9
  0
DICTIONARY
  5
1F80
330
10
100
AcDbDictionary
280
     1
281
     1
  3
ADSK_XREC_LAYER_RECONCILED
360
1F81
  0
DICTIONARY
  5
1F82
330
2F
100
AcDbDictionary
280
     1
281
     1
  3
ADSK_XREC_LAYER_RECONCILED
360
1F83
  0
DICTIONARY
  5
1F84
330
30
100
AcDbDictionary
280
     1
281
     1
  3
ADSK_XREC_LAYER_RECONCILED
360
1F85
  0
DICTIONARY
  5
1F86
330
31
100
AcDbDictionary
280
     1
281
     1
  3
ADSK_XREC_LAYER_RECONCILED
360
1F87
  0
DICTIONARY
  5
1F88
330
32
100
AcDbDictionary
280
     1
281
     1
  3
ADSK_XREC_LAYER_RECONCILED
360
1F89
  0
DICTIONARY
  5
1F8A
330
33
100
AcDbDictionary
280
     1
281
     1
  3
ADSK_XREC_LAYER_RECONCILED
360
1F8B
  0
DICTIONARY
  5
1F8C
330
34
100
AcDbDictionary
280
     1
281
     1
  3
ADSK_XREC_LAYER_RECONCILED
360
1F8D
  0
DICTIONARY
  5
1F8E
330
35
100
AcDbDictionary
280
     1
281
     1
  3
ADSK_XREC_LAYER_RECONCILED
360
1F8F
  0
DICTIONARY
  5
1F90
330
36
100
AcDbDictionary
280
     1
281
     1
  3
ADSK_XREC_LAYER_RECONCILED
360
1F91
  0
DICTIONARY
  5
1F92
330
37
100
AcDbDictionary
280
     1
281
     1
  3
ADSK_XREC_LAYER_RECONCILED
360
1F93
  0
DICTIONARY
  5
1F94
330
5D6
100
AcDbDictionary
280
     1
281
     1
  3
ADSK_XREC_LAYER_RECONCILED
360
1F95
  0
DICTIONARY
  5
1F96
330
8AF
100
AcDbDictionary
280
     1
281
     1
  3
ADSK_XREC_LAYER_RECONCILED
360
1F97
  0
DICTIONARY
  5
1F98
330
8F8
100
AcDbDictionary
280
     1
281
     1
  3
ADSK_XREC_LAYER_RECONCILED
360
1F99
  0
DICTIONARY
  5
1F9A
330
91D
100
AcDbDictionary
280
     1
281
     1
  3
ADSK_XREC_LAYER_RECONCILED
360
1F9B
  0
DICTIONARY
  5
1F9C
330
D86
100
AcDbDictionary
280
     1
281
     1
  3
ADSK_XREC_LAYER_RECONCILED
360
1F9D
  0
DICTIONARY
  5
1F9E
330
1F33
100
AcDbDictionary
280
     1
281
     1
  3
ADSK_XREC_LAYER_RECONCILED
360
1F9F
  0
DICTIONARY
  5
1F64
102
{ACAD_REACTORS
330
C
102
}
330
C
100
AcDbDictionary
281
     1
  0
DICTIONARY
  5
D
102
{ACAD_REACTORS
330
C
102
}
330
C
100
AcDbDictionary
281
     1
  0
DICTIONARY
  5
1A
102
{ACAD_REACTORS
330
C
102
}
330
C
100
AcDbDictionary
281
     1
  3
Layout1
350
1E
  3
Layout2
350
26
  3
Model
350
22
  0
DICTIONARY
  5
1F37
102
{ACAD_REACTORS
330
C
102
}
330
C
100
AcDbDictionary
281
     1
  3
ByBlock
350
1F40
  3
ByLayer
350
1F38
  3
Global
350
1F48
  0
DICTIONARY
  5
1F79
102
{ACAD_REACTORS
330
C
102
}
330
C
100
AcDbDictionary
281
     1
  3
Standard
350
1F7A
  0
DICTIONARY
  5
17
102
{ACAD_REACTORS
330
C
102
}
330
C
100
AcDbDictionary
281
     1
  3
Standard
350
18
  0
DICTIONARY
  5
19
102
{ACAD_REACTORS
330
C
102
}
330
C
100
AcDbDictionary
281
     1
  0
ACDBDICTIONARYWDFLT
  5
E
102
{ACAD_REACTORS
330
C
102
}
330
C
100
AcDbDictionary
281
     1
  3
Normal
350
F
100
AcDbDictionaryWithDefault
340
F
  0
DICTIONARY
  5
1F67
102
{ACAD_REACTORS
330
C
102
}
330
C
100
AcDbDictionary
281
     1
  3
A0
350
1F68
  3
A1
350
1F69
  3
A2
350
1F6A
  3
A3
350
1F6B
  3
A4
350
1F6C
  3
A5
350
1F6D
  3
A6
350
1F6E
  3
A7
350
1F6F
  3
A8
350
1F70
  3
A9
350
1F71
  3
B0
350
1F72
  3
B1
350
1F73
  3
B2
350
1F74
  3
B3
350
1F75
  3
B4
350
1F76
  3
B5
350
1F77
  3
B6
350
1F78
  0
DICTIONARY
  5
1F65
102
{ACAD_REACTORS
330
C
102
}
330
C
100
AcDbDictionary
281
     1
  3
Standard
350
1F66
  0
DICTIONARY
  5
1F50
102
{ACAD_REACTORS
330
C
102
}
330
C
100
AcDbDictionary
281
     1
  3
2dWireframe
350
1F56
  3
3D Hidden
350
1F58
  3
3dWireframe
350
1F57
  3
Basic
350
1F55
  3
Brighten
350
1F5C
  3
ColorChange
350
1F60
  3
Conceptual
350
1F59
  3
Dim
350
1F5B
  3
EdgeColorOff
350
1F63
  3
Facepattern
350
1F5F
  3
Flat
350
1F51
  3
FlatWithEdges
350
1F52
  3
Gouraud
350
1F53
  3
GouraudWithEdges
350
1F54
  3
JitterOff
350
1F61
  3
Linepattern
350
1F5E
  3
OverhangOff
350
1F62
  3
Realistic
350
1F5A
  3
Thicken
350
1F5D
  0
XRECORD
  5
1FA8
102
{ACAD_REACTORS
330
C
102
}
330
C
100
AcDbXrecord
280
     1
 90
        1
330
1F66
  0
DICTIONARY
  5
3D
102
{ACAD_REACTORS
330
C
102
}
330
C
100
AcDbDictionary
281
     1
  3
CANNOSCALE
350
1FA2
  3
CMLEADERSTYLE
350
1FA1
  3
CTABLESTYLE
350
1FA0
  3
DIMASSOC
350
3F
  3
HIDETEXT
350
3E
  3
INDEXCTL
350
1FA4
  3
SORTENTS
350
1FA3
  3
XCLIPFRAME
350
1FA5
  0
DICTIONARY
  5
1E63
102
{ACAD_REACTORS
330
C
102
}
330
C
100
AcDbDictionary
281
     1
  3
ASEBlockHierarchyIndexRecord
350
1E64
1001
DCO15
1040
1527417390.828
  0
XRECORD
  5
1FA9
102
{ACAD_REACTORS
330
C
102
}
330
C
100
AcDbXrecord
280
     1
  1
DWGPROPS COOKIE
  2

  3

  4

  6

  7

  8
Julio
  9

300
=
301
=
302
=
303
=
304
=
305
=
306
=
307
=
308
=
309
=
 40
0.0067471527777778
 41
2453481.64730522
 42
2456142.683578554
  1

 90
        0
  0
XRECORD
  5
1F81
102
{ACAD_REACTORS
330
1F80
102
}
330
1F80
100
AcDbXrecord
280
     1
290
     1
  0
XRECORD
  5
1F83
102
{ACAD_REACTORS
330
1F82
102
}
330
1F82
100
AcDbXrecord
280
     1
290
     1
  0
XRECORD
  5
1F85
102
{ACAD_REACTORS
330
1F84
102
}
330
1F84
100
AcDbXrecord
280
     1
290
     1
  0
XRECORD
  5
1F87
102
{ACAD_REACTORS
330
1F86
102
}
330
1F86
100
AcDbXrecord
280
     1
290
     1
  0
XRECORD
  5
1F89
102
{ACAD_REACTORS
330
1F88
102
}
330
1F88
100
AcDbXrecord
280
     1
290
     1
  0
XRECORD
  5
1F8B
102
{ACAD_REACTORS
330
1F8A
102
}
330
1F8A
100
AcDbXrecord
280
     1
290
     1
  0
XRECORD
  5
1F8D
102
{ACAD_REACTORS
330
1F8C
102
}
330
1F8C
100
AcDbXrecord
280
     1
290
     1
  0
XRECORD
  5
1F8F
102
{ACAD_REACTORS
330
1F8E
102
}
330
1F8E
100
AcDbXrecord
280
     1
290
     1
  0
XRECORD
  5
1F91
102
{ACAD_REACTORS
330
1F90
102
}
330
1F90
100
AcDbXrecord
280
     1
290
     1
  0
XRECORD
  5
1F93
102
{ACAD_REACTORS
330
1F92
102
}
330
1F92
100
AcDbXrecord
280
     1
290
     1
  0
XRECORD
  5
1F95
102
{ACAD_REACTORS
330
1F94
102
}
330
1F94
100
AcDbXrecord
280
     1
290
     1
  0
XRECORD
  5
1F97
102
{ACAD_REACTORS
330
1F96
102
}
330
1F96
100
AcDbXrecord
280
     1
290
     1
  0
XRECORD
  5
1F99
102
{ACAD_REACTORS
330
1F98
102
}
330
1F98
100
AcDbXrecord
280
     1
290
     1
  0
XRECORD
  5
1F9B
102
{ACAD_REACTORS
330
1F9A
102
}
330
1F9A
100
AcDbXrecord
280
     1
290
     1
  0
XRECORD
  5
1F9D
102
{ACAD_REACTORS
330
1F9C
102
}
330
1F9C
100
AcDbXrecord
280
     1
290
     1
  0
XRECORD
  5
1F9F
102
{ACAD_REACTORS
330
1F9E
102
}
330
1F9E
100
AcDbXrecord
280
     1
290
     1
  0
LAYOUT
  5
1E
102
{ACAD_XDICTIONARY
360
1FAA
102
}
102
{ACAD_REACTORS
330
1A
102
}
330
1A
100
AcDbPlotSettings
  1

  2
Ploter HP500
  4

  6

 40
0.0
 41
0.0
 42
0.0
 43
0.0
 44
0.0
 45
0.0
 46
0.0
 47
0.0
 48
0.0
 49
0.0
140
0.0
141
0.0
142
1.0
143
1.0
 70
   688
 72
     0
 73
     0
 74
     5
  7
monochrome.ctb
 75
    16
147
1.0
148
0.0
149
0.0
100
AcDbLayout
  1
Layout1
 70
     1
 71
     1
 10
0.0
 20
0.0
 11
420.0
 21
297.0
 12
0.0
 22
0.0
 32
0.0
 14
1.000000000000000E+20
 24
1.000000000000000E+20
 34
1.000000000000000E+20
 15
-1.000000000000000E+20
 25
-1.000000000000000E+20
 35
-1.000000000000000E+20
146
0.0
 13
0.0
 23
0.0
 33
0.0
 16
1.0
 26
0.0
 36
0.0
 17
0.0
 27
1.0
 37
0.0
 76
     0
330
1B
  0
LAYOUT
  5
26
102
{ACAD_XDICTIONARY
360
1FAE
102
}
102
{ACAD_REACTORS
330
1A
102
}
330
1A
100
AcDbPlotSettings
  1

  2
Ploter HP500
  4

  6

 40
0.0
 41
0.0
 42
0.0
 43
0.0
 44
0.0
 45
0.0
 46
0.0
 47
0.0
 48
0.0
 49
0.0
140
0.0
141
0.0
142
1.0
143
1.0
 70
   688
 72
     0
 73
     0
 74
     5
  7
monochrome.ctb
 75
    16
147
1.0
148
0.0
149
0.0
100
AcDbLayout
  1
Layout2
 70
     1
 71
     2
 10
0.0
 20
0.0
 11
12.0
 21
9.0
 12
0.0
 22
0.0
 32
0.0
 14
0.0
 24
0.0
 34
0.0
 15
0.0
 25
0.0
 35
0.0
146
0.0
 13
0.0
 23
0.0
 33
0.0
 16
1.0
 26
0.0
 36
0.0
 17
0.0
 27
1.0
 37
0.0
 76
     0
330
23
  0
LAYOUT
  5
22
102
{ACAD_XDICTIONARY
360
1FAC
102
}
102
{ACAD_REACTORS
330
1A
102
}
330
1A
100
AcDbPlotSettings
  1

  2
Ploter HP500
  4
User268
  6

 40
4.995333194732666
 41
16.97565841674804
 42
4.995330810546875
 43
16.97567749023437
 44
209.9733276367187
 45
296.9259948730469
 46
0.0
 47
0.0
 48
0.0
 49
0.0
140
0.0
141
0.0
142
1.0
143
1.0
 70
 11952
 72
     1
 73
     1
 74
     0
  7

 75
     0
147
1.0
148
-427.5957866592534
149
7.362384574453926
100
AcDbLayout
  1
Model
 70
     1
 71
     0
 10
0.0
 20
0.0
 11
12.0
 21
9.0
 12
0.0
 22
0.0
 32
0.0
 14
0.0
 24
0.0
 34
0.0
 15
0.0
 25
0.0
 35
0.0
146
0.0
 13
0.0
 23
0.0
 33
0.0
 16
1.0
 26
0.0
 36
0.0
 17
0.0
 27
1.0
 37
0.0
 76
     0
330
1F
331
1F35
  0
MATERIAL
  5
1F40
102
{ACAD_XDICTIONARY
360
1F41
102
}
102
{ACAD_REACTORS
330
1F37
102
}
330
1F37
100
AcDbMaterial
  1
ByBlock
 72
     0
 43
0.0008202099737533
 43
0.0
 43
0.0
 43
0.0
 43
0.0
 43
0.0008202099737533
 43
0.0
 43
0.0
 43
0.0
 43
0.0
 43
1.0
 43
0.0
 43
0.0
 43
0.0
 43
0.0
 43
1.0
 77
     0
 47
0.0008202099737533
 47
0.0
 47
0.0
 47
0.0
 47
0.0
 47
0.0008202099737533
 47
0.0
 47
0.0
 47
0.0
 47
0.0
 47
1.0
 47
0.0
 47
0.0
 47
0.0
 47
0.0
 47
1.0
171
     0
 49
0.0008202099737533
 49
0.0
 49
0.0
 49
0.0
 49
0.0
 49
0.0008202099737533
 49
0.0
 49
0.0
 49
0.0
 49
0.0
 49
1.0
 49
0.0
 49
0.0
 49
0.0
 49
0.0
 49
1.0
175
     0
142
0.0008202099737533
142
0.0
142
0.0
142
0.0
142
0.0
142
0.0008202099737533
142
0.0
142
0.0
142
0.0
142
0.0
142
1.0
142
0.0
142
0.0
142
0.0
142
0.0
142
1.0
179
     0
144
0.0008202099737533
144
0.0
144
0.0
144
0.0
144
0.0
144
0.0008202099737533
144
0.0
144
0.0
144
0.0
144
0.0
144
1.0
144
0.0
144
0.0
144
0.0
144
0.0
144
1.0
147
0.0008202099737533
147
0.0
147
0.0
147
0.0
147
0.0
147
0.0008202099737533
147
0.0
147
0.0
147
0.0
147
0.0
147
1.0
147
0.0
147
0.0
147
0.0
147
0.0
147
1.0
  0
MATERIAL
  5
1F38
102
{ACAD_XDICTIONARY
360
1F39
102
}
102
{ACAD_REACTORS
330
1F37
102
}
330
1F37
100
AcDbMaterial
  1
ByLayer
 72
     0
 43
0.0008202099737533
 43
0.0
 43
0.0
 43
0.0
 43
0.0
 43
0.0008202099737533
 43
0.0
 43
0.0
 43
0.0
 43
0.0
 43
1.0
 43
0.0
 43
0.0
 43
0.0
 43
0.0
 43
1.0
 77
     0
 47
0.0008202099737533
 47
0.0
 47
0.0
 47
0.0
 47
0.0
 47
0.0008202099737533
 47
0.0
 47
0.0
 47
0.0
 47
0.0
 47
1.0
 47
0.0
 47
0.0
 47
0.0
 47
0.0
 47
1.0
171
     0
 49
0.0008202099737533
 49
0.0
 49
0.0
 49
0.0
 49
0.0
 49
0.0008202099737533
 49
0.0
 49
0.0
 49
0.0
 49
0.0
 49
1.0
 49
0.0
 49
0.0
 49
0.0
 49
0.0
 49
1.0
175
     0
142
0.0008202099737533
142
0.0
142
0.0
142
0.0
142
0.0
142
0.0008202099737533
142
0.0
142
0.0
142
0.0
142
0.0
142
1.0
142
0.0
142
0.0
142
0.0
142
0.0
142
1.0
179
     0
144
0.0008202099737533
144
0.0
144
0.0
144
0.0
144
0.0
144
0.0008202099737533
144
0.0
144
0.0
144
0.0
144
0.0
144
1.0
144
0.0
144
0.0
144
0.0
144
0.0
144
1.0
147
0.0008202099737533
147
0.0
147
0.0
147
0.0
147
0.0
147
0.0008202099737533
147
0.0
147
0.0
147
0.0
147
0.0
147
1.0
147
0.0
147
0.0
147
0.0
147
0.0
147
1.0
  0
MATERIAL
  5
1F48
102
{ACAD_XDICTIONARY
360
1F49
102
}
102
{ACAD_REACTORS
330
1F37
102
}
330
1F37
100
AcDbMaterial
  1
Global
 72
     0
 43
0.0008202099737533
 43
0.0
 43
0.0
 43
0.0
 43
0.0
 43
0.0008202099737533
 43
0.0
 43
0.0
 43
0.0
 43
0.0
 43
1.0
 43
0.0
 43
0.0
 43
0.0
 43
0.0
 43
1.0
 77
     0
 47
0.0008202099737533
 47
0.0
 47
0.0
 47
0.0
 47
0.0
 47
0.0008202099737533
 47
0.0
 47
0.0
 47
0.0
 47
0.0
 47
1.0
 47
0.0
 47
0.0
 47
0.0
 47
0.0
 47
1.0
171
     0
 49
0.0008202099737533
 49
0.0
 49
0.0
 49
0.0
 49
0.0
 49
0.0008202099737533
 49
0.0
 49
0.0
 49
0.0
 49
0.0
 49
1.0
 49
0.0
 49
0.0
 49
0.0
 49
0.0
 49
1.0
175
     0
142
0.0008202099737533
142
0.0
142
0.0
142
0.0
142
0.0
142
0.0008202099737533
142
0.0
142
0.0
142
0.0
142
0.0
142
1.0
142
0.0
142
0.0
142
0.0
142
0.0
142
1.0
179
     0
144
0.0008202099737533
144
0.0
144
0.0
144
0.0
144
0.0
144
0.0008202099737533
144
0.0
144
0.0
144
0.0
144
0.0
144
1.0
144
0.0
144
0.0
144
0.0
144
0.0
144
1.0
147
0.0008202099737533
147
0.0
147
0.0
147
0.0
147
0.0
147
0.0008202099737533
147
0.0
147
0.0
147
0.0
147
0.0
147
1.0
147
0.0
147
0.0
147
0.0
147
0.0
147
1.0
  0
MLEADERSTYLE
  5
1F7A
102
{ACAD_REACTORS
330
1F79
102
}
330
1F79
100
AcDbMLeaderStyle
170
     2
171
     1
172
     0
 90
        2
 40
0.0
 41
0.0
173
     1
 91
-1056964608
340
14
 92
       -2
290
     1
 42
2.0
291
     1
 43
0.36
  3
Standard
 44
4.0
300

342
11
174
     1
178
     6
175
     1
176
     0
 93
-1056964608
 45
4.0
292
     0
297
     0
 46
4.0
 94
-1056964608
 47
1.0
 49
1.0
140
1.0
293
     1
141
0.0
294
     1
177
     0
142
1.0
295
     0
296
     0
143
0.125
1001
ACAD_MLEADERVER
1070
     2
  0
MLINESTYLE
  5
18
102
{ACAD_REACTORS
330
17
102
}
330
17
100
AcDbMlineStyle
  2
STANDARD
 70
     0
  3

 62
   256
 51
90.0
 52
90.0
 71
     2
 49
0.5
 62
   256
  6
BYLAYER
 49
-0.5
 62
   256
  6
BYLAYER
  0
ACDBPLACEHOLDER
  5
F
102
{ACAD_REACTORS
330
E
102
}
330
E
  0
SCALE
  5
1F68
102
{ACAD_REACTORS
330
1F67
102
}
330
1F67
100
AcDbScale
 70
     0
300
1:1
140
1.0
141
1.0
290
     1
  0
SCALE
  5
1F69
102
{ACAD_REACTORS
330
1F67
102
}
330
1F67
100
AcDbScale
 70
     0
300
1:2
140
1.0
141
2.0
290
     0
  0
SCALE
  5
1F6A
102
{ACAD_REACTORS
330
1F67
102
}
330
1F67
100
AcDbScale
 70
     0
300
1:4
140
1.0
141
4.0
290
     0
  0
SCALE
  5
1F6B
102
{ACAD_REACTORS
330
1F67
102
}
330
1F67
100
AcDbScale
 70
     0
300
1:5
140
1.0
141
5.0
290
     0
  0
SCALE
  5
1F6C
102
{ACAD_REACTORS
330
1F67
102
}
330
1F67
100
AcDbScale
 70
     0
300
1:8
140
1.0
141
8.0
290
     0
  0
SCALE
  5
1F6D
102
{ACAD_REACTORS
330
1F67
102
}
330
1F67
100
AcDbScale
 70
     0
300
1:10
140
1.0
141
10.0
290
     0
  0
SCALE
  5
1F6E
102
{ACAD_REACTORS
330
1F67
102
}
330
1F67
100
AcDbScale
 70
     0
300
1:16
140
1.0
141
16.0
290
     0
  0
SCALE
  5
1F6F
102
{ACAD_REACTORS
330
1F67
102
}
330
1F67
100
AcDbScale
 70
     0
300
1:20
140
1.0
141
20.0
290
     0
  0
SCALE
  5
1F70
102
{ACAD_REACTORS
330
1F67
102
}
330
1F67
100
AcDbScale
 70
     0
300
1:30
140
1.0
141
30.0
290
     0
  0
SCALE
  5
1F71
102
{ACAD_REACTORS
330
1F67
102
}
330
1F67
100
AcDbScale
 70
     0
300
1:40
140
1.0
141
40.0
290
     0
  0
SCALE
  5
1F72
102
{ACAD_REACTORS
330
1F67
102
}
330
1F67
100
AcDbScale
 70
     0
300
1:50
140
1.0
141
50.0
290
     0
  0
SCALE
  5
1F73
102
{ACAD_REACTORS
330
1F67
102
}
330
1F67
100
AcDbScale
 70
     0
300
1:100
140
1.0
141
100.0
290
     0
  0
SCALE
  5
1F74
102
{ACAD_REACTORS
330
1F67
102
}
330
1F67
100
AcDbScale
 70
     0
300
2:1
140
2.0
141
1.0
290
     0
  0
SCALE
  5
1F75
102
{ACAD_REACTORS
330
1F67
102
}
330
1F67
100
AcDbScale
 70
     0
300
4:1
140
4.0
141
1.0
290
     0
  0
SCALE
  5
1F76
102
{ACAD_REACTORS
330
1F67
102
}
330
1F67
100
AcDbScale
 70
     0
300
8:1
140
8.0
141
1.0
290
     0
  0
SCALE
  5
1F77
102
{ACAD_REACTORS
330
1F67
102
}
330
1F67
100
AcDbScale
 70
     0
300
10:1
140
10.0
141
1.0
290
     0
  0
SCALE
  5
1F78
102
{ACAD_REACTORS
330
1F67
102
}
330
1F67
100
AcDbScale
 70
     0
300
100:1
140
100.0
141
1.0
290
     0
  0
TABLESTYLE
  5
1F66
102
{ACAD_XDICTIONARY
360
1FA6
102
}
102
{ACAD_REACTORS
330
1F65
102
}
330
1F65
100
AcDbTableStyle
  3
Standard
 70
     0
 71
     0
 40
1.5
 41
1.5
280
     0
281
     0
  7
Standard
140
4.5
170
     2
 62
     0
 63
     7
283
     0
274
    -2
284
     1
 64
     0
275
    -2
285
     1
 65
     0
276
    -2
286
     1
 66
     0
277
    -2
287
     1
 67
     0
278
    -2
288
     1
 68
     0
279
    -2
289
     1
 69
     0
  7
Standard
140
6.0
170
     5
 62
     0
 63
     7
283
     0
274
    -2
284
     1
 64
     0
275
    -2
285
     1
 65
     0
276
    -2
286
     1
 66
     0
277
    -2
287
     1
 67
     0
278
    -2
288
     1
 68
     0
279
    -2
289
     1
 69
     0
  7
Standard
140
4.5
170
     5
 62
     0
 63
     7
283
     0
274
    -2
284
     1
 64
     0
275
    -2
285
     1
 65
     0
276
    -2
286
     1
 66
     0
277
    -2
287
     1
 67
     0
278
    -2
288
     1
 68
     0
279
    -2
289
     1
 69
     0
  0
VISUALSTYLE
  5
1F56
102
{ACAD_XDICTIONARY
360
1FC9
102
}
102
{ACAD_REACTORS
330
1F50
102
}
330
1F50
100
AcDbVisualStyle
  2
2dWireframe
 70
     4
 71
     0
 72
     2
 73
     0
 90
        0
 40
-0.6
 41
-30.0
 62
     5
 63
     7
 74
     1
 91
        4
 64
     7
 65
   257
 75
     1
175
     1
 42
1.0
 92
        0
 66
   257
 43
1.0
 76
     1
 77
     6
 78
     2
 67
     7
 79
     5
170
     0
171
     0
290
     0
174
     0
 93
        1
 44
0.0
173
     0
291
     0
 45
0.0
1001
ACAD
1000
AcDbSavedByObjectVersion
1070
     0
  0
VISUALSTYLE
  5
1F58
102
{ACAD_XDICTIONARY
360
1FCD
102
}
102
{ACAD_REACTORS
330
1F50
102
}
330
1F50
100
AcDbVisualStyle
  2
3D Hidden
 70
     6
 71
     1
 72
     2
 73
     2
 90
        0
 40
-0.6
 41
-30.0
 62
     5
 63
     7
 74
     2
 91
        2
 64
     7
 65
   257
 75
     2
175
     1
 42
179.0
 92
        0
 66
   257
 43
1.0
 76
     1
 77
     6
 78
     2
 67
     7
 79
     3
170
     0
171
     0
290
     0
174
     0
 93
        1
 44
0.0
173
     0
291
     0
 45
0.0
1001
ACAD
1000
AcDbSavedByObjectVersion
1070
     0
  0
VISUALSTYLE
  5
1F57
102
{ACAD_XDICTIONARY
360
1FCB
102
}
102
{ACAD_REACTORS
330
1F50
102
}
330
1F50
100
AcDbVisualStyle
  2
3dWireframe
 70
     5
 71
     0
 72
     2
 73
     0
 90
        0
 40
-0.6
 41
-30.0
 62
     5
 63
     7
 74
     1
 91
        4
 64
     7
 65
   257
 75
     1
175
     1
 42
1.0
 92
        0
 66
   257
 43
1.0
 76
     1
 77
     6
 78
     2
 67
     7
 79
     5
170
     0
171
     0
290
     0
174
     0
 93
        1
 44
0.0
173
     0
291
     0
 45
0.0
1001
ACAD
1000
AcDbSavedByObjectVersion
1070
     0
  0
VISUALSTYLE
  5
1F55
102
{ACAD_XDICTIONARY
360
1FC7
102
}
102
{ACAD_REACTORS
330
1F50
102
}
330
1F50
100
AcDbVisualStyle
  2
Basic
 70
     7
 71
     1
 72
     0
 73
     1
 90
        0
 40
-0.6
 41
-30.0
 62
     5
 63
     7
 74
     0
 91
        4
 64
     7
 65
   257
 75
     1
175
     1
 42
1.0
 92
        8
 66
     7
 43
1.0
 76
     1
 77
     6
 78
     2
 67
     7
 79
     5
170
     0
171
     0
290
     0
174
     0
 93
        1
 44
0.0
173
     0
291
     1
 45
0.0
1001
ACAD
1000
AcDbSavedByObjectVersion
1070
     0
  0
VISUALSTYLE
  5
1F5C
102
{ACAD_XDICTIONARY
360
1FD5
102
}
102
{ACAD_REACTORS
330
1F50
102
}
330
1F50
100
AcDbVisualStyle
  2
Brighten
 70
    12
 71
     2
 72
     2
 73
     0
 90
        0
 40
-0.6
 41
-30.0
 62
     5
 63
     7
 74
     1
 91
        4
 64
     7
 65
   257
 75
     1
175
     1
 42
1.0
 92
        8
 66
     7
 43
1.0
 76
     1
 77
     6
 78
     2
 67
     7
 79
     5
170
     0
171
     0
290
     0
174
     0
 93
        1
 44
50.0
173
     0
291
     1
 45
0.0
1001
ACAD
1000
AcDbSavedByObjectVersion
1070
     0
  0
VISUALSTYLE
  5
1F60
102
{ACAD_XDICTIONARY
360
1FDD
102
}
102
{ACAD_REACTORS
330
1F50
102
}
330
1F50
100
AcDbVisualStyle
  2
ColorChange
 70
    16
 71
     2
 72
     2
 73
     3
 90
        0
 40
-0.6
 41
-30.0
 62
     5
 63
     8
 74
     1
 91
        4
 64
     7
 65
   257
 75
     1
175
     1
 42
1.0
 92
        8
 66
     8
 43
1.0
 76
     1
 77
     6
 78
     2
 67
     7
 79
     5
170
     0
171
     0
290
     0
174
     0
 93
        1
 44
0.0
173
     0
291
     1
 45
0.0
1001
ACAD
1000
AcDbSavedByObjectVersion
1070
     0
  0
VISUALSTYLE
  5
1F59
102
{ACAD_XDICTIONARY
360
1FCF
102
}
102
{ACAD_REACTORS
330
1F50
102
}
330
1F50
100
AcDbVisualStyle
  2
Conceptual
 70
     9
 71
     3
 72
     2
 73
     0
 90
        0
 40
-0.6
 41
-30.0
 62
     5
 63
     7
 74
     2
 91
        2
 64
     7
 65
   257
 75
     1
175
     1
 42
179.0
 92
        8
 66
     7
 43
1.0
 76
     1
 77
     6
 78
     2
 67
     7
 79
     3
170
     0
171
     0
290
     0
174
     0
 93
        1
 44
0.0
173
     0
291
     0
 45
0.0
1001
ACAD
1000
AcDbSavedByObjectVersion
1070
     0
  0
VISUALSTYLE
  5
1F5B
102
{ACAD_XDICTIONARY
360
1FD3
102
}
102
{ACAD_REACTORS
330
1F50
102
}
330
1F50
100
AcDbVisualStyle
  2
Dim
 70
    11
 71
     2
 72
     2
 73
     0
 90
        0
 40
-0.6
 41
-30.0
 62
     5
 63
     7
 74
     1
 91
        4
 64
     7
 65
   257
 75
     1
175
     1
 42
1.0
 92
        8
 66
     7
 43
1.0
 76
     1
 77
     6
 78
     2
 67
     7
 79
     5
170
     0
171
     0
290
     0
174
     0
 93
        1
 44
-50.0
173
     0
291
     1
 45
0.0
1001
ACAD
1000
AcDbSavedByObjectVersion
1070
     0
  0
VISUALSTYLE
  5
1F63
102
{ACAD_XDICTIONARY
360
1FE3
102
}
102
{ACAD_REACTORS
330
1F50
102
}
330
1F50
100
AcDbVisualStyle
  2
EdgeColorOff
 70
    22
 71
     2
 72
     2
 73
     0
 90
        0
 40
-0.6
 41
-30.0
 62
     5
 63
     7
 74
     1
 91
        4
 64
     7
 65
   257
 75
     1
175
     1
 42
1.0
 92
        8
 66
     7
 43
1.0
 76
     1
 77
     6
 78
     2
 67
     7
 79
     5
170
     0
171
     0
290
     0
174
     0
 93
        1
 44
0.0
173
     0
291
     1
 45
0.0
1001
ACAD
1000
AcDbSavedByObjectVersion
1070
     0
  0
VISUALSTYLE
  5
1F5F
102
{ACAD_XDICTIONARY
360
1FDB
102
}
102
{ACAD_REACTORS
330
1F50
102
}
330
1F50
100
AcDbVisualStyle
  2
Facepattern
 70
    15
 71
     2
 72
     2
 73
     0
 90
        0
 40
-0.6
 41
-30.0
 62
     5
 63
     7
 74
     1
 91
        4
 64
     7
 65
   257
 75
     1
175
     1
 42
1.0
 92
        8
 66
     7
 43
1.0
 76
     1
 77
     6
 78
     2
 67
     7
 79
     5
170
     0
171
     0
290
     0
174
     0
 93
        1
 44
0.0
173
     0
291
     1
 45
0.0
1001
ACAD
1000
AcDbSavedByObjectVersion
1070
     0
  0
VISUALSTYLE
  5
1F51
102
{ACAD_XDICTIONARY
360
1FBF
102
}
102
{ACAD_REACTORS
330
1F50
102
}
330
1F50
100
AcDbVisualStyle
  2
Flat
 70
     0
 71
     2
 72
     1
 73
     1
 90
        2
 40
-0.6
 41
30.0
 62
     5
 63
     7
 74
     0
 91
        4
 64
     7
 65
   257
 75
     1
175
     1
 42
1.0
 92
        8
 66
     7
 43
1.0
 76
     1
 77
     6
 78
     2
 67
     7
 79
     5
170
     0
171
     0
290
     0
174
     0
 93
       13
 44
0.0
173
     0
291
     1
 45
0.0
1001
ACAD
1000
AcDbSavedByObjectVersion
1070
     0
  0
VISUALSTYLE
  5
1F52
102
{ACAD_XDICTIONARY
360
1FC1
102
}
102
{ACAD_REACTORS
330
1F50
102
}
330
1F50
100
AcDbVisualStyle
  2
FlatWithEdges
 70
     1
 71
     2
 72
     1
 73
     1
 90
        2
 40
-0.6
 41
30.0
 62
     5
 63
     7
 74
     1
 91
        4
 64
     7
 65
   257
 75
     1
175
     1
 42
1.0
 92
        0
 66
   257
 43
1.0
 76
     1
 77
     6
 78
     2
 67
     7
 79
     5
170
     0
171
     0
290
     0
174
     0
 93
       13
 44
0.0
173
     0
291
     1
 45
0.0
1001
ACAD
1000
AcDbSavedByObjectVersion
1070
     0
  0
VISUALSTYLE
  5
1F53
102
{ACAD_XDICTIONARY
360
1FC3
102
}
102
{ACAD_REACTORS
330
1F50
102
}
330
1F50
100
AcDbVisualStyle
  2
Gouraud
 70
     2
 71
     2
 72
     2
 73
     1
 90
        2
 40
-0.6
 41
30.0
 62
     5
 63
     7
 74
     0
 91
        4
 64
     7
 65
   257
 75
     1
175
     1
 42
1.0
 92
        0
 66
     7
 43
1.0
 76
     1
 77
     6
 78
     2
 67
     7
 79
     5
170
     0
171
     0
290
     0
174
     0
 93
       13
 44
0.0
173
     0
291
     1
 45
0.0
1001
ACAD
1000
AcDbSavedByObjectVersion
1070
     0
  0
VISUALSTYLE
  5
1F54
102
{ACAD_XDICTIONARY
360
1FC5
102
}
102
{ACAD_REACTORS
330
1F50
102
}
330
1F50
100
AcDbVisualStyle
  2
GouraudWithEdges
 70
     3
 71
     2
 72
     2
 73
     1
 90
        2
 40
-0.6
 41
30.0
 62
     5
 63
     7
 74
     1
 91
        4
 64
     7
 65
   257
 75
     1
175
     1
 42
1.0
 92
        0
 66
   257
 43
1.0
 76
     1
 77
     6
 78
     2
 67
     7
 79
     5
170
     0
171
     0
290
     0
174
     0
 93
       13
 44
0.0
173
     0
291
     1
 45
0.0
1001
ACAD
1000
AcDbSavedByObjectVersion
1070
     0
  0
VISUALSTYLE
  5
1F61
102
{ACAD_XDICTIONARY
360
1FDF
102
}
102
{ACAD_REACTORS
330
1F50
102
}
330
1F50
100
AcDbVisualStyle
  2
JitterOff
 70
    20
 71
     2
 72
     2
 73
     0
 90
        0
 40
-0.6
 41
-30.0
 62
     5
 63
     7
 74
     1
 91
        4
 64
     7
 65
   257
 75
     1
175
     1
 42
1.0
 92
       10
 66
     7
 43
1.0
 76
     1
 77
     6
 78
     2
 67
     7
 79
     5
170
     0
171
     0
290
     0
174
     0
 93
        1
 44
0.0
173
     0
291
     1
 45
0.0
1001
ACAD
1000
AcDbSavedByObjectVersion
1070
     0
  0
VISUALSTYLE
  5
1F5E
102
{ACAD_XDICTIONARY
360
1FD9
102
}
102
{ACAD_REACTORS
330
1F50
102
}
330
1F50
100
AcDbVisualStyle
  2
Linepattern
 70
    14
 71
     2
 72
     2
 73
     0
 90
        0
 40
-0.6
 41
-30.0
 62
     5
 63
     7
 74
     1
 91
        4
 64
     7
 65
   257
 75
     7
175
     7
 42
1.0
 92
        8
 66
     7
 43
1.0
 76
     1
 77
     6
 78
     2
 67
     7
 79
     5
170
     0
171
     0
290
     0
174
     0
 93
        1
 44
0.0
173
     0
291
     1
 45
0.0
1001
ACAD
1000
AcDbSavedByObjectVersion
1070
     0
  0
VISUALSTYLE
  5
1F62
102
{ACAD_XDICTIONARY
360
1FE1
102
}
102
{ACAD_REACTORS
330
1F50
102
}
330
1F50
100
AcDbVisualStyle
  2
OverhangOff
 70
    21
 71
     2
 72
     2
 73
     0
 90
        0
 40
-0.6
 41
-30.0
 62
     5
 63
     7
 74
     1
 91
        4
 64
     7
 65
   257
 75
     1
175
     1
 42
1.0
 92
        9
 66
     7
 43
1.0
 76
     1
 77
     6
 78
     2
 67
     7
 79
     5
170
     0
171
     0
290
     0
174
     0
 93
        1
 44
0.0
173
     0
291
     1
 45
0.0
1001
ACAD
1000
AcDbSavedByObjectVersion
1070
     0
  0
VISUALSTYLE
  5
1F5A
102
{ACAD_XDICTIONARY
360
1FD1
102
}
102
{ACAD_REACTORS
330
1F50
102
}
330
1F50
100
AcDbVisualStyle
  2
Realistic
 70
     8
 71
     2
 72
     2
 73
     0
 90
        0
 40
-0.6
 41
-30.0
 62
     5
 63
     7
 74
     1
 91
        0
 64
     7
 65
   257
 75
     1
175
     1
 42
1.0
 92
        8
 66
     8
 43
1.0
 76
     1
 77
     6
 78
     2
 67
     7
 79
     5
170
     0
171
     0
290
     0
174
     0
 93
       13
 44
0.0
173
     0
291
     0
 45
0.0
1001
ACAD
1000
AcDbSavedByObjectVersion
1070
     0
  0
VISUALSTYLE
  5
1F5D
102
{ACAD_XDICTIONARY
360
1FD7
102
}
102
{ACAD_REACTORS
330
1F50
102
}
330
1F50
100
AcDbVisualStyle
  2
Thicken
 70
    13
 71
     2
 72
     2
 73
     0
 90
        0
 40
-0.6
 41
-30.0
 62
     5
 63
     7
 74
     1
 91
        4
 64
     7
 65
   257
 75
     1
175
     1
 42
1.0
 92
       12
 66
     7
 43
1.0
 76
     1
 77
     6
 78
     2
 67
     7
 79
     5
170
     0
171
     0
290
     0
174
     0
 93
        1
 44
0.0
173
     0
291
     1
 45
0.0
1001
ACAD
1000
AcDbSavedByObjectVersion
1070
     0
  0
DICTIONARYVAR
  5
1FA2
102
{ACAD_REACTORS
330
3D
102
}
330
3D
100
DictionaryVariables
280
     0
  1
1:1
  0
DICTIONARYVAR
  5
1FA1
102
{ACAD_REACTORS
330
3D
102
}
330
3D
100
DictionaryVariables
280
     0
  1
STANDARD
  0
DICTIONARYVAR
  5
1FA0
102
{ACAD_REACTORS
330
3D
102
}
330
3D
100
DictionaryVariables
280
     0
  1
STANDARD
  0
DICTIONARYVAR
  5
3F
102
{ACAD_REACTORS
330
3D
102
}
330
3D
100
DictionaryVariables
280
     0
  1
2
  0
DICTIONARYVAR
  5
3E
102
{ACAD_REACTORS
330
3D
102
}
330
3D
100
DictionaryVariables
280
     0
  1
1
  0
DICTIONARYVAR
  5
1FA4
102
{ACAD_REACTORS
330
3D
102
}
330
3D
100
DictionaryVariables
280
     0
  1
0
  0
DICTIONARYVAR
  5
1FA3
102
{ACAD_REACTORS
330
3D
102
}
330
3D
100
DictionaryVariables
280
     0
  1
127
  0
DICTIONARYVAR
  5
1FA5
102
{ACAD_REACTORS
330
3D
102
}
330
3D
100
DictionaryVariables
280
     0
  1
2
  0
XRECORD
  5
1E64
102
{ACAD_REACTORS
330
1E63
102
}
330
1E63
100
AcDbXrecord
280
     1
  0
DICTIONARY
  5
1FAA
330
1E
100
AcDbDictionary
280
     1
281
     1
  3
ACAD_XREC_ROUNDTRIP
360
1FAB
  0
DICTIONARY
  5
1FAE
330
26
100
AcDbDictionary
280
     1
281
     1
  3
ACAD_XREC_ROUNDTRIP
360
1FAF
  0
DICTIONARY
  5
1FAC
330
22
100
AcDbDictionary
280
     1
281
     1
  3
ACAD_XREC_ROUNDTRIP
360
1FAD
  0
DICTIONARY
  5
1F41
330
1F40
100
AcDbDictionary
280
     1
281
     1
  3
ACAD_XREC_ROUNDTRIP
360
1FBD
  3
BUMPTILE
360
1F43
  3
DIFFUSETILE
360
1F42
  3
OPACITYTILE
360
1F46
  3
REFLECTIONTILE
360
1F45
  3
REFRACTIONTILE
360
1F47
  3
SPECULARTILE
360
1F44
  0
DICTIONARY
  5
1F39
330
1F38
100
AcDbDictionary
280
     1
281
     1
  3
ACAD_XREC_ROUNDTRIP
360
1FBC
  3
BUMPTILE
360
1F3B
  3
DIFFUSETILE
360
1F3A
  3
OPACITYTILE
360
1F3E
  3
REFLECTIONTILE
360
1F3D
  3
REFRACTIONTILE
360
1F3F
  3
SPECULARTILE
360
1F3C
  0
DICTIONARY
  5
1F49
330
1F48
100
AcDbDictionary
280
     1
281
     1
  3
ACAD_XREC_ROUNDTRIP
360
1FBE
  3
BUMPTILE
360
1F4B
  3
DIFFUSETILE
360
1F4A
  3
OPACITYTILE
360
1F4E
  3
REFLECTIONTILE
360
1F4D
  3
REFRACTIONTILE
360
1F4F
  3
SPECULARTILE
360
1F4C
  0
DICTIONARY
  5
1FA6
330
1F66
100
AcDbDictionary
280
     1
281
     1
  3
ACAD_ROUNDTRIP_2008_TABLESTYLE_CELLSTYLEMAP
360
1FA7
  3
ACAD_XREC_ROUNDTRIP
360
1FE5
  0
DICTIONARY
  5
1FC9
330
1F56
100
AcDbDictionary
280
     1
281
     1
  3
ACAD_XREC_ROUNDTRIP
360
1FCA
  0
DICTIONARY
  5
1FCD
330
1F58
100
AcDbDictionary
280
     1
281
     1
  3
ACAD_XREC_ROUNDTRIP
360
1FCE
  0
DICTIONARY
  5
1FCB
330
1F57
100
AcDbDictionary
280
     1
281
     1
  3
ACAD_XREC_ROUNDTRIP
360
1FCC
  0
DICTIONARY
  5
1FC7
330
1F55
100
AcDbDictionary
280
     1
281
     1
  3
ACAD_XREC_ROUNDTRIP
360
1FC8
  0
DICTIONARY
  5
1FD5
330
1F5C
100
AcDbDictionary
280
     1
281
     1
  3
ACAD_XREC_ROUNDTRIP
360
1FD6
  0
DICTIONARY
  5
1FDD
330
1F60
100
AcDbDictionary
280
     1
281
     1
  3
ACAD_XREC_ROUNDTRIP
360
1FDE
  0
DICTIONARY
  5
1FCF
330
1F59
100
AcDbDictionary
280
     1
281
     1
  3
ACAD_XREC_ROUNDTRIP
360
1FD0
  0
DICTIONARY
  5
1FD3
330
1F5B
100
AcDbDictionary
280
     1
281
     1
  3
ACAD_XREC_ROUNDTRIP
360
1FD4
  0
DICTIONARY
  5
1FE3
330
1F63
100
AcDbDictionary
280
     1
281
     1
  3
ACAD_XREC_ROUNDTRIP
360
1FE4
  0
DICTIONARY
  5
1FDB
330
1F5F
100
AcDbDictionary
280
     1
281
     1
  3
ACAD_XREC_ROUNDTRIP
360
1FDC
  0
DICTIONARY
  5
1FBF
330
1F51
100
AcDbDictionary
280
     1
281
     1
  3
ACAD_XREC_ROUNDTRIP
360
1FC0
  0
DICTIONARY
  5
1FC1
330
1F52
100
AcDbDictionary
280
     1
281
     1
  3
ACAD_XREC_ROUNDTRIP
360
1FC2
  0
DICTIONARY
  5
1FC3
330
1F53
100
AcDbDictionary
280
     1
281
     1
  3
ACAD_XREC_ROUNDTRIP
360
1FC4
  0
DICTIONARY
  5
1FC5
330
1F54
100
AcDbDictionary
280
     1
281
     1
  3
ACAD_XREC_ROUNDTRIP
360
1FC6
  0
DICTIONARY
  5
1FDF
330
1F61
100
AcDbDictionary
280
     1
281
     1
  3
ACAD_XREC_ROUNDTRIP
360
1FE0
  0
DICTIONARY
  5
1FD9
330
1F5E
100
AcDbDictionary
280
     1
281
     1
  3
ACAD_XREC_ROUNDTRIP
360
1FDA
  0
DICTIONARY
  5
1FE1
330
1F62
100
AcDbDictionary
280
     1
281
     1
  3
ACAD_XREC_ROUNDTRIP
360
1FE2
  0
DICTIONARY
  5
1FD1
330
1F5A
100
AcDbDictionary
280
     1
281
     1
  3
ACAD_XREC_ROUNDTRIP
360
1FD2
  0
DICTIONARY
  5
1FD7
330
1F5D
100
AcDbDictionary
280
     1
281
     1
  3
ACAD_XREC_ROUNDTRIP
360
1FD8
  0
XRECORD
  5
1FAB
102
{ACAD_REACTORS
330
1FAA
102
}
330
1FAA
100
AcDbXrecord
280
     1
102
SHADEPLOT
 70
     0
102
SHADEPLOTRESLEVEL
 70
     2
102
SHADEPLOTCUSTOMDPI
 70
   300
  0
XRECORD
  5
1FAF
102
{ACAD_REACTORS
330
1FAE
102
}
330
1FAE
100
AcDbXrecord
280
     1
102
SHADEPLOT
 70
     0
102
SHADEPLOTRESLEVEL
 70
     2
102
SHADEPLOTCUSTOMDPI
 70
   300
  0
XRECORD
  5
1FAD
102
{ACAD_REACTORS
330
1FAC
102
}
330
1FAC
100
AcDbXrecord
280
     1
102
SHADEPLOT
 70
     0
102
SHADEPLOTRESLEVEL
 70
     2
102
SHADEPLOTCUSTOMDPI
 70
   300
  0
XRECORD
  5
1FBD
102
{ACAD_REACTORS
330
1F41
102
}
330
1F41
100
AcDbXrecord
280
     1
102
MATERIAL
148
0.0
149
0.0
149
0.0
 93
        0
 94
      127
282
     0
 72
     0
 77
     0
171
     0
175
     0
179
     0
273
     0
  0
XRECORD
  5
1F43
102
{ACAD_REACTORS
330
1F41
102
}
330
1F41
100
AcDbXrecord
280
     1
270
     1
271
     1
  0
XRECORD
  5
1F42
102
{ACAD_REACTORS
330
1F41
102
}
330
1F41
100
AcDbXrecord
280
     1
270
     1
271
     1
  0
XRECORD
  5
1F46
102
{ACAD_REACTORS
330
1F41
102
}
330
1F41
100
AcDbXrecord
280
     1
270
     1
271
     1
  0
XRECORD
  5
1F45
102
{ACAD_REACTORS
330
1F41
102
}
330
1F41
100
AcDbXrecord
280
     1
270
     1
271
     1
  0
XRECORD
  5
1F47
102
{ACAD_REACTORS
330
1F41
102
}
330
1F41
100
AcDbXrecord
280
     1
270
     1
271
     1
  0
XRECORD
  5
1F44
102
{ACAD_REACTORS
330
1F41
102
}
330
1F41
100
AcDbXrecord
280
     1
270
     1
271
     1
  0
XRECORD
  5
1FBC
102
{ACAD_REACTORS
330
1F39
102
}
330
1F39
100
AcDbXrecord
280
     1
102
MATERIAL
148
0.0
149
0.0
149
0.0
 93
        0
 94
      127
282
     0
 72
     0
 77
     0
171
     0
175
     0
179
     0
273
     0
  0
XRECORD
  5
1F3B
102
{ACAD_REACTORS
330
1F39
102
}
330
1F39
100
AcDbXrecord
280
     1
270
     1
271
     1
  0
XRECORD
  5
1F3A
102
{ACAD_REACTORS
330
1F39
102
}
330
1F39
100
AcDbXrecord
280
     1
270
     1
271
     1
  0
XRECORD
  5
1F3E
102
{ACAD_REACTORS
330
1F39
102
}
330
1F39
100
AcDbXrecord
280
     1
270
     1
271
     1
  0
XRECORD
  5
1F3D
102
{ACAD_REACTORS
330
1F39
102
}
330
1F39
100
AcDbXrecord
280
     1
270
     1
271
     1
  0
XRECORD
  5
1F3F
102
{ACAD_REACTORS
330
1F39
102
}
330
1F39
100
AcDbXrecord
280
     1
270
     1
271
     1
  0
XRECORD
  5
1F3C
102
{ACAD_REACTORS
330
1F39
102
}
330
1F39
100
AcDbXrecord
280
     1
270
     1
271
     1
  0
XRECORD
  5
1FBE
102
{ACAD_REACTORS
330
1F49
102
}
330
1F49
100
AcDbXrecord
280
     1
102
MATERIAL
148
0.0
149
0.0
149
0.0
 93
        0
 94
      127
282
     0
 72
     0
 77
     0
171
     0
175
     0
179
     0
273
     0
  0
XRECORD
  5
1F4B
102
{ACAD_REACTORS
330
1F49
102
}
330
1F49
100
AcDbXrecord
280
     1
270
     1
271
     1
  0
XRECORD
  5
1F4A
102
{ACAD_REACTORS
330
1F49
102
}
330
1F49
100
AcDbXrecord
280
     1
270
     1
271
     1
  0
XRECORD
  5
1F4E
102
{ACAD_REACTORS
330
1F49
102
}
330
1F49
100
AcDbXrecord
280
     1
270
     1
271
     1
  0
XRECORD
  5
1F4D
102
{ACAD_REACTORS
330
1F49
102
}
330
1F49
100
AcDbXrecord
280
     1
270
     1
271
     1
  0
XRECORD
  5
1F4F
102
{ACAD_REACTORS
330
1F49
102
}
330
1F49
100
AcDbXrecord
280
     1
270
     1
271
     1
  0
XRECORD
  5
1F4C
102
{ACAD_REACTORS
330
1F49
102
}
330
1F49
100
AcDbXrecord
280
     1
270
     1
271
     1
  0
CELLSTYLEMAP
  5
1FA7
102
{ACAD_REACTORS
330
1FA6
102
}
330
1FA6
100
AcDbCellStyleMap
 90
        3
300
CELLSTYLE
  1
TABLEFORMAT_BEGIN
 90
        5
170
     1
 91
        0
 92
    32768
 62
   257
 93
        1
300
CONTENTFORMAT
  1
CONTENTFORMAT_BEGIN
 90
        0
 91
        0
 92
      512
 93
        0
300

 40
0.0
140
1.0
 94
        5
 62
     0
340
11
144
6.0
309
CONTENTFORMAT_END
171
     1
301
MARGIN
  1
CELLMARGIN_BEGIN
 40
1.5
 40
1.5
 40
1.5
 40
1.5
 40
4.5
 40
4.5
309
CELLMARGIN_END
 94
        6
 95
        1
302
GRIDFORMAT
  1
GRIDFORMAT_BEGIN
 90
        0
 91
        1
 62
     0
 92
       -2
340
0
 93
        0
 40
1.125
309
GRIDFORMAT_END
 95
        2
302
GRIDFORMAT
  1
GRIDFORMAT_BEGIN
 90
        0
 91
        1
 62
     0
 92
       -2
340
0
 93
        0
 40
1.125
309
GRIDFORMAT_END
 95
        4
302
GRIDFORMAT
  1
GRIDFORMAT_BEGIN
 90
        0
 91
        1
 62
     0
 92
       -2
340
0
 93
        0
 40
1.125
309
GRIDFORMAT_END
 95
        8
302
GRIDFORMAT
  1
GRIDFORMAT_BEGIN
 90
        0
 91
        1
 62
     0
 92
       -2
340
0
 93
        0
 40
1.125
309
GRIDFORMAT_END
 95
       16
302
GRIDFORMAT
  1
GRIDFORMAT_BEGIN
 90
        0
 91
        1
 62
     0
 92
       -2
340
0
 93
        0
 40
1.125
309
GRIDFORMAT_END
 95
       32
302
GRIDFORMAT
  1
GRIDFORMAT_BEGIN
 90
        0
 91
        1
 62
     0
 92
       -2
340
0
 93
        0
 40
1.125
309
GRIDFORMAT_END
309
TABLEFORMAT_END
  1
CELLSTYLE_BEGIN
 90
        1
 91
        1
300
_TITLE
309
CELLSTYLE_END
300
CELLSTYLE
  1
TABLEFORMAT_BEGIN
 90
        5
170
     1
 91
        0
 92
        0
 62
   257
 93
        1
300
CONTENTFORMAT
  1
CONTENTFORMAT_BEGIN
 90
        0
 91
        0
 92
      512
 93
        0
300

 40
0.0
140
1.0
 94
        5
 62
     0
340
11
144
4.5
309
CONTENTFORMAT_END
171
     1
301
MARGIN
  1
CELLMARGIN_BEGIN
 40
1.5
 40
1.5
 40
1.5
 40
1.5
 40
4.5
 40
4.5
309
CELLMARGIN_END
 94
        6
 95
        1
302
GRIDFORMAT
  1
GRIDFORMAT_BEGIN
 90
        0
 91
        1
 62
     0
 92
       -2
340
0
 93
        0
 40
1.125
309
GRIDFORMAT_END
 95
        2
302
GRIDFORMAT
  1
GRIDFORMAT_BEGIN
 90
        0
 91
        1
 62
     0
 92
       -2
340
0
 93
        0
 40
1.125
309
GRIDFORMAT_END
 95
        4
302
GRIDFORMAT
  1
GRIDFORMAT_BEGIN
 90
        0
 91
        1
 62
     0
 92
       -2
340
0
 93
        0
 40
1.125
309
GRIDFORMAT_END
 95
        8
302
GRIDFORMAT
  1
GRIDFORMAT_BEGIN
 90
        0
 91
        1
 62
     0
 92
       -2
340
0
 93
        0
 40
1.125
309
GRIDFORMAT_END
 95
       16
302
GRIDFORMAT
  1
GRIDFORMAT_BEGIN
 90
        0
 91
        1
 62
     0
 92
       -2
340
0
 93
        0
 40
1.125
309
GRIDFORMAT_END
 95
       32
302
GRIDFORMAT
  1
GRIDFORMAT_BEGIN
 90
        0
 91
        1
 62
     0
 92
       -2
340
0
 93
        0
 40
1.125
309
GRIDFORMAT_END
309
TABLEFORMAT_END
  1
CELLSTYLE_BEGIN
 90
        2
 91
        1
300
_HEADER
309
CELLSTYLE_END
300
CELLSTYLE
  1
TABLEFORMAT_BEGIN
 90
        5
170
     1
 91
        0
 92
        0
 62
   257
 93
        1
300
CONTENTFORMAT
  1
CONTENTFORMAT_BEGIN
 90
        0
 91
        0
 92
      512
 93
        0
300

 40
0.0
140
1.0
 94
        2
 62
     0
340
11
144
4.5
309
CONTENTFORMAT_END
171
     1
301
MARGIN
  1
CELLMARGIN_BEGIN
 40
1.5
 40
1.5
 40
1.5
 40
1.5
 40
4.5
 40
4.5
309
CELLMARGIN_END
 94
        6
 95
        1
302
GRIDFORMAT
  1
GRIDFORMAT_BEGIN
 90
        0
 91
        1
 62
     0
 92
       -2
340
0
 93
        0
 40
1.125
309
GRIDFORMAT_END
 95
        2
302
GRIDFORMAT
  1
GRIDFORMAT_BEGIN
 90
        0
 91
        1
 62
     0
 92
       -2
340
0
 93
        0
 40
1.125
309
GRIDFORMAT_END
 95
        4
302
GRIDFORMAT
  1
GRIDFORMAT_BEGIN
 90
        0
 91
        1
 62
     0
 92
       -2
340
0
 93
        0
 40
1.125
309
GRIDFORMAT_END
 95
        8
302
GRIDFORMAT
  1
GRIDFORMAT_BEGIN
 90
        0
 91
        1
 62
     0
 92
       -2
340
0
 93
        0
 40
1.125
309
GRIDFORMAT_END
 95
       16
302
GRIDFORMAT
  1
GRIDFORMAT_BEGIN
 90
        0
 91
        1
 62
     0
 92
       -2
340
0
 93
        0
 40
1.125
309
GRIDFORMAT_END
 95
       32
302
GRIDFORMAT
  1
GRIDFORMAT_BEGIN
 90
        0
 91
        1
 62
     0
 92
       -2
340
0
 93
        0
 40
1.125
309
GRIDFORMAT_END
309
TABLEFORMAT_END
  1
CELLSTYLE_BEGIN
 90
        3
 91
        2
300
_DATA
309
CELLSTYLE_END
  0
XRECORD
  5
1FE5
102
{ACAD_REACTORS
330
1FA6
102
}
330
1FA6
100
AcDbXrecord
280
     1
102
ACAD_ROUNDTRIP_PRE2007_TABLESTYLE
 90
      512
 91
        0
  1

 92
      512
 93
        0
  2

 94
      512
 95
        0
  3

  0
XRECORD
  5
1FCA
102
{ACAD_REACTORS
330
1FC9
102
}
330
1FC9
100
AcDbXrecord
280
     1
102
RTVSPropertyOp0
 70
     1
102
RTVSPropertyOp1
 70
     1
102
RTVSPropertyOp2
 70
     1
102
RTVSPropertyOp3
 70
     1
102
RTVSPropertyOp4
 70
     1
102
RTVSPropertyOp5
 70
     1
102
RTVSPropertyOp6
 70
     1
102
RTVSPropertyOp7
 70
     1
102
RTVSPropertyOp8
 70
     1
102
RTVSPropertyOp9
 70
     1
102
RTVSPropertyOp10
 70
     1
102
RTVSPropertyOp11
 70
     1
102
RTVSPropertyOp12
 70
     1
102
RTVSPropertyOp13
 70
     1
102
RTVSPropertyOp14
 70
     1
102
RTVSPropertyOp15
 70
     1
102
RTVSPropertyOp16
 70
     1
102
RTVSPropertyOp17
 70
     1
102
RTVSPropertyOp18
 70
     1
102
RTVSPropertyOp19
 70
     1
102
RTVSPropertyOp20
 70
     1
102
RTVSPropertyOp21
 70
     1
102
RTVSPropertyOp22
 70
     1
102
RTVSPropertyOp23
 70
     1
102
RTVSPropertyOp24
 70
     1
102
RTVSPropertyOp25
 70
     1
102
RTVSPropertyOp26
 70
     1
102
RTVSPropertyOp27
 70
     1
  0
XRECORD
  5
1FCE
102
{ACAD_REACTORS
330
1FCD
102
}
330
1FCD
100
AcDbXrecord
280
     1
102
RTVSPropertyOp0
 70
     1
102
RTVSPropertyOp1
 70
     1
102
RTVSPropertyOp2
 70
     1
102
RTVSPropertyOp3
 70
     1
102
RTVSPropertyOp4
 70
     1
102
RTVSPropertyOp5
 70
     1
102
RTVSPropertyOp6
 70
     1
102
RTVSPropertyOp7
 70
     1
102
RTVSPropertyOp8
 70
     1
102
RTVSPropertyOp9
 70
     1
102
RTVSPropertyOp10
 70
     1
102
RTVSPropertyOp11
 70
     1
102
RTVSPropertyOp12
 70
     1
102
RTVSPropertyOp13
 70
     1
102
RTVSPropertyOp14
 70
     1
102
RTVSPropertyOp15
 70
     1
102
RTVSPropertyOp16
 70
     1
102
RTVSPropertyOp17
 70
     1
102
RTVSPropertyOp18
 70
     1
102
RTVSPropertyOp19
 70
     1
102
RTVSPropertyOp20
 70
     1
102
RTVSPropertyOp21
 70
     1
102
RTVSPropertyOp22
 70
     1
102
RTVSPropertyOp23
 70
     1
102
RTVSPropertyOp24
 70
     1
102
RTVSPropertyOp25
 70
     1
102
RTVSPropertyOp26
 70
     1
102
RTVSPropertyOp27
 70
     1
  0
XRECORD
  5
1FCC
102
{ACAD_REACTORS
330
1FCB
102
}
330
1FCB
100
AcDbXrecord
280
     1
102
RTVSPropertyOp0
 70
     1
102
RTVSPropertyOp1
 70
     1
102
RTVSPropertyOp2
 70
     1
102
RTVSPropertyOp3
 70
     1
102
RTVSPropertyOp4
 70
     1
102
RTVSPropertyOp5
 70
     1
102
RTVSPropertyOp6
 70
     1
102
RTVSPropertyOp7
 70
     1
102
RTVSPropertyOp8
 70
     1
102
RTVSPropertyOp9
 70
     1
102
RTVSPropertyOp10
 70
     1
102
RTVSPropertyOp11
 70
     1
102
RTVSPropertyOp12
 70
     1
102
RTVSPropertyOp13
 70
     1
102
RTVSPropertyOp14
 70
     1
102
RTVSPropertyOp15
 70
     1
102
RTVSPropertyOp16
 70
     1
102
RTVSPropertyOp17
 70
     1
102
RTVSPropertyOp18
 70
     1
102
RTVSPropertyOp19
 70
     1
102
RTVSPropertyOp20
 70
     1
102
RTVSPropertyOp21
 70
     1
102
RTVSPropertyOp22
 70
     1
102
RTVSPropertyOp23
 70
     1
102
RTVSPropertyOp24
 70
     1
102
RTVSPropertyOp25
 70
     1
102
RTVSPropertyOp26
 70
     1
102
RTVSPropertyOp27
 70
     1
  0
XRECORD
  5
1FC8
102
{ACAD_REACTORS
330
1FC7
102
}
330
1FC7
100
AcDbXrecord
280
     1
102
RTVSPropertyOp0
 70
     1
102
RTVSPropertyOp1
 70
     1
102
RTVSPropertyOp2
 70
     1
102
RTVSPropertyOp3
 70
     1
102
RTVSPropertyOp4
 70
     1
102
RTVSPropertyOp5
 70
     1
102
RTVSPropertyOp6
 70
     1
102
RTVSPropertyOp7
 70
     1
102
RTVSPropertyOp8
 70
     1
102
RTVSPropertyOp9
 70
     1
102
RTVSPropertyOp10
 70
     1
102
RTVSPropertyOp11
 70
     1
102
RTVSPropertyOp12
 70
     1
102
RTVSPropertyOp13
 70
     1
102
RTVSPropertyOp14
 70
     1
102
RTVSPropertyOp15
 70
     1
102
RTVSPropertyOp16
 70
     1
102
RTVSPropertyOp17
 70
     1
102
RTVSPropertyOp18
 70
     1
102
RTVSPropertyOp19
 70
     1
102
RTVSPropertyOp20
 70
     1
102
RTVSPropertyOp21
 70
     1
102
RTVSPropertyOp22
 70
     1
102
RTVSPropertyOp23
 70
     1
102
RTVSPropertyOp24
 70
     1
102
RTVSPropertyOp25
 70
     1
102
RTVSPropertyOp26
 70
     1
102
RTVSPropertyOp27
 70
     1
  0
XRECORD
  5
1FD6
102
{ACAD_REACTORS
330
1FD5
102
}
330
1FD5
100
AcDbXrecord
280
     1
102
RTVSPropertyOp0
 70
     1
102
RTVSPropertyOp1
 70
     1
102
RTVSPropertyOp2
 70
     1
102
RTVSPropertyOp3
 70
     1
102
RTVSPropertyOp4
 70
     1
102
RTVSPropertyOp5
 70
     1
102
RTVSPropertyOp6
 70
     1
102
RTVSPropertyOp7
 70
     1
102
RTVSPropertyOp8
 70
     1
102
RTVSPropertyOp9
 70
     1
102
RTVSPropertyOp10
 70
     1
102
RTVSPropertyOp11
 70
     1
102
RTVSPropertyOp12
 70
     1
102
RTVSPropertyOp13
 70
     1
102
RTVSPropertyOp14
 70
     1
102
RTVSPropertyOp15
 70
     1
102
RTVSPropertyOp16
 70
     1
102
RTVSPropertyOp17
 70
     1
102
RTVSPropertyOp18
 70
     1
102
RTVSPropertyOp19
 70
     1
102
RTVSPropertyOp20
 70
     1
102
RTVSPropertyOp21
 70
     1
102
RTVSPropertyOp22
 70
     1
102
RTVSPropertyOp23
 70
     1
102
RTVSPropertyOp24
 70
     1
102
RTVSPropertyOp25
 70
     1
102
RTVSPropertyOp26
 70
     1
102
RTVSPropertyOp27
 70
     1
  0
XRECORD
  5
1FDE
102
{ACAD_REACTORS
330
1FDD
102
}
330
1FDD
100
AcDbXrecord
280
     1
102
RTVSPropertyOp0
 70
     1
102
RTVSPropertyOp1
 70
     1
102
RTVSPropertyOp2
 70
     1
102
RTVSPropertyOp3
 70
     1
102
RTVSPropertyOp4
 70
     1
102
RTVSPropertyOp5
 70
     1
102
RTVSPropertyOp6
 70
     1
102
RTVSPropertyOp7
 70
     1
102
RTVSPropertyOp8
 70
     1
102
RTVSPropertyOp9
 70
     1
102
RTVSPropertyOp10
 70
     1
102
RTVSPropertyOp11
 70
     1
102
RTVSPropertyOp12
 70
     1
102
RTVSPropertyOp13
 70
     1
102
RTVSPropertyOp14
 70
     1
102
RTVSPropertyOp15
 70
     1
102
RTVSPropertyOp16
 70
     1
102
RTVSPropertyOp17
 70
     1
102
RTVSPropertyOp18
 70
     1
102
RTVSPropertyOp19
 70
     1
102
RTVSPropertyOp20
 70
     1
102
RTVSPropertyOp21
 70
     1
102
RTVSPropertyOp22
 70
     1
102
RTVSPropertyOp23
 70
     1
102
RTVSPropertyOp24
 70
     1
102
RTVSPropertyOp25
 70
     1
102
RTVSPropertyOp26
 70
     1
102
RTVSPropertyOp27
 70
     1
  0
XRECORD
  5
1FD0
102
{ACAD_REACTORS
330
1FCF
102
}
330
1FCF
100
AcDbXrecord
280
     1
102
RTVSPropertyOp0
 70
     1
102
RTVSPropertyOp1
 70
     1
102
RTVSPropertyOp2
 70
     1
102
RTVSPropertyOp3
 70
     1
102
RTVSPropertyOp4
 70
     1
102
RTVSPropertyOp5
 70
     1
102
RTVSPropertyOp6
 70
     1
102
RTVSPropertyOp7
 70
     1
102
RTVSPropertyOp8
 70
     1
102
RTVSPropertyOp9
 70
     1
102
RTVSPropertyOp10
 70
     1
102
RTVSPropertyOp11
 70
     1
102
RTVSPropertyOp12
 70
     1
102
RTVSPropertyOp13
 70
     1
102
RTVSPropertyOp14
 70
     1
102
RTVSPropertyOp15
 70
     1
102
RTVSPropertyOp16
 70
     1
102
RTVSPropertyOp17
 70
     1
102
RTVSPropertyOp18
 70
     1
102
RTVSPropertyOp19
 70
     1
102
RTVSPropertyOp20
 70
     1
102
RTVSPropertyOp21
 70
     1
102
RTVSPropertyOp22
 70
     1
102
RTVSPropertyOp23
 70
     1
102
RTVSPropertyOp24
 70
     1
102
RTVSPropertyOp25
 70
     1
102
RTVSPropertyOp26
 70
     1
102
RTVSPropertyOp27
 70
     1
  0
XRECORD
  5
1FD4
102
{ACAD_REACTORS
330
1FD3
102
}
330
1FD3
100
AcDbXrecord
280
     1
102
RTVSPropertyOp0
 70
     1
102
RTVSPropertyOp1
 70
     1
102
RTVSPropertyOp2
 70
     1
102
RTVSPropertyOp3
 70
     1
102
RTVSPropertyOp4
 70
     1
102
RTVSPropertyOp5
 70
     1
102
RTVSPropertyOp6
 70
     1
102
RTVSPropertyOp7
 70
     1
102
RTVSPropertyOp8
 70
     1
102
RTVSPropertyOp9
 70
     1
102
RTVSPropertyOp10
 70
     1
102
RTVSPropertyOp11
 70
     1
102
RTVSPropertyOp12
 70
     1
102
RTVSPropertyOp13
 70
     1
102
RTVSPropertyOp14
 70
     1
102
RTVSPropertyOp15
 70
     1
102
RTVSPropertyOp16
 70
     1
102
RTVSPropertyOp17
 70
     1
102
RTVSPropertyOp18
 70
     1
102
RTVSPropertyOp19
 70
     1
102
RTVSPropertyOp20
 70
     1
102
RTVSPropertyOp21
 70
     1
102
RTVSPropertyOp22
 70
     1
102
RTVSPropertyOp23
 70
     1
102
RTVSPropertyOp24
 70
     1
102
RTVSPropertyOp25
 70
     1
102
RTVSPropertyOp26
 70
     1
102
RTVSPropertyOp27
 70
     1
  0
XRECORD
  5
1FE4
102
{ACAD_REACTORS
330
1FE3
102
}
330
1FE3
100
AcDbXrecord
280
     1
102
RTVSPropertyOp0
 70
     0
102
RTVSPropertyOp1
 70
     0
102
RTVSPropertyOp2
 70
     0
102
RTVSPropertyOp3
 70
     0
102
RTVSPropertyOp4
 70
     0
102
RTVSPropertyOp5
 70
     0
102
RTVSPropertyOp6
 70
     0
102
RTVSPropertyOp7
 70
     0
102
RTVSPropertyOp8
 70
     0
102
RTVSPropertyOp9
 70
     0
102
RTVSPropertyOp10
 70
     0
102
RTVSPropertyOp11
 70
     0
102
RTVSPropertyOp12
 70
     0
102
RTVSPropertyOp13
 70
     0
102
RTVSPropertyOp14
 70
     2
102
RTVSPropertyOp15
 70
     0
102
RTVSPropertyOp16
 70
     0
102
RTVSPropertyOp17
 70
     0
102
RTVSPropertyOp18
 70
     0
102
RTVSPropertyOp19
 70
     0
102
RTVSPropertyOp20
 70
     0
102
RTVSPropertyOp21
 70
     0
102
RTVSPropertyOp22
 70
     0
102
RTVSPropertyOp23
 70
     0
102
RTVSPropertyOp24
 70
     0
102
RTVSPropertyOp25
 70
     0
102
RTVSPropertyOp26
 70
     0
102
RTVSPropertyOp27
 70
     0
  0
XRECORD
  5
1FDC
102
{ACAD_REACTORS
330
1FDB
102
}
330
1FDB
100
AcDbXrecord
280
     1
102
RTVSPropertyOp0
 70
     1
102
RTVSPropertyOp1
 70
     1
102
RTVSPropertyOp2
 70
     1
102
RTVSPropertyOp3
 70
     1
102
RTVSPropertyOp4
 70
     1
102
RTVSPropertyOp5
 70
     1
102
RTVSPropertyOp6
 70
     1
102
RTVSPropertyOp7
 70
     1
102
RTVSPropertyOp8
 70
     1
102
RTVSPropertyOp9
 70
     1
102
RTVSPropertyOp10
 70
     1
102
RTVSPropertyOp11
 70
     1
102
RTVSPropertyOp12
 70
     1
102
RTVSPropertyOp13
 70
     1
102
RTVSPropertyOp14
 70
     1
102
RTVSPropertyOp15
 70
     1
102
RTVSPropertyOp16
 70
     1
102
RTVSPropertyOp17
 70
     1
102
RTVSPropertyOp18
 70
     1
102
RTVSPropertyOp19
 70
     1
102
RTVSPropertyOp20
 70
     1
102
RTVSPropertyOp21
 70
     1
102
RTVSPropertyOp22
 70
     1
102
RTVSPropertyOp23
 70
     1
102
RTVSPropertyOp24
 70
     1
102
RTVSPropertyOp25
 70
     1
102
RTVSPropertyOp26
 70
     1
102
RTVSPropertyOp27
 70
     1
  0
XRECORD
  5
1FC0
102
{ACAD_REACTORS
330
1FBF
102
}
330
1FBF
100
AcDbXrecord
280
     1
102
RTVSPropertyOp0
 70
     1
102
RTVSPropertyOp1
 70
     1
102
RTVSPropertyOp2
 70
     1
102
RTVSPropertyOp3
 70
     1
102
RTVSPropertyOp4
 70
     1
102
RTVSPropertyOp5
 70
     1
102
RTVSPropertyOp6
 70
     1
102
RTVSPropertyOp7
 70
     1
102
RTVSPropertyOp8
 70
     1
102
RTVSPropertyOp9
 70
     1
102
RTVSPropertyOp10
 70
     1
102
RTVSPropertyOp11
 70
     1
102
RTVSPropertyOp12
 70
     1
102
RTVSPropertyOp13
 70
     1
102
RTVSPropertyOp14
 70
     1
102
RTVSPropertyOp15
 70
     1
102
RTVSPropertyOp16
 70
     1
102
RTVSPropertyOp17
 70
     1
102
RTVSPropertyOp18
 70
     1
102
RTVSPropertyOp19
 70
     1
102
RTVSPropertyOp20
 70
     1
102
RTVSPropertyOp21
 70
     1
102
RTVSPropertyOp22
 70
     1
102
RTVSPropertyOp23
 70
     1
102
RTVSPropertyOp24
 70
     1
102
RTVSPropertyOp25
 70
     1
102
RTVSPropertyOp26
 70
     1
102
RTVSPropertyOp27
 70
     1
  0
XRECORD
  5
1FC2
102
{ACAD_REACTORS
330
1FC1
102
}
330
1FC1
100
AcDbXrecord
280
     1
102
RTVSPropertyOp0
 70
     1
102
RTVSPropertyOp1
 70
     1
102
RTVSPropertyOp2
 70
     1
102
RTVSPropertyOp3
 70
     1
102
RTVSPropertyOp4
 70
     1
102
RTVSPropertyOp5
 70
     1
102
RTVSPropertyOp6
 70
     1
102
RTVSPropertyOp7
 70
     1
102
RTVSPropertyOp8
 70
     1
102
RTVSPropertyOp9
 70
     1
102
RTVSPropertyOp10
 70
     1
102
RTVSPropertyOp11
 70
     1
102
RTVSPropertyOp12
 70
     1
102
RTVSPropertyOp13
 70
     1
102
RTVSPropertyOp14
 70
     1
102
RTVSPropertyOp15
 70
     1
102
RTVSPropertyOp16
 70
     1
102
RTVSPropertyOp17
 70
     1
102
RTVSPropertyOp18
 70
     1
102
RTVSPropertyOp19
 70
     1
102
RTVSPropertyOp20
 70
     1
102
RTVSPropertyOp21
 70
     1
102
RTVSPropertyOp22
 70
     1
102
RTVSPropertyOp23
 70
     1
102
RTVSPropertyOp24
 70
     1
102
RTVSPropertyOp25
 70
     1
102
RTVSPropertyOp26
 70
     1
102
RTVSPropertyOp27
 70
     1
  0
XRECORD
  5
1FC4
102
{ACAD_REACTORS
330
1FC3
102
}
330
1FC3
100
AcDbXrecord
280
     1
102
RTVSPropertyOp0
 70
     1
102
RTVSPropertyOp1
 70
     1
102
RTVSPropertyOp2
 70
     1
102
RTVSPropertyOp3
 70
     1
102
RTVSPropertyOp4
 70
     1
102
RTVSPropertyOp5
 70
     1
102
RTVSPropertyOp6
 70
     1
102
RTVSPropertyOp7
 70
     1
102
RTVSPropertyOp8
 70
     1
102
RTVSPropertyOp9
 70
     1
102
RTVSPropertyOp10
 70
     1
102
RTVSPropertyOp11
 70
     1
102
RTVSPropertyOp12
 70
     1
102
RTVSPropertyOp13
 70
     1
102
RTVSPropertyOp14
 70
     1
102
RTVSPropertyOp15
 70
     1
102
RTVSPropertyOp16
 70
     1
102
RTVSPropertyOp17
 70
     1
102
RTVSPropertyOp18
 70
     1
102
RTVSPropertyOp19
 70
     1
102
RTVSPropertyOp20
 70
     1
102
RTVSPropertyOp21
 70
     1
102
RTVSPropertyOp22
 70
     1
102
RTVSPropertyOp23
 70
     1
102
RTVSPropertyOp24
 70
     1
102
RTVSPropertyOp25
 70
     1
102
RTVSPropertyOp26
 70
     1
102
RTVSPropertyOp27
 70
     1
  0
XRECORD
  5
1FC6
102
{ACAD_REACTORS
330
1FC5
102
}
330
1FC5
100
AcDbXrecord
280
     1
102
RTVSPropertyOp0
 70
     1
102
RTVSPropertyOp1
 70
     1
102
RTVSPropertyOp2
 70
     1
102
RTVSPropertyOp3
 70
     1
102
RTVSPropertyOp4
 70
     1
102
RTVSPropertyOp5
 70
     1
102
RTVSPropertyOp6
 70
     1
102
RTVSPropertyOp7
 70
     1
102
RTVSPropertyOp8
 70
     1
102
RTVSPropertyOp9
 70
     1
102
RTVSPropertyOp10
 70
     1
102
RTVSPropertyOp11
 70
     1
102
RTVSPropertyOp12
 70
     1
102
RTVSPropertyOp13
 70
     1
102
RTVSPropertyOp14
 70
     1
102
RTVSPropertyOp15
 70
     1
102
RTVSPropertyOp16
 70
     1
102
RTVSPropertyOp17
 70
     1
102
RTVSPropertyOp18
 70
     1
102
RTVSPropertyOp19
 70
     1
102
RTVSPropertyOp20
 70
     1
102
RTVSPropertyOp21
 70
     1
102
RTVSPropertyOp22
 70
     1
102
RTVSPropertyOp23
 70
     1
102
RTVSPropertyOp24
 70
     1
102
RTVSPropertyOp25
 70
     1
102
RTVSPropertyOp26
 70
     1
102
RTVSPropertyOp27
 70
     1
  0
XRECORD
  5
1FE0
102
{ACAD_REACTORS
330
1FDF
102
}
330
1FDF
100
AcDbXrecord
280
     1
102
RTVSPropertyOp0
 70
     0
102
RTVSPropertyOp1
 70
     0
102
RTVSPropertyOp2
 70
     0
102
RTVSPropertyOp3
 70
     0
102
RTVSPropertyOp4
 70
     0
102
RTVSPropertyOp5
 70
     0
102
RTVSPropertyOp6
 70
     0
102
RTVSPropertyOp7
 70
     0
102
RTVSPropertyOp8
 70
     0
102
RTVSPropertyOp9
 70
     0
102
RTVSPropertyOp10
 70
     0
102
RTVSPropertyOp11
 70
     0
102
RTVSPropertyOp12
 70
     0
102
RTVSPropertyOp13
 70
     0
102
RTVSPropertyOp14
 70
     2
102
RTVSPropertyOp15
 70
     0
102
RTVSPropertyOp16
 70
     0
102
RTVSPropertyOp17
 70
     0
102
RTVSPropertyOp18
 70
     0
102
RTVSPropertyOp19
 70
     0
102
RTVSPropertyOp20
 70
     0
102
RTVSPropertyOp21
 70
     0
102
RTVSPropertyOp22
 70
     0
102
RTVSPropertyOp23
 70
     0
102
RTVSPropertyOp24
 70
     0
102
RTVSPropertyOp25
 70
     0
102
RTVSPropertyOp26
 70
     0
102
RTVSPropertyOp27
 70
     0
  0
XRECORD
  5
1FDA
102
{ACAD_REACTORS
330
1FD9
102
}
330
1FD9
100
AcDbXrecord
280
     1
102
RTVSPropertyOp0
 70
     1
102
RTVSPropertyOp1
 70
     1
102
RTVSPropertyOp2
 70
     1
102
RTVSPropertyOp3
 70
     1
102
RTVSPropertyOp4
 70
     1
102
RTVSPropertyOp5
 70
     1
102
RTVSPropertyOp6
 70
     1
102
RTVSPropertyOp7
 70
     1
102
RTVSPropertyOp8
 70
     1
102
RTVSPropertyOp9
 70
     1
102
RTVSPropertyOp10
 70
     1
102
RTVSPropertyOp11
 70
     1
102
RTVSPropertyOp12
 70
     1
102
RTVSPropertyOp13
 70
     1
102
RTVSPropertyOp14
 70
     1
102
RTVSPropertyOp15
 70
     1
102
RTVSPropertyOp16
 70
     1
102
RTVSPropertyOp17
 70
     1
102
RTVSPropertyOp18
 70
     1
102
RTVSPropertyOp19
 70
     1
102
RTVSPropertyOp20
 70
     1
102
RTVSPropertyOp21
 70
     1
102
RTVSPropertyOp22
 70
     1
102
RTVSPropertyOp23
 70
     1
102
RTVSPropertyOp24
 70
     1
102
RTVSPropertyOp25
 70
     1
102
RTVSPropertyOp26
 70
     1
102
RTVSPropertyOp27
 70
     1
  0
XRECORD
  5
1FE2
102
{ACAD_REACTORS
330
1FE1
102
}
330
1FE1
100
AcDbXrecord
280
     1
102
RTVSPropertyOp0
 70
     0
102
RTVSPropertyOp1
 70
     0
102
RTVSPropertyOp2
 70
     0
102
RTVSPropertyOp3
 70
     0
102
RTVSPropertyOp4
 70
     0
102
RTVSPropertyOp5
 70
     0
102
RTVSPropertyOp6
 70
     0
102
RTVSPropertyOp7
 70
     0
102
RTVSPropertyOp8
 70
     0
102
RTVSPropertyOp9
 70
     0
102
RTVSPropertyOp10
 70
     0
102
RTVSPropertyOp11
 70
     0
102
RTVSPropertyOp12
 70
     0
102
RTVSPropertyOp13
 70
     0
102
RTVSPropertyOp14
 70
     2
102
RTVSPropertyOp15
 70
     0
102
RTVSPropertyOp16
 70
     0
102
RTVSPropertyOp17
 70
     0
102
RTVSPropertyOp18
 70
     0
102
RTVSPropertyOp19
 70
     0
102
RTVSPropertyOp20
 70
     0
102
RTVSPropertyOp21
 70
     0
102
RTVSPropertyOp22
 70
     0
102
RTVSPropertyOp23
 70
     0
102
RTVSPropertyOp24
 70
     0
102
RTVSPropertyOp25
 70
     0
102
RTVSPropertyOp26
 70
     0
102
RTVSPropertyOp27
 70
     0
  0
XRECORD
  5
1FD2
102
{ACAD_REACTORS
330
1FD1
102
}
330
1FD1
100
AcDbXrecord
280
     1
102
RTVSPropertyOp0
 70
     1
102
RTVSPropertyOp1
 70
     1
102
RTVSPropertyOp2
 70
     1
102
RTVSPropertyOp3
 70
     1
102
RTVSPropertyOp4
 70
     1
102
RTVSPropertyOp5
 70
     1
102
RTVSPropertyOp6
 70
     1
102
RTVSPropertyOp7
 70
     1
102
RTVSPropertyOp8
 70
     1
102
RTVSPropertyOp9
 70
     1
102
RTVSPropertyOp10
 70
     1
102
RTVSPropertyOp11
 70
     1
102
RTVSPropertyOp12
 70
     1
102
RTVSPropertyOp13
 70
     1
102
RTVSPropertyOp14
 70
     1
102
RTVSPropertyOp15
 70
     1
102
RTVSPropertyOp16
 70
     1
102
RTVSPropertyOp17
 70
     1
102
RTVSPropertyOp18
 70
     1
102
RTVSPropertyOp19
 70
     1
102
RTVSPropertyOp20
 70
     1
102
RTVSPropertyOp21
 70
     1
102
RTVSPropertyOp22
 70
     1
102
RTVSPropertyOp23
 70
     1
102
RTVSPropertyOp24
 70
     1
102
RTVSPropertyOp25
 70
     1
102
RTVSPropertyOp26
 70
     1
102
RTVSPropertyOp27
 70
     1
  0
XRECORD
  5
1FD8
102
{ACAD_REACTORS
330
1FD7
102
}
330
1FD7
100
AcDbXrecord
280
     1
102
RTVSPropertyOp0
 70
     1
102
RTVSPropertyOp1
 70
     1
102
RTVSPropertyOp2
 70
     1
102
RTVSPropertyOp3
 70
     1
102
RTVSPropertyOp4
 70
     1
102
RTVSPropertyOp5
 70
     1
102
RTVSPropertyOp6
 70
     1
102
RTVSPropertyOp7
 70
     1
102
RTVSPropertyOp8
 70
     1
102
RTVSPropertyOp9
 70
     1
102
RTVSPropertyOp10
 70
     1
102
RTVSPropertyOp11
 70
     1
102
RTVSPropertyOp12
 70
     1
102
RTVSPropertyOp13
 70
     1
102
RTVSPropertyOp14
 70
     1
102
RTVSPropertyOp15
 70
     1
102
RTVSPropertyOp16
 70
     1
102
RTVSPropertyOp17
 70
     1
102
RTVSPropertyOp18
 70
     1
102
RTVSPropertyOp19
 70
     1
102
RTVSPropertyOp20
 70
     1
102
RTVSPropertyOp21
 70
     1
102
RTVSPropertyOp22
 70
     1
102
RTVSPropertyOp23
 70
     1
102
RTVSPropertyOp24
 70
     1
102
RTVSPropertyOp25
 70
     1
102
RTVSPropertyOp26
 70
     1
102
RTVSPropertyOp27
 70
     1
  0
ENDSEC
  0
EOF
