  0
SECTION
  2
HEADER
  9
$ACADVER
  1
AC1015
  9
$ACADMAINTVER
 70
    20
  9
$DWGCODEPAGE
  3
ANSI_1252
  9
$INSBASE
 10
0.0
 20
0.0
 30
0.0
  9
$EXTMIN
 10
-1.624847913680437
 20
-0.356389755543155
 30
0.0
  9
$EXTMAX
 10
2.616203189900053
 20
0.343610244456845
 30
0.0
  9
$LIMMIN
 10
0.0
 20
0.0
  9
$LIMMAX
 10
420.0
 20
297.0
  9
$ORTHOMODE
 70
     0
  9
$REGENMODE
 70
     1
  9
$FILLMODE
 70
     1
  9
$QTEXTMODE
 70
     0
  9
$MIRRTEXT
 70
     1
  9
$LTSCALE
 40
1.0
  9
$ATTMODE
 70
     1
  9
$TEXTSIZE
 40
2.0
  9
$TRACEWID
 40
1.0
  9
$TEXTSTYLE
  7
LEG-ATT
  9
$CLAYER
  8
BLOCKS
  9
$CELTYPE
  6
ByLayer
  9
$CECOLOR
 62
   256
  9
$CELTSCALE
 40
1.0
  9
$DISPSILH
 70
     0
  9
$DIMSCALE
 40
1.0
  9
$DIMASZ
 40
2.5
  9
$DIMEXO
 40
0.625
  9
$DIMDLI
 40
3.75
  9
$DIMRND
 40
0.0
  9
$DIMDLE
 40
0.0
  9
$DIMEXE
 40
1.25
  9
$DIMTP
 40
0.0
  9
$DIMTM
 40
0.0
  9
$DIMTXT
 40
2.5
  9
$DIMCEN
 40
2.5
  9
$DIMTSZ
 40
0.0
  9
$DIMTOL
 70
     0
  9
$DIMLIM
 70
     0
  9
$DIMTIH
 70
     0
  9
$DIMTOH
 70
     0
  9
$DIMSE1
 70
     0
  9
$DIMSE2
 70
     0
  9
$DIMTAD
 70
     1
  9
$DIMZIN
 70
     8
  9
$DIMBLK
  1

  9
$DIMASO
 70
     1
  9
$DIMSHO
 70
     1
  9
$DIMPOST
  1

  9
$DIMAPOST
  1

  9
$DIMALT
 70
     0
  9
$DIMALTD
 70
     3
  9
$DIMALTF
 40
0.03937007874016
  9
$DIMLFAC
 40
1.0
  9
$DIMTOFL
 70
     1
  9
$DIMTVP
 40
0.0
  9
$DIMTIX
 70
     0
  9
$DIMSOXD
 70
     0
  9
$DIMSAH
 70
     0
  9
$DIMBLK1
  1

  9
$DIMBLK2
  1

  9
$DIMSTYLE
  2
ISO-25
  9
$DIMCLRD
 70
     0
  9
$DIMCLRE
 70
     0
  9
$DIMCLRT
 70
     0
  9
$DIMTFAC
 40
1.0
  9
$DIMGAP
 40
0.625
  9
$DIMJUST
 70
     0
  9
$DIMSD1
 70
     0
  9
$DIMSD2
 70
     0
  9
$DIMTOLJ
 70
     0
  9
$DIMTZIN
 70
     8
  9
$DIMALTZ
 70
     0
  9
$DIMALTTZ
 70
     0
  9
$DIMUPT
 70
     0
  9
$DIMDEC
 70
     2
  9
$DIMTDEC
 70
     2
  9
$DIMALTU
 70
     2
  9
$DIMALTTD
 70
     3
  9
$DIMTXSTY
  7
Standard
  9
$DIMAUNIT
 70
     0
  9
$DIMADEC
 70
     0
  9
$DIMALTRND
 40
0.0
  9
$DIMAZIN
 70
     0
  9
$DIMDSEP
 70
    44
  9
$DIMATFIT
 70
     3
  9
$DIMFRAC
 70
     0
  9
$DIMLDRBLK
  1

  9
$DIMLUNIT
 70
     2
  9
$DIMLWD
 70
    -2
  9
$DIMLWE
 70
    -2
  9
$DIMTMOVE
 70
     0
  9
$LUNITS
 70
     2
  9
$LUPREC
 70
     4
  9
$SKETCHINC
 40
1.0
  9
$FILLETRAD
 40
0.0
  9
$AUNITS
 70
     0
  9
$AUPREC
 70
     0
  9
$MENU
  1
.
  9
$ELEVATION
 40
0.0
  9
$PELEVATION
 40
0.0
  9
$THICKNESS
 40
0.0
  9
$LIMCHECK
 70
     0
  9
$CHAMFERA
 40
10.0
  9
$CHAMFERB
 40
10.0
  9
$CHAMFERC
 40
20.0
  9
$CHAMFERD
 40
0.0
  9
$SKPOLY
 70
     0
  9
$TDCREATE
 40
2453125.639648206
  9
$TDUCREATE
 40
2453125.597981539
  9
$TDUPDATE
 40
2456146.660896806
  9
$TDUUPDATE
 40
2456146.619230139
  9
$TDINDWG
 40
0.0214930556
  9
$TDUSRTIMER
 40
0.0214930556
  9
$USRTIMER
 70
     1
  9
$ANGBASE
 50
0.0
  9
$ANGDIR
 70
     0
  9
$PDMODE
 70
     3
  9
$PDSIZE
 40
0.0
  9
$PLINEWID
 40
0.0
  9
$SPLFRAME
 70
     0
  9
$SPLINETYPE
 70
     6
  9
$SPLINESEGS
 70
     8
  9
$HANDSEED
  5
623
  9
$SURFTAB1
 70
     6
  9
$SURFTAB2
 70
     6
  9
$SURFTYPE
 70
     6
  9
$SURFU
 70
     6
  9
$SURFV
 70
     6
  9
$UCSBASE
  2

  9
$UCSNAME
  2

  9
$UCSORG
 10
0.0
 20
0.0
 30
0.0
  9
$UCSXDIR
 10
1.0
 20
0.0
 30
0.0
  9
$UCSYDIR
 10
0.0
 20
1.0
 30
0.0
  9
$UCSORTHOREF
  2

  9
$UCSORTHOVIEW
 70
     0
  9
$UCSORGTOP
 10
0.0
 20
0.0
 30
0.0
  9
$UCSORGBOTTOM
 10
0.0
 20
0.0
 30
0.0
  9
$UCSORGLEFT
 10
0.0
 20
0.0
 30
0.0
  9
$UCSORGRIGHT
 10
0.0
 20
0.0
 30
0.0
  9
$UCSORGFRONT
 10
0.0
 20
0.0
 30
0.0
  9
$UCSORGBACK
 10
0.0
 20
0.0
 30
0.0
  9
$PUCSBASE
  2

  9
$PUCSNAME
  2

  9
$PUCSORG
 10
0.0
 20
0.0
 30
0.0
  9
$PUCSXDIR
 10
1.0
 20
0.0
 30
0.0
  9
$PUCSYDIR
 10
0.0
 20
1.0
 30
0.0
  9
$PUCSORTHOREF
  2

  9
$PUCSORTHOVIEW
 70
     0
  9
$PUCSORGTOP
 10
0.0
 20
0.0
 30
0.0
  9
$PUCSORGBOTTOM
 10
0.0
 20
0.0
 30
0.0
  9
$PUCSORGLEFT
 10
0.0
 20
0.0
 30
0.0
  9
$PUCSORGRIGHT
 10
0.0
 20
0.0
 30
0.0
  9
$PUCSORGFRONT
 10
0.0
 20
0.0
 30
0.0
  9
$PUCSORGBACK
 10
0.0
 20
0.0
 30
0.0
  9
$USERI1
 70
     0
  9
$USERI2
 70
     0
  9
$USERI3
 70
     0
  9
$USERI4
 70
     0
  9
$USERI5
 70
     0
  9
$USERR1
 40
0.0
  9
$USERR2
 40
0.0
  9
$USERR3
 40
0.0
  9
$USERR4
 40
0.0
  9
$USERR5
 40
0.0
  9
$WORLDVIEW
 70
     1
  9
$SHADEDGE
 70
     3
  9
$SHADEDIF
 70
    70
  9
$TILEMODE
 70
     1
  9
$MAXACTVP
 70
    64
  9
$PINSBASE
 10
0.0
 20
0.0
 30
0.0
  9
$PLIMCHECK
 70
     0
  9
$PEXTMIN
 10
1.000000000000000E+20
 20
1.000000000000000E+20
 30
1.000000000000000E+20
  9
$PEXTMAX
 10
-1.000000000000000E+20
 20
-1.000000000000000E+20
 30
-1.000000000000000E+20
  9
$PLIMMIN
 10
0.0
 20
0.0
  9
$PLIMMAX
 10
420.0
 20
297.0
  9
$UNITMODE
 70
     0
  9
$VISRETAIN
 70
     1
  9
$PLINEGEN
 70
     0
  9
$PSLTSCALE
 70
     1
  9
$TREEDEPTH
 70
  3020
  9
$CMLSTYLE
  2
Standard
  9
$CMLJUST
 70
     0
  9
$CMLSCALE
 40
20.0
  9
$PROXYGRAPHICS
 70
     1
  9
$MEASUREMENT
 70
     1
  9
$CELWEIGHT
370
    -1
  9
$ENDCAPS
280
     0
  9
$JOINSTYLE
280
     0
  9
$LWDISPLAY
290
     0
  9
$INSUNITS
 70
     4
  9
$HYPERLINKBASE
  1

  9
$STYLESHEET
  1

  9
$XEDIT
290
     1
  9
$CEPSNTYPE
380
     0
  9
$PSTYLEMODE
290
     1
  9
$FINGERPRINTGUID
  2
{38505E8A-DB8E-4A5A-9240-5BDA279CF715}
  9
$VERSIONGUID
  2
{00F6EC8A-C5BD-4009-B97F-2A10FFAE466B}
  9
$EXTNAMES
290
     1
  9
$PSVPSCALE
 40
0.0
  9
$OLESTARTUP
290
     0
  0
ENDSEC
  0
SECTION
  2
CLASSES
  0
CLASS
  1
ACDBDICTIONARYWDFLT
  2
AcDbDictionaryWithDefault
  3
ObjectDBX Classes
 90
        0
280
     0
281
     0
  0
CLASS
  1
ACDBPLACEHOLDER
  2
AcDbPlaceHolder
  3
ObjectDBX Classes
 90
        0
280
     0
281
     0
  0
CLASS
  1
LAYOUT
  2
AcDbLayout
  3
ObjectDBX Classes
 90
        0
280
     0
281
     0
  0
CLASS
  1
DICTIONARYVAR
  2
AcDbDictionaryVar
  3
ObjectDBX Classes
 90
        0
280
     0
281
     0
  0
CLASS
  1
TABLESTYLE
  2
AcDbTableStyle
  3
ObjectDBX Classes
 90
     4095
280
     0
281
     0
  0
CLASS
  1
DIMASSOC
  2
AcDbDimAssoc
  3
"AcDbDimAssoc|Product Desc:     AcDim ARX App For Dimension|Company:          Autodesk, Inc.|WEB Address:      www.autodesk.com"
 90
    32768
280
     0
281
     0
  0
CLASS
  1
SORTENTSTABLE
  2
AcDbSortentsTable
  3
ObjectDBX Classes
 90
    32768
280
     0
281
     0
  0
CLASS
  1
MATERIAL
  2
AcDbMaterial
  3
ObjectDBX Classes
 90
     1153
280
     0
281
     0
  0
CLASS
  1
VISUALSTYLE
  2
AcDbVisualStyle
  3
ObjectDBX Classes
 90
     4095
280
     0
281
     0
  0
CLASS
  1
SCALE
  2
AcDbScale
  3
ObjectDBX Classes
 90
     1153
280
     0
281
     0
  0
CLASS
  1
MLEADERSTYLE
  2
AcDbMLeaderStyle
  3
ACDB_MLEADERSTYLE_CLASS
 90
     4095
280
     0
281
     0
  0
CLASS
  1
CELLSTYLEMAP
  2
AcDbCellStyleMap
  3
ObjectDBX Classes
 90
     1152
280
     0
281
     0
  0
ENDSEC
  0
SECTION
  2
TABLES
  0
TABLE
  2
VPORT
  5
19
330
0
100
AcDbSymbolTable
 70
     1
  0
VPORT
  5
58D
330
19
100
AcDbSymbolTableRecord
100
AcDbViewportTableRecord
  2
*Active
 70
     0
 10
0.0
 20
0.0
 11
1.0
 21
1.0
 12
0.5667042995064385
 22
-0.0063897555431549
 13
0.0
 23
0.0
 14
10.0
 24
10.0
 15
10.0
 25
10.0
 16
0.0
 26
0.0
 36
1.0
 17
0.0
 27
0.0
 37
0.0
 40
2.673539970090868
 41
1.645464025026068
 42
50.0
 43
0.0
 44
0.0
 50
0.0
 51
0.0
 71
     0
 72
   100
 73
     1
 74
     2
 75
     0
 76
     0
 77
     0
 78
     0
281
     0
 65
     1
110
0.0
120
0.0
130
0.0
111
1.0
121
0.0
131
0.0
112
0.0
122
1.0
132
0.0
 79
     0
146
0.0
  0
ENDTAB
  0
TABLE
  2
LTYPE
  5
14
330
0
100
AcDbSymbolTable
 70
     1
  0
LTYPE
  5
15
330
14
100
AcDbSymbolTableRecord
100
AcDbLinetypeTableRecord
  2
ByBlock
 70
     0
  3

 72
    65
 73
     0
 40
0.0
  0
LTYPE
  5
16
330
14
100
AcDbSymbolTableRecord
100
AcDbLinetypeTableRecord
  2
ByLayer
 70
     0
  3

 72
    65
 73
     0
 40
0.0
  0
LTYPE
  5
8
330
14
100
AcDbSymbolTableRecord
100
AcDbLinetypeTableRecord
  2
Continuous
 70
     0
  3
Solid line
 72
    65
 73
     0
 40
0.0
  0
ENDTAB
  0
TABLE
  2
LAYER
  5
10
330
0
100
AcDbSymbolTable
 70
     8
  0
LAYER
  5
4
102
{ACAD_XDICTIONARY
360
5D9
102
}
330
10
100
AcDbSymbolTableRecord
100
AcDbLayerTableRecord
  2
0
 70
     0
 62
     7
  6
Continuous
370
    -3
390
5
  0
LAYER
  5
22
102
{ACAD_XDICTIONARY
360
5DB
102
}
330
10
100
AcDbSymbolTableRecord
100
AcDbLayerTableRecord
  2
BLOCKS
 70
     0
 62
     3
  6
Continuous
370
    -3
390
5
  0
LAYER
  5
10A
102
{ACAD_XDICTIONARY
360
5DD
102
}
330
10
100
AcDbSymbolTableRecord
100
AcDbLayerTableRecord
  2
2
 70
     0
 62
     2
  6
Continuous
370
    -3
390
5
  0
LAYER
  5
10B
102
{ACAD_XDICTIONARY
360
5DF
102
}
330
10
100
AcDbSymbolTableRecord
100
AcDbLayerTableRecord
  2
hatch
 70
     0
 62
     9
  6
Continuous
370
    -3
390
5
  0
LAYER
  5
10C
102
{ACAD_XDICTIONARY
360
5E1
102
}
330
10
100
AcDbSymbolTableRecord
100
AcDbLayerTableRecord
  2
9
 70
     0
 62
     9
  6
Continuous
370
    -3
390
5
  0
LAYER
  5
10D
102
{ACAD_XDICTIONARY
360
5E3
102
}
330
10
100
AcDbSymbolTableRecord
100
AcDbLayerTableRecord
  2
cotas
 70
     0
 62
     1
  6
Continuous
370
    -3
390
5
  0
LAYER
  5
10E
330
10
100
AcDbSymbolTableRecord
100
AcDbLayerTableRecord
  2
Defpoints
 70
     0
 62
     7
  6
Continuous
290
     0
370
    -3
390
5
  0
LAYER
  5
10F
102
{ACAD_XDICTIONARY
360
5E5
102
}
330
10
100
AcDbSymbolTableRecord
100
AcDbLayerTableRecord
  2
SANINDUSA
 70
     0
 62
     3
  6
Continuous
370
    -3
390
5
  0
ENDTAB
  0
TABLE
  2
STYLE
  5
11
330
0
100
AcDbSymbolTable
 70
     3
  0
STYLE
  5
12
330
11
100
AcDbSymbolTableRecord
100
AcDbTextStyleTableRecord
  2
Standard
 70
     0
 40
0.0
 41
1.0
 50
0.0
 71
     0
 42
2.5
  3
txt
  4

  0
STYLE
  5
23
330
11
100
AcDbSymbolTableRecord
100
AcDbTextStyleTableRecord
  2
LEG-ATT
 70
     0
 40
2.0
 41
0.8
 50
0.0
 71
     0
 42
2.0
  3
ARIAL.TTF
  4

1001
ACAD
1000
Arial
1071
       34
  0
STYLE
  5
110
330
11
100
AcDbSymbolTableRecord
100
AcDbTextStyleTableRecord
  2
SANINDUSA
 70
     0
 40
0.0
 41
1.0
 50
0.0
 71
     0
 42
2.5
  3
verdana.TTF
  4

1001
ACAD
1000
Verdana
1071
       34
  0
ENDTAB
  0
TABLE
  2
VIEW
  5
17
330
0
100
AcDbSymbolTable
 70
     0
  0
ENDTAB
  0
TABLE
  2
UCS
  5
18
330
0
100
AcDbSymbolTable
 70
     0
  0
ENDTAB
  0
TABLE
  2
APPID
  5
1B
330
0
100
AcDbSymbolTable
 70
     5
  0
APPID
  5
1C
330
1B
100
AcDbSymbolTableRecord
100
AcDbRegAppTableRecord
  2
ACAD
 70
     0
  0
APPID
  5
112
330
1B
100
AcDbSymbolTableRecord
100
AcDbRegAppTableRecord
  2
ACAD_PSEXT
 70
     0
  0
APPID
  5
57F
330
1B
100
AcDbSymbolTableRecord
100
AcDbRegAppTableRecord
  2
ACAD_EXEMPT_FROM_CAD_STANDARDS
 70
     0
  0
APPID
  5
5E9
330
1B
100
AcDbSymbolTableRecord
100
AcDbRegAppTableRecord
  2
DCO15
 70
     0
  0
APPID
  5
622
330
1B
100
AcDbSymbolTableRecord
100
AcDbRegAppTableRecord
  2
ACAD_MLEADERVER
 70
     0
  0
ENDTAB
  0
TABLE
  2
DIMSTYLE
  5
1D
330
0
100
AcDbSymbolTable
 70
     2
100
AcDbDimStyleTable
 71
     1
340
25
  0
DIMSTYLE
105
25
330
1D
100
AcDbSymbolTableRecord
100
AcDbDimStyleTableRecord
  2
ISO-25
 70
     0
 41
2.5
 42
0.625
 43
3.75
 44
1.25
 73
     0
 74
     0
 77
     1
 78
     8
140
2.5
141
2.5
143
0.03937007874016
147
0.625
171
     3
172
     1
271
     2
272
     2
274
     3
278
    44
283
     0
284
     8
340
12
  0
DIMSTYLE
105
111
330
1D
100
AcDbSymbolTableRecord
100
AcDbDimStyleTableRecord
  2
SANINDUSA
 70
     0
 41
10.0
 42
4.0
 43
4.0
 44
4.0
 73
     0
 74
     0
 77
     1
 78
     8
140
10.0
141
0.0
143
0.03937007874016
147
5.0
171
     3
172
     1
176
   256
177
   256
178
   256
179
     1
271
     1
272
     1
274
     3
278
    44
283
     0
284
     8
340
110
371
    -1
372
    -1
  0
ENDTAB
  0
TABLE
  2
BLOCK_RECORD
  5
1
330
0
100
AcDbSymbolTable
 70
    13
  0
BLOCK_RECORD
  5
2
330
1
100
AcDbSymbolTableRecord
100
AcDbBlockTableRecord
  2
*Model_Space
340
A
  0
BLOCK_RECORD
  5
C
330
1
100
AcDbSymbolTableRecord
100
AcDbBlockTableRecord
  2
*Paper_Space
340
F
  0
BLOCK_RECORD
  5
3C
330
1
100
AcDbSymbolTableRecord
100
AcDbBlockTableRecord
  2
107261AL
340
0
102
{BLKREFS
331
4A
102
}
1001
ACAD
1000
DesignCenter Data
1002
{
1070
     1
1070
     4
1002
}
  0
BLOCK_RECORD
  5
4B
330
1
100
AcDbSymbolTableRecord
100
AcDbBlockTableRecord
  2
107261CT
340
0
1001
ACAD
1000
DesignCenter Data
1002
{
1070
     1
1070
     4
1002
}
  0
BLOCK_RECORD
  5
88
330
1
100
AcDbSymbolTableRecord
100
AcDbBlockTableRecord
  2
107261PL
340
0
102
{BLKREFS
331
C6
102
}
1001
ACAD
1000
DesignCenter Data
1002
{
1070
     1
1070
     4
1002
}
  0
ENDTAB
  0
ENDSEC
  0
SECTION
  2
BLOCKS
  0
BLOCK
  5
3
330
2
100
AcDbEntity
  8
0
100
AcDbBlockBegin
  2
*Model_Space
 70
     0
 10
0.0
 20
0.0
 30
0.0
  3
*Model_Space
  1

  0
ENDBLK
  5
9
330
2
100
AcDbEntity
  8
0
100
AcDbBlockEnd
  0
BLOCK
  5
D
330
C
100
AcDbEntity
 67
     1
  8
0
100
AcDbBlockBegin
  2
*Paper_Space
 70
     0
 10
0.0
 20
0.0
 30
0.0
  3
*Paper_Space
  1

  0
ENDBLK
  5
E
330
C
100
AcDbEntity
 67
     1
  8
0
100
AcDbBlockEnd
  0
BLOCK
  5
48
330
3C
100
AcDbEntity
  8
0
100
AcDbBlockBegin
  2
107261AL
 70
     0
 10
0.0
 20
0.0
 30
0.0
  3
107261AL
  1

  0
ARC
  5
3D
330
3C
100
AcDbEntity
  8
BLOCKS
100
AcDbCircle
 10
0.3479999999999995
 20
0.0019999999999993
 30
0.0
 40
0.0020000000000005
100
AcDbArc
 50
270.0
 51
0.0
  0
LINE
  5
3E
330
3C
100
AcDbEntity
  8
BLOCKS
100
AcDbLine
 10
0.3499999999999994
 20
0.0019999999999993
 30
0.0
 11
0.3499999999999994
 21
0.07
 31
0.0
  0
LINE
  5
3F
330
3C
100
AcDbEntity
  8
BLOCKS
100
AcDbLine
 10
0.3057157445524728
 20
0.08
 30
0.0
 11
0.3399999999999994
 21
0.08
 31
0.0
  0
ARC
  5
40
330
3C
100
AcDbEntity
  8
BLOCKS
100
AcDbCircle
 10
0.3399999999999994
 20
0.07
 30
0.0
 40
0.01
100
AcDbArc
 50
0.0
 51
90.0
  0
LINE
  5
41
330
3C
100
AcDbEntity
  8
BLOCKS
100
AcDbLine
 10
0.3389999999999992
 20
0.0
 30
0.0
 11
0.3479999999999995
 21
-0.0000000000000006
 31
0.0
  0
ARC
  5
42
330
3C
100
AcDbEntity
  8
BLOCKS
100
AcDbCircle
 10
-0.3399999999999994
 20
0.07
 30
0.0
 40
0.01
100
AcDbArc
 50
90.0
 51
180.0
  0
LINE
  5
43
330
3C
100
AcDbEntity
  8
BLOCKS
100
AcDbLine
 10
-0.3390000000000004
 20
0.0
 30
0.0
 11
-0.347999999999999
 21
-0.0000000000000006
 31
0.0
  0
ARC
  5
44
330
3C
100
AcDbEntity
  8
BLOCKS
100
AcDbCircle
 10
-0.347999999999999
 20
0.0019999999999993
 30
0.0
 40
0.0020000000000002
100
AcDbArc
 50
180.0
 51
270.0
  0
LINE
  5
45
330
3C
100
AcDbEntity
  8
BLOCKS
100
AcDbLine
 10
-0.3499999999999994
 20
0.07
 30
0.0
 11
-0.3499999999999994
 21
0.0019999999999993
 31
0.0
  0
LINE
  5
46
330
3C
100
AcDbEntity
  8
BLOCKS
100
AcDbLine
 10
-0.3390000000000004
 20
0.0
 30
0.0
 11
0.3389999999999992
 21
0.0
 31
0.0
  0
LINE
  5
47
330
3C
100
AcDbEntity
  8
BLOCKS
100
AcDbLine
 10
-0.3399999999999994
 20
0.08
 30
0.0
 11
0.3399999999999994
 21
0.08
 31
0.0
  0
ENDBLK
  5
49
330
3C
100
AcDbEntity
  8
0
100
AcDbBlockEnd
  0
BLOCK
  5
82
330
4B
100
AcDbEntity
  8
0
100
AcDbBlockBegin
  2
107261CT
 70
     0
 10
0.0
 20
0.0
 30
0.0
  3
107261CT
  1

  0
LINE
  5
4C
330
4B
100
AcDbEntity
  8
BLOCKS
  6
Continuous
100
AcDbLine
 10
0.4923938578359827
 20
0.0800000000000017
 30
0.0
 11
0.4579087098844099
 21
0.0800000000000017
 31
0.0
  0
LWPOLYLINE
  5
4D
330
4B
100
AcDbEntity
  8
BLOCKS
  6
Continuous
100
AcDbPolyline
 90
        5
 70
   128
 43
0.0
 10
0.4493675692627056
 20
0.0752941176470631
 10
0.4516166048555511
 20
0.0778061722653581
 10
0.4545690585727585
 20
0.0794336429655721
 10
0.457908532288622
 20
0.0799999999984465
 10
0.4579087098844099
 20
0.0800000000000034
  0
LWPOLYLINE
  5
4E
330
4B
100
AcDbEntity
  8
BLOCKS
  6
Continuous
100
AcDbPolyline
 90
        7
 70
   128
 43
0.0
 10
0.4923938578359861
 20
0.0800000000000034
 10
0.4935157735682714
 20
0.0799375202466325
 10
0.4967760385764576
 20
0.0789996050879216
 10
0.4995366182528575
 20
0.0770355072378658
 10
0.5014792654417084
 20
0.074276391625026
 10
0.5023895571217469
 20
0.0710442618840608
 10
0.5024444991608397
 20
0.07
  0
ARC
  5
4F
330
4B
100
AcDbEntity
  8
BLOCKS
  6
Continuous
100
AcDbCircle
 10
0.4940504856754666
 20
0.0699999999999995
 30
0.0
 40
0.0099999999999998
100
AcDbArc
 50
0.0
 51
90.00000000003257
  0
LINE
  5
50
330
4B
100
AcDbEntity
  8
BLOCKS
  6
Continuous
100
AcDbLine
 10
0.4923938578359827
 20
0.0800000000000017
 30
0.0
 11
0.4940504856754723
 21
0.0800000000000017
 31
0.0
  0
LINE
  5
51
330
4B
100
AcDbEntity
  8
BLOCKS
  6
Continuous
100
AcDbLine
 10
0.4130461440543781
 20
0.0800000000000017
 30
0.0
 11
0.4579087098844099
 21
0.0800000000000017
 31
0.0
  0
LINE
  5
52
330
4B
100
AcDbEntity
  8
BLOCKS
  6
Continuous
100
AcDbLine
 10
0.502050485675465
 20
0.0
 30
0.0
 11
0.5004346207268441
 21
0.0
 31
0.0
  0
ARC
  5
53
330
4B
100
AcDbEntity
  8
BLOCKS
  6
Continuous
100
AcDbCircle
 10
0.5004403582084518
 20
0.0020041370095896
 30
0.0
 40
0.0020041452222568
100
AcDbArc
 50
269.8359729992221
 51
359.8817284521896
  0
ARC
  5
54
330
4B
100
AcDbEntity
  8
BLOCKS
  6
Continuous
100
AcDbCircle
 10
0.5020504856754684
 20
0.0019999999999988
 30
0.0
 40
0.0020000000000004
100
AcDbArc
 50
270.0000000000326
 51
0.0
  0
LINE
  5
55
330
4B
100
AcDbEntity
  8
BLOCKS
100
AcDbLine
 10
0.4914444991608378
 20
0.0
 30
0.0
 11
0.5004460956894843
 21
0.0
 31
0.0
  0
LINE
  5
56
330
4B
100
AcDbEntity
  8
BLOCKS
  6
Continuous
100
AcDbLine
 10
0.3697134807617482
 20
0.0051092315804772
 30
0.0
 11
0.3697134807617454
 21
0.0289783513833987
 31
0.0
  0
LINE
  5
57
330
4B
100
AcDbEntity
  8
BLOCKS
100
AcDbLine
 10
0.3697134807617482
 20
0.0051092315804777
 30
0.0
 11
0.3807134807617484
 21
0.0051092315804772
 31
0.0
  0
LINE
  5
58
330
4B
100
AcDbEntity
  8
BLOCKS
  6
Continuous
100
AcDbLine
 10
0.3815257761811057
 20
0.04
 30
0.0
 11
0.3851604132936876
 21
0.04
 31
0.0
  0
LWPOLYLINE
  5
59
330
4B
100
AcDbEntity
  8
BLOCKS
  6
Continuous
100
AcDbPolyline
 90
        4
 70
   128
 43
0.0
 10
0.3697134807617454
 20
0.028978351383397
 10
0.369829028426318
 20
0.0296563620711766
 10
0.3701624625474813
 20
0.0302579104868033
 10
0.370711364750137
 20
0.0307350843204603
  0
LWPOLYLINE
  5
5A
330
4B
100
AcDbEntity
  8
BLOCKS
  6
Continuous
100
AcDbPolyline
 90
        4
 70
   128
 43
0.0
 10
0.370711364750137
 20
0.0307350843204603
 10
0.3744222906357459
 20
0.0332096930269216
 10
0.3778809353347077
 20
0.0361101179518119
 10
0.3815135051408231
 20
0.0399855246947408
  0
LINE
  5
5B
330
4B
100
AcDbEntity
  8
BLOCKS
  6
Continuous
100
AcDbLine
 10
0.4914444991608378
 20
0.0
 30
0.0
 11
0.380713480761749
 21
0.0000000000000017
 31
0.0
  0
LWPOLYLINE
  5
5C
330
4B
100
AcDbEntity
  8
BLOCKS
  6
Continuous
100
AcDbPolyline
 90
       15
 70
   128
 43
0.0
 10
0.3807134807617484
 20
0.0051092315804772
 10
0.3807134807617461
 20
0.0241834986060917
 10
0.3810276610679256
 20
0.0243930078620116
 10
0.3865856606753119
 20
0.029053955139608
 10
0.3950787647696341
 20
0.0295514763645389
 10
0.4046813159238088
 20
0.0311903623372774
 10
0.4140299364993934
 20
0.033877909840391
 10
0.4229707563092723
 20
0.0375818237254157
 10
0.4314622597721599
 20
0.0422615386986951
 10
0.4393714159923673
 20
0.0478482078860043
 10
0.4466011244777645
 20
0.0542991346239234
 10
0.4530780225730093
 20
0.0615314509594299
 10
0.4583894294261598
 20
0.0690000000000015
 10
0.4914444991608406
 20
0.0690000000000015
 10
0.4914444991608378
 20
0.0
  0
LWPOLYLINE
  5
5D
330
4B
100
AcDbEntity
  8
BLOCKS
  6
Continuous
100
AcDbPolyline
 90
       11
 70
   128
 43
0.0
 10
0.4493675692627056
 20
0.0752941176470631
 10
0.4444716786148997
 20
0.0684098400137788
 10
0.4388178385089572
 20
0.0620965771593638
 10
0.4325143916913345
 20
0.0564721354963291
 10
0.4256163641894034
 20
0.0515996817698761
 10
0.4181964352739721
 20
0.0475105175131608
 10
0.4103937789148671
 20
0.0442781106597505
 10
0.402228872626734
 20
0.0419308581073108
 10
0.3938279973427137
 20
0.0404970644788625
 10
0.3853465409055292
 20
0.0400002255670859
 10
0.3851604132936859
 20
0.0399999999999983
  0
LINE
  5
5E
330
4B
100
AcDbEntity
  8
BLOCKS
  6
Continuous
100
AcDbLine
 10
0.5024444991608413
 20
0.0700000000000017
 30
0.0
 11
0.5024444991608375
 21
0.0019999999999999
 31
0.0
  0
LINE
  5
5F
330
4B
100
AcDbEntity
  8
BLOCKS
  6
Continuous
100
AcDbLine
 10
0.5040504856754648
 20
0.0019999999999999
 30
0.0
 11
0.5040504856754683
 21
0.0700000000000017
 31
0.0
  0
LINE
  5
60
330
4B
100
AcDbEntity
  8
BLOCKS
  6
Continuous
100
AcDbLine
 10
0.203464075723777
 20
0.0799999999999983
 30
0.0
 11
0.239276589937466
 21
0.0799999999999983
 31
0.0
  0
LINE
  5
61
330
4B
100
AcDbEntity
  8
BLOCKS
  6
Continuous
100
AcDbLine
 10
0.1969233697097201
 20
0.079999999999996
 30
0.0
 11
0.203464075723777
 21
0.0799999999999983
 31
0.0
  0
LINE
  5
62
330
4B
100
AcDbEntity
  8
BLOCKS
  6
Continuous
100
AcDbLine
 10
0.239276589937466
 20
0.0799999999999983
 30
0.0
 11
0.2439177202009103
 21
0.0799999999999983
 31
0.0
  0
LINE
  5
63
330
4B
100
AcDbEntity
  8
BLOCKS
  6
Continuous
100
AcDbLine
 10
0.3097979274479002
 20
0.023011710565828
 30
0.0
 11
0.3097979274479019
 21
0.0051092315804772
 31
0.0
  0
LINE
  5
64
330
4B
100
AcDbEntity
  8
BLOCKS
100
AcDbLine
 10
0.2987979274479016
 20
0.0051092315804766
 30
0.0
 11
0.3097979274479019
 21
0.0051092315804777
 31
0.0
  0
ARC
  5
65
330
4B
100
AcDbEntity
  8
BLOCKS
  6
Continuous
100
AcDbCircle
 10
0.3077940439397424
 20
0.023009988064598
 30
0.0
 40
0.0020038842484752
100
AcDbArc
 50
0.0492503810041546
 51
88.64323812529489
  0
LWPOLYLINE
  5
66
330
4B
100
AcDbEntity
  8
BLOCKS
  6
Continuous
100
AcDbPolyline
 90
        3
 70
   128
 43
0.0
 10
0.2529804016601827
 20
0.044999999999996
 10
0.2546359833939948
 20
0.0447180491240414
 10
0.2561153914068541
 20
0.0438955445860228
  0
LWPOLYLINE
  5
67
330
4B
100
AcDbEntity
  8
BLOCKS
  6
Continuous
100
AcDbPolyline
 90
        9
 70
   128
 43
0.0
 10
0.2561153914068541
 20
0.0438955445860228
 10
0.2631873150518817
 20
0.0387848595933792
 10
0.2707619606817639
 20
0.0344078262284728
 10
0.2787207980086799
 20
0.0308313833726788
 10
0.2854575642397265
 20
0.0285294417690636
 10
0.292361573476939
 20
0.0267921950567978
 10
0.2995895833866774
 20
0.0256077027120972
 10
0.3068920353052215
 20
0.0250412124638189
 10
0.307841491407778
 20
0.0250133105097047
  0
LINE
  5
68
330
4B
100
AcDbEntity
  8
BLOCKS
  6
Continuous
100
AcDbLine
 10
0.380713480761749
 20
0.0000000000000028
 30
0.0
 11
0.2987979274479016
 21
-0.0000000000000011
 31
0.0
  0
LINE
  5
69
330
4B
100
AcDbEntity
  8
BLOCKS
  6
Continuous
100
AcDbLine
 10
0.2439177202009103
 20
0.0799999999999983
 30
0.0
 11
0.4130461440543781
 21
0.0800000000000017
 31
0.0
  0
LINE
  5
6A
330
4B
100
AcDbEntity
  8
BLOCKS
  6
Continuous
100
AcDbLine
 10
-0.4506570248760494
 20
0.0799999999999983
 30
0.0
 11
-0.4749122305376427
 21
0.0799999999999943
 31
0.0
  0
LINE
  5
6B
330
4B
100
AcDbEntity
  8
BLOCKS
  6
Continuous
100
AcDbLine
 10
-0.4428043610303815
 20
0.0799999999999983
 30
0.0
 11
-0.4370589569684365
 21
0.08
 31
0.0
  0
LINE
  5
6C
330
4B
100
AcDbEntity
  8
BLOCKS
  6
Continuous
100
AcDbLine
 10
-0.4506570248760494
 20
0.0799999999999983
 30
0.0
 11
-0.4428043610303815
 21
0.0799999999999983
 31
0.0
  0
LINE
  5
6D
330
4B
100
AcDbEntity
  8
BLOCKS
  6
Continuous
100
AcDbLine
 10
-0.4506570248760494
 20
0.0799999999999983
 30
0.0
 11
-0.447359401976965
 21
0.0795137217088137
 31
0.0
  0
LWPOLYLINE
  5
6E
330
4B
100
AcDbEntity
  8
BLOCKS
  6
Continuous
100
AcDbPolyline
 90
        3
 70
   128
 43
0.0
 10
-0.447359401976965
 20
0.079513721708812
 10
-0.4439515603771782
 20
0.0778336400086102
 10
-0.4415977018000218
 20
0.0755122742317508
  0
LWPOLYLINE
  5
6F
330
4B
100
AcDbEntity
  8
BLOCKS
  6
Continuous
100
AcDbPolyline
 90
       11
 70
   128
 43
0.0
 10
-0.4921262328230717
 20
0.0799999999999943
 10
-0.4935116998754405
 20
0.0799339743265625
 10
-0.4956228199087457
 20
0.0795709010699466
 10
-0.4976269909818024
 20
0.0788966861610169
 10
-0.499265005461341
 20
0.0780471410450861
 10
-0.5006902326127517
 20
0.0770052788367735
 10
-0.5018818591275363
 20
0.0758009181386314
 10
-0.5028249874018388
 20
0.0744626845538897
 10
-0.5035073250009811
 20
0.0730197645013647
 10
-0.503943634879712
 20
0.0713531293195354
 10
-0.5040504856740319
 20
0.0699999999999983
  0
LWPOLYLINE
  5
70
330
4B
100
AcDbEntity
  8
BLOCKS
  6
Continuous
100
AcDbPolyline
 90
       10
 70
   128
 43
0.0
 10
-0.4868772689417915
 20
0.069999999999996
 10
-0.4866954931231379
 20
0.0717364817766628
 10
-0.4861556888334366
 20
0.0734202014332567
 10
-0.4852742577528938
 20
0.074999999999996
 10
-0.4840779817188491
 20
0.0764278760968608
 10
-0.4826032089732548
 20
0.0776604444311869
 10
-0.4808947497397151
 20
0.0786602540378442
 10
-0.4790045146875258
 20
0.0793969262078537
 10
-0.4769899376522358
 20
0.0798480775301175
 10
-0.4749122305376427
 20
0.0799999999999943
  0
LINE
  5
71
330
4B
100
AcDbEntity
  8
BLOCKS
  6
Continuous
100
AcDbLine
 10
-0.4921262328230683
 20
0.079999999999996
 30
0.0
 11
-0.4749122305376427
 21
0.0799999999999943
 31
0.0
  0
ARC
  5
72
330
4B
100
AcDbEntity
  8
BLOCKS
  6
Continuous
100
AcDbCircle
 10
-0.3564924367213695
 20
0.0425
 30
0.0
 40
0.0025
100
AcDbArc
 50
90.0
 51
179.9999999999674
  0
LINE
  5
73
330
4B
100
AcDbEntity
  8
BLOCKS
  6
Continuous
100
AcDbLine
 10
-0.3655574258770162
 20
0.04
 30
0.0
 11
-0.3614924367213683
 21
0.04
 31
0.0
  0
ARC
  5
74
330
4B
100
AcDbEntity
  8
BLOCKS
  6
Continuous
100
AcDbCircle
 10
-0.3614924367213683
 20
0.0425
 30
0.0
 40
0.0025
100
AcDbArc
 50
270.0
 51
359.9999999999675
  0
ARC
  5
75
330
4B
100
AcDbEntity
  8
BLOCKS
  6
Continuous
100
AcDbCircle
 10
-0.3614924367213683
 20
0.0425
 30
0.0
 40
0.0135
100
AcDbArc
 50
270.0
 51
320.9771974347687
  0
LINE
  5
76
330
4B
100
AcDbEntity
  8
BLOCKS
100
AcDbLine
 10
-0.4844842612609558
 20
0.0
 30
0.0
 11
-0.4758772689417913
 21
0.0
 31
0.0
  0
LWPOLYLINE
  5
77
330
4B
100
AcDbEntity
  8
BLOCKS
  6
Continuous
100
AcDbPolyline
 90
        9
 70
   128
 43
0.0
 10
-0.4844842612609574
 20
-0.0000000000000017
 10
-0.484951113900001
 20
0.0000384294391898
 10
-0.485400025653928
 20
0.0001522409349764
 10
-0.4858137450958134
 20
0.0003370607753931
 10
-0.4861763732194982
 20
0.0005857864376264
 10
-0.486473974429577
 20
0.0008888595339556
 10
-0.4866951120784183
 20
0.0012346331352671
 10
-0.4868312879702086
 20
0.0016098193559628
 10
-0.486877268941795
 20
0.0019999999999965
  0
ARC
  5
78
330
4B
100
AcDbEntity
  8
BLOCKS
  6
Continuous
100
AcDbCircle
 10
-0.5020504856740337
 20
0.0019999999999936
 30
0.0
 40
0.0020000000000002
100
AcDbArc
 50
180.0
 51
270.0000000000326
  0
LINE
  5
79
330
4B
100
AcDbEntity
  8
BLOCKS
  6
Continuous
100
AcDbLine
 10
-0.4844842612609558
 20
0.0
 30
0.0
 11
-0.5015577906225537
 21
-0.0000000000000017
 31
0.0
  0
LWPOLYLINE
  5
7A
330
4B
100
AcDbEntity
  8
BLOCKS
  6
Continuous
100
AcDbPolyline
 90
       11
 70
   128
 43
0.0
 10
-0.3655574258770196
 20
0.04
 10
-0.374336181882482
 20
0.0403619307911504
 10
-0.3830549589147654
 20
0.0414470046018266
 10
-0.3919037726448101
 20
0.0433233431472036
 10
-0.4005524919525146
 20
0.0459710519066886
 10
-0.4086969895972999
 20
0.0492897870736943
 10
-0.4165018672331445
 20
0.0533410163818223
 10
-0.4241590802692287
 20
0.0583264991288286
 10
-0.431248826446876
 20
0.064087495566651
 10
-0.4367065666578697
 20
0.0695441164454115
 10
-0.4415977018000251
 20
0.0755122742317559
  0
LWPOLYLINE
  5
7B
330
4B
100
AcDbEntity
  8
BLOCKS
  6
Continuous
100
AcDbPolyline
 90
       19
 70
   128
 43
0.0
 10
-0.4758772689417913
 20
0.0
 10
-0.4758772689417879
 20
0.06880983935269
 10
-0.4757870386546859
 20
0.068845004366334
 10
-0.4753781990065085
 20
0.0689365613257542
 10
-0.4745106052600653
 20
0.0689999999999941
 10
-0.4509099419072192
 20
0.0689999999999981
 10
-0.450409901229246
 20
0.0687534776286322
 10
-0.4497363587352351
 20
0.0680892327542659
 10
-0.4448691578823168
 20
0.0621502795616453
 10
-0.4386255047590164
 20
0.0559079069540758
 10
-0.4306464364079642
 20
0.0494242637888971
 10
-0.4220500608410863
 20
0.043827308098426
 10
-0.4133160232689585
 20
0.0392937855191616
 10
-0.4042454073176084
 20
0.0355976739286058
 10
-0.3946600042663562
 20
0.0326632099092467
 10
-0.3848783856631866
 20
0.0305890756149535
 10
-0.3752435396220147
 20
0.029389994703667
 10
-0.3657840837519336
 20
0.0289999999999998
 10
-0.3614924367213683
 20
0.0289999999999998
  0
LINE
  5
7C
330
4B
100
AcDbEntity
  8
BLOCKS
  6
Continuous
100
AcDbLine
 10
-0.4868772689417915
 20
0.0019999999999965
 30
0.0
 11
-0.4868772689417876
 21
0.069999999999996
 31
0.0
  0
LINE
  5
7D
330
4B
100
AcDbEntity
  8
BLOCKS
  6
Continuous
100
AcDbLine
 10
-0.5040504856252359
 20
0.0699999999999943
 30
0.0
 11
-0.5040504856740342
 21
0.0019999999999965
 31
0.0
  0
LINE
  5
7E
330
4B
100
AcDbEntity
  8
BLOCKS
  6
Continuous
100
AcDbLine
 10
-0.4370589569684365
 20
0.08
 30
0.0
 11
0.1969233697097201
 21
0.079999999999996
 31
0.0
  0
LINE
  5
7F
330
4B
100
AcDbEntity
  8
BLOCKS
  6
Continuous
100
AcDbLine
 10
0.2987979274479016
 20
-0.0000000000000011
 30
0.0
 11
-0.4758772689417913
 21
0.0
 31
0.0
  0
LINE
  5
80
330
4B
100
AcDbEntity
  8
BLOCKS
  6
Continuous
100
AcDbLine
 10
-0.3564924367213695
 20
0.045
 30
0.0
 11
0.2529804016601827
 21
0.045
 31
0.0
  0
LWPOLYLINE
  5
81
330
4B
100
AcDbEntity
  8
BLOCKS
  6
Continuous
100
AcDbPolyline
 90
       10
 70
   128
 43
0.0
 10
-0.3510043482396663
 20
0.0339999999999998
 10
0.2510284056508669
 20
0.0340000000000004
 10
0.2571984977319102
 20
0.0295410439104518
 10
0.2657428442387487
 20
0.0246036657717019
 10
0.2746793001813279
 20
0.0205879128797727
 10
0.2823317099848031
 20
0.0179730974193001
 10
0.2901260544117827
 20
0.0160118168409002
 10
0.2982723684400969
 20
0.0146768371266273
 10
0.2987979274479011
 20
0.0146360667037425
 10
0.2987979274479011
 20
0.0051092315804766
  0
ENDBLK
  5
83
330
4B
100
AcDbEntity
  8
0
100
AcDbBlockEnd
  0
BLOCK
  5
C4
330
88
100
AcDbEntity
  8
0
100
AcDbBlockBegin
  2
107261PL
 70
     0
 10
0.0
 20
0.0
 30
0.0
  3
107261PL
  1

  0
ARC
  5
89
330
88
100
AcDbEntity
  8
BLOCKS
100
AcDbCircle
 10
0.8899999999999998
 20
-0.01
 30
0.0
 40
0.01
100
AcDbArc
 50
0.0
 51
90.0
  0
LWPOLYLINE
  5
8A
330
88
100
AcDbEntity
  8
BLOCKS
100
AcDbPolyline
 90
       11
 70
   128
 43
0.0
 10
0.8468876163080947
 20
-0.0575075345033838
 10
0.8462760222689263
 20
-0.0544540535938518
 10
0.8453338429738437
 20
-0.0515894284645413
 10
0.8440695675476741
 20
-0.0489394696596082
 10
0.8424945872319401
 20
-0.0465280535592615
 10
0.8406230927486854
 20
-0.0443769072513135
 10
0.8384719464407385
 20
-0.0425054127680596
 10
0.8360605303403914
 20
-0.0409304324523248
 10
0.8334105715354576
 20
-0.0396661570261563
 10
0.8305459464061481
 20
-0.0387239777310754
 10
0.8274924654966159
 20
-0.0381123836919051
  0
LINE
  5
8B
330
88
100
AcDbEntity
  8
BLOCKS
100
AcDbLine
 10
0.8472320944925581
 20
-0.0632188556871881
 30
0.0
 11
0.8468876163080947
 21
-0.0575075345033838
 31
0.0
  0
ARC
  5
8C
330
88
100
AcDbEntity
  8
BLOCKS
100
AcDbCircle
 10
0.7730000000000005
 20
-0.1219999999999993
 30
0.0
 40
0.0012
100
AcDbArc
 50
0.0
 51
89.99999999998644
  0
ARC
  5
8D
330
88
100
AcDbEntity
  8
BLOCKS
100
AcDbCircle
 10
0.7730000000000005
 20
-0.1279999999999996
 30
0.0
 40
0.0012
100
AcDbArc
 50
269.9999999999593
 51
0.0
  0
LINE
  5
8E
330
88
100
AcDbEntity
  8
BLOCKS
100
AcDbLine
 10
0.7742000000000006
 20
-0.1279999999999996
 30
0.0
 11
0.7742000000000006
 21
-0.1219999999999993
 31
0.0
  0
LINE
  5
8F
330
88
100
AcDbEntity
  8
BLOCKS
100
AcDbLine
 10
0.8274924654966159
 20
-0.0381123836919051
 30
0.0
 11
0.8217811443128107
 21
-0.0377679055074418
 31
0.0
  0
LWPOLYLINE
  5
90
330
88
100
AcDbEntity
  8
BLOCKS
100
AcDbPolyline
 90
       12
 70
     1
 43
0.0
 10
0.7742000000000006
 20
-0.2880000000000007
 10
0.7742000000000006
 20
-0.2819999999999993
 42
0.4142135623730951
 10
0.7730000000000007
 20
-0.2807999999999993
 10
0.7226219497128983
 20
-0.2807999999999993
 42
0.7443614256952126
 10
0.7175642715831607
 20
-0.2976850433919389
 10
0.7723403028526424
 20
-0.3337342263641619
 42
0.5970052946883973
 10
0.7742000000000006
 20
-0.3327318293999957
 10
0.7742000000000006
 20
-0.3255490462737595
 42
0.2523440007696343
 10
0.773659697147358
 20
-0.3245466493095944
 10
0.7361258986280478
 20
-0.299844918660134
 42
-0.7443614256949266
 10
0.7393144348402755
 20
-0.2891999999999996
 10
0.7729999999999996
 20
-0.2891999999999996
 42
0.4142135623730395
  0
LWPOLYLINE
  5
91
330
88
100
AcDbEntity
  8
BLOCKS
100
AcDbPolyline
 90
       40
 70
   128
 43
0.0
 10
0.6900236525637863
 20
-0.5199999906759354
 10
0.6918813580611527
 20
-0.5199409500825495
 10
0.6968668154446664
 20
-0.5192005801603751
 10
0.7016591592918263
 20
-0.5176417077006437
 10
0.7061386652291782
 20
-0.515285170690637
 10
0.7101624013369451
 20
-0.5122143550959278
 10
0.7135189211727152
 20
-0.5086189340623071
 10
0.7162339715671714
 20
-0.5045526195515732
 10
0.7182002325297913
 20
-0.5002298791162651
 10
0.7194618073389809
 20
-0.4956570229203038
 10
0.7199914735329845
 20
-0.490557498239237
 10
0.71964724495371
 20
-0.4854129675546472
 10
0.7184749088986661
 20
-0.4805670058442116
 10
0.7165179541423164
 20
-0.4759715250969311
 10
0.7138655277857856
 20
-0.4718265593877829
 10
0.7105754831259878
 20
-0.4681676960873984
 10
0.70662571292814
 20
-0.4650319707040399
 10
0.7022092340444011
 20
-0.4625968139799573
 10
0.6983340659875465
 20
-0.4611823122141744
 10
0.6943052994857249
 20
-0.4603105339162489
 10
0.6892530527248278
 20
-0.4600122910715362
 10
0.684228704057741
 20
-0.4605603644189188
 10
0.6793738671178613
 20
-0.4619479623716433
 10
0.6748157266614231
 20
-0.4641265030740068
 10
0.6706691567319991
 20
-0.4670626856714887
 10
0.6670675051948689
 20
-0.4706583174978841
 10
0.6641979275166157
 20
-0.4747012039291924
 10
0.6620321784811455
 20
-0.4791463849575621
 10
0.6606604859180749
 20
-0.4837508618299512
 10
0.6600377763474678
 20
-0.4884949572113681
 10
0.6602046797844947
 20
-0.4934774311268655
 10
0.6611893100065115
 20
-0.4983632614510788
 10
0.6630373551386854
 20
-0.5031464848963197
 10
0.6656787699325884
 20
-0.5075635351796831
 10
0.6689927758973134
 20
-0.5114124701907992
 10
0.672916179599672
 20
-0.5146605571820534
 10
0.67723650533454
 20
-0.5171461772506865
 10
0.6819089082496937
 20
-0.5188883061858621
 10
0.685928710306264
 20
-0.5197211087597396
 10
0.6900236525637863
 20
-0.5199999906759354
  0
LINE
  5
92
330
88
100
AcDbEntity
  8
BLOCKS
100
AcDbLine
 10
0.7799999999999998
 20
-0.3712390523252867
 30
0.0
 11
0.7799999999999998
 21
-0.1049999999999989
 31
0.0
  0
LINE
  5
93
330
88
100
AcDbEntity
  8
BLOCKS
100
AcDbLine
 10
0.7836047190431942
 20
-0.3712390523252867
 30
0.0
 11
0.7836047190431942
 21
-0.101395280956807
 31
0.0
  0
LINE
  5
94
330
88
100
AcDbEntity
  8
BLOCKS
100
AcDbLine
 10
0.7799999999999998
 20
-0.105
 30
0.0
 11
0.7799999999999998
 21
-0.3712390523252867
 31
0.0
  0
LINE
  5
95
330
88
100
AcDbEntity
  8
BLOCKS
100
AcDbLine
 10
0.8999999999999998
 20
-0.01
 30
0.0
 11
0.8999999999999998
 21
-0.3712390523252867
 31
0.0
  0
LINE
  5
96
330
88
100
AcDbEntity
  8
BLOCKS
100
AcDbLine
 10
0.8472320944925581
 20
-0.3712390523252867
 30
0.0
 11
0.8472320944925581
 21
-0.0632188556871881
 31
0.0
  0
LINE
  5
97
330
88
100
AcDbEntity
  8
BLOCKS
100
AcDbLine
 10
0.0632188556871893
 20
-0.0377679055074418
 30
0.0
 11
0.0575075345033838
 21
-0.0381123836919051
 31
0.0
  0
LINE
  5
98
330
88
100
AcDbEntity
  8
BLOCKS
100
AcDbLine
 10
0.0381123836919051
 20
-0.0575075345033838
 30
0.0
 11
0.0377679055074418
 21
-0.0632188556871881
 31
0.0
  0
LWPOLYLINE
  5
99
330
88
100
AcDbEntity
  8
BLOCKS
100
AcDbPolyline
 90
       11
 70
   128
 43
0.0
 10
0.0575075345033838
 20
-0.0381123836919051
 10
0.0544540535938518
 20
-0.0387239777310754
 10
0.0515894284645424
 20
-0.0396661570261563
 10
0.0489394696596082
 20
-0.0409304324523248
 10
0.0465280535592615
 20
-0.0425054127680608
 10
0.0443769072513146
 20
-0.0443769072513135
 10
0.0425054127680596
 20
-0.0465280535592615
 10
0.0409304324523259
 20
-0.0489394696596082
 10
0.0396661570261563
 20
-0.0515894284645413
 10
0.0387239777310742
 20
-0.0544540535938529
 10
0.0381123836919051
 20
-0.0575075345033849
  0
ARC
  5
9A
330
88
100
AcDbEntity
  8
BLOCKS
100
AcDbCircle
 10
0.6223511286392237
 20
-0.425127729050198
 30
0.0
 40
0.0012000000000004
100
AcDbArc
 50
236.6502994374874
 51
311.9809774747024
  0
LINE
  5
9B
330
88
100
AcDbEntity
  8
BLOCKS
100
AcDbLine
 10
0.6231537892486257
 20
-0.4260197693778264
 30
0.0
 11
0.627644818042541
 21
-0.4216992231283883
 31
0.0
  0
ARC
  5
9C
330
88
100
AcDbEntity
  8
BLOCKS
100
AcDbCircle
 10
0.6267845096459479
 20
-0.4208626411164187
 30
0.0
 40
0.0011999999999999
100
AcDbArc
 50
315.8010730185026
 51
56.65029943754405
  0
LINE
  5
9D
330
88
100
AcDbEntity
  8
BLOCKS
100
AcDbLine
 10
0.5712390523252884
 20
-0.58
 30
0.0
 11
0.105
 21
-0.5799999999999994
 31
0.0
  0
LINE
  5
9E
330
88
100
AcDbEntity
  8
BLOCKS
100
AcDbLine
 10
0.1013952809568082
 20
-0.5836047190431925
 30
0.0
 11
0.5712390523252884
 21
-0.5836047190431931
 31
0.0
  0
LWPOLYLINE
  5
9F
330
88
100
AcDbEntity
  8
BLOCKS
100
AcDbPolyline
 90
       12
 70
     1
 43
0.0
 10
0.1815501068136633
 20
-0.1742937923576505
 42
0.5970052946879662
 10
0.1207999999999993
 20
-0.2070387598537366
 10
0.1207999999999993
 20
-0.5750000000000052
 42
0.4142135623731506
 10
0.1219999999999996
 20
-0.5762000000000052
 10
0.1279999999999996
 20
-0.5762000000000046
 42
0.4142135623732616
 10
0.1292000000000004
 20
-0.5750000000000052
 10
0.1292000000000004
 20
-0.2070387598537354
 42
-0.5970052946879409
 10
0.176932226782165
 20
-0.1813105711068124
 10
0.6008605755262547
 20
-0.4603061510495042
 42
0.4710853086658992
 10
0.6026293127810721
 20
-0.459762044430039
 10
0.6048158213052171
 20
-0.4539243463023184
 42
0.3407234791051491
 10
0.6043382660444982
 20
-0.4525389911676871
  0
LWPOLYLINE
  5
A0
330
88
100
AcDbEntity
  8
BLOCKS
100
AcDbPolyline
 90
       12
 70
     1
 43
0.0
 10
0.2215501068135396
 20
-0.2485037995237872
 42
0.5970052946866153
 10
0.1607999999999953
 20
-0.2812487670199584
 10
0.160799999999999
 20
-0.5750000000000052
 42
0.4142135623730395
 10
0.1619999999999988
 20
-0.5762000000000046
 10
0.1679999999999997
 20
-0.5762000000000046
 42
0.4142135623728177
 10
0.1691999999999986
 20
-0.5750000000000052
 10
0.1691999999999967
 20
-0.2812487670199584
 42
-0.5970052946796065
 10
0.2169322267815292
 20
-0.255520578272617
 10
0.5974226053351072
 20
-0.5059287761107015
 42
0.6273829298185121
 10
0.5992776183047869
 20
-0.5048204542445872
 10
0.5982290467539259
 20
-0.4968551686032828
 42
0.2066884382221665
 10
0.5977067518376087
 20
-0.496059882144453
  0
LWPOLYLINE
  5
A1
330
88
100
AcDbEntity
  8
BLOCKS
100
AcDbPolyline
 90
       12
 70
     1
 43
0.0
 10
0.2460526305856271
 20
-0.3125146129338924
 42
0.5970052946875092
 10
0.2007999999999698
 20
-0.336906272395284
 10
0.200799999999968
 20
-0.5750000000000039
 42
0.4142135623731506
 10
0.2019999999999678
 20
-0.5762000000000041
 10
0.2079999999999997
 20
-0.5762000000000041
 42
0.4142135623732616
 10
0.2092000000000004
 20
-0.5750000000000046
 10
0.2092000000000004
 20
-0.3369062723948548
 42
-0.5970052946879342
 10
0.2414347505541897
 20
-0.3195313916826473
 10
0.621366127145318
 20
-0.5695716993537314
 42
0.2115655407598722
 10
0.6223249204985791
 20
-0.5697314303771873
 42
0.0097696247096702
 10
0.6300404840529268
 20
-0.567584110064201
 42
0.6369377033249686
 10
0.6303559121145188
 20
-0.5654321571872629
  0
LWPOLYLINE
  5
A2
330
88
100
AcDbEntity
  8
BLOCKS
100
AcDbPolyline
 90
       12
 70
     1
 43
0.0
 10
0.2860526305856879
 20
-0.3867246200998369
 42
0.5970052946879579
 10
0.240799999999999
 20
-0.4111162795612069
 10
0.240799999999999
 20
-0.5750000000000034
 42
0.4142135623730951
 10
0.2419999999999987
 20
-0.5762000000000035
 10
0.2479999999999997
 20
-0.5762000000000035
 42
0.4142135623733171
 10
0.2492000000000004
 20
-0.5750000000000034
 10
0.2492000000000004
 20
-0.411116279561208
 42
-0.5970052946879381
 10
0.2814347505541898
 20
-0.3937413988490011
 10
0.5583767866512586
 20
-0.5760023969641657
 42
0.1465513800862803
 10
0.5590364837986158
 20
-0.5761999999999996
 10
0.5699505828345833
 20
-0.5761999999999996
 42
0.7443614256951592
 10
0.5706102799819418
 20
-0.5739976030358339
  0
LWPOLYLINE
  5
A3
330
88
100
AcDbEntity
  8
BLOCKS
100
AcDbPolyline
 90
       12
 70
     1
 43
0.0
 10
0.3105551543577127
 20
-0.4507354335093197
 42
0.5970052946879894
 10
0.280799999999999
 20
-0.4667737849359737
 10
0.280799999999999
 20
-0.5750000000000029
 42
0.4142135623730395
 10
0.2819999999999987
 20
-0.5762000000000029
 10
0.2879999999999996
 20
-0.5762000000000029
 42
0.4142135623732616
 10
0.2892000000000005
 20
-0.5750000000000029
 10
0.2892000000000005
 20
-0.4667737849359731
 42
-0.5970052946879301
 10
0.3059372743262144
 20
-0.457752212258481
 10
0.4856161264114779
 20
-0.5760023969641663
 42
0.1465513800862803
 10
0.486275823558835
 20
-0.5762000000000006
 10
0.4971899225948034
 20
-0.5762000000000001
 42
0.7443614256935386
 10
0.4978496197421589
 20
-0.573997603035835
  0
LWPOLYLINE
  5
A4
330
88
100
AcDbEntity
  8
BLOCKS
100
AcDbPolyline
 90
       12
 70
     1
 43
0.0
 10
0.3350576781297383
 20
-0.5147462469187997
 42
0.5970052946880648
 10
0.3207999999999989
 20
-0.5224312903107375
 10
0.3207999999999989
 20
-0.5750000000000029
 42
0.4142135623730395
 10
0.3219999999999987
 20
-0.5762000000000024
 10
0.3280000000000016
 20
-0.5762000000000024
 42
0.4142135623734835
 10
0.3292000000000031
 20
-0.5750000000000029
 10
0.3292000000000004
 20
-0.5317075412065328
 42
-0.5970052946880186
 10
0.3381885362122263
 20
-0.5268626225463976
 10
0.412855466171695
 20
-0.5760023969641673
 42
0.1465513800862658
 10
0.4135151633190523
 20
-0.5762000000000012
 10
0.4244292623550206
 20
-0.5762000000000012
 42
0.7443614256951106
 10
0.4250889595023779
 20
-0.5739976030358355
  0
LINE
  5
A5
330
88
100
AcDbEntity
  8
BLOCKS
100
AcDbLine
 10
0.2252359885473048
 20
-0.1652150054440131
 30
0.0
 11
0.6216914314918655
 21
-0.4261301260143637
 31
0.0
  0
LINE
  5
A6
330
88
100
AcDbEntity
  8
BLOCKS
100
AcDbLine
 10
0.6274442067933047
 20
-0.4198602441522531
 30
0.0
 11
0.229853868578804
 21
-0.1581982266948501
 31
0.0
  0
LINE
  5
A7
330
88
100
AcDbEntity
  8
BLOCKS
100
AcDbLine
 10
0.105
 20
-0.105
 30
0.0
 11
0.105
 21
-0.5784999999999997
 31
0.0
  0
LINE
  5
A8
330
88
100
AcDbEntity
  8
BLOCKS
100
AcDbLine
 10
0.1013952809568082
 20
-0.101395280956807
 30
0.0
 11
0.1013952809568082
 21
-0.5836047190431925
 31
0.0
  0
LINE
  5
A9
330
88
100
AcDbEntity
  8
BLOCKS
100
AcDbLine
 10
0.105
 20
-0.105
 30
0.0
 11
0.105
 21
-0.5799999999999994
 31
0.0
  0
ARC
  5
AA
330
88
100
AcDbEntity
  8
BLOCKS
100
AcDbCircle
 10
0.2385398810190034
 20
-0.145
 30
0.0
 40
0.0241999999999996
100
AcDbArc
 50
89.99999999999596
 51
236.6502994375422
  0
ARC
  5
AB
330
88
100
AcDbEntity
  8
BLOCKS
100
AcDbCircle
 10
0.2385398810190064
 20
-0.145
 30
0.0
 40
0.0158000000000001
100
AcDbArc
 50
90.00000000000154
 51
236.6502994375318
  0
ARC
  5
AC
330
88
100
AcDbEntity
  8
BLOCKS
100
AcDbCircle
 10
0.005
 20
-0.005
 30
0.0
 40
0.005
100
AcDbArc
 50
90.0
 51
180.0
  0
LINE
  5
AD
330
88
100
AcDbEntity
  8
BLOCKS
100
AcDbLine
 10
0.0575075345033838
 20
-0.6468876163080938
 30
0.0
 11
0.0632188556871893
 21
-0.6472320944925571
 31
0.0
  0
LINE
  5
AE
330
88
100
AcDbEntity
  8
BLOCKS
100
AcDbLine
 10
0.0377679055074418
 20
-0.6217811443128113
 30
0.0
 11
0.0381123836919051
 21
-0.6274924654966151
 31
0.0
  0
LWPOLYLINE
  5
AF
330
88
100
AcDbEntity
  8
BLOCKS
100
AcDbPolyline
 90
       11
 70
   128
 43
0.0
 10
0.0381123836919051
 20
-0.6274924654966151
 10
0.0387239777310765
 20
-0.6305459464061478
 10
0.0396661570261563
 20
-0.6334105715354582
 10
0.0409304324523259
 20
-0.6360605303403913
 10
0.0425054127680596
 20
-0.6384719464407381
 10
0.0443769072513146
 20
-0.6406230927486855
 10
0.0465280535592615
 20
-0.6424945872319393
 10
0.0489394696596082
 20
-0.6440695675476752
 10
0.0515894284645424
 20
-0.6453338429738432
 10
0.0544540535938518
 20
-0.6462760222689247
 10
0.0575075345033861
 20
-0.6468876163080945
  0
LINE
  5
B0
330
88
100
AcDbEntity
  8
BLOCKS
100
AcDbLine
 10
0.5712390523252884
 20
-0.6999999999999994
 30
0.0
 11
0.01
 21
-0.6999999999999994
 31
0.0
  0
LINE
  5
B1
330
88
100
AcDbEntity
  8
BLOCKS
100
AcDbLine
 10
0.0632188556871893
 20
-0.6472320944925571
 30
0.0
 11
0.5712390523252884
 21
-0.6472320944925571
 31
0.0
  0
ARC
  5
B2
330
88
100
AcDbEntity
  8
BLOCKS
100
AcDbCircle
 10
0.01
 20
-0.6899999999999995
 30
0.0
 40
0.0100000000000001
100
AcDbArc
 50
180.0
 51
270.0
  0
LINE
  5
B3
330
88
100
AcDbEntity
  8
BLOCKS
100
AcDbLine
 10
0.0
 20
-0.6899999999999995
 30
0.0
 11
0.0
 21
-0.005
 31
0.0
  0
LINE
  5
B4
330
88
100
AcDbEntity
  8
BLOCKS
100
AcDbLine
 10
0.0377679055074418
 20
-0.0632188556871881
 30
0.0
 11
0.0377679055074418
 21
-0.6217811443128113
 31
0.0
  0
ARC
  5
B5
330
88
100
AcDbEntity
  8
BLOCKS
100
AcDbCircle
 10
0.5712390523252884
 20
-0.3712390523252867
 30
0.0
 40
0.3287609476747133
100
AcDbArc
 50
270.0
 51
0.0
  0
LINE
  5
B6
330
88
100
AcDbEntity
  8
BLOCKS
100
AcDbLine
 10
0.7799999999999998
 20
-0.1049999999999989
 30
0.0
 11
0.105
 21
-0.105
 31
0.0
  0
LINE
  5
B7
330
88
100
AcDbEntity
  8
BLOCKS
100
AcDbLine
 10
0.7836047190431942
 20
-0.101395280956807
 30
0.0
 11
0.1013952809568082
 21
-0.101395280956807
 31
0.0
  0
LINE
  5
B8
330
88
100
AcDbEntity
  8
BLOCKS
100
AcDbLine
 10
0.8217811443128107
 20
-0.0377679055074418
 30
0.0
 11
0.0632188556871893
 21
-0.0377679055074418
 31
0.0
  0
LINE
  5
B9
330
88
100
AcDbEntity
  8
BLOCKS
100
AcDbLine
 10
0.105
 20
-0.105
 30
0.0
 11
0.7799999999999998
 21
-0.105
 31
0.0
  0
LINE
  5
BA
330
88
100
AcDbEntity
  8
BLOCKS
100
AcDbLine
 10
0.005
 20
0.0
 30
0.0
 11
0.8899999999999998
 21
0.0
 31
0.0
  0
LWPOLYLINE
  5
BB
330
88
100
AcDbEntity
  8
BLOCKS
100
AcDbPolyline
 90
       12
 70
     1
 43
0.0
 10
0.7742000000000006
 20
-0.1619999999999993
 42
0.4142135623730951
 10
0.7730000000000007
 20
-0.1607999999999993
 10
0.3720797620380068
 20
-0.1607999999999993
 42
0.7443614256951148
 10
0.3587758695663066
 20
-0.2052150054440119
 10
0.6589445746522867
 20
-0.4027619310134157
 42
0.2081467522329492
 10
0.6598881208833279
 20
-0.4029254798874826
 10
0.6675737100161964
 20
-0.4007091230715145
 42
0.625821365682419
 10
0.6678527716579471
 20
-0.3985686942045134
 10
0.3633937495978057
 20
-0.1981982266948501
 42
-0.7443614256950653
 10
0.3720797620380085
 20
-0.1691999999999996
 10
0.7729999999999996
 20
-0.1691999999999996
 42
0.4142135623732616
 10
0.7742000000000006
 20
-0.1679999999999995
  0
LWPOLYLINE
  5
BC
330
88
100
AcDbEntity
  8
BLOCKS
100
AcDbPolyline
 90
       12
 70
     1
 43
0.0
 10
0.7742000000000006
 20
-0.2019999999999993
 42
0.4142135623730951
 10
0.7730000000000007
 20
-0.2007999999999993
 10
0.5056196430570123
 20
-0.2007999999999993
 42
0.7443614256950925
 10
0.4923157505853112
 20
-0.2452150054440119
 10
0.7653467512758803
 20
-0.4249020742745558
 42
0.5107351550719218
 10
0.7671648533475369
 20
-0.4242128833629511
 42
0.0078691849425617
 10
0.7687349389419046
 20
-0.4180206838758563
 42
0.3151863416695257
 10
0.7682269480849686
 20
-0.4167416920371397
 10
0.4969336306168123
 20
-0.2381982266948512
 42
-0.7443614256951172
 10
0.505619643057014
 20
-0.2091999999999996
 10
0.7729999999999996
 20
-0.2091999999999996
 42
0.4142135623732616
 10
0.7742000000000006
 20
-0.2079999999999996
  0
ARC
  5
BD
330
88
100
AcDbEntity
  8
BLOCKS
100
AcDbCircle
 10
0.5712390523252884
 20
-0.3712390523252867
 30
0.0
 40
0.2759930421672707
100
AcDbArc
 50
270.0
 51
0.0
  0
LWPOLYLINE
  5
BE
330
88
100
AcDbEntity
  8
BLOCKS
100
AcDbPolyline
 90
       36
 70
   128
 43
0.0
 10
0.6474239151147481
 20
-0.5639901019016027
 10
0.6401834480578806
 20
-0.5593975334376842
 10
0.6334220460688136
 20
-0.5540889551460192
 10
0.6272358894469813
 20
-0.5481505594481121
 10
0.6209870117371635
 20
-0.5407126571349875
 10
0.6155912464040973
 20
-0.532597049153145
 10
0.6111481928423633
 20
-0.5239578211100167
 10
0.6077381958097883
 20
-0.5149555638409732
 10
0.605335574267088
 20
-0.5056028412257968
 10
0.6039875315812385
 20
-0.4960716256257939
 10
0.603719114226899
 20
-0.4866372726385839
 10
0.6044851723104808
 20
-0.4772014339982844
 10
0.6062746977190142
 20
-0.4679348447822213
 10
0.6090767464439501
 20
-0.4589530559869236
 10
0.6128644759750773
 20
-0.450308973975533
 10
0.6175803096195592
 20
-0.4421696043749189
 10
0.6232005567951433
 20
-0.4346321182059376
 10
0.6296538392250346
 20
-0.4277514022444939
 10
0.6368040212808318
 20
-0.4216416998098328
 10
0.6419665428251755
 20
-0.4179960637106092
 10
0.6473823145573557
 20
-0.4147384226928893
 10
0.6561743449528291
 20
-0.4105152021374625
 10
0.6654126780884577
 20
-0.4072902776841955
 10
0.6749226175842157
 20
-0.4051212310730393
 10
0.6845474986987444
 20
-0.4040462185968426
 10
0.6942625521489095
 20
-0.4040432469583914
 10
0.7038876780778172
 20
-0.4051140566366161
 10
0.7131253978311248
 20
-0.4072057414277896
 10
0.7221074276677588
 20
-0.4103002778830433
 10
0.7306709314043589
 20
-0.4143458881512601
 10
0.738709947598643
 20
-0.4193096053196041
 10
0.7461736188895936
 20
-0.4251499999605051
 10
0.7529156704722079
 20
-0.4317667348267185
 10
0.75742032429177
 20
-0.4371712000436145
 10
0.761453226795668
 20
-0.4429516639968961
 10
0.7649562993662637
 20
-0.4490514001430353
  0
ARC
  5
BF
330
88
100
AcDbEntity
  8
BLOCKS
100
AcDbCircle
 10
0.5712390523252884
 20
-0.3712390523252867
 30
0.0
 40
0.212365666717906
100
AcDbArc
 50
270.0
 51
0.0
  0
ARC
  5
C0
330
88
100
AcDbEntity
  8
BLOCKS
100
AcDbCircle
 10
0.5712390523252884
 20
-0.3712390523252867
 30
0.0
 40
0.208760947674713
100
AcDbArc
 50
270.0
 51
0.0
  0
LWPOLYLINE
  5
C1
330
88
100
AcDbEntity
  8
BLOCKS
100
AcDbPolyline
 90
       12
 70
     1
 43
0.0
 10
0.7742000000000006
 20
-0.2419999999999993
 42
0.4142135623729287
 10
0.7730000000000007
 20
-0.2408000000000004
 10
0.6391595240760194
 20
-0.2408000000000004
 42
0.744361425695066
 10
0.6258556316043192
 20
-0.2852150054440119
 10
0.77212866948905
 20
-0.3814801671288348
 42
0.5815769615985472
 10
0.7739871079189049
 20
-0.3805327186645394
 42
0.0087413809905048
 10
0.7741880716319299
 20
-0.373439471260279
 42
0.2552286112321176
 10
0.7736478392851211
 20
-0.3724240662589211
 10
0.6304735116358177
 20
-0.2781982266948512
 42
-0.7443614256951172
 10
0.6391595240760194
 20
-0.2491999999999996
 10
0.7729999999999996
 20
-0.2491999999999996
 42
0.4142135623732616
 10
0.7742000000000006
 20
-0.2479999999999995
  0
LINE
  5
C2
330
88
100
AcDbEntity
  8
BLOCKS
100
AcDbLine
 10
0.7730000000000007
 20
-0.1207999999999993
 30
0.0
 11
0.2385398810190051
 21
-0.1208000000000004
 31
0.0
  0
LINE
  5
C3
330
88
100
AcDbEntity
  8
BLOCKS
100
AcDbLine
 10
0.238539881019006
 20
-0.1291999999999996
 30
0.0
 11
0.7729999999999996
 21
-0.1291999999999996
 31
0.0
  0
ENDBLK
  5
C5
330
88
100
AcDbEntity
  8
0
100
AcDbBlockEnd
  0
ENDSEC
  0
SECTION
  2
ENTITIES
  0
ARC
  5
26
330
2
100
AcDbEntity
  8
SANINDUSA
100
AcDbCircle
 10
0.4400000000000003
 20
0.0700000000000006
 30
0.0
 40
0.01
100
AcDbArc
 50
0.0
 51
90.0
  0
LINE
  5
27
330
2
100
AcDbEntity
  8
SANINDUSA
100
AcDbLine
 10
0.4057157445524738
 20
0.0800000000000006
 30
0.0
 11
0.4400000000000003
 21
0.0800000000000006
 31
0.0
  0
LINE
  5
28
330
2
100
AcDbEntity
  8
SANINDUSA
100
AcDbLine
 10
0.4390000000000001
 20
0.0
 30
0.0
 11
0.4479999999999994
 21
-0.0000000000000011
 31
0.0
  0
ARC
  5
29
330
2
100
AcDbEntity
  8
SANINDUSA
100
AcDbCircle
 10
0.4479999999999994
 20
0.0019999999999993
 30
0.0
 40
0.0020000000000005
100
AcDbArc
 50
270.0
 51
0.0
  0
LINE
  5
2A
330
2
100
AcDbEntity
  8
SANINDUSA
100
AcDbLine
 10
0.4500000000000003
 20
0.0019999999999993
 30
0.0
 11
0.4500000000000003
 21
0.0700000000000006
 31
0.0
  0
ARC
  5
2B
330
2
100
AcDbEntity
  8
SANINDUSA
100
AcDbCircle
 10
-0.4400000000000003
 20
0.0700000000000006
 30
0.0
 40
0.01
100
AcDbArc
 50
90.0
 51
180.0
  0
ARC
  5
2C
330
2
100
AcDbEntity
  8
SANINDUSA
100
AcDbCircle
 10
-0.4479999999999999
 20
0.0019999999999993
 30
0.0
 40
0.0020000000000002
100
AcDbArc
 50
180.0
 51
270.0
  0
LINE
  5
2D
330
2
100
AcDbEntity
  8
SANINDUSA
100
AcDbLine
 10
-0.4390000000000008
 20
0.0
 30
0.0
 11
-0.4479999999999999
 21
-0.0000000000000006
 31
0.0
  0
LINE
  5
2E
330
2
100
AcDbEntity
  8
SANINDUSA
100
AcDbLine
 10
-0.4500000000000003
 20
0.0700000000000006
 30
0.0
 11
-0.4500000000000003
 21
0.0019999999999993
 31
0.0
  0
LINE
  5
2F
330
2
100
AcDbEntity
  8
SANINDUSA
100
AcDbLine
 10
-0.4400000000000003
 20
0.0800000000000006
 30
0.0
 11
0.4400000000000003
 21
0.0800000000000006
 31
0.0
  0
LINE
  5
30
330
2
100
AcDbEntity
  8
SANINDUSA
100
AcDbLine
 10
-0.4390000000000008
 20
0.0000000000000006
 30
0.0
 11
0.4390000000000001
 21
0.0
 31
0.0
  0
INSERT
  5
4A
330
2
100
AcDbEntity
  8
SANINDUSA
100
AcDbBlockReference
  2
107261AL
 10
0.977848791665373
 20
0.0
 30
0.0
  0
INSERT
  5
C6
330
2
100
AcDbEntity
  8
SANINDUSA
100
AcDbBlockReference
  2
107261PL
 10
-1.624847913680437
 20
0.343610244456845
 30
0.0
  0
LINE
  5
301
330
2
100
AcDbEntity
  8
SANINDUSA
100
AcDbLine
 10
1.632564790910613
 20
0.0019993682693791
 30
0.0
 11
1.630918543653933
 21
0.0019999999999988
 31
0.0
  0
ARC
  5
303
330
2
100
AcDbEntity
  8
SANINDUSA
100
AcDbCircle
 10
2.604366751308709
 20
0.0719999982118777
 30
0.0
 40
0.0099999999999997
100
AcDbArc
 50
1.499999999989395
 51
90.0
  0
ARC
  5
304
330
2
100
AcDbEntity
  8
SANINDUSA
100
AcDbCircle
 10
1.721532481847277
 20
0.0219999982118577
 30
0.0
 40
0.0050000000000002
100
AcDbArc
 50
13.16324033984207
 51
90.0
  0
LINE
  5
305
330
2
100
AcDbEntity
  8
SANINDUSA
100
AcDbLine
 10
1.726389721846209
 20
0.023186266094445
 30
0.0
 11
1.730632563597831
 21
0.0058137286901462
 31
0.0
  0
LINE
  5
306
330
2
100
AcDbEntity
  8
SANINDUSA
100
AcDbLine
 10
2.616203189900053
 20
0.0019999999999979
 30
0.0
 11
2.614363333264981
 21
0.0722617680653836
 31
0.0
  0
LWPOLYLINE
  5
307
330
2
100
AcDbEntity
  8
SANINDUSA
100
AcDbPolyline
 90
       13
 70
   128
 43
0.0
 10
1.812227665554366
 20
0.046593095779425
 10
1.811944260671951
 20
0.0462040413617985
 10
1.811586797860188
 20
0.0459103990793253
 10
1.811242115173046
 20
0.0457332466244668
 10
1.810944546948219
 20
0.0456412766575992
 10
1.810717683706932
 20
0.0456036624014493
 10
1.810576132157722
 20
0.045593559414149
 10
1.810542036668301
 20
0.0455926318168665
 10
1.810526160286674
 20
0.045592400848858
 10
1.810515856702962
 20
0.0455923188924814
 10
1.810507314404221
 20
0.0455922928154529
 10
1.810501565059584
 20
0.0455923039913129
 10
1.810502664551441
 20
0.0455922965407296
  0
ARC
  5
308
330
2
100
AcDbEntity
  8
SANINDUSA
100
AcDbCircle
 10
1.813955586071393
 20
0.045587269279026
 30
0.0
 40
0.0019657913547562
100
AcDbArc
 50
88.40832101775442
 51
149.8948231332875
  0
LINE
  5
30C
330
2
100
AcDbEntity
  8
SANINDUSA
100
AcDbLine
 10
1.632454497612228
 20
0.0722186841517684
 30
0.0
 11
1.630918543653933
 21
0.0019999999999988
 31
0.0
  0
ARC
  5
30D
330
2
100
AcDbEntity
  8
SANINDUSA
100
AcDbCircle
 10
1.642452104266395
 20
0.0719999982118559
 30
0.0
 40
0.0099999999999999
100
AcDbArc
 50
90.0
 51
178.7469215892698
  0
ARC
  5
315
330
2
100
AcDbEntity
  8
SANINDUSA
100
AcDbCircle
 10
2.493559643289411
 20
0.0357432047298868
 30
0.0
 40
0.0020670765228258
100
AcDbArc
 50
12.12629792996815
 51
88.79270544118433
  0
ARC
  5
316
330
2
100
AcDbEntity
  8
SANINDUSA
100
AcDbCircle
 10
2.482081587270148
 20
0.0398464017578824
 30
0.0
 40
0.0018919327150174
100
AcDbArc
 50
206.8142360301046
 51
266.9770219574406
  0
ARC
  5
319
330
2
100
AcDbEntity
  8
SANINDUSA
100
AcDbCircle
 10
2.478579752319369
 20
0.0378479642856831
 30
0.0
 40
0.0021445698650321
100
AcDbArc
 50
32.26940890598575
 51
88.83877156921679
  0
ARC
  5
327
330
2
100
AcDbEntity
  8
SANINDUSA
100
AcDbCircle
 10
1.946401686480317
 20
0.007198419171116
 30
0.0
 40
0.0051986998877139
100
AcDbArc
 50
195.6245666100814
 51
270.595423888201
  0
ELLIPSE
  5
328
330
2
100
AcDbEntity
  8
SANINDUSA
100
AcDbEllipse
 10
1.952775579709672
 20
-0.1210122138880282
 30
0.0
 11
-0.0971185513016224
 21
0.3976569632450524
 31
0.0
210
0.0
220
0.0
230
0.9999999999999998
 40
0.0488585795697996
 41
5.024995429824205
 42
5.08562518863279
  0
ARC
  5
329
330
2
100
AcDbEntity
  8
SANINDUSA
100
AcDbCircle
 10
1.930329531525306
 20
0.0268792523129084
 30
0.0
 40
0.0053469922502443
100
AcDbArc
 50
16.5697893547116
 51
92.2420153305272
  0
LINE
  5
32A
330
2
100
AcDbEntity
  8
SANINDUSA
100
AcDbLine
 10
1.813242056115458
 20
0.0335569192171021
 30
0.0
 11
1.930120354172544
 21
0.0322221514284608
 31
0.0
  0
ELLIPSE
  5
32B
330
2
100
AcDbEntity
  8
SANINDUSA
100
AcDbEllipse
 10
1.813182132424593
 20
0.0285572789939403
 30
0.0
 11
0.009093988760199
 21
-0.0001016260050543
 31
0.0
210
0.0
220
0.0
230
1.0
 40
0.5497794153183885
 41
1.5703505571575
 42
2.617548108354058
  0
ELLIPSE
  5
32C
330
2
100
AcDbEntity
  8
SANINDUSA
100
AcDbEllipse
 10
1.797490852255913
 20
0.0337368026426836
 30
0.0
 11
0.009093988760199
 21
-0.0001016260050543
 31
0.0
210
0.0
220
0.0
230
1.0
 40
0.5497794153183627
 41
5.067973965938959
 42
5.759140761943883
  0
ARC
  5
32D
330
2
100
AcDbEntity
  8
SANINDUSA
100
AcDbCircle
 10
1.801195651363102
 20
0.0240578139866972
 30
0.0
 40
0.0049918209239047
100
AcDbArc
 50
96.80180223516297
 51
161.1362778307905
  0
ELLIPSE
  5
32E
330
2
100
AcDbEntity
  8
SANINDUSA
100
AcDbEllipse
 10
1.756680629955966
 20
-0.206307777006324
 30
0.0
 11
0.0971185513016106
 21
0.3976569632450026
 31
0.0
210
0.0
220
0.0
230
1.0
 40
0.0488585795698047
 41
0.9599127139312551
 42
1.019972282955492
  0
ARC
  5
32F
330
2
100
AcDbEntity
  8
SANINDUSA
100
AcDbCircle
 10
1.785570705336771
 20
0.0076808323852435
 30
0.0
 40
0.0056833698075443
100
AcDbArc
 50
268.2878287471191
 51
341.3670767874297
  0
ARC
  5
330
330
2
100
AcDbEntity
  8
SANINDUSA
100
AcDbCircle
 10
1.735546117792205
 20
0.00701072719339
 30
0.0
 40
0.0050107328087478
100
AcDbArc
 50
193.5979391844639
 51
270.0857780572479
  0
ELLIPSE
  5
331
330
2
100
AcDbEntity
  8
SANINDUSA
100
AcDbEllipse
 10
1.756680629955949
 20
-0.0165434993546381
 30
0.0
 11
-0.0971185513016229
 21
0.397656963245055
 31
0.0
210
0.0
220
0.0
230
1.0
 40
0.0488585795697998
 41
1.458880582867821
 42
1.502568558581971
  0
ARC
  5
332
330
2
100
AcDbEntity
  8
SANINDUSA
100
AcDbCircle
 10
1.72164236939147
 20
0.0219758872119953
 30
0.0
 40
0.0050241158710357
100
AcDbArc
 50
13.54217959351467
 51
90.07730558542359
  0
LINE
  5
333
330
2
100
AcDbEntity
  8
SANINDUSA
100
AcDbLine
 10
1.721635590670584
 20
0.0269999985098891
 30
0.0
 11
1.669325158062414
 21
0.0269999985098827
 31
0.0
  0
ELLIPSE
  5
334
330
2
100
AcDbEntity
  8
SANINDUSA
100
AcDbEllipse
 10
1.669325158724118
 20
0.0219999982118668
 30
0.0
 11
0.0059856731926764
 21
0.0000000000000001
 31
0.0
210
0.0
220
0.0
230
1.0
 40
0.8353279303850479
 41
1.570796326794839
 42
2.96705972839037
  0
LINE
  5
335
330
2
100
AcDbEntity
  8
SANINDUSA
100
AcDbLine
 10
1.659897567859434
 20
0.0061317567229204
 30
0.0
 11
1.663430421796705
 21
0.0228682380616653
 31
0.0
  0
ELLIPSE
  5
336
330
2
100
AcDbEntity
  8
SANINDUSA
100
AcDbEllipse
 10
1.654002827979623
 20
0.0069999982118749
 30
0.0
 11
0.0059856731926769
 21
0.0000000000000004
 31
0.0
210
0.0
220
0.0
230
0.9999999999999998
 40
0.8353279303850341
 41
4.7123889803846
 42
6.108652381980072
  0
LINE
  5
337
330
2
100
AcDbEntity
  8
SANINDUSA
100
AcDbLine
 10
1.644654862933593
 20
0.0019999999999924
 30
0.0
 11
1.646857431907118
 21
0.0722617680653991
 31
0.0
  0
ELLIPSE
  5
338
330
2
100
AcDbEntity
  8
SANINDUSA
100
AcDbEllipse
 10
1.658824679295999
 20
0.0719999982118559
 30
0.0
 11
0.0119713463853529
 21
0.0000000000000002
 31
0.0
210
0.0
220
0.0
230
1.0
 40
0.835327930385074
 41
1.570796326794865
 42
3.115412714809841
  0
ARC
  5
339
330
2
100
AcDbEntity
  8
SANINDUSA
100
AcDbCircle
 10
1.681708221373251
 20
0.0712263329058521
 30
0.0
 40
0.0107737960242361
100
AcDbArc
 50
36.66133499813087
 51
90.28224207760151
  0
ELLIPSE
  5
33A
330
2
100
AcDbEntity
  8
SANINDUSA
100
AcDbEllipse
 10
1.756680629955966
 20
0.0405394909575704
 30
0.0
 11
-0.1467051977093542
 21
0.1834557361824472
 31
0.0
210
0.0
220
0.0
230
1.0
 40
0.1277134438161281
 41
1.266346143284457
 42
1.284817237144329
  0
LINE
  5
33B
330
2
100
AcDbEntity
  8
SANINDUSA
100
AcDbLine
 10
1.692901568669856
 20
0.0742027872689002
 30
0.0
 11
1.692817360606296
 21
0.0743165161907643
 31
0.0
  0
LWPOLYLINE
  5
33C
330
2
100
AcDbEntity
  8
SANINDUSA
100
AcDbPolyline
 90
       11
 70
   128
 43
0.0
 10
1.760415430112081
 20
0.0412213761806485
 10
1.752298647512783
 20
0.0418322492837894
 10
1.744259820872022
 20
0.0431085709929591
 10
1.736125651831281
 20
0.0451212186813415
 10
1.728201461657175
 20
0.047843657106179
 10
1.720861959292511
 20
0.051127377569677
 10
1.713853353288834
 20
0.0550662667006288
 10
1.70700862496561
 20
0.0598493569046329
 10
1.700702754423816
 20
0.0653207336068069
 10
1.696633075115319
 20
0.0695871260464198
 10
1.692901568669856
 20
0.0742027872689002
  0
ELLIPSE
  5
33D
330
2
100
AcDbEntity
  8
SANINDUSA
100
AcDbEllipse
 10
1.766599654308543
 20
0.1110946120832638
 30
0.0
 11
0.128385021114178
 21
-0.0014350857918897
 31
0.0
210
0.0
220
0.0
230
0.9999999999999998
 40
0.5452008859398774
 41
4.670296044400651
 42
4.711944803634095
  0
LINE
  5
33E
330
2
100
AcDbEntity
  8
SANINDUSA
100
AcDbLine
 10
1.765760217963877
 20
0.0410996299684209
 30
0.0
 11
1.772838958956629
 21
0.0410187874436376
 31
0.0
  0
ELLIPSE
  5
33F
330
2
100
AcDbEntity
  8
SANINDUSA
100
AcDbEllipse
 10
1.772862931885601
 20
0.0430186454509346
 30
0.0
 11
0.0036375955040794
 21
-0.0000406504020219
 31
0.0
210
0.0
220
0.0
230
1.0
 40
0.5497794153183514
 41
4.71194321074737
 42
6.195473074942534
  0
LINE
  5
340
330
2
100
AcDbEntity
  8
SANINDUSA
100
AcDbLine
 10
1.776715347700108
 20
0.0441490371227189
 30
0.0
 11
1.776484586594387
 21
0.0428029630780217
 31
0.0
  0
ELLIPSE
  5
341
330
2
100
AcDbEntity
  8
SANINDUSA
100
AcDbEllipse
 10
1.780337001088786
 20
0.0439333555044784
 30
0.0
 11
0.0036375955040794
 21
-0.0000406504020219
 31
0.0
210
0.0
220
0.0
230
1.0
 40
0.5497794153183514
 41
1.57035055715744
 42
3.053880421352659
  0
LINE
  5
342
330
2
100
AcDbEntity
  8
SANINDUSA
100
AcDbLine
 10
1.780360972226022
 20
0.0459332127571067
 30
0.0
 11
2.376243316649246
 21
0.0391281281113622
 31
0.0
  0
LWPOLYLINE
  5
343
330
2
100
AcDbEntity
  8
SANINDUSA
100
AcDbPolyline
 90
        3
 70
   128
 43
0.0
 10
2.376243316649246
 20
0.0391281281113622
 10
2.377895042871248
 20
0.0388273891508586
 10
2.378234470674078
 20
0.0386896837949759
  0
ARC
  5
344
330
2
100
AcDbEntity
  8
SANINDUSA
100
AcDbCircle
 10
2.400863403186043
 20
0.0891680564113264
 30
0.0
 40
0.0553184841497452
100
AcDbArc
 50
245.8537997484498
 51
269.4410735391213
  0
LINE
  5
345
330
2
100
AcDbEntity
  8
SANINDUSA
100
AcDbLine
 10
2.400323774011896
 20
0.0338522043526115
 30
0.0
 11
2.415631713973541
 21
0.0240999978482757
 31
0.0
  0
LINE
  5
346
330
2
100
AcDbEntity
  8
SANINDUSA
100
AcDbLine
 10
2.415631713973541
 20
0.0240999978482757
 30
0.0
 11
2.415631713973556
 21
0.0139999945163806
 31
0.0
  0
LINE
  5
347
330
2
100
AcDbEntity
  8
SANINDUSA
100
AcDbLine
 10
2.415631713973556
 20
0.0139999945163806
 30
0.0
 11
2.403631987745434
 21
0.0139999945163715
 31
0.0
  0
ARC
  5
348
330
2
100
AcDbEntity
  8
SANINDUSA
100
AcDbCircle
 10
2.349132617105171
 20
-0.0744814793719709
 30
0.0
 40
0.1039189714231156
100
AcDbArc
 50
58.36937985881375
 51
84.80281583012677
  0
ARC
  5
349
330
2
100
AcDbEntity
  8
SANINDUSA
100
AcDbCircle
 10
2.358093463635433
 20
0.0240307404743359
 30
0.0
 40
0.0050000438811632
100
AcDbArc
 50
84.80753710970924
 51
169.9995470022954
  0
LINE
  5
34A
330
2
100
AcDbEntity
  8
SANINDUSA
100
AcDbLine
 10
2.349860232614648
 20
0.0061317567229323
 30
0.0
 11
2.35316938852066
 21
0.0248990279138186
 31
0.0
  0
ARC
  5
34B
330
2
100
AcDbEntity
  8
SANINDUSA
100
AcDbCircle
 10
2.344936198605679
 20
0.0069999982118595
 30
0.0
 40
0.0050000000000002
100
AcDbArc
 50
270.0000000000509
 51
349.9999999999936
  0
ARC
  5
34C
330
2
100
AcDbEntity
  8
SANINDUSA
100
AcDbCircle
 10
2.313327194917452
 20
0.0069999982118667
 30
0.0
 40
0.0050000000000003
100
AcDbArc
 50
190.0000000000064
 51
270.0
  0
LINE
  5
34D
330
2
100
AcDbEntity
  8
SANINDUSA
100
AcDbLine
 10
2.307992708543975
 20
0.0084595937728915
 30
0.0
 11
2.308403139714891
 21
0.0061317567229341
 31
0.0
  0
LINE
  5
34E
330
2
100
AcDbEntity
  8
SANINDUSA
100
AcDbLine
 10
2.304677890454581
 20
0.0241631526947092
 30
0.0
 11
2.307992708543975
 21
0.0084595937728915
 31
0.0
  0
ARC
  5
34F
330
2
100
AcDbEntity
  8
SANINDUSA
100
AcDbCircle
 10
2.299708368839155
 20
0.0228658677964147
 30
0.0
 40
0.0051360581376569
100
AcDbArc
 50
14.63045888316904
 51
90.40146785628369
  0
LINE
  5
350
330
2
100
AcDbEntity
  8
SANINDUSA
100
AcDbLine
 10
2.266550113778842
 20
0.028380062103273
 30
0.0
 11
2.299672381103364
 21
0.0280017998516666
 31
0.0
  0
ELLIPSE
  5
351
330
2
100
AcDbEntity
  8
SANINDUSA
100
AcDbEllipse
 10
2.266490203739887
 20
0.0233804187205294
 30
0.0
 11
0.0090721867342996
 21
-0.0001013746950675
 31
0.0
210
0.0
220
0.0
230
1.0
 40
0.5511006350679648
 41
1.570350091807275
 42
2.973210110865949
  0
LINE
  5
352
330
2
100
AcDbEntity
  8
SANINDUSA
100
AcDbLine
 10
2.257555692022087
 20
0.0243182477057041
 30
0.0
 11
2.251722567242659
 21
0.0061317567229277
 31
0.0
  0
ELLIPSE
  5
353
330
2
100
AcDbEntity
  8
SANINDUSA
100
AcDbEllipse
 10
2.242765730730681
 20
0.0069999982118713
 30
0.0
 11
0.0090950103060293
 21
0.0000000000000001
 31
0.0
210
0.0
220
0.0
230
1.0
 40
0.5497519883716181
 41
4.712388980384664
 42
6.108652381980173
  0
ARC
  5
354
330
2
100
AcDbEntity
  8
SANINDUSA
100
AcDbCircle
 10
2.169718716525481
 20
0.0070416195678415
 30
0.0
 40
0.0050416334350486
100
AcDbArc
 50
193.5390762991399
 51
270.1343837297268
  0
ELLIPSE
  5
355
330
2
100
AcDbEntity
  8
SANINDUSA
100
AcDbEllipse
 10
2.131362051806801
 20
0.0594577955255724
 30
0.0
 11
-0.097118551301622
 21
0.3976569632450526
 31
0.0
210
0.0
220
0.0
230
1.0
 40
0.0488585795697999
 41
4.565274555312047
 42
4.615743212972016
  0
ARC
  5
356
330
2
100
AcDbEntity
  8
SANINDUSA
100
AcDbCircle
 10
2.155190059771893
 20
0.0246293031286175
 30
0.0
 40
0.0050222066618056
100
AcDbArc
 50
13.58157454384644
 51
89.51832281381298
  0
LINE
  5
357
330
2
100
AcDbEntity
  8
SANINDUSA
100
AcDbLine
 10
2.03094286211274
 20
0.0310707387030113
 30
0.0
 11
2.155232280226854
 21
0.0296513323187816
 31
0.0
  0
ELLIPSE
  5
358
330
2
100
AcDbEntity
  8
SANINDUSA
100
AcDbEllipse
 10
2.030882941408422
 20
0.0260710963273748
 30
0.0
 11
0.0090721867342996
 21
-0.0001013746950675
 31
0.0
210
0.0
220
0.0
230
1.0
 40
0.5511006350679039
 41
1.570350091807258
 42
2.973210110865887
  0
LINE
  5
359
330
2
100
AcDbEntity
  8
SANINDUSA
100
AcDbLine
 10
2.021948427908649
 20
0.027008924305446
 30
0.0
 11
2.021745514347274
 21
0.0263763029575354
 31
0.0
  0
ELLIPSE
  5
35A
330
2
100
AcDbEntity
  8
SANINDUSA
100
AcDbEllipse
 10
1.952775579709684
 20
-0.3038334727005789
 30
0.0
 11
0.0971185513016133
 21
0.3976569632450118
 31
0.0
210
0.0
220
0.0
230
1.0
 40
0.0488585795698036
 41
0.6030298142973305
 42
0.6892615335523459
  0
ARC
  5
35B
330
2
100
AcDbEntity
  8
SANINDUSA
100
AcDbCircle
 10
2.008840993141776
 20
0.0092512478884234
 30
0.0
 40
0.0072637158042256
100
AcDbArc
 50
266.6424902762155
 51
333.9594876888181
  0
LINE
  5
35C
330
2
100
AcDbEntity
  8
SANINDUSA
100
AcDbLine
 10
1.681655149291819
 20
0.0819999982118713
 30
0.0
 11
1.658824681647936
 21
0.0819999982118604
 31
0.0
  0
LINE
  5
35D
330
2
100
AcDbEntity
  8
SANINDUSA
100
AcDbLine
 10
1.654002828481902
 20
0.001999999999997
 30
0.0
 11
1.644654862933593
 21
0.0019999999999924
 31
0.0
  0
LINE
  5
35E
330
2
100
AcDbEntity
  8
SANINDUSA
100
AcDbLine
 10
1.78540089432661
 20
0.0020000000000179
 30
0.0
 11
1.735553619405216
 21
0.0020000000000043
 31
0.0
  0
LINE
  5
35F
330
2
100
AcDbEntity
  8
SANINDUSA
100
AcDbLine
 10
2.008415585872048
 20
0.0020000000000015
 30
0.0
 11
1.94645571095494
 21
0.0020000000000061
 31
0.0
  0
LINE
  5
360
330
2
100
AcDbEntity
  8
SANINDUSA
100
AcDbLine
 10
2.242765730034805
 20
0.001999999999997
 30
0.0
 11
2.169730541356036
 21
0.0020000000000088
 31
0.0
  0
LINE
  5
361
330
2
100
AcDbEntity
  8
SANINDUSA
100
AcDbLine
 10
2.344936182872189
 20
0.0019999999999961
 30
0.0
 11
2.313327189457345
 21
0.0020000000000061
 31
0.0
  0
LWPOLYLINE
  5
363
330
2
100
AcDbEntity
  8
SANINDUSA
100
AcDbPolyline
 90
       21
 70
   128
 43
0.0
 10
2.376243316649246
 20
0.0391281281113622
 10
2.376466479946418
 20
0.0391275097131727
 10
2.377072423470057
 20
0.0391225066483018
 10
2.379056777336245
 20
0.039103243172173
 10
2.382171291608732
 20
0.0390709709823102
 10
2.386361725913898
 20
0.0390262227952523
 10
2.39096789722365
 20
0.0389761921465494
 10
2.396333520129344
 20
0.0389172915816359
 10
2.402355814412125
 20
0.0388506461381919
 10
2.408992273867142
 20
0.038776721477511
 10
2.416164560750937
 20
0.0386964004933822
 10
2.423741277979411
 20
0.0386111509502041
 10
2.43172306680991
 20
0.0385209504961947
 10
2.439970062988904
 20
0.0384273861050558
 10
2.448323510453936
 20
0.0383322496414155
 10
2.456583718320632
 20
0.0382378172576507
 10
2.464788544607139
 20
0.0381436717212297
 10
2.472780311291342
 20
0.0380516235232396
 10
2.480083212905913
 20
0.0379671674668905
 10
2.487063475594908
 20
0.0378861126005547
 10
2.493603195983737
 20
0.0378098223805507
  0
LINE
  5
372
330
2
100
AcDbEntity
  8
SANINDUSA
100
AcDbLine
 10
1.814010188807915
 20
0.0475523021519313
 30
0.0
 11
2.478623213897772
 21
0.0399920937120959
 31
0.0
  0
LINE
  5
37A
330
2
100
AcDbEntity
  8
SANINDUSA
100
AcDbLine
 10
1.814486547109709
 20
0.0475465950071791
 30
0.0
 11
1.814504019376166
 21
0.047546393841513
 31
0.0
  0
LWPOLYLINE
  5
37F
330
2
100
AcDbEntity
  8
SANINDUSA
100
AcDbPolyline
 90
        3
 70
   128
 43
0.0
 10
1.884399308758538
 20
0.0467657071053943
 10
1.88426944879914
 20
0.0467671823203606
 10
1.884104608325867
 20
0.0467690375149347
  0
ARC
  5
391
330
2
100
AcDbEntity
  8
SANINDUSA
100
AcDbCircle
 10
2.54832719491745
 20
0.0069999982118713
 30
0.0
 40
0.0050000000000005
100
AcDbArc
 50
190.0000000000064
 51
270.0
  0
LINE
  5
393
330
2
100
AcDbEntity
  8
SANINDUSA
100
AcDbLine
 10
2.540472053220666
 20
0.0227549743354327
 30
0.0
 11
2.543403179918331
 21
0.0061317567229386
 31
0.0
  0
ARC
  5
394
330
2
100
AcDbEntity
  8
SANINDUSA
100
AcDbCircle
 10
2.535547938018089
 20
0.0218866361903408
 30
0.0
 40
0.0050000921654938
100
AcDbArc
 50
10.00094542947006
 51
94.31316284934711
  0
LINE
  5
395
330
2
100
AcDbEntity
  8
SANINDUSA
100
AcDbLine
 10
2.403631987745434
 20
0.0139999945163715
 30
0.0
 11
2.404953446795106
 21
0.0139999945163742
 31
0.0
  0
LINE
  5
396
330
2
100
AcDbEntity
  8
SANINDUSA
100
AcDbLine
 10
2.488647458852615
 20
0.0139999945163751
 30
0.0
 11
2.489631424787558
 21
0.0139999945163806
 31
0.0
  0
ARC
  5
397
330
2
100
AcDbEntity
  8
SANINDUSA
100
AcDbCircle
 10
2.544126433744553
 20
-0.0917993297864335
 30
0.0
 40
0.1190092560440333
100
AcDbArc
 50
94.31515000026148
 51
117.2520443147341
  0
LINE
  5
3A8
330
2
100
AcDbEntity
  8
SANINDUSA
100
AcDbLine
 10
2.489631424787558
 20
0.0139999945163806
 30
0.0
 11
2.477631682175556
 21
0.0139999945163861
 31
0.0
  0
LINE
  5
3A9
330
2
100
AcDbEntity
  8
SANINDUSA
100
AcDbLine
 10
2.477631682175556
 20
0.0139999945163861
 30
0.0
 11
2.477631682175545
 21
0.0240999978482748
 31
0.0
  0
LINE
  5
3AA
330
2
100
AcDbEntity
  8
SANINDUSA
100
AcDbLine
 10
2.477631682175545
 20
0.0240999978482748
 30
0.0
 11
2.491309535665238
 21
0.0328137238025699
 31
0.0
  0
LINE
  5
3AB
330
2
100
AcDbEntity
  8
SANINDUSA
100
AcDbLine
 10
2.491309535665238
 20
0.0328137238025699
 30
0.0
 11
2.492050996368433
 21
0.0328590866625343
 31
0.0
  0
ARC
  5
3AC
330
2
100
AcDbEntity
  8
SANINDUSA
100
AcDbCircle
 10
2.492138051076853
 20
0.0329005143016845
 30
0.0
 40
0.0000962574610468
100
AcDbArc
 50
205.5336631451444
 51
268.4653399596896
  0
LINE
  5
3AD
330
2
100
AcDbEntity
  8
SANINDUSA
100
AcDbLine
 10
2.492135241853789
 20
0.0328042950928272
 30
0.0
 11
2.492514725599416
 21
0.0327999625802037
 31
0.0
  0
ARC
  5
3AE
330
2
100
AcDbEntity
  8
SANINDUSA
100
AcDbCircle
 10
2.493525478992418
 20
0.1037646269295908
 30
0.0
 40
0.0709718620908463
100
AcDbArc
 50
269.1839884192357
 51
329.5366987143202
  0
LINE
  5
3AF
330
2
100
AcDbEntity
  8
SANINDUSA
100
AcDbLine
 10
2.560075129475301
 20
0.0769999983236255
 30
0.0
 11
2.554699964291563
 21
0.0677828599214542
 31
0.0
  0
ARC
  5
3B0
330
2
100
AcDbEntity
  8
SANINDUSA
100
AcDbCircle
 10
2.568808160280352
 20
0.0718734272094368
 30
0.0
 40
0.0101265768368044
100
AcDbArc
 50
89.93849599768481
 51
149.585689817879
  0
ARC
  5
3B1
330
2
100
AcDbEntity
  8
SANINDUSA
100
AcDbCircle
 10
2.601526547795169
 20
0.0719626159065872
 30
0.0
 40
0.0100374606070898
100
AcDbArc
 50
1.707871670298236
 51
90.22631420723941
  0
LINE
  5
3B2
330
2
100
AcDbEntity
  8
SANINDUSA
100
AcDbLine
 10
2.611559549510738
 20
0.0722617680654027
 30
0.0
 11
2.613412994875756
 21
0.0020000000000079
 31
0.0
  0
LINE
  5
3B3
330
2
100
AcDbEntity
  8
SANINDUSA
100
AcDbLine
 10
2.601486900650959
 20
0.0819999982118568
 30
0.0
 11
2.568819030625253
 21
0.0819999982118586
 31
0.0
  0
LINE
  5
3B4
330
2
100
AcDbEntity
  8
SANINDUSA
100
AcDbLine
 10
2.613412994875756
 20
0.0020000000000079
 30
0.0
 11
2.548327229660785
 21
0.0020000000000043
 31
0.0
  0
LINE
  5
3B8
330
2
100
AcDbEntity
  8
SANINDUSA
100
AcDbLine
 10
2.492051211272251
 20
0.0328590121567319
 30
0.0
 11
2.493056672755326
 21
0.0329608839452164
 31
0.0
  0
LWPOLYLINE
  5
3B9
330
2
100
AcDbEntity
  8
SANINDUSA
100
AcDbPolyline
 90
       21
 70
   128
 43
0.0
 10
2.491309535665238
 20
0.0328137238025699
 10
2.491080956421639
 20
0.0328180339634379
 10
2.49038297916616
 20
0.0328277383446745
 10
2.488257108111859
 20
0.0328546759188209
 10
2.484848986544155
 20
0.0328962464332605
 10
2.480444209582492
 20
0.03294881027939
 10
2.474916513082436
 20
0.0330139693319822
 10
2.468728283282751
 20
0.0330862660408017
 10
2.461702620083454
 20
0.0331677269637682
 10
2.454427801143743
 20
0.0332515720725057
 10
2.446695706501275
 20
0.0333401781022582
 10
2.43915397042573
 20
0.0334261429011892
 10
2.431586902760188
 20
0.0335118916332764
 10
2.424629930732137
 20
0.033590279191744
 10
2.418082762946251
 20
0.0336633805632579
 10
2.412496020054631
 20
0.0337254550755021
 10
2.407708201128279
 20
0.0337776016890982
 10
2.404120932944933
 20
0.0338163670599613
 10
2.401631184180217
 20
0.033842004507788
 10
2.400654450061074
 20
0.0338509973585612
 10
2.400323774011896
 20
0.0338522043526115
  0
LINE
  5
3BB
330
2
100
AcDbEntity
  8
SANINDUSA
100
AcDbLine
 10
2.415631713973541
 20
0.0240999978482757
 30
0.0
 11
2.477631682175545
 21
0.0240999978482748
 31
0.0
  0
ELLIPSE
  5
3BC
330
2
100
AcDbEntity
  8
SANINDUSA
100
AcDbEllipse
 10
1.764212133914313
 20
0.1111212997495229
 30
0.0
 11
0.0720015367049167
 21
-0.0010703927089782
 31
0.0
210
0.0
220
0.0
230
0.9999999999999998
 40
0.9720936744211481
 41
3.677862552250797
 42
4.67408953992533
  0
LINE
  5
3BD
330
2
100
AcDbEntity
  8
SANINDUSA
100
AcDbLine
 10
2.491196019440556
 20
0.0328586061000958
 30
0.0
 11
2.491889721993234
 21
0.0328492220938276
 31
0.0
  0
LINE
  5
3BE
330
2
100
AcDbEntity
  8
SANINDUSA
100
AcDbLine
 10
2.415631713973556
 20
0.0139999945163806
 30
0.0
 11
2.477631682175556
 21
0.0139999945163861
 31
0.0
  0
ELLIPSE
  5
3BF
330
2
100
AcDbEntity
  8
SANINDUSA
100
AcDbEllipse
 10
1.725282002021321
 20
0.1115564601652047
 30
0.0
 11
-0.0259163203711324
 21
0.0690352242626234
 31
0.0
210
0.0
220
0.0
230
1.0
 40
0.4952059299298494
 41
1.910585827560961
 42
1.913343936896696
  0
LINE
  5
3C6
330
2
100
AcDbEntity
  8
SANINDUSA
100
AcDbLine
 10
2.313328762337726
 20
0.0020000000000115
 30
0.0
 11
2.275173840744906
 21
0.0020000000000052
 31
0.0
  0
LINE
  5
3C7
330
2
100
AcDbEntity
  8
SANINDUSA
100
AcDbLine
 10
2.504767059507366
 20
0.068314240917555
 30
0.0
 11
2.508955993164008
 21
0.0769999983236164
 31
0.0
  0
LINE
  5
3CA
330
2
100
AcDbEntity
  8
SANINDUSA
100
AcDbLine
 10
1.642452105658526
 20
0.081999998211865
 30
0.0
 11
1.658824681647936
 21
0.0819999982118604
 31
0.0
  0
LINE
  5
3CB
330
2
100
AcDbEntity
  8
SANINDUSA
100
AcDbLine
 10
2.601486900650959
 20
0.0819999982118568
 30
0.0
 11
2.604366730139959
 21
0.0819999982118604
 31
0.0
  0
LWPOLYLINE
  5
3CC
330
2
100
AcDbEntity
  8
SANINDUSA
100
AcDbPolyline
 90
        9
 70
   128
 43
0.0
 10
1.701245907253132
 20
0.0769999983236264
 10
1.700846392337214
 20
0.0780876126587434
 10
1.7003722488206
 20
0.0790710660144811
 10
1.6998315949188
 20
0.0799335317201901
 10
1.699233675239507
 20
0.0806602522712316
 10
1.69858872561545
 20
0.0812387935216582
 10
1.697907778545906
 20
0.0816592564729515
 10
1.697202486045768
 20
0.0819144468255715
 10
1.696484915871087
 20
0.0819999982118722
  0
LINE
  5
3CD
330
2
100
AcDbEntity
  8
SANINDUSA
100
AcDbLine
 10
1.681518037293656
 20
0.0819999982118759
 30
0.0
 11
1.696484915871087
 21
0.0819999982118722
 31
0.0
  0
ARC
  5
3CE
330
2
100
AcDbEntity
  8
SANINDUSA
100
AcDbCircle
 10
2.516521233858014
 20
0.0737876732749589
 30
0.0
 40
0.0082189962268193
100
AcDbArc
 50
92.30867354266264
 51
156.9931280968477
  0
LINE
  5
3CF
330
2
100
AcDbEntity
  8
SANINDUSA
100
AcDbLine
 10
2.516190147605693
 20
0.0819999982118595
 30
0.0
 11
2.568857107524616
 21
0.0819999982118686
 31
0.0
  0
LINE
  5
3D3
330
2
100
AcDbEntity
  8
SANINDUSA
100
AcDbLine
 10
2.275173840744906
 20
0.0020000000000052
 30
0.0
 11
2.242765730034805
 21
0.001999999999997
 31
0.0
  0
LINE
  5
3D6
330
2
100
AcDbEntity
  8
SANINDUSA
100
AcDbLine
 10
2.014094251608484
 20
0.0020000000000134
 30
0.0
 11
2.008415585872048
 21
0.0020000000000015
 31
0.0
  0
LINE
  5
3DA
330
2
100
AcDbEntity
  8
SANINDUSA
100
AcDbLine
 10
1.794180899330267
 20
0.0020000000000115
 30
0.0
 11
1.78540089432661
 21
0.0020000000000179
 31
0.0
  0
LINE
  5
3DF
330
2
100
AcDbEntity
  8
SANINDUSA
100
AcDbLine
 10
1.946511699771615
 20
0.002000000000007
 30
0.0
 11
1.943137724012789
 21
0.0020000000000143
 31
0.0
  0
LINE
  5
3E3
330
2
100
AcDbEntity
  8
SANINDUSA
100
AcDbLine
 10
2.169730541356036
 20
0.0020000000000088
 30
0.0
 11
2.165799822307648
 21
0.0020000000000043
 31
0.0
  0
LINE
  5
3E4
330
2
100
AcDbEntity
  8
SANINDUSA
100
AcDbLine
 10
1.735553619405216
 20
0.0020000000000043
 30
0.0
 11
1.735489801567641
 21
0.001999999999997
 31
0.0
  0
LINE
  5
3ED
330
2
100
AcDbEntity
  8
SANINDUSA
100
AcDbLine
 10
1.701245907253132
 20
0.0769999983236264
 30
0.0
 11
1.701687591858547
 21
0.0764476700201746
 31
0.0
  0
LINE
  5
3EF
330
2
100
AcDbEntity
  8
SANINDUSA
100
AcDbLine
 10
1.632564791031851
 20
0.0020000000000079
 30
0.0
 11
1.644654862933593
 21
0.0019999999999924
 31
0.0
  0
LINE
  5
3F0
330
2
100
AcDbEntity
  8
SANINDUSA
100
AcDbLine
 10
2.613412994875756
 20
0.0020000000000079
 30
0.0
 11
2.616203189900053
 21
0.0019999999999979
 31
0.0
  0
LINE
  5
3F2
330
2
100
AcDbEntity
  8
SANINDUSA
100
AcDbLine
 10
2.101929505660025
 20
0.0019999999999915
 30
0.0
 11
2.014094251608484
 21
0.0020000000000134
 31
0.0
  0
LWPOLYLINE
  5
3FC
330
2
100
AcDbEntity
  8
SANINDUSA
100
AcDbPolyline
 90
        3
 70
   128
 43
0.0
 10
2.4953853626063
 20
0.0330784094035659
 10
2.494445408350827
 20
0.0329574902057645
 10
2.493056161666024
 20
0.0329608504176055
  0
LINE
  5
3FF
330
2
100
AcDbEntity
  8
SANINDUSA
100
AcDbLine
 10
1.882016144046304
 20
0.0020000000000024
 30
0.0
 11
1.794180899330267
 21
0.0020000000000115
 31
0.0
  0
LINE
  5
408
330
2
100
AcDbEntity
  8
SANINDUSA
100
AcDbLine
 10
2.165799822307648
 20
0.0020000000000043
 30
0.0
 11
2.136030432533596
 21
0.0020000000000179
 31
0.0
  0
LINE
  5
40D
330
2
100
AcDbEntity
  8
SANINDUSA
100
AcDbLine
 10
1.943137724012789
 20
0.0020000000000143
 30
0.0
 11
1.916117075175259
 21
0.0020000000000043
 31
0.0
  0
LWPOLYLINE
  5
40E
330
2
100
AcDbEntity
  8
SANINDUSA
100
AcDbPolyline
 90
        3
 70
   128
 43
0.0
 10
2.495986365240709
 20
0.0333693061471137
 10
2.495760470690834
 20
0.033198993325235
 10
2.495385313454644
 20
0.0330751684010072
  0
ELLIPSE
  5
411
330
2
100
AcDbEntity
  8
SANINDUSA
100
AcDbEllipse
 10
2.297375469999762
 20
0.090022548711763
 30
0.0
 11
-0.0260822403719174
 21
0.0360553863889412
 31
0.0
210
0.0
220
0.0
230
1.0
 40
0.6775019846350009
 41
3.717195195109117
 42
3.733105762274122
  0
LINE
  5
413
330
2
100
AcDbEntity
  8
SANINDUSA
100
AcDbLine
 10
2.332647552977215
 20
0.0699465821012979
 30
0.0
 11
2.33381051451674
 21
0.0769999983236264
 31
0.0
  0
LWPOLYLINE
  5
414
330
2
100
AcDbEntity
  8
SANINDUSA
100
AcDbPolyline
 90
        9
 70
   128
 43
0.0
 10
2.33381051451674
 20
0.0769999983236264
 10
2.333410999600813
 20
0.0780876126587543
 10
2.332936856084209
 20
0.0790710660144811
 10
2.332396202182402
 20
0.079933531720201
 10
2.331798282503086
 20
0.0806602522712208
 10
2.331153332879064
 20
0.0812387935216527
 10
2.33047238580951
 20
0.0816592564729569
 10
2.329767093309379
 20
0.0819144468255715
 10
2.329049523134671
 20
0.0819999982118559
  0
LINE
  5
415
330
2
100
AcDbEntity
  8
SANINDUSA
100
AcDbLine
 10
1.696484915871087
 20
0.0819999982118722
 30
0.0
 11
2.329049523134671
 21
0.0819999982118559
 31
0.0
  0
LINE
  5
42C
330
2
100
AcDbEntity
  8
SANINDUSA
100
AcDbLine
 10
2.136030432533596
 20
0.0020000000000179
 30
0.0
 11
2.101929505660025
 21
0.0019999999999915
 31
0.0
  0
LINE
  5
433
330
2
100
AcDbEntity
  8
SANINDUSA
100
AcDbLine
 10
1.916117075175259
 20
0.0020000000000043
 30
0.0
 11
1.882016144046304
 21
0.0020000000000024
 31
0.0
  0
ELLIPSE
  5
446
330
2
100
AcDbEntity
  8
SANINDUSA
100
AcDbEllipse
 10
2.311658445631096
 20
0.1050225487117711
 30
0.0
 11
-0.0325588369251182
 21
0.0655659295491883
 31
0.0
210
0.0
220
0.0
230
0.9999999999999998
 40
0.7662623590804988
 41
3.809287259433699
 42
3.82519782659869
  0
LINE
  5
448
330
2
100
AcDbEntity
  8
SANINDUSA
100
AcDbLine
 10
2.369795906294469
 20
0.0769999983236091
 30
0.0
 11
2.368632990448407
 21
0.0699465821012934
 31
0.0
  0
ARC
  5
44A
330
2
100
AcDbEntity
  8
SANINDUSA
100
AcDbCircle
 10
2.377361146987901
 20
0.073787673275722
 30
0.0
 40
0.0082189962259953
100
AcDbArc
 50
92.30867353858817
 51
156.9931281001174
  0
LINE
  5
44B
330
2
100
AcDbEntity
  8
SANINDUSA
100
AcDbLine
 10
2.377030060736147
 20
0.0819999982118631
 30
0.0
 11
2.516190147605693
 21
0.0819999982118595
 31
0.0
  0
LINE
  5
44C
330
2
100
AcDbEntity
  8
SANINDUSA
100
AcDbLine
 10
2.548327194777361
 20
0.0019999982118708
 30
0.0
 11
2.344936198846616
 21
0.0019999982118595
 31
0.0
  0
LINE
  5
450
330
2
100
AcDbEntity
  8
SANINDUSA
100
AcDbLine
 10
2.329049523134671
 20
0.0819999982118559
 30
0.0
 11
2.377030060736147
 21
0.0819999982118631
 31
0.0
  0
ARC
  5
467
330
2
100
AcDbEntity
  8
SANINDUSA
100
AcDbCircle
 10
2.44666567868978
 20
0.0954297681541682
 30
0.0
 40
0.0641172540758756
100
AcDbArc
 50
300.1299018505397
 51
334.9818517598917
  0
ELLIPSE
  5
469
330
2
100
AcDbEntity
  8
SANINDUSA
100
AcDbEllipse
 10
2.337000301640671
 20
0.1047186824181942
 30
0.0
 11
0.0007973452336338
 21
0.0699954603004033
 31
0.0
210
0.0
220
0.0
230
1.0
 40
0.0669768875002011
 41
2.100528911665921
 42
2.691976136871301
  0
ELLIPSE
  5
473
330
2
100
AcDbEntity
  8
SANINDUSA
100
AcDbEllipse
 10
1.747267268713124
 20
0.0219999982118704
 30
0.0
 11
0.0208776245098343
 21
-0.0011870713082593
 31
0.0
210
0.0
220
0.0
230
0.9999999999999998
 40
0.0111731829186257
 41
3.14501548884403
 42
3.256919840492348
  0
ELLIPSE
  5
474
330
2
100
AcDbEntity
  8
SANINDUSA
100
AcDbEllipse
 10
1.750930673114837
 20
0.0069999982118695
 30
0.0
 11
0.0202981886260597
 21
0.0011857520370071
 31
0.0
210
0.0
220
0.0
230
1.0
 40
0.0118180755007594
 41
3.07552991401562
 42
3.143936765724776
  0
LWPOLYLINE
  5
480
330
2
100
AcDbEntity
  8
SANINDUSA
100
AcDbPolyline
 90
        3
 70
   128
 43
0.0
 10
2.495580596972334
 20
0.0361774299740845
 10
2.495995814517281
 20
0.0343867760598657
 10
2.495988249585634
 20
0.033369414180516
  0
ELLIPSE
  5
490
330
2
100
AcDbEntity
  8
SANINDUSA
100
AcDbEllipse
 10
2.337000301640671
 20
0.1047186824181942
 30
0.0
 11
0.0008187458099632
 21
0.069995213841822
 31
0.0
210
0.0
220
0.0
230
1.0
 40
0.525559537032918
 41
3.592083557566998
 42
4.182753472699301
  0
LINE
  5
494
330
2
100
AcDbEntity
  8
SANINDUSA
100
AcDbLine
 10
2.406631698074544
 20
0.029833624568085
 30
0.0
 11
2.486631701989055
 21
0.029833624568085
 31
0.0
  0
SPLINE
  5
497
330
2
100
AcDbEntity
  8
SANINDUSA
100
AcDbSpline
210
0.0
220
0.0
230
1.0
 70
    24
 71
     3
 72
     8
 73
     4
 74
     0
 42
0.0000000001
 43
0.0000000001
 40
5.049415426123063
 40
5.049415426123063
 40
5.049415426123063
 40
5.049415426123063
 40
5.092542814607138
 40
5.092542814607138
 40
5.092542814607138
 40
5.092542814607138
 10
1.951296916480412
 20
0.0146284825761288
 30
0.0
 10
1.949886607095229
 20
0.0200106437945871
 30
0.0
 10
1.948480505923145
 20
0.0253507884790249
 30
0.0
 10
1.947079911975966
 20
0.0306439712432377
 30
0.0
  0
ARC
  5
498
330
2
100
AcDbEntity
  8
SANINDUSA
100
AcDbCircle
 10
1.800941128246172
 20
0.0240813656851703
 30
0.0
 40
0.0169277242011266
100
AcDbArc
 50
150.8241926911634
 51
163.5126792950187
  0
ARC
  5
499
330
2
100
AcDbEntity
  8
SANINDUSA
100
AcDbCircle
 10
1.785287930371474
 20
0.0328209704428675
 30
0.0
 40
0.001
100
AcDbArc
 50
330.8241926911634
 51
89.32371363508236
  0
SPLINE
  5
49A
330
2
100
AcDbEntity
  8
SANINDUSA
100
AcDbSpline
210
0.0
220
0.0
230
1.0
 70
    24
 71
     3
 72
     8
 73
     4
 74
     0
 42
0.0000000001
 43
0.0000000001
 40
0.9698835256658849
 40
0.9698835256658849
 40
0.9698835256658849
 40
0.9698835256658849
 40
1.012811312729658
 40
1.012811312729658
 40
1.012811312729658
 40
1.012811312729658
 10
1.784709428683648
 20
0.0288855072256931
 30
0.0
 10
1.783400880775125
 20
0.0242191652495046
 30
0.0
 10
1.782080475016646
 20
0.0194828933794249
 30
0.0
 10
1.780749412934372
 20
0.0146810220316958
 30
0.0
  0
SPLINE
  5
49B
330
2
100
AcDbEntity
  8
SANINDUSA
100
AcDbSpline
210
0.0
220
0.0
230
1.0
 70
    24
 71
     3
 72
     8
 73
     4
 74
     0
 42
0.0000000001
 43
0.0000000001
 40
1.450636054275463
 40
1.450636054275463
 40
1.450636054275463
 40
1.450636054275463
 40
1.478866174046018
 40
1.478866174046018
 40
1.478866174046018
 40
1.478866174046018
 10
1.738122178592982
 20
0.0258916264315164
 30
0.0
 10
1.739004841122468
 20
0.0221763941203105
 30
0.0
 10
1.739891610972492
 20
0.0184554344058281
 30
0.0
 10
1.740782132486907
 20
0.014730237406093
 30
0.0
  0
ARC
  5
49C
330
2
100
AcDbEntity
  8
SANINDUSA
100
AcDbCircle
 10
1.721558622261063
 20
0.0219426975510157
 30
0.0
 40
0.0170277974846608
100
AcDbArc
 50
13.51719971001637
 51
32.02056031168036
  0
LWPOLYLINE
  5
49D
330
2
100
AcDbEntity
  8
SANINDUSA
100
AcDbPolyline
 90
        4
 70
   128
 43
0.0
 10
1.75977025546783
 20
0.0291926675194401
 10
1.751177965889721
 20
0.0298206063249706
 10
1.742163159311331
 20
0.0312297730541179
 10
1.737081230121194
 20
0.0324728239533853
  0
SPLINE
  5
49E
330
2
100
AcDbEntity
  8
SANINDUSA
100
AcDbSpline
210
0.0
220
0.0
230
1.0
 70
     8
 71
     3
 72
     8
 73
     4
 74
     0
 42
0.0000000001
 43
0.0000000001
 40
4.674781837282768
 40
4.674781837282768
 40
4.674781837282768
 40
4.674781837282768
 40
4.711944803634096
 40
4.711944803634096
 40
4.711944803634096
 40
4.711944803634096
 10
1.75977025546783
 20
0.0291926675194401
 30
0.0
 10
1.761930076668819
 20
0.0291133449930423
 30
0.0
 10
1.763601285792179
 20
0.0290766818448935
 30
0.0
 10
1.765272703144406
 20
0.0290569524801687
 30
0.0
  0
SPLINE
  5
49F
330
2
100
AcDbEntity
  8
SANINDUSA
100
AcDbSpline
210
0.0
220
0.0
230
1.0
 70
     8
 71
     3
 72
    14
 73
    10
 74
     0
 42
0.0000000001
 43
0.0000000001
 40
4.734688545661888
 40
4.734688545661888
 40
4.734688545661888
 40
4.734688545661888
 40
5.068782173837241
 40
5.068782173837241
 40
5.326005688027394
 40
5.326005688027394
 40
5.583229202217547
 40
5.583229202217547
 40
5.679450559528277
 40
5.679450559528277
 40
5.679450559528277
 40
5.679450559528277
 10
1.769422071581376
 20
0.0290102053623056
 30
0.0
 10
1.771169672757458
 20
0.0290114337698003
 30
0.0
 10
1.772917774904992
 20
0.0291703141687646
 30
0.0
 10
1.77599699521089
 20
0.0297635660965786
 30
0.0
 10
1.777331794165823
 20
0.0301259024059143
 30
0.0
 10
1.77999105934206
 20
0.0311204294522942
 30
0.0
 10
1.781317546308052
 20
0.0317509047378696
 30
0.0
 10
1.783120964308722
 20
0.0328986331086641
 30
0.0
 10
1.783610139430158
 20
0.0332401483758547
 30
0.0
 10
1.784093961498816
 20
0.0336168510089967
 30
0.0
  0
LINE
  5
4A0
330
2
100
AcDbEntity
  8
SANINDUSA
100
AcDbLine
 10
2.322861529273895
 20
0.0274755364308005
 30
0.0
 11
2.345201348383691
 21
0.0272118378329094
 31
0.0
  0
LINE
  5
4A1
330
2
100
AcDbEntity
  8
SANINDUSA
100
AcDbLine
 10
2.172736253255004
 20
0.0292476109762417
 30
0.0
 11
2.244629034589233
 21
0.0283989906027661
 31
0.0
  0
ARC
  5
4A2
330
2
100
AcDbEntity
  8
SANINDUSA
100
AcDbCircle
 10
2.244617231439555
 20
0.0273990602623637
 30
0.0
 40
0.001
100
AcDbArc
 50
342.1949385363679
 51
89.32371363508236
  0
LINE
  5
4A3
330
2
100
AcDbEntity
  8
SANINDUSA
100
AcDbLine
 10
1.948058444866404
 20
0.0318997015217453
 30
0.0
 11
2.009026766993575
 21
0.0311800331581969
 31
0.0
  0
LINE
  5
4A4
330
2
100
AcDbEntity
  8
SANINDUSA
100
AcDbLine
 10
1.784720108163227
 20
0.0338277426647298
 30
0.0
 11
1.785299733521152
 21
0.0338209007832695
 31
0.0
  0
LINE
  5
4A5
330
2
100
AcDbEntity
  8
SANINDUSA
100
AcDbLine
 10
2.344145530958138
 20
0.0145579313605701
 30
0.0
 11
2.346174286458133
 21
0.0260378824324705
 31
0.0
  0
ARC
  5
4A6
330
2
100
AcDbEntity
  8
SANINDUSA
100
AcDbCircle
 10
2.343160789734017
 20
0.0147319564206066
 30
0.0
 40
0.001
100
AcDbArc
 50
269.9780133291035
 51
349.9780723717649
  0
ARC
  5
4A7
330
2
100
AcDbEntity
  8
SANINDUSA
100
AcDbCircle
 10
2.345189545234013
 20
0.0262119074925069
 30
0.0
 40
0.001
100
AcDbArc
 50
349.9780723717649
 51
89.32371363508236
  0
LINE
  5
4A8
330
2
100
AcDbEntity
  8
SANINDUSA
100
AcDbLine
 10
2.321902298584822
 20
0.0261225699260842
 30
0.0
 11
2.323992483198828
 21
0.0145656648252118
 31
0.0
  0
ARC
  5
4A9
330
2
100
AcDbEntity
  8
SANINDUSA
100
AcDbCircle
 10
2.305244400203349
 20
0.0226715242609277
 30
0.0
 40
0.0170116223409304
100
AcDbArc
 50
11.21620259426645
 51
12.19277306844948
  0
ARC
  5
4AA
330
2
100
AcDbEntity
  8
SANINDUSA
100
AcDbCircle
 10
2.322849726124217
 20
0.0264756060903985
 30
0.0
 40
0.001
100
AcDbArc
 50
89.32371363508236
 51
192.1927730684743
  0
LINE
  5
4AB
330
2
100
AcDbEntity
  8
SANINDUSA
100
AcDbLine
 10
2.2455693338237
 20
0.0270932808482396
 30
0.0
 11
2.241513781917597
 21
0.0144655483702629
 31
0.0
  0
ARC
  5
4AC
330
2
100
AcDbEntity
  8
SANINDUSA
100
AcDbCircle
 10
2.240561679533451
 20
0.014771327784387
 30
0.0
 40
0.001
100
AcDbArc
 50
269.9780133291035
 51
342.1949385364062
  0
SPLINE
  5
4AD
330
2
100
AcDbEntity
  8
SANINDUSA
100
AcDbSpline
210
0.0
220
0.0
230
1.0
 70
    24
 71
     3
 72
     8
 73
     4
 74
     0
 42
0.0000000001
 43
0.0000000001
 40
4.589079840575835
 40
4.589079840575835
 40
4.589079840575835
 40
4.589079840575835
 40
4.623000761380135
 40
4.623000761380135
 40
4.623000761380135
 40
4.623000761380135
 10
2.174957020683357
 20
0.0145651358994443
 30
0.0
 10
2.173894421837388
 20
0.0190408484005222
 30
0.0
 10
2.172825839214974
 20
0.0235250105104312
 30
0.0
 10
2.171751883423273
 20
0.0280150563701693
 30
0.0
  0
SPLINE
  5
4AE
330
2
100
AcDbEntity
  8
SANINDUSA
100
AcDbSpline
210
0.0
220
0.0
230
1.0
 70
     8
 71
     3
 72
     8
 73
     4
 74
     0
 42
0.0000000001
 43
0.0000000001
 40
0.6176005682608635
 40
0.6176005682608635
 40
0.6176005682608635
 40
0.6176005682608635
 40
0.681860539332337
 40
0.681860539332337
 40
0.681860539332337
 40
0.681860539332337
 10
2.009967723616005
 20
0.0298763779148755
 30
0.0
 10
2.008410599050302
 20
0.0249918075944795
 30
0.0
 10
2.006807780786096
 20
0.0198852288333548
 30
0.0
 10
2.00516226736611
 20
0.0145664688981826
 30
0.0
  0
LINE
  5
4AF
330
2
100
AcDbEntity
  8
SANINDUSA
100
AcDbLine
 10
1.779785366980407
 20
0.0139481459286255
 30
0.0
 11
1.741754344553744
 21
0.0139627399462199
 31
0.0
  0
LINE
  5
4B0
330
2
100
AcDbEntity
  8
SANINDUSA
100
AcDbLine
 10
2.004206558708135
 20
0.0138620265815709
 30
0.0
 11
1.952263874309347
 21
0.0138819590577775
 31
0.0
  0
LINE
  5
4B1
330
2
100
AcDbEntity
  8
SANINDUSA
100
AcDbLine
 10
2.240561295793662
 20
0.0137713278580151
 30
0.0
 11
2.17592959220301
 21
0.0137961296161217
 31
0.0
  0
LINE
  5
4B2
330
2
100
AcDbEntity
  8
SANINDUSA
100
AcDbLine
 10
2.343160405994228
 20
0.0137319564942347
 30
0.0
 11
2.324976973942862
 21
0.013738934201119
 31
0.0
  0
ARC
  5
4B3
330
2
100
AcDbEntity
  8
SANINDUSA
100
AcDbCircle
 10
2.324977357682651
 20
0.0147389341274908
 30
0.0
 40
0.001
100
AcDbArc
 50
189.9779579060983
 51
269.9780133291035
  0
ARC
  5
4B4
330
2
100
AcDbEntity
  8
SANINDUSA
100
AcDbCircle
 10
2.540485616885072
 20
0.0215568213346284
 30
0.0
 40
0.0169999401565014
100
AcDbArc
 50
9.977377292819252
 51
66.24316764581109
  0
LINE
  5
4B5
330
2
100
AcDbEntity
  8
SANINDUSA
100
AcDbLine
 10
2.557228432444117
 20
0.0245023420819986
 30
0.0
 11
2.558992463202926
 21
0.0144754857360092
 31
0.0
  0
ARC
  5
4B6
330
2
100
AcDbEntity
  8
SANINDUSA
100
AcDbCircle
 10
2.559977337644544
 20
0.0146487552781898
 30
0.0
 40
0.001
100
AcDbArc
 50
189.9779718625006
 51
269.9780133291035
  0
LWPOLYLINE
  5
4B7
330
2
100
AcDbEntity
  8
SANINDUSA
100
AcDbPolyline
 90
        2
 70
   128
 43
0.0
 10
2.555536471693756
 20
0.046650459834216
 10
2.547055993173593
 20
0.0387637876972719
  0
LINE
  5
4B8
330
2
100
AcDbEntity
  8
SANINDUSA
100
AcDbLine
 10
2.569590339121817
 20
0.0691487622941993
 30
0.0
 11
2.56154038496993
 21
0.0553512393343369
 31
0.0
  0
LWPOLYLINE
  5
4B9
330
2
100
AcDbEntity
  8
SANINDUSA
100
AcDbPolyline
 90
        3
 70
   128
 43
0.0
 10
2.56154038496993
 20
0.0553512393343369
 10
2.558711847530308
 20
0.0508996618864673
 10
2.555536471693756
 20
0.046650459834216
  0
LINE
  5
4BA
330
2
100
AcDbEntity
  8
SANINDUSA
100
AcDbLine
 10
2.599538022744287
 20
0.068664382045655
 30
0.0
 11
2.600941953202243
 21
0.0146594066714763
 31
0.0
  0
LINE
  5
4BB
330
2
100
AcDbEntity
  8
SANINDUSA
100
AcDbLine
 10
2.598538589481385
 20
0.0696383944822762
 30
0.0
 11
2.570454308904474
 21
0.0696448258956782
 31
0.0
  0
ARC
  5
4BC
330
2
100
AcDbEntity
  8
SANINDUSA
100
AcDbCircle
 10
2.570454079900451
 20
0.0686448259218998
 30
0.0
 40
0.001
100
AcDbArc
 50
89.98687903588416
 51
149.7392281889583
  0
ARC
  5
4BD
330
2
100
AcDbEntity
  8
SANINDUSA
100
AcDbCircle
 10
2.598538360477363
 20
0.0686383945084978
 30
0.0
 40
0.001
100
AcDbArc
 50
1.489143847193806
 51
89.98687903588416
  0
LINE
  5
4BE
330
2
100
AcDbEntity
  8
SANINDUSA
100
AcDbLine
 10
2.59994190719553
 20
0.0136334192079473
 30
0.0
 11
2.559976953904755
 21
0.0136487553518179
 31
0.0
  0
ARC
  5
4BF
330
2
100
AcDbEntity
  8
SANINDUSA
100
AcDbCircle
 10
2.599942290935319
 20
0.0146334191343191
 30
0.0
 40
0.001
100
AcDbArc
 50
269.9780133291035
 51
1.489143847193806
  0
LINE
  5
4C0
330
2
100
AcDbEntity
  8
SANINDUSA
100
AcDbLine
 10
1.769422071581376
 20
0.0290102053623056
 30
0.0
 11
1.765275603314737
 21
0.029056918422498
 31
0.0
  0
ARC
  5
4C2
330
2
100
AcDbEntity
  8
SANINDUSA
100
AcDbCircle
 10
2.547736997810608
 20
0.0380315085944951
 30
0.0
 40
0.001
100
AcDbArc
 50
132.9221988907548
 51
246.2431676458111
  0
ARC
  5
4C3
330
2
100
AcDbEntity
  8
SANINDUSA
100
AcDbCircle
 10
1.73684363246452
 20
0.0315014602966932
 30
0.0
 40
0.001
100
AcDbArc
 50
76.25520462812611
 51
212.0205603117424
  0
ARC
  5
4C4
330
2
100
AcDbEntity
  8
SANINDUSA
100
AcDbCircle
 10
1.784708305013547
 20
0.0328278123243319
 30
0.0
 40
0.001
100
AcDbArc
 50
89.32371363487879
 51
127.9042343757719
  0
ARC
  5
4C5
330
2
100
AcDbEntity
  8
SANINDUSA
100
AcDbCircle
 10
1.779785750720194
 20
0.0149481458549987
 30
0.0
 40
0.001
100
AcDbArc
 50
269.978013329307
 51
344.5068109952253
  0
ARC
  5
4C6
330
2
100
AcDbEntity
  8
SANINDUSA
100
AcDbCircle
 10
1.741754728293538
 20
0.0149627398725963
 30
0.0
 40
0.001
100
AcDbArc
 50
193.4444473145298
 51
269.9780133288999
  0
ARC
  5
4C7
330
2
100
AcDbEntity
  8
SANINDUSA
100
AcDbCircle
 10
1.94804664171672
 20
0.0308997711813433
 30
0.0
 40
0.001
100
AcDbArc
 50
89.32371363487879
 51
194.8209904019491
  0
ARC
  5
4C8
330
2
100
AcDbEntity
  8
SANINDUSA
100
AcDbCircle
 10
1.952264258049138
 20
0.0148819589841521
 30
0.0
 40
0.001
100
AcDbArc
 50
194.68332391299
 51
269.9780133288999
  0
ARC
  5
4C9
330
2
100
AcDbEntity
  8
SANINDUSA
100
AcDbCircle
 10
2.004206942447919
 20
0.0148620265079464
 30
0.0
 40
0.001
100
AcDbArc
 50
269.9780133292053
 51
342.809022902136
  0
ARC
  5
4CA
330
2
100
AcDbEntity
  8
SANINDUSA
100
AcDbCircle
 10
2.009014963843894
 20
0.0301801028177931
 30
0.0
 40
0.001
100
AcDbArc
 50
342.3185325456084
 51
89.32371363498056
  0
ARC
  5
4CB
330
2
100
AcDbEntity
  8
SANINDUSA
100
AcDbCircle
 10
2.172724450105318
 20
0.0282476806358447
 30
0.0
 40
0.001
100
AcDbArc
 50
89.32371363467522
 51
193.4516226313458
  0
ARC
  5
4CC
330
2
100
AcDbEntity
  8
SANINDUSA
100
AcDbCircle
 10
2.175929975942799
 20
0.0147961295424959
 30
0.0
 40
0.001
100
AcDbArc
 50
193.3555787158142
 51
269.9780133291035
  0
LINE
  5
4CD
330
2
100
AcDbEntity
  8
SANINDUSA
100
AcDbLine
 10
1.714117887138412
 20
0.0389733455059188
 30
0.0
 11
1.669339356665573
 21
0.0389905288110078
 31
0.0
  0
SPLINE
  5
4CE
330
2
100
AcDbEntity
  8
SANINDUSA
100
AcDbSpline
210
0.0
220
0.0
230
1.0
 70
     8
 71
     3
 72
    12
 73
     8
 74
     0
 42
0.0000000001
 43
0.0000000001
 40
1.570796326794945
 40
1.570796326794945
 40
1.570796326794945
 40
1.570796326794945
 40
1.813418020448157
 40
1.813418020448157
 40
2.127161782481
 40
2.127161782481
 40
2.219197253266048
 40
2.219197253266048
 40
2.219197253266048
 40
2.219197253266048
 10
1.669339356613445
 20
0.0389905285130059
 30
0.0
 10
1.668044597277319
 20
0.0389910253637165
 30
0.0
 10
1.666749627995986
 20
0.0388607585144966
 30
0.0
 10
1.66381902137163
 20
0.0382560536102553
 30
0.0
 10
1.662193343256168
 20
0.0376919020289804
 30
0.0
 10
1.660191510270172
 20
0.036652947797829
 30
0.0
 10
1.659744060667951
 20
0.036396531830095
 30
0.0
 10
1.659305369987592
 20
0.0361191179858822
 30
0.0
  0
LINE
  5
4CF
330
2
100
AcDbEntity
  8
SANINDUSA
100
AcDbLine
 10
1.657771403577616
 20
0.0369960219809565
 30
0.0
 11
1.658787600678378
 21
0.0690201892784305
 31
0.0
  0
LWPOLYLINE
  5
4D0
330
2
100
AcDbEntity
  8
SANINDUSA
100
AcDbPolyline
 90
        8
 70
   128
 43
0.0
 10
1.714605307386201
 20
0.0408467270441167
 10
1.707741988940198
 20
0.044674019265499
 10
1.699876129926892
 20
0.0501303065184986
 10
1.692634970289087
 20
0.0563674811318517
 10
1.687681877931947
 20
0.0615334945350453
 10
1.6811469342641
 20
0.0696150229056922
 42
0.22643218320879
 10
1.680369456757899
 20
0.0699862459426019
 10
1.659787205797059
 20
0.0699884730422493
  0
ARC
  5
4D1
330
2
100
AcDbEntity
  8
SANINDUSA
100
AcDbCircle
 10
1.659787097592197
 20
0.0689884730481032
 30
0.0
 40
0.001
100
AcDbArc
 50
89.99380031807483
 51
178.1824890617492
  0
ARC
  5
4D2
330
2
100
AcDbEntity
  8
SANINDUSA
100
AcDbCircle
 10
1.658770900491432
 20
0.0369643057506298
 30
0.0
 40
0.001
100
AcDbArc
 50
178.1824890617747
 51
302.3079411008461
  0
ARC
  5
4D3
330
2
100
AcDbEntity
  8
SANINDUSA
100
AcDbCircle
 10
1.714118270878201
 20
0.0399733454322902
 30
0.0
 40
0.001
100
AcDbArc
 50
269.9780133291035
 51
60.85401475466672
  0
LINE
  5
4D4
330
2
100
AcDbEntity
  8
SANINDUSA
100
AcDbLine
 10
1.735489801567641
 20
0.001999999999997
 30
0.0
 11
1.654002827979622
 21
0.0019999982118749
 31
0.0
  0
ENDSEC
  0
SECTION
  2
OBJECTS
  0
DICTIONARY
  5
7
330
0
100
AcDbDictionary
281
     1
  3
ACAD_COLOR
350
36
  3
ACAD_GROUP
350
1F
  3
ACAD_LAYOUT
350
B
  3
ACAD_MATERIAL
350
35
  3
ACAD_MLEADERSTYLE
350
5D2
  3
ACAD_MLINESTYLE
350
20
  3
ACAD_PLOTSETTINGS
350
21
  3
ACAD_PLOTSTYLENAME
350
6
  3
ACAD_SCALELIST
350
5C0
  3
ACAD_TABLESTYLE
350
37
  3
ACAD_VISUALSTYLE
350
5AC
  3
ACDB_RECOMPOSE_DATA
350
5F2
  3
AcDbVariableDictionary
350
31
  3
ASE_INDEX_DICTIONARY
350
5E8
  3
DWGPROPS
350
5F3
  0
DICTIONARY
  5
5D9
330
4
100
AcDbDictionary
280
     1
281
     1
  3
ADSK_XREC_LAYER_RECONCILED
360
5DA
  0
DICTIONARY
  5
5DB
330
22
100
AcDbDictionary
280
     1
281
     1
  3
ADSK_XREC_LAYER_RECONCILED
360
5DC
  0
DICTIONARY
  5
5DD
330
10A
100
AcDbDictionary
280
     1
281
     1
  3
ADSK_XREC_LAYER_RECONCILED
360
5DE
  0
DICTIONARY
  5
5DF
330
10B
100
AcDbDictionary
280
     1
281
     1
  3
ADSK_XREC_LAYER_RECONCILED
360
5E0
  0
DICTIONARY
  5
5E1
330
10C
100
AcDbDictionary
280
     1
281
     1
  3
ADSK_XREC_LAYER_RECONCILED
360
5E2
  0
DICTIONARY
  5
5E3
330
10D
100
AcDbDictionary
280
     1
281
     1
  3
ADSK_XREC_LAYER_RECONCILED
360
5E4
  0
DICTIONARY
  5
5E5
330
10F
100
AcDbDictionary
280
     1
281
     1
  3
ADSK_XREC_LAYER_RECONCILED
360
5E6
  0
DICTIONARY
  5
36
102
{ACAD_REACTORS
330
7
102
}
330
7
100
AcDbDictionary
281
     1
  0
DICTIONARY
  5
1F
102
{ACAD_REACTORS
330
7
102
}
330
7
100
AcDbDictionary
281
     1
  0
DICTIONARY
  5
B
102
{ACAD_REACTORS
330
7
102
}
330
7
100
AcDbDictionary
281
     1
  3
Layout1
350
F
  3
Model
350
A
  0
DICTIONARY
  5
35
102
{ACAD_REACTORS
330
7
102
}
330
7
100
AcDbDictionary
281
     1
  3
ByBlock
350
59C
  3
ByLayer
350
594
  3
Global
350
5A4
  0
DICTIONARY
  5
5D2
102
{ACAD_REACTORS
330
7
102
}
330
7
100
AcDbDictionary
281
     1
  3
Standard
350
5D3
  0
DICTIONARY
  5
20
102
{ACAD_REACTORS
330
7
102
}
330
7
100
AcDbDictionary
281
     1
  3
Standard
350
24
  0
DICTIONARY
  5
21
102
{ACAD_REACTORS
330
7
102
}
330
7
100
AcDbDictionary
281
     1
  0
ACDBDICTIONARYWDFLT
  5
6
102
{ACAD_REACTORS
330
7
102
}
330
7
100
AcDbDictionary
281
     1
  3
Normal
350
5
100
AcDbDictionaryWithDefault
340
5
  0
DICTIONARY
  5
5C0
102
{ACAD_REACTORS
330
7
102
}
330
7
100
AcDbDictionary
281
     1
  3
A0
350
5C1
  3
A1
350
5C2
  3
A2
350
5C3
  3
A3
350
5C4
  3
A4
350
5C5
  3
A5
350
5C6
  3
A6
350
5C7
  3
A7
350
5C8
  3
A8
350
5C9
  3
A9
350
5CA
  3
B0
350
5CB
  3
B1
350
5CC
  3
B2
350
5CD
  3
B3
350
5CE
  3
B4
350
5CF
  3
B5
350
5D0
  3
B6
350
5D1
  0
DICTIONARY
  5
37
102
{ACAD_REACTORS
330
7
102
}
330
7
100
AcDbDictionary
281
     1
  3
Standard
350
38
  0
DICTIONARY
  5
5AC
102
{ACAD_REACTORS
330
7
102
}
330
7
100
AcDbDictionary
281
     1
  3
2dWireframe
350
5B2
  3
3D Hidden
350
5B4
  3
3dWireframe
350
5B3
  3
Basic
350
5B1
  3
Brighten
350
5B8
  3
ColorChange
350
5BC
  3
Conceptual
350
5B5
  3
Dim
350
5B7
  3
EdgeColorOff
350
5BF
  3
Facepattern
350
5BB
  3
Flat
350
5AD
  3
FlatWithEdges
350
5AE
  3
Gouraud
350
5AF
  3
GouraudWithEdges
350
5B0
  3
JitterOff
350
5BD
  3
Linepattern
350
5BA
  3
OverhangOff
350
5BE
  3
Realistic
350
5B6
  3
Thicken
350
5B9
  0
XRECORD
  5
5F2
102
{ACAD_REACTORS
330
7
102
}
330
7
100
AcDbXrecord
280
     1
 90
        1
330
38
  0
DICTIONARY
  5
31
102
{ACAD_REACTORS
330
7
102
}
330
7
100
AcDbDictionary
281
     1
  3
CANNOSCALE
350
5EC
  3
CMLEADERSTYLE
350
5EB
  3
CTABLESTYLE
350
CD
  3
DIMASSOC
350
33
  3
HIDETEXT
350
32
  3
INDEXCTL
350
5EE
  3
PROJECTNAME
350
CE
  3
SORTENTS
350
5ED
  3
XCLIPFRAME
350
5EF
  0
DICTIONARY
  5
5E8
102
{ACAD_REACTORS
330
7
102
}
330
7
100
AcDbDictionary
281
     1
  3
ASEBlockHierarchyIndexRecord
350
5EA
1001
DCO15
1040
1757673997.484
  0
XRECORD
  5
5F3
102
{ACAD_REACTORS
330
7
102
}
330
7
100
AcDbXrecord
280
     1
  1
DWGPROPS COOKIE
  2

  3

  4

  6

  7

  8
Julio
  9

300
=
301
=
302
=
303
=
304
=
305
=
306
=
307
=
308
=
309
=
 40
0.0214926967592593
 41
2453125.639648206
 42
2456146.660896806
  1

 90
        0
  0
XRECORD
  5
5DA
102
{ACAD_REACTORS
330
5D9
102
}
330
5D9
100
AcDbXrecord
280
     1
290
     1
  0
XRECORD
  5
5DC
102
{ACAD_REACTORS
330
5DB
102
}
330
5DB
100
AcDbXrecord
280
     1
290
     1
  0
XRECORD
  5
5DE
102
{ACAD_REACTORS
330
5DD
102
}
330
5DD
100
AcDbXrecord
280
     1
290
     1
  0
XRECORD
  5
5E0
102
{ACAD_REACTORS
330
5DF
102
}
330
5DF
100
AcDbXrecord
280
     1
290
     1
  0
XRECORD
  5
5E2
102
{ACAD_REACTORS
330
5E1
102
}
330
5E1
100
AcDbXrecord
280
     1
290
     1
  0
XRECORD
  5
5E4
102
{ACAD_REACTORS
330
5E3
102
}
330
5E3
100
AcDbXrecord
280
     1
290
     1
  0
XRECORD
  5
5E6
102
{ACAD_REACTORS
330
5E5
102
}
330
5E5
100
AcDbXrecord
280
     1
290
     1
  0
LAYOUT
  5
F
102
{ACAD_XDICTIONARY
360
5F6
102
}
102
{ACAD_REACTORS
330
B
102
}
330
B
100
AcDbPlotSettings
  1

  2
C:\Programas\Autodesk\MDT6\plotters\LASER_BANHEIRAS.pc3
  4

  6

 40
0.0
 41
0.0
 42
0.0
 43
0.0
 44
0.0
 45
0.0
 46
0.0
 47
0.0
 48
0.0
 49
0.0
140
0.0
141
0.0
142
1.0
143
1.0
 70
   688
 72
     0
 73
     0
 74
     5
  7
BANHEIRAS.ctb
 75
    16
147
1.0
148
0.0
149
0.0
100
AcDbLayout
  1
Layout1
 70
     1
 71
     1
 10
0.0
 20
0.0
 11
420.0
 21
297.0
 12
0.0
 22
0.0
 32
0.0
 14
1.000000000000000E+20
 24
1.000000000000000E+20
 34
1.000000000000000E+20
 15
-1.000000000000000E+20
 25
-1.000000000000000E+20
 35
-1.000000000000000E+20
146
0.0
 13
0.0
 23
0.0
 33
0.0
 16
1.0
 26
0.0
 36
0.0
 17
0.0
 27
1.0
 37
0.0
 76
     0
330
C
  0
LAYOUT
  5
A
102
{ACAD_XDICTIONARY
360
5F4
102
}
102
{ACAD_REACTORS
330
B
102
}
330
B
100
AcDbPlotSettings
  1

  2
Laser 4M+
  4
A4
  6

 40
6.805083274841308
 41
5.069413185119628
 42
6.805084228515625
 43
5.027069091796875
 44
209.9733276367187
 45
296.9683227539062
 46
0.0
 47
4.596060203584215
 48
0.0
 49
0.0
140
0.0
141
0.0
142
1.0
143
1.069708136822442
 70
 11956
 72
     1
 73
     0
 74
     1
  7
FINO.CTB
 75
     0
147
0.9348344334095562
148
0.025633200973175
149
0.0181266115766903
100
AcDbLayout
  1
Model
 70
     1
 71
     0
 10
0.0
 20
0.0
 11
12.0
 21
9.0
 12
0.0
 22
0.0
 32
0.0
 14
0.0
 24
0.0
 34
0.0
 15
0.0
 25
0.0
 35
0.0
146
0.0
 13
0.0
 23
0.0
 33
0.0
 16
1.0
 26
0.0
 36
0.0
 17
0.0
 27
1.0
 37
0.0
 76
     0
330
2
331
58D
  0
MATERIAL
  5
59C
102
{ACAD_XDICTIONARY
360
59D
102
}
102
{ACAD_REACTORS
330
35
102
}
330
35
100
AcDbMaterial
  1
ByBlock
 72
     0
 43
0.0008202099737533
 43
0.0
 43
0.0
 43
0.0
 43
0.0
 43
0.0008202099737533
 43
0.0
 43
0.0
 43
0.0
 43
0.0
 43
1.0
 43
0.0
 43
0.0
 43
0.0
 43
0.0
 43
1.0
 77
     0
 47
0.0008202099737533
 47
0.0
 47
0.0
 47
0.0
 47
0.0
 47
0.0008202099737533
 47
0.0
 47
0.0
 47
0.0
 47
0.0
 47
1.0
 47
0.0
 47
0.0
 47
0.0
 47
0.0
 47
1.0
171
     0
 49
0.0008202099737533
 49
0.0
 49
0.0
 49
0.0
 49
0.0
 49
0.0008202099737533
 49
0.0
 49
0.0
 49
0.0
 49
0.0
 49
1.0
 49
0.0
 49
0.0
 49
0.0
 49
0.0
 49
1.0
175
     0
142
0.0008202099737533
142
0.0
142
0.0
142
0.0
142
0.0
142
0.0008202099737533
142
0.0
142
0.0
142
0.0
142
0.0
142
1.0
142
0.0
142
0.0
142
0.0
142
0.0
142
1.0
179
     0
144
0.0008202099737533
144
0.0
144
0.0
144
0.0
144
0.0
144
0.0008202099737533
144
0.0
144
0.0
144
0.0
144
0.0
144
1.0
144
0.0
144
0.0
144
0.0
144
0.0
144
1.0
147
0.0008202099737533
147
0.0
147
0.0
147
0.0
147
0.0
147
0.0008202099737533
147
0.0
147
0.0
147
0.0
147
0.0
147
1.0
147
0.0
147
0.0
147
0.0
147
0.0
147
1.0
  0
MATERIAL
  5
594
102
{ACAD_XDICTIONARY
360
595
102
}
102
{ACAD_REACTORS
330
35
102
}
330
35
100
AcDbMaterial
  1
ByLayer
 72
     0
 43
0.0008202099737533
 43
0.0
 43
0.0
 43
0.0
 43
0.0
 43
0.0008202099737533
 43
0.0
 43
0.0
 43
0.0
 43
0.0
 43
1.0
 43
0.0
 43
0.0
 43
0.0
 43
0.0
 43
1.0
 77
     0
 47
0.0008202099737533
 47
0.0
 47
0.0
 47
0.0
 47
0.0
 47
0.0008202099737533
 47
0.0
 47
0.0
 47
0.0
 47
0.0
 47
1.0
 47
0.0
 47
0.0
 47
0.0
 47
0.0
 47
1.0
171
     0
 49
0.0008202099737533
 49
0.0
 49
0.0
 49
0.0
 49
0.0
 49
0.0008202099737533
 49
0.0
 49
0.0
 49
0.0
 49
0.0
 49
1.0
 49
0.0
 49
0.0
 49
0.0
 49
0.0
 49
1.0
175
     0
142
0.0008202099737533
142
0.0
142
0.0
142
0.0
142
0.0
142
0.0008202099737533
142
0.0
142
0.0
142
0.0
142
0.0
142
1.0
142
0.0
142
0.0
142
0.0
142
0.0
142
1.0
179
     0
144
0.0008202099737533
144
0.0
144
0.0
144
0.0
144
0.0
144
0.0008202099737533
144
0.0
144
0.0
144
0.0
144
0.0
144
1.0
144
0.0
144
0.0
144
0.0
144
0.0
144
1.0
147
0.0008202099737533
147
0.0
147
0.0
147
0.0
147
0.0
147
0.0008202099737533
147
0.0
147
0.0
147
0.0
147
0.0
147
1.0
147
0.0
147
0.0
147
0.0
147
0.0
147
1.0
  0
MATERIAL
  5
5A4
102
{ACAD_XDICTIONARY
360
5A5
102
}
102
{ACAD_REACTORS
330
35
102
}
330
35
100
AcDbMaterial
  1
Global
 72
     0
 43
0.0008202099737533
 43
0.0
 43
0.0
 43
0.0
 43
0.0
 43
0.0008202099737533
 43
0.0
 43
0.0
 43
0.0
 43
0.0
 43
1.0
 43
0.0
 43
0.0
 43
0.0
 43
0.0
 43
1.0
 77
     0
 47
0.0008202099737533
 47
0.0
 47
0.0
 47
0.0
 47
0.0
 47
0.0008202099737533
 47
0.0
 47
0.0
 47
0.0
 47
0.0
 47
1.0
 47
0.0
 47
0.0
 47
0.0
 47
0.0
 47
1.0
171
     0
 49
0.0008202099737533
 49
0.0
 49
0.0
 49
0.0
 49
0.0
 49
0.0008202099737533
 49
0.0
 49
0.0
 49
0.0
 49
0.0
 49
1.0
 49
0.0
 49
0.0
 49
0.0
 49
0.0
 49
1.0
175
     0
142
0.0008202099737533
142
0.0
142
0.0
142
0.0
142
0.0
142
0.0008202099737533
142
0.0
142
0.0
142
0.0
142
0.0
142
1.0
142
0.0
142
0.0
142
0.0
142
0.0
142
1.0
179
     0
144
0.0008202099737533
144
0.0
144
0.0
144
0.0
144
0.0
144
0.0008202099737533
144
0.0
144
0.0
144
0.0
144
0.0
144
1.0
144
0.0
144
0.0
144
0.0
144
0.0
144
1.0
147
0.0008202099737533
147
0.0
147
0.0
147
0.0
147
0.0
147
0.0008202099737533
147
0.0
147
0.0
147
0.0
147
0.0
147
1.0
147
0.0
147
0.0
147
0.0
147
0.0
147
1.0
  0
MLEADERSTYLE
  5
5D3
102
{ACAD_REACTORS
330
5D2
102
}
330
5D2
100
AcDbMLeaderStyle
170
     2
171
     1
172
     0
 90
        2
 40
0.0
 41
0.0
173
     1
 91
-1056964608
340
15
 92
       -2
290
     1
 42
2.0
291
     1
 43
0.36
  3
Standard
 44
4.0
300

342
12
174
     1
178
     6
175
     1
176
     0
 93
-1056964608
 45
4.0
292
     0
297
     0
 46
4.0
 94
-1056964608
 47
1.0
 49
1.0
140
1.0
293
     1
141
0.0
294
     1
177
     0
142
1.0
295
     0
296
     0
143
0.125
1001
ACAD_MLEADERVER
1070
     2
  0
MLINESTYLE
  5
24
102
{ACAD_REACTORS
330
20
102
}
330
20
100
AcDbMlineStyle
  2
STANDARD
 70
     0
  3

 62
   256
 51
90.0
 52
90.0
 71
     2
 49
0.5
 62
   256
  6
BYLAYER
 49
-0.5
 62
   256
  6
BYLAYER
  0
ACDBPLACEHOLDER
  5
5
102
{ACAD_REACTORS
330
6
102
}
330
6
  0
SCALE
  5
5C1
102
{ACAD_REACTORS
330
5C0
102
}
330
5C0
100
AcDbScale
 70
     0
300
1:1
140
1.0
141
1.0
290
     1
  0
SCALE
  5
5C2
102
{ACAD_REACTORS
330
5C0
102
}
330
5C0
100
AcDbScale
 70
     0
300
1:2
140
1.0
141
2.0
290
     0
  0
SCALE
  5
5C3
102
{ACAD_REACTORS
330
5C0
102
}
330
5C0
100
AcDbScale
 70
     0
300
1:4
140
1.0
141
4.0
290
     0
  0
SCALE
  5
5C4
102
{ACAD_REACTORS
330
5C0
102
}
330
5C0
100
AcDbScale
 70
     0
300
1:5
140
1.0
141
5.0
290
     0
  0
SCALE
  5
5C5
102
{ACAD_REACTORS
330
5C0
102
}
330
5C0
100
AcDbScale
 70
     0
300
1:8
140
1.0
141
8.0
290
     0
  0
SCALE
  5
5C6
102
{ACAD_REACTORS
330
5C0
102
}
330
5C0
100
AcDbScale
 70
     0
300
1:10
140
1.0
141
10.0
290
     0
  0
SCALE
  5
5C7
102
{ACAD_REACTORS
330
5C0
102
}
330
5C0
100
AcDbScale
 70
     0
300
1:16
140
1.0
141
16.0
290
     0
  0
SCALE
  5
5C8
102
{ACAD_REACTORS
330
5C0
102
}
330
5C0
100
AcDbScale
 70
     0
300
1:20
140
1.0
141
20.0
290
     0
  0
SCALE
  5
5C9
102
{ACAD_REACTORS
330
5C0
102
}
330
5C0
100
AcDbScale
 70
     0
300
1:30
140
1.0
141
30.0
290
     0
  0
SCALE
  5
5CA
102
{ACAD_REACTORS
330
5C0
102
}
330
5C0
100
AcDbScale
 70
     0
300
1:40
140
1.0
141
40.0
290
     0
  0
SCALE
  5
5CB
102
{ACAD_REACTORS
330
5C0
102
}
330
5C0
100
AcDbScale
 70
     0
300
1:50
140
1.0
141
50.0
290
     0
  0
SCALE
  5
5CC
102
{ACAD_REACTORS
330
5C0
102
}
330
5C0
100
AcDbScale
 70
     0
300
1:100
140
1.0
141
100.0
290
     0
  0
SCALE
  5
5CD
102
{ACAD_REACTORS
330
5C0
102
}
330
5C0
100
AcDbScale
 70
     0
300
2:1
140
2.0
141
1.0
290
     0
  0
SCALE
  5
5CE
102
{ACAD_REACTORS
330
5C0
102
}
330
5C0
100
AcDbScale
 70
     0
300
4:1
140
4.0
141
1.0
290
     0
  0
SCALE
  5
5CF
102
{ACAD_REACTORS
330
5C0
102
}
330
5C0
100
AcDbScale
 70
     0
300
8:1
140
8.0
141
1.0
290
     0
  0
SCALE
  5
5D0
102
{ACAD_REACTORS
330
5C0
102
}
330
5C0
100
AcDbScale
 70
     0
300
10:1
140
10.0
141
1.0
290
     0
  0
SCALE
  5
5D1
102
{ACAD_REACTORS
330
5C0
102
}
330
5C0
100
AcDbScale
 70
     0
300
100:1
140
100.0
141
1.0
290
     0
  0
TABLESTYLE
  5
38
102
{ACAD_XDICTIONARY
360
5F0
102
}
102
{ACAD_REACTORS
330
37
102
}
330
37
100
AcDbTableStyle
  3
Standard
 70
     0
 71
     0
 40
1.5
 41
1.5
280
     0
281
     0
  7
Standard
140
4.5
170
     2
 62
     0
 63
     7
283
     0
274
    -2
284
     1
 64
     0
275
    -2
285
     1
 65
     0
276
    -2
286
     1
 66
     0
277
    -2
287
     1
 67
     0
278
    -2
288
     1
 68
     0
279
    -2
289
     1
 69
     0
  7
Standard
140
6.0
170
     5
 62
     0
 63
     7
283
     0
274
    -2
284
     1
 64
     0
275
    -2
285
     1
 65
     0
276
    -2
286
     1
 66
     0
277
    -2
287
     1
 67
     0
278
    -2
288
     1
 68
     0
279
    -2
289
     1
 69
     0
  7
Standard
140
4.5
170
     5
 62
     0
 63
     7
283
     0
274
    -2
284
     1
 64
     0
275
    -2
285
     1
 65
     0
276
    -2
286
     1
 66
     0
277
    -2
287
     1
 67
     0
278
    -2
288
     1
 68
     0
279
    -2
289
     1
 69
     0
  0
VISUALSTYLE
  5
5B2
102
{ACAD_XDICTIONARY
360
606
102
}
102
{ACAD_REACTORS
330
5AC
102
}
330
5AC
100
AcDbVisualStyle
  2
2dWireframe
 70
     4
 71
     0
 72
     2
 73
     0
 90
        0
 40
-0.6
 41
-30.0
 62
     5
 63
     7
 74
     1
 91
        4
 64
     7
 65
   257
 75
     1
175
     1
 42
1.0
 92
        0
 66
   257
 43
1.0
 76
     1
 77
     6
 78
     2
 67
     7
 79
     5
170
     0
171
     0
290
     0
174
     0
 93
        1
 44
0.0
173
     0
291
     0
 45
0.0
1001
ACAD
1000
AcDbSavedByObjectVersion
1070
     0
  0
VISUALSTYLE
  5
5B4
102
{ACAD_XDICTIONARY
360
60A
102
}
102
{ACAD_REACTORS
330
5AC
102
}
330
5AC
100
AcDbVisualStyle
  2
3D Hidden
 70
     6
 71
     1
 72
     2
 73
     2
 90
        0
 40
-0.6
 41
-30.0
 62
     5
 63
     7
 74
     2
 91
        2
 64
     7
 65
   257
 75
     2
175
     1
 42
179.0
 92
        0
 66
   257
 43
1.0
 76
     1
 77
     6
 78
     2
 67
     7
 79
     3
170
     0
171
     0
290
     0
174
     0
 93
        1
 44
0.0
173
     0
291
     0
 45
0.0
1001
ACAD
1000
AcDbSavedByObjectVersion
1070
     0
  0
VISUALSTYLE
  5
5B3
102
{ACAD_XDICTIONARY
360
608
102
}
102
{ACAD_REACTORS
330
5AC
102
}
330
5AC
100
AcDbVisualStyle
  2
3dWireframe
 70
     5
 71
     0
 72
     2
 73
     0
 90
        0
 40
-0.6
 41
-30.0
 62
     5
 63
     7
 74
     1
 91
        4
 64
     7
 65
   257
 75
     1
175
     1
 42
1.0
 92
        0
 66
   257
 43
1.0
 76
     1
 77
     6
 78
     2
 67
     7
 79
     5
170
     0
171
     0
290
     0
174
     0
 93
        1
 44
0.0
173
     0
291
     0
 45
0.0
1001
ACAD
1000
AcDbSavedByObjectVersion
1070
     0
  0
VISUALSTYLE
  5
5B1
102
{ACAD_XDICTIONARY
360
604
102
}
102
{ACAD_REACTORS
330
5AC
102
}
330
5AC
100
AcDbVisualStyle
  2
Basic
 70
     7
 71
     1
 72
     0
 73
     1
 90
        0
 40
-0.6
 41
-30.0
 62
     5
 63
     7
 74
     0
 91
        4
 64
     7
 65
   257
 75
     1
175
     1
 42
1.0
 92
        8
 66
     7
 43
1.0
 76
     1
 77
     6
 78
     2
 67
     7
 79
     5
170
     0
171
     0
290
     0
174
     0
 93
        1
 44
0.0
173
     0
291
     1
 45
0.0
1001
ACAD
1000
AcDbSavedByObjectVersion
1070
     0
  0
VISUALSTYLE
  5
5B8
102
{ACAD_XDICTIONARY
360
612
102
}
102
{ACAD_REACTORS
330
5AC
102
}
330
5AC
100
AcDbVisualStyle
  2
Brighten
 70
    12
 71
     2
 72
     2
 73
     0
 90
        0
 40
-0.6
 41
-30.0
 62
     5
 63
     7
 74
     1
 91
        4
 64
     7
 65
   257
 75
     1
175
     1
 42
1.0
 92
        8
 66
     7
 43
1.0
 76
     1
 77
     6
 78
     2
 67
     7
 79
     5
170
     0
171
     0
290
     0
174
     0
 93
        1
 44
50.0
173
     0
291
     1
 45
0.0
1001
ACAD
1000
AcDbSavedByObjectVersion
1070
     0
  0
VISUALSTYLE
  5
5BC
102
{ACAD_XDICTIONARY
360
61A
102
}
102
{ACAD_REACTORS
330
5AC
102
}
330
5AC
100
AcDbVisualStyle
  2
ColorChange
 70
    16
 71
     2
 72
     2
 73
     3
 90
        0
 40
-0.6
 41
-30.0
 62
     5
 63
     8
 74
     1
 91
        4
 64
     7
 65
   257
 75
     1
175
     1
 42
1.0
 92
        8
 66
     8
 43
1.0
 76
     1
 77
     6
 78
     2
 67
     7
 79
     5
170
     0
171
     0
290
     0
174
     0
 93
        1
 44
0.0
173
     0
291
     1
 45
0.0
1001
ACAD
1000
AcDbSavedByObjectVersion
1070
     0
  0
VISUALSTYLE
  5
5B5
102
{ACAD_XDICTIONARY
360
60C
102
}
102
{ACAD_REACTORS
330
5AC
102
}
330
5AC
100
AcDbVisualStyle
  2
Conceptual
 70
     9
 71
     3
 72
     2
 73
     0
 90
        0
 40
-0.6
 41
-30.0
 62
     5
 63
     7
 74
     2
 91
        2
 64
     7
 65
   257
 75
     1
175
     1
 42
179.0
 92
        8
 66
     7
 43
1.0
 76
     1
 77
     6
 78
     2
 67
     7
 79
     3
170
     0
171
     0
290
     0
174
     0
 93
        1
 44
0.0
173
     0
291
     0
 45
0.0
1001
ACAD
1000
AcDbSavedByObjectVersion
1070
     0
  0
VISUALSTYLE
  5
5B7
102
{ACAD_XDICTIONARY
360
610
102
}
102
{ACAD_REACTORS
330
5AC
102
}
330
5AC
100
AcDbVisualStyle
  2
Dim
 70
    11
 71
     2
 72
     2
 73
     0
 90
        0
 40
-0.6
 41
-30.0
 62
     5
 63
     7
 74
     1
 91
        4
 64
     7
 65
   257
 75
     1
175
     1
 42
1.0
 92
        8
 66
     7
 43
1.0
 76
     1
 77
     6
 78
     2
 67
     7
 79
     5
170
     0
171
     0
290
     0
174
     0
 93
        1
 44
-50.0
173
     0
291
     1
 45
0.0
1001
ACAD
1000
AcDbSavedByObjectVersion
1070
     0
  0
VISUALSTYLE
  5
5BF
102
{ACAD_XDICTIONARY
360
620
102
}
102
{ACAD_REACTORS
330
5AC
102
}
330
5AC
100
AcDbVisualStyle
  2
EdgeColorOff
 70
    22
 71
     2
 72
     2
 73
     0
 90
        0
 40
-0.6
 41
-30.0
 62
     5
 63
     7
 74
     1
 91
        4
 64
     7
 65
   257
 75
     1
175
     1
 42
1.0
 92
        8
 66
     7
 43
1.0
 76
     1
 77
     6
 78
     2
 67
     7
 79
     5
170
     0
171
     0
290
     0
174
     0
 93
        1
 44
0.0
173
     0
291
     1
 45
0.0
1001
ACAD
1000
AcDbSavedByObjectVersion
1070
     0
  0
VISUALSTYLE
  5
5BB
102
{ACAD_XDICTIONARY
360
618
102
}
102
{ACAD_REACTORS
330
5AC
102
}
330
5AC
100
AcDbVisualStyle
  2
Facepattern
 70
    15
 71
     2
 72
     2
 73
     0
 90
        0
 40
-0.6
 41
-30.0
 62
     5
 63
     7
 74
     1
 91
        4
 64
     7
 65
   257
 75
     1
175
     1
 42
1.0
 92
        8
 66
     7
 43
1.0
 76
     1
 77
     6
 78
     2
 67
     7
 79
     5
170
     0
171
     0
290
     0
174
     0
 93
        1
 44
0.0
173
     0
291
     1
 45
0.0
1001
ACAD
1000
AcDbSavedByObjectVersion
1070
     0
  0
VISUALSTYLE
  5
5AD
102
{ACAD_XDICTIONARY
360
5FC
102
}
102
{ACAD_REACTORS
330
5AC
102
}
330
5AC
100
AcDbVisualStyle
  2
Flat
 70
     0
 71
     2
 72
     1
 73
     1
 90
        2
 40
-0.6
 41
30.0
 62
     5
 63
     7
 74
     0
 91
        4
 64
     7
 65
   257
 75
     1
175
     1
 42
1.0
 92
        8
 66
     7
 43
1.0
 76
     1
 77
     6
 78
     2
 67
     7
 79
     5
170
     0
171
     0
290
     0
174
     0
 93
       13
 44
0.0
173
     0
291
     1
 45
0.0
1001
ACAD
1000
AcDbSavedByObjectVersion
1070
     0
  0
VISUALSTYLE
  5
5AE
102
{ACAD_XDICTIONARY
360
5FE
102
}
102
{ACAD_REACTORS
330
5AC
102
}
330
5AC
100
AcDbVisualStyle
  2
FlatWithEdges
 70
     1
 71
     2
 72
     1
 73
     1
 90
        2
 40
-0.6
 41
30.0
 62
     5
 63
     7
 74
     1
 91
        4
 64
     7
 65
   257
 75
     1
175
     1
 42
1.0
 92
        0
 66
   257
 43
1.0
 76
     1
 77
     6
 78
     2
 67
     7
 79
     5
170
     0
171
     0
290
     0
174
     0
 93
       13
 44
0.0
173
     0
291
     1
 45
0.0
1001
ACAD
1000
AcDbSavedByObjectVersion
1070
     0
  0
VISUALSTYLE
  5
5AF
102
{ACAD_XDICTIONARY
360
600
102
}
102
{ACAD_REACTORS
330
5AC
102
}
330
5AC
100
AcDbVisualStyle
  2
Gouraud
 70
     2
 71
     2
 72
     2
 73
     1
 90
        2
 40
-0.6
 41
30.0
 62
     5
 63
     7
 74
     0
 91
        4
 64
     7
 65
   257
 75
     1
175
     1
 42
1.0
 92
        0
 66
     7
 43
1.0
 76
     1
 77
     6
 78
     2
 67
     7
 79
     5
170
     0
171
     0
290
     0
174
     0
 93
       13
 44
0.0
173
     0
291
     1
 45
0.0
1001
ACAD
1000
AcDbSavedByObjectVersion
1070
     0
  0
VISUALSTYLE
  5
5B0
102
{ACAD_XDICTIONARY
360
602
102
}
102
{ACAD_REACTORS
330
5AC
102
}
330
5AC
100
AcDbVisualStyle
  2
GouraudWithEdges
 70
     3
 71
     2
 72
     2
 73
     1
 90
        2
 40
-0.6
 41
30.0
 62
     5
 63
     7
 74
     1
 91
        4
 64
     7
 65
   257
 75
     1
175
     1
 42
1.0
 92
        0
 66
   257
 43
1.0
 76
     1
 77
     6
 78
     2
 67
     7
 79
     5
170
     0
171
     0
290
     0
174
     0
 93
       13
 44
0.0
173
     0
291
     1
 45
0.0
1001
ACAD
1000
AcDbSavedByObjectVersion
1070
     0
  0
VISUALSTYLE
  5
5BD
102
{ACAD_XDICTIONARY
360
61C
102
}
102
{ACAD_REACTORS
330
5AC
102
}
330
5AC
100
AcDbVisualStyle
  2
JitterOff
 70
    20
 71
     2
 72
     2
 73
     0
 90
        0
 40
-0.6
 41
-30.0
 62
     5
 63
     7
 74
     1
 91
        4
 64
     7
 65
   257
 75
     1
175
     1
 42
1.0
 92
       10
 66
     7
 43
1.0
 76
     1
 77
     6
 78
     2
 67
     7
 79
     5
170
     0
171
     0
290
     0
174
     0
 93
        1
 44
0.0
173
     0
291
     1
 45
0.0
1001
ACAD
1000
AcDbSavedByObjectVersion
1070
     0
  0
VISUALSTYLE
  5
5BA
102
{ACAD_XDICTIONARY
360
616
102
}
102
{ACAD_REACTORS
330
5AC
102
}
330
5AC
100
AcDbVisualStyle
  2
Linepattern
 70
    14
 71
     2
 72
     2
 73
     0
 90
        0
 40
-0.6
 41
-30.0
 62
     5
 63
     7
 74
     1
 91
        4
 64
     7
 65
   257
 75
     7
175
     7
 42
1.0
 92
        8
 66
     7
 43
1.0
 76
     1
 77
     6
 78
     2
 67
     7
 79
     5
170
     0
171
     0
290
     0
174
     0
 93
        1
 44
0.0
173
     0
291
     1
 45
0.0
1001
ACAD
1000
AcDbSavedByObjectVersion
1070
     0
  0
VISUALSTYLE
  5
5BE
102
{ACAD_XDICTIONARY
360
61E
102
}
102
{ACAD_REACTORS
330
5AC
102
}
330
5AC
100
AcDbVisualStyle
  2
OverhangOff
 70
    21
 71
     2
 72
     2
 73
     0
 90
        0
 40
-0.6
 41
-30.0
 62
     5
 63
     7
 74
     1
 91
        4
 64
     7
 65
   257
 75
     1
175
     1
 42
1.0
 92
        9
 66
     7
 43
1.0
 76
     1
 77
     6
 78
     2
 67
     7
 79
     5
170
     0
171
     0
290
     0
174
     0
 93
        1
 44
0.0
173
     0
291
     1
 45
0.0
1001
ACAD
1000
AcDbSavedByObjectVersion
1070
     0
  0
VISUALSTYLE
  5
5B6
102
{ACAD_XDICTIONARY
360
60E
102
}
102
{ACAD_REACTORS
330
5AC
102
}
330
5AC
100
AcDbVisualStyle
  2
Realistic
 70
     8
 71
     2
 72
     2
 73
     0
 90
        0
 40
-0.6
 41
-30.0
 62
     5
 63
     7
 74
     1
 91
        0
 64
     7
 65
   257
 75
     1
175
     1
 42
1.0
 92
        8
 66
     8
 43
1.0
 76
     1
 77
     6
 78
     2
 67
     7
 79
     5
170
     0
171
     0
290
     0
174
     0
 93
       13
 44
0.0
173
     0
291
     0
 45
0.0
1001
ACAD
1000
AcDbSavedByObjectVersion
1070
     0
  0
VISUALSTYLE
  5
5B9
102
{ACAD_XDICTIONARY
360
614
102
}
102
{ACAD_REACTORS
330
5AC
102
}
330
5AC
100
AcDbVisualStyle
  2
Thicken
 70
    13
 71
     2
 72
     2
 73
     0
 90
        0
 40
-0.6
 41
-30.0
 62
     5
 63
     7
 74
     1
 91
        4
 64
     7
 65
   257
 75
     1
175
     1
 42
1.0
 92
       12
 66
     7
 43
1.0
 76
     1
 77
     6
 78
     2
 67
     7
 79
     5
170
     0
171
     0
290
     0
174
     0
 93
        1
 44
0.0
173
     0
291
     1
 45
0.0
1001
ACAD
1000
AcDbSavedByObjectVersion
1070
     0
  0
DICTIONARYVAR
  5
5EC
102
{ACAD_REACTORS
330
31
102
}
330
31
100
DictionaryVariables
280
     0
  1
1:1
  0
DICTIONARYVAR
  5
5EB
102
{ACAD_REACTORS
330
31
102
}
330
31
100
DictionaryVariables
280
     0
  1
STANDARD
  0
DICTIONARYVAR
  5
CD
102
{ACAD_REACTORS
330
31
102
}
330
31
100
DictionaryVariables
280
     0
  1
STANDARD
  0
DICTIONARYVAR
  5
33
102
{ACAD_REACTORS
330
31
102
}
330
31
100
DictionaryVariables
280
     0
  1
1
  0
DICTIONARYVAR
  5
32
102
{ACAD_REACTORS
330
31
102
}
330
31
100
DictionaryVariables
280
     0
  1
1
  0
DICTIONARYVAR
  5
5EE
102
{ACAD_REACTORS
330
31
102
}
330
31
100
DictionaryVariables
280
     0
  1
0
  0
DICTIONARYVAR
  5
CE
102
{ACAD_REACTORS
330
31
102
}
330
31
100
DictionaryVariables
280
     0
  1

  0
DICTIONARYVAR
  5
5ED
102
{ACAD_REACTORS
330
31
102
}
330
31
100
DictionaryVariables
280
     0
  1
127
  0
DICTIONARYVAR
  5
5EF
102
{ACAD_REACTORS
330
31
102
}
330
31
100
DictionaryVariables
280
     0
  1
2
  0
XRECORD
  5
5EA
102
{ACAD_REACTORS
330
5E8
102
}
330
5E8
100
AcDbXrecord
280
     1
330
4A
330
C6
  0
DICTIONARY
  5
5F6
330
F
100
AcDbDictionary
280
     1
281
     1
  3
ACAD_XREC_ROUNDTRIP
360
5F7
  0
DICTIONARY
  5
5F4
330
A
100
AcDbDictionary
280
     1
281
     1
  3
ACAD_XREC_ROUNDTRIP
360
5F5
  0
DICTIONARY
  5
59D
330
59C
100
AcDbDictionary
280
     1
281
     1
  3
ACAD_XREC_ROUNDTRIP
360
5FA
  3
BUMPTILE
360
59F
  3
DIFFUSETILE
360
59E
  3
OPACITYTILE
360
5A2
  3
REFLECTIONTILE
360
5A1
  3
REFRACTIONTILE
360
5A3
  3
SPECULARTILE
360
5A0
  0
DICTIONARY
  5
595
330
594
100
AcDbDictionary
280
     1
281
     1
  3
ACAD_XREC_ROUNDTRIP
360
5F9
  3
BUMPTILE
360
597
  3
DIFFUSETILE
360
596
  3
OPACITYTILE
360
59A
  3
REFLECTIONTILE
360
599
  3
REFRACTIONTILE
360
59B
  3
SPECULARTILE
360
598
  0
DICTIONARY
  5
5A5
330
5A4
100
AcDbDictionary
280
     1
281
     1
  3
ACAD_XREC_ROUNDTRIP
360
5FB
  3
BUMPTILE
360
5A7
  3
DIFFUSETILE
360
5A6
  3
OPACITYTILE
360
5AA
  3
REFLECTIONTILE
360
5A9
  3
REFRACTIONTILE
360
5AB
  3
SPECULARTILE
360
5A8
  0
DICTIONARY
  5
5F0
330
38
100
AcDbDictionary
280
     1
281
     1
  3
ACAD_ROUNDTRIP_2008_TABLESTYLE_CELLSTYLEMAP
360
5F1
  3
ACAD_XREC_ROUNDTRIP
360
5F8
  0
DICTIONARY
  5
606
330
5B2
100
AcDbDictionary
280
     1
281
     1
  3
ACAD_XREC_ROUNDTRIP
360
607
  0
DICTIONARY
  5
60A
330
5B4
100
AcDbDictionary
280
     1
281
     1
  3
ACAD_XREC_ROUNDTRIP
360
60B
  0
DICTIONARY
  5
608
330
5B3
100
AcDbDictionary
280
     1
281
     1
  3
ACAD_XREC_ROUNDTRIP
360
609
  0
DICTIONARY
  5
604
330
5B1
100
AcDbDictionary
280
     1
281
     1
  3
ACAD_XREC_ROUNDTRIP
360
605
  0
DICTIONARY
  5
612
330
5B8
100
AcDbDictionary
280
     1
281
     1
  3
ACAD_XREC_ROUNDTRIP
360
613
  0
DICTIONARY
  5
61A
330
5BC
100
AcDbDictionary
280
     1
281
     1
  3
ACAD_XREC_ROUNDTRIP
360
61B
  0
DICTIONARY
  5
60C
330
5B5
100
AcDbDictionary
280
     1
281
     1
  3
ACAD_XREC_ROUNDTRIP
360
60D
  0
DICTIONARY
  5
610
330
5B7
100
AcDbDictionary
280
     1
281
     1
  3
ACAD_XREC_ROUNDTRIP
360
611
  0
DICTIONARY
  5
620
330
5BF
100
AcDbDictionary
280
     1
281
     1
  3
ACAD_XREC_ROUNDTRIP
360
621
  0
DICTIONARY
  5
618
330
5BB
100
AcDbDictionary
280
     1
281
     1
  3
ACAD_XREC_ROUNDTRIP
360
619
  0
DICTIONARY
  5
5FC
330
5AD
100
AcDbDictionary
280
     1
281
     1
  3
ACAD_XREC_ROUNDTRIP
360
5FD
  0
DICTIONARY
  5
5FE
330
5AE
100
AcDbDictionary
280
     1
281
     1
  3
ACAD_XREC_ROUNDTRIP
360
5FF
  0
DICTIONARY
  5
600
330
5AF
100
AcDbDictionary
280
     1
281
     1
  3
ACAD_XREC_ROUNDTRIP
360
601
  0
DICTIONARY
  5
602
330
5B0
100
AcDbDictionary
280
     1
281
     1
  3
ACAD_XREC_ROUNDTRIP
360
603
  0
DICTIONARY
  5
61C
330
5BD
100
AcDbDictionary
280
     1
281
     1
  3
ACAD_XREC_ROUNDTRIP
360
61D
  0
DICTIONARY
  5
616
330
5BA
100
AcDbDictionary
280
     1
281
     1
  3
ACAD_XREC_ROUNDTRIP
360
617
  0
DICTIONARY
  5
61E
330
5BE
100
AcDbDictionary
280
     1
281
     1
  3
ACAD_XREC_ROUNDTRIP
360
61F
  0
DICTIONARY
  5
60E
330
5B6
100
AcDbDictionary
280
     1
281
     1
  3
ACAD_XREC_ROUNDTRIP
360
60F
  0
DICTIONARY
  5
614
330
5B9
100
AcDbDictionary
280
     1
281
     1
  3
ACAD_XREC_ROUNDTRIP
360
615
  0
XRECORD
  5
5F7
102
{ACAD_REACTORS
330
5F6
102
}
330
5F6
100
AcDbXrecord
280
     1
102
SHADEPLOT
 70
     0
102
SHADEPLOTRESLEVEL
 70
     2
102
SHADEPLOTCUSTOMDPI
 70
   300
  0
XRECORD
  5
5F5
102
{ACAD_REACTORS
330
5F4
102
}
330
5F4
100
AcDbXrecord
280
     1
102
SHADEPLOT
 70
     0
102
SHADEPLOTRESLEVEL
 70
     2
102
SHADEPLOTCUSTOMDPI
 70
   300
  0
XRECORD
  5
5FA
102
{ACAD_REACTORS
330
59D
102
}
330
59D
100
AcDbXrecord
280
     1
102
MATERIAL
148
0.0
149
0.0
149
0.0
 93
        0
 94
      127
282
     0
 72
     0
 77
     0
171
     0
175
     0
179
     0
273
     0
  0
XRECORD
  5
59F
102
{ACAD_REACTORS
330
59D
102
}
330
59D
100
AcDbXrecord
280
     1
270
     1
271
     1
  0
XRECORD
  5
59E
102
{ACAD_REACTORS
330
59D
102
}
330
59D
100
AcDbXrecord
280
     1
270
     1
271
     1
  0
XRECORD
  5
5A2
102
{ACAD_REACTORS
330
59D
102
}
330
59D
100
AcDbXrecord
280
     1
270
     1
271
     1
  0
XRECORD
  5
5A1
102
{ACAD_REACTORS
330
59D
102
}
330
59D
100
AcDbXrecord
280
     1
270
     1
271
     1
  0
XRECORD
  5
5A3
102
{ACAD_REACTORS
330
59D
102
}
330
59D
100
AcDbXrecord
280
     1
270
     1
271
     1
  0
XRECORD
  5
5A0
102
{ACAD_REACTORS
330
59D
102
}
330
59D
100
AcDbXrecord
280
     1
270
     1
271
     1
  0
XRECORD
  5
5F9
102
{ACAD_REACTORS
330
595
102
}
330
595
100
AcDbXrecord
280
     1
102
MATERIAL
148
0.0
149
0.0
149
0.0
 93
        0
 94
      127
282
     0
 72
     0
 77
     0
171
     0
175
     0
179
     0
273
     0
  0
XRECORD
  5
597
102
{ACAD_REACTORS
330
595
102
}
330
595
100
AcDbXrecord
280
     1
270
     1
271
     1
  0
XRECORD
  5
596
102
{ACAD_REACTORS
330
595
102
}
330
595
100
AcDbXrecord
280
     1
270
     1
271
     1
  0
XRECORD
  5
59A
102
{ACAD_REACTORS
330
595
102
}
330
595
100
AcDbXrecord
280
     1
270
     1
271
     1
  0
XRECORD
  5
599
102
{ACAD_REACTORS
330
595
102
}
330
595
100
AcDbXrecord
280
     1
270
     1
271
     1
  0
XRECORD
  5
59B
102
{ACAD_REACTORS
330
595
102
}
330
595
100
AcDbXrecord
280
     1
270
     1
271
     1
  0
XRECORD
  5
598
102
{ACAD_REACTORS
330
595
102
}
330
595
100
AcDbXrecord
280
     1
270
     1
271
     1
  0
XRECORD
  5
5FB
102
{ACAD_REACTORS
330
5A5
102
}
330
5A5
100
AcDbXrecord
280
     1
102
MATERIAL
148
0.0
149
0.0
149
0.0
 93
        0
 94
      127
282
     0
 72
     0
 77
     0
171
     0
175
     0
179
     0
273
     0
  0
XRECORD
  5
5A7
102
{ACAD_REACTORS
330
5A5
102
}
330
5A5
100
AcDbXrecord
280
     1
270
     1
271
     1
  0
XRECORD
  5
5A6
102
{ACAD_REACTORS
330
5A5
102
}
330
5A5
100
AcDbXrecord
280
     1
270
     1
271
     1
  0
XRECORD
  5
5AA
102
{ACAD_REACTORS
330
5A5
102
}
330
5A5
100
AcDbXrecord
280
     1
270
     1
271
     1
  0
XRECORD
  5
5A9
102
{ACAD_REACTORS
330
5A5
102
}
330
5A5
100
AcDbXrecord
280
     1
270
     1
271
     1
  0
XRECORD
  5
5AB
102
{ACAD_REACTORS
330
5A5
102
}
330
5A5
100
AcDbXrecord
280
     1
270
     1
271
     1
  0
XRECORD
  5
5A8
102
{ACAD_REACTORS
330
5A5
102
}
330
5A5
100
AcDbXrecord
280
     1
270
     1
271
     1
  0
CELLSTYLEMAP
  5
5F1
102
{ACAD_REACTORS
330
5F0
102
}
330
5F0
100
AcDbCellStyleMap
 90
        3
300
CELLSTYLE
  1
TABLEFORMAT_BEGIN
 90
        5
170
     1
 91
        0
 92
    32768
 62
   257
 93
        1
300
CONTENTFORMAT
  1
CONTENTFORMAT_BEGIN
 90
        0
 91
        0
 92
        4
 93
        0
300

 40
0.0
140
1.0
 94
        5
 62
     0
340
12
144
6.0
309
CONTENTFORMAT_END
171
     1
301
MARGIN
  1
CELLMARGIN_BEGIN
 40
1.5
 40
1.5
 40
1.5
 40
1.5
 40
0.18
 40
0.18
309
CELLMARGIN_END
 94
        6
 95
        1
302
GRIDFORMAT
  1
GRIDFORMAT_BEGIN
 90
        0
 91
        1
 62
     0
 92
       -2
340
0
 93
        0
 40
0.045
309
GRIDFORMAT_END
 95
        2
302
GRIDFORMAT
  1
GRIDFORMAT_BEGIN
 90
        0
 91
        1
 62
     0
 92
       -2
340
0
 93
        0
 40
0.045
309
GRIDFORMAT_END
 95
        4
302
GRIDFORMAT
  1
GRIDFORMAT_BEGIN
 90
        0
 91
        1
 62
     0
 92
       -2
340
0
 93
        0
 40
0.045
309
GRIDFORMAT_END
 95
        8
302
GRIDFORMAT
  1
GRIDFORMAT_BEGIN
 90
        0
 91
        1
 62
     0
 92
       -2
340
0
 93
        0
 40
0.045
309
GRIDFORMAT_END
 95
       16
302
GRIDFORMAT
  1
GRIDFORMAT_BEGIN
 90
        0
 91
        1
 62
     0
 92
       -2
340
0
 93
        0
 40
0.045
309
GRIDFORMAT_END
 95
       32
302
GRIDFORMAT
  1
GRIDFORMAT_BEGIN
 90
        0
 91
        1
 62
     0
 92
       -2
340
0
 93
        0
 40
0.045
309
GRIDFORMAT_END
309
TABLEFORMAT_END
  1
CELLSTYLE_BEGIN
 90
        1
 91
        1
300
_TITLE
309
CELLSTYLE_END
300
CELLSTYLE
  1
TABLEFORMAT_BEGIN
 90
        5
170
     1
 91
        0
 92
        0
 62
   257
 93
        1
300
CONTENTFORMAT
  1
CONTENTFORMAT_BEGIN
 90
        0
 91
        0
 92
        4
 93
        0
300

 40
0.0
140
1.0
 94
        5
 62
     0
340
12
144
4.5
309
CONTENTFORMAT_END
171
     1
301
MARGIN
  1
CELLMARGIN_BEGIN
 40
1.5
 40
1.5
 40
1.5
 40
1.5
 40
0.18
 40
0.18
309
CELLMARGIN_END
 94
        6
 95
        1
302
GRIDFORMAT
  1
GRIDFORMAT_BEGIN
 90
        0
 91
        1
 62
     0
 92
       -2
340
0
 93
        0
 40
0.045
309
GRIDFORMAT_END
 95
        2
302
GRIDFORMAT
  1
GRIDFORMAT_BEGIN
 90
        0
 91
        1
 62
     0
 92
       -2
340
0
 93
        0
 40
0.045
309
GRIDFORMAT_END
 95
        4
302
GRIDFORMAT
  1
GRIDFORMAT_BEGIN
 90
        0
 91
        1
 62
     0
 92
       -2
340
0
 93
        0
 40
0.045
309
GRIDFORMAT_END
 95
        8
302
GRIDFORMAT
  1
GRIDFORMAT_BEGIN
 90
        0
 91
        1
 62
     0
 92
       -2
340
0
 93
        0
 40
0.045
309
GRIDFORMAT_END
 95
       16
302
GRIDFORMAT
  1
GRIDFORMAT_BEGIN
 90
        0
 91
        1
 62
     0
 92
       -2
340
0
 93
        0
 40
0.045
309
GRIDFORMAT_END
 95
       32
302
GRIDFORMAT
  1
GRIDFORMAT_BEGIN
 90
        0
 91
        1
 62
     0
 92
       -2
340
0
 93
        0
 40
0.045
309
GRIDFORMAT_END
309
TABLEFORMAT_END
  1
CELLSTYLE_BEGIN
 90
        2
 91
        1
300
_HEADER
309
CELLSTYLE_END
300
CELLSTYLE
  1
TABLEFORMAT_BEGIN
 90
        5
170
     1
 91
        0
 92
        0
 62
   257
 93
        1
300
CONTENTFORMAT
  1
CONTENTFORMAT_BEGIN
 90
        0
 91
        0
 92
        4
 93
        0
300

 40
0.0
140
1.0
 94
        2
 62
     0
340
12
144
4.5
309
CONTENTFORMAT_END
171
     1
301
MARGIN
  1
CELLMARGIN_BEGIN
 40
1.5
 40
1.5
 40
1.5
 40
1.5
 40
0.18
 40
0.18
309
CELLMARGIN_END
 94
        6
 95
        1
302
GRIDFORMAT
  1
GRIDFORMAT_BEGIN
 90
        0
 91
        1
 62
     0
 92
       -2
340
0
 93
        0
 40
0.045
309
GRIDFORMAT_END
 95
        2
302
GRIDFORMAT
  1
GRIDFORMAT_BEGIN
 90
        0
 91
        1
 62
     0
 92
       -2
340
0
 93
        0
 40
0.045
309
GRIDFORMAT_END
 95
        4
302
GRIDFORMAT
  1
GRIDFORMAT_BEGIN
 90
        0
 91
        1
 62
     0
 92
       -2
340
0
 93
        0
 40
0.045
309
GRIDFORMAT_END
 95
        8
302
GRIDFORMAT
  1
GRIDFORMAT_BEGIN
 90
        0
 91
        1
 62
     0
 92
       -2
340
0
 93
        0
 40
0.045
309
GRIDFORMAT_END
 95
       16
302
GRIDFORMAT
  1
GRIDFORMAT_BEGIN
 90
        0
 91
        1
 62
     0
 92
       -2
340
0
 93
        0
 40
0.045
309
GRIDFORMAT_END
 95
       32
302
GRIDFORMAT
  1
GRIDFORMAT_BEGIN
 90
        0
 91
        1
 62
     0
 92
       -2
340
0
 93
        0
 40
0.045
309
GRIDFORMAT_END
309
TABLEFORMAT_END
  1
CELLSTYLE_BEGIN
 90
        3
 91
        2
300
_DATA
309
CELLSTYLE_END
  0
XRECORD
  5
5F8
102
{ACAD_REACTORS
330
5F0
102
}
330
5F0
100
AcDbXrecord
280
     1
102
ACAD_ROUNDTRIP_PRE2007_TABLESTYLE
 90
        4
 91
        0
  1

 92
        4
 93
        0
  2

 94
        4
 95
        0
  3

  0
XRECORD
  5
607
102
{ACAD_REACTORS
330
606
102
}
330
606
100
AcDbXrecord
280
     1
102
RTVSPropertyOp0
 70
     1
102
RTVSPropertyOp1
 70
     1
102
RTVSPropertyOp2
 70
     1
102
RTVSPropertyOp3
 70
     1
102
RTVSPropertyOp4
 70
     1
102
RTVSPropertyOp5
 70
     1
102
RTVSPropertyOp6
 70
     1
102
RTVSPropertyOp7
 70
     1
102
RTVSPropertyOp8
 70
     1
102
RTVSPropertyOp9
 70
     1
102
RTVSPropertyOp10
 70
     1
102
RTVSPropertyOp11
 70
     1
102
RTVSPropertyOp12
 70
     1
102
RTVSPropertyOp13
 70
     1
102
RTVSPropertyOp14
 70
     1
102
RTVSPropertyOp15
 70
     1
102
RTVSPropertyOp16
 70
     1
102
RTVSPropertyOp17
 70
     1
102
RTVSPropertyOp18
 70
     1
102
RTVSPropertyOp19
 70
     1
102
RTVSPropertyOp20
 70
     1
102
RTVSPropertyOp21
 70
     1
102
RTVSPropertyOp22
 70
     1
102
RTVSPropertyOp23
 70
     1
102
RTVSPropertyOp24
 70
     1
102
RTVSPropertyOp25
 70
     1
102
RTVSPropertyOp26
 70
     1
102
RTVSPropertyOp27
 70
     1
  0
XRECORD
  5
60B
102
{ACAD_REACTORS
330
60A
102
}
330
60A
100
AcDbXrecord
280
     1
102
RTVSPropertyOp0
 70
     1
102
RTVSPropertyOp1
 70
     1
102
RTVSPropertyOp2
 70
     1
102
RTVSPropertyOp3
 70
     1
102
RTVSPropertyOp4
 70
     1
102
RTVSPropertyOp5
 70
     1
102
RTVSPropertyOp6
 70
     1
102
RTVSPropertyOp7
 70
     1
102
RTVSPropertyOp8
 70
     1
102
RTVSPropertyOp9
 70
     1
102
RTVSPropertyOp10
 70
     1
102
RTVSPropertyOp11
 70
     1
102
RTVSPropertyOp12
 70
     1
102
RTVSPropertyOp13
 70
     1
102
RTVSPropertyOp14
 70
     1
102
RTVSPropertyOp15
 70
     1
102
RTVSPropertyOp16
 70
     1
102
RTVSPropertyOp17
 70
     1
102
RTVSPropertyOp18
 70
     1
102
RTVSPropertyOp19
 70
     1
102
RTVSPropertyOp20
 70
     1
102
RTVSPropertyOp21
 70
     1
102
RTVSPropertyOp22
 70
     1
102
RTVSPropertyOp23
 70
     1
102
RTVSPropertyOp24
 70
     1
102
RTVSPropertyOp25
 70
     1
102
RTVSPropertyOp26
 70
     1
102
RTVSPropertyOp27
 70
     1
  0
XRECORD
  5
609
102
{ACAD_REACTORS
330
608
102
}
330
608
100
AcDbXrecord
280
     1
102
RTVSPropertyOp0
 70
     1
102
RTVSPropertyOp1
 70
     1
102
RTVSPropertyOp2
 70
     1
102
RTVSPropertyOp3
 70
     1
102
RTVSPropertyOp4
 70
     1
102
RTVSPropertyOp5
 70
     1
102
RTVSPropertyOp6
 70
     1
102
RTVSPropertyOp7
 70
     1
102
RTVSPropertyOp8
 70
     1
102
RTVSPropertyOp9
 70
     1
102
RTVSPropertyOp10
 70
     1
102
RTVSPropertyOp11
 70
     1
102
RTVSPropertyOp12
 70
     1
102
RTVSPropertyOp13
 70
     1
102
RTVSPropertyOp14
 70
     1
102
RTVSPropertyOp15
 70
     1
102
RTVSPropertyOp16
 70
     1
102
RTVSPropertyOp17
 70
     1
102
RTVSPropertyOp18
 70
     1
102
RTVSPropertyOp19
 70
     1
102
RTVSPropertyOp20
 70
     1
102
RTVSPropertyOp21
 70
     1
102
RTVSPropertyOp22
 70
     1
102
RTVSPropertyOp23
 70
     1
102
RTVSPropertyOp24
 70
     1
102
RTVSPropertyOp25
 70
     1
102
RTVSPropertyOp26
 70
     1
102
RTVSPropertyOp27
 70
     1
  0
XRECORD
  5
605
102
{ACAD_REACTORS
330
604
102
}
330
604
100
AcDbXrecord
280
     1
102
RTVSPropertyOp0
 70
     1
102
RTVSPropertyOp1
 70
     1
102
RTVSPropertyOp2
 70
     1
102
RTVSPropertyOp3
 70
     1
102
RTVSPropertyOp4
 70
     1
102
RTVSPropertyOp5
 70
     1
102
RTVSPropertyOp6
 70
     1
102
RTVSPropertyOp7
 70
     1
102
RTVSPropertyOp8
 70
     1
102
RTVSPropertyOp9
 70
     1
102
RTVSPropertyOp10
 70
     1
102
RTVSPropertyOp11
 70
     1
102
RTVSPropertyOp12
 70
     1
102
RTVSPropertyOp13
 70
     1
102
RTVSPropertyOp14
 70
     1
102
RTVSPropertyOp15
 70
     1
102
RTVSPropertyOp16
 70
     1
102
RTVSPropertyOp17
 70
     1
102
RTVSPropertyOp18
 70
     1
102
RTVSPropertyOp19
 70
     1
102
RTVSPropertyOp20
 70
     1
102
RTVSPropertyOp21
 70
     1
102
RTVSPropertyOp22
 70
     1
102
RTVSPropertyOp23
 70
     1
102
RTVSPropertyOp24
 70
     1
102
RTVSPropertyOp25
 70
     1
102
RTVSPropertyOp26
 70
     1
102
RTVSPropertyOp27
 70
     1
  0
XRECORD
  5
613
102
{ACAD_REACTORS
330
612
102
}
330
612
100
AcDbXrecord
280
     1
102
RTVSPropertyOp0
 70
     1
102
RTVSPropertyOp1
 70
     1
102
RTVSPropertyOp2
 70
     1
102
RTVSPropertyOp3
 70
     1
102
RTVSPropertyOp4
 70
     1
102
RTVSPropertyOp5
 70
     1
102
RTVSPropertyOp6
 70
     1
102
RTVSPropertyOp7
 70
     1
102
RTVSPropertyOp8
 70
     1
102
RTVSPropertyOp9
 70
     1
102
RTVSPropertyOp10
 70
     1
102
RTVSPropertyOp11
 70
     1
102
RTVSPropertyOp12
 70
     1
102
RTVSPropertyOp13
 70
     1
102
RTVSPropertyOp14
 70
     1
102
RTVSPropertyOp15
 70
     1
102
RTVSPropertyOp16
 70
     1
102
RTVSPropertyOp17
 70
     1
102
RTVSPropertyOp18
 70
     1
102
RTVSPropertyOp19
 70
     1
102
RTVSPropertyOp20
 70
     1
102
RTVSPropertyOp21
 70
     1
102
RTVSPropertyOp22
 70
     1
102
RTVSPropertyOp23
 70
     1
102
RTVSPropertyOp24
 70
     1
102
RTVSPropertyOp25
 70
     1
102
RTVSPropertyOp26
 70
     1
102
RTVSPropertyOp27
 70
     1
  0
XRECORD
  5
61B
102
{ACAD_REACTORS
330
61A
102
}
330
61A
100
AcDbXrecord
280
     1
102
RTVSPropertyOp0
 70
     1
102
RTVSPropertyOp1
 70
     1
102
RTVSPropertyOp2
 70
     1
102
RTVSPropertyOp3
 70
     1
102
RTVSPropertyOp4
 70
     1
102
RTVSPropertyOp5
 70
     1
102
RTVSPropertyOp6
 70
     1
102
RTVSPropertyOp7
 70
     1
102
RTVSPropertyOp8
 70
     1
102
RTVSPropertyOp9
 70
     1
102
RTVSPropertyOp10
 70
     1
102
RTVSPropertyOp11
 70
     1
102
RTVSPropertyOp12
 70
     1
102
RTVSPropertyOp13
 70
     1
102
RTVSPropertyOp14
 70
     1
102
RTVSPropertyOp15
 70
     1
102
RTVSPropertyOp16
 70
     1
102
RTVSPropertyOp17
 70
     1
102
RTVSPropertyOp18
 70
     1
102
RTVSPropertyOp19
 70
     1
102
RTVSPropertyOp20
 70
     1
102
RTVSPropertyOp21
 70
     1
102
RTVSPropertyOp22
 70
     1
102
RTVSPropertyOp23
 70
     1
102
RTVSPropertyOp24
 70
     1
102
RTVSPropertyOp25
 70
     1
102
RTVSPropertyOp26
 70
     1
102
RTVSPropertyOp27
 70
     1
  0
XRECORD
  5
60D
102
{ACAD_REACTORS
330
60C
102
}
330
60C
100
AcDbXrecord
280
     1
102
RTVSPropertyOp0
 70
     1
102
RTVSPropertyOp1
 70
     1
102
RTVSPropertyOp2
 70
     1
102
RTVSPropertyOp3
 70
     1
102
RTVSPropertyOp4
 70
     1
102
RTVSPropertyOp5
 70
     1
102
RTVSPropertyOp6
 70
     1
102
RTVSPropertyOp7
 70
     1
102
RTVSPropertyOp8
 70
     1
102
RTVSPropertyOp9
 70
     1
102
RTVSPropertyOp10
 70
     1
102
RTVSPropertyOp11
 70
     1
102
RTVSPropertyOp12
 70
     1
102
RTVSPropertyOp13
 70
     1
102
RTVSPropertyOp14
 70
     1
102
RTVSPropertyOp15
 70
     1
102
RTVSPropertyOp16
 70
     1
102
RTVSPropertyOp17
 70
     1
102
RTVSPropertyOp18
 70
     1
102
RTVSPropertyOp19
 70
     1
102
RTVSPropertyOp20
 70
     1
102
RTVSPropertyOp21
 70
     1
102
RTVSPropertyOp22
 70
     1
102
RTVSPropertyOp23
 70
     1
102
RTVSPropertyOp24
 70
     1
102
RTVSPropertyOp25
 70
     1
102
RTVSPropertyOp26
 70
     1
102
RTVSPropertyOp27
 70
     1
  0
XRECORD
  5
611
102
{ACAD_REACTORS
330
610
102
}
330
610
100
AcDbXrecord
280
     1
102
RTVSPropertyOp0
 70
     1
102
RTVSPropertyOp1
 70
     1
102
RTVSPropertyOp2
 70
     1
102
RTVSPropertyOp3
 70
     1
102
RTVSPropertyOp4
 70
     1
102
RTVSPropertyOp5
 70
     1
102
RTVSPropertyOp6
 70
     1
102
RTVSPropertyOp7
 70
     1
102
RTVSPropertyOp8
 70
     1
102
RTVSPropertyOp9
 70
     1
102
RTVSPropertyOp10
 70
     1
102
RTVSPropertyOp11
 70
     1
102
RTVSPropertyOp12
 70
     1
102
RTVSPropertyOp13
 70
     1
102
RTVSPropertyOp14
 70
     1
102
RTVSPropertyOp15
 70
     1
102
RTVSPropertyOp16
 70
     1
102
RTVSPropertyOp17
 70
     1
102
RTVSPropertyOp18
 70
     1
102
RTVSPropertyOp19
 70
     1
102
RTVSPropertyOp20
 70
     1
102
RTVSPropertyOp21
 70
     1
102
RTVSPropertyOp22
 70
     1
102
RTVSPropertyOp23
 70
     1
102
RTVSPropertyOp24
 70
     1
102
RTVSPropertyOp25
 70
     1
102
RTVSPropertyOp26
 70
     1
102
RTVSPropertyOp27
 70
     1
  0
XRECORD
  5
621
102
{ACAD_REACTORS
330
620
102
}
330
620
100
AcDbXrecord
280
     1
102
RTVSPropertyOp0
 70
     0
102
RTVSPropertyOp1
 70
     0
102
RTVSPropertyOp2
 70
     0
102
RTVSPropertyOp3
 70
     0
102
RTVSPropertyOp4
 70
     0
102
RTVSPropertyOp5
 70
     0
102
RTVSPropertyOp6
 70
     0
102
RTVSPropertyOp7
 70
     0
102
RTVSPropertyOp8
 70
     0
102
RTVSPropertyOp9
 70
     0
102
RTVSPropertyOp10
 70
     0
102
RTVSPropertyOp11
 70
     0
102
RTVSPropertyOp12
 70
     0
102
RTVSPropertyOp13
 70
     0
102
RTVSPropertyOp14
 70
     2
102
RTVSPropertyOp15
 70
     0
102
RTVSPropertyOp16
 70
     0
102
RTVSPropertyOp17
 70
     0
102
RTVSPropertyOp18
 70
     0
102
RTVSPropertyOp19
 70
     0
102
RTVSPropertyOp20
 70
     0
102
RTVSPropertyOp21
 70
     0
102
RTVSPropertyOp22
 70
     0
102
RTVSPropertyOp23
 70
     0
102
RTVSPropertyOp24
 70
     0
102
RTVSPropertyOp25
 70
     0
102
RTVSPropertyOp26
 70
     0
102
RTVSPropertyOp27
 70
     0
  0
XRECORD
  5
619
102
{ACAD_REACTORS
330
618
102
}
330
618
100
AcDbXrecord
280
     1
102
RTVSPropertyOp0
 70
     1
102
RTVSPropertyOp1
 70
     1
102
RTVSPropertyOp2
 70
     1
102
RTVSPropertyOp3
 70
     1
102
RTVSPropertyOp4
 70
     1
102
RTVSPropertyOp5
 70
     1
102
RTVSPropertyOp6
 70
     1
102
RTVSPropertyOp7
 70
     1
102
RTVSPropertyOp8
 70
     1
102
RTVSPropertyOp9
 70
     1
102
RTVSPropertyOp10
 70
     1
102
RTVSPropertyOp11
 70
     1
102
RTVSPropertyOp12
 70
     1
102
RTVSPropertyOp13
 70
     1
102
RTVSPropertyOp14
 70
     1
102
RTVSPropertyOp15
 70
     1
102
RTVSPropertyOp16
 70
     1
102
RTVSPropertyOp17
 70
     1
102
RTVSPropertyOp18
 70
     1
102
RTVSPropertyOp19
 70
     1
102
RTVSPropertyOp20
 70
     1
102
RTVSPropertyOp21
 70
     1
102
RTVSPropertyOp22
 70
     1
102
RTVSPropertyOp23
 70
     1
102
RTVSPropertyOp24
 70
     1
102
RTVSPropertyOp25
 70
     1
102
RTVSPropertyOp26
 70
     1
102
RTVSPropertyOp27
 70
     1
  0
XRECORD
  5
5FD
102
{ACAD_REACTORS
330
5FC
102
}
330
5FC
100
AcDbXrecord
280
     1
102
RTVSPropertyOp0
 70
     1
102
RTVSPropertyOp1
 70
     1
102
RTVSPropertyOp2
 70
     1
102
RTVSPropertyOp3
 70
     1
102
RTVSPropertyOp4
 70
     1
102
RTVSPropertyOp5
 70
     1
102
RTVSPropertyOp6
 70
     1
102
RTVSPropertyOp7
 70
     1
102
RTVSPropertyOp8
 70
     1
102
RTVSPropertyOp9
 70
     1
102
RTVSPropertyOp10
 70
     1
102
RTVSPropertyOp11
 70
     1
102
RTVSPropertyOp12
 70
     1
102
RTVSPropertyOp13
 70
     1
102
RTVSPropertyOp14
 70
     1
102
RTVSPropertyOp15
 70
     1
102
RTVSPropertyOp16
 70
     1
102
RTVSPropertyOp17
 70
     1
102
RTVSPropertyOp18
 70
     1
102
RTVSPropertyOp19
 70
     1
102
RTVSPropertyOp20
 70
     1
102
RTVSPropertyOp21
 70
     1
102
RTVSPropertyOp22
 70
     1
102
RTVSPropertyOp23
 70
     1
102
RTVSPropertyOp24
 70
     1
102
RTVSPropertyOp25
 70
     1
102
RTVSPropertyOp26
 70
     1
102
RTVSPropertyOp27
 70
     1
  0
XRECORD
  5
5FF
102
{ACAD_REACTORS
330
5FE
102
}
330
5FE
100
AcDbXrecord
280
     1
102
RTVSPropertyOp0
 70
     1
102
RTVSPropertyOp1
 70
     1
102
RTVSPropertyOp2
 70
     1
102
RTVSPropertyOp3
 70
     1
102
RTVSPropertyOp4
 70
     1
102
RTVSPropertyOp5
 70
     1
102
RTVSPropertyOp6
 70
     1
102
RTVSPropertyOp7
 70
     1
102
RTVSPropertyOp8
 70
     1
102
RTVSPropertyOp9
 70
     1
102
RTVSPropertyOp10
 70
     1
102
RTVSPropertyOp11
 70
     1
102
RTVSPropertyOp12
 70
     1
102
RTVSPropertyOp13
 70
     1
102
RTVSPropertyOp14
 70
     1
102
RTVSPropertyOp15
 70
     1
102
RTVSPropertyOp16
 70
     1
102
RTVSPropertyOp17
 70
     1
102
RTVSPropertyOp18
 70
     1
102
RTVSPropertyOp19
 70
     1
102
RTVSPropertyOp20
 70
     1
102
RTVSPropertyOp21
 70
     1
102
RTVSPropertyOp22
 70
     1
102
RTVSPropertyOp23
 70
     1
102
RTVSPropertyOp24
 70
     1
102
RTVSPropertyOp25
 70
     1
102
RTVSPropertyOp26
 70
     1
102
RTVSPropertyOp27
 70
     1
  0
XRECORD
  5
601
102
{ACAD_REACTORS
330
600
102
}
330
600
100
AcDbXrecord
280
     1
102
RTVSPropertyOp0
 70
     1
102
RTVSPropertyOp1
 70
     1
102
RTVSPropertyOp2
 70
     1
102
RTVSPropertyOp3
 70
     1
102
RTVSPropertyOp4
 70
     1
102
RTVSPropertyOp5
 70
     1
102
RTVSPropertyOp6
 70
     1
102
RTVSPropertyOp7
 70
     1
102
RTVSPropertyOp8
 70
     1
102
RTVSPropertyOp9
 70
     1
102
RTVSPropertyOp10
 70
     1
102
RTVSPropertyOp11
 70
     1
102
RTVSPropertyOp12
 70
     1
102
RTVSPropertyOp13
 70
     1
102
RTVSPropertyOp14
 70
     1
102
RTVSPropertyOp15
 70
     1
102
RTVSPropertyOp16
 70
     1
102
RTVSPropertyOp17
 70
     1
102
RTVSPropertyOp18
 70
     1
102
RTVSPropertyOp19
 70
     1
102
RTVSPropertyOp20
 70
     1
102
RTVSPropertyOp21
 70
     1
102
RTVSPropertyOp22
 70
     1
102
RTVSPropertyOp23
 70
     1
102
RTVSPropertyOp24
 70
     1
102
RTVSPropertyOp25
 70
     1
102
RTVSPropertyOp26
 70
     1
102
RTVSPropertyOp27
 70
     1
  0
XRECORD
  5
603
102
{ACAD_REACTORS
330
602
102
}
330
602
100
AcDbXrecord
280
     1
102
RTVSPropertyOp0
 70
     1
102
RTVSPropertyOp1
 70
     1
102
RTVSPropertyOp2
 70
     1
102
RTVSPropertyOp3
 70
     1
102
RTVSPropertyOp4
 70
     1
102
RTVSPropertyOp5
 70
     1
102
RTVSPropertyOp6
 70
     1
102
RTVSPropertyOp7
 70
     1
102
RTVSPropertyOp8
 70
     1
102
RTVSPropertyOp9
 70
     1
102
RTVSPropertyOp10
 70
     1
102
RTVSPropertyOp11
 70
     1
102
RTVSPropertyOp12
 70
     1
102
RTVSPropertyOp13
 70
     1
102
RTVSPropertyOp14
 70
     1
102
RTVSPropertyOp15
 70
     1
102
RTVSPropertyOp16
 70
     1
102
RTVSPropertyOp17
 70
     1
102
RTVSPropertyOp18
 70
     1
102
RTVSPropertyOp19
 70
     1
102
RTVSPropertyOp20
 70
     1
102
RTVSPropertyOp21
 70
     1
102
RTVSPropertyOp22
 70
     1
102
RTVSPropertyOp23
 70
     1
102
RTVSPropertyOp24
 70
     1
102
RTVSPropertyOp25
 70
     1
102
RTVSPropertyOp26
 70
     1
102
RTVSPropertyOp27
 70
     1
  0
XRECORD
  5
61D
102
{ACAD_REACTORS
330
61C
102
}
330
61C
100
AcDbXrecord
280
     1
102
RTVSPropertyOp0
 70
     0
102
RTVSPropertyOp1
 70
     0
102
RTVSPropertyOp2
 70
     0
102
RTVSPropertyOp3
 70
     0
102
RTVSPropertyOp4
 70
     0
102
RTVSPropertyOp5
 70
     0
102
RTVSPropertyOp6
 70
     0
102
RTVSPropertyOp7
 70
     0
102
RTVSPropertyOp8
 70
     0
102
RTVSPropertyOp9
 70
     0
102
RTVSPropertyOp10
 70
     0
102
RTVSPropertyOp11
 70
     0
102
RTVSPropertyOp12
 70
     0
102
RTVSPropertyOp13
 70
     0
102
RTVSPropertyOp14
 70
     2
102
RTVSPropertyOp15
 70
     0
102
RTVSPropertyOp16
 70
     0
102
RTVSPropertyOp17
 70
     0
102
RTVSPropertyOp18
 70
     0
102
RTVSPropertyOp19
 70
     0
102
RTVSPropertyOp20
 70
     0
102
RTVSPropertyOp21
 70
     0
102
RTVSPropertyOp22
 70
     0
102
RTVSPropertyOp23
 70
     0
102
RTVSPropertyOp24
 70
     0
102
RTVSPropertyOp25
 70
     0
102
RTVSPropertyOp26
 70
     0
102
RTVSPropertyOp27
 70
     0
  0
XRECORD
  5
617
102
{ACAD_REACTORS
330
616
102
}
330
616
100
AcDbXrecord
280
     1
102
RTVSPropertyOp0
 70
     1
102
RTVSPropertyOp1
 70
     1
102
RTVSPropertyOp2
 70
     1
102
RTVSPropertyOp3
 70
     1
102
RTVSPropertyOp4
 70
     1
102
RTVSPropertyOp5
 70
     1
102
RTVSPropertyOp6
 70
     1
102
RTVSPropertyOp7
 70
     1
102
RTVSPropertyOp8
 70
     1
102
RTVSPropertyOp9
 70
     1
102
RTVSPropertyOp10
 70
     1
102
RTVSPropertyOp11
 70
     1
102
RTVSPropertyOp12
 70
     1
102
RTVSPropertyOp13
 70
     1
102
RTVSPropertyOp14
 70
     1
102
RTVSPropertyOp15
 70
     1
102
RTVSPropertyOp16
 70
     1
102
RTVSPropertyOp17
 70
     1
102
RTVSPropertyOp18
 70
     1
102
RTVSPropertyOp19
 70
     1
102
RTVSPropertyOp20
 70
     1
102
RTVSPropertyOp21
 70
     1
102
RTVSPropertyOp22
 70
     1
102
RTVSPropertyOp23
 70
     1
102
RTVSPropertyOp24
 70
     1
102
RTVSPropertyOp25
 70
     1
102
RTVSPropertyOp26
 70
     1
102
RTVSPropertyOp27
 70
     1
  0
XRECORD
  5
61F
102
{ACAD_REACTORS
330
61E
102
}
330
61E
100
AcDbXrecord
280
     1
102
RTVSPropertyOp0
 70
     0
102
RTVSPropertyOp1
 70
     0
102
RTVSPropertyOp2
 70
     0
102
RTVSPropertyOp3
 70
     0
102
RTVSPropertyOp4
 70
     0
102
RTVSPropertyOp5
 70
     0
102
RTVSPropertyOp6
 70
     0
102
RTVSPropertyOp7
 70
     0
102
RTVSPropertyOp8
 70
     0
102
RTVSPropertyOp9
 70
     0
102
RTVSPropertyOp10
 70
     0
102
RTVSPropertyOp11
 70
     0
102
RTVSPropertyOp12
 70
     0
102
RTVSPropertyOp13
 70
     0
102
RTVSPropertyOp14
 70
     2
102
RTVSPropertyOp15
 70
     0
102
RTVSPropertyOp16
 70
     0
102
RTVSPropertyOp17
 70
     0
102
RTVSPropertyOp18
 70
     0
102
RTVSPropertyOp19
 70
     0
102
RTVSPropertyOp20
 70
     0
102
RTVSPropertyOp21
 70
     0
102
RTVSPropertyOp22
 70
     0
102
RTVSPropertyOp23
 70
     0
102
RTVSPropertyOp24
 70
     0
102
RTVSPropertyOp25
 70
     0
102
RTVSPropertyOp26
 70
     0
102
RTVSPropertyOp27
 70
     0
  0
XRECORD
  5
60F
102
{ACAD_REACTORS
330
60E
102
}
330
60E
100
AcDbXrecord
280
     1
102
RTVSPropertyOp0
 70
     1
102
RTVSPropertyOp1
 70
     1
102
RTVSPropertyOp2
 70
     1
102
RTVSPropertyOp3
 70
     1
102
RTVSPropertyOp4
 70
     1
102
RTVSPropertyOp5
 70
     1
102
RTVSPropertyOp6
 70
     1
102
RTVSPropertyOp7
 70
     1
102
RTVSPropertyOp8
 70
     1
102
RTVSPropertyOp9
 70
     1
102
RTVSPropertyOp10
 70
     1
102
RTVSPropertyOp11
 70
     1
102
RTVSPropertyOp12
 70
     1
102
RTVSPropertyOp13
 70
     1
102
RTVSPropertyOp14
 70
     1
102
RTVSPropertyOp15
 70
     1
102
RTVSPropertyOp16
 70
     1
102
RTVSPropertyOp17
 70
     1
102
RTVSPropertyOp18
 70
     1
102
RTVSPropertyOp19
 70
     1
102
RTVSPropertyOp20
 70
     1
102
RTVSPropertyOp21
 70
     1
102
RTVSPropertyOp22
 70
     1
102
RTVSPropertyOp23
 70
     1
102
RTVSPropertyOp24
 70
     1
102
RTVSPropertyOp25
 70
     1
102
RTVSPropertyOp26
 70
     1
102
RTVSPropertyOp27
 70
     1
  0
XRECORD
  5
615
102
{ACAD_REACTORS
330
614
102
}
330
614
100
AcDbXrecord
280
     1
102
RTVSPropertyOp0
 70
     1
102
RTVSPropertyOp1
 70
     1
102
RTVSPropertyOp2
 70
     1
102
RTVSPropertyOp3
 70
     1
102
RTVSPropertyOp4
 70
     1
102
RTVSPropertyOp5
 70
     1
102
RTVSPropertyOp6
 70
     1
102
RTVSPropertyOp7
 70
     1
102
RTVSPropertyOp8
 70
     1
102
RTVSPropertyOp9
 70
     1
102
RTVSPropertyOp10
 70
     1
102
RTVSPropertyOp11
 70
     1
102
RTVSPropertyOp12
 70
     1
102
RTVSPropertyOp13
 70
     1
102
RTVSPropertyOp14
 70
     1
102
RTVSPropertyOp15
 70
     1
102
RTVSPropertyOp16
 70
     1
102
RTVSPropertyOp17
 70
     1
102
RTVSPropertyOp18
 70
     1
102
RTVSPropertyOp19
 70
     1
102
RTVSPropertyOp20
 70
     1
102
RTVSPropertyOp21
 70
     1
102
RTVSPropertyOp22
 70
     1
102
RTVSPropertyOp23
 70
     1
102
RTVSPropertyOp24
 70
     1
102
RTVSPropertyOp25
 70
     1
102
RTVSPropertyOp26
 70
     1
102
RTVSPropertyOp27
 70
     1
  0
ENDSEC
  0
EOF
