  0
SECTION
  2
HEADER
  9
$ACADVER
  1
AC1015
  9
$ACADMAINTVER
 70
    20
  9
$DWGCODEPAGE
  3
ANSI_1252
  9
$INSBASE
 10
0.0
 20
0.0
 30
0.0
  9
$EXTMIN
 10
-1.762546352404485
 20
-0.2079798576532192
 30
0.0
  9
$EXTMAX
 10
2.931725338929424
 20
0.6942062593355577
 30
0.0
  9
$LIMMIN
 10
0.0
 20
0.0
  9
$LIMMAX
 10
420.0
 20
297.0
  9
$ORTHOMODE
 70
     1
  9
$REGENMODE
 70
     1
  9
$FILLMODE
 70
     1
  9
$QTEXTMODE
 70
     0
  9
$MIRRTEXT
 70
     1
  9
$LTSCALE
 40
1.0
  9
$ATTMODE
 70
     1
  9
$TEXTSIZE
 40
2.0
  9
$TRACEWID
 40
1.0
  9
$TEXTSTYLE
  7
LEG-ATT
  9
$CLAYER
  8
BLOCKS
  9
$CELTYPE
  6
ByLayer
  9
$CECOLOR
 62
   256
  9
$CELTSCALE
 40
1.0
  9
$DISPSILH
 70
     0
  9
$DIMSCALE
 40
1.0
  9
$DIMASZ
 40
2.5
  9
$DIMEXO
 40
0.625
  9
$DIMDLI
 40
3.75
  9
$DIMRND
 40
0.0
  9
$DIMDLE
 40
0.0
  9
$DIMEXE
 40
1.25
  9
$DIMTP
 40
0.0
  9
$DIMTM
 40
0.0
  9
$DIMTXT
 40
2.5
  9
$DIMCEN
 40
2.5
  9
$DIMTSZ
 40
0.0
  9
$DIMTOL
 70
     0
  9
$DIMLIM
 70
     0
  9
$DIMTIH
 70
     0
  9
$DIMTOH
 70
     0
  9
$DIMSE1
 70
     0
  9
$DIMSE2
 70
     0
  9
$DIMTAD
 70
     1
  9
$DIMZIN
 70
     8
  9
$DIMBLK
  1

  9
$DIMASO
 70
     1
  9
$DIMSHO
 70
     1
  9
$DIMPOST
  1

  9
$DIMAPOST
  1

  9
$DIMALT
 70
     0
  9
$DIMALTD
 70
     3
  9
$DIMALTF
 40
0.03937007874016
  9
$DIMLFAC
 40
1.0
  9
$DIMTOFL
 70
     1
  9
$DIMTVP
 40
0.0
  9
$DIMTIX
 70
     0
  9
$DIMSOXD
 70
     0
  9
$DIMSAH
 70
     0
  9
$DIMBLK1
  1

  9
$DIMBLK2
  1

  9
$DIMSTYLE
  2
ISO-25
  9
$DIMCLRD
 70
     0
  9
$DIMCLRE
 70
     0
  9
$DIMCLRT
 70
     0
  9
$DIMTFAC
 40
1.0
  9
$DIMGAP
 40
0.625
  9
$DIMJUST
 70
     0
  9
$DIMSD1
 70
     0
  9
$DIMSD2
 70
     0
  9
$DIMTOLJ
 70
     0
  9
$DIMTZIN
 70
     8
  9
$DIMALTZ
 70
     0
  9
$DIMALTTZ
 70
     0
  9
$DIMUPT
 70
     0
  9
$DIMDEC
 70
     2
  9
$DIMTDEC
 70
     2
  9
$DIMALTU
 70
     2
  9
$DIMALTTD
 70
     3
  9
$DIMTXSTY
  7
Standard
  9
$DIMAUNIT
 70
     0
  9
$DIMADEC
 70
     0
  9
$DIMALTRND
 40
0.0
  9
$DIMAZIN
 70
     0
  9
$DIMDSEP
 70
    44
  9
$DIMATFIT
 70
     3
  9
$DIMFRAC
 70
     0
  9
$DIMLDRBLK
  1

  9
$DIMLUNIT
 70
     2
  9
$DIMLWD
 70
    -2
  9
$DIMLWE
 70
    -2
  9
$DIMTMOVE
 70
     0
  9
$LUNITS
 70
     2
  9
$LUPREC
 70
     4
  9
$SKETCHINC
 40
1.0
  9
$FILLETRAD
 40
0.0
  9
$AUNITS
 70
     0
  9
$AUPREC
 70
     0
  9
$MENU
  1
.
  9
$ELEVATION
 40
0.0
  9
$PELEVATION
 40
0.0
  9
$THICKNESS
 40
0.0
  9
$LIMCHECK
 70
     0
  9
$CHAMFERA
 40
10.0
  9
$CHAMFERB
 40
10.0
  9
$CHAMFERC
 40
20.0
  9
$CHAMFERD
 40
0.0
  9
$SKPOLY
 70
     0
  9
$TDCREATE
 40
2453125.639648206
  9
$TDUCREATE
 40
2453125.597981539
  9
$TDUPDATE
 40
2456146.650061297
  9
$TDUUPDATE
 40
2456146.608394630
  9
$TDINDWG
 40
0.0145903241
  9
$TDUSRTIMER
 40
0.0145903241
  9
$USRTIMER
 70
     1
  9
$ANGBASE
 50
0.0
  9
$ANGDIR
 70
     0
  9
$PDMODE
 70
     3
  9
$PDSIZE
 40
0.0
  9
$PLINEWID
 40
0.0
  9
$SPLFRAME
 70
     0
  9
$SPLINETYPE
 70
     6
  9
$SPLINESEGS
 70
     8
  9
$HANDSEED
  5
292
  9
$SURFTAB1
 70
     6
  9
$SURFTAB2
 70
     6
  9
$SURFTYPE
 70
     6
  9
$SURFU
 70
     6
  9
$SURFV
 70
     6
  9
$UCSBASE
  2

  9
$UCSNAME
  2

  9
$UCSORG
 10
0.0
 20
0.0
 30
0.0
  9
$UCSXDIR
 10
1.0
 20
0.0
 30
0.0
  9
$UCSYDIR
 10
0.0
 20
1.0
 30
0.0
  9
$UCSORTHOREF
  2

  9
$UCSORTHOVIEW
 70
     0
  9
$UCSORGTOP
 10
0.0
 20
0.0
 30
0.0
  9
$UCSORGBOTTOM
 10
0.0
 20
0.0
 30
0.0
  9
$UCSORGLEFT
 10
0.0
 20
0.0
 30
0.0
  9
$UCSORGRIGHT
 10
0.0
 20
0.0
 30
0.0
  9
$UCSORGFRONT
 10
0.0
 20
0.0
 30
0.0
  9
$UCSORGBACK
 10
0.0
 20
0.0
 30
0.0
  9
$PUCSBASE
  2

  9
$PUCSNAME
  2

  9
$PUCSORG
 10
0.0
 20
0.0
 30
0.0
  9
$PUCSXDIR
 10
1.0
 20
0.0
 30
0.0
  9
$PUCSYDIR
 10
0.0
 20
1.0
 30
0.0
  9
$PUCSORTHOREF
  2

  9
$PUCSORTHOVIEW
 70
     0
  9
$PUCSORGTOP
 10
0.0
 20
0.0
 30
0.0
  9
$PUCSORGBOTTOM
 10
0.0
 20
0.0
 30
0.0
  9
$PUCSORGLEFT
 10
0.0
 20
0.0
 30
0.0
  9
$PUCSORGRIGHT
 10
0.0
 20
0.0
 30
0.0
  9
$PUCSORGFRONT
 10
0.0
 20
0.0
 30
0.0
  9
$PUCSORGBACK
 10
0.0
 20
0.0
 30
0.0
  9
$USERI1
 70
     0
  9
$USERI2
 70
     0
  9
$USERI3
 70
     0
  9
$USERI4
 70
     0
  9
$USERI5
 70
     0
  9
$USERR1
 40
0.0
  9
$USERR2
 40
0.0
  9
$USERR3
 40
0.0
  9
$USERR4
 40
0.0
  9
$USERR5
 40
0.0
  9
$WORLDVIEW
 70
     1
  9
$SHADEDGE
 70
     3
  9
$SHADEDIF
 70
    70
  9
$TILEMODE
 70
     1
  9
$MAXACTVP
 70
    64
  9
$PINSBASE
 10
0.0
 20
0.0
 30
0.0
  9
$PLIMCHECK
 70
     0
  9
$PEXTMIN
 10
1.000000000000000E+20
 20
1.000000000000000E+20
 30
1.000000000000000E+20
  9
$PEXTMAX
 10
-1.000000000000000E+20
 20
-1.000000000000000E+20
 30
-1.000000000000000E+20
  9
$PLIMMIN
 10
0.0
 20
0.0
  9
$PLIMMAX
 10
420.0
 20
297.0
  9
$UNITMODE
 70
     0
  9
$VISRETAIN
 70
     1
  9
$PLINEGEN
 70
     0
  9
$PSLTSCALE
 70
     1
  9
$TREEDEPTH
 70
  3020
  9
$CMLSTYLE
  2
Standard
  9
$CMLJUST
 70
     0
  9
$CMLSCALE
 40
20.0
  9
$PROXYGRAPHICS
 70
     1
  9
$MEASUREMENT
 70
     1
  9
$CELWEIGHT
370
    -1
  9
$ENDCAPS
280
     0
  9
$JOINSTYLE
280
     0
  9
$LWDISPLAY
290
     0
  9
$INSUNITS
 70
     4
  9
$HYPERLINKBASE
  1

  9
$STYLESHEET
  1

  9
$XEDIT
290
     1
  9
$CEPSNTYPE
380
     0
  9
$PSTYLEMODE
290
     1
  9
$FINGERPRINTGUID
  2
{38505E8A-DB8E-4A5A-9240-5BDA279CF715}
  9
$VERSIONGUID
  2
{B0B00DA4-2BFA-4C8B-9E41-9E9BA2366C2E}
  9
$EXTNAMES
290
     1
  9
$PSVPSCALE
 40
0.0
  9
$OLESTARTUP
290
     0
  0
ENDSEC
  0
SECTION
  2
CLASSES
  0
CLASS
  1
ACDBDICTIONARYWDFLT
  2
AcDbDictionaryWithDefault
  3
ObjectDBX Classes
 90
        0
280
     0
281
     0
  0
CLASS
  1
ACDBPLACEHOLDER
  2
AcDbPlaceHolder
  3
ObjectDBX Classes
 90
        0
280
     0
281
     0
  0
CLASS
  1
LAYOUT
  2
AcDbLayout
  3
ObjectDBX Classes
 90
        0
280
     0
281
     0
  0
CLASS
  1
DICTIONARYVAR
  2
AcDbDictionaryVar
  3
ObjectDBX Classes
 90
        0
280
     0
281
     0
  0
CLASS
  1
TABLESTYLE
  2
AcDbTableStyle
  3
ObjectDBX Classes
 90
     4095
280
     0
281
     0
  0
CLASS
  1
SORTENTSTABLE
  2
AcDbSortentsTable
  3
ObjectDBX Classes
 90
        0
280
     0
281
     0
  0
CLASS
  1
MATERIAL
  2
AcDbMaterial
  3
ObjectDBX Classes
 90
     1153
280
     0
281
     0
  0
CLASS
  1
VISUALSTYLE
  2
AcDbVisualStyle
  3
ObjectDBX Classes
 90
     4095
280
     0
281
     0
  0
CLASS
  1
SCALE
  2
AcDbScale
  3
ObjectDBX Classes
 90
     1153
280
     0
281
     0
  0
CLASS
  1
MLEADERSTYLE
  2
AcDbMLeaderStyle
  3
ACDB_MLEADERSTYLE_CLASS
 90
     4095
280
     0
281
     0
  0
CLASS
  1
CELLSTYLEMAP
  2
AcDbCellStyleMap
  3
ObjectDBX Classes
 90
     1152
280
     0
281
     0
  0
ENDSEC
  0
SECTION
  2
TABLES
  0
TABLE
  2
VPORT
  5
19
330
0
100
AcDbSymbolTable
 70
     1
  0
VPORT
  5
206
330
19
100
AcDbSymbolTableRecord
100
AcDbViewportTableRecord
  2
*Active
 70
     0
 10
0.0
 20
0.0
 11
1.0
 21
1.0
 12
0.6630538387720899
 22
0.2515187684347779
 13
0.0
 23
0.0
 14
10.0
 24
10.0
 15
10.0
 25
10.0
 16
0.0
 26
0.0
 36
1.0
 17
0.0
 27
0.0
 37
0.0
 40
2.990317617343285
 41
1.645464025026068
 42
50.0
 43
0.0
 44
0.0
 50
0.0
 51
0.0
 71
     0
 72
   100
 73
     1
 74
     2
 75
     0
 76
     0
 77
     0
 78
     0
281
     0
 65
     1
110
0.0
120
0.0
130
0.0
111
1.0
121
0.0
131
0.0
112
0.0
122
1.0
132
0.0
 79
     0
146
0.0
  0
ENDTAB
  0
TABLE
  2
LTYPE
  5
14
330
0
100
AcDbSymbolTable
 70
     1
  0
LTYPE
  5
15
330
14
100
AcDbSymbolTableRecord
100
AcDbLinetypeTableRecord
  2
ByBlock
 70
     0
  3

 72
    65
 73
     0
 40
0.0
  0
LTYPE
  5
16
330
14
100
AcDbSymbolTableRecord
100
AcDbLinetypeTableRecord
  2
ByLayer
 70
     0
  3

 72
    65
 73
     0
 40
0.0
  0
LTYPE
  5
8
330
14
100
AcDbSymbolTableRecord
100
AcDbLinetypeTableRecord
  2
Continuous
 70
     0
  3
Solid line
 72
    65
 73
     0
 40
0.0
  0
ENDTAB
  0
TABLE
  2
LAYER
  5
10
330
0
100
AcDbSymbolTable
 70
     2
  0
LAYER
  5
4
102
{ACAD_XDICTIONARY
360
252
102
}
330
10
100
AcDbSymbolTableRecord
100
AcDbLayerTableRecord
  2
0
 70
     0
 62
     7
  6
Continuous
370
    -3
390
5
  0
LAYER
  5
22
102
{ACAD_XDICTIONARY
360
254
102
}
330
10
100
AcDbSymbolTableRecord
100
AcDbLayerTableRecord
  2
BLOCKS
 70
     0
 62
     3
  6
Continuous
370
    -3
390
5
  0
ENDTAB
  0
TABLE
  2
STYLE
  5
11
330
0
100
AcDbSymbolTable
 70
     2
  0
STYLE
  5
12
330
11
100
AcDbSymbolTableRecord
100
AcDbTextStyleTableRecord
  2
Standard
 70
     0
 40
0.0
 41
1.0
 50
0.0
 71
     0
 42
2.5
  3
txt
  4

  0
STYLE
  5
23
330
11
100
AcDbSymbolTableRecord
100
AcDbTextStyleTableRecord
  2
LEG-ATT
 70
     0
 40
2.0
 41
0.8
 50
0.0
 71
     0
 42
2.0
  3
ARIAL.TTF
  4

1001
ACAD
1000
Arial
1071
       34
  0
ENDTAB
  0
TABLE
  2
VIEW
  5
17
330
0
100
AcDbSymbolTable
 70
     0
  0
ENDTAB
  0
TABLE
  2
UCS
  5
18
330
0
100
AcDbSymbolTable
 70
     0
  0
ENDTAB
  0
TABLE
  2
APPID
  5
1B
330
0
100
AcDbSymbolTable
 70
     3
  0
APPID
  5
1C
330
1B
100
AcDbSymbolTableRecord
100
AcDbRegAppTableRecord
  2
ACAD
 70
     0
  0
APPID
  5
258
330
1B
100
AcDbSymbolTableRecord
100
AcDbRegAppTableRecord
  2
DCO15
 70
     0
  0
APPID
  5
291
330
1B
100
AcDbSymbolTableRecord
100
AcDbRegAppTableRecord
  2
ACAD_MLEADERVER
 70
     0
  0
ENDTAB
  0
TABLE
  2
DIMSTYLE
  5
1D
330
0
100
AcDbSymbolTable
 70
     1
100
AcDbDimStyleTable
 71
     0
  0
DIMSTYLE
105
25
330
1D
100
AcDbSymbolTableRecord
100
AcDbDimStyleTableRecord
  2
ISO-25
 70
     0
 41
2.5
 42
0.625
 43
3.75
 44
1.25
 73
     0
 74
     0
 77
     1
 78
     8
140
2.5
141
2.5
143
0.03937007874016
147
0.625
171
     3
172
     1
271
     2
272
     2
274
     3
278
    44
283
     0
284
     8
340
12
  0
ENDTAB
  0
TABLE
  2
BLOCK_RECORD
  5
1
330
0
100
AcDbSymbolTable
 70
     3
  0
BLOCK_RECORD
  5
2
102
{ACAD_XDICTIONARY
360
1FE
102
}
330
1
100
AcDbSymbolTableRecord
100
AcDbBlockTableRecord
  2
*Model_Space
340
A
  0
BLOCK_RECORD
  5
C
330
1
100
AcDbSymbolTableRecord
100
AcDbBlockTableRecord
  2
*Paper_Space
340
F
  0
BLOCK_RECORD
  5
3D
330
1
100
AcDbSymbolTableRecord
100
AcDbBlockTableRecord
  2
107231AL
340
0
1001
ACAD
1000
DesignCenter Data
1002
{
1070
     1
1070
     4
1002
}
  0
BLOCK_RECORD
  5
4F
330
1
100
AcDbSymbolTableRecord
100
AcDbBlockTableRecord
  2
107231CT
340
0
102
{BLKREFS
331
F4
102
}
1001
ACAD
1000
DesignCenter Data
1002
{
1070
     1
1070
     4
1002
}
  0
BLOCK_RECORD
  5
F7
330
1
100
AcDbSymbolTableRecord
100
AcDbBlockTableRecord
  2
107231PL
340
0
102
{BLKREFS
331
1DE
102
}
1001
ACAD
1000
DesignCenter Data
1002
{
1070
     1
1070
     4
1002
}
  0
ENDTAB
  0
ENDSEC
  0
SECTION
  2
BLOCKS
  0
BLOCK
  5
3
330
2
100
AcDbEntity
  8
0
100
AcDbBlockBegin
  2
*Model_Space
 70
     0
 10
0.0
 20
0.0
 30
0.0
  3
*Model_Space
  1

  0
ENDBLK
  5
9
330
2
100
AcDbEntity
  8
0
100
AcDbBlockEnd
  0
BLOCK
  5
D
330
C
100
AcDbEntity
 67
     1
  8
0
100
AcDbBlockBegin
  2
*Paper_Space
 70
     0
 10
0.0
 20
0.0
 30
0.0
  3
*Paper_Space
  1

  0
ENDBLK
  5
E
330
C
100
AcDbEntity
 67
     1
  8
0
100
AcDbBlockEnd
  0
BLOCK
  5
45
330
3D
100
AcDbEntity
  8
0
100
AcDbBlockBegin
  2
107231AL
 70
     0
 10
0.0
 20
0.0
 30
0.0
  3
107231AL
  1

  0
ARC
  5
48
330
3D
100
AcDbEntity
  8
BLOCKS
  6
Continuous
100
AcDbCircle
 10
0.4433759557683374
 20
0.0988416095516505
 30
0.0
 40
0.0042974612848545
100
AcDbArc
 50
1.97950514241937
 51
90.0
  0
LINE
  5
49
330
3D
100
AcDbEntity
  8
BLOCKS
  6
Continuous
100
AcDbLine
 10
0.4510922095824748
 20
0.0
 30
0.0
 11
0.4476708525291082
 21
0.0989900525007636
 31
0.0
  0
ARC
  5
4A
330
3D
100
AcDbEntity
  8
BLOCKS
  6
Continuous
100
AcDbCircle
 10
-0.4433759557683385
 20
0.0988416095516505
 30
0.0
 40
0.0042974612848545
100
AcDbArc
 50
90.0
 51
178.0204948575806
  0
LINE
  5
4B
330
3D
100
AcDbEntity
  8
BLOCKS
  6
Continuous
100
AcDbLine
 10
-0.4510922095824748
 20
0.0
 30
0.0
 11
-0.4476708525291093
 21
0.0989900525007636
 31
0.0
  0
LINE
  5
4C
330
3D
100
AcDbEntity
  8
BLOCKS
100
AcDbLine
 10
0.4493098305526144
 20
0.051569535418252
 30
0.0
 11
-0.4493098305526166
 21
0.0515695354182526
 31
0.0
  0
LINE
  5
4D
330
3D
100
AcDbEntity
  8
BLOCKS
  6
Continuous
100
AcDbLine
 10
-0.4433759557683385
 20
0.1031390708365046
 30
0.0
 11
0.4433759557683374
 21
0.1031390708365052
 31
0.0
  0
LINE
  5
4E
330
3D
100
AcDbEntity
  8
BLOCKS
  6
Continuous
100
AcDbLine
 10
-0.4510922095824748
 20
0.0
 30
0.0
 11
0.4510922095824748
 21
0.0
 31
0.0
  0
ENDBLK
  5
46
330
3D
100
AcDbEntity
  8
0
100
AcDbBlockEnd
  0
BLOCK
  5
F2
330
4F
100
AcDbEntity
  8
0
100
AcDbBlockBegin
  2
107231CT
 70
     0
 10
0.0
 20
0.0
 30
0.0
  3
107231CT
  1

  0
LINE
  5
50
330
4F
100
AcDbEntity
  8
BLOCKS
  6
Continuous
100
AcDbLine
 10
0.4844905296611188
 20
0.1090000000000054
 30
0.0
 11
0.5083427379549068
 21
0.1090000000000054
 31
0.0
  0
LINE
  5
51
330
4F
100
AcDbEntity
  8
BLOCKS
  6
Continuous
100
AcDbLine
 10
0.4844905296611188
 20
0.12
 30
0.0
 11
0.5083427379549068
 21
0.12
 31
0.0
  0
ARC
  5
52
330
4F
100
AcDbEntity
  8
BLOCKS
  6
Continuous
100
AcDbCircle
 10
0.4844905296611188
 20
0.105
 30
0.0
 40
0.0040000000000005
100
AcDbArc
 50
90.0
 51
165.0000000000022
  0
ARC
  5
53
330
4F
100
AcDbEntity
  8
BLOCKS
  6
Continuous
100
AcDbCircle
 10
0.4844905296611188
 20
0.105
 30
0.0
 40
0.0150000000000003
100
AcDbArc
 50
90.0
 51
165.0000000000022
  0
ARC
  5
54
330
4F
100
AcDbEntity
  8
BLOCKS
  6
Continuous
100
AcDbCircle
 10
0.5083427379549068
 20
0.105
 30
0.0
 40
0.0150000000000005
100
AcDbArc
 50
1.400000000026763
 51
90.0
  0
ARC
  5
55
330
4F
100
AcDbEntity
  8
BLOCKS
  6
Continuous
100
AcDbCircle
 10
0.5083427379549068
 20
0.105
 30
0.0
 40
0.0040000000000006
100
AcDbArc
 50
1.400000000026763
 51
90.0
  0
LINE
  5
56
330
4F
100
AcDbEntity
  8
BLOCKS
  6
Continuous
100
AcDbLine
 10
0.4819806248414347
 20
0.0
 30
0.0
 11
0.4929806248414349
 21
0.0
 31
0.0
  0
ARC
  5
57
330
4F
100
AcDbEntity
  8
BLOCKS
  6
Continuous
100
AcDbCircle
 10
0.502980624841435
 20
0.05
 30
0.0
 40
0.0210000000000006
100
AcDbArc
 50
90.0
 51
180.0
  0
ARC
  5
58
330
4F
100
AcDbEntity
  8
BLOCKS
  6
Continuous
100
AcDbCircle
 10
0.502980624841435
 20
0.05
 30
0.0
 40
0.0100000000000003
100
AcDbArc
 50
90.0
 51
180.0
  0
ARC
  5
59
330
4F
100
AcDbEntity
  8
BLOCKS
  6
Continuous
100
AcDbCircle
 10
0.4472473796330366
 20
0.0819177710159784
 30
0.0
 40
0.0260000000000004
100
AcDbArc
 50
271.3999999999942
 51
345.0000000000021
  0
ARC
  5
5A
330
4F
100
AcDbEntity
  8
BLOCKS
  6
Continuous
100
AcDbCircle
 10
0.4472473796330366
 20
0.0819177710159784
 30
0.0
 40
0.0150000000000003
100
AcDbArc
 50
271.3999999999942
 51
345.0000000000021
  0
LINE
  5
5B
330
4F
100
AcDbEntity
  8
BLOCKS
  6
Continuous
100
AcDbLine
 10
0.4819806248414347
 20
0.05
 30
0.0
 11
0.4819806248414347
 21
0.0
 31
0.0
  0
LINE
  5
5C
330
4F
100
AcDbEntity
  8
BLOCKS
  6
Continuous
100
AcDbLine
 10
0.502980624841435
 20
0.06
 30
0.0
 11
0.5090759221624655
 21
0.06
 31
0.0
  0
LINE
  5
5D
330
4F
100
AcDbEntity
  8
BLOCKS
  6
Continuous
100
AcDbLine
 10
0.4929806248414349
 20
0.05
 30
0.0
 11
0.4929806248414349
 21
0.0
 31
0.0
  0
LINE
  5
5E
330
4F
100
AcDbEntity
  8
BLOCKS
  6
Continuous
100
AcDbLine
 10
0.502980624841435
 20
0.0710000000000037
 30
0.0
 11
0.5090759221624644
 21
0.0710000000000037
 31
0.0
  0
ARC
  5
5F
330
4F
100
AcDbEntity
  8
BLOCKS
  6
Continuous
100
AcDbCircle
 10
0.4108110597810395
 20
0.0640222103503948
 30
0.0
 40
0.0020000000000002
100
AcDbArc
 50
91.39999999999419
 51
135.0
  0
LINE
  5
60
330
4F
100
AcDbEntity
  8
BLOCKS
  6
Continuous
100
AcDbLine
 10
0.3989538369462713
 20
0.0404096944577776
 30
0.0
 11
0.409953836946271
 21
0.0404096944577776
 31
0.0
  0
LINE
  5
61
330
4F
100
AcDbEntity
  8
BLOCKS
  6
Continuous
100
AcDbLine
 10
0.4099604223059015
 20
0.0404096944577776
 30
0.0
 11
0.4099604223059015
 21
0.0504436508138952
 31
0.0
  0
LINE
  5
62
330
4F
100
AcDbEntity
  8
BLOCKS
  6
Continuous
100
AcDbLine
 10
0.4099604223059015
 20
0.0504436508138952
 30
0.0
 11
0.4146296180009637
 21
0.0551128465089551
 31
0.0
  0
LINE
  5
63
330
4F
100
AcDbEntity
  8
BLOCKS
  6
Continuous
100
AcDbLine
 10
0.3989604223059013
 20
0.055
 30
0.0
 11
0.4093968462186666
 21
0.0654364239127699
 31
0.0
  0
LINE
  5
64
330
4F
100
AcDbEntity
  8
BLOCKS
  6
Continuous
100
AcDbLine
 10
0.3989604223059013
 20
0.0404096944577776
 30
0.0
 11
0.3989604223059013
 21
0.055
 31
0.0
  0
LINE
  5
65
330
4F
100
AcDbEntity
  8
BLOCKS
  6
Continuous
100
AcDbLine
 10
0.4146296180009637
 20
0.0551128465089551
 30
0.0
 11
0.4478826162650052
 21
0.0559255322816625
 31
0.0
  0
LINE
  5
66
330
4F
100
AcDbEntity
  8
BLOCKS
  6
Continuous
100
AcDbLine
 10
0.4107621954247345
 20
0.0660216133299582
 30
0.0
 11
0.4476138623053265
 21
0.0669222486692616
 31
0.0
  0
ARC
  5
67
330
4F
100
AcDbEntity
  8
BLOCKS
  6
Continuous
100
AcDbCircle
 10
0.5090759221624655
 20
0.075
 30
0.0
 40
0.0149999999999999
100
AcDbArc
 50
270.0
 51
1.400000000026763
  0
ARC
  5
68
330
4F
100
AcDbEntity
  8
BLOCKS
  6
Continuous
100
AcDbCircle
 10
0.5090759221624655
 20
0.075
 30
0.0
 40
0.0040000000000004
100
AcDbArc
 50
270.0
 51
1.400000000026763
  0
LINE
  5
69
330
4F
100
AcDbEntity
  8
BLOCKS
  6
Continuous
100
AcDbLine
 10
0.4700016422667824
 20
0.1088822856765364
 30
0.0
 11
0.461736267027373
 21
0.0780354853394329
 31
0.0
  0
LINE
  5
6A
330
4F
100
AcDbEntity
  8
BLOCKS
  6
Continuous
100
AcDbLine
 10
0.4806268263559623
 20
0.1060352761804097
 30
0.0
 11
0.4723614511165517
 21
0.0751884758433062
 31
0.0
  0
LINE
  5
6B
330
4F
100
AcDbEntity
  8
BLOCKS
  6
Continuous
100
AcDbLine
 10
0.513074728121589
 20
0.0750977287126079
 30
0.0
 11
0.5123415439140314
 21
0.105097728712617
 31
0.0
  0
LINE
  5
6C
330
4F
100
AcDbEntity
  8
BLOCKS
  6
Continuous
100
AcDbLine
 10
0.5240714445091824
 20
0.0753664826722889
 30
0.0
 11
0.5233382603016236
 21
0.1053664826722888
 31
0.0
  0
LINE
  5
6D
330
4F
100
AcDbEntity
  8
BLOCKS
  6
Continuous
100
AcDbLine
 10
0.0631760284368278
 20
0.12
 30
0.0
 11
0.1656279337206609
 21
0.12
 31
0.0
  0
LINE
  5
6E
330
4F
100
AcDbEntity
  8
BLOCKS
  6
Continuous
100
AcDbLine
 10
0.1656279337206609
 20
0.12
 30
0.0
 11
0.3346727471835203
 21
0.12
 31
0.0
  0
LINE
  5
6F
330
4F
100
AcDbEntity
  8
BLOCKS
  6
Continuous
100
AcDbLine
 10
0.2657694132864248
 20
0.0675219339391697
 30
0.0
 11
0.3271586491870682
 21
0.0660216133299582
 31
0.0
  0
ARC
  5
70
330
4F
100
AcDbEntity
  8
BLOCKS
  6
Continuous
100
AcDbCircle
 10
0.2641867691751128
 20
0.0687600572152678
 30
0.0
 40
0.0008009141380367
100
AcDbArc
 50
0.0612656850013198
 51
88.65572561061325
  0
LINE
  5
71
330
4F
100
AcDbEntity
  8
BLOCKS
  6
Continuous
100
AcDbLine
 10
0.2649876828552766
 20
0.0687609136229185
 30
0.0
 11
0.2649876828552766
 21
0.0683217616145703
 31
0.0
  0
ARC
  5
72
330
4F
100
AcDbEntity
  8
BLOCKS
  6
Continuous
100
AcDbCircle
 10
0.2657885093916326
 20
0.0683225331368612
 30
0.0
 40
0.0008008269080005
100
AcDbArc
 50
180.0551991666195
 51
268.6336248980868
  0
LINE
  5
73
330
4F
100
AcDbEntity
  8
BLOCKS
  6
Continuous
100
AcDbLine
 10
0.3279538369462705
 20
0.0404096944577776
 30
0.0
 11
0.3389538369462713
 21
0.0404096944577776
 31
0.0
  0
LINE
  5
74
330
4F
100
AcDbEntity
  8
BLOCKS
  6
Continuous
100
AcDbLine
 10
0.3285239983931359
 20
0.0654364239127699
 30
0.0
 11
0.3389604223059013
 21
0.055
 31
0.0
  0
ARC
  5
75
330
4F
100
AcDbEntity
  8
BLOCKS
  6
Continuous
100
AcDbCircle
 10
0.3271097848307619
 20
0.0640222103503948
 30
0.0
 40
0.0020000000000005
100
AcDbArc
 50
45.0
 51
88.59999999997326
  0
LINE
  5
76
330
4F
100
AcDbEntity
  8
BLOCKS
  6
Continuous
100
AcDbLine
 10
0.3232912266108388
 20
0.0551128465089551
 30
0.0
 11
0.327960422305901
 21
0.0504436508138952
 31
0.0
  0
LINE
  5
77
330
4F
100
AcDbEntity
  8
BLOCKS
  6
Continuous
100
AcDbLine
 10
0.327960422305901
 20
0.0504436508138952
 30
0.0
 11
0.327960422305901
 21
0.0404096944577759
 31
0.0
  0
LINE
  5
78
330
4F
100
AcDbEntity
  8
BLOCKS
  6
Continuous
100
AcDbLine
 10
0.3389604223059013
 20
0.055
 30
0.0
 11
0.3389604223059013
 21
0.0404096944577776
 31
0.0
  0
LINE
  5
79
330
4F
100
AcDbEntity
  8
BLOCKS
  6
Continuous
100
AcDbLine
 10
0.2153257325921828
 20
0.0687547509410342
 30
0.0
 11
0.2521885233709742
 21
0.0678538437395219
 31
0.0
  0
ARC
  5
7A
330
4F
100
AcDbEntity
  8
BLOCKS
  6
Continuous
100
AcDbCircle
 10
0.2137444752479217
 20
0.0699934325451977
 30
0.0
 40
0.0008003217555943
100
AcDbArc
 50
0.0215668624799423
 51
88.61800032454302
  0
LINE
  5
7B
330
4F
100
AcDbEntity
  8
BLOCKS
  6
Continuous
100
AcDbLine
 10
0.2145447969468188
 20
0.0699937337965093
 30
0.0
 11
0.2145447969468188
 21
0.0695545365964244
 31
0.0
  0
ARC
  5
7C
330
4F
100
AcDbEntity
  8
BLOCKS
  6
Continuous
100
AcDbCircle
 10
0.2153450998926331
 20
0.0695548195586071
 30
0.0
 40
0.0008003029958383
100
AcDbArc
 50
180.0202580012793
 51
268.6133090579135
  0
ARC
  5
7D
330
4F
100
AcDbEntity
  8
BLOCKS
  6
Continuous
100
AcDbCircle
 10
0.1937575897223388
 20
0.0700823010879049
 30
0.0
 40
0.0008001971993688
100
AcDbArc
 50
268.5799883698345
 51
359.9846251102725
  0
LINE
  5
7E
330
4F
100
AcDbEntity
  8
BLOCKS
  6
Continuous
100
AcDbLine
 10
0.1945577868928973
 20
0.0700820863610261
 30
0.0
 11
0.1945577868928973
 21
0.0704431280404333
 31
0.0
  0
ARC
  5
7F
330
4F
100
AcDbEntity
  8
BLOCKS
  6
Continuous
100
AcDbCircle
 10
0.1953579906383669
 20
0.0704429066048215
 30
0.0
 40
0.0008002037761085
100
AcDbArc
 50
88.574468279634
 51
179.9841448808171
  0
LINE
  5
80
330
4F
100
AcDbEntity
  8
BLOCKS
  6
Continuous
100
AcDbLine
 10
0.1953778978320594
 20
0.0712428627204463
 30
0.0
 11
0.2137637774927003
 21
0.0707935215001453
 31
0.0
  0
ARC
  5
81
330
4F
100
AcDbEntity
  8
BLOCKS
  6
Continuous
100
AcDbCircle
 10
0.2522088027440674
 20
0.0686541296008272
 30
0.0
 40
0.0008005427613668
100
AcDbArc
 50
268.5484263287039
 51
359.957690482371
  0
LINE
  5
82
330
4F
100
AcDbEntity
  8
BLOCKS
  6
Continuous
100
AcDbLine
 10
0.2530093452871682
 20
0.0686535384477702
 30
0.0
 11
0.2530093452871671
 21
0.069014625318905
 31
0.0
  0
ARC
  5
83
330
4F
100
AcDbEntity
  8
BLOCKS
  6
Continuous
100
AcDbCircle
 10
0.2538099186482697
 20
0.0690140029702343
 30
0.0
 40
0.0008005736030024
100
AcDbArc
 50
88.52248755946968
 51
179.9554594915028
  0
LINE
  5
84
330
4F
100
AcDbEntity
  8
BLOCKS
  6
Continuous
100
AcDbLine
 10
0.2538305611174661
 20
0.0698143104000974
 30
0.0
 11
0.2642055585100223
 21
0.069560750925375
 31
0.0
  0
LINE
  5
85
330
4F
100
AcDbEntity
  8
BLOCKS
  6
Continuous
100
AcDbLine
 10
0.1099327606893468
 20
0.0713304996939314
 30
0.0
 11
0.1382900277364348
 21
0.0706374630149822
 31
0.0
  0
ARC
  5
86
330
4F
100
AcDbEntity
  8
BLOCKS
  6
Continuous
100
AcDbCircle
 10
0.1083518621803916
 20
0.0725693192314429
 30
0.0
 40
0.0008001750677415
100
AcDbArc
 50
0.0117333406866029
 51
88.6094804085231
  0
LINE
  5
87
330
4F
100
AcDbEntity
  8
BLOCKS
  6
Continuous
100
AcDbLine
 10
0.1091520372313545
 20
0.07256948309564
 30
0.0
 11
0.1091520372313545
 21
0.0721302744315926
 31
0.0
  0
ARC
  5
88
330
4F
100
AcDbEntity
  8
BLOCKS
  6
Continuous
100
AcDbCircle
 10
0.1099522046673525
 20
0.0721304308671097
 30
0.0
 40
0.00080016745129
100
AcDbArc
 50
180.0112015243473
 51
268.6075820216544
  0
LWPOLYLINE
  5
89
330
4F
100
AcDbEntity
  8
BLOCKS
  6
Continuous
100
AcDbPolyline
 90
        3
 70
   128
 43
0.0
 10
0.1096640067296676
 20
0.0603337833063415
 10
0.1057707697821189
 20
0.0610954012912862
 10
0.1031382944133935
 20
0.0624938654788275
  0
ARC
  5
8A
330
4F
100
AcDbEntity
  8
BLOCKS
  6
Continuous
100
AcDbCircle
 10
0.1602979004941659
 20
0.0712996953314814
 30
0.0
 40
0.0008002651248404
100
AcDbArc
 50
0.0177704862683581
 51
88.61466314834942
  0
LINE
  5
8B
330
4F
100
AcDbEntity
  8
BLOCKS
  6
Continuous
100
AcDbLine
 10
0.1610981655805148
 20
0.0712999435365055
 30
0.0
 11
0.1610981655805148
 21
0.0708607419274267
 31
0.0
  0
ARC
  5
8C
330
4F
100
AcDbEntity
  8
BLOCKS
  6
Continuous
100
AcDbCircle
 10
0.1618984165824378
 20
0.0708609763949608
 30
0.0
 40
0.0008002510362723
100
AcDbArc
 50
180.0167872326502
 51
268.6111444747373
  0
ARC
  5
8D
330
4F
100
AcDbEntity
  8
BLOCKS
  6
Continuous
100
AcDbCircle
 10
0.138309810787361
 20
0.07143738161064
 30
0.0
 40
0.0008001631888406
100
AcDbArc
 50
268.5832879490761
 51
359.9872768095747
  0
LINE
  5
8E
330
4F
100
AcDbEntity
  8
BLOCKS
  6
Continuous
100
AcDbLine
 10
0.1391099739564725
 20
0.0714372039251521
 30
0.0
 11
0.1391099739564725
 21
0.0717982411955563
 31
0.0
  0
ARC
  5
8F
330
4F
100
AcDbEntity
  8
BLOCKS
  6
Continuous
100
AcDbCircle
 10
0.1399101420596486
 20
0.0717980584717771
 30
0.0
 40
0.0008001681240377
100
AcDbArc
 50
88.57914658986793
 51
179.9869161228666
  0
LINE
  5
90
330
4F
100
AcDbEntity
  8
BLOCKS
  6
Continuous
100
AcDbLine
 10
0.1399299830512933
 20
0.0725979805690895
 30
0.0
 11
0.1603172479707376
 21
0.0720997265466212
 31
0.0
  0
LINE
  5
91
330
4F
100
AcDbEntity
  8
BLOCKS
  6
Continuous
100
AcDbLine
 10
0.0554855385379818
 20
0.0726611611414865
 30
0.0
 11
0.0813418430598682
 21
0.0720292466701176
 31
0.0
  0
LINE
  5
92
330
4F
100
AcDbEntity
  8
BLOCKS
  6
Continuous
100
AcDbLine
 10
0.0552167845783032
 20
0.0616644447538965
 30
0.0
 11
0.0810730891001896
 21
0.0610325302825186
 31
0.0
  0
ARC
  5
93
330
4F
100
AcDbEntity
  8
BLOCKS
  6
Continuous
100
AcDbCircle
 10
0.05390464002903
 20
0.0738999806790071
 30
0.0
 40
0.0008001750677394
100
AcDbArc
 50
0.0117333405563274
 51
88.60948040865332
  0
LINE
  5
94
330
4F
100
AcDbEntity
  8
BLOCKS
  6
Continuous
100
AcDbLine
 10
0.0547048150799907
 20
0.073900144543195
 30
0.0
 11
0.0547048150799907
 21
0.0734609358791477
 31
0.0
  0
ARC
  5
95
330
4F
100
AcDbEntity
  8
BLOCKS
  6
Continuous
100
AcDbCircle
 10
0.0555049825159876
 20
0.0734610923146647
 30
0.0
 40
0.000800167451289
100
AcDbArc
 50
180.0112015243147
 51
268.6075820217521
  0
LWPOLYLINE
  5
96
330
4F
100
AcDbEntity
  8
BLOCKS
  6
Continuous
100
AcDbPolyline
 90
        3
 70
   128
 43
0.0
 10
0.0552167845783032
 20
0.0616644447538965
 10
0.0513235476307551
 20
0.0624260627388503
 10
0.0486910722620286
 20
0.0638245269263825
  0
ARC
  5
97
330
4F
100
AcDbEntity
  8
BLOCKS
  6
Continuous
100
AcDbCircle
 10
0.0269143272473656
 20
0.0741597740143516
 30
0.0
 40
0.000800108612912
100
AcDbArc
 50
268.5886863190663
 51
359.9915320682567
  0
LINE
  5
98
330
4F
100
AcDbEntity
  8
BLOCKS
  6
Continuous
100
AcDbLine
 10
0.0277144358515403
 20
0.0741596557636695
 30
0.0
 11
0.0277144358515403
 21
0.074520685979096
 31
0.0
  0
LWPOLYLINE
  5
99
330
4F
100
AcDbEntity
  8
BLOCKS
  6
Continuous
100
AcDbPolyline
 90
        4
 70
   128
 43
0.0
 10
0.033249307977722
 20
0.0642019155167236
 10
0.0331914522996027
 20
0.06416540504978
 10
0.0295162318199579
 20
0.0626498531026391
 10
0.0266258669488258
 20
0.0623631917300827
  0
ARC
  5
9A
330
4F
100
AcDbEntity
  8
BLOCKS
  6
Continuous
100
AcDbCircle
 10
0.0285145471199718
 20
0.0745205650046137
 30
0.0
 40
0.0008001112775768
100
AcDbArc
 50
88.58645109571943
 51
179.9913370458666
  0
LINE
  5
9B
330
4F
100
AcDbEntity
  8
BLOCKS
  6
Continuous
100
AcDbLine
 10
0.0285342847289252
 20
0.0753204327957519
 30
0.0
 11
0.0539240576876506
 21
0.074699920110188
 31
0.0
  0
LINE
  5
9C
330
4F
100
AcDbEntity
  8
BLOCKS
  6
Continuous
100
AcDbLine
 10
0.033249307977722
 20
0.0642019155167236
 30
0.0
 11
0.0486910722620286
 21
0.0638245269263825
 31
0.0
  0
ARC
  5
9D
330
4F
100
AcDbEntity
  8
BLOCKS
  6
Continuous
100
AcDbCircle
 10
0.0813615493987294
 20
0.0728291125667875
 30
0.0
 40
0.0008001086129134
100
AcDbArc
 50
268.5886863190663
 51
359.9915320681916
  0
LINE
  5
9E
330
4F
100
AcDbEntity
  8
BLOCKS
  6
Continuous
100
AcDbLine
 10
0.0821616580029041
 20
0.0728289943161053
 30
0.0
 11
0.0821616580029041
 21
0.073190024531541
 31
0.0
  0
ARC
  5
9F
330
4F
100
AcDbEntity
  8
BLOCKS
  6
Continuous
100
AcDbCircle
 10
0.0829617692713356
 20
0.0731899035570587
 30
0.0
 40
0.0008001112775772
100
AcDbArc
 50
88.58645109568689
 51
179.9913370458666
  0
LWPOLYLINE
  5
A0
330
4F
100
AcDbEntity
  8
BLOCKS
  6
Continuous
100
AcDbPolyline
 90
        4
 70
   128
 43
0.0
 10
0.0876965301290858
 20
0.0628712540691686
 10
0.0876386744509665
 20
0.062834743602225
 10
0.0839634539713217
 20
0.061319191655075
 10
0.0810730891001896
 20
0.0610325302825186
  0
LINE
  5
A1
330
4F
100
AcDbEntity
  8
BLOCKS
  6
Continuous
100
AcDbLine
 10
0.0829815068802901
 20
0.0739897713481969
 30
0.0
 11
0.1083712798390144
 21
0.073369258662633
 31
0.0
  0
LINE
  5
A2
330
4F
100
AcDbEntity
  8
BLOCKS
  6
Continuous
100
AcDbLine
 10
0.0876965301290858
 20
0.0628712540691686
 30
0.0
 11
0.1031382944133935
 21
0.0624938654788275
 31
0.0
  0
LINE
  5
A3
330
4F
100
AcDbEntity
  8
BLOCKS
  6
Continuous
100
AcDbLine
 10
0.1618790203155078
 20
0.0700609604539477
 30
0.0
 11
0.1937377597624896
 21
0.0692823496327674
 31
0.0
  0
LINE
  5
A4
330
4F
100
AcDbEntity
  8
BLOCKS
  6
Continuous
100
AcDbLine
 10
0.109664006729667
 20
0.0603337833063415
 30
0.0
 11
0.3232912266108388
 21
0.0551128465089551
 31
0.0
  0
LINE
  5
A5
330
4F
100
AcDbEntity
  8
BLOCKS
  6
Continuous
100
AcDbLine
 10
0.327960422305901
 20
0.0
 30
0.0
 11
0.0911173421009636
 21
0.0
 31
0.0
  0
ARC
  5
A6
330
4F
100
AcDbEntity
  8
BLOCKS
  6
Continuous
100
AcDbCircle
 10
-0.2239661281402908
 20
0.0806911710868553
 30
0.0
 40
0.0007999999999999
100
AcDbArc
 50
0.0
 51
88.6000000000058
  0
LINE
  5
A7
330
4F
100
AcDbEntity
  8
BLOCKS
  6
Continuous
100
AcDbLine
 10
-0.2231661281402916
 20
0.0806911710868553
 30
0.0
 11
-0.2231661281402916
 21
0.0802519484893765
 31
0.0
  0
LINE
  5
A8
330
4F
100
AcDbEntity
  8
BLOCKS
  6
Continuous
100
AcDbLine
 10
-0.1856558610049723
 20
0.0805551272046432
 30
0.0
 11
-0.1672632205091798
 21
0.0801056207530837
 31
0.0
  0
LINE
  5
A9
330
4F
100
AcDbEntity
  8
BLOCKS
  6
Continuous
100
AcDbLine
 10
-0.2783328960341777
 20
0.0808195079554844
 30
0.0
 11
-0.2389856738828138
 21
0.079857882559063
 31
0.0
  0
ARC
  5
AA
330
4F
100
AcDbEntity
  8
BLOCKS
  6
Continuous
100
AcDbCircle
 10
-0.291913350291656
 20
0.0819516459880743
 30
0.0
 40
0.0008000000000007
100
AcDbArc
 50
268.5999999999732
 51
0.0000000000325689
  0
ARC
  5
AB
330
4F
100
AcDbEntity
  8
BLOCKS
  6
Continuous
100
AcDbCircle
 10
-0.2783133502916559
 20
0.0816192691473134
 30
0.0
 40
0.0008
100
AcDbArc
 50
180.0
 51
268.6000000000058
  0
LINE
  5
AC
330
4F
100
AcDbEntity
  8
BLOCKS
  6
Continuous
100
AcDbLine
 10
-0.2911133502916545
 20
0.0819516459880743
 30
0.0
 11
-0.2911133502916556
 21
0.0823126622700784
 31
0.0
  0
ARC
  5
AD
330
4F
100
AcDbEntity
  8
BLOCKS
  6
Continuous
100
AcDbCircle
 10
-0.2903133502916551
 20
0.0823126622700784
 30
0.0
 40
0.0008000000000003
100
AcDbArc
 50
88.60000000003834
 51
180.0
  0
LINE
  5
AE
330
4F
100
AcDbEntity
  8
BLOCKS
  6
Continuous
100
AcDbLine
 10
-0.2902938045491345
 20
0.0831124234619074
 30
0.0
 11
-0.2798938045491337
 21
0.0828582529366122
 31
0.0
  0
ARC
  5
AF
330
4F
100
AcDbEntity
  8
BLOCKS
  6
Continuous
100
AcDbCircle
 10
-0.2799133502916555
 20
0.0820584917447923
 30
0.0
 40
0.0008000000000004
100
AcDbArc
 50
0.0000000000325689
 51
88.59999999997326
  0
LINE
  5
B0
330
4F
100
AcDbEntity
  8
BLOCKS
  6
Continuous
100
AcDbLine
 10
-0.2791133502916551
 20
0.0820584917447923
 30
0.0
 11
-0.2791133502916563
 21
0.0816192691473134
 31
0.0
  0
ARC
  5
B1
330
4F
100
AcDbEntity
  8
BLOCKS
  6
Continuous
100
AcDbCircle
 10
-0.2373661281402911
 20
0.0810186600328962
 30
0.0
 40
0.0008000000000004
100
AcDbArc
 50
88.59999999997326
 51
180.0000000000325
  0
LINE
  5
B2
330
4F
100
AcDbEntity
  8
BLOCKS
  6
Continuous
100
AcDbLine
 10
-0.2381661281402915
 20
0.080657643750892
 30
0.0
 11
-0.2381661281402915
 21
0.0810186600328962
 31
0.0
  0
LINE
  5
B3
330
4F
100
AcDbEntity
  8
BLOCKS
  6
Continuous
100
AcDbLine
 10
-0.2373465823977694
 20
0.0818184212247252
 30
0.0
 11
-0.223946582397769
 21
0.0814909322786753
 31
0.0
  0
LINE
  5
B4
330
4F
100
AcDbEntity
  8
BLOCKS
  6
Continuous
100
AcDbLine
 10
-0.0549094381348397
 20
0.0753591562578276
 30
0.0
 11
-0.0275526012428594
 21
0.0746905695652367
 31
0.0
  0
LINE
  5
B5
330
4F
100
AcDbEntity
  8
BLOCKS
  6
Continuous
100
AcDbLine
 10
-0.0551781920945183
 20
0.0643624398702377
 30
0.0
 11
-0.0278213552025392
 21
0.0636938531776377
 31
0.0
  0
ARC
  5
B6
330
4F
100
AcDbEntity
  8
BLOCKS
  6
Continuous
100
AcDbCircle
 10
-0.0564904529818176
 20
0.076597931467677
 30
0.0
 40
0.0008002222316789
100
AcDbArc
 50
0.0148950382026195
 51
88.61217454990402
  0
LINE
  5
B7
330
4F
100
AcDbEntity
  8
BLOCKS
  6
Continuous
100
AcDbLine
 10
-0.0556902307771799
 20
0.0765981394994196
 30
0.0
 11
-0.0556902307771799
 21
0.0761589345372704
 31
0.0
  0
ARC
  5
B8
330
4F
100
AcDbEntity
  8
BLOCKS
  6
Continuous
100
AcDbCircle
 10
-0.054890019418188
 20
0.0761591319896434
 30
0.0
 40
0.0008002113833524
100
AcDbArc
 50
180.0141377492526
 51
268.6094677481366
  0
LWPOLYLINE
  5
B9
330
4F
100
AcDbEntity
  8
BLOCKS
  6
Continuous
100
AcDbPolyline
 90
        3
 70
   128
 43
0.0
 10
-0.0551781920945195
 20
0.0643624398702377
 10
-0.0590734822010785
 20
0.0651246498368528
 10
-0.0617054012982709
 20
0.0665225586258566
  0
ARC
  5
BA
330
4F
100
AcDbEntity
  8
BLOCKS
  6
Continuous
100
AcDbCircle
 10
-0.0005425821223372
 20
0.0752306421265621
 30
0.0
 40
0.0008001750677422
100
AcDbArc
 50
0.0117333407843096
 51
88.60948040849052
  0
LINE
  5
BB
330
4F
100
AcDbEntity
  8
BLOCKS
  6
Continuous
100
AcDbLine
 10
0.0002575929286269
 20
0.0752308059907591
 30
0.0
 11
0.0002575929286269
 21
0.0747915973267027
 31
0.0
  0
ARC
  5
BC
330
4F
100
AcDbEntity
  8
BLOCKS
  6
Continuous
100
AcDbCircle
 10
0.0010577603646226
 20
0.0747917537622288
 30
0.0
 40
0.0008001674512884
100
AcDbArc
 50
180.011201524217
 51
268.6075820217847
  0
LWPOLYLINE
  5
BD
330
4F
100
AcDbEntity
  8
BLOCKS
  6
Continuous
100
AcDbPolyline
 90
        3
 70
   128
 43
0.0
 10
0.0007695624269383
 20
0.0629951062014516
 10
-0.0031236745206087
 20
0.0637567241864053
 10
-0.0057561498893347
 20
0.0651551883739376
  0
LINE
  5
BE
330
4F
100
AcDbEntity
  8
BLOCKS
  6
Continuous
100
AcDbLine
 10
-0.0211979141736544
 20
0.0655325769642786
 30
0.0
 11
-0.0057561498893352
 21
0.0651551883739376
 31
0.0
  0
LWPOLYLINE
  5
BF
330
4F
100
AcDbEntity
  8
BLOCKS
  6
Continuous
100
AcDbPolyline
 90
        4
 70
   128
 43
0.0
 10
-0.0211979141736538
 20
0.0655325769642786
 10
-0.0212557698517611
 20
0.0654960664973442
 10
-0.0249309903314071
 20
0.0639805145501941
 10
-0.0278213552025392
 20
0.0636938531776377
  0
ARC
  5
C0
330
4F
100
AcDbEntity
  8
BLOCKS
  6
Continuous
100
AcDbCircle
 10
-0.0275328949039994
 20
0.0754904354619066
 30
0.0
 40
0.0008001086129132
100
AcDbArc
 50
268.5886863190989
 51
359.9915320681916
  0
LINE
  5
C1
330
4F
100
AcDbEntity
  8
BLOCKS
  6
Continuous
100
AcDbLine
 10
-0.0267327862998235
 20
0.0754903172112245
 30
0.0
 11
-0.0267327862998235
 21
0.0758513474266601
 31
0.0
  0
ARC
  5
C2
330
4F
100
AcDbEntity
  8
BLOCKS
  6
Continuous
100
AcDbCircle
 10
-0.025932675031392
 20
0.0758512264521778
 30
0.0
 40
0.0008001112775772
100
AcDbArc
 50
88.58645109568689
 51
179.9913370458666
  0
LINE
  5
C3
330
4F
100
AcDbEntity
  8
BLOCKS
  6
Continuous
100
AcDbLine
 10
-0.0259129374224386
 20
0.0766510942433161
 30
0.0
 11
-0.0005231644637155
 21
0.0760305815577522
 31
0.0
  0
LINE
  5
C4
330
4F
100
AcDbEntity
  8
BLOCKS
  6
Continuous
100
AcDbLine
 10
-0.1113576003160023
 20
0.0767387196263917
 30
0.0
 11
-0.0804992910241316
 21
0.0759845587915697
 31
0.0
  0
ARC
  5
C5
330
4F
100
AcDbEntity
  8
BLOCKS
  6
Continuous
100
AcDbCircle
 10
-0.1329257431858485
 20
0.0780662697732533
 30
0.0
 40
0.00080019719937
100
AcDbArc
 50
268.579988369867
 51
359.9846251102399
  0
LINE
  5
C6
330
4F
100
AcDbEntity
  8
BLOCKS
  6
Continuous
100
AcDbLine
 10
-0.1321255460152878
 20
0.0780660550463836
 30
0.0
 11
-0.1321255460152878
 21
0.0784270967257817
 31
0.0
  0
ARC
  5
C7
330
4F
100
AcDbEntity
  8
BLOCKS
  6
Continuous
100
AcDbCircle
 10
-0.131325342269817
 20
0.0784268752901699
 30
0.0
 40
0.000800203776109
100
AcDbArc
 50
88.57446827966656
 51
179.9841448807846
  0
LINE
  5
C8
330
4F
100
AcDbEntity
  8
BLOCKS
  6
Continuous
100
AcDbLine
 10
-0.1313054350761257
 20
0.0792268314058038
 30
0.0
 11
-0.1129195554154847
 21
0.0787774901854937
 31
0.0
  0
ARC
  5
C9
330
4F
100
AcDbEntity
  8
BLOCKS
  6
Continuous
100
AcDbCircle
 10
-0.1129388576602633
 20
0.0779774012305552
 30
0.0
 40
0.0008003217555944
100
AcDbArc
 50
0.0215668624799423
 51
88.61800032454302
  0
LINE
  5
CA
330
4F
100
AcDbEntity
  8
BLOCKS
  6
Continuous
100
AcDbLine
 10
-0.1121385359613663
 20
0.0779777024818668
 30
0.0
 11
-0.1121385359613663
 21
0.0775385052817819
 31
0.0
  0
ARC
  5
CB
330
4F
100
AcDbEntity
  8
BLOCKS
  6
Continuous
100
AcDbCircle
 10
-0.1113382330155508
 20
0.0775387882439645
 30
0.0
 40
0.0008003029958389
100
AcDbArc
 50
180.0202580012793
 51
268.6133090578157
  0
LINE
  5
CC
330
4F
100
AcDbEntity
  8
BLOCKS
  6
Continuous
100
AcDbLine
 10
-0.0796848188369626
 20
0.0771454602604172
 30
0.0
 11
-0.0796848188369626
 21
0.076784443978413
 31
0.0
  0
ARC
  5
CD
330
4F
100
AcDbEntity
  8
BLOCKS
  6
Continuous
100
AcDbCircle
 10
-0.0804795441584332
 20
0.0767844523602253
 30
0.0
 40
0.0008001372756464
100
AcDbArc
 50
268.5858339804942
 51
359.9892972343818
  0
LINE
  5
CE
330
4F
100
AcDbEntity
  8
BLOCKS
  6
Continuous
100
AcDbLine
 10
-0.0796794068967455
 20
0.076784302895785
 30
0.0
 11
-0.0796794068967455
 21
0.0771453368131188
 31
0.0
  0
ARC
  5
CF
330
4F
100
AcDbEntity
  8
BLOCKS
  6
Continuous
100
AcDbCircle
 10
-0.078879265837931
 20
0.0771451834691198
 30
0.0
 40
0.0008001410735084
100
AcDbArc
 50
88.58264756581585
 51
179.9890194816599
  0
LWPOLYLINE
  5
D0
330
4F
100
AcDbEntity
  8
BLOCKS
  6
Continuous
100
AcDbPolyline
 90
        4
 70
   128
 43
0.0
 10
-0.0741431070674293
 20
0.0668265296074697
 10
-0.0742063241103978
 20
0.0667866829592549
 10
-0.0778995418902167
 20
0.0652695074119492
 10
-0.0807680449838102
 20
0.0649878424039798
  0
LINE
  5
D1
330
4F
100
AcDbEntity
  8
BLOCKS
  6
Continuous
100
AcDbLine
 10
-0.0788594743935022
 20
0.0779450797350455
 30
0.0
 11
-0.0564710717953807
 21
0.0773979189611328
 31
0.0
  0
LINE
  5
D2
330
4F
100
AcDbEntity
  8
BLOCKS
  6
Continuous
100
AcDbLine
 10
-0.0741431070674293
 20
0.0668265296074697
 30
0.0
 11
-0.0617054012982709
 21
0.0665225586258566
 31
0.0
  0
LINE
  5
D3
330
4F
100
AcDbEntity
  8
BLOCKS
  6
Continuous
100
AcDbLine
 10
-0.222385673882813
 20
0.0794521872975474
 30
0.0
 11
-0.1872954978105093
 21
0.0785946018663253
 31
0.0
  0
LINE
  5
D4
330
4F
100
AcDbEntity
  8
BLOCKS
  6
Continuous
100
AcDbLine
 10
-0.1664824717675077
 20
0.0793058457454845
 30
0.0
 11
-0.1664824717675077
 21
0.0788666363854736
 31
0.0
  0
ARC
  5
D5
330
4F
100
AcDbEntity
  8
BLOCKS
  6
Continuous
100
AcDbCircle
 10
-0.1656823138982639
 20
0.0788667838326092
 30
0.0
 40
0.0008001578828286
100
AcDbArc
 50
180.0105580394794
 51
268.6069352339612
  0
ARC
  5
D6
330
4F
100
AcDbEntity
  8
BLOCKS
  6
Continuous
100
AcDbCircle
 10
-0.1872758039797935
 20
0.0793944622123127
 30
0.0
 40
0.0008001027559282
100
AcDbArc
 50
268.5895719721747
 51
359.9919865530741
  0
LINE
  5
D7
330
4F
100
AcDbEntity
  8
BLOCKS
  6
Continuous
100
AcDbLine
 10
-0.1864757012316903
 20
0.0793943503091123
 30
0.0
 11
-0.1864757012316903
 21
0.0797553798285844
 31
0.0
  0
LINE
  5
D8
330
4F
100
AcDbEntity
  8
BLOCKS
  6
Continuous
100
AcDbLine
 10
-0.1657017666737323
 20
0.0780668624446025
 30
0.0
 11
-0.1329455731456954
 21
0.0772663183181248
 31
0.0
  0
ARC
  5
D9
330
4F
100
AcDbEntity
  8
BLOCKS
  6
Continuous
100
AcDbCircle
 10
-0.2389661281402908
 20
0.080657643750892
 30
0.0
 40
0.0007999999999999
100
AcDbArc
 50
268.6000000000058
 51
0.0
  0
ARC
  5
DA
330
4F
100
AcDbEntity
  8
BLOCKS
  6
Continuous
100
AcDbCircle
 10
-0.2223661281402911
 20
0.0802519484893765
 30
0.0
 40
0.0008
100
AcDbArc
 50
180.0
 51
268.6000000000058
  0
ARC
  5
DB
330
4F
100
AcDbEntity
  8
BLOCKS
  6
Continuous
100
AcDbCircle
 10
-0.1672826394072666
 20
0.0793056887667444
 30
0.0
 40
0.000800167655157
100
AcDbArc
 50
0.0112404181045307
 51
88.60937874690497
  0
ARC
  5
DC
330
4F
100
AcDbEntity
  8
BLOCKS
  6
Continuous
100
AcDbCircle
 10
-0.1856755950665519
 20
0.079755264431642
 30
0.0
 40
0.000800106173461
100
AcDbArc
 50
88.58669618209807
 51
179.9917363994841
  0
LINE
  5
DD
330
4F
100
AcDbEntity
  8
BLOCKS
  6
Continuous
100
AcDbLine
 10
0.001038316386618
 20
0.0739918225890506
 30
0.0
 11
0.0268946209085044
 21
0.0733599081176726
 31
0.0
  0
LINE
  5
DE
330
4F
100
AcDbEntity
  8
BLOCKS
  6
Continuous
100
AcDbLine
 10
0.0007695624269383
 20
0.0629951062014516
 30
0.0
 11
0.0266258669488258
 21
0.0623631917300827
 31
0.0
  0
LINE
  5
DF
330
4F
100
AcDbEntity
  8
BLOCKS
  6
Continuous
100
AcDbLine
 10
0.3346727471835203
 20
0.12
 30
0.0
 11
0.4844905296611188
 21
0.12
 31
0.0
  0
LINE
  5
E0
330
4F
100
AcDbEntity
  8
BLOCKS
  6
Continuous
100
AcDbLine
 10
0.4819806248414347
 20
0.0
 30
0.0
 11
0.327960422305901
 21
0.0
 31
0.0
  0
ARC
  5
E1
330
4F
100
AcDbEntity
  8
BLOCKS
  6
Continuous
100
AcDbCircle
 10
-0.437957485994395
 20
0.105
 30
0.0
 40
0.0150000000000001
100
AcDbArc
 50
20.75357098367206
 51
90.0
  0
ARC
  5
E2
330
4F
100
AcDbEntity
  8
BLOCKS
  6
Continuous
100
AcDbCircle
 10
-0.437957485994395
 20
0.105
 30
0.0
 40
0.0040000000000001
100
AcDbArc
 50
20.75357098367206
 51
90.0
  0
LINE
  5
E3
330
4F
100
AcDbEntity
  8
BLOCKS
  6
Continuous
100
AcDbLine
 10
-0.437957485994395
 20
0.12
 30
0.0
 11
-0.4163349547261982
 21
0.12
 31
0.0
  0
LINE
  5
E4
330
4F
100
AcDbEntity
  8
BLOCKS
  6
Continuous
100
AcDbLine
 10
-0.4175850856864093
 20
0.0935691922680599
 30
0.0
 11
-0.4239307890964296
 21
0.1103152398001021
 31
0.0
  0
ARC
  5
E5
330
4F
100
AcDbEntity
  8
BLOCKS
  6
Continuous
100
AcDbCircle
 10
-0.403558388788444
 20
0.0988844320681619
 30
0.0
 40
0.0150000000000001
100
AcDbArc
 50
200.7535709836721
 51
268.6000000000058
  0
LINE
  5
E6
330
4F
100
AcDbEntity
  8
BLOCKS
  6
Continuous
100
AcDbLine
 10
-0.4278713300782506
 20
0.0896713497479868
 30
0.0
 11
-0.4342170334882707
 21
0.106417397280029
 31
0.0
  0
ARC
  5
E7
330
4F
100
AcDbEntity
  8
BLOCKS
  6
Continuous
100
AcDbCircle
 10
-0.5150937559360119
 20
0.115
 30
0.0
 40
0.0050000000000002
100
AcDbArc
 50
90.0
 51
178.0204948575806
  0
LINE
  5
E8
330
4F
100
AcDbEntity
  8
BLOCKS
  6
Continuous
100
AcDbLine
 10
-0.5068133166722482
 20
0.1089999999999964
 30
0.0
 11
-0.437957485994395
 21
0.1089999999999964
 31
0.0
  0
LINE
  5
E9
330
4F
100
AcDbEntity
  8
BLOCKS
  6
Continuous
100
AcDbLine
 10
-0.5150937559360119
 20
0.12
 30
0.0
 11
-0.437957485994395
 21
0.12
 31
0.0
  0
LINE
  5
EA
330
4F
100
AcDbEntity
  8
BLOCKS
  6
Continuous
100
AcDbLine
 10
-0.5240714445091835
 20
0.0
 30
0.0
 11
-0.5105806438874146
 21
0.0
 31
0.0
  0
LINE
  5
EB
330
4F
100
AcDbEntity
  8
BLOCKS
  6
Continuous
100
AcDbLine
 10
-0.5105806438874146
 20
0.0
 30
0.0
 11
-0.5068133166722482
 21
0.1089999999999964
 31
0.0
  0
LINE
  5
EC
330
4F
100
AcDbEntity
  8
BLOCKS
  6
Continuous
100
AcDbLine
 10
-0.5240714445091835
 20
0.0
 30
0.0
 11
-0.5200907721696519
 21
0.1151727100481821
 31
0.0
  0
ARC
  5
ED
330
4F
100
AcDbEntity
  8
BLOCKS
  6
Continuous
100
AcDbCircle
 10
-0.403558388788444
 20
0.0988844320681619
 30
0.0
 40
0.0260000000000001
100
AcDbArc
 50
200.7535709836721
 51
268.6000000000058
  0
LINE
  5
EE
330
4F
100
AcDbEntity
  8
BLOCKS
  6
Continuous
100
AcDbLine
 10
0.0911173421009636
 20
0.0
 30
0.0
 11
-0.5105806438874146
 21
0.0
 31
0.0
  0
LINE
  5
EF
330
4F
100
AcDbEntity
  8
BLOCKS
  6
Continuous
100
AcDbLine
 10
-0.4163349547261982
 20
0.12
 30
0.0
 11
0.0631760284368278
 21
0.12
 31
0.0
  0
LINE
  5
F0
330
4F
100
AcDbEntity
  8
BLOCKS
  6
Continuous
100
AcDbLine
 10
-0.4041936254204126
 20
0.0728921933338552
 30
0.0
 11
-0.0807680449838102
 21
0.0649878424039798
 31
0.0
  0
LINE
  5
F1
330
4F
100
AcDbEntity
  8
BLOCKS
  6
Continuous
100
AcDbLine
 10
-0.4039248714607328
 20
0.0838889097214451
 30
0.0
 11
-0.2919328960341778
 21
0.0811518847962452
 31
0.0
  0
ENDBLK
  5
F3
330
4F
100
AcDbEntity
  8
0
100
AcDbBlockEnd
  0
BLOCK
  5
1DC
330
F7
100
AcDbEntity
  8
0
100
AcDbBlockBegin
  2
107231PL
 70
     0
 10
0.0
 20
0.0
 30
0.0
  3
107231PL
  1

  0
LWPOLYLINE
  5
F8
330
F7
100
AcDbEntity
  8
BLOCKS
  6
Continuous
100
AcDbPolyline
 90
        3
 70
   128
 43
0.0
 10
0.8171567743765706
 20
0.4346591696241928
 10
0.8149875621489888
 20
0.4473676233650065
 10
0.8125165522871851
 20
0.4600307823346583
  0
LWPOLYLINE
  5
F9
330
F7
100
AcDbEntity
  8
BLOCKS
100
AcDbPolyline
 90
        2
 70
     1
 43
0.0
 10
0.703904640594829
 20
0.3220950186007258
 42
1.0
 10
0.7143046405948294
 20
0.3220950186007258
 42
1.0
  0
LWPOLYLINE
  5
FA
330
F7
100
AcDbEntity
  8
BLOCKS
100
AcDbPolyline
 90
        2
 70
     1
 43
0.0
 10
0.7039046405948328
 20
0.3605950186007237
 42
1.0
 10
0.7143046405948328
 20
0.3605950186007237
 42
1.0
  0
LWPOLYLINE
  5
FB
330
F7
100
AcDbEntity
  8
BLOCKS
100
AcDbPolyline
 90
        2
 70
     1
 43
0.0
 10
0.7039046405948351
 20
0.399095018600724
 42
1.0
 10
0.7143046405948352
 20
0.399095018600724
 42
1.0
  0
ARC
  5
FC
330
F7
100
AcDbEntity
  8
BLOCKS
  6
Continuous
100
AcDbCircle
 10
0.3486286785359289
 20
0.3486361558598117
 30
0.0
 40
0.4763596703008801
100
AcDbArc
 50
0.2640747387183635
 51
10.40378766127301
  0
LWPOLYLINE
  5
FD
330
F7
100
AcDbEntity
  8
BLOCKS
100
AcDbPolyline
 90
        2
 70
     1
 43
0.0
 10
0.7143046405948339
 20
0.2071046405706318
 42
1.0
 10
0.7039046405948338
 20
0.2071046405706318
 42
1.0
  0
LWPOLYLINE
  5
FE
330
F7
100
AcDbEntity
  8
BLOCKS
100
AcDbPolyline
 90
        2
 70
     1
 43
0.0
 10
0.7153046405948306
 20
0.2450950186007219
 42
1.0
 10
0.7029046405948306
 20
0.2450950186007219
 42
1.0
  0
LWPOLYLINE
  5
FF
330
F7
100
AcDbEntity
  8
BLOCKS
  6
Continuous
100
AcDbPolyline
 90
       18
 70
   128
 43
0.0
 10
0.7829873632992861
 20
0.0752093290634809
 10
0.7870617005511475
 20
0.0754112741217875
 10
0.7910782023244744
 20
0.0759775012625039
 10
0.7950054618471903
 20
0.07690358290966
 10
0.7988127701711644
 20
0.0781822776285742
 10
0.8024703562987658
 20
0.0798035867498152
 10
0.8059496199752778
 20
0.0817548325530743
 10
0.8092233553266785
 20
0.0840207573998277
 10
0.8122659635941943
 20
0.0865836430394347
 10
0.8150536533021293
 20
0.089423449155795
 10
0.81756462629373
 20
0.092517970071317
 10
0.8197792481804469
 20
0.095843008382758
 10
0.8216802018717556
 20
0.0993725641712217
 10
0.8232526229849961
 20
0.1030790383068165
 10
0.8244842160764562
 20
0.1069334482582462
 10
0.8253653507847765
 20
0.110905654719802
 10
0.8258891371349042
 20
0.1149645972837123
 10
0.8260514794138623
 20
0.1190785373149219
  0
LWPOLYLINE
  5
100
330
F7
100
AcDbEntity
  8
BLOCKS
100
AcDbPolyline
 90
        2
 70
     1
 43
0.0
 10
0.7039046405948305
 20
0.1686046405706338
 42
1.0
 10
0.7143046405948306
 20
0.1686046405706338
 42
1.0
  0
LWPOLYLINE
  5
101
330
F7
100
AcDbEntity
  8
BLOCKS
  6
Continuous
100
AcDbPolyline
 90
       21
 70
   128
 43
0.0
 10
0.7901562875157559
 20
0.0540698022182011
 10
0.7948702002691132
 20
0.0541751673975841
 10
0.7995280866127645
 20
0.0546368088791974
 10
0.8041036268627943
 20
0.0554521181284025
 10
0.8085709666371451
 20
0.0566164881882804
 10
0.8129048629474462
 20
0.0581233397115347
 10
0.817080826836128
 20
0.0599641581375045
 10
0.8210752617528559
 20
0.0621285418042504
 10
0.8248655968883246
 20
0.0646042607237951
 10
0.8284304147120653
 20
0.0673773256884493
 10
0.831749571993553
 20
0.0704320673177506
 10
0.8348043136228469
 20
0.0737512245992446
 10
0.8375773785875097
 20
0.0773160424229781
 10
0.8400530975070534
 20
0.0811063775584489
 10
0.8422174811738011
 20
0.0851008124751758
 10
0.8440582995997727
 20
0.0892767763638591
 10
0.8455651511230223
 20
0.0936106726741571
 10
0.8467295211829002
 20
0.0980780124485091
 10
0.8475448304321069
 20
0.1026535526985395
 10
0.8480064719137214
 20
0.1073114390421915
 10
0.8481118370930969
 20
0.1120253517955541
  0
LWPOLYLINE
  5
102
330
F7
100
AcDbEntity
  8
BLOCKS
  6
Continuous
100
AcDbPolyline
 90
        9
 70
   128
 43
0.0
 10
0.8971831318865884
 20
-0.000000000024192
 10
0.8981579266811491
 20
0.0000965540310614
 10
0.8990952890331664
 20
0.0003813447180499
 10
0.8999592239182652
 20
0.0008434359802038
 10
0.9007165559510951
 20
0.0014650833602053
 10
0.9013382033310984
 20
0.002222415393037
 10
0.9018002945932527
 20
0.0030863502781347
 10
0.9020850852802425
 20
0.0040237126301554
 10
0.9021816393354958
 20
0.0049985074247149
  0
LWPOLYLINE
  5
103
330
F7
100
AcDbEntity
  8
BLOCKS
100
AcDbPolyline
 90
        2
 70
     1
 43
0.0
 10
0.7029046405948339
 20
0.2835950186007222
 42
1.0
 10
0.7153046405948339
 20
0.2835950186007222
 42
1.0
  0
LINE
  5
104
330
F7
100
AcDbEntity
  8
BLOCKS
  6
Continuous
100
AcDbLine
 10
0.8481118370931005
 20
0.112025351795545
 30
0.0
 11
0.8481118370931005
 21
0.351090819643552
 31
0.0
  0
LINE
  5
105
330
F7
100
AcDbEntity
  8
BLOCKS
  6
Continuous
100
AcDbLine
 10
0.8260514794138613
 20
0.1190785373149219
 30
0.0
 11
0.8249832892776975
 21
0.3508316772607913
 31
0.0
  0
LINE
  5
106
330
F7
100
AcDbEntity
  8
BLOCKS
  6
Continuous
100
AcDbLine
 10
0.9021816393354958
 20
0.0049985074247149
 30
0.0
 11
0.9021861169887802
 21
0.3510908196435548
 31
0.0
  0
LINE
  5
107
330
F7
100
AcDbEntity
  8
BLOCKS
  6
Continuous
100
AcDbLine
 10
0.9021816393354958
 20
0.0049985074247149
 30
0.0
 11
0.9021816393354948
 21
0.3510908196435565
 31
0.0
  0
LWPOLYLINE
  5
108
330
F7
100
AcDbEntity
  8
BLOCKS
  6
Continuous
100
AcDbPolyline
 90
        3
 70
   128
 43
0.0
 10
0.4600307823588571
 20
0.8125165522629879
 10
0.4473771671380985
 20
0.8149858174342604
 10
0.4346591696483927
 20
0.8171567743523713
  0
LWPOLYLINE
  5
109
330
F7
100
AcDbEntity
  8
BLOCKS
  6
Continuous
100
AcDbPolyline
 90
       21
 70
   128
 43
0.0
 10
0.112025351819743
 20
0.8481118370689046
 10
0.1073114390663875
 20
0.8480064718895231
 10
0.1026535527227372
 20
0.8475448304079101
 10
0.0980780124727073
 20
0.8467295211587019
 10
0.093610672698355
 20
0.8455651510988241
 10
0.0892767763880568
 20
0.8440582995755733
 10
0.0851008124993735
 20
0.8422174811496018
 10
0.0811063775826458
 20
0.8400530974828551
 10
0.0773160424471769
 20
0.8375773785633089
 10
0.0737512246234348
 20
0.8348043135986563
 10
0.0704320673419409
 20
0.8317495719693591
 10
0.0673773257126483
 20
0.8284304146878685
 10
0.0646042607479919
 20
0.8248655968641266
 10
0.0621285418284481
 20
0.8210752617286573
 10
0.0599641581617027
 20
0.81708082681193
 10
0.0581233397357298
 20
0.8129048629232466
 10
0.0566164882124792
 20
0.8085709666129492
 10
0.0554521181526003
 20
0.8041036268385949
 10
0.0546368089033956
 20
0.7995280865885662
 10
0.0541751674217801
 20
0.7948702002449148
 10
0.0540698022423988
 20
0.790156287491559
  0
LWPOLYLINE
  5
10A
330
F7
100
AcDbEntity
  8
BLOCKS
  6
Continuous
100
AcDbPolyline
 90
       18
 70
   128
 43
0.0
 10
0.1190785373391202
 20
0.8260514793896629
 10
0.1149645973079043
 20
0.8258891371107143
 10
0.110905654743998
 20
0.8253653507605781
 10
0.1069334482824377
 20
0.8244842160522647
 10
0.1030790383310138
 20
0.823252622960798
 10
0.0993725641954186
 20
0.8216802018475561
 10
0.0958430084069562
 20
0.8197792481562476
 10
0.0925179700955138
 20
0.8175646262695305
 10
0.0894234491799895
 20
0.8150536532779323
 10
0.086583643063633
 20
0.8122659635699973
 10
0.0840207574240287
 20
0.8092233553024811
 10
0.0817548325772634
 20
0.805949619951084
 10
0.0798035867740033
 20
0.8024703562745719
 10
0.0781822776527713
 20
0.7988127701469671
 10
0.0769035829338579
 20
0.7950054618229922
 10
0.075977501286701
 20
0.7910782023002766
 10
0.0754112741459869
 20
0.7870617005269515
 10
0.0752093290876803
 20
0.7829873632750867
  0
LINE
  5
10B
330
F7
100
AcDbEntity
  8
BLOCKS
  6
Continuous
100
AcDbLine
 10
0.3510908196677497
 20
0.8481118370689022
 30
0.0
 11
0.1120253518197433
 21
0.8481118370689046
 31
0.0
  0
LINE
  5
10C
330
F7
100
AcDbEntity
  8
BLOCKS
  6
Continuous
100
AcDbLine
 10
0.3508316772849889
 20
0.8249832892535005
 30
0.0
 11
0.1190785373391202
 21
0.8260514793896641
 31
0.0
  0
ARC
  5
10D
330
F7
100
AcDbEntity
  8
BLOCKS
  6
Continuous
100
AcDbCircle
 10
0.348636155884011
 20
0.3486286785117699
 30
0.0
 40
0.4763596703008444
100
AcDbArc
 50
79.59621233872699
 51
89.73592526128156
  0
LWPOLYLINE
  5
10E
330
F7
100
AcDbEntity
  8
BLOCKS
  6
Continuous
100
AcDbPolyline
 90
        3
 70
   128
 43
0.0
 10
0.5973840661003158
 20
0.6544318779004472
 10
0.6020907906408491
 20
0.6599574562707267
 10
0.6077497614108564
 20
0.6647975732109877
  0
LWPOLYLINE
  5
10F
330
F7
100
AcDbEntity
  8
BLOCKS
  6
Continuous
100
AcDbPolyline
 90
        3
 70
   128
 43
0.0
 10
0.6647975732351858
 20
0.607749761386657
 10
0.6600908486946504
 20
0.6022241830163761
 10
0.6544318779246453
 20
0.5973840660761175
  0
LWPOLYLINE
  5
110
330
F7
100
AcDbEntity
  8
BLOCKS
100
AcDbPolyline
 90
        2
 70
     1
 43
0.0
 10
0.5588046405948287
 20
0.5530950186007237
 42
1.0
 10
0.5484046405948286
 20
0.5530950186007237
 42
1.0
  0
CIRCLE
  5
111
330
F7
100
AcDbEntity
  8
BLOCKS
  6
Continuous
100
AcDbCircle
 10
0.6310908196677464
 20
0.6310908196435549
 30
0.0
 40
0.03
  0
LWPOLYLINE
  5
112
330
F7
100
AcDbEntity
  8
BLOCKS
  6
Continuous
100
AcDbPolyline
 90
       31
 70
   128
 43
0.0
 10
0.6077497614108564
 20
0.6647975732109877
 10
0.6109665185331894
 20
0.6669120285959684
 10
0.6143679284850499
 20
0.6687143763147845
 10
0.6179237889125523
 20
0.6701886126676778
 10
0.6216025260399682
 20
0.6713216473748322
 10
0.6253714750247426
 20
0.6721034198097141
 10
0.629197170000475
 20
0.6725269883310534
 10
0.6330456412325169
 20
0.6725885919201642
 10
0.6368827167475708
 20
0.6722876835764123
 10
0.6406743257590441
 20
0.6716269351742336
 10
0.6443868011939438
 20
0.6706122137385763
 10
0.6479871786350225
 20
0.669252529349476
 10
0.6514434890238262
 20
0.6675599551382755
 10
0.6547250425255604
 20
0.6655495200859037
 10
0.6578027010352809
 20
0.6632390755750942
 10
0.660649136905696
 20
0.6606491368815046
 10
0.6632390755992935
 20
0.6578027010110828
 10
0.665549520110101
 20
0.6547250425013635
 10
0.6675599551624748
 20
0.6514434889996289
 10
0.6692525293736742
 20
0.6479871786108266
 10
0.6706122137627743
 20
0.6443868011697476
 10
0.6716269351984327
 20
0.6406743257348468
 10
0.6722876836006115
 20
0.6368827167233735
 10
0.6725885919443624
 20
0.6330456412083175
 10
0.6725269883552507
 20
0.6291971699762758
 10
0.672103419833911
 20
0.6253714750005464
 10
0.6713216473990281
 20
0.6216025260157699
 10
0.6701886126918737
 20
0.617923788888354
 10
0.6687143763389838
 20
0.6143679284608505
 10
0.6669120286201676
 20
0.6109665185089921
 10
0.6647975732351858
 20
0.607749761386657
  0
LWPOLYLINE
  5
113
330
F7
100
AcDbEntity
  8
BLOCKS
  6
Continuous
100
AcDbPolyline
 90
       31
 70
   128
 43
0.0
 10
0.6544318779246453
 20
0.5973840660761175
 10
0.6512151208023123
 20
0.5952696106911368
 10
0.6478137108504518
 20
0.5934672629723185
 10
0.6442578504229494
 20
0.5919930266194286
 10
0.6405791132955336
 20
0.5908599919122742
 10
0.6368101643107592
 20
0.5900782194773956
 10
0.6329844693350255
 20
0.5896546509560518
 10
0.6291359981029849
 20
0.589593047366941
 10
0.6252989225879299
 20
0.5898939557106928
 10
0.621507313576459
 20
0.5905547041128716
 10
0.6177948381415579
 20
0.5915694255485313
 10
0.6141944607004778
 20
0.5929291099376292
 10
0.6107381503116756
 20
0.5946216841488309
 10
0.6074565968099398
 20
0.5966321192012015
 10
0.6043789383002207
 20
0.5989425637120088
 10
0.6015325024297989
 20
0.6015325024056063
 10
0.5989425637362081
 20
0.6043789382760214
 10
0.5966321192253998
 20
0.6074565967857405
 10
0.5946216841730268
 20
0.6107381502874773
 10
0.5929291099618265
 20
0.6141944606762787
 10
0.5915694255727275
 20
0.61779483811736
 10
0.59055470413707
 20
0.6215073135522608
 10
0.5898939557348888
 20
0.6252989225637317
 10
0.5895930473911392
 20
0.6291359980787865
 10
0.5896546509802509
 20
0.6329844693108294
 10
0.5900782195015907
 20
0.6368101642865611
 10
0.5908599919364736
 20
0.6405791132713376
 10
0.591993026643628
 20
0.6442578503987523
 10
0.5934672629965178
 20
0.6478137108262536
 10
0.595269610715334
 20
0.6512151207781142
 10
0.5973840661003158
 20
0.6544318779004472
  0
LWPOLYLINE
  5
114
330
F7
100
AcDbEntity
  8
BLOCKS
100
AcDbPolyline
 90
        2
 70
     1
 43
0.0
 10
0.4714046405948281
 20
0.6706046405706355
 42
1.0
 10
0.4818046405948283
 20
0.6706046405706355
 42
1.0
  0
LWPOLYLINE
  5
115
330
F7
100
AcDbEntity
  8
BLOCKS
100
AcDbPolyline
 90
        2
 70
     1
 43
0.0
 10
0.3938950186249233
 20
0.670604640570632
 42
1.0
 10
0.4042950186249234
 20
0.670604640570632
 42
1.0
  0
LWPOLYLINE
  5
116
330
F7
100
AcDbEntity
  8
BLOCKS
100
AcDbPolyline
 90
        2
 70
     1
 43
0.0
 10
0.3657950186249219
 20
0.7091046405706356
 42
1.0
 10
0.3553950186249219
 20
0.7091046405706356
 42
1.0
  0
LWPOLYLINE
  5
117
330
F7
100
AcDbEntity
  8
BLOCKS
100
AcDbPolyline
 90
        2
 70
     1
 43
0.0
 10
0.4042950186249201
 20
0.709104640570638
 42
1.0
 10
0.3938950186249198
 20
0.709104640570638
 42
1.0
  0
LWPOLYLINE
  5
118
330
F7
100
AcDbEntity
  8
BLOCKS
100
AcDbPolyline
 90
        2
 70
     1
 43
0.0
 10
0.4323950186249216
 20
0.6706046405706355
 42
1.0
 10
0.4427950186249211
 20
0.6706046405706355
 42
1.0
  0
LWPOLYLINE
  5
119
330
F7
100
AcDbEntity
  8
BLOCKS
100
AcDbPolyline
 90
        2
 70
     1
 43
0.0
 10
0.4832950186249187
 20
0.5936046405706373
 42
1.0
 10
0.4688950186249196
 20
0.5936046405706373
 42
1.0
  0
LWPOLYLINE
  5
11A
330
F7
100
AcDbEntity
  8
BLOCKS
100
AcDbPolyline
 90
        2
 70
     1
 43
0.0
 10
0.4862950186249228
 20
0.5536046405706339
 42
1.0
 10
0.4658950186249226
 20
0.5536046405706339
 42
1.0
  0
LWPOLYLINE
  5
11B
330
F7
100
AcDbEntity
  8
BLOCKS
100
AcDbPolyline
 90
        2
 70
     1
 43
0.0
 10
0.4102950186249209
 20
0.5536046405706339
 42
1.0
 10
0.3878950186249213
 20
0.5536046405706339
 42
1.0
  0
LWPOLYLINE
  5
11C
330
F7
100
AcDbEntity
  8
BLOCKS
100
AcDbPolyline
 90
        2
 70
     1
 43
0.0
 10
0.3888950186249178
 20
0.5936046405706373
 42
1.0
 10
0.4092950186249175
 20
0.5936046405706373
 42
1.0
  0
LWPOLYLINE
  5
11D
330
F7
100
AcDbEntity
  8
BLOCKS
100
AcDbPolyline
 90
        2
 70
     1
 43
0.0
 10
0.4477950186249177
 20
0.5536046405706374
 42
1.0
 10
0.4273950186249181
 20
0.5536046405706374
 42
1.0
  0
ARC
  5
11E
330
F7
100
AcDbEntity
  8
BLOCKS
100
AcDbCircle
 10
0.4365950186249146
 20
0.5936046405706407
 30
0.0
 40
0.0101999999999998
100
AcDbArc
 50
0.0
 51
180.0
  0
ARC
  5
11F
330
F7
100
AcDbEntity
  8
BLOCKS
100
AcDbCircle
 10
0.4365950186249146
 20
0.5936046405706407
 30
0.0
 40
0.0101999999999998
100
AcDbArc
 50
180.0
 51
0.0
  0
LWPOLYLINE
  5
120
330
F7
100
AcDbEntity
  8
BLOCKS
100
AcDbPolyline
 90
        2
 70
     1
 43
0.0
 10
0.471404640594829
 20
0.6304629694075834
 42
1.0
 10
0.4818046405948295
 20
0.6304629694075834
 42
1.0
  0
LWPOLYLINE
  5
121
330
F7
100
AcDbEntity
  8
BLOCKS
100
AcDbPolyline
 90
        2
 70
     1
 43
0.0
 10
0.4062950186249197
 20
0.6321046405706352
 42
1.0
 10
0.3918950186249199
 20
0.6321046405706352
 42
1.0
  0
LWPOLYLINE
  5
122
330
F7
100
AcDbEntity
  8
BLOCKS
100
AcDbPolyline
 90
        2
 70
     1
 43
0.0
 10
0.4313950186249179
 20
0.6321046405706375
 42
1.0
 10
0.443795018624918
 20
0.6321046405706375
 42
1.0
  0
LWPOLYLINE
  5
123
330
F7
100
AcDbEntity
  8
BLOCKS
100
AcDbPolyline
 90
        2
 70
     1
 43
0.0
 10
0.5203046405948331
 20
0.6304629694075789
 42
1.0
 10
0.5099046405948329
 20
0.6304629694075789
 42
1.0
  0
LWPOLYLINE
  5
124
330
F7
100
AcDbEntity
  8
BLOCKS
100
AcDbPolyline
 90
        2
 70
     1
 43
0.0
 10
0.5083950186249244
 20
0.5936046405706338
 42
1.0
 10
0.5207950186249239
 20
0.5936046405706338
 42
1.0
  0
LWPOLYLINE
  5
125
330
F7
100
AcDbEntity
  8
BLOCKS
100
AcDbPolyline
 90
        2
 70
     1
 43
0.0
 10
0.5073950186249209
 20
0.5536046405706374
 42
1.0
 10
0.52179501862492
 20
0.5536046405706374
 42
1.0
  0
LWPOLYLINE
  5
126
330
F7
100
AcDbEntity
  8
BLOCKS
100
AcDbPolyline
 90
        2
 70
     1
 43
0.0
 10
0.6383046405948322
 20
0.4760950186007256
 42
1.0
 10
0.6259046405948326
 20
0.4760950186007256
 42
1.0
  0
LWPOLYLINE
  5
127
330
F7
100
AcDbEntity
  8
BLOCKS
100
AcDbPolyline
 90
        2
 70
     1
 43
0.0
 10
0.675804640594829
 20
0.4760950186007256
 42
1.0
 10
0.6654046405948293
 20
0.4760950186007256
 42
1.0
  0
LWPOLYLINE
  5
128
330
F7
100
AcDbEntity
  8
BLOCKS
100
AcDbPolyline
 90
        2
 70
     1
 43
0.0
 10
0.62590464059483
 20
0.4375950186007276
 42
1.0
 10
0.6383046405948301
 20
0.4375950186007276
 42
1.0
  0
LWPOLYLINE
  5
129
330
F7
100
AcDbEntity
  8
BLOCKS
100
AcDbPolyline
 90
        2
 70
     1
 43
0.0
 10
0.6758046405948335
 20
0.4375950186007219
 42
1.0
 10
0.6654046405948339
 20
0.4375950186007219
 42
1.0
  0
LWPOLYLINE
  5
12A
330
F7
100
AcDbEntity
  8
BLOCKS
100
AcDbPolyline
 90
        2
 70
     1
 43
0.0
 10
0.5434046405948311
 20
0.4760950186007256
 42
1.0
 10
0.5638046405948309
 20
0.4760950186007256
 42
1.0
  0
LWPOLYLINE
  5
12B
330
F7
100
AcDbEntity
  8
BLOCKS
100
AcDbPolyline
 90
        2
 70
     1
 43
0.0
 10
0.5638046405948274
 20
0.4375950186007276
 42
1.0
 10
0.5434046405948278
 20
0.4375950186007276
 42
1.0
  0
LWPOLYLINE
  5
12C
330
F7
100
AcDbEntity
  8
BLOCKS
100
AcDbPolyline
 90
        2
 70
     1
 43
0.0
 10
0.5864046405948341
 20
0.4760950186007222
 42
1.0
 10
0.6008046405948344
 20
0.4760950186007222
 42
1.0
  0
LWPOLYLINE
  5
12D
330
F7
100
AcDbEntity
  8
BLOCKS
100
AcDbPolyline
 90
        2
 70
     1
 43
0.0
 10
0.6008046405948324
 20
0.4375950186007248
 42
1.0
 10
0.5864046405948318
 20
0.4375950186007248
 42
1.0
  0
LWPOLYLINE
  5
12E
330
F7
100
AcDbEntity
  8
BLOCKS
100
AcDbPolyline
 90
        2
 70
     1
 43
0.0
 10
0.6254046405948336
 20
0.3220950186007201
 42
1.0
 10
0.6388046405948332
 20
0.3220950186007201
 42
1.0
  0
LWPOLYLINE
  5
12F
330
F7
100
AcDbEntity
  8
BLOCKS
100
AcDbPolyline
 90
        2
 70
     1
 43
0.0
 10
0.6768046405948326
 20
0.3220950186007258
 42
1.0
 10
0.6644046405948325
 20
0.3220950186007258
 42
1.0
  0
LWPOLYLINE
  5
130
330
F7
100
AcDbEntity
  8
BLOCKS
100
AcDbPolyline
 90
        2
 70
     1
 43
0.0
 10
0.6644046405948339
 20
0.3605950186007203
 42
1.0
 10
0.6768046405948338
 20
0.3605950186007203
 42
1.0
  0
LWPOLYLINE
  5
131
330
F7
100
AcDbEntity
  8
BLOCKS
100
AcDbPolyline
 90
        2
 70
     1
 43
0.0
 10
0.6393046405948308
 20
0.3605950186007237
 42
1.0
 10
0.6249046405948312
 20
0.3605950186007237
 42
1.0
  0
LWPOLYLINE
  5
132
330
F7
100
AcDbEntity
  8
BLOCKS
100
AcDbPolyline
 90
        2
 70
     1
 43
0.0
 10
0.5638046405948333
 20
0.3220950186007229
 42
1.0
 10
0.5434046405948332
 20
0.3220950186007229
 42
1.0
  0
LWPOLYLINE
  5
133
330
F7
100
AcDbEntity
  8
BLOCKS
100
AcDbPolyline
 90
        2
 70
     1
 43
0.0
 10
0.5434046405948289
 20
0.3605950186007237
 42
1.0
 10
0.5638046405948288
 20
0.3605950186007237
 42
1.0
  0
LWPOLYLINE
  5
134
330
F7
100
AcDbEntity
  8
BLOCKS
100
AcDbPolyline
 90
        2
 70
     1
 43
0.0
 10
0.5844046405948316
 20
0.3220950186007258
 42
1.0
 10
0.6028046405948322
 20
0.3220950186007258
 42
1.0
  0
LWPOLYLINE
  5
135
330
F7
100
AcDbEntity
  8
BLOCKS
100
AcDbPolyline
 90
        2
 70
     1
 43
0.0
 10
0.6028046405948345
 20
0.3605950186007237
 42
1.0
 10
0.5844046405948339
 20
0.3605950186007237
 42
1.0
  0
LWPOLYLINE
  5
136
330
F7
100
AcDbEntity
  8
BLOCKS
100
AcDbPolyline
 90
        2
 70
     1
 43
0.0
 10
0.6249046405948323
 20
0.399095018600724
 42
1.0
 10
0.6393046405948324
 20
0.399095018600724
 42
1.0
  0
LWPOLYLINE
  5
137
330
F7
100
AcDbEntity
  8
BLOCKS
100
AcDbPolyline
 90
        2
 70
     1
 43
0.0
 10
0.6644046405948315
 20
0.3990950186007257
 42
1.0
 10
0.6768046405948315
 20
0.3990950186007257
 42
1.0
  0
LWPOLYLINE
  5
138
330
F7
100
AcDbEntity
  8
BLOCKS
100
AcDbPolyline
 90
        2
 70
     1
 43
0.0
 10
0.5424046405948319
 20
0.399095018600724
 42
1.0
 10
0.5648046405948324
 20
0.399095018600724
 42
1.0
  0
LWPOLYLINE
  5
139
330
F7
100
AcDbEntity
  8
BLOCKS
100
AcDbPolyline
 90
        2
 70
     1
 43
0.0
 10
0.5834046405948295
 20
0.3990950186007274
 42
1.0
 10
0.6038046405948299
 20
0.3990950186007274
 42
1.0
  0
LWPOLYLINE
  5
13A
330
F7
100
AcDbEntity
  8
BLOCKS
100
AcDbPolyline
 90
        2
 70
     1
 43
0.0
 10
0.4893046405948329
 20
0.4375950186007219
 42
1.0
 10
0.4639046405948327
 20
0.4375950186007219
 42
1.0
  0
LWPOLYLINE
  5
13B
330
F7
100
AcDbEntity
  8
BLOCKS
100
AcDbPolyline
 90
        2
 70
     1
 43
0.0
 10
0.4868046405948292
 20
0.4760950186007256
 42
1.0
 10
0.4664046405948296
 20
0.4760950186007256
 42
1.0
  0
LWPOLYLINE
  5
13C
330
F7
100
AcDbEntity
  8
BLOCKS
100
AcDbPolyline
 90
        2
 70
     1
 43
0.0
 10
0.4117950186249189
 20
0.4381046405706355
 42
1.0
 10
0.3863950186249187
 20
0.4381046405706355
 42
1.0
  0
LWPOLYLINE
  5
13D
330
F7
100
AcDbEntity
  8
BLOCKS
100
AcDbPolyline
 90
        2
 70
     1
 43
0.0
 10
0.4117950186249223
 20
0.4766046405706357
 42
1.0
 10
0.3863950186249218
 20
0.4766046405706357
 42
1.0
  0
LWPOLYLINE
  5
13E
330
F7
100
AcDbEntity
  8
BLOCKS
100
AcDbPolyline
 90
        2
 70
     1
 43
0.0
 10
0.4508046405948292
 20
0.4375950186007276
 42
1.0
 10
0.425404640594829
 20
0.4375950186007276
 42
1.0
  0
LWPOLYLINE
  5
13F
330
F7
100
AcDbEntity
  8
BLOCKS
100
AcDbPolyline
 90
        2
 70
     1
 43
0.0
 10
0.4248950186249187
 20
0.4766046405706357
 42
1.0
 10
0.4502950186249192
 20
0.4766046405706357
 42
1.0
  0
LWPOLYLINE
  5
140
330
F7
100
AcDbEntity
  8
BLOCKS
100
AcDbPolyline
 90
        2
 70
     1
 43
0.0
 10
0.4878046405948306
 20
0.3220950186007229
 42
1.0
 10
0.4654046405948305
 20
0.3220950186007229
 42
1.0
  0
LWPOLYLINE
  5
141
330
F7
100
AcDbEntity
  8
BLOCKS
100
AcDbPolyline
 90
        2
 70
     1
 43
0.0
 10
0.4893046405948273
 20
0.3605950186007294
 42
1.0
 10
0.463904640594827
 20
0.3605950186007294
 42
1.0
  0
LWPOLYLINE
  5
142
330
F7
100
AcDbEntity
  8
BLOCKS
100
AcDbPolyline
 90
        2
 70
     1
 43
0.0
 10
0.4123046405948313
 20
0.3220950186007258
 42
1.0
 10
0.386904640594831
 20
0.3220950186007258
 42
1.0
  0
LWPOLYLINE
  5
143
330
F7
100
AcDbEntity
  8
BLOCKS
100
AcDbPolyline
 90
        2
 70
     1
 43
0.0
 10
0.3864917127019154
 20
0.3610079464936416
 42
1.0
 10
0.4118917127019157
 20
0.3610079464936416
 42
1.0
  0
LWPOLYLINE
  5
144
330
F7
100
AcDbEntity
  8
BLOCKS
100
AcDbPolyline
 90
        2
 70
     1
 43
0.0
 10
0.4508046405948281
 20
0.3220950186007275
 42
1.0
 10
0.4254046405948279
 20
0.3220950186007275
 42
1.0
  0
LWPOLYLINE
  5
145
330
F7
100
AcDbEntity
  8
BLOCKS
100
AcDbPolyline
 90
        2
 70
     1
 43
0.0
 10
0.425404640594829
 20
0.3605950186007237
 42
1.0
 10
0.4508046405948292
 20
0.3605950186007237
 42
1.0
  0
LWPOLYLINE
  5
146
330
F7
100
AcDbEntity
  8
BLOCKS
100
AcDbPolyline
 90
        2
 70
     1
 43
0.0
 10
0.3869046405948296
 20
0.3990950186007274
 42
1.0
 10
0.4123046405948302
 20
0.3990950186007274
 42
1.0
  0
LWPOLYLINE
  5
147
330
F7
100
AcDbEntity
  8
BLOCKS
100
AcDbPolyline
 90
        2
 70
     1
 43
0.0
 10
0.4254046405948321
 20
0.399095018600724
 42
1.0
 10
0.4508046405948326
 20
0.399095018600724
 42
1.0
  0
LWPOLYLINE
  5
148
330
F7
100
AcDbEntity
  8
BLOCKS
100
AcDbPolyline
 90
        2
 70
     1
 43
0.0
 10
0.4639046405948302
 20
0.3990950186007257
 42
1.0
 10
0.4893046405948306
 20
0.3990950186007257
 42
1.0
  0
LWPOLYLINE
  5
149
330
F7
100
AcDbEntity
  8
BLOCKS
100
AcDbPolyline
 90
        2
 70
     1
 43
0.0
 10
0.5263046405948288
 20
0.3220950186007258
 42
1.0
 10
0.5039046405948282
 20
0.3220950186007258
 42
1.0
  0
LWPOLYLINE
  5
14A
330
F7
100
AcDbEntity
  8
BLOCKS
100
AcDbPolyline
 90
        2
 70
     1
 43
0.0
 10
0.5263046405948319
 20
0.3605950186007237
 42
1.0
 10
0.5039046405948318
 20
0.3605950186007237
 42
1.0
  0
LWPOLYLINE
  5
14B
330
F7
100
AcDbEntity
  8
BLOCKS
100
AcDbPolyline
 90
        2
 70
     1
 43
0.0
 10
0.5024046405948272
 20
0.3990950186007274
 42
1.0
 10
0.5278046405948274
 20
0.3990950186007274
 42
1.0
  0
LWPOLYLINE
  5
14C
330
F7
100
AcDbEntity
  8
BLOCKS
100
AcDbPolyline
 90
        2
 70
     1
 43
0.0
 10
0.5263046405948297
 20
0.4375950186007219
 42
1.0
 10
0.5039046405948296
 20
0.4375950186007219
 42
1.0
  0
LWPOLYLINE
  5
14D
330
F7
100
AcDbEntity
  8
BLOCKS
100
AcDbPolyline
 90
        2
 70
     1
 43
0.0
 10
0.5253046405948329
 20
0.4760950186007222
 42
1.0
 10
0.5049046405948332
 20
0.4760950186007222
 42
1.0
  0
LWPOLYLINE
  5
14E
330
F7
100
AcDbEntity
  8
BLOCKS
100
AcDbPolyline
 90
        2
 70
     1
 43
0.0
 10
0.5464046405948344
 20
0.514595018600723
 42
1.0
 10
0.5608046405948344
 20
0.514595018600723
 42
1.0
  0
LWPOLYLINE
  5
14F
330
F7
100
AcDbEntity
  8
BLOCKS
100
AcDbPolyline
 90
        2
 70
     1
 43
0.0
 10
0.5998046405948312
 20
0.5145950186007258
 42
1.0
 10
0.5874046405948307
 20
0.5145950186007258
 42
1.0
  0
LWPOLYLINE
  5
150
330
F7
100
AcDbEntity
  8
BLOCKS
100
AcDbPolyline
 90
        2
 70
     1
 43
0.0
 10
0.6269046405948331
 20
0.5145950186007201
 42
1.0
 10
0.6373046405948335
 20
0.5145950186007201
 42
1.0
  0
LWPOLYLINE
  5
151
330
F7
100
AcDbEntity
  8
BLOCKS
100
AcDbPolyline
 90
        2
 70
     1
 43
0.0
 10
0.5059046405948294
 20
0.5145950186007258
 42
1.0
 10
0.5243046405948295
 20
0.5145950186007258
 42
1.0
  0
LWPOLYLINE
  5
152
330
F7
100
AcDbEntity
  8
BLOCKS
100
AcDbPolyline
 90
        2
 70
     1
 43
0.0
 10
0.4658950186249195
 20
0.5151046405706337
 42
1.0
 10
0.4862950186249194
 20
0.5151046405706337
 42
1.0
  0
LWPOLYLINE
  5
153
330
F7
100
AcDbEntity
  8
BLOCKS
100
AcDbPolyline
 90
        2
 70
     1
 43
0.0
 10
0.4263950186249225
 20
0.5151046405706337
 42
1.0
 10
0.4487950186249222
 20
0.5151046405706337
 42
1.0
  0
LWPOLYLINE
  5
154
330
F7
100
AcDbEntity
  8
BLOCKS
100
AcDbPolyline
 90
        2
 70
     1
 43
0.0
 10
0.3863950186249175
 20
0.5151046405706365
 42
1.0
 10
0.4117950186249178
 20
0.5151046405706365
 42
1.0
  0
LWPOLYLINE
  5
155
330
F7
100
AcDbEntity
  8
BLOCKS
100
AcDbPolyline
 90
        2
 70
     1
 43
0.0
 10
0.3158950186249217
 20
0.6706046405706343
 42
1.0
 10
0.3282950186249218
 20
0.6706046405706343
 42
1.0
  0
LWPOLYLINE
  5
156
330
F7
100
AcDbEntity
  8
BLOCKS
100
AcDbPolyline
 90
        2
 70
     1
 43
0.0
 10
0.2763950186249263
 20
0.6706046405706343
 42
1.0
 10
0.2907950186249261
 20
0.6706046405706343
 42
1.0
  0
LWPOLYLINE
  5
157
330
F7
100
AcDbEntity
  8
BLOCKS
100
AcDbPolyline
 90
        2
 70
     1
 43
0.0
 10
0.2773950186249203
 20
0.7091046405706356
 42
1.0
 10
0.2897950186249205
 20
0.7091046405706356
 42
1.0
  0
LWPOLYLINE
  5
158
330
F7
100
AcDbEntity
  8
BLOCKS
100
AcDbPolyline
 90
        2
 70
     1
 43
0.0
 10
0.3168950186249182
 20
0.7091046405706391
 42
1.0
 10
0.3272950186249183
 20
0.7091046405706391
 42
1.0
  0
LWPOLYLINE
  5
159
330
F7
100
AcDbEntity
  8
BLOCKS
100
AcDbPolyline
 90
        2
 70
     1
 43
0.0
 10
0.2009046405948345
 20
0.670604640570632
 42
1.0
 10
0.2133046405948346
 20
0.670604640570632
 42
1.0
  0
LWPOLYLINE
  5
15A
330
F7
100
AcDbEntity
  8
BLOCKS
100
AcDbPolyline
 90
        2
 70
     1
 43
0.0
 10
0.252295018624921
 20
0.6706046405706355
 42
1.0
 10
0.2378950186249215
 20
0.6706046405706355
 42
1.0
  0
LWPOLYLINE
  5
15B
330
F7
100
AcDbEntity
  8
BLOCKS
100
AcDbPolyline
 90
        2
 70
     1
 43
0.0
 10
0.2512950186249249
 20
0.7091046405706356
 42
1.0
 10
0.2388950186249244
 20
0.7091046405706356
 42
1.0
  0
LWPOLYLINE
  5
15C
330
F7
100
AcDbEntity
  8
BLOCKS
100
AcDbPolyline
 90
        2
 70
     1
 43
0.0
 10
0.2123046405948302
 20
0.7091046405706356
 42
1.0
 10
0.2019046405948296
 20
0.7091046405706356
 42
1.0
  0
LWPOLYLINE
  5
15D
330
F7
100
AcDbEntity
  8
BLOCKS
100
AcDbPolyline
 90
        2
 70
     1
 43
0.0
 10
0.3322950186249193
 20
0.5536046405706374
 42
1.0
 10
0.3118950186249196
 20
0.5536046405706374
 42
1.0
  0
LWPOLYLINE
  5
15E
330
F7
100
AcDbEntity
  8
BLOCKS
100
AcDbPolyline
 90
        2
 70
     1
 43
0.0
 10
0.3128950186249237
 20
0.5936046405706338
 42
1.0
 10
0.3312950186249241
 20
0.5936046405706338
 42
1.0
  0
LWPOLYLINE
  5
15F
330
F7
100
AcDbEntity
  8
BLOCKS
100
AcDbPolyline
 90
        2
 70
     1
 43
0.0
 10
0.2733950186249194
 20
0.5936046405706373
 42
1.0
 10
0.2937950186249191
 20
0.5936046405706373
 42
1.0
  0
LWPOLYLINE
  5
160
330
F7
100
AcDbEntity
  8
BLOCKS
100
AcDbPolyline
 90
        2
 70
     1
 43
0.0
 10
0.2144677187400734
 20
0.555104640570632
 42
1.0
 10
0.2000677187400733
 20
0.555104640570632
 42
1.0
  0
LWPOLYLINE
  5
161
330
F7
100
AcDbEntity
  8
BLOCKS
100
AcDbPolyline
 90
        2
 70
     1
 43
0.0
 10
0.2005677187400697
 20
0.5936046405706373
 42
1.0
 10
0.21396771874007
 20
0.5936046405706373
 42
1.0
  0
LWPOLYLINE
  5
162
330
F7
100
AcDbEntity
  8
BLOCKS
100
AcDbPolyline
 90
        2
 70
     1
 43
0.0
 10
0.2552950186249163
 20
0.5536046405706374
 42
1.0
 10
0.2348950186249171
 20
0.5536046405706374
 42
1.0
  0
LWPOLYLINE
  5
163
330
F7
100
AcDbEntity
  8
BLOCKS
100
AcDbPolyline
 90
        2
 70
     1
 43
0.0
 10
0.2348950186249216
 20
0.5936046405706338
 42
1.0
 10
0.2552950186249211
 20
0.5936046405706338
 42
1.0
  0
LWPOLYLINE
  5
164
330
F7
100
AcDbEntity
  8
BLOCKS
100
AcDbPolyline
 90
        2
 70
     1
 43
0.0
 10
0.2723950186249215
 20
0.5536046405706339
 42
1.0
 10
0.2947950186249216
 20
0.5536046405706339
 42
1.0
  0
LWPOLYLINE
  5
165
330
F7
100
AcDbEntity
  8
BLOCKS
100
AcDbPolyline
 90
        2
 70
     1
 43
0.0
 10
0.2009046405948311
 20
0.6321046405706352
 42
1.0
 10
0.2133046405948312
 20
0.6321046405706352
 42
1.0
  0
LWPOLYLINE
  5
166
330
F7
100
AcDbEntity
  8
BLOCKS
100
AcDbPolyline
 90
        2
 70
     1
 43
0.0
 10
0.235895018624918
 20
0.6321046405706375
 42
1.0
 10
0.2542950186249176
 20
0.6321046405706375
 42
1.0
  0
LWPOLYLINE
  5
167
330
F7
100
AcDbEntity
  8
BLOCKS
100
AcDbPolyline
 90
        2
 70
     1
 43
0.0
 10
0.2733950186249225
 20
0.6321046405706352
 42
1.0
 10
0.2937950186249226
 20
0.6321046405706352
 42
1.0
  0
LWPOLYLINE
  5
168
330
F7
100
AcDbEntity
  8
BLOCKS
100
AcDbPolyline
 90
        2
 70
     1
 43
0.0
 10
0.3287950186249203
 20
0.6321046405706375
 42
1.0
 10
0.3153950186249208
 20
0.6321046405706375
 42
1.0
  0
LWPOLYLINE
  5
169
330
F7
100
AcDbEntity
  8
BLOCKS
100
AcDbPolyline
 90
        2
 70
     1
 43
0.0
 10
0.1624046405948297
 20
0.6706046405706355
 42
1.0
 10
0.1748046405948298
 20
0.6706046405706355
 42
1.0
  0
LWPOLYLINE
  5
16A
330
F7
100
AcDbEntity
  8
BLOCKS
100
AcDbPolyline
 90
        2
 70
     1
 43
0.0
 10
0.1738046405948332
 20
0.7091046405706356
 42
1.0
 10
0.1634046405948331
 20
0.7091046405706356
 42
1.0
  0
LWPOLYLINE
  5
16B
330
F7
100
AcDbEntity
  8
BLOCKS
100
AcDbPolyline
 90
        2
 70
     1
 43
0.0
 10
0.1619046405948276
 20
0.5551046405706393
 42
1.0
 10
0.1753046405948273
 20
0.5551046405706393
 42
1.0
  0
LWPOLYLINE
  5
16C
330
F7
100
AcDbEntity
  8
BLOCKS
100
AcDbPolyline
 90
        2
 70
     1
 43
0.0
 10
0.1624046405948297
 20
0.5936046405706338
 42
1.0
 10
0.1748046405948298
 20
0.5936046405706338
 42
1.0
  0
LWPOLYLINE
  5
16D
330
F7
100
AcDbEntity
  8
BLOCKS
100
AcDbPolyline
 90
        2
 70
     1
 43
0.0
 10
0.1624046405948331
 20
0.6321046405706318
 42
1.0
 10
0.1748046405948332
 20
0.6321046405706318
 42
1.0
  0
LWPOLYLINE
  5
16E
330
F7
100
AcDbEntity
  8
BLOCKS
100
AcDbPolyline
 90
        2
 70
     1
 43
0.0
 10
0.3347950186249182
 20
0.4381046405706355
 42
1.0
 10
0.3093950186249185
 20
0.4381046405706355
 42
1.0
  0
LWPOLYLINE
  5
16F
330
F7
100
AcDbEntity
  8
BLOCKS
100
AcDbPolyline
 90
        2
 70
     1
 43
0.0
 10
0.3108950186249194
 20
0.4766046405706357
 42
1.0
 10
0.3332950186249195
 20
0.4766046405706357
 42
1.0
  0
LWPOLYLINE
  5
170
330
F7
100
AcDbEntity
  8
BLOCKS
100
AcDbPolyline
 90
        2
 70
     1
 43
0.0
 10
0.1969046405948302
 20
0.4381046405706338
 42
1.0
 10
0.2173046405948298
 20
0.4381046405706338
 42
1.0
  0
LWPOLYLINE
  5
171
330
F7
100
AcDbEntity
  8
BLOCKS
100
AcDbPolyline
 90
        2
 70
     1
 43
0.0
 10
0.2338950186249235
 20
0.4381046405706321
 42
1.0
 10
0.2562950186249236
 20
0.4381046405706321
 42
1.0
  0
LWPOLYLINE
  5
172
330
F7
100
AcDbEntity
  8
BLOCKS
100
AcDbPolyline
 90
        2
 70
     1
 43
0.0
 10
0.2338950186249191
 20
0.4766046405706357
 42
1.0
 10
0.2562950186249191
 20
0.4766046405706357
 42
1.0
  0
LWPOLYLINE
  5
173
330
F7
100
AcDbEntity
  8
BLOCKS
100
AcDbPolyline
 90
        2
 70
     1
 43
0.0
 10
0.2163046405948323
 20
0.47660464057063
 42
1.0
 10
0.1979046405948322
 20
0.47660464057063
 42
1.0
  0
LWPOLYLINE
  5
174
330
F7
100
AcDbEntity
  8
BLOCKS
100
AcDbPolyline
 90
        2
 70
     1
 43
0.0
 10
0.2962950186249214
 20
0.4381046405706355
 42
1.0
 10
0.2708950186249214
 20
0.4381046405706355
 42
1.0
  0
LWPOLYLINE
  5
175
330
F7
100
AcDbEntity
  8
BLOCKS
100
AcDbPolyline
 90
        2
 70
     1
 43
0.0
 10
0.2947950186249239
 20
0.47660464057063
 42
1.0
 10
0.2723950186249238
 20
0.47660464057063
 42
1.0
  0
LWPOLYLINE
  5
176
330
F7
100
AcDbEntity
  8
BLOCKS
100
AcDbPolyline
 90
        2
 70
     1
 43
0.0
 10
0.293795018624918
 20
0.3226046405706336
 42
1.0
 10
0.273395018624918
 20
0.3226046405706336
 42
1.0
  0
LWPOLYLINE
  5
177
330
F7
100
AcDbEntity
  8
BLOCKS
100
AcDbPolyline
 90
        2
 70
     1
 43
0.0
 10
0.3114046405948283
 20
0.3220950186007258
 42
1.0
 10
0.3338046405948285
 20
0.3220950186007258
 42
1.0
  0
LWPOLYLINE
  5
178
330
F7
100
AcDbEntity
  8
BLOCKS
100
AcDbPolyline
 90
        2
 70
     1
 43
0.0
 10
0.3117452914579732
 20
0.3587543677375822
 42
1.0
 10
0.3371452914579733
 20
0.3587543677375822
 42
1.0
  0
LWPOLYLINE
  5
179
330
F7
100
AcDbEntity
  8
BLOCKS
100
AcDbPolyline
 90
        2
 70
     1
 43
0.0
 10
0.1979046405948324
 20
0.3611046405706339
 42
1.0
 10
0.216304640594832
 20
0.3611046405706339
 42
1.0
  0
LWPOLYLINE
  5
17A
330
F7
100
AcDbEntity
  8
BLOCKS
100
AcDbPolyline
 90
        2
 70
     1
 43
0.0
 10
0.2348950186249169
 20
0.3611046405706355
 42
1.0
 10
0.2552950186249165
 20
0.3611046405706355
 42
1.0
  0
LWPOLYLINE
  5
17B
330
F7
100
AcDbEntity
  8
BLOCKS
100
AcDbPolyline
 90
        2
 70
     1
 43
0.0
 10
0.2163046405948298
 20
0.3226046405706336
 42
1.0
 10
0.1979046405948301
 20
0.3226046405706336
 42
1.0
  0
LWPOLYLINE
  5
17C
330
F7
100
AcDbEntity
  8
BLOCKS
100
AcDbPolyline
 90
        2
 70
     1
 43
0.0
 10
0.2552950186249223
 20
0.3226046405706336
 42
1.0
 10
0.2348950186249226
 20
0.3226046405706336
 42
1.0
  0
LWPOLYLINE
  5
17D
330
F7
100
AcDbEntity
  8
BLOCKS
100
AcDbPolyline
 90
        2
 70
     1
 43
0.0
 10
0.2947950186249216
 20
0.3611046405706339
 42
1.0
 10
0.2723950186249215
 20
0.3611046405706339
 42
1.0
  0
LWPOLYLINE
  5
17E
330
F7
100
AcDbEntity
  8
BLOCKS
100
AcDbPolyline
 90
        2
 70
     1
 43
0.0
 10
0.2708950186249177
 20
0.3996046405706375
 42
1.0
 10
0.2962950186249184
 20
0.3996046405706375
 42
1.0
  0
LWPOLYLINE
  5
17F
330
F7
100
AcDbEntity
  8
BLOCKS
100
AcDbPolyline
 90
        2
 70
     1
 43
0.0
 10
0.2338950186249201
 20
0.3996046405706318
 42
1.0
 10
0.2562950186249202
 20
0.3996046405706318
 42
1.0
  0
LWPOLYLINE
  5
180
330
F7
100
AcDbEntity
  8
BLOCKS
100
AcDbPolyline
 90
        2
 70
     1
 43
0.0
 10
0.2173046405948287
 20
0.3996046405706375
 42
1.0
 10
0.196904640594829
 20
0.3996046405706375
 42
1.0
  0
LWPOLYLINE
  5
181
330
F7
100
AcDbEntity
  8
BLOCKS
100
AcDbPolyline
 90
        2
 70
     1
 43
0.0
 10
0.3347950186249232
 20
0.3996046405706318
 42
1.0
 10
0.3093950186249225
 20
0.3996046405706318
 42
1.0
  0
LWPOLYLINE
  5
182
330
F7
100
AcDbEntity
  8
BLOCKS
100
AcDbPolyline
 90
        2
 70
     1
 43
0.0
 10
0.1778046405948334
 20
0.4381046405706321
 42
1.0
 10
0.1594046405948327
 20
0.4381046405706321
 42
1.0
  0
LWPOLYLINE
  5
183
330
F7
100
AcDbEntity
  8
BLOCKS
100
AcDbPolyline
 90
        2
 70
     1
 43
0.0
 10
0.1609046405948294
 20
0.4773665276767998
 42
1.0
 10
0.1763046405948299
 20
0.4773665276767998
 42
1.0
  0
LWPOLYLINE
  5
184
330
F7
100
AcDbEntity
  8
BLOCKS
100
AcDbPolyline
 90
        2
 70
     1
 43
0.0
 10
0.1609046405948274
 20
0.3611046405706355
 42
1.0
 10
0.1763046405948275
 20
0.3611046405706355
 42
1.0
  0
LWPOLYLINE
  5
185
330
F7
100
AcDbEntity
  8
BLOCKS
100
AcDbPolyline
 90
        2
 70
     1
 43
0.0
 10
0.1753046405948319
 20
0.3226046405706336
 42
1.0
 10
0.1619046405948319
 20
0.3226046405706336
 42
1.0
  0
LWPOLYLINE
  5
186
330
F7
100
AcDbEntity
  8
BLOCKS
100
AcDbPolyline
 90
        2
 70
     1
 43
0.0
 10
0.1778046405948311
 20
0.3996046405706346
 42
1.0
 10
0.1594046405948305
 20
0.3996046405706346
 42
1.0
  0
LWPOLYLINE
  5
187
330
F7
100
AcDbEntity
  8
BLOCKS
100
AcDbPolyline
 90
        2
 70
     1
 43
0.0
 10
0.1753046405948307
 20
0.5151046405706337
 42
1.0
 10
0.161904640594831
 20
0.5151046405706337
 42
1.0
  0
LWPOLYLINE
  5
188
330
F7
100
AcDbEntity
  8
BLOCKS
100
AcDbPolyline
 90
        2
 70
     1
 43
0.0
 10
0.1994046405948302
 20
0.5158665276767977
 42
1.0
 10
0.2148046405948298
 20
0.5158665276767977
 42
1.0
  0
LWPOLYLINE
  5
189
330
F7
100
AcDbEntity
  8
BLOCKS
100
AcDbPolyline
 90
        2
 70
     1
 43
0.0
 10
0.3108950186249229
 20
0.515104640570632
 42
1.0
 10
0.333295018624923
 20
0.515104640570632
 42
1.0
  0
LWPOLYLINE
  5
18A
330
F7
100
AcDbEntity
  8
BLOCKS
100
AcDbPolyline
 90
        2
 70
     1
 43
0.0
 10
0.2723950186249203
 20
0.5158665276768005
 42
1.0
 10
0.2947950186249204
 20
0.5158665276768005
 42
1.0
  0
LWPOLYLINE
  5
18B
330
F7
100
AcDbEntity
  8
BLOCKS
100
AcDbPolyline
 90
        2
 70
     1
 43
0.0
 10
0.2552950186249236
 20
0.5158665276767977
 42
1.0
 10
0.2348950186249235
 20
0.5158665276767977
 42
1.0
  0
LWPOLYLINE
  5
18C
330
F7
100
AcDbEntity
  8
BLOCKS
100
AcDbPolyline
 90
        2
 70
     1
 43
0.0
 10
0.3714543677617803
 20
0.3244452914337751
 42
1.0
 10
0.3460543677617807
 20
0.3244452914337751
 42
1.0
  0
LWPOLYLINE
  5
18D
330
F7
100
AcDbEntity
  8
BLOCKS
100
AcDbPolyline
 90
        2
 70
     1
 43
0.0
 10
0.3738046405948285
 20
0.3605950186007237
 42
1.0
 10
0.3484046405948288
 20
0.3605950186007237
 42
1.0
  0
LWPOLYLINE
  5
18E
330
F7
100
AcDbEntity
  8
BLOCKS
100
AcDbPolyline
 90
        2
 70
     1
 43
0.0
 10
0.3483079465178389
 20
0.3991917126777178
 42
1.0
 10
0.3737079465178386
 20
0.3991917126777178
 42
1.0
  0
LWPOLYLINE
  5
18F
330
F7
100
AcDbEntity
  8
BLOCKS
100
AcDbPolyline
 90
        2
 70
     1
 43
0.0
 10
0.373295018624923
 20
0.4381046405706338
 42
1.0
 10
0.347895018624923
 20
0.4381046405706338
 42
1.0
  0
LWPOLYLINE
  5
190
330
F7
100
AcDbEntity
  8
BLOCKS
100
AcDbPolyline
 90
        2
 70
     1
 43
0.0
 10
0.3732950186249177
 20
0.4766046405706374
 42
1.0
 10
0.347895018624917
 20
0.4766046405706374
 42
1.0
  0
LWPOLYLINE
  5
191
330
F7
100
AcDbEntity
  8
BLOCKS
100
AcDbPolyline
 90
        2
 70
     1
 43
0.0
 10
0.3717950186249206
 20
0.5151046405706337
 42
1.0
 10
0.3493950186249209
 20
0.5151046405706337
 42
1.0
  0
LWPOLYLINE
  5
192
330
F7
100
AcDbEntity
  8
BLOCKS
100
AcDbPolyline
 90
        2
 70
     1
 43
0.0
 10
0.3707950186249245
 20
0.5536046405706339
 42
1.0
 10
0.3503950186249239
 20
0.5536046405706339
 42
1.0
  0
LWPOLYLINE
  5
193
330
F7
100
AcDbEntity
  8
BLOCKS
100
AcDbPolyline
 90
        2
 70
     1
 43
0.0
 10
0.3513950186249217
 20
0.5936046405706373
 42
1.0
 10
0.369795018624922
 20
0.5936046405706373
 42
1.0
  0
LWPOLYLINE
  5
194
330
F7
100
AcDbEntity
  8
BLOCKS
100
AcDbPolyline
 90
        2
 70
     1
 43
0.0
 10
0.3677950186249231
 20
0.6321046405706318
 42
1.0
 10
0.3533950186249229
 20
0.6321046405706318
 42
1.0
  0
LWPOLYLINE
  5
195
330
F7
100
AcDbEntity
  8
BLOCKS
100
AcDbPolyline
 90
        2
 70
     1
 43
0.0
 10
0.3667950186249183
 20
0.6706046405706355
 42
1.0
 10
0.3543950186249186
 20
0.6706046405706355
 42
1.0
  0
LWPOLYLINE
  5
196
330
F7
100
AcDbEntity
  8
BLOCKS
  6
Continuous
100
AcDbPolyline
 90
        9
 70
   128
 43
0.0
 10
0.0049985074489065
 20
0.9021816393113045
 10
0.0040237126543468
 20
0.902085085256051
 10
0.0030863503023326
 20
0.9018002945690547
 10
0.0022224154172352
 20
0.9013382033069001
 10
0.0014650833844041
 20
0.9007165559268969
 10
0.0008434360044032
 20
0.8999592238940682
 10
0.0003813447422465
 20
0.8990952890089692
 10
0.0000965540552522
 20
0.8981579266569566
 10
-0.0000000000000003
 20
0.8971831318623982
  0
LINE
  5
197
330
F7
100
AcDbEntity
  8
BLOCKS
  6
Continuous
100
AcDbLine
 10
0.3510908196677508
 20
0.9021861169645831
 30
0.0
 11
0.0049985074489064
 21
0.9021816393113045
 31
0.0
  0
LWPOLYLINE
  5
198
330
F7
100
AcDbEntity
  8
BLOCKS
100
AcDbPolyline
 90
        2
 70
     1
 43
0.0
 10
0.676804640594829
 20
0.2071046405706375
 42
1.0
 10
0.6644046405948293
 20
0.2071046405706375
 42
1.0
  0
LWPOLYLINE
  5
199
330
F7
100
AcDbEntity
  8
BLOCKS
100
AcDbPolyline
 90
        2
 70
     1
 43
0.0
 10
0.6383046405948322
 20
0.2071046405706318
 42
1.0
 10
0.6259046405948326
 20
0.2071046405706318
 42
1.0
  0
LWPOLYLINE
  5
19A
330
F7
100
AcDbEntity
  8
BLOCKS
100
AcDbPolyline
 90
        2
 70
     1
 43
0.0
 10
0.6413046405948299
 20
0.2450950186007276
 42
1.0
 10
0.6229046405948302
 20
0.2450950186007276
 42
1.0
  0
LWPOLYLINE
  5
19B
330
F7
100
AcDbEntity
  8
BLOCKS
100
AcDbPolyline
 90
        2
 70
     1
 43
0.0
 10
0.6634046405948348
 20
0.2450950186007219
 42
1.0
 10
0.6778046405948345
 20
0.2450950186007219
 42
1.0
  0
LWPOLYLINE
  5
19C
330
F7
100
AcDbEntity
  8
BLOCKS
100
AcDbPolyline
 90
        2
 70
     1
 43
0.0
 10
0.5869046405948346
 20
0.2072677187158723
 42
1.0
 10
0.6003046405948341
 20
0.2072677187158723
 42
1.0
  0
LWPOLYLINE
  5
19D
330
F7
100
AcDbEntity
  8
BLOCKS
100
AcDbPolyline
 90
        2
 70
     1
 43
0.0
 10
0.5623046405948305
 20
0.207267718715874
 42
1.0
 10
0.5479046405948307
 20
0.207267718715874
 42
1.0
  0
LWPOLYLINE
  5
19E
330
F7
100
AcDbEntity
  8
BLOCKS
100
AcDbPolyline
 90
        2
 70
     1
 43
0.0
 10
0.5434046405948278
 20
0.2450950186007276
 42
1.0
 10
0.5638046405948274
 20
0.2450950186007276
 42
1.0
  0
LWPOLYLINE
  5
19F
330
F7
100
AcDbEntity
  8
BLOCKS
100
AcDbPolyline
 90
        2
 70
     1
 43
0.0
 10
0.6038046405948321
 20
0.2450950186007219
 42
1.0
 10
0.5834046405948321
 20
0.2450950186007219
 42
1.0
  0
LWPOLYLINE
  5
1A0
330
F7
100
AcDbEntity
  8
BLOCKS
100
AcDbPolyline
 90
        2
 70
     1
 43
0.0
 10
0.5484046405948272
 20
0.1686046405706372
 42
1.0
 10
0.5618046405948272
 20
0.1686046405706372
 42
1.0
  0
LWPOLYLINE
  5
1A1
330
F7
100
AcDbEntity
  8
BLOCKS
100
AcDbPolyline
 90
        2
 70
     1
 43
0.0
 10
0.5874046405948309
 20
0.1686046405706338
 42
1.0
 10
0.599804640594831
 20
0.1686046405706338
 42
1.0
  0
LWPOLYLINE
  5
1A2
330
F7
100
AcDbEntity
  8
BLOCKS
100
AcDbPolyline
 90
        2
 70
     1
 43
0.0
 10
0.6259046405948287
 20
0.1686046405706355
 42
1.0
 10
0.6383046405948292
 20
0.1686046405706355
 42
1.0
  0
LWPOLYLINE
  5
1A3
330
F7
100
AcDbEntity
  8
BLOCKS
100
AcDbPolyline
 90
        2
 70
     1
 43
0.0
 10
0.6644046405948336
 20
0.1686046405706338
 42
1.0
 10
0.6768046405948338
 20
0.1686046405706338
 42
1.0
  0
LWPOLYLINE
  5
1A4
330
F7
100
AcDbEntity
  8
BLOCKS
100
AcDbPolyline
 90
        2
 70
     1
 43
0.0
 10
0.4674046405948292
 20
0.2071046405706346
 42
1.0
 10
0.4858046405948292
 20
0.2071046405706346
 42
1.0
  0
LWPOLYLINE
  5
1A5
330
F7
100
AcDbEntity
  8
BLOCKS
100
AcDbPolyline
 90
        2
 70
     1
 43
0.0
 10
0.4654046405948328
 20
0.2450950186007219
 42
1.0
 10
0.4878046405948325
 20
0.2450950186007219
 42
1.0
  0
LWPOLYLINE
  5
1A6
330
F7
100
AcDbEntity
  8
BLOCKS
100
AcDbPolyline
 90
        2
 70
     1
 43
0.0
 10
0.4098046405948291
 20
0.2071046405706375
 42
1.0
 10
0.3894046405948288
 20
0.2071046405706375
 42
1.0
  0
LWPOLYLINE
  5
1A7
330
F7
100
AcDbEntity
  8
BLOCKS
100
AcDbPolyline
 90
        2
 70
     1
 43
0.0
 10
0.3884046405948314
 20
0.2450950186007219
 42
1.0
 10
0.4108046405948313
 20
0.2450950186007219
 42
1.0
  0
LWPOLYLINE
  5
1A8
330
F7
100
AcDbEntity
  8
BLOCKS
100
AcDbPolyline
 90
        2
 70
     1
 43
0.0
 10
0.4483046405948338
 20
0.2071046405706318
 42
1.0
 10
0.4279046405948333
 20
0.2071046405706318
 42
1.0
  0
LWPOLYLINE
  5
1A9
330
F7
100
AcDbEntity
  8
BLOCKS
100
AcDbPolyline
 90
        2
 70
     1
 43
0.0
 10
0.4493046405948292
 20
0.2450950186007276
 42
1.0
 10
0.4269046405948291
 20
0.2450950186007276
 42
1.0
  0
LWPOLYLINE
  5
1AA
330
F7
100
AcDbEntity
  8
BLOCKS
100
AcDbPolyline
 90
        2
 70
     1
 43
0.0
 10
0.3904046405948319
 20
0.1686046405706338
 42
1.0
 10
0.4088046405948322
 20
0.1686046405706338
 42
1.0
  0
LWPOLYLINE
  5
1AB
330
F7
100
AcDbEntity
  8
BLOCKS
100
AcDbPolyline
 90
        2
 70
     1
 43
0.0
 10
0.4289046405948301
 20
0.1686046405706355
 42
1.0
 10
0.4473046405948301
 20
0.1686046405706355
 42
1.0
  0
LWPOLYLINE
  5
1AC
330
F7
100
AcDbEntity
  8
BLOCKS
100
AcDbPolyline
 90
        2
 70
     1
 43
0.0
 10
0.4850665277009981
 20
0.1686046405706338
 42
1.0
 10
0.4696665277009979
 20
0.1686046405706338
 42
1.0
  0
LWPOLYLINE
  5
1AD
330
F7
100
AcDbEntity
  8
BLOCKS
100
AcDbPolyline
 90
        2
 70
     1
 43
0.0
 10
0.5218046405948309
 20
0.1686046405706338
 42
1.0
 10
0.5084046405948303
 20
0.1686046405706338
 42
1.0
  0
LWPOLYLINE
  5
1AE
330
F7
100
AcDbEntity
  8
BLOCKS
100
AcDbPolyline
 90
        2
 70
     1
 43
0.0
 10
0.5081665277009978
 20
0.2071046405706318
 42
1.0
 10
0.5235665277009982
 20
0.2071046405706318
 42
1.0
  0
LWPOLYLINE
  5
1AF
330
F7
100
AcDbEntity
  8
BLOCKS
100
AcDbPolyline
 90
        2
 70
     1
 43
0.0
 10
0.505666527700995
 20
0.2450950186007248
 42
1.0
 10
0.5260665277009946
 20
0.2450950186007248
 42
1.0
  0
LWPOLYLINE
  5
1B0
330
F7
100
AcDbEntity
  8
BLOCKS
100
AcDbPolyline
 90
        2
 70
     1
 43
0.0
 10
0.331804640594833
 20
0.2071046405706301
 42
1.0
 10
0.3134046405948328
 20
0.2071046405706301
 42
1.0
  0
LWPOLYLINE
  5
1B1
330
F7
100
AcDbEntity
  8
BLOCKS
100
AcDbPolyline
 90
        2
 70
     1
 43
0.0
 10
0.2764046405948292
 20
0.2069415624253952
 42
1.0
 10
0.2918046405948292
 20
0.2069415624253952
 42
1.0
  0
LWPOLYLINE
  5
1B2
330
F7
100
AcDbEntity
  8
BLOCKS
100
AcDbPolyline
 90
        2
 70
     1
 43
0.0
 10
0.2749046405948302
 20
0.2450940762775508
 42
1.0
 10
0.2933046405948305
 20
0.2450940762775508
 42
1.0
  0
LWPOLYLINE
  5
1B3
330
F7
100
AcDbEntity
  8
BLOCKS
100
AcDbPolyline
 90
        2
 70
     1
 43
0.0
 10
0.3328046405948305
 20
0.2450950186007248
 42
1.0
 10
0.3124046405948309
 20
0.2450950186007248
 42
1.0
  0
LWPOLYLINE
  5
1B4
330
F7
100
AcDbEntity
  8
BLOCKS
100
AcDbPolyline
 90
        2
 70
     1
 43
0.0
 10
0.2528046405948336
 20
0.2071046405706318
 42
1.0
 10
0.2384046405948335
 20
0.2071046405706318
 42
1.0
  0
LWPOLYLINE
  5
1B5
330
F7
100
AcDbEntity
  8
BLOCKS
100
AcDbPolyline
 90
        2
 70
     1
 43
0.0
 10
0.213804640594829
 20
0.2071046405706375
 42
1.0
 10
0.2004046405948286
 20
0.2071046405706375
 42
1.0
  0
LWPOLYLINE
  5
1B6
330
F7
100
AcDbEntity
  8
BLOCKS
100
AcDbPolyline
 90
        2
 70
     1
 43
0.0
 10
0.199904640594832
 20
0.2456046405706354
 42
1.0
 10
0.2143046405948326
 20
0.2456046405706354
 42
1.0
  0
LWPOLYLINE
  5
1B7
330
F7
100
AcDbEntity
  8
BLOCKS
100
AcDbPolyline
 90
        2
 70
     1
 43
0.0
 10
0.2548046405948315
 20
0.2452366897637739
 42
1.0
 10
0.2364046405948311
 20
0.2452366897637739
 42
1.0
  0
LWPOLYLINE
  5
1B8
330
F7
100
AcDbEntity
  8
BLOCKS
100
AcDbPolyline
 90
        2
 70
     1
 43
0.0
 10
0.2009046405948323
 20
0.1686046405706338
 42
1.0
 10
0.2133046405948323
 20
0.1686046405706338
 42
1.0
  0
LWPOLYLINE
  5
1B9
330
F7
100
AcDbEntity
  8
BLOCKS
100
AcDbPolyline
 90
        2
 70
     1
 43
0.0
 10
0.2518046405948303
 20
0.1686046405706355
 42
1.0
 10
0.2394046405948302
 20
0.1686046405706355
 42
1.0
  0
LWPOLYLINE
  5
1BA
330
F7
100
AcDbEntity
  8
BLOCKS
100
AcDbPolyline
 90
        2
 70
     1
 43
0.0
 10
0.2774046405948326
 20
0.1686046405706281
 42
1.0
 10
0.2908046405948324
 20
0.1686046405706281
 42
1.0
  0
LWPOLYLINE
  5
1BB
330
F7
100
AcDbEntity
  8
BLOCKS
100
AcDbPolyline
 90
        2
 70
     1
 43
0.0
 10
0.3293046405948309
 20
0.1686046405706338
 42
1.0
 10
0.3159046405948304
 20
0.1686046405706338
 42
1.0
  0
LWPOLYLINE
  5
1BC
330
F7
100
AcDbEntity
  8
BLOCKS
100
AcDbPolyline
 90
        2
 70
     1
 43
0.0
 10
0.162404640594831
 20
0.2071046405706318
 42
1.0
 10
0.1748046405948307
 20
0.2071046405706318
 42
1.0
  0
LWPOLYLINE
  5
1BD
330
F7
100
AcDbEntity
  8
BLOCKS
100
AcDbPolyline
 90
        2
 70
     1
 43
0.0
 10
0.1624046405948343
 20
0.245604640570632
 42
1.0
 10
0.1748046405948344
 20
0.245604640570632
 42
1.0
  0
LWPOLYLINE
  5
1BE
330
F7
100
AcDbEntity
  8
BLOCKS
  6
Continuous
100
AcDbPolyline
 90
       21
 70
   128
 43
0.0
 10
0.054069802242401
 20
0.1120253517955507
 10
0.0541751674217791
 20
0.1073114390421915
 10
0.0546368089033911
 20
0.1026535526985395
 10
0.0554521181526003
 20
0.0980780124485091
 10
0.0566164882124782
 20
0.0936106726741605
 10
0.0581233397357335
 20
0.0892767763638591
 10
0.059964158161705
 20
0.0851008124751758
 10
0.0621285418284481
 20
0.0811063775584489
 10
0.0646042607479946
 20
0.0773160424229764
 10
0.0673773257126516
 20
0.0737512245992372
 10
0.0704320673419432
 20
0.0704320673177506
 10
0.0737512246234371
 20
0.067377325688455
 10
0.0773160424471732
 20
0.0646042607237968
 10
0.0811063775826449
 20
0.0621285418042487
 10
0.0851008124993757
 20
0.0599641581375062
 10
0.0892767763880581
 20
0.0581233397115364
 10
0.0936106726983596
 20
0.0566164881882804
 10
0.0980780124727073
 20
0.0554521181284025
 10
0.1026535527227385
 20
0.054636808879194
 10
0.1073114390663898
 20
0.0541751673975819
 10
0.1120253518197489
 20
0.0540698022182011
  0
LWPOLYLINE
  5
1BF
330
F7
100
AcDbEntity
  8
BLOCKS
  6
Continuous
100
AcDbPolyline
 90
       18
 70
   128
 43
0.0
 10
0.0721044710858166
 20
0.115571133244627
 10
0.07226833087522
 20
0.1114587107238611
 10
0.0727970133698679
 20
0.1074046643044682
 10
0.0736863845716869
 20
0.1034406943364126
 10
0.0749294901009205
 20
0.0995977968227567
 10
0.0765166095754478
 20
0.0959060210484467
 10
0.0784353326186853
 20
0.0923942346119117
 10
0.0806706559016868
 20
0.0890898976967589
 10
0.0832051004607286
 20
0.0860188483486786
 10
0.0860188483728769
 20
0.083205100436532
 10
0.0890898977209588
 20
0.0806706558774886
 10
0.0923942346361079
 20
0.0784353325944875
 10
0.0959060210726455
 20
0.0765166095512495
 10
0.0995977968469549
 20
0.0749294900767206
 10
0.103440694360612
 20
0.0736863845474881
 10
0.1074046643286681
 20
0.0727970133456734
 10
0.1114587107480608
 20
0.072268330851025
 10
0.1155711332688259
 20
0.0721044710616178
  0
LWPOLYLINE
  5
1C0
330
F7
100
AcDbEntity
  8
BLOCKS
100
AcDbPolyline
 90
        2
 70
     1
 43
0.0
 10
0.1738046405948275
 20
0.1686046405706355
 42
1.0
 10
0.1634046405948274
 20
0.1686046405706355
 42
1.0
  0
LWPOLYLINE
  5
1C1
330
F7
100
AcDbEntity
  8
BLOCKS
100
AcDbPolyline
 90
        2
 70
     1
 43
0.0
 10
0.3688046405948275
 20
0.1686046405706355
 42
1.0
 10
0.3534046405948274
 20
0.1686046405706355
 42
1.0
  0
LWPOLYLINE
  5
1C2
330
F7
100
AcDbEntity
  8
BLOCKS
100
AcDbPolyline
 90
        2
 70
     1
 43
0.0
 10
0.3519046405948308
 20
0.2071046405706318
 42
1.0
 10
0.370304640594831
 20
0.2071046405706318
 42
1.0
  0
LWPOLYLINE
  5
1C3
330
F7
100
AcDbEntity
  8
BLOCKS
100
AcDbPolyline
 90
        2
 70
     1
 43
0.0
 10
0.3509046405948266
 20
0.2450950186007276
 42
1.0
 10
0.3713046405948262
 20
0.2450950186007276
 42
1.0
  0
ARC
  5
1C4
330
F7
100
AcDbEntity
  8
BLOCKS
100
AcDbCircle
 10
0.005
 20
0.0049999999998653
 30
0.0
 40
0.005
100
AcDbArc
 50
180.0
 51
269.9999999984529
  0
LWPOLYLINE
  5
1C5
330
F7
100
AcDbEntity
  8
BLOCKS
100
AcDbPolyline
 90
        2
 70
     1
 43
0.0
 10
0.6778046405948292
 20
0.2835950186007255
 42
1.0
 10
0.6634046405948291
 20
0.2835950186007255
 42
1.0
  0
LWPOLYLINE
  5
1C6
330
F7
100
AcDbEntity
  8
BLOCKS
100
AcDbPolyline
 90
        2
 70
     1
 43
0.0
 10
0.6219046405948335
 20
0.2835950186007255
 42
1.0
 10
0.6423046405948335
 20
0.2835950186007255
 42
1.0
  0
LWPOLYLINE
  5
1C7
330
F7
100
AcDbEntity
  8
BLOCKS
100
AcDbPolyline
 90
        2
 70
     1
 43
0.0
 10
0.5834046405948287
 20
0.2835950186007255
 42
1.0
 10
0.6038046405948288
 20
0.2835950186007255
 42
1.0
  0
LWPOLYLINE
  5
1C8
330
F7
100
AcDbEntity
  8
BLOCKS
100
AcDbPolyline
 90
        2
 70
     1
 43
0.0
 10
0.5648046405948297
 20
0.2835950186007255
 42
1.0
 10
0.54240464059483
 20
0.2835950186007255
 42
1.0
  0
LWPOLYLINE
  5
1C9
330
F7
100
AcDbEntity
  8
BLOCKS
100
AcDbPolyline
 90
        2
 70
     1
 43
0.0
 10
0.5270665277009983
 20
0.2835950186007222
 42
1.0
 10
0.5046665277009982
 20
0.2835950186007222
 42
1.0
  0
LWPOLYLINE
  5
1CA
330
F7
100
AcDbEntity
  8
BLOCKS
100
AcDbPolyline
 90
        2
 70
     1
 43
0.0
 10
0.4878046405948292
 20
0.2835950186007255
 42
1.0
 10
0.4654046405948296
 20
0.2835950186007255
 42
1.0
  0
LWPOLYLINE
  5
1CB
330
F7
100
AcDbEntity
  8
BLOCKS
100
AcDbPolyline
 90
        2
 70
     1
 43
0.0
 10
0.4508046405948316
 20
0.2835950186007222
 42
1.0
 10
0.4254046405948313
 20
0.2835950186007222
 42
1.0
  0
LWPOLYLINE
  5
1CC
330
F7
100
AcDbEntity
  8
BLOCKS
100
AcDbPolyline
 90
        2
 70
     1
 43
0.0
 10
0.3869046405948277
 20
0.2835950186007255
 42
1.0
 10
0.4123046405948278
 20
0.2835950186007255
 42
1.0
  0
LWPOLYLINE
  5
1CD
330
F7
100
AcDbEntity
  8
BLOCKS
100
AcDbPolyline
 90
        2
 70
     1
 43
0.0
 10
0.3499046405948298
 20
0.2835950186007238
 42
1.0
 10
0.3723046405948298
 20
0.2835950186007238
 42
1.0
  0
LWPOLYLINE
  5
1CE
330
F7
100
AcDbEntity
  8
BLOCKS
100
AcDbPolyline
 90
        2
 70
     1
 43
0.0
 10
0.3328046405948317
 20
0.2835950186007222
 42
1.0
 10
0.312404640594832
 20
0.2835950186007222
 42
1.0
  0
LWPOLYLINE
  5
1CF
330
F7
100
AcDbEntity
  8
BLOCKS
100
AcDbPolyline
 90
        2
 70
     1
 43
0.0
 10
0.2933046405948294
 20
0.2835950186007255
 42
1.0
 10
0.2749046405948292
 20
0.2835950186007255
 42
1.0
  0
LWPOLYLINE
  5
1D0
330
F7
100
AcDbEntity
  8
BLOCKS
100
AcDbPolyline
 90
        2
 70
     1
 43
0.0
 10
0.2542940763017469
 20
0.2841046405706357
 42
1.0
 10
0.2358940763017465
 20
0.2841046405706357
 42
1.0
  0
LWPOLYLINE
  5
1D1
330
F7
100
AcDbEntity
  8
BLOCKS
100
AcDbPolyline
 90
        2
 70
     1
 43
0.0
 10
0.2146415624495926
 20
0.28410464057063
 42
1.0
 10
0.1992415624495919
 20
0.28410464057063
 42
1.0
  0
LWPOLYLINE
  5
1D2
330
F7
100
AcDbEntity
  8
BLOCKS
100
AcDbPolyline
 90
        2
 70
     1
 43
0.0
 10
0.1753046405948308
 20
0.2841046405706357
 42
1.0
 10
0.1619046405948308
 20
0.2841046405706357
 42
1.0
  0
LINE
  5
1D3
330
F7
100
AcDbEntity
  8
BLOCKS
  6
Continuous
100
AcDbLine
 10
0.0752093290876803
 20
0.7829873632750867
 30
0.0
 11
0.0721044710858166
 21
0.115571133244627
 31
0.0
  0
LINE
  5
1D4
330
F7
100
AcDbEntity
  8
BLOCKS
  6
Continuous
100
AcDbLine
 10
0.0540698022423988
 20
0.790156287491559
 30
0.0
 11
0.054069802242401
 21
0.1120253517955507
 31
0.0
  0
LINE
  5
1D5
330
F7
100
AcDbEntity
  8
BLOCKS
100
AcDbLine
 10
0.0
 20
0.8971831318623982
 30
0.0
 11
0.0
 21
0.0049999999998653
 31
0.0
  0
ARC
  5
1D6
330
F7
100
AcDbEntity
  8
BLOCKS
  6
Continuous
100
AcDbCircle
 10
0.3535449800258879
 20
0.3535449800016965
 30
0.0
 40
0.4711625306011723
100
AcDbArc
 50
13.06207201459324
 51
76.93792798539456
  0
ARC
  5
1D7
330
F7
100
AcDbEntity
  8
BLOCKS
  6
Continuous
100
AcDbCircle
 10
0.3510908196677474
 20
0.3510908196435548
 30
0.0
 40
0.5510952973210301
100
AcDbArc
 50
0.0
 51
90.0
  0
ARC
  5
1D8
330
F7
100
AcDbEntity
  8
BLOCKS
  6
Continuous
100
AcDbCircle
 10
0.3510908196677474
 20
0.3510908196435548
 30
0.0
 40
0.4970210174253484
100
AcDbArc
 50
0.0
 51
90.0
  0
LINE
  5
1D9
330
F7
100
AcDbEntity
  8
BLOCKS
  6
Continuous
100
AcDbLine
 10
0.1120253518197489
 20
0.0540698022182022
 30
0.0
 11
0.7901562875157561
 21
0.0540698022182022
 31
0.0
  0
LINE
  5
1DA
330
F7
100
AcDbEntity
  8
BLOCKS
  6
Continuous
100
AcDbLine
 10
0.1155711332688259
 20
0.0721044710616178
 30
0.0
 11
0.7829873632992861
 21
0.0752093290634809
 31
0.0
  0
LINE
  5
1DB
330
F7
100
AcDbEntity
  8
BLOCKS
100
AcDbLine
 10
0.0049999999998653
 20
-0.0000000000001347
 30
0.0
 11
0.8971831318865884
 21
-0.0000000000241909
 31
0.0
  0
ENDBLK
  5
1DD
330
F7
100
AcDbEntity
  8
0
100
AcDbBlockEnd
  0
ENDSEC
  0
SECTION
  2
ENTITIES
  0
ARC
  5
26
330
2
100
AcDbEntity
  8
BLOCKS
  6
Continuous
100
AcDbCircle
 10
0.508342737954907
 20
0.105
 30
0.0
 40
0.0150000000000005
100
AcDbArc
 50
1.400000000026763
 51
90.0
  0
ARC
  5
27
330
2
100
AcDbEntity
  8
BLOCKS
  6
Continuous
100
AcDbCircle
 10
0.5090759221624657
 20
0.075
 30
0.0
 40
0.0149999999999999
100
AcDbArc
 50
270.0
 51
1.400000000026763
  0
LINE
  5
28
330
2
100
AcDbEntity
  8
BLOCKS
  6
Continuous
100
AcDbLine
 10
0.5240714445091827
 20
0.0753664826722889
 30
0.0
 11
0.5233382603016239
 21
0.1053664826722888
 31
0.0
  0
LINE
  5
29
330
2
100
AcDbEntity
  8
BLOCKS
  6
Continuous
100
AcDbLine
 10
0.4929806248414352
 20
0.05
 30
0.0
 11
0.4929806248414352
 21
0.0
 31
0.0
  0
ARC
  5
2A
330
2
100
AcDbEntity
  8
BLOCKS
  6
Continuous
100
AcDbCircle
 10
0.5029806248414351
 20
0.05
 30
0.0
 40
0.0100000000000003
100
AcDbArc
 50
90.0
 51
180.0
  0
LINE
  5
2B
330
2
100
AcDbEntity
  8
BLOCKS
  6
Continuous
100
AcDbLine
 10
0.481980624841435
 20
0.0
 30
0.0
 11
0.4929806248414352
 21
0.0
 31
0.0
  0
LINE
  5
2C
330
2
100
AcDbEntity
  8
BLOCKS
  6
Continuous
100
AcDbLine
 10
0.5029806248414351
 20
0.06
 30
0.0
 11
0.5090759221624657
 21
0.06
 31
0.0
  0
LINE
  5
2D
330
2
100
AcDbEntity
  8
BLOCKS
  6
Continuous
100
AcDbLine
 10
0.4844905296611192
 20
0.12
 30
0.0
 11
0.508342737954907
 21
0.12
 31
0.0
  0
ARC
  5
2E
330
2
100
AcDbEntity
  8
BLOCKS
  6
Continuous
100
AcDbCircle
 10
-0.5150937559360117
 20
0.115
 30
0.0
 40
0.0050000000000002
100
AcDbArc
 50
90.0
 51
178.0204948575806
  0
LINE
  5
2F
330
2
100
AcDbEntity
  8
BLOCKS
  6
Continuous
100
AcDbLine
 10
-0.5240714445091831
 20
0.0
 30
0.0
 11
-0.5200907721696515
 21
0.1151727100481821
 31
0.0
  0
LINE
  5
30
330
2
100
AcDbEntity
  8
BLOCKS
  6
Continuous
100
AcDbLine
 10
-0.5240714445091831
 20
0.0
 30
0.0
 11
0.4929806248414352
 21
0.0
 31
0.0
  0
LINE
  5
31
330
2
100
AcDbEntity
  8
BLOCKS
  6
Continuous
100
AcDbLine
 10
-0.5150937559360117
 20
0.12
 30
0.0
 11
0.508342737954907
 21
0.1200000000000006
 31
0.0
  0
INSERT
  5
F4
330
2
100
AcDbEntity
  8
BLOCKS
100
AcDbBlockReference
  2
107231CT
 10
2.407649416766959
 20
0.0
 30
0.0
  0
LINE
  5
F5
330
2
100
AcDbEntity
  8
BLOCKS
100
AcDbLine
 10
2.74660983907286
 20
0.0404096944577776
 30
0.0
 11
2.80660983907286
 21
0.0404096944577776
 31
0.0
  0
LINE
  5
F6
330
2
100
AcDbEntity
  8
BLOCKS
100
AcDbLine
 10
2.734808065954026
 20
0.0660216133299582
 30
0.0
 11
2.818411612191693
 21
0.0660216133299582
 31
0.0
  0
INSERT
  5
1DE
330
2
100
AcDbEntity
  8
BLOCKS
100
AcDbBlockReference
  2
107231PL
 10
-1.762546352404485
 20
-0.2079798576290273
 30
0.0
  0
ARC
  5
1F7
330
2
100
AcDbEntity
  8
BLOCKS
  6
Continuous
100
AcDbCircle
 10
1.577683752530804
 20
0.1157025387151461
 30
0.0
 40
0.0042974612848545
100
AcDbArc
 50
1.979505142419369
 51
90.0
  0
LINE
  5
1F8
330
2
100
AcDbEntity
  8
BLOCKS
  6
Continuous
100
AcDbLine
 10
1.585982764485406
 20
0.0
 30
0.0
 11
1.581978649291575
 21
0.1158509816642568
 31
0.0
  0
ARC
  5
1F9
330
2
100
AcDbEntity
  8
BLOCKS
  6
Continuous
100
AcDbCircle
 10
0.6920973572750578
 20
0.1157025387151461
 30
0.0
 40
0.0042974612848545
100
AcDbArc
 50
90.0
 51
178.0204948575806
  0
LINE
  5
1FA
330
2
100
AcDbEntity
  8
BLOCKS
  6
Continuous
100
AcDbLine
 10
0.6837983453204569
 20
0.0
 30
0.0
 11
0.6878024605142867
 21
0.1158509816642578
 31
0.0
  0
LINE
  5
1FD
330
2
100
AcDbEntity
  8
BLOCKS
  6
Continuous
100
AcDbLine
 10
0.6837983453204569
 20
0.0
 30
0.0
 11
1.585982764485406
 21
0.0
 31
0.0
  0
LINE
  5
204
330
2
100
AcDbEntity
  8
BLOCKS
100
AcDbLine
 10
0.6920973572750578
 20
0.1200000000000006
 30
0.0
 11
1.577683752530804
 21
0.1200000000000006
 31
0.0
  0
LINE
  5
205
330
2
100
AcDbEntity
  8
BLOCKS
100
AcDbLine
 10
0.6858721034205482
 20
0.06
 30
0.0
 11
1.583909006385314
 21
0.06
 31
0.0
  0
ENDSEC
  0
SECTION
  2
OBJECTS
  0
DICTIONARY
  5
7
330
0
100
AcDbDictionary
281
     1
  3
ACAD_COLOR
350
37
  3
ACAD_GROUP
350
1F
  3
ACAD_LAYOUT
350
B
  3
ACAD_MATERIAL
350
36
  3
ACAD_MLEADERSTYLE
350
24D
  3
ACAD_MLINESTYLE
350
20
  3
ACAD_PLOTSETTINGS
350
21
  3
ACAD_PLOTSTYLENAME
350
6
  3
ACAD_SCALELIST
350
23B
  3
ACAD_TABLESTYLE
350
38
  3
ACAD_VISUALSTYLE
350
227
  3
ACDB_RECOMPOSE_DATA
350
261
  3
AcDbVariableDictionary
350
32
  3
ASE_INDEX_DICTIONARY
350
257
  3
DWGPROPS
350
262
  0
DICTIONARY
  5
252
330
4
100
AcDbDictionary
280
     1
281
     1
  3
ADSK_XREC_LAYER_RECONCILED
360
253
  0
DICTIONARY
  5
254
330
22
100
AcDbDictionary
280
     1
281
     1
  3
ADSK_XREC_LAYER_RECONCILED
360
255
  0
DICTIONARY
  5
1FE
330
2
100
AcDbDictionary
280
     1
281
     1
  3
ACAD_SORTENTS
360
1FF
  0
DICTIONARY
  5
37
102
{ACAD_REACTORS
330
7
102
}
330
7
100
AcDbDictionary
281
     1
  0
DICTIONARY
  5
1F
102
{ACAD_REACTORS
330
7
102
}
330
7
100
AcDbDictionary
281
     1
  0
DICTIONARY
  5
B
102
{ACAD_REACTORS
330
7
102
}
330
7
100
AcDbDictionary
281
     1
  3
Layout1
350
F
  3
Model
350
A
  0
DICTIONARY
  5
36
102
{ACAD_REACTORS
330
7
102
}
330
7
100
AcDbDictionary
281
     1
  3
ByBlock
350
217
  3
ByLayer
350
20F
  3
Global
350
21F
  0
DICTIONARY
  5
24D
102
{ACAD_REACTORS
330
7
102
}
330
7
100
AcDbDictionary
281
     1
  3
Standard
350
24E
  0
DICTIONARY
  5
20
102
{ACAD_REACTORS
330
7
102
}
330
7
100
AcDbDictionary
281
     1
  3
Standard
350
24
  0
DICTIONARY
  5
21
102
{ACAD_REACTORS
330
7
102
}
330
7
100
AcDbDictionary
281
     1
  0
ACDBDICTIONARYWDFLT
  5
6
102
{ACAD_REACTORS
330
7
102
}
330
7
100
AcDbDictionary
281
     1
  3
Normal
350
5
100
AcDbDictionaryWithDefault
340
5
  0
DICTIONARY
  5
23B
102
{ACAD_REACTORS
330
7
102
}
330
7
100
AcDbDictionary
281
     1
  3
A0
350
23C
  3
A1
350
23D
  3
A2
350
23E
  3
A3
350
23F
  3
A4
350
240
  3
A5
350
241
  3
A6
350
242
  3
A7
350
243
  3
A8
350
244
  3
A9
350
245
  3
B0
350
246
  3
B1
350
247
  3
B2
350
248
  3
B3
350
249
  3
B4
350
24A
  3
B5
350
24B
  3
B6
350
24C
  0
DICTIONARY
  5
38
102
{ACAD_REACTORS
330
7
102
}
330
7
100
AcDbDictionary
281
     1
  3
Standard
350
39
  0
DICTIONARY
  5
227
102
{ACAD_REACTORS
330
7
102
}
330
7
100
AcDbDictionary
281
     1
  3
2dWireframe
350
22D
  3
3D Hidden
350
22F
  3
3dWireframe
350
22E
  3
Basic
350
22C
  3
Brighten
350
233
  3
ColorChange
350
237
  3
Conceptual
350
230
  3
Dim
350
232
  3
EdgeColorOff
350
23A
  3
Facepattern
350
236
  3
Flat
350
228
  3
FlatWithEdges
350
229
  3
Gouraud
350
22A
  3
GouraudWithEdges
350
22B
  3
JitterOff
350
238
  3
Linepattern
350
235
  3
OverhangOff
350
239
  3
Realistic
350
231
  3
Thicken
350
234
  0
XRECORD
  5
261
102
{ACAD_REACTORS
330
7
102
}
330
7
100
AcDbXrecord
280
     1
 90
        1
330
39
  0
DICTIONARY
  5
32
102
{ACAD_REACTORS
330
7
102
}
330
7
100
AcDbDictionary
281
     1
  3
CANNOSCALE
350
25B
  3
CMLEADERSTYLE
350
25A
  3
CTABLESTYLE
350
20C
  3
DIMASSOC
350
34
  3
HIDETEXT
350
33
  3
INDEXCTL
350
25D
  3
PROJECTNAME
350
20D
  3
SORTENTS
350
25C
  3
XCLIPFRAME
350
25E
  0
DICTIONARY
  5
257
102
{ACAD_REACTORS
330
7
102
}
330
7
100
AcDbDictionary
281
     1
  3
ASEBlockHierarchyIndexRecord
350
259
1001
DCO15
1040
1757673061.296
  0
XRECORD
  5
262
102
{ACAD_REACTORS
330
7
102
}
330
7
100
AcDbXrecord
280
     1
  1
DWGPROPS COOKIE
  2

  3

  4

  6

  7

  8
Julio
  9

300
=
301
=
302
=
303
=
304
=
305
=
306
=
307
=
308
=
309
=
 40
0.0145901388888889
 41
2453125.639648206
 42
2456146.650061297
  1

 90
        0
  0
XRECORD
  5
253
102
{ACAD_REACTORS
330
252
102
}
330
252
100
AcDbXrecord
280
     1
290
     1
  0
XRECORD
  5
255
102
{ACAD_REACTORS
330
254
102
}
330
254
100
AcDbXrecord
280
     1
290
     1
  0
SORTENTSTABLE
  5
1FF
102
{ACAD_REACTORS
330
1FE
102
}
330
1FE
100
AcDbSortentsTable
330
2
331
30
  5
30
331
27
  5
27
331
F4
  5
1FA
331
2A
  5
2A
331
2D
  5
2D
331
1F8
  5
F5
331
F5
  5
1FB
331
31
  5
31
331
28
  5
28
331
1F9
  5
F6
331
2E
  5
2E
331
2B
  5
2B
331
1DE
  5
1FD
331
26
  5
26
331
1F7
  5
F4
331
29
  5
29
331
F6
  5
1FC
331
2C
  5
2C
331
1FD
  5
1F9
331
2F
  5
2F
331
1FA
  5
1DE
  0
LAYOUT
  5
F
102
{ACAD_XDICTIONARY
360
265
102
}
102
{ACAD_REACTORS
330
B
102
}
330
B
100
AcDbPlotSettings
  1

  2
C:\Programas\Autodesk\MDT6\plotters\LASER_BANHEIRAS.pc3
  4

  6

 40
0.0
 41
0.0
 42
0.0
 43
0.0
 44
0.0
 45
0.0
 46
0.0
 47
0.0
 48
0.0
 49
0.0
140
0.0
141
0.0
142
1.0
143
1.0
 70
   688
 72
     0
 73
     0
 74
     5
  7
BANHEIRAS.ctb
 75
    16
147
1.0
148
0.0
149
0.0
100
AcDbLayout
  1
Layout1
 70
     1
 71
     1
 10
0.0
 20
0.0
 11
420.0
 21
297.0
 12
0.0
 22
0.0
 32
0.0
 14
1.000000000000000E+20
 24
1.000000000000000E+20
 34
1.000000000000000E+20
 15
-1.000000000000000E+20
 25
-1.000000000000000E+20
 35
-1.000000000000000E+20
146
0.0
 13
0.0
 23
0.0
 33
0.0
 16
1.0
 26
0.0
 36
0.0
 17
0.0
 27
1.0
 37
0.0
 76
     0
330
C
  0
LAYOUT
  5
A
102
{ACAD_XDICTIONARY
360
263
102
}
102
{ACAD_REACTORS
330
B
102
}
330
B
100
AcDbPlotSettings
  1

  2
Laser 4M+
  4
A4
  6

 40
6.805083274841308
 41
5.069413185119628
 42
6.805084228515625
 43
5.027069091796875
 44
209.9733276367187
 45
296.9683227539062
 46
0.0
 47
4.591826185639661
 48
0.0
 49
0.0
140
0.0
141
0.0
142
1.0
143
1.069577584606243
 70
 11956
 72
     1
 73
     0
 74
     1
  7
FINO.CTB
 75
     0
147
0.934948538930107
148
0.0064049753888185
149
0.004528679247187
100
AcDbLayout
  1
Model
 70
     1
 71
     0
 10
0.0
 20
0.0
 11
12.0
 21
9.0
 12
0.0
 22
0.0
 32
0.0
 14
0.0
 24
0.0
 34
0.0
 15
0.0
 25
0.0
 35
0.0
146
0.0
 13
0.0
 23
0.0
 33
0.0
 16
1.0
 26
0.0
 36
0.0
 17
0.0
 27
1.0
 37
0.0
 76
     0
330
2
331
206
  0
MATERIAL
  5
217
102
{ACAD_XDICTIONARY
360
218
102
}
102
{ACAD_REACTORS
330
36
102
}
330
36
100
AcDbMaterial
  1
ByBlock
 72
     0
 43
0.0008202099737533
 43
0.0
 43
0.0
 43
0.0
 43
0.0
 43
0.0008202099737533
 43
0.0
 43
0.0
 43
0.0
 43
0.0
 43
1.0
 43
0.0
 43
0.0
 43
0.0
 43
0.0
 43
1.0
 77
     0
 47
0.0008202099737533
 47
0.0
 47
0.0
 47
0.0
 47
0.0
 47
0.0008202099737533
 47
0.0
 47
0.0
 47
0.0
 47
0.0
 47
1.0
 47
0.0
 47
0.0
 47
0.0
 47
0.0
 47
1.0
171
     0
 49
0.0008202099737533
 49
0.0
 49
0.0
 49
0.0
 49
0.0
 49
0.0008202099737533
 49
0.0
 49
0.0
 49
0.0
 49
0.0
 49
1.0
 49
0.0
 49
0.0
 49
0.0
 49
0.0
 49
1.0
175
     0
142
0.0008202099737533
142
0.0
142
0.0
142
0.0
142
0.0
142
0.0008202099737533
142
0.0
142
0.0
142
0.0
142
0.0
142
1.0
142
0.0
142
0.0
142
0.0
142
0.0
142
1.0
179
     0
144
0.0008202099737533
144
0.0
144
0.0
144
0.0
144
0.0
144
0.0008202099737533
144
0.0
144
0.0
144
0.0
144
0.0
144
1.0
144
0.0
144
0.0
144
0.0
144
0.0
144
1.0
147
0.0008202099737533
147
0.0
147
0.0
147
0.0
147
0.0
147
0.0008202099737533
147
0.0
147
0.0
147
0.0
147
0.0
147
1.0
147
0.0
147
0.0
147
0.0
147
0.0
147
1.0
  0
MATERIAL
  5
20F
102
{ACAD_XDICTIONARY
360
210
102
}
102
{ACAD_REACTORS
330
36
102
}
330
36
100
AcDbMaterial
  1
ByLayer
 72
     0
 43
0.0008202099737533
 43
0.0
 43
0.0
 43
0.0
 43
0.0
 43
0.0008202099737533
 43
0.0
 43
0.0
 43
0.0
 43
0.0
 43
1.0
 43
0.0
 43
0.0
 43
0.0
 43
0.0
 43
1.0
 77
     0
 47
0.0008202099737533
 47
0.0
 47
0.0
 47
0.0
 47
0.0
 47
0.0008202099737533
 47
0.0
 47
0.0
 47
0.0
 47
0.0
 47
1.0
 47
0.0
 47
0.0
 47
0.0
 47
0.0
 47
1.0
171
     0
 49
0.0008202099737533
 49
0.0
 49
0.0
 49
0.0
 49
0.0
 49
0.0008202099737533
 49
0.0
 49
0.0
 49
0.0
 49
0.0
 49
1.0
 49
0.0
 49
0.0
 49
0.0
 49
0.0
 49
1.0
175
     0
142
0.0008202099737533
142
0.0
142
0.0
142
0.0
142
0.0
142
0.0008202099737533
142
0.0
142
0.0
142
0.0
142
0.0
142
1.0
142
0.0
142
0.0
142
0.0
142
0.0
142
1.0
179
     0
144
0.0008202099737533
144
0.0
144
0.0
144
0.0
144
0.0
144
0.0008202099737533
144
0.0
144
0.0
144
0.0
144
0.0
144
1.0
144
0.0
144
0.0
144
0.0
144
0.0
144
1.0
147
0.0008202099737533
147
0.0
147
0.0
147
0.0
147
0.0
147
0.0008202099737533
147
0.0
147
0.0
147
0.0
147
0.0
147
1.0
147
0.0
147
0.0
147
0.0
147
0.0
147
1.0
  0
MATERIAL
  5
21F
102
{ACAD_XDICTIONARY
360
220
102
}
102
{ACAD_REACTORS
330
36
102
}
330
36
100
AcDbMaterial
  1
Global
 72
     0
 43
0.0008202099737533
 43
0.0
 43
0.0
 43
0.0
 43
0.0
 43
0.0008202099737533
 43
0.0
 43
0.0
 43
0.0
 43
0.0
 43
1.0
 43
0.0
 43
0.0
 43
0.0
 43
0.0
 43
1.0
 77
     0
 47
0.0008202099737533
 47
0.0
 47
0.0
 47
0.0
 47
0.0
 47
0.0008202099737533
 47
0.0
 47
0.0
 47
0.0
 47
0.0
 47
1.0
 47
0.0
 47
0.0
 47
0.0
 47
0.0
 47
1.0
171
     0
 49
0.0008202099737533
 49
0.0
 49
0.0
 49
0.0
 49
0.0
 49
0.0008202099737533
 49
0.0
 49
0.0
 49
0.0
 49
0.0
 49
1.0
 49
0.0
 49
0.0
 49
0.0
 49
0.0
 49
1.0
175
     0
142
0.0008202099737533
142
0.0
142
0.0
142
0.0
142
0.0
142
0.0008202099737533
142
0.0
142
0.0
142
0.0
142
0.0
142
1.0
142
0.0
142
0.0
142
0.0
142
0.0
142
1.0
179
     0
144
0.0008202099737533
144
0.0
144
0.0
144
0.0
144
0.0
144
0.0008202099737533
144
0.0
144
0.0
144
0.0
144
0.0
144
1.0
144
0.0
144
0.0
144
0.0
144
0.0
144
1.0
147
0.0008202099737533
147
0.0
147
0.0
147
0.0
147
0.0
147
0.0008202099737533
147
0.0
147
0.0
147
0.0
147
0.0
147
1.0
147
0.0
147
0.0
147
0.0
147
0.0
147
1.0
  0
MLEADERSTYLE
  5
24E
102
{ACAD_REACTORS
330
24D
102
}
330
24D
100
AcDbMLeaderStyle
170
     2
171
     1
172
     0
 90
        2
 40
0.0
 41
0.0
173
     1
 91
-1056964608
340
15
 92
       -2
290
     1
 42
2.0
291
     1
 43
0.36
  3
Standard
 44
4.0
300

342
12
174
     1
178
     6
175
     1
176
     0
 93
-1056964608
 45
4.0
292
     0
297
     0
 46
4.0
 94
-1056964608
 47
1.0
 49
1.0
140
1.0
293
     1
141
0.0
294
     1
177
     0
142
1.0
295
     0
296
     0
143
0.125
1001
ACAD_MLEADERVER
1070
     2
  0
MLINESTYLE
  5
24
102
{ACAD_REACTORS
330
20
102
}
330
20
100
AcDbMlineStyle
  2
STANDARD
 70
     0
  3

 62
   256
 51
90.0
 52
90.0
 71
     2
 49
0.5
 62
   256
  6
BYLAYER
 49
-0.5
 62
   256
  6
BYLAYER
  0
ACDBPLACEHOLDER
  5
5
102
{ACAD_REACTORS
330
6
102
}
330
6
  0
SCALE
  5
23C
102
{ACAD_REACTORS
330
23B
102
}
330
23B
100
AcDbScale
 70
     0
300
1:1
140
1.0
141
1.0
290
     1
  0
SCALE
  5
23D
102
{ACAD_REACTORS
330
23B
102
}
330
23B
100
AcDbScale
 70
     0
300
1:2
140
1.0
141
2.0
290
     0
  0
SCALE
  5
23E
102
{ACAD_REACTORS
330
23B
102
}
330
23B
100
AcDbScale
 70
     0
300
1:4
140
1.0
141
4.0
290
     0
  0
SCALE
  5
23F
102
{ACAD_REACTORS
330
23B
102
}
330
23B
100
AcDbScale
 70
     0
300
1:5
140
1.0
141
5.0
290
     0
  0
SCALE
  5
240
102
{ACAD_REACTORS
330
23B
102
}
330
23B
100
AcDbScale
 70
     0
300
1:8
140
1.0
141
8.0
290
     0
  0
SCALE
  5
241
102
{ACAD_REACTORS
330
23B
102
}
330
23B
100
AcDbScale
 70
     0
300
1:10
140
1.0
141
10.0
290
     0
  0
SCALE
  5
242
102
{ACAD_REACTORS
330
23B
102
}
330
23B
100
AcDbScale
 70
     0
300
1:16
140
1.0
141
16.0
290
     0
  0
SCALE
  5
243
102
{ACAD_REACTORS
330
23B
102
}
330
23B
100
AcDbScale
 70
     0
300
1:20
140
1.0
141
20.0
290
     0
  0
SCALE
  5
244
102
{ACAD_REACTORS
330
23B
102
}
330
23B
100
AcDbScale
 70
     0
300
1:30
140
1.0
141
30.0
290
     0
  0
SCALE
  5
245
102
{ACAD_REACTORS
330
23B
102
}
330
23B
100
AcDbScale
 70
     0
300
1:40
140
1.0
141
40.0
290
     0
  0
SCALE
  5
246
102
{ACAD_REACTORS
330
23B
102
}
330
23B
100
AcDbScale
 70
     0
300
1:50
140
1.0
141
50.0
290
     0
  0
SCALE
  5
247
102
{ACAD_REACTORS
330
23B
102
}
330
23B
100
AcDbScale
 70
     0
300
1:100
140
1.0
141
100.0
290
     0
  0
SCALE
  5
248
102
{ACAD_REACTORS
330
23B
102
}
330
23B
100
AcDbScale
 70
     0
300
2:1
140
2.0
141
1.0
290
     0
  0
SCALE
  5
249
102
{ACAD_REACTORS
330
23B
102
}
330
23B
100
AcDbScale
 70
     0
300
4:1
140
4.0
141
1.0
290
     0
  0
SCALE
  5
24A
102
{ACAD_REACTORS
330
23B
102
}
330
23B
100
AcDbScale
 70
     0
300
8:1
140
8.0
141
1.0
290
     0
  0
SCALE
  5
24B
102
{ACAD_REACTORS
330
23B
102
}
330
23B
100
AcDbScale
 70
     0
300
10:1
140
10.0
141
1.0
290
     0
  0
SCALE
  5
24C
102
{ACAD_REACTORS
330
23B
102
}
330
23B
100
AcDbScale
 70
     0
300
100:1
140
100.0
141
1.0
290
     0
  0
TABLESTYLE
  5
39
102
{ACAD_XDICTIONARY
360
25F
102
}
102
{ACAD_REACTORS
330
38
102
}
330
38
100
AcDbTableStyle
  3
Standard
 70
     0
 71
     0
 40
1.5
 41
1.5
280
     0
281
     0
  7
Standard
140
4.5
170
     2
 62
     0
 63
     7
283
     0
274
    -2
284
     1
 64
     0
275
    -2
285
     1
 65
     0
276
    -2
286
     1
 66
     0
277
    -2
287
     1
 67
     0
278
    -2
288
     1
 68
     0
279
    -2
289
     1
 69
     0
  7
Standard
140
6.0
170
     5
 62
     0
 63
     7
283
     0
274
    -2
284
     1
 64
     0
275
    -2
285
     1
 65
     0
276
    -2
286
     1
 66
     0
277
    -2
287
     1
 67
     0
278
    -2
288
     1
 68
     0
279
    -2
289
     1
 69
     0
  7
Standard
140
4.5
170
     5
 62
     0
 63
     7
283
     0
274
    -2
284
     1
 64
     0
275
    -2
285
     1
 65
     0
276
    -2
286
     1
 66
     0
277
    -2
287
     1
 67
     0
278
    -2
288
     1
 68
     0
279
    -2
289
     1
 69
     0
  0
VISUALSTYLE
  5
22D
102
{ACAD_XDICTIONARY
360
275
102
}
102
{ACAD_REACTORS
330
227
102
}
330
227
100
AcDbVisualStyle
  2
2dWireframe
 70
     4
 71
     0
 72
     2
 73
     0
 90
        0
 40
-0.6
 41
-30.0
 62
     5
 63
     7
 74
     1
 91
        4
 64
     7
 65
   257
 75
     1
175
     1
 42
1.0
 92
        0
 66
   257
 43
1.0
 76
     1
 77
     6
 78
     2
 67
     7
 79
     5
170
     0
171
     0
290
     0
174
     0
 93
        1
 44
0.0
173
     0
291
     0
 45
0.0
1001
ACAD
1000
AcDbSavedByObjectVersion
1070
     0
  0
VISUALSTYLE
  5
22F
102
{ACAD_XDICTIONARY
360
279
102
}
102
{ACAD_REACTORS
330
227
102
}
330
227
100
AcDbVisualStyle
  2
3D Hidden
 70
     6
 71
     1
 72
     2
 73
     2
 90
        0
 40
-0.6
 41
-30.0
 62
     5
 63
     7
 74
     2
 91
        2
 64
     7
 65
   257
 75
     2
175
     1
 42
179.0
 92
        0
 66
   257
 43
1.0
 76
     1
 77
     6
 78
     2
 67
     7
 79
     3
170
     0
171
     0
290
     0
174
     0
 93
        1
 44
0.0
173
     0
291
     0
 45
0.0
1001
ACAD
1000
AcDbSavedByObjectVersion
1070
     0
  0
VISUALSTYLE
  5
22E
102
{ACAD_XDICTIONARY
360
277
102
}
102
{ACAD_REACTORS
330
227
102
}
330
227
100
AcDbVisualStyle
  2
3dWireframe
 70
     5
 71
     0
 72
     2
 73
     0
 90
        0
 40
-0.6
 41
-30.0
 62
     5
 63
     7
 74
     1
 91
        4
 64
     7
 65
   257
 75
     1
175
     1
 42
1.0
 92
        0
 66
   257
 43
1.0
 76
     1
 77
     6
 78
     2
 67
     7
 79
     5
170
     0
171
     0
290
     0
174
     0
 93
        1
 44
0.0
173
     0
291
     0
 45
0.0
1001
ACAD
1000
AcDbSavedByObjectVersion
1070
     0
  0
VISUALSTYLE
  5
22C
102
{ACAD_XDICTIONARY
360
273
102
}
102
{ACAD_REACTORS
330
227
102
}
330
227
100
AcDbVisualStyle
  2
Basic
 70
     7
 71
     1
 72
     0
 73
     1
 90
        0
 40
-0.6
 41
-30.0
 62
     5
 63
     7
 74
     0
 91
        4
 64
     7
 65
   257
 75
     1
175
     1
 42
1.0
 92
        8
 66
     7
 43
1.0
 76
     1
 77
     6
 78
     2
 67
     7
 79
     5
170
     0
171
     0
290
     0
174
     0
 93
        1
 44
0.0
173
     0
291
     1
 45
0.0
1001
ACAD
1000
AcDbSavedByObjectVersion
1070
     0
  0
VISUALSTYLE
  5
233
102
{ACAD_XDICTIONARY
360
281
102
}
102
{ACAD_REACTORS
330
227
102
}
330
227
100
AcDbVisualStyle
  2
Brighten
 70
    12
 71
     2
 72
     2
 73
     0
 90
        0
 40
-0.6
 41
-30.0
 62
     5
 63
     7
 74
     1
 91
        4
 64
     7
 65
   257
 75
     1
175
     1
 42
1.0
 92
        8
 66
     7
 43
1.0
 76
     1
 77
     6
 78
     2
 67
     7
 79
     5
170
     0
171
     0
290
     0
174
     0
 93
        1
 44
50.0
173
     0
291
     1
 45
0.0
1001
ACAD
1000
AcDbSavedByObjectVersion
1070
     0
  0
VISUALSTYLE
  5
237
102
{ACAD_XDICTIONARY
360
289
102
}
102
{ACAD_REACTORS
330
227
102
}
330
227
100
AcDbVisualStyle
  2
ColorChange
 70
    16
 71
     2
 72
     2
 73
     3
 90
        0
 40
-0.6
 41
-30.0
 62
     5
 63
     8
 74
     1
 91
        4
 64
     7
 65
   257
 75
     1
175
     1
 42
1.0
 92
        8
 66
     8
 43
1.0
 76
     1
 77
     6
 78
     2
 67
     7
 79
     5
170
     0
171
     0
290
     0
174
     0
 93
        1
 44
0.0
173
     0
291
     1
 45
0.0
1001
ACAD
1000
AcDbSavedByObjectVersion
1070
     0
  0
VISUALSTYLE
  5
230
102
{ACAD_XDICTIONARY
360
27B
102
}
102
{ACAD_REACTORS
330
227
102
}
330
227
100
AcDbVisualStyle
  2
Conceptual
 70
     9
 71
     3
 72
     2
 73
     0
 90
        0
 40
-0.6
 41
-30.0
 62
     5
 63
     7
 74
     2
 91
        2
 64
     7
 65
   257
 75
     1
175
     1
 42
179.0
 92
        8
 66
     7
 43
1.0
 76
     1
 77
     6
 78
     2
 67
     7
 79
     3
170
     0
171
     0
290
     0
174
     0
 93
        1
 44
0.0
173
     0
291
     0
 45
0.0
1001
ACAD
1000
AcDbSavedByObjectVersion
1070
     0
  0
VISUALSTYLE
  5
232
102
{ACAD_XDICTIONARY
360
27F
102
}
102
{ACAD_REACTORS
330
227
102
}
330
227
100
AcDbVisualStyle
  2
Dim
 70
    11
 71
     2
 72
     2
 73
     0
 90
        0
 40
-0.6
 41
-30.0
 62
     5
 63
     7
 74
     1
 91
        4
 64
     7
 65
   257
 75
     1
175
     1
 42
1.0
 92
        8
 66
     7
 43
1.0
 76
     1
 77
     6
 78
     2
 67
     7
 79
     5
170
     0
171
     0
290
     0
174
     0
 93
        1
 44
-50.0
173
     0
291
     1
 45
0.0
1001
ACAD
1000
AcDbSavedByObjectVersion
1070
     0
  0
VISUALSTYLE
  5
23A
102
{ACAD_XDICTIONARY
360
28F
102
}
102
{ACAD_REACTORS
330
227
102
}
330
227
100
AcDbVisualStyle
  2
EdgeColorOff
 70
    22
 71
     2
 72
     2
 73
     0
 90
        0
 40
-0.6
 41
-30.0
 62
     5
 63
     7
 74
     1
 91
        4
 64
     7
 65
   257
 75
     1
175
     1
 42
1.0
 92
        8
 66
     7
 43
1.0
 76
     1
 77
     6
 78
     2
 67
     7
 79
     5
170
     0
171
     0
290
     0
174
     0
 93
        1
 44
0.0
173
     0
291
     1
 45
0.0
1001
ACAD
1000
AcDbSavedByObjectVersion
1070
     0
  0
VISUALSTYLE
  5
236
102
{ACAD_XDICTIONARY
360
287
102
}
102
{ACAD_REACTORS
330
227
102
}
330
227
100
AcDbVisualStyle
  2
Facepattern
 70
    15
 71
     2
 72
     2
 73
     0
 90
        0
 40
-0.6
 41
-30.0
 62
     5
 63
     7
 74
     1
 91
        4
 64
     7
 65
   257
 75
     1
175
     1
 42
1.0
 92
        8
 66
     7
 43
1.0
 76
     1
 77
     6
 78
     2
 67
     7
 79
     5
170
     0
171
     0
290
     0
174
     0
 93
        1
 44
0.0
173
     0
291
     1
 45
0.0
1001
ACAD
1000
AcDbSavedByObjectVersion
1070
     0
  0
VISUALSTYLE
  5
228
102
{ACAD_XDICTIONARY
360
26B
102
}
102
{ACAD_REACTORS
330
227
102
}
330
227
100
AcDbVisualStyle
  2
Flat
 70
     0
 71
     2
 72
     1
 73
     1
 90
        2
 40
-0.6
 41
30.0
 62
     5
 63
     7
 74
     0
 91
        4
 64
     7
 65
   257
 75
     1
175
     1
 42
1.0
 92
        8
 66
     7
 43
1.0
 76
     1
 77
     6
 78
     2
 67
     7
 79
     5
170
     0
171
     0
290
     0
174
     0
 93
       13
 44
0.0
173
     0
291
     1
 45
0.0
1001
ACAD
1000
AcDbSavedByObjectVersion
1070
     0
  0
VISUALSTYLE
  5
229
102
{ACAD_XDICTIONARY
360
26D
102
}
102
{ACAD_REACTORS
330
227
102
}
330
227
100
AcDbVisualStyle
  2
FlatWithEdges
 70
     1
 71
     2
 72
     1
 73
     1
 90
        2
 40
-0.6
 41
30.0
 62
     5
 63
     7
 74
     1
 91
        4
 64
     7
 65
   257
 75
     1
175
     1
 42
1.0
 92
        0
 66
   257
 43
1.0
 76
     1
 77
     6
 78
     2
 67
     7
 79
     5
170
     0
171
     0
290
     0
174
     0
 93
       13
 44
0.0
173
     0
291
     1
 45
0.0
1001
ACAD
1000
AcDbSavedByObjectVersion
1070
     0
  0
VISUALSTYLE
  5
22A
102
{ACAD_XDICTIONARY
360
26F
102
}
102
{ACAD_REACTORS
330
227
102
}
330
227
100
AcDbVisualStyle
  2
Gouraud
 70
     2
 71
     2
 72
     2
 73
     1
 90
        2
 40
-0.6
 41
30.0
 62
     5
 63
     7
 74
     0
 91
        4
 64
     7
 65
   257
 75
     1
175
     1
 42
1.0
 92
        0
 66
     7
 43
1.0
 76
     1
 77
     6
 78
     2
 67
     7
 79
     5
170
     0
171
     0
290
     0
174
     0
 93
       13
 44
0.0
173
     0
291
     1
 45
0.0
1001
ACAD
1000
AcDbSavedByObjectVersion
1070
     0
  0
VISUALSTYLE
  5
22B
102
{ACAD_XDICTIONARY
360
271
102
}
102
{ACAD_REACTORS
330
227
102
}
330
227
100
AcDbVisualStyle
  2
GouraudWithEdges
 70
     3
 71
     2
 72
     2
 73
     1
 90
        2
 40
-0.6
 41
30.0
 62
     5
 63
     7
 74
     1
 91
        4
 64
     7
 65
   257
 75
     1
175
     1
 42
1.0
 92
        0
 66
   257
 43
1.0
 76
     1
 77
     6
 78
     2
 67
     7
 79
     5
170
     0
171
     0
290
     0
174
     0
 93
       13
 44
0.0
173
     0
291
     1
 45
0.0
1001
ACAD
1000
AcDbSavedByObjectVersion
1070
     0
  0
VISUALSTYLE
  5
238
102
{ACAD_XDICTIONARY
360
28B
102
}
102
{ACAD_REACTORS
330
227
102
}
330
227
100
AcDbVisualStyle
  2
JitterOff
 70
    20
 71
     2
 72
     2
 73
     0
 90
        0
 40
-0.6
 41
-30.0
 62
     5
 63
     7
 74
     1
 91
        4
 64
     7
 65
   257
 75
     1
175
     1
 42
1.0
 92
       10
 66
     7
 43
1.0
 76
     1
 77
     6
 78
     2
 67
     7
 79
     5
170
     0
171
     0
290
     0
174
     0
 93
        1
 44
0.0
173
     0
291
     1
 45
0.0
1001
ACAD
1000
AcDbSavedByObjectVersion
1070
     0
  0
VISUALSTYLE
  5
235
102
{ACAD_XDICTIONARY
360
285
102
}
102
{ACAD_REACTORS
330
227
102
}
330
227
100
AcDbVisualStyle
  2
Linepattern
 70
    14
 71
     2
 72
     2
 73
     0
 90
        0
 40
-0.6
 41
-30.0
 62
     5
 63
     7
 74
     1
 91
        4
 64
     7
 65
   257
 75
     7
175
     7
 42
1.0
 92
        8
 66
     7
 43
1.0
 76
     1
 77
     6
 78
     2
 67
     7
 79
     5
170
     0
171
     0
290
     0
174
     0
 93
        1
 44
0.0
173
     0
291
     1
 45
0.0
1001
ACAD
1000
AcDbSavedByObjectVersion
1070
     0
  0
VISUALSTYLE
  5
239
102
{ACAD_XDICTIONARY
360
28D
102
}
102
{ACAD_REACTORS
330
227
102
}
330
227
100
AcDbVisualStyle
  2
OverhangOff
 70
    21
 71
     2
 72
     2
 73
     0
 90
        0
 40
-0.6
 41
-30.0
 62
     5
 63
     7
 74
     1
 91
        4
 64
     7
 65
   257
 75
     1
175
     1
 42
1.0
 92
        9
 66
     7
 43
1.0
 76
     1
 77
     6
 78
     2
 67
     7
 79
     5
170
     0
171
     0
290
     0
174
     0
 93
        1
 44
0.0
173
     0
291
     1
 45
0.0
1001
ACAD
1000
AcDbSavedByObjectVersion
1070
     0
  0
VISUALSTYLE
  5
231
102
{ACAD_XDICTIONARY
360
27D
102
}
102
{ACAD_REACTORS
330
227
102
}
330
227
100
AcDbVisualStyle
  2
Realistic
 70
     8
 71
     2
 72
     2
 73
     0
 90
        0
 40
-0.6
 41
-30.0
 62
     5
 63
     7
 74
     1
 91
        0
 64
     7
 65
   257
 75
     1
175
     1
 42
1.0
 92
        8
 66
     8
 43
1.0
 76
     1
 77
     6
 78
     2
 67
     7
 79
     5
170
     0
171
     0
290
     0
174
     0
 93
       13
 44
0.0
173
     0
291
     0
 45
0.0
1001
ACAD
1000
AcDbSavedByObjectVersion
1070
     0
  0
VISUALSTYLE
  5
234
102
{ACAD_XDICTIONARY
360
283
102
}
102
{ACAD_REACTORS
330
227
102
}
330
227
100
AcDbVisualStyle
  2
Thicken
 70
    13
 71
     2
 72
     2
 73
     0
 90
        0
 40
-0.6
 41
-30.0
 62
     5
 63
     7
 74
     1
 91
        4
 64
     7
 65
   257
 75
     1
175
     1
 42
1.0
 92
       12
 66
     7
 43
1.0
 76
     1
 77
     6
 78
     2
 67
     7
 79
     5
170
     0
171
     0
290
     0
174
     0
 93
        1
 44
0.0
173
     0
291
     1
 45
0.0
1001
ACAD
1000
AcDbSavedByObjectVersion
1070
     0
  0
DICTIONARYVAR
  5
25B
102
{ACAD_REACTORS
330
32
102
}
330
32
100
DictionaryVariables
280
     0
  1
1:1
  0
DICTIONARYVAR
  5
25A
102
{ACAD_REACTORS
330
32
102
}
330
32
100
DictionaryVariables
280
     0
  1
STANDARD
  0
DICTIONARYVAR
  5
20C
102
{ACAD_REACTORS
330
32
102
}
330
32
100
DictionaryVariables
280
     0
  1
STANDARD
  0
DICTIONARYVAR
  5
34
102
{ACAD_REACTORS
330
32
102
}
330
32
100
DictionaryVariables
280
     0
  1
1
  0
DICTIONARYVAR
  5
33
102
{ACAD_REACTORS
330
32
102
}
330
32
100
DictionaryVariables
280
     0
  1
1
  0
DICTIONARYVAR
  5
25D
102
{ACAD_REACTORS
330
32
102
}
330
32
100
DictionaryVariables
280
     0
  1
0
  0
DICTIONARYVAR
  5
20D
102
{ACAD_REACTORS
330
32
102
}
330
32
100
DictionaryVariables
280
     0
  1

  0
DICTIONARYVAR
  5
25C
102
{ACAD_REACTORS
330
32
102
}
330
32
100
DictionaryVariables
280
     0
  1
127
  0
DICTIONARYVAR
  5
25E
102
{ACAD_REACTORS
330
32
102
}
330
32
100
DictionaryVariables
280
     0
  1
2
  0
XRECORD
  5
259
102
{ACAD_REACTORS
330
257
102
}
330
257
100
AcDbXrecord
280
     1
330
F4
330
1DE
  0
DICTIONARY
  5
265
330
F
100
AcDbDictionary
280
     1
281
     1
  3
ACAD_XREC_ROUNDTRIP
360
266
  0
DICTIONARY
  5
263
330
A
100
AcDbDictionary
280
     1
281
     1
  3
ACAD_XREC_ROUNDTRIP
360
264
  0
DICTIONARY
  5
218
330
217
100
AcDbDictionary
280
     1
281
     1
  3
ACAD_XREC_ROUNDTRIP
360
269
  3
BUMPTILE
360
21A
  3
DIFFUSETILE
360
219
  3
OPACITYTILE
360
21D
  3
REFLECTIONTILE
360
21C
  3
REFRACTIONTILE
360
21E
  3
SPECULARTILE
360
21B
  0
DICTIONARY
  5
210
330
20F
100
AcDbDictionary
280
     1
281
     1
  3
ACAD_XREC_ROUNDTRIP
360
268
  3
BUMPTILE
360
212
  3
DIFFUSETILE
360
211
  3
OPACITYTILE
360
215
  3
REFLECTIONTILE
360
214
  3
REFRACTIONTILE
360
216
  3
SPECULARTILE
360
213
  0
DICTIONARY
  5
220
330
21F
100
AcDbDictionary
280
     1
281
     1
  3
ACAD_XREC_ROUNDTRIP
360
26A
  3
BUMPTILE
360
222
  3
DIFFUSETILE
360
221
  3
OPACITYTILE
360
225
  3
REFLECTIONTILE
360
224
  3
REFRACTIONTILE
360
226
  3
SPECULARTILE
360
223
  0
DICTIONARY
  5
25F
330
39
100
AcDbDictionary
280
     1
281
     1
  3
ACAD_ROUNDTRIP_2008_TABLESTYLE_CELLSTYLEMAP
360
260
  3
ACAD_XREC_ROUNDTRIP
360
267
  0
DICTIONARY
  5
275
330
22D
100
AcDbDictionary
280
     1
281
     1
  3
ACAD_XREC_ROUNDTRIP
360
276
  0
DICTIONARY
  5
279
330
22F
100
AcDbDictionary
280
     1
281
     1
  3
ACAD_XREC_ROUNDTRIP
360
27A
  0
DICTIONARY
  5
277
330
22E
100
AcDbDictionary
280
     1
281
     1
  3
ACAD_XREC_ROUNDTRIP
360
278
  0
DICTIONARY
  5
273
330
22C
100
AcDbDictionary
280
     1
281
     1
  3
ACAD_XREC_ROUNDTRIP
360
274
  0
DICTIONARY
  5
281
330
233
100
AcDbDictionary
280
     1
281
     1
  3
ACAD_XREC_ROUNDTRIP
360
282
  0
DICTIONARY
  5
289
330
237
100
AcDbDictionary
280
     1
281
     1
  3
ACAD_XREC_ROUNDTRIP
360
28A
  0
DICTIONARY
  5
27B
330
230
100
AcDbDictionary
280
     1
281
     1
  3
ACAD_XREC_ROUNDTRIP
360
27C
  0
DICTIONARY
  5
27F
330
232
100
AcDbDictionary
280
     1
281
     1
  3
ACAD_XREC_ROUNDTRIP
360
280
  0
DICTIONARY
  5
28F
330
23A
100
AcDbDictionary
280
     1
281
     1
  3
ACAD_XREC_ROUNDTRIP
360
290
  0
DICTIONARY
  5
287
330
236
100
AcDbDictionary
280
     1
281
     1
  3
ACAD_XREC_ROUNDTRIP
360
288
  0
DICTIONARY
  5
26B
330
228
100
AcDbDictionary
280
     1
281
     1
  3
ACAD_XREC_ROUNDTRIP
360
26C
  0
DICTIONARY
  5
26D
330
229
100
AcDbDictionary
280
     1
281
     1
  3
ACAD_XREC_ROUNDTRIP
360
26E
  0
DICTIONARY
  5
26F
330
22A
100
AcDbDictionary
280
     1
281
     1
  3
ACAD_XREC_ROUNDTRIP
360
270
  0
DICTIONARY
  5
271
330
22B
100
AcDbDictionary
280
     1
281
     1
  3
ACAD_XREC_ROUNDTRIP
360
272
  0
DICTIONARY
  5
28B
330
238
100
AcDbDictionary
280
     1
281
     1
  3
ACAD_XREC_ROUNDTRIP
360
28C
  0
DICTIONARY
  5
285
330
235
100
AcDbDictionary
280
     1
281
     1
  3
ACAD_XREC_ROUNDTRIP
360
286
  0
DICTIONARY
  5
28D
330
239
100
AcDbDictionary
280
     1
281
     1
  3
ACAD_XREC_ROUNDTRIP
360
28E
  0
DICTIONARY
  5
27D
330
231
100
AcDbDictionary
280
     1
281
     1
  3
ACAD_XREC_ROUNDTRIP
360
27E
  0
DICTIONARY
  5
283
330
234
100
AcDbDictionary
280
     1
281
     1
  3
ACAD_XREC_ROUNDTRIP
360
284
  0
XRECORD
  5
266
102
{ACAD_REACTORS
330
265
102
}
330
265
100
AcDbXrecord
280
     1
102
SHADEPLOT
 70
     0
102
SHADEPLOTRESLEVEL
 70
     2
102
SHADEPLOTCUSTOMDPI
 70
   300
  0
XRECORD
  5
264
102
{ACAD_REACTORS
330
263
102
}
330
263
100
AcDbXrecord
280
     1
102
SHADEPLOT
 70
     0
102
SHADEPLOTRESLEVEL
 70
     2
102
SHADEPLOTCUSTOMDPI
 70
   300
  0
XRECORD
  5
269
102
{ACAD_REACTORS
330
218
102
}
330
218
100
AcDbXrecord
280
     1
102
MATERIAL
148
0.0
149
0.0
149
0.0
 93
        0
 94
      127
282
     0
 72
     0
 77
     0
171
     0
175
     0
179
     0
273
     0
  0
XRECORD
  5
21A
102
{ACAD_REACTORS
330
218
102
}
330
218
100
AcDbXrecord
280
     1
270
     1
271
     1
  0
XRECORD
  5
219
102
{ACAD_REACTORS
330
218
102
}
330
218
100
AcDbXrecord
280
     1
270
     1
271
     1
  0
XRECORD
  5
21D
102
{ACAD_REACTORS
330
218
102
}
330
218
100
AcDbXrecord
280
     1
270
     1
271
     1
  0
XRECORD
  5
21C
102
{ACAD_REACTORS
330
218
102
}
330
218
100
AcDbXrecord
280
     1
270
     1
271
     1
  0
XRECORD
  5
21E
102
{ACAD_REACTORS
330
218
102
}
330
218
100
AcDbXrecord
280
     1
270
     1
271
     1
  0
XRECORD
  5
21B
102
{ACAD_REACTORS
330
218
102
}
330
218
100
AcDbXrecord
280
     1
270
     1
271
     1
  0
XRECORD
  5
268
102
{ACAD_REACTORS
330
210
102
}
330
210
100
AcDbXrecord
280
     1
102
MATERIAL
148
0.0
149
0.0
149
0.0
 93
        0
 94
      127
282
     0
 72
     0
 77
     0
171
     0
175
     0
179
     0
273
     0
  0
XRECORD
  5
212
102
{ACAD_REACTORS
330
210
102
}
330
210
100
AcDbXrecord
280
     1
270
     1
271
     1
  0
XRECORD
  5
211
102
{ACAD_REACTORS
330
210
102
}
330
210
100
AcDbXrecord
280
     1
270
     1
271
     1
  0
XRECORD
  5
215
102
{ACAD_REACTORS
330
210
102
}
330
210
100
AcDbXrecord
280
     1
270
     1
271
     1
  0
XRECORD
  5
214
102
{ACAD_REACTORS
330
210
102
}
330
210
100
AcDbXrecord
280
     1
270
     1
271
     1
  0
XRECORD
  5
216
102
{ACAD_REACTORS
330
210
102
}
330
210
100
AcDbXrecord
280
     1
270
     1
271
     1
  0
XRECORD
  5
213
102
{ACAD_REACTORS
330
210
102
}
330
210
100
AcDbXrecord
280
     1
270
     1
271
     1
  0
XRECORD
  5
26A
102
{ACAD_REACTORS
330
220
102
}
330
220
100
AcDbXrecord
280
     1
102
MATERIAL
148
0.0
149
0.0
149
0.0
 93
        0
 94
      127
282
     0
 72
     0
 77
     0
171
     0
175
     0
179
     0
273
     0
  0
XRECORD
  5
222
102
{ACAD_REACTORS
330
220
102
}
330
220
100
AcDbXrecord
280
     1
270
     1
271
     1
  0
XRECORD
  5
221
102
{ACAD_REACTORS
330
220
102
}
330
220
100
AcDbXrecord
280
     1
270
     1
271
     1
  0
XRECORD
  5
225
102
{ACAD_REACTORS
330
220
102
}
330
220
100
AcDbXrecord
280
     1
270
     1
271
     1
  0
XRECORD
  5
224
102
{ACAD_REACTORS
330
220
102
}
330
220
100
AcDbXrecord
280
     1
270
     1
271
     1
  0
XRECORD
  5
226
102
{ACAD_REACTORS
330
220
102
}
330
220
100
AcDbXrecord
280
     1
270
     1
271
     1
  0
XRECORD
  5
223
102
{ACAD_REACTORS
330
220
102
}
330
220
100
AcDbXrecord
280
     1
270
     1
271
     1
  0
CELLSTYLEMAP
  5
260
102
{ACAD_REACTORS
330
25F
102
}
330
25F
100
AcDbCellStyleMap
 90
        3
300
CELLSTYLE
  1
TABLEFORMAT_BEGIN
 90
        5
170
     1
 91
        0
 92
    32768
 62
   257
 93
        1
300
CONTENTFORMAT
  1
CONTENTFORMAT_BEGIN
 90
        0
 91
        0
 92
        4
 93
        0
300

 40
0.0
140
1.0
 94
        5
 62
     0
340
12
144
6.0
309
CONTENTFORMAT_END
171
     1
301
MARGIN
  1
CELLMARGIN_BEGIN
 40
1.5
 40
1.5
 40
1.5
 40
1.5
 40
0.18
 40
0.18
309
CELLMARGIN_END
 94
        6
 95
        1
302
GRIDFORMAT
  1
GRIDFORMAT_BEGIN
 90
        0
 91
        1
 62
     0
 92
       -2
340
0
 93
        0
 40
0.045
309
GRIDFORMAT_END
 95
        2
302
GRIDFORMAT
  1
GRIDFORMAT_BEGIN
 90
        0
 91
        1
 62
     0
 92
       -2
340
0
 93
        0
 40
0.045
309
GRIDFORMAT_END
 95
        4
302
GRIDFORMAT
  1
GRIDFORMAT_BEGIN
 90
        0
 91
        1
 62
     0
 92
       -2
340
0
 93
        0
 40
0.045
309
GRIDFORMAT_END
 95
        8
302
GRIDFORMAT
  1
GRIDFORMAT_BEGIN
 90
        0
 91
        1
 62
     0
 92
       -2
340
0
 93
        0
 40
0.045
309
GRIDFORMAT_END
 95
       16
302
GRIDFORMAT
  1
GRIDFORMAT_BEGIN
 90
        0
 91
        1
 62
     0
 92
       -2
340
0
 93
        0
 40
0.045
309
GRIDFORMAT_END
 95
       32
302
GRIDFORMAT
  1
GRIDFORMAT_BEGIN
 90
        0
 91
        1
 62
     0
 92
       -2
340
0
 93
        0
 40
0.045
309
GRIDFORMAT_END
309
TABLEFORMAT_END
  1
CELLSTYLE_BEGIN
 90
        1
 91
        1
300
_TITLE
309
CELLSTYLE_END
300
CELLSTYLE
  1
TABLEFORMAT_BEGIN
 90
        5
170
     1
 91
        0
 92
        0
 62
   257
 93
        1
300
CONTENTFORMAT
  1
CONTENTFORMAT_BEGIN
 90
        0
 91
        0
 92
        4
 93
        0
300

 40
0.0
140
1.0
 94
        5
 62
     0
340
12
144
4.5
309
CONTENTFORMAT_END
171
     1
301
MARGIN
  1
CELLMARGIN_BEGIN
 40
1.5
 40
1.5
 40
1.5
 40
1.5
 40
0.18
 40
0.18
309
CELLMARGIN_END
 94
        6
 95
        1
302
GRIDFORMAT
  1
GRIDFORMAT_BEGIN
 90
        0
 91
        1
 62
     0
 92
       -2
340
0
 93
        0
 40
0.045
309
GRIDFORMAT_END
 95
        2
302
GRIDFORMAT
  1
GRIDFORMAT_BEGIN
 90
        0
 91
        1
 62
     0
 92
       -2
340
0
 93
        0
 40
0.045
309
GRIDFORMAT_END
 95
        4
302
GRIDFORMAT
  1
GRIDFORMAT_BEGIN
 90
        0
 91
        1
 62
     0
 92
       -2
340
0
 93
        0
 40
0.045
309
GRIDFORMAT_END
 95
        8
302
GRIDFORMAT
  1
GRIDFORMAT_BEGIN
 90
        0
 91
        1
 62
     0
 92
       -2
340
0
 93
        0
 40
0.045
309
GRIDFORMAT_END
 95
       16
302
GRIDFORMAT
  1
GRIDFORMAT_BEGIN
 90
        0
 91
        1
 62
     0
 92
       -2
340
0
 93
        0
 40
0.045
309
GRIDFORMAT_END
 95
       32
302
GRIDFORMAT
  1
GRIDFORMAT_BEGIN
 90
        0
 91
        1
 62
     0
 92
       -2
340
0
 93
        0
 40
0.045
309
GRIDFORMAT_END
309
TABLEFORMAT_END
  1
CELLSTYLE_BEGIN
 90
        2
 91
        1
300
_HEADER
309
CELLSTYLE_END
300
CELLSTYLE
  1
TABLEFORMAT_BEGIN
 90
        5
170
     1
 91
        0
 92
        0
 62
   257
 93
        1
300
CONTENTFORMAT
  1
CONTENTFORMAT_BEGIN
 90
        0
 91
        0
 92
        4
 93
        0
300

 40
0.0
140
1.0
 94
        2
 62
     0
340
12
144
4.5
309
CONTENTFORMAT_END
171
     1
301
MARGIN
  1
CELLMARGIN_BEGIN
 40
1.5
 40
1.5
 40
1.5
 40
1.5
 40
0.18
 40
0.18
309
CELLMARGIN_END
 94
        6
 95
        1
302
GRIDFORMAT
  1
GRIDFORMAT_BEGIN
 90
        0
 91
        1
 62
     0
 92
       -2
340
0
 93
        0
 40
0.045
309
GRIDFORMAT_END
 95
        2
302
GRIDFORMAT
  1
GRIDFORMAT_BEGIN
 90
        0
 91
        1
 62
     0
 92
       -2
340
0
 93
        0
 40
0.045
309
GRIDFORMAT_END
 95
        4
302
GRIDFORMAT
  1
GRIDFORMAT_BEGIN
 90
        0
 91
        1
 62
     0
 92
       -2
340
0
 93
        0
 40
0.045
309
GRIDFORMAT_END
 95
        8
302
GRIDFORMAT
  1
GRIDFORMAT_BEGIN
 90
        0
 91
        1
 62
     0
 92
       -2
340
0
 93
        0
 40
0.045
309
GRIDFORMAT_END
 95
       16
302
GRIDFORMAT
  1
GRIDFORMAT_BEGIN
 90
        0
 91
        1
 62
     0
 92
       -2
340
0
 93
        0
 40
0.045
309
GRIDFORMAT_END
 95
       32
302
GRIDFORMAT
  1
GRIDFORMAT_BEGIN
 90
        0
 91
        1
 62
     0
 92
       -2
340
0
 93
        0
 40
0.045
309
GRIDFORMAT_END
309
TABLEFORMAT_END
  1
CELLSTYLE_BEGIN
 90
        3
 91
        2
300
_DATA
309
CELLSTYLE_END
  0
XRECORD
  5
267
102
{ACAD_REACTORS
330
25F
102
}
330
25F
100
AcDbXrecord
280
     1
102
ACAD_ROUNDTRIP_PRE2007_TABLESTYLE
 90
        4
 91
        0
  1

 92
        4
 93
        0
  2

 94
        4
 95
        0
  3

  0
XRECORD
  5
276
102
{ACAD_REACTORS
330
275
102
}
330
275
100
AcDbXrecord
280
     1
102
RTVSPropertyOp0
 70
     1
102
RTVSPropertyOp1
 70
     1
102
RTVSPropertyOp2
 70
     1
102
RTVSPropertyOp3
 70
     1
102
RTVSPropertyOp4
 70
     1
102
RTVSPropertyOp5
 70
     1
102
RTVSPropertyOp6
 70
     1
102
RTVSPropertyOp7
 70
     1
102
RTVSPropertyOp8
 70
     1
102
RTVSPropertyOp9
 70
     1
102
RTVSPropertyOp10
 70
     1
102
RTVSPropertyOp11
 70
     1
102
RTVSPropertyOp12
 70
     1
102
RTVSPropertyOp13
 70
     1
102
RTVSPropertyOp14
 70
     1
102
RTVSPropertyOp15
 70
     1
102
RTVSPropertyOp16
 70
     1
102
RTVSPropertyOp17
 70
     1
102
RTVSPropertyOp18
 70
     1
102
RTVSPropertyOp19
 70
     1
102
RTVSPropertyOp20
 70
     1
102
RTVSPropertyOp21
 70
     1
102
RTVSPropertyOp22
 70
     1
102
RTVSPropertyOp23
 70
     1
102
RTVSPropertyOp24
 70
     1
102
RTVSPropertyOp25
 70
     1
102
RTVSPropertyOp26
 70
     1
102
RTVSPropertyOp27
 70
     1
  0
XRECORD
  5
27A
102
{ACAD_REACTORS
330
279
102
}
330
279
100
AcDbXrecord
280
     1
102
RTVSPropertyOp0
 70
     1
102
RTVSPropertyOp1
 70
     1
102
RTVSPropertyOp2
 70
     1
102
RTVSPropertyOp3
 70
     1
102
RTVSPropertyOp4
 70
     1
102
RTVSPropertyOp5
 70
     1
102
RTVSPropertyOp6
 70
     1
102
RTVSPropertyOp7
 70
     1
102
RTVSPropertyOp8
 70
     1
102
RTVSPropertyOp9
 70
     1
102
RTVSPropertyOp10
 70
     1
102
RTVSPropertyOp11
 70
     1
102
RTVSPropertyOp12
 70
     1
102
RTVSPropertyOp13
 70
     1
102
RTVSPropertyOp14
 70
     1
102
RTVSPropertyOp15
 70
     1
102
RTVSPropertyOp16
 70
     1
102
RTVSPropertyOp17
 70
     1
102
RTVSPropertyOp18
 70
     1
102
RTVSPropertyOp19
 70
     1
102
RTVSPropertyOp20
 70
     1
102
RTVSPropertyOp21
 70
     1
102
RTVSPropertyOp22
 70
     1
102
RTVSPropertyOp23
 70
     1
102
RTVSPropertyOp24
 70
     1
102
RTVSPropertyOp25
 70
     1
102
RTVSPropertyOp26
 70
     1
102
RTVSPropertyOp27
 70
     1
  0
XRECORD
  5
278
102
{ACAD_REACTORS
330
277
102
}
330
277
100
AcDbXrecord
280
     1
102
RTVSPropertyOp0
 70
     1
102
RTVSPropertyOp1
 70
     1
102
RTVSPropertyOp2
 70
     1
102
RTVSPropertyOp3
 70
     1
102
RTVSPropertyOp4
 70
     1
102
RTVSPropertyOp5
 70
     1
102
RTVSPropertyOp6
 70
     1
102
RTVSPropertyOp7
 70
     1
102
RTVSPropertyOp8
 70
     1
102
RTVSPropertyOp9
 70
     1
102
RTVSPropertyOp10
 70
     1
102
RTVSPropertyOp11
 70
     1
102
RTVSPropertyOp12
 70
     1
102
RTVSPropertyOp13
 70
     1
102
RTVSPropertyOp14
 70
     1
102
RTVSPropertyOp15
 70
     1
102
RTVSPropertyOp16
 70
     1
102
RTVSPropertyOp17
 70
     1
102
RTVSPropertyOp18
 70
     1
102
RTVSPropertyOp19
 70
     1
102
RTVSPropertyOp20
 70
     1
102
RTVSPropertyOp21
 70
     1
102
RTVSPropertyOp22
 70
     1
102
RTVSPropertyOp23
 70
     1
102
RTVSPropertyOp24
 70
     1
102
RTVSPropertyOp25
 70
     1
102
RTVSPropertyOp26
 70
     1
102
RTVSPropertyOp27
 70
     1
  0
XRECORD
  5
274
102
{ACAD_REACTORS
330
273
102
}
330
273
100
AcDbXrecord
280
     1
102
RTVSPropertyOp0
 70
     1
102
RTVSPropertyOp1
 70
     1
102
RTVSPropertyOp2
 70
     1
102
RTVSPropertyOp3
 70
     1
102
RTVSPropertyOp4
 70
     1
102
RTVSPropertyOp5
 70
     1
102
RTVSPropertyOp6
 70
     1
102
RTVSPropertyOp7
 70
     1
102
RTVSPropertyOp8
 70
     1
102
RTVSPropertyOp9
 70
     1
102
RTVSPropertyOp10
 70
     1
102
RTVSPropertyOp11
 70
     1
102
RTVSPropertyOp12
 70
     1
102
RTVSPropertyOp13
 70
     1
102
RTVSPropertyOp14
 70
     1
102
RTVSPropertyOp15
 70
     1
102
RTVSPropertyOp16
 70
     1
102
RTVSPropertyOp17
 70
     1
102
RTVSPropertyOp18
 70
     1
102
RTVSPropertyOp19
 70
     1
102
RTVSPropertyOp20
 70
     1
102
RTVSPropertyOp21
 70
     1
102
RTVSPropertyOp22
 70
     1
102
RTVSPropertyOp23
 70
     1
102
RTVSPropertyOp24
 70
     1
102
RTVSPropertyOp25
 70
     1
102
RTVSPropertyOp26
 70
     1
102
RTVSPropertyOp27
 70
     1
  0
XRECORD
  5
282
102
{ACAD_REACTORS
330
281
102
}
330
281
100
AcDbXrecord
280
     1
102
RTVSPropertyOp0
 70
     1
102
RTVSPropertyOp1
 70
     1
102
RTVSPropertyOp2
 70
     1
102
RTVSPropertyOp3
 70
     1
102
RTVSPropertyOp4
 70
     1
102
RTVSPropertyOp5
 70
     1
102
RTVSPropertyOp6
 70
     1
102
RTVSPropertyOp7
 70
     1
102
RTVSPropertyOp8
 70
     1
102
RTVSPropertyOp9
 70
     1
102
RTVSPropertyOp10
 70
     1
102
RTVSPropertyOp11
 70
     1
102
RTVSPropertyOp12
 70
     1
102
RTVSPropertyOp13
 70
     1
102
RTVSPropertyOp14
 70
     1
102
RTVSPropertyOp15
 70
     1
102
RTVSPropertyOp16
 70
     1
102
RTVSPropertyOp17
 70
     1
102
RTVSPropertyOp18
 70
     1
102
RTVSPropertyOp19
 70
     1
102
RTVSPropertyOp20
 70
     1
102
RTVSPropertyOp21
 70
     1
102
RTVSPropertyOp22
 70
     1
102
RTVSPropertyOp23
 70
     1
102
RTVSPropertyOp24
 70
     1
102
RTVSPropertyOp25
 70
     1
102
RTVSPropertyOp26
 70
     1
102
RTVSPropertyOp27
 70
     1
  0
XRECORD
  5
28A
102
{ACAD_REACTORS
330
289
102
}
330
289
100
AcDbXrecord
280
     1
102
RTVSPropertyOp0
 70
     1
102
RTVSPropertyOp1
 70
     1
102
RTVSPropertyOp2
 70
     1
102
RTVSPropertyOp3
 70
     1
102
RTVSPropertyOp4
 70
     1
102
RTVSPropertyOp5
 70
     1
102
RTVSPropertyOp6
 70
     1
102
RTVSPropertyOp7
 70
     1
102
RTVSPropertyOp8
 70
     1
102
RTVSPropertyOp9
 70
     1
102
RTVSPropertyOp10
 70
     1
102
RTVSPropertyOp11
 70
     1
102
RTVSPropertyOp12
 70
     1
102
RTVSPropertyOp13
 70
     1
102
RTVSPropertyOp14
 70
     1
102
RTVSPropertyOp15
 70
     1
102
RTVSPropertyOp16
 70
     1
102
RTVSPropertyOp17
 70
     1
102
RTVSPropertyOp18
 70
     1
102
RTVSPropertyOp19
 70
     1
102
RTVSPropertyOp20
 70
     1
102
RTVSPropertyOp21
 70
     1
102
RTVSPropertyOp22
 70
     1
102
RTVSPropertyOp23
 70
     1
102
RTVSPropertyOp24
 70
     1
102
RTVSPropertyOp25
 70
     1
102
RTVSPropertyOp26
 70
     1
102
RTVSPropertyOp27
 70
     1
  0
XRECORD
  5
27C
102
{ACAD_REACTORS
330
27B
102
}
330
27B
100
AcDbXrecord
280
     1
102
RTVSPropertyOp0
 70
     1
102
RTVSPropertyOp1
 70
     1
102
RTVSPropertyOp2
 70
     1
102
RTVSPropertyOp3
 70
     1
102
RTVSPropertyOp4
 70
     1
102
RTVSPropertyOp5
 70
     1
102
RTVSPropertyOp6
 70
     1
102
RTVSPropertyOp7
 70
     1
102
RTVSPropertyOp8
 70
     1
102
RTVSPropertyOp9
 70
     1
102
RTVSPropertyOp10
 70
     1
102
RTVSPropertyOp11
 70
     1
102
RTVSPropertyOp12
 70
     1
102
RTVSPropertyOp13
 70
     1
102
RTVSPropertyOp14
 70
     1
102
RTVSPropertyOp15
 70
     1
102
RTVSPropertyOp16
 70
     1
102
RTVSPropertyOp17
 70
     1
102
RTVSPropertyOp18
 70
     1
102
RTVSPropertyOp19
 70
     1
102
RTVSPropertyOp20
 70
     1
102
RTVSPropertyOp21
 70
     1
102
RTVSPropertyOp22
 70
     1
102
RTVSPropertyOp23
 70
     1
102
RTVSPropertyOp24
 70
     1
102
RTVSPropertyOp25
 70
     1
102
RTVSPropertyOp26
 70
     1
102
RTVSPropertyOp27
 70
     1
  0
XRECORD
  5
280
102
{ACAD_REACTORS
330
27F
102
}
330
27F
100
AcDbXrecord
280
     1
102
RTVSPropertyOp0
 70
     1
102
RTVSPropertyOp1
 70
     1
102
RTVSPropertyOp2
 70
     1
102
RTVSPropertyOp3
 70
     1
102
RTVSPropertyOp4
 70
     1
102
RTVSPropertyOp5
 70
     1
102
RTVSPropertyOp6
 70
     1
102
RTVSPropertyOp7
 70
     1
102
RTVSPropertyOp8
 70
     1
102
RTVSPropertyOp9
 70
     1
102
RTVSPropertyOp10
 70
     1
102
RTVSPropertyOp11
 70
     1
102
RTVSPropertyOp12
 70
     1
102
RTVSPropertyOp13
 70
     1
102
RTVSPropertyOp14
 70
     1
102
RTVSPropertyOp15
 70
     1
102
RTVSPropertyOp16
 70
     1
102
RTVSPropertyOp17
 70
     1
102
RTVSPropertyOp18
 70
     1
102
RTVSPropertyOp19
 70
     1
102
RTVSPropertyOp20
 70
     1
102
RTVSPropertyOp21
 70
     1
102
RTVSPropertyOp22
 70
     1
102
RTVSPropertyOp23
 70
     1
102
RTVSPropertyOp24
 70
     1
102
RTVSPropertyOp25
 70
     1
102
RTVSPropertyOp26
 70
     1
102
RTVSPropertyOp27
 70
     1
  0
XRECORD
  5
290
102
{ACAD_REACTORS
330
28F
102
}
330
28F
100
AcDbXrecord
280
     1
102
RTVSPropertyOp0
 70
     0
102
RTVSPropertyOp1
 70
     0
102
RTVSPropertyOp2
 70
     0
102
RTVSPropertyOp3
 70
     0
102
RTVSPropertyOp4
 70
     0
102
RTVSPropertyOp5
 70
     0
102
RTVSPropertyOp6
 70
     0
102
RTVSPropertyOp7
 70
     0
102
RTVSPropertyOp8
 70
     0
102
RTVSPropertyOp9
 70
     0
102
RTVSPropertyOp10
 70
     0
102
RTVSPropertyOp11
 70
     0
102
RTVSPropertyOp12
 70
     0
102
RTVSPropertyOp13
 70
     0
102
RTVSPropertyOp14
 70
     2
102
RTVSPropertyOp15
 70
     0
102
RTVSPropertyOp16
 70
     0
102
RTVSPropertyOp17
 70
     0
102
RTVSPropertyOp18
 70
     0
102
RTVSPropertyOp19
 70
     0
102
RTVSPropertyOp20
 70
     0
102
RTVSPropertyOp21
 70
     0
102
RTVSPropertyOp22
 70
     0
102
RTVSPropertyOp23
 70
     0
102
RTVSPropertyOp24
 70
     0
102
RTVSPropertyOp25
 70
     0
102
RTVSPropertyOp26
 70
     0
102
RTVSPropertyOp27
 70
     0
  0
XRECORD
  5
288
102
{ACAD_REACTORS
330
287
102
}
330
287
100
AcDbXrecord
280
     1
102
RTVSPropertyOp0
 70
     1
102
RTVSPropertyOp1
 70
     1
102
RTVSPropertyOp2
 70
     1
102
RTVSPropertyOp3
 70
     1
102
RTVSPropertyOp4
 70
     1
102
RTVSPropertyOp5
 70
     1
102
RTVSPropertyOp6
 70
     1
102
RTVSPropertyOp7
 70
     1
102
RTVSPropertyOp8
 70
     1
102
RTVSPropertyOp9
 70
     1
102
RTVSPropertyOp10
 70
     1
102
RTVSPropertyOp11
 70
     1
102
RTVSPropertyOp12
 70
     1
102
RTVSPropertyOp13
 70
     1
102
RTVSPropertyOp14
 70
     1
102
RTVSPropertyOp15
 70
     1
102
RTVSPropertyOp16
 70
     1
102
RTVSPropertyOp17
 70
     1
102
RTVSPropertyOp18
 70
     1
102
RTVSPropertyOp19
 70
     1
102
RTVSPropertyOp20
 70
     1
102
RTVSPropertyOp21
 70
     1
102
RTVSPropertyOp22
 70
     1
102
RTVSPropertyOp23
 70
     1
102
RTVSPropertyOp24
 70
     1
102
RTVSPropertyOp25
 70
     1
102
RTVSPropertyOp26
 70
     1
102
RTVSPropertyOp27
 70
     1
  0
XRECORD
  5
26C
102
{ACAD_REACTORS
330
26B
102
}
330
26B
100
AcDbXrecord
280
     1
102
RTVSPropertyOp0
 70
     1
102
RTVSPropertyOp1
 70
     1
102
RTVSPropertyOp2
 70
     1
102
RTVSPropertyOp3
 70
     1
102
RTVSPropertyOp4
 70
     1
102
RTVSPropertyOp5
 70
     1
102
RTVSPropertyOp6
 70
     1
102
RTVSPropertyOp7
 70
     1
102
RTVSPropertyOp8
 70
     1
102
RTVSPropertyOp9
 70
     1
102
RTVSPropertyOp10
 70
     1
102
RTVSPropertyOp11
 70
     1
102
RTVSPropertyOp12
 70
     1
102
RTVSPropertyOp13
 70
     1
102
RTVSPropertyOp14
 70
     1
102
RTVSPropertyOp15
 70
     1
102
RTVSPropertyOp16
 70
     1
102
RTVSPropertyOp17
 70
     1
102
RTVSPropertyOp18
 70
     1
102
RTVSPropertyOp19
 70
     1
102
RTVSPropertyOp20
 70
     1
102
RTVSPropertyOp21
 70
     1
102
RTVSPropertyOp22
 70
     1
102
RTVSPropertyOp23
 70
     1
102
RTVSPropertyOp24
 70
     1
102
RTVSPropertyOp25
 70
     1
102
RTVSPropertyOp26
 70
     1
102
RTVSPropertyOp27
 70
     1
  0
XRECORD
  5
26E
102
{ACAD_REACTORS
330
26D
102
}
330
26D
100
AcDbXrecord
280
     1
102
RTVSPropertyOp0
 70
     1
102
RTVSPropertyOp1
 70
     1
102
RTVSPropertyOp2
 70
     1
102
RTVSPropertyOp3
 70
     1
102
RTVSPropertyOp4
 70
     1
102
RTVSPropertyOp5
 70
     1
102
RTVSPropertyOp6
 70
     1
102
RTVSPropertyOp7
 70
     1
102
RTVSPropertyOp8
 70
     1
102
RTVSPropertyOp9
 70
     1
102
RTVSPropertyOp10
 70
     1
102
RTVSPropertyOp11
 70
     1
102
RTVSPropertyOp12
 70
     1
102
RTVSPropertyOp13
 70
     1
102
RTVSPropertyOp14
 70
     1
102
RTVSPropertyOp15
 70
     1
102
RTVSPropertyOp16
 70
     1
102
RTVSPropertyOp17
 70
     1
102
RTVSPropertyOp18
 70
     1
102
RTVSPropertyOp19
 70
     1
102
RTVSPropertyOp20
 70
     1
102
RTVSPropertyOp21
 70
     1
102
RTVSPropertyOp22
 70
     1
102
RTVSPropertyOp23
 70
     1
102
RTVSPropertyOp24
 70
     1
102
RTVSPropertyOp25
 70
     1
102
RTVSPropertyOp26
 70
     1
102
RTVSPropertyOp27
 70
     1
  0
XRECORD
  5
270
102
{ACAD_REACTORS
330
26F
102
}
330
26F
100
AcDbXrecord
280
     1
102
RTVSPropertyOp0
 70
     1
102
RTVSPropertyOp1
 70
     1
102
RTVSPropertyOp2
 70
     1
102
RTVSPropertyOp3
 70
     1
102
RTVSPropertyOp4
 70
     1
102
RTVSPropertyOp5
 70
     1
102
RTVSPropertyOp6
 70
     1
102
RTVSPropertyOp7
 70
     1
102
RTVSPropertyOp8
 70
     1
102
RTVSPropertyOp9
 70
     1
102
RTVSPropertyOp10
 70
     1
102
RTVSPropertyOp11
 70
     1
102
RTVSPropertyOp12
 70
     1
102
RTVSPropertyOp13
 70
     1
102
RTVSPropertyOp14
 70
     1
102
RTVSPropertyOp15
 70
     1
102
RTVSPropertyOp16
 70
     1
102
RTVSPropertyOp17
 70
     1
102
RTVSPropertyOp18
 70
     1
102
RTVSPropertyOp19
 70
     1
102
RTVSPropertyOp20
 70
     1
102
RTVSPropertyOp21
 70
     1
102
RTVSPropertyOp22
 70
     1
102
RTVSPropertyOp23
 70
     1
102
RTVSPropertyOp24
 70
     1
102
RTVSPropertyOp25
 70
     1
102
RTVSPropertyOp26
 70
     1
102
RTVSPropertyOp27
 70
     1
  0
XRECORD
  5
272
102
{ACAD_REACTORS
330
271
102
}
330
271
100
AcDbXrecord
280
     1
102
RTVSPropertyOp0
 70
     1
102
RTVSPropertyOp1
 70
     1
102
RTVSPropertyOp2
 70
     1
102
RTVSPropertyOp3
 70
     1
102
RTVSPropertyOp4
 70
     1
102
RTVSPropertyOp5
 70
     1
102
RTVSPropertyOp6
 70
     1
102
RTVSPropertyOp7
 70
     1
102
RTVSPropertyOp8
 70
     1
102
RTVSPropertyOp9
 70
     1
102
RTVSPropertyOp10
 70
     1
102
RTVSPropertyOp11
 70
     1
102
RTVSPropertyOp12
 70
     1
102
RTVSPropertyOp13
 70
     1
102
RTVSPropertyOp14
 70
     1
102
RTVSPropertyOp15
 70
     1
102
RTVSPropertyOp16
 70
     1
102
RTVSPropertyOp17
 70
     1
102
RTVSPropertyOp18
 70
     1
102
RTVSPropertyOp19
 70
     1
102
RTVSPropertyOp20
 70
     1
102
RTVSPropertyOp21
 70
     1
102
RTVSPropertyOp22
 70
     1
102
RTVSPropertyOp23
 70
     1
102
RTVSPropertyOp24
 70
     1
102
RTVSPropertyOp25
 70
     1
102
RTVSPropertyOp26
 70
     1
102
RTVSPropertyOp27
 70
     1
  0
XRECORD
  5
28C
102
{ACAD_REACTORS
330
28B
102
}
330
28B
100
AcDbXrecord
280
     1
102
RTVSPropertyOp0
 70
     0
102
RTVSPropertyOp1
 70
     0
102
RTVSPropertyOp2
 70
     0
102
RTVSPropertyOp3
 70
     0
102
RTVSPropertyOp4
 70
     0
102
RTVSPropertyOp5
 70
     0
102
RTVSPropertyOp6
 70
     0
102
RTVSPropertyOp7
 70
     0
102
RTVSPropertyOp8
 70
     0
102
RTVSPropertyOp9
 70
     0
102
RTVSPropertyOp10
 70
     0
102
RTVSPropertyOp11
 70
     0
102
RTVSPropertyOp12
 70
     0
102
RTVSPropertyOp13
 70
     0
102
RTVSPropertyOp14
 70
     2
102
RTVSPropertyOp15
 70
     0
102
RTVSPropertyOp16
 70
     0
102
RTVSPropertyOp17
 70
     0
102
RTVSPropertyOp18
 70
     0
102
RTVSPropertyOp19
 70
     0
102
RTVSPropertyOp20
 70
     0
102
RTVSPropertyOp21
 70
     0
102
RTVSPropertyOp22
 70
     0
102
RTVSPropertyOp23
 70
     0
102
RTVSPropertyOp24
 70
     0
102
RTVSPropertyOp25
 70
     0
102
RTVSPropertyOp26
 70
     0
102
RTVSPropertyOp27
 70
     0
  0
XRECORD
  5
286
102
{ACAD_REACTORS
330
285
102
}
330
285
100
AcDbXrecord
280
     1
102
RTVSPropertyOp0
 70
     1
102
RTVSPropertyOp1
 70
     1
102
RTVSPropertyOp2
 70
     1
102
RTVSPropertyOp3
 70
     1
102
RTVSPropertyOp4
 70
     1
102
RTVSPropertyOp5
 70
     1
102
RTVSPropertyOp6
 70
     1
102
RTVSPropertyOp7
 70
     1
102
RTVSPropertyOp8
 70
     1
102
RTVSPropertyOp9
 70
     1
102
RTVSPropertyOp10
 70
     1
102
RTVSPropertyOp11
 70
     1
102
RTVSPropertyOp12
 70
     1
102
RTVSPropertyOp13
 70
     1
102
RTVSPropertyOp14
 70
     1
102
RTVSPropertyOp15
 70
     1
102
RTVSPropertyOp16
 70
     1
102
RTVSPropertyOp17
 70
     1
102
RTVSPropertyOp18
 70
     1
102
RTVSPropertyOp19
 70
     1
102
RTVSPropertyOp20
 70
     1
102
RTVSPropertyOp21
 70
     1
102
RTVSPropertyOp22
 70
     1
102
RTVSPropertyOp23
 70
     1
102
RTVSPropertyOp24
 70
     1
102
RTVSPropertyOp25
 70
     1
102
RTVSPropertyOp26
 70
     1
102
RTVSPropertyOp27
 70
     1
  0
XRECORD
  5
28E
102
{ACAD_REACTORS
330
28D
102
}
330
28D
100
AcDbXrecord
280
     1
102
RTVSPropertyOp0
 70
     0
102
RTVSPropertyOp1
 70
     0
102
RTVSPropertyOp2
 70
     0
102
RTVSPropertyOp3
 70
     0
102
RTVSPropertyOp4
 70
     0
102
RTVSPropertyOp5
 70
     0
102
RTVSPropertyOp6
 70
     0
102
RTVSPropertyOp7
 70
     0
102
RTVSPropertyOp8
 70
     0
102
RTVSPropertyOp9
 70
     0
102
RTVSPropertyOp10
 70
     0
102
RTVSPropertyOp11
 70
     0
102
RTVSPropertyOp12
 70
     0
102
RTVSPropertyOp13
 70
     0
102
RTVSPropertyOp14
 70
     2
102
RTVSPropertyOp15
 70
     0
102
RTVSPropertyOp16
 70
     0
102
RTVSPropertyOp17
 70
     0
102
RTVSPropertyOp18
 70
     0
102
RTVSPropertyOp19
 70
     0
102
RTVSPropertyOp20
 70
     0
102
RTVSPropertyOp21
 70
     0
102
RTVSPropertyOp22
 70
     0
102
RTVSPropertyOp23
 70
     0
102
RTVSPropertyOp24
 70
     0
102
RTVSPropertyOp25
 70
     0
102
RTVSPropertyOp26
 70
     0
102
RTVSPropertyOp27
 70
     0
  0
XRECORD
  5
27E
102
{ACAD_REACTORS
330
27D
102
}
330
27D
100
AcDbXrecord
280
     1
102
RTVSPropertyOp0
 70
     1
102
RTVSPropertyOp1
 70
     1
102
RTVSPropertyOp2
 70
     1
102
RTVSPropertyOp3
 70
     1
102
RTVSPropertyOp4
 70
     1
102
RTVSPropertyOp5
 70
     1
102
RTVSPropertyOp6
 70
     1
102
RTVSPropertyOp7
 70
     1
102
RTVSPropertyOp8
 70
     1
102
RTVSPropertyOp9
 70
     1
102
RTVSPropertyOp10
 70
     1
102
RTVSPropertyOp11
 70
     1
102
RTVSPropertyOp12
 70
     1
102
RTVSPropertyOp13
 70
     1
102
RTVSPropertyOp14
 70
     1
102
RTVSPropertyOp15
 70
     1
102
RTVSPropertyOp16
 70
     1
102
RTVSPropertyOp17
 70
     1
102
RTVSPropertyOp18
 70
     1
102
RTVSPropertyOp19
 70
     1
102
RTVSPropertyOp20
 70
     1
102
RTVSPropertyOp21
 70
     1
102
RTVSPropertyOp22
 70
     1
102
RTVSPropertyOp23
 70
     1
102
RTVSPropertyOp24
 70
     1
102
RTVSPropertyOp25
 70
     1
102
RTVSPropertyOp26
 70
     1
102
RTVSPropertyOp27
 70
     1
  0
XRECORD
  5
284
102
{ACAD_REACTORS
330
283
102
}
330
283
100
AcDbXrecord
280
     1
102
RTVSPropertyOp0
 70
     1
102
RTVSPropertyOp1
 70
     1
102
RTVSPropertyOp2
 70
     1
102
RTVSPropertyOp3
 70
     1
102
RTVSPropertyOp4
 70
     1
102
RTVSPropertyOp5
 70
     1
102
RTVSPropertyOp6
 70
     1
102
RTVSPropertyOp7
 70
     1
102
RTVSPropertyOp8
 70
     1
102
RTVSPropertyOp9
 70
     1
102
RTVSPropertyOp10
 70
     1
102
RTVSPropertyOp11
 70
     1
102
RTVSPropertyOp12
 70
     1
102
RTVSPropertyOp13
 70
     1
102
RTVSPropertyOp14
 70
     1
102
RTVSPropertyOp15
 70
     1
102
RTVSPropertyOp16
 70
     1
102
RTVSPropertyOp17
 70
     1
102
RTVSPropertyOp18
 70
     1
102
RTVSPropertyOp19
 70
     1
102
RTVSPropertyOp20
 70
     1
102
RTVSPropertyOp21
 70
     1
102
RTVSPropertyOp22
 70
     1
102
RTVSPropertyOp23
 70
     1
102
RTVSPropertyOp24
 70
     1
102
RTVSPropertyOp25
 70
     1
102
RTVSPropertyOp26
 70
     1
102
RTVSPropertyOp27
 70
     1
  0
ENDSEC
  0
EOF
