  0
SECTION
  2
HEADER
  9
$ACADVER
  1
AC1015
  9
$ACADMAINTVER
 70
    20
  9
$DWGCODEPAGE
  3
ANSI_1252
  9
$INSBASE
 10
0.0
 20
0.0
 30
0.0
  9
$EXTMIN
 10
4807.157730007459
 20
1095.957807166381
 30
0.0
  9
$EXTMAX
 10
4807.564279664241
 20
1096.037807166382
 30
0.0
  9
$LIMMIN
 10
0.0
 20
0.0
  9
$LIMMAX
 10
420.0
 20
297.0
  9
$ORTHOMODE
 70
     0
  9
$REGENMODE
 70
     1
  9
$FILLMODE
 70
     1
  9
$QTEXTMODE
 70
     0
  9
$MIRRTEXT
 70
     1
  9
$LTSCALE
 40
0.1
  9
$ATTMODE
 70
     1
  9
$TEXTSIZE
 40
2.5
  9
$TRACEWID
 40
1.0
  9
$TEXTSTYLE
  7
SANINDUSA
  9
$CLAYER
  8
cotas
  9
$CELTYPE
  6
ByLayer
  9
$CECOLOR
 62
   256
  9
$CELTSCALE
 40
1.0
  9
$DISPSILH
 70
     0
  9
$DIMSCALE
 40
1.0
  9
$DIMASZ
 40
2.0
  9
$DIMEXO
 40
1.0
  9
$DIMDLI
 40
1.0
  9
$DIMRND
 40
0.0
  9
$DIMDLE
 40
0.0
  9
$DIMEXE
 40
1.0
  9
$DIMTP
 40
0.0
  9
$DIMTM
 40
0.0
  9
$DIMTXT
 40
2.0
  9
$DIMCEN
 40
0.0
  9
$DIMTSZ
 40
0.0
  9
$DIMTOL
 70
     0
  9
$DIMLIM
 70
     0
  9
$DIMTIH
 70
     0
  9
$DIMTOH
 70
     0
  9
$DIMSE1
 70
     0
  9
$DIMSE2
 70
     0
  9
$DIMTAD
 70
     1
  9
$DIMZIN
 70
     8
  9
$DIMBLK
  1

  9
$DIMASO
 70
     1
  9
$DIMSHO
 70
     1
  9
$DIMPOST
  1

  9
$DIMAPOST
  1

  9
$DIMALT
 70
     0
  9
$DIMALTD
 70
     3
  9
$DIMALTF
 40
0.03937007874016
  9
$DIMLFAC
 40
10.0
  9
$DIMTOFL
 70
     1
  9
$DIMTVP
 40
0.0
  9
$DIMTIX
 70
     0
  9
$DIMSOXD
 70
     0
  9
$DIMSAH
 70
     0
  9
$DIMBLK1
  1

  9
$DIMBLK2
  1

  9
$DIMSTYLE
  2
SANINDUSA
  9
$DIMCLRD
 70
   256
  9
$DIMCLRE
 70
   256
  9
$DIMCLRT
 70
   256
  9
$DIMTFAC
 40
1.0
  9
$DIMGAP
 40
1.0
  9
$DIMJUST
 70
     0
  9
$DIMSD1
 70
     0
  9
$DIMSD2
 70
     0
  9
$DIMTOLJ
 70
     0
  9
$DIMTZIN
 70
     8
  9
$DIMALTZ
 70
     0
  9
$DIMALTTZ
 70
     0
  9
$DIMUPT
 70
     0
  9
$DIMDEC
 70
     1
  9
$DIMTDEC
 70
     1
  9
$DIMALTU
 70
     2
  9
$DIMALTTD
 70
     3
  9
$DIMTXSTY
  7
SANINDUSA
  9
$DIMAUNIT
 70
     0
  9
$DIMADEC
 70
     1
  9
$DIMALTRND
 40
0.0
  9
$DIMAZIN
 70
     0
  9
$DIMDSEP
 70
    44
  9
$DIMATFIT
 70
     3
  9
$DIMFRAC
 70
     0
  9
$DIMLDRBLK
  1

  9
$DIMLUNIT
 70
     2
  9
$DIMLWD
 70
    -1
  9
$DIMLWE
 70
    -1
  9
$DIMTMOVE
 70
     0
  9
$LUNITS
 70
     2
  9
$LUPREC
 70
     4
  9
$SKETCHINC
 40
1.0
  9
$FILLETRAD
 40
0.0
  9
$AUNITS
 70
     0
  9
$AUPREC
 70
     0
  9
$MENU
  1
.
  9
$ELEVATION
 40
0.0
  9
$PELEVATION
 40
0.0
  9
$THICKNESS
 40
0.0
  9
$LIMCHECK
 70
     0
  9
$CHAMFERA
 40
10.0
  9
$CHAMFERB
 40
10.0
  9
$CHAMFERC
 40
20.0
  9
$CHAMFERD
 40
0.0
  9
$SKPOLY
 70
     0
  9
$TDCREATE
 40
2453154.503405486
  9
$TDUCREATE
 40
2453154.461738819
  9
$TDUPDATE
 40
2456146.645344329
  9
$TDUUPDATE
 40
2456146.603677662
  9
$TDINDWG
 40
0.1645425000
  9
$TDUSRTIMER
 40
0.1645425000
  9
$USRTIMER
 70
     1
  9
$ANGBASE
 50
0.0
  9
$ANGDIR
 70
     0
  9
$PDMODE
 70
     0
  9
$PDSIZE
 40
0.0
  9
$PLINEWID
 40
0.0
  9
$SPLFRAME
 70
     0
  9
$SPLINETYPE
 70
     6
  9
$SPLINESEGS
 70
     8
  9
$HANDSEED
  5
6618
  9
$SURFTAB1
 70
     6
  9
$SURFTAB2
 70
     6
  9
$SURFTYPE
 70
     6
  9
$SURFU
 70
     6
  9
$SURFV
 70
     6
  9
$UCSBASE
  2

  9
$UCSNAME
  2

  9
$UCSORG
 10
0.0
 20
0.0
 30
0.0
  9
$UCSXDIR
 10
1.0
 20
0.0
 30
0.0
  9
$UCSYDIR
 10
0.0
 20
1.0
 30
0.0
  9
$UCSORTHOREF
  2

  9
$UCSORTHOVIEW
 70
     0
  9
$UCSORGTOP
 10
0.0
 20
0.0
 30
0.0
  9
$UCSORGBOTTOM
 10
0.0
 20
0.0
 30
0.0
  9
$UCSORGLEFT
 10
0.0
 20
0.0
 30
0.0
  9
$UCSORGRIGHT
 10
0.0
 20
0.0
 30
0.0
  9
$UCSORGFRONT
 10
0.0
 20
0.0
 30
0.0
  9
$UCSORGBACK
 10
0.0
 20
0.0
 30
0.0
  9
$PUCSBASE
  2

  9
$PUCSNAME
  2

  9
$PUCSORG
 10
0.0
 20
0.0
 30
0.0
  9
$PUCSXDIR
 10
1.0
 20
0.0
 30
0.0
  9
$PUCSYDIR
 10
0.0
 20
1.0
 30
0.0
  9
$PUCSORTHOREF
  2

  9
$PUCSORTHOVIEW
 70
     0
  9
$PUCSORGTOP
 10
0.0
 20
0.0
 30
0.0
  9
$PUCSORGBOTTOM
 10
0.0
 20
0.0
 30
0.0
  9
$PUCSORGLEFT
 10
0.0
 20
0.0
 30
0.0
  9
$PUCSORGRIGHT
 10
0.0
 20
0.0
 30
0.0
  9
$PUCSORGFRONT
 10
0.0
 20
0.0
 30
0.0
  9
$PUCSORGBACK
 10
0.0
 20
0.0
 30
0.0
  9
$USERI1
 70
     0
  9
$USERI2
 70
     0
  9
$USERI3
 70
     0
  9
$USERI4
 70
     0
  9
$USERI5
 70
     0
  9
$USERR1
 40
0.0
  9
$USERR2
 40
0.0
  9
$USERR3
 40
0.0
  9
$USERR4
 40
0.0
  9
$USERR5
 40
0.0
  9
$WORLDVIEW
 70
     1
  9
$SHADEDGE
 70
     3
  9
$SHADEDIF
 70
    70
  9
$TILEMODE
 70
     1
  9
$MAXACTVP
 70
    64
  9
$PINSBASE
 10
0.0
 20
0.0
 30
0.0
  9
$PLIMCHECK
 70
     0
  9
$PEXTMIN
 10
1.000000000000000E+20
 20
1.000000000000000E+20
 30
1.000000000000000E+20
  9
$PEXTMAX
 10
-1.000000000000000E+20
 20
-1.000000000000000E+20
 30
-1.000000000000000E+20
  9
$PLIMMIN
 10
0.0
 20
0.0
  9
$PLIMMAX
 10
420.0
 20
297.0
  9
$UNITMODE
 70
     0
  9
$VISRETAIN
 70
     1
  9
$PLINEGEN
 70
     0
  9
$PSLTSCALE
 70
     1
  9
$TREEDEPTH
 70
  3020
  9
$CMLSTYLE
  2
Standard
  9
$CMLJUST
 70
     0
  9
$CMLSCALE
 40
20.0
  9
$PROXYGRAPHICS
 70
     1
  9
$MEASUREMENT
 70
     1
  9
$CELWEIGHT
370
    -1
  9
$ENDCAPS
280
     0
  9
$JOINSTYLE
280
     0
  9
$LWDISPLAY
290
     0
  9
$INSUNITS
 70
     4
  9
$HYPERLINKBASE
  1

  9
$STYLESHEET
  1
monochrome.ctb
  9
$XEDIT
290
     1
  9
$CEPSNTYPE
380
     0
  9
$PSTYLEMODE
290
     1
  9
$FINGERPRINTGUID
  2
{B98A73AA-52AA-4C10-B469-C0E7150AC31F}
  9
$VERSIONGUID
  2
{62F07EFE-C5C9-4EE6-B903-6F88FCA649F1}
  9
$EXTNAMES
290
     1
  9
$PSVPSCALE
 40
0.0
  9
$OLESTARTUP
290
     0
  0
ENDSEC
  0
SECTION
  2
CLASSES
  0
CLASS
  1
ACDBDICTIONARYWDFLT
  2
AcDbDictionaryWithDefault
  3
ObjectDBX Classes
 90
        0
280
     0
281
     0
  0
CLASS
  1
ACDBPLACEHOLDER
  2
AcDbPlaceHolder
  3
ObjectDBX Classes
 90
        0
280
     0
281
     0
  0
CLASS
  1
LAYOUT
  2
AcDbLayout
  3
ObjectDBX Classes
 90
        0
280
     0
281
     0
  0
CLASS
  1
DICTIONARYVAR
  2
AcDbDictionaryVar
  3
ObjectDBX Classes
 90
        0
280
     0
281
     0
  0
CLASS
  1
DIMASSOC
  2
AcDbDimAssoc
  3
"AcDbDimAssoc|Product Desc:     AcDim ARX App For Dimension|Company:          Autodesk, Inc.|WEB Address:      www.autodesk.com"
 90
    32768
280
     0
281
     0
  0
CLASS
  1
MATERIAL
  2
AcDbMaterial
  3
ObjectDBX Classes
 90
     1153
280
     0
281
     0
  0
CLASS
  1
VISUALSTYLE
  2
AcDbVisualStyle
  3
ObjectDBX Classes
 90
     4095
280
     0
281
     0
  0
CLASS
  1
TABLESTYLE
  2
AcDbTableStyle
  3
ObjectDBX Classes
 90
     4095
280
     0
281
     0
  0
CLASS
  1
SCALE
  2
AcDbScale
  3
ObjectDBX Classes
 90
     1153
280
     0
281
     0
  0
CLASS
  1
MLEADERSTYLE
  2
AcDbMLeaderStyle
  3
ACDB_MLEADERSTYLE_CLASS
 90
     4095
280
     0
281
     0
  0
CLASS
  1
CELLSTYLEMAP
  2
AcDbCellStyleMap
  3
ObjectDBX Classes
 90
     1152
280
     0
281
     0
  0
ENDSEC
  0
SECTION
  2
TABLES
  0
TABLE
  2
VPORT
  5
8
330
0
100
AcDbSymbolTable
 70
     1
  0
VPORT
  5
656E
330
8
100
AcDbSymbolTableRecord
100
AcDbViewportTableRecord
  2
*Active
 70
     0
 10
0.0
 20
0.0
 11
1.0
 21
1.0
 12
4807.369515658105
 22
1095.997807166381
 13
0.0
 23
0.0
 14
10.0
 24
10.0
 15
10.0
 25
10.0
 16
0.0
 26
0.0
 36
1.0
 17
0.0
 27
0.0
 37
0.0
 40
0.258356041333067
 41
1.645464025026068
 42
50.0
 43
0.0
 44
0.0
 50
0.0
 51
0.0
 71
     0
 72
   100
 73
     1
 74
     2
 75
     0
 76
     0
 77
     0
 78
     0
281
     0
 65
     1
110
0.0
120
0.0
130
0.0
111
1.0
121
0.0
131
0.0
112
0.0
122
1.0
132
0.0
 79
     0
146
0.0
  0
ENDTAB
  0
TABLE
  2
LTYPE
  5
5
330
0
100
AcDbSymbolTable
 70
     4
  0
LTYPE
  5
14
330
5
100
AcDbSymbolTableRecord
100
AcDbLinetypeTableRecord
  2
ByBlock
 70
     0
  3

 72
    65
 73
     0
 40
0.0
  0
LTYPE
  5
15
330
5
100
AcDbSymbolTableRecord
100
AcDbLinetypeTableRecord
  2
ByLayer
 70
     0
  3

 72
    65
 73
     0
 40
0.0
  0
LTYPE
  5
16
330
5
100
AcDbSymbolTableRecord
100
AcDbLinetypeTableRecord
  2
Continuous
 70
     0
  3
Solid line
 72
    65
 73
     0
 40
0.0
  0
LTYPE
  5
2D
330
5
100
AcDbSymbolTableRecord
100
AcDbLinetypeTableRecord
  2
DASHDOT
 70
     0
  3
Dash dot __ . __ . __ . __ . __ . __ . __ . __
 72
    65
 73
     4
 40
25.4
 49
12.7
 74
     0
 49
-6.349999999999999
 74
     0
 49
0.0
 74
     0
 49
-6.349999999999999
 74
     0
  0
LTYPE
  5
2E
330
5
100
AcDbSymbolTableRecord
100
AcDbLinetypeTableRecord
  2
HIDDEN
 70
     0
  3
Hidden __ __ __ __ __ __ __ __ __ __ __ __ __ _
 72
    65
 73
     2
 40
9.524999999999998
 49
6.349999999999999
 74
     0
 49
-3.174999999999999
 74
     0
  0
LTYPE
  5
BCD
330
5
100
AcDbSymbolTableRecord
100
AcDbLinetypeTableRecord
  2
CENTER
 70
     0
  3
Center ____ _ ____ _ ____ _ ____ _ ____ _ ____
 72
    65
 73
     4
 40
10.16
 49
6.349999999999999
 74
     0
 49
-1.27
 74
     0
 49
1.27
 74
     0
 49
-1.27
 74
     0
  0
ENDTAB
  0
TABLE
  2
LAYER
  5
2
330
0
100
AcDbSymbolTable
 70
    18
  0
LAYER
  5
10
102
{ACAD_XDICTIONARY
360
65B9
102
}
330
2
100
AcDbSymbolTableRecord
100
AcDbLayerTableRecord
  2
0
 70
     0
 62
     7
  6
Continuous
370
    -3
390
F
  0
LAYER
  5
2F
102
{ACAD_XDICTIONARY
360
65BB
102
}
330
2
100
AcDbSymbolTableRecord
100
AcDbLayerTableRecord
  2
1
 70
     0
 62
     1
  6
Continuous
370
    -3
390
F
  0
LAYER
  5
30
102
{ACAD_XDICTIONARY
360
65BD
102
}
330
2
100
AcDbSymbolTableRecord
100
AcDbLayerTableRecord
  2
2
 70
     0
 62
     2
  6
Continuous
370
    -3
390
F
  0
LAYER
  5
31
102
{ACAD_XDICTIONARY
360
65BF
102
}
330
2
100
AcDbSymbolTableRecord
100
AcDbLayerTableRecord
  2
3
 70
     0
 62
     3
  6
Continuous
370
    -3
390
F
  0
LAYER
  5
32
102
{ACAD_XDICTIONARY
360
65C1
102
}
330
2
100
AcDbSymbolTableRecord
100
AcDbLayerTableRecord
  2
4
 70
     0
 62
     4
  6
Continuous
370
    -3
390
F
  0
LAYER
  5
33
102
{ACAD_XDICTIONARY
360
65C3
102
}
330
2
100
AcDbSymbolTableRecord
100
AcDbLayerTableRecord
  2
5
 70
     0
 62
     5
  6
Continuous
370
    -3
390
F
  0
LAYER
  5
34
102
{ACAD_XDICTIONARY
360
65C5
102
}
330
2
100
AcDbSymbolTableRecord
100
AcDbLayerTableRecord
  2
6
 70
     0
 62
     6
  6
Continuous
370
    -3
390
F
  0
LAYER
  5
35
102
{ACAD_XDICTIONARY
360
65C7
102
}
330
2
100
AcDbSymbolTableRecord
100
AcDbLayerTableRecord
  2
7
 70
     0
 62
     7
  6
Continuous
370
    -3
390
F
  0
LAYER
  5
36
102
{ACAD_XDICTIONARY
360
65C9
102
}
330
2
100
AcDbSymbolTableRecord
100
AcDbLayerTableRecord
  2
cen
 70
     0
 62
     7
  6
DASHDOT
370
    -3
390
F
  0
LAYER
  5
37
102
{ACAD_XDICTIONARY
360
65CB
102
}
330
2
100
AcDbSymbolTableRecord
100
AcDbLayerTableRecord
  2
hid
 70
     0
 62
     7
  6
HIDDEN
370
    -3
390
F
  0
LAYER
  5
5D6
102
{ACAD_XDICTIONARY
360
65CD
102
}
330
2
100
AcDbSymbolTableRecord
100
AcDbLayerTableRecord
  2
hatch
 70
     0
 62
     9
  6
Continuous
370
    -3
390
F
  0
LAYER
  5
8AF
102
{ACAD_XDICTIONARY
360
65CF
102
}
330
2
100
AcDbSymbolTableRecord
100
AcDbLayerTableRecord
  2
9
 70
     0
 62
     9
  6
Continuous
370
    -3
390
F
  0
LAYER
  5
8F8
102
{ACAD_XDICTIONARY
360
65D1
102
}
330
2
100
AcDbSymbolTableRecord
100
AcDbLayerTableRecord
  2
leg fin
 70
     0
 62
     9
  6
Continuous
370
    -3
390
F
  0
LAYER
  5
91D
102
{ACAD_XDICTIONARY
360
65D3
102
}
330
2
100
AcDbSymbolTableRecord
100
AcDbLayerTableRecord
  2
cotas
 70
     0
 62
     1
  6
Continuous
370
    -3
390
F
  0
LAYER
  5
92F
330
2
100
AcDbSymbolTableRecord
100
AcDbLayerTableRecord
  2
Defpoints
 70
     0
 62
     7
  6
Continuous
290
     0
370
    -3
390
F
  0
LAYER
  5
BA2
102
{ACAD_XDICTIONARY
360
65D5
102
}
330
2
100
AcDbSymbolTableRecord
100
AcDbLayerTableRecord
  2
Sanindusa
 70
     0
 62
     3
  6
Continuous
370
    -3
390
F
  0
LAYER
  5
49F6
102
{ACAD_XDICTIONARY
360
65D7
102
}
330
2
100
AcDbSymbolTableRecord
100
AcDbLayerTableRecord
  2
INDUSA
 70
     0
 62
     3
  6
Continuous
370
    -3
390
F
  0
LAYER
  5
49F7
102
{ACAD_XDICTIONARY
360
65D9
102
}
330
2
100
AcDbSymbolTableRecord
100
AcDbLayerTableRecord
  2
INDUSA CEN
 70
     0
 62
     9
  6
CENTER
370
    -3
390
F
  0
ENDTAB
  0
TABLE
  2
STYLE
  5
3
330
0
100
AcDbSymbolTable
 70
     3
  0
STYLE
  5
11
330
3
100
AcDbSymbolTableRecord
100
AcDbTextStyleTableRecord
  2
Standard
 70
     0
 40
0.0
 41
1.0
 50
0.0
 71
     0
 42
2.5
  3
Avgardn.ttf
  4

1001
ACAD
1000
AvantGarde Bk BT
1071
       34
  0
STYLE
  5
2C
330
3
100
AcDbSymbolTableRecord
100
AcDbTextStyleTableRecord
  2

 70
     1
 40
0.0
 41
1.0
 50
0.0
 71
     0
 42
2.5
  3
ltypeshp.shx
  4

  0
STYLE
  5
91F
330
3
100
AcDbSymbolTableRecord
100
AcDbTextStyleTableRecord
  2
SANINDUSA
 70
     0
 40
0.0
 41
1.0
 50
0.0
 71
     0
 42
2.5
  3
verdana.TTF
  4

1001
ACAD
1000
Verdana
1071
       34
  0
ENDTAB
  0
TABLE
  2
VIEW
  5
6
330
0
100
AcDbSymbolTable
 70
     0
  0
ENDTAB
  0
TABLE
  2
UCS
  5
7
330
0
100
AcDbSymbolTable
 70
     0
  0
ENDTAB
  0
TABLE
  2
APPID
  5
9
330
0
100
AcDbSymbolTable
 70
     3
  0
APPID
  5
12
330
9
100
AcDbSymbolTableRecord
100
AcDbRegAppTableRecord
  2
ACAD
 70
     0
  0
APPID
  5
3A
330
9
100
AcDbSymbolTableRecord
100
AcDbRegAppTableRecord
  2
DCO15
 70
     0
  0
APPID
  5
6617
330
9
100
AcDbSymbolTableRecord
100
AcDbRegAppTableRecord
  2
ACAD_MLEADERVER
 70
     0
  0
ENDTAB
  0
TABLE
  2
DIMSTYLE
  5
A
330
0
100
AcDbSymbolTable
 70
     3
100
AcDbDimStyleTable
 71
     1
340
921
  0
DIMSTYLE
105
45
330
A
100
AcDbSymbolTableRecord
100
AcDbDimStyleTableRecord
  2
STANDARD
 70
     0
289
     0
340
11
  0
DIMSTYLE
105
921
330
A
100
AcDbSymbolTableRecord
100
AcDbDimStyleTableRecord
  2
SANINDUSA
 70
     0
 41
2.0
 42
1.0
 43
1.0
 44
1.0
 73
     0
 74
     0
 77
     1
 78
     8
140
2.0
141
0.0
143
0.03937007874016
147
1.0
171
     3
172
     1
176
   256
177
   256
178
   256
179
     1
271
     1
272
     1
274
     3
278
    44
283
     0
284
     8
340
91F
371
    -1
372
    -1
  0
DIMSTYLE
105
49F8
330
A
100
AcDbSymbolTableRecord
100
AcDbDimStyleTableRecord
  2
ISO-25
 70
     0
 41
2.5
 42
0.625
 43
3.75
 44
1.25
 73
     0
 74
     0
 77
     1
 78
     8
140
2.5
141
2.5
143
0.03937007874016
147
0.625
171
     3
172
     1
271
     2
272
     2
274
     3
278
    44
283
     0
284
     8
340
11
  0
ENDTAB
  0
TABLE
  2
BLOCK_RECORD
  5
1
330
0
100
AcDbSymbolTable
 70
    25
  0
BLOCK_RECORD
  5
1F
330
1
100
AcDbSymbolTableRecord
100
AcDbBlockTableRecord
  2
*Model_Space
340
22
  0
BLOCK_RECORD
  5
1B
330
1
100
AcDbSymbolTableRecord
100
AcDbBlockTableRecord
  2
*Paper_Space
340
1E
  0
BLOCK_RECORD
  5
23
330
1
100
AcDbSymbolTableRecord
100
AcDbBlockTableRecord
  2
*Paper_Space0
340
26
  0
BLOCK_RECORD
  5
919
330
1
100
AcDbSymbolTableRecord
100
AcDbBlockTableRecord
  2
_DotSmall
340
0
  0
BLOCK_RECORD
  5
922
330
1
100
AcDbSymbolTableRecord
100
AcDbBlockTableRecord
  2
base para cotas
340
0
310
2800000020000000200000000100080000000000000400000000000000000000000000000000000000000000000080000080000000808000800000008000800080800000C0C0C000C0DCC000F0CAA6000020400000206000002080000020A0000020C0000020E00000400000004020000040400000406000004080000040A0
310
000040C0000040E00000600000006020000060400000606000006080000060A0000060C0000060E00000800000008020000080400000806000008080000080A0000080C0000080E00000A0000000A0200000A0400000A0600000A0800000A0A00000A0C00000A0E00000C0000000C0200000C0400000C0600000C0800000C0
310
A00000C0C00000C0E00000E0000000E0200000E0400000E0600000E0800000E0A00000E0C00000E0E00040000000400020004000400040006000400080004000A0004000C0004000E00040200000402020004020400040206000402080004020A0004020C0004020E000404000004040200040404000404060004040800040
310
40A0004040C0004040E00040600000406020004060400040606000406080004060A0004060C0004060E00040800000408020004080400040806000408080004080A0004080C0004080E00040A0000040A0200040A0400040A0600040A0800040A0A00040A0C00040A0E00040C0000040C0200040C0400040C0600040C08000
310
40C0A00040C0C00040C0E00040E0000040E0200040E0400040E0600040E0800040E0A00040E0C00040E0E00080000000800020008000400080006000800080008000A0008000C0008000E00080200000802020008020400080206000802080008020A0008020C0008020E00080400000804020008040400080406000804080
310
008040A0008040C0008040E00080600000806020008060400080606000806080008060A0008060C0008060E00080800000808020008080400080806000808080008080A0008080C0008080E00080A0000080A0200080A0400080A0600080A0800080A0A00080A0C00080A0E00080C0000080C0200080C0400080C0600080C0
310
800080C0A00080C0C00080C0E00080E0000080E0200080E0400080E0600080E0800080E0A00080E0C00080E0E000C0000000C0002000C0004000C0006000C0008000C000A000C000C000C000E000C0200000C0202000C0204000C0206000C0208000C020A000C020C000C020E000C0400000C0402000C0404000C0406000C0
310
408000C040A000C040C000C040E000C0600000C0602000C0604000C0606000C0608000C060A000C060C000C060E000C0800000C0802000C0804000C0806000C0808000C080A000C080C000C080E000C0A00000C0A02000C0A04000C0A06000C0A08000C0A0A000C0A0C000C0A0E000C0C00000C0C02000C0C04000C0C06000
310
C0C08000C0C0A000F0FBFF00A4A0A000808080000000FF0000FF000000FFFF00FF000000FF00FF00FFFF0000FFFFFF00A4A4A4A4A4A4A4A4A4A4A4A4A4A4A4A4A4A4A4A4A4A4A4A4A4A4A4A4A4A4A4A4A4A4A4A4A4A4A4A4A4A4A4A4A4A4A4A4A4A4A4A4A4A4A4A4A4A4A4A4A4A4A4A4A4A4A4A4A4A4A4A4A4A4A4A4A4A4A4
310
A4A4A4A4A4A4A4A4A4A4A4A4A4A4A4A4A4A4A4A4A4A4A4A4A4A4A4A4A4A4A4A4A4A4A4A4A4A4A4A4A4A4A4A4A4A4A4A4A4A4A4A4A4A4A4A4A4A4A4A4A4A4A4A4A4A4A4A4A4A4A4A4A4A4A4A4A4A4A4A4A4A4A4A4A4A4A4A4A4A4A4A4A4A4A4A4A4A4A4A4A4A4A4A4A4A4A4A4A4A4A4A4A4A4A4A4A4A4A4A4A4A4A4A4A4A4A4
310
A4A4A4A4A4A4A4A4A4A4A4A4A4A4A4A4A4A4A4A4A4A4A4A4A4A4A4A4A4A4A4A4A4A4A4A4A4A4A4A4A4A4A4A4A4A4A4A4A4A4A4A4A4A4A4A4A4A4A4A4A4A4A4A4A4A4A4A4A4A4A4A4A4A4A4A4A4A4A4A4A4A4A4A4A4A4A4A4A4A4A4A4A4A4A4A4A4A4A4A4A4A4A4A4A4A4A4A4A4A4A4A4A4A4A4A4A4A4A4A4A4A4A4A4A4A4A4
310
A4A4A4A4A4A4A4A4A4A4A4A4A4A4A4A4A4A4A4A4A4A4A4A4A4A4A4A4A4A4A4A4A4A4A4A4A4A4A4A4A4A4A4A4A4A4A4A4A4A4A4A4A4A4A4A4A4A4A4A4A4A4A4A4A4A4A4A4A4A4A4A4A4A4A4A4A4A4A4A4A4A4A4A4A4A4A4A4A4A4A4A4A4A4A4A4A4A4A4A4A4A4A4A4A4A4A4A4A4A4A4A4A4A4A4A4F9F9F9F9F9F9F9F9F9F9F9
310
F9F9F9F9F9F9F9F9F9F9F9F9F9F9F9F9F9F9F9A4A4F9F9F9F9F9F9F9F9F9F9F9F9F9F9F9F9F9F9F9F9F9F9F9F9F9F9F9F9F9F9A4A4F9F9F9F9F9F9F9F9F9F9F9F9F9F9F9F9F9F9F9F9F9F9F9F9F9F9F9F9F9F9A4A4F9A4A4A4A4A4A4A4A4A4A4A4A4A4A4A4A4A4A4A4A4A4A4A4A4A4A4A4A4F9A4A4A4A4A4A4A4A4A4A4A4A4
310
A4A4A4A4A4A4A4A4A4A4A4A4A4A4A4A4A4A4A4A4A4A4A4A4A4A4A4A4A4A4A4A4A4A4A4A4A4A4A4A4A4A4A4A4A4A4A4A4A4A4A4A4A4A4A4A4A4A4A4A4A4A4A4A4A4A4A4A4A4A4A4A4A4A4A4A4A4A4A4A4A4A4A4A4A4A4A4A4A4A4A4A4A4A4A4A4A4A4A4A4A4A4A4A4A4A4A4A4A4A4A4A4A4A4A4A4A4A4A4A4A4A4A4A4A4A4A4
310
A4A4A4A4A4A4A4A4A4A4A4A4A4A4A4A4A4A4A4A4A4A4A4A4A4A4A4A4A4A4A4A4A4A4A4A4A4A4A4A4A4A4A4A4A4A4A4A4A4A4A4A4A4A4A4A4A4A4A4A4A4A4A4A4A4A4A4A4A4A4A4A4A4A4A4A4A4A4A4A4A4A4A4A4A4A4A4A4A4A4A4A4A4A4A4A4A4A4A4A4A4A4A4A4A4A4A4A4A4A4A4A4A4A4A4A4A4A4A4A4A4A4A4A4A4A4A4
310
A4A4A4A4A4A4A4A4A4A4A4A4A4A4A4A4A4A4A4A4A4A4A4A4A4A4A4A4A4A4A4A4A4A4A4A4A4A4A4A4A4A4A4A4A4A4A4A4A4A4A4A4A4A4A4A4A4A4A4A4A4A4A4A4A4A4A4A4A4A4A4A4A4A4A4A4A4A4A4A4A4A4A4A4A4A4A4A4A4A4A4A4A4A4A4A4A4A4A4A4A4A4A4A4A4A4A4A4A4A4A4A4A4A4A4A4A4A4A4A4A4A4A4A4A4A4A4
310
A4A4A4A4A4A4A4A4A4A4A4A4A4A4A4A4A4A4A4A4A4A4A4A4A4A4A4A4A4A4A4A4A4A4A4A4A4A4A4A4A4A4A4A4A4A4A4A4A4A4A4A4A4A4A4A4
1001
ACAD
1000
DesignCenter Data
1002
{
1070
     1
1070
     4
1002
}
  0
BLOCK_RECORD
  5
AA8
330
1
100
AcDbSymbolTableRecord
100
AcDbBlockTableRecord
  2
_CLOSED
340
0
  0
BLOCK_RECORD
  5
BAA
330
1
100
AcDbSymbolTableRecord
100
AcDbBlockTableRecord
  2
SW_CENTERMARK1
340
0
  0
BLOCK_RECORD
  5
BB1
330
1
100
AcDbSymbolTableRecord
100
AcDbBlockTableRecord
  2
SW_CENTERMARK3
340
0
  0
BLOCK_RECORD
  5
BB8
330
1
100
AcDbSymbolTableRecord
100
AcDbBlockTableRecord
  2
SW_CENTERMARK4
340
0
  0
BLOCK_RECORD
  5
BBF
330
1
100
AcDbSymbolTableRecord
100
AcDbBlockTableRecord
  2
SW_CENTERMARK5
340
0
  0
BLOCK_RECORD
  5
BC6
330
1
100
AcDbSymbolTableRecord
100
AcDbBlockTableRecord
  2
SW_CENTERMARK6
340
0
  0
ENDTAB
  0
ENDSEC
  0
SECTION
  2
BLOCKS
  0
BLOCK
  5
20
330
1F
100
AcDbEntity
  8
0
100
AcDbBlockBegin
  2
*Model_Space
 70
     0
 10
0.0
 20
0.0
 30
0.0
  3
*Model_Space
  1

  0
ENDBLK
  5
21
330
1F
100
AcDbEntity
  8
0
100
AcDbBlockEnd
  0
BLOCK
  5
1C
330
1B
100
AcDbEntity
 67
     1
  8
0
100
AcDbBlockBegin
  2
*Paper_Space
 70
     0
 10
0.0
 20
0.0
 30
0.0
  3
*Paper_Space
  1

  0
ENDBLK
  5
1D
330
1B
100
AcDbEntity
 67
     1
  8
0
100
AcDbBlockEnd
  0
BLOCK
  5
24
330
23
100
AcDbEntity
 67
     1
  8
0
100
AcDbBlockBegin
  2
*Paper_Space0
 70
     0
 10
0.0
 20
0.0
 30
0.0
  3
*Paper_Space0
  1

  0
ENDBLK
  5
25
330
23
100
AcDbEntity
 67
     1
  8
0
100
AcDbBlockEnd
  0
BLOCK
  5
91B
330
919
100
AcDbEntity
  8
0
100
AcDbBlockBegin
  2
_DotSmall
 70
     0
 10
0.0
 20
0.0
 30
0.0
  3
_DotSmall
  1

  0
LWPOLYLINE
  5
91A
330
919
100
AcDbEntity
  8
0
  6
ByBlock
 62
     0
100
AcDbPolyline
 90
        2
 70
     1
 43
0.5
 10
-0.0625
 20
0.0
 42
1.0
 10
0.0625
 20
0.0
 42
1.0
  0
ENDBLK
  5
91C
330
919
100
AcDbEntity
  8
0
100
AcDbBlockEnd
  0
BLOCK
  5
92A
330
922
100
AcDbEntity
  8
0
100
AcDbBlockBegin
  2
base para cotas
 70
     0
 10
0.0
 20
0.0
 30
0.0
  3
base para cotas
  1

  0
LINE
  5
B36
330
922
100
AcDbEntity
  8
cotas
100
AcDbLine
 10
0.0
 20
-30.0
 30
0.0
 11
327.1260136525398
 21
-30.0
 31
0.0
  0
LINE
  5
B37
330
922
100
AcDbEntity
  8
cotas
100
AcDbLine
 10
0.0
 20
-25.0
 30
0.0
 11
327.1260136525398
 21
-25.0
 31
0.0
  0
LINE
  5
B38
330
922
100
AcDbEntity
  8
cotas
100
AcDbLine
 10
0.0
 20
-20.0
 30
0.0
 11
327.1260136525398
 21
-20.0
 31
0.0
  0
LINE
  5
B39
330
922
100
AcDbEntity
  8
cotas
100
AcDbLine
 10
0.0
 20
-15.0
 30
0.0
 11
327.1260136525398
 21
-15.0
 31
0.0
  0
LINE
  5
B3A
330
922
100
AcDbEntity
  8
cotas
100
AcDbLine
 10
0.0
 20
-10.0
 30
0.0
 11
327.1260136525398
 21
-10.0
 31
0.0
  0
LINE
  5
B3B
330
922
100
AcDbEntity
  8
cotas
100
AcDbLine
 10
0.0
 20
0.0
 30
0.0
 11
0.0
 21
-30.0
 31
0.0
  0
LINE
  5
B3C
330
922
100
AcDbEntity
  8
cotas
100
AcDbLine
 10
327.1260136525398
 20
-30.0
 30
0.0
 11
327.1260136525398
 21
0.0
 31
0.0
  0
ENDBLK
  5
92B
330
922
100
AcDbEntity
  8
0
100
AcDbBlockEnd
  0
BLOCK
  5
AAD
330
AA8
100
AcDbEntity
  8
0
100
AcDbBlockBegin
  2
_CLOSED
 70
     0
 10
0.0
 20
0.0
 30
0.0
  3
_CLOSED
  1

  0
LINE
  5
AA9
330
AA8
100
AcDbEntity
  8
0
100
AcDbLine
 10
-1.0
 20
0.166667
 30
0.0
 11
0.0
 21
0.0
 31
0.0
  0
LINE
  5
AAA
330
AA8
100
AcDbEntity
  8
0
100
AcDbLine
 10
0.0
 20
0.0
 30
0.0
 11
-1.0
 21
-0.166667
 31
0.0
  0
LINE
  5
AAB
330
AA8
100
AcDbEntity
  8
0
100
AcDbLine
 10
-1.0
 20
0.166667
 30
0.0
 11
-1.0
 21
-0.166667
 31
0.0
  0
LINE
  5
AAC
330
AA8
100
AcDbEntity
  8
0
100
AcDbLine
 10
0.0
 20
0.0
 30
0.0
 11
-1.0
 21
0.0
 31
0.0
  0
ENDBLK
  5
AAE
330
AA8
100
AcDbEntity
  8
0
100
AcDbBlockEnd
  0
BLOCK
  5
BAF
330
BAA
100
AcDbEntity
  8
0
 62
     0
100
AcDbBlockBegin
  2
SW_CENTERMARK1
 70
     0
 10
0.0
 20
0.0
 30
0.0
  3
SW_CENTERMARK1
  1

  0
LINE
  5
BAB
330
BAA
100
AcDbEntity
  8
0
  6
Continuous
 62
     7
100
AcDbLine
 10
119.9997508246432
 20
145.4323749641829
 30
0.0
 11
119.9997508246432
 21
145.5573749641829
 31
0.0
  0
LINE
  5
BAC
330
BAA
100
AcDbEntity
  8
0
  6
Continuous
 62
     7
100
AcDbLine
 10
119.9997508246432
 20
145.4323749641829
 30
0.0
 11
119.8747508246432
 21
145.4323749641829
 31
0.0
  0
LINE
  5
BAD
330
BAA
100
AcDbEntity
  8
0
  6
Continuous
 62
     7
100
AcDbLine
 10
119.9997508246432
 20
145.4323749641829
 30
0.0
 11
119.9997508246432
 21
145.3073749641829
 31
0.0
  0
LINE
  5
BAE
330
BAA
100
AcDbEntity
  8
0
  6
Continuous
 62
     7
100
AcDbLine
 10
119.9997508246432
 20
145.4323749641829
 30
0.0
 11
120.1247508246432
 21
145.4323749641829
 31
0.0
  0
ENDBLK
  5
BB0
330
BAA
100
AcDbEntity
  8
0
100
AcDbBlockEnd
  0
BLOCK
  5
BB6
330
BB1
100
AcDbEntity
  8
0
 62
     0
100
AcDbBlockBegin
  2
SW_CENTERMARK3
 70
     0
 10
0.0
 20
0.0
 30
0.0
  3
SW_CENTERMARK3
  1

  0
LINE
  5
BB2
330
BB1
100
AcDbEntity
  8
0
  6
Continuous
 62
     7
100
AcDbLine
 10
120.0450432790932
 20
143.5791249641829
 30
0.0
 11
120.0450432790932
 21
143.7041249641829
 31
0.0
  0
LINE
  5
BB3
330
BB1
100
AcDbEntity
  8
0
  6
Continuous
 62
     7
100
AcDbLine
 10
120.0450432790932
 20
143.5791249641829
 30
0.0
 11
119.9200432790932
 21
143.5791249641829
 31
0.0
  0
LINE
  5
BB4
330
BB1
100
AcDbEntity
  8
0
  6
Continuous
 62
     7
100
AcDbLine
 10
120.0450432790932
 20
143.5791249641829
 30
0.0
 11
120.0450432790932
 21
143.4541249641829
 31
0.0
  0
LINE
  5
BB5
330
BB1
100
AcDbEntity
  8
0
  6
Continuous
 62
     7
100
AcDbLine
 10
120.0450432790932
 20
143.5791249641829
 30
0.0
 11
120.1700432790932
 21
143.5791249641829
 31
0.0
  0
ENDBLK
  5
BB7
330
BB1
100
AcDbEntity
  8
0
100
AcDbBlockEnd
  0
BLOCK
  5
BBD
330
BB8
100
AcDbEntity
  8
0
 62
     0
100
AcDbBlockBegin
  2
SW_CENTERMARK4
 70
     0
 10
0.0
 20
0.0
 30
0.0
  3
SW_CENTERMARK4
  1

  0
LINE
  5
BB9
330
BB8
100
AcDbEntity
  8
0
  6
Continuous
 62
     7
100
AcDbLine
 10
106.9006949916932
 20
96.80793415461053
 30
0.0
 11
106.9006949916932
 21
96.93293415461054
 31
0.0
  0
LINE
  5
BBA
330
BB8
100
AcDbEntity
  8
0
  6
Continuous
 62
     7
100
AcDbLine
 10
106.9006949916932
 20
96.80793415461053
 30
0.0
 11
106.7756949916932
 21
96.80793415461053
 31
0.0
  0
LINE
  5
BBB
330
BB8
100
AcDbEntity
  8
0
  6
Continuous
 62
     7
100
AcDbLine
 10
106.9006949916932
 20
96.80793415461053
 30
0.0
 11
106.9006949916932
 21
96.68293415461054
 31
0.0
  0
LINE
  5
BBC
330
BB8
100
AcDbEntity
  8
0
  6
Continuous
 62
     7
100
AcDbLine
 10
106.9006949916932
 20
96.80793415461053
 30
0.0
 11
107.0256949916932
 21
96.80793415461053
 31
0.0
  0
ENDBLK
  5
BBE
330
BB8
100
AcDbEntity
  8
0
100
AcDbBlockEnd
  0
BLOCK
  5
BC4
330
BBF
100
AcDbEntity
  8
0
 62
     0
100
AcDbBlockBegin
  2
SW_CENTERMARK5
 70
     0
 10
0.0
 20
0.0
 30
0.0
  3
SW_CENTERMARK5
  1

  0
LINE
  5
BC0
330
BBF
100
AcDbEntity
  8
0
  6
Continuous
 62
     7
100
AcDbLine
 10
92.18419780495191
 20
82.09143696792228
 30
0.0
 11
92.18419780495191
 21
82.21643696792227
 31
0.0
  0
LINE
  5
BC1
330
BBF
100
AcDbEntity
  8
0
  6
Continuous
 62
     7
100
AcDbLine
 10
92.18419780495191
 20
82.09143696792228
 30
0.0
 11
92.05919780495191
 21
82.09143696792228
 31
0.0
  0
LINE
  5
BC2
330
BBF
100
AcDbEntity
  8
0
  6
Continuous
 62
     7
100
AcDbLine
 10
92.18419780495191
 20
82.09143696792228
 30
0.0
 11
92.18419780495191
 21
81.96643696792227
 31
0.0
  0
LINE
  5
BC3
330
BBF
100
AcDbEntity
  8
0
  6
Continuous
 62
     7
100
AcDbLine
 10
92.18419780495191
 20
82.09143696792228
 30
0.0
 11
92.3091978049519
 21
82.09143696792228
 31
0.0
  0
ENDBLK
  5
BC5
330
BBF
100
AcDbEntity
  8
0
100
AcDbBlockEnd
  0
BLOCK
  5
BCB
330
BC6
100
AcDbEntity
  8
0
 62
     0
100
AcDbBlockBegin
  2
SW_CENTERMARK6
 70
     0
 10
0.0
 20
0.0
 30
0.0
  3
SW_CENTERMARK6
  1

  0
LINE
  5
BC7
330
BC6
100
AcDbEntity
  8
0
  6
Continuous
 62
     7
100
AcDbLine
 10
155.9933839838115
 20
29.23522166029733
 30
0.0
 11
155.9933839838115
 21
29.36022166029733
 31
0.0
  0
LINE
  5
BC8
330
BC6
100
AcDbEntity
  8
0
  6
Continuous
 62
     7
100
AcDbLine
 10
155.9933839838115
 20
29.23522166029733
 30
0.0
 11
155.8683839838115
 21
29.23522166029733
 31
0.0
  0
LINE
  5
BC9
330
BC6
100
AcDbEntity
  8
0
  6
Continuous
 62
     7
100
AcDbLine
 10
155.9933839838115
 20
29.23522166029733
 30
0.0
 11
155.9933839838115
 21
29.11022166029733
 31
0.0
  0
LINE
  5
BCA
330
BC6
100
AcDbEntity
  8
0
  6
Continuous
 62
     7
100
AcDbLine
 10
155.9933839838115
 20
29.23522166029733
 30
0.0
 11
156.1183839838115
 21
29.23522166029733
 31
0.0
  0
ENDBLK
  5
BCC
330
BC6
100
AcDbEntity
  8
0
100
AcDbBlockEnd
  0
ENDSEC
  0
SECTION
  2
ENTITIES
  0
LINE
  5
398C
330
1F
100
AcDbEntity
  8
Sanindusa
  6
Continuous
100
AcDbLine
 10
4807.442022672931
 20
1095.98472249261
 30
0.0
 11
4807.367549298884
 21
1095.98472249261
 31
0.0
  0
LINE
  5
398D
330
1F
100
AcDbEntity
  8
Sanindusa
  6
Continuous
100
AcDbLine
 10
4807.368049146884
 20
1095.996756583399
 30
0.0
 11
4807.444756538642
 21
1095.996756583399
 31
0.0
  0
LINE
  5
3D35
330
1F
100
AcDbEntity
  8
Sanindusa
  6
Continuous
100
AcDbLine
 10
4807.366549602885
 20
1095.995312492504
 30
0.0
 11
4807.366549602885
 21
1095.98472249261
 31
0.0
  0
LINE
  5
3D36
330
1F
100
AcDbEntity
  8
Sanindusa
  6
Continuous
100
AcDbLine
 10
4807.367549298884
 20
1095.98472249261
 30
0.0
 11
4807.366549602885
 21
1095.98472249261
 31
0.0
  0
LWPOLYLINE
  5
3D3B
330
1F
100
AcDbEntity
  8
Sanindusa
  6
Continuous
100
AcDbPolyline
 90
       12
 70
   128
 43
0.0
 10
4807.368049146884
 20
1095.996756583399
 10
4807.367868222396
 20
1095.996746033943
 10
4807.367713502754
 20
1095.996719943951
 10
4807.367585671108
 20
1095.99668587602
 10
4807.367483769809
 20
1095.996650009433
 10
4807.367297635291
 20
1095.996562143193
 10
4807.367137011315
 20
1095.996458705177
 10
4807.367001842433
 20
1095.996346017864
 10
4807.36681004438
 20
1095.996125806778
 10
4807.366674497279
 20
1095.99588947787
 10
4807.366584057497
 20
1095.995620275411
 10
4807.366550050514
 20
1095.99534777479
  0
LINE
  5
3D85
330
1F
100
AcDbEntity
  8
Sanindusa
  6
Continuous
100
AcDbLine
 10
4807.523223883503
 20
1095.996756583795
 30
0.0
 11
4807.482666112031
 21
1095.996756584224
 31
0.0
  0
LINE
  5
3D87
330
1F
100
AcDbEntity
  8
Sanindusa
  6
Continuous
100
AcDbLine
 10
4807.487550986443
 20
1095.991699825545
 30
0.0
 11
4807.525955103708
 21
1095.991082810328
 31
0.0
  0
LINE
  5
3D88
330
1F
100
AcDbEntity
  8
Sanindusa
  6
Continuous
100
AcDbLine
 10
4807.518979029601
 20
1095.984722493051
 30
0.0
 11
4807.503974697092
 21
1095.98472249321
 31
0.0
  0
LINE
  5
3D8B
330
1F
100
AcDbEntity
  8
Sanindusa
  6
Continuous
100
AcDbLine
 10
4807.517064305468
 20
1095.987803275965
 30
0.0
 11
4807.505609911697
 21
1095.987987306631
 31
0.0
  0
LINE
  5
3D8C
330
1F
100
AcDbEntity
  8
Sanindusa
  6
Continuous
100
AcDbLine
 10
4807.517423061185
 20
1095.988952945539
 30
0.0
 11
4807.515751232774
 21
1095.988979805773
 31
0.0
  0
LINE
  5
3D90
330
1F
100
AcDbEntity
  8
Sanindusa
  6
Continuous
100
AcDbLine
 10
4807.517913270981
 20
1095.988752497395
 30
0.0
 11
4807.515119784582
 21
1095.988797378614
 31
0.0
  0
LINE
  5
42F3
330
1F
100
AcDbEntity
  8
Sanindusa
  6
Continuous
100
AcDbLine
 10
4807.443790896098
 20
1095.989586514177
 30
0.0
 11
4807.443526194885
 21
1095.98472249261
 31
0.0
  0
LINE
  5
42F4
330
1F
100
AcDbEntity
  8
Sanindusa
  6
Continuous
100
AcDbLine
 10
4807.443526194885
 20
1095.98472249261
 30
0.0
 11
4807.442022672931
 21
1095.98472249261
 31
0.0
  0
LWPOLYLINE
  5
42F5
330
1F
100
AcDbEntity
  8
Sanindusa
  6
Continuous
100
AcDbPolyline
 90
        8
 70
   128
 43
0.0
 10
4807.446341147155
 20
1095.991978229655
 10
4807.446316272478
 20
1095.991678681637
 10
4807.446219384103
 20
1095.991371928051
 10
4807.446046134699
 20
1095.991082234422
 10
4807.445804142104
 20
1095.990835259488
 10
4807.445497981115
 20
1095.990644337663
 10
4807.445167503579
 20
1095.990533277635
 10
4807.444842050816
 20
1095.990498856188
  0
LWPOLYLINE
  5
42F8
330
1F
100
AcDbEntity
  8
Sanindusa
  6
Continuous
100
AcDbPolyline
 90
        8
 70
   128
 43
0.0
 10
4807.444756538637
 20
1095.996756583399
 10
4807.445058805378
 20
1095.996726941425
 10
4807.445366231704
 20
1095.996631832243
 10
4807.445655784566
 20
1095.996468112103
 10
4807.44590345787
 20
1095.996242796003
 10
4807.44609738543
 20
1095.995959052764
 10
4807.446214021393
 20
1095.995652120908
 10
4807.446255635008
 20
1095.99534777479
  0
LWPOLYLINE
  5
4301
330
1F
100
AcDbEntity
  8
Sanindusa
  6
Continuous
100
AcDbPolyline
 90
       13
 70
   128
 43
0.0
 10
4807.443790896098
 20
1095.989586514177
 10
4807.443801561608
 20
1095.9896850672
 10
4807.443828569298
 20
1095.989802553916
 10
4807.443881354951
 20
1095.989939184068
 10
4807.443953260991
 20
1095.990064089842
 10
4807.444024492395
 20
1095.990156197652
 10
4807.444056470687
 20
1095.990191030358
 10
4807.444082443931
 20
1095.990216989382
 10
4807.444101076734
 20
1095.990234466608
 10
4807.44425856286
 20
1095.990352025106
 10
4807.444434077998
 20
1095.990436058019
 10
4807.44461493828
 20
1095.990484113067
 10
4807.444789222049
 20
1095.990498856188
  0
LINE
  5
4304
330
1F
100
AcDbEntity
  8
Sanindusa
  6
Continuous
100
AcDbLine
 10
4807.446255635009
 20
1095.99534777479
 30
0.0
 11
4807.446341147155
 21
1095.991978229655
 31
0.0
  0
LINE
  5
4308
330
1F
100
AcDbEntity
  8
Sanindusa
  6
Continuous
100
AcDbLine
 10
4807.481271253175
 20
1095.98472249345
 30
0.0
 11
4807.484543781352
 21
1095.984722493416
 31
0.0
  0
LWPOLYLINE
  5
4309
330
1F
100
AcDbEntity
  8
Sanindusa
  6
Continuous
100
AcDbPolyline
 90
        3
 70
   128
 43
0.0
 10
4807.474256140362
 20
1095.984722493525
 10
4807.474291344803
 20
1095.98665087092
 10
4807.47446482643
 20
1095.995331990734
  0
LINE
  5
430B
330
1F
100
AcDbEntity
  8
Sanindusa
  6
Continuous
100
AcDbLine
 10
4807.481270253168
 20
1095.98472249345
 30
0.0
 11
4807.475708137086
 21
1095.984722493509
 31
0.0
  0
LINE
  5
430E
330
1F
100
AcDbEntity
  8
Sanindusa
  6
Continuous
100
AcDbLine
 10
4807.480752003449
 20
1095.98539640254
 30
0.0
 11
4807.476090477474
 21
1095.985396402589
 31
0.0
  0
LINE
  5
430F
330
1F
100
AcDbEntity
  8
Sanindusa
  6
Continuous
100
AcDbLine
 10
4807.474256140362
 20
1095.984722493524
 30
0.0
 11
4807.475561968761
 21
1095.984722493511
 31
0.0
  0
LWPOLYLINE
  5
4316
330
1F
100
AcDbEntity
  8
Sanindusa
  6
Continuous
100
AcDbPolyline
 90
        6
 70
   128
 43
0.0
 10
4807.475561968743
 20
1095.984722493511
 10
4807.475647168788
 20
1095.984736910788
 10
4807.475722748248
 20
1095.984778908651
 10
4807.475778441411
 20
1095.984842888014
 10
4807.47580768646
 20
1095.984919204033
 10
4807.47581000146
 20
1095.984933621682
  0
LINE
  5
4317
330
1F
100
AcDbEntity
  8
Sanindusa
  6
Continuous
100
AcDbLine
 10
4807.47581000146
 20
1095.984933621681
 30
0.0
 11
4807.475842333504
 21
1095.985185274417
 31
0.0
  0
LWPOLYLINE
  5
4318
330
1F
100
AcDbEntity
  8
Sanindusa
  6
Continuous
100
AcDbPolyline
 90
        6
 70
   128
 43
0.0
 10
4807.475842333504
 20
1095.985185274417
 10
4807.47585881453
 20
1095.985246294974
 10
4807.475901004593
 20
1095.985312796933
 10
4807.475963550342
 20
1095.985363116333
 10
4807.476041625379
 20
1095.985391781178
 10
4807.476090254898
 20
1095.985396402541
  0
LWPOLYLINE
  5
431A
330
1F
100
AcDbEntity
  8
Sanindusa
  6
Continuous
100
AcDbPolyline
 90
        6
 70
   128
 43
0.0
 10
4807.481000976403
 20
1095.985176697524
 10
4807.480980607666
 20
1095.985252991056
 10
4807.480936301272
 20
1095.985318286703
 10
4807.480872049126
 20
1095.985366819982
 10
4807.480792866643
 20
1095.985393163664
 10
4807.480752003441
 20
1095.98539640254
  0
LINE
  5
431B
330
1F
100
AcDbEntity
  8
Sanindusa
  6
Continuous
100
AcDbLine
 10
4807.481022280225
 20
1095.984942198466
 30
0.0
 11
4807.481000976404
 21
1095.985176697524
 31
0.0
  0
LWPOLYLINE
  5
431C
330
1F
100
AcDbEntity
  8
Sanindusa
  6
Continuous
100
AcDbPolyline
 90
        6
 70
   128
 43
0.0
 10
4807.481022280225
 20
1095.984942198466
 10
4807.481042648964
 20
1095.984865904934
 10
4807.481086955356
 20
1095.984800609287
 10
4807.481151207503
 20
1095.984752076008
 10
4807.481230389985
 20
1095.984725732326
 10
4807.481271253188
 20
1095.98472249345
  0
LINE
  5
431E
330
1F
100
AcDbEntity
  8
Sanindusa
  6
Continuous
100
AcDbLine
 10
4807.476343484426
 20
1095.996756584291
 30
0.0
 11
4807.482666112031
 21
1095.996756584224
 31
0.0
  0
LWPOLYLINE
  5
4320
330
1F
100
AcDbEntity
  8
Sanindusa
  6
Continuous
100
AcDbPolyline
 90
        3
 70
   128
 43
0.0
 10
4807.475771764075
 20
1095.996703115697
 10
4807.476072835152
 20
1095.996744775401
 10
4807.476343484432
 20
1095.996756584291
  0
LWPOLYLINE
  5
4325
330
1F
100
AcDbEntity
  8
Sanindusa
  6
Continuous
100
AcDbPolyline
 90
        8
 70
   128
 43
0.0
 10
4807.4757720906
 20
1095.996703177811
 10
4807.475465905707
 20
1095.996618379979
 10
4807.475178802182
 20
1095.996482923153
 10
4807.474967952767
 20
1095.996335220722
 10
4807.474784299178
 20
1095.996155093578
 10
4807.474635152
 20
1095.995943332635
 10
4807.474529034879
 20
1095.995707266498
 10
4807.474465540249
 20
1095.995356899584
  0
LINE
  5
4328
330
1F
100
AcDbEntity
  8
Sanindusa
  6
Continuous
100
AcDbLine
 10
4807.499893950367
 20
1095.984722493253
 30
0.0
 11
4807.503634707866
 21
1095.984722493214
 31
0.0
  0
LINE
  5
432A
330
1F
100
AcDbEntity
  8
Sanindusa
  6
Continuous
100
AcDbLine
 10
4807.500778053528
 20
1095.98922037059
 30
0.0
 11
4807.499670625362
 21
1095.989238162954
 31
0.0
  0
LINE
  5
432C
330
1F
100
AcDbEntity
  8
Sanindusa
  6
Continuous
100
AcDbLine
 10
4807.502136113715
 20
1095.989005979229
 30
0.0
 11
4807.498393451597
 21
1095.989066110269
 31
0.0
  0
LINE
  5
432D
330
1F
100
AcDbEntity
  8
Sanindusa
  6
Continuous
100
AcDbLine
 10
4807.485037475397
 20
1095.98512855518
 30
0.0
 11
4807.48549308299
 21
1095.987898771773
 31
0.0
  0
LINE
  5
432F
330
1F
100
AcDbEntity
  8
Sanindusa
  6
Continuous
100
AcDbLine
 10
4807.494431657488
 20
1095.984722493311
 30
0.0
 11
4807.488172780272
 21
1095.984722493377
 31
0.0
  0
LINE
  5
4330
330
1F
100
AcDbEntity
  8
Sanindusa
  6
Continuous
100
AcDbLine
 10
4807.497906636262
 20
1095.988111070396
 30
0.0
 11
4807.485850525444
 21
1095.988304768478
 31
0.0
  0
LINE
  5
4337
330
1F
100
AcDbEntity
  8
Sanindusa
  6
Continuous
100
AcDbLine
 10
4807.488172780303
 20
1095.984722493377
 30
0.0
 11
4807.48584003729
 21
1095.984722493402
 31
0.0
  0
LINE
  5
4339
330
1F
100
AcDbEntity
  8
Sanindusa
  6
Continuous
100
AcDbLine
 10
4807.485840037263
 20
1095.984722493402
 30
0.0
 11
4807.484543781349
 21
1095.984722493416
 31
0.0
  0
LWPOLYLINE
  5
433C
330
1F
100
AcDbEntity
  8
Sanindusa
  6
Continuous
100
AcDbPolyline
 90
        5
 70
   128
 43
0.0
 10
4807.48454378135
 20
1095.984722493416
 10
4807.484714233305
 20
1095.984751346086
 10
4807.484865425946
 20
1095.984835392976
 10
4807.484976781886
 20
1095.984963374607
 10
4807.485037475397
 20
1095.98512855518
  0
LWPOLYLINE
  5
433F
330
1F
100
AcDbEntity
  8
Sanindusa
  6
Continuous
100
AcDbPolyline
 90
        5
 70
   128
 43
0.0
 10
4807.48549308299
 20
1095.987898771773
 10
4807.485541551191
 20
1095.988073054801
 10
4807.485642242435
 20
1095.988217533836
 10
4807.485744940866
 20
1095.988284717911
 10
4807.485850515362
 20
1095.988304766563
  0
LINE
  5
4343
330
1F
100
AcDbEntity
  8
Sanindusa
  6
Continuous
100
AcDbLine
 10
4807.499892950368
 20
1095.984722493253
 30
0.0
 11
4807.494431657477
 21
1095.984722493311
 31
0.0
  0
LWPOLYLINE
  5
4347
330
1F
100
AcDbEntity
  8
Sanindusa
  6
Continuous
100
AcDbPolyline
 90
        5
 70
   128
 43
0.0
 10
4807.497906636265
 20
1095.988111070396
 10
4807.498240384025
 20
1095.988048530624
 10
4807.498432157428
 20
1095.987941794147
 10
4807.498542586184
 20
1095.987824454981
 10
4807.498597796523
 20
1095.987699445877
  0
LWPOLYLINE
  5
4348
330
1F
100
AcDbEntity
  8
Sanindusa
  6
Continuous
100
AcDbPolyline
 90
        5
 70
   128
 43
0.0
 10
4807.499893950367
 20
1095.984722493253
 10
4807.499562990444
 20
1095.984778510689
 10
4807.499368039893
 20
1095.984882206625
 10
4807.499255051701
 20
1095.984997869068
 10
4807.49919576159
 20
1095.98512855503
  0
LINE
  5
4349
330
1F
100
AcDbEntity
  8
Sanindusa
  6
Continuous
100
AcDbLine
 10
4807.498597796523
 20
1095.987699445877
 30
0.0
 11
4807.49919576159
 21
1095.98512855503
 31
0.0
  0
LINE
  5
434A
330
1F
100
AcDbEntity
  8
Sanindusa
  6
Continuous
100
AcDbLine
 10
4807.496793853248
 20
1095.989091810027
 30
0.0
 11
4807.489012299125
 21
1095.989216831447
 31
0.0
  0
LWPOLYLINE
  5
434C
330
1F
100
AcDbEntity
  8
Sanindusa
  6
Continuous
100
AcDbPolyline
 90
        9
 70
   128
 43
0.0
 10
4807.485798763906
 20
1095.991391911944
 10
4807.486023284614
 20
1095.990930178188
 10
4807.4863151324
 20
1095.99050935599
 10
4807.486669009098
 20
1095.990135480454
 10
4807.487072057909
 20
1095.989820158259
 10
4807.487519943498
 20
1095.989565367494
 10
4807.487996333576
 20
1095.98937912868
 10
4807.488498050487
 20
1095.989261791432
 10
4807.489012299119
 20
1095.989216831448
  0
LWPOLYLINE
  5
434E
330
1F
100
AcDbEntity
  8
Sanindusa
  6
Continuous
100
AcDbPolyline
 90
        7
 70
   128
 43
0.0
 10
4807.485798763906
 20
1095.991391911944
 10
4807.485848376757
 20
1095.991400474217
 10
4807.485999669932
 20
1095.991427058954
 10
4807.486252669228
 20
1095.991471675569
 10
4807.486583375105
 20
1095.991529631643
 10
4807.487016116941
 20
1095.99160567048
 10
4807.487550986444
 20
1095.991699825544
  0
LINE
  5
434F
330
1F
100
AcDbEntity
  8
Sanindusa
  6
Continuous
100
AcDbLine
 10
4807.485798763906
 20
1095.991391911944
 30
0.0
 11
4807.484061939092
 21
1095.995805826223
 31
0.0
  0
LWPOLYLINE
  5
4351
330
1F
100
AcDbEntity
  8
Sanindusa
  6
Continuous
100
AcDbPolyline
 90
        6
 70
   128
 43
0.0
 10
4807.498294990655
 20
1095.989163978303
 10
4807.498299759157
 20
1095.9891329525
 10
4807.498314478898
 20
1095.989105246722
 10
4807.498337724055
 20
1095.989083432136
 10
4807.498367735201
 20
1095.989069735411
 10
4807.498393282449
 20
1095.989066112986
  0
LINE
  5
4352
330
1F
100
AcDbEntity
  8
Sanindusa
  6
Continuous
100
AcDbLine
 10
4807.498196817272
 20
1095.989261841717
 30
0.0
 11
4807.496997156887
 21
1095.989281115919
 31
0.0
  0
LWPOLYLINE
  5
4354
330
1F
100
AcDbEntity
  8
Sanindusa
  6
Continuous
100
AcDbPolyline
 90
        6
 70
   128
 43
0.0
 10
4807.496794043164
 20
1095.989091806975
 10
4807.496828247213
 20
1095.989097034786
 10
4807.49685877534
 20
1095.989113365054
 10
4807.496881498479
 20
1095.989138632954
 10
4807.496893708415
 20
1095.989169021545
 10
4807.496895670145
 20
1095.989186460321
  0
LWPOLYLINE
  5
4358
330
1F
100
AcDbEntity
  8
Sanindusa
  6
Continuous
100
AcDbPolyline
 90
        6
 70
   128
 43
0.0
 10
4807.498294990655
 20
1095.989163978303
 10
4807.498290222173
 20
1095.989195004035
 10
4807.498275502463
 20
1095.989222709752
 10
4807.498252257417
 20
1095.989244524206
 10
4807.498222246421
 20
1095.989258220936
 10
4807.498196697628
 20
1095.98926184364
  0
LWPOLYLINE
  5
4359
330
1F
100
AcDbEntity
  8
Sanindusa
  6
Continuous
100
AcDbPolyline
 90
        6
 70
   128
 43
0.0
 10
4807.496997298358
 20
1095.989281113647
 10
4807.496963093298
 20
1095.989275885745
 10
4807.496932564276
 20
1095.989259554936
 10
4807.496909841197
 20
1095.989234286663
 10
4807.496897631676
 20
1095.98920389814
 10
4807.496895670145
 20
1095.989186460321
  0
LWPOLYLINE
  5
435A
330
1F
100
AcDbEntity
  8
Sanindusa
  6
Continuous
100
AcDbPolyline
 90
        5
 70
   128
 43
0.0
 10
4807.499675417369
 20
1095.989238085963
 10
4807.499635986907
 20
1095.989231959056
 10
4807.499599682277
 20
1095.9892111012
 10
4807.499575462172
 20
1095.989178848171
 10
4807.499567274883
 20
1095.989143537299
  0
LWPOLYLINE
  5
435B
330
1F
100
AcDbEntity
  8
Sanindusa
  6
Continuous
100
AcDbPolyline
 90
        5
 70
   128
 43
0.0
 10
4807.499567274883
 20
1095.989143537299
 10
4807.499560208968
 20
1095.98910820841
 10
4807.499538930255
 20
1095.989075908123
 10
4807.49950729749
 20
1095.989054975207
 10
4807.499474178045
 20
1095.989048746905
  0
LINE
  5
435C
330
1F
100
AcDbEntity
  8
Sanindusa
  6
Continuous
100
AcDbLine
 10
4807.504332896652
 20
1095.985128554976
 30
0.0
 11
4807.504904684589
 21
1095.987586899644
 31
0.0
  0
LINE
  5
435E
330
1F
100
AcDbEntity
  8
Sanindusa
  6
Continuous
100
AcDbLine
 10
4807.503974697068
 20
1095.98472249321
 30
0.0
 11
4807.503652208866
 21
1095.984722493214
 31
0.0
  0
LWPOLYLINE
  5
435F
330
1F
100
AcDbEntity
  8
Sanindusa
  6
Continuous
100
AcDbPolyline
 90
        6
 70
   128
 43
0.0
 10
4807.504332896652
 20
1095.985128554976
 10
4807.504275492576
 20
1095.985000603747
 10
4807.50418108456
 20
1095.984898434827
 10
4807.503984598557
 20
1095.984785595322
 10
4807.503676461748
 20
1095.984723333661
 10
4807.503634707866
 20
1095.984722493214
  0
LWPOLYLINE
  5
4360
330
1F
100
AcDbEntity
  8
Sanindusa
  6
Continuous
100
AcDbPolyline
 90
        6
 70
   128
 43
0.0
 10
4807.504904684589
 20
1095.987586899643
 10
4807.504961569442
 20
1095.987713795801
 10
4807.505055284747
 20
1095.987815051988
 10
4807.505248803341
 20
1095.987925742478
 10
4807.505553035502
 20
1095.987986655012
 10
4807.505609911686
 20
1095.987987306631
  0
LINE
  5
4364
330
1F
100
AcDbEntity
  8
Sanindusa
  6
Continuous
100
AcDbLine
 10
4807.507428481311
 20
1095.98892095003
 30
0.0
 11
4807.503935285627
 21
1095.988977073046
 31
0.0
  0
LWPOLYLINE
  5
4365
330
1F
100
AcDbEntity
  8
Sanindusa
  6
Continuous
100
AcDbPolyline
 90
        7
 70
   128
 43
0.0
 10
4807.502339345083
 20
1095.989195286283
 10
4807.50230243485
 20
1095.989189118885
 10
4807.502284376544
 20
1095.989180474359
 10
4807.502268177326
 20
1095.989168228139
 10
4807.502254927566
 20
1095.98915304515
 10
4807.502245353708
 20
1095.989135952674
 10
4807.502237721816
 20
1095.989100632878
  0
LINE
  5
4368
330
1F
100
AcDbEntity
  8
Sanindusa
  6
Continuous
100
AcDbLine
 10
4807.500961917815
 20
1095.989217416556
 30
0.0
 11
4807.500778053528
 21
1095.98922037059
 31
0.0
  0
LWPOLYLINE
  5
436B
330
1F
100
AcDbEntity
  8
Sanindusa
  6
Continuous
100
AcDbPolyline
 90
       19
 70
   128
 43
0.0
 10
4807.501066605897
 20
1095.989119448474
 10
4807.501066614579
 20
1095.989122038931
 10
4807.501066546281
 20
1095.989124731815
 10
4807.501066127745
 20
1095.98913040456
 10
4807.501063707607
 20
1095.989142712225
 10
4807.501049326372
 20
1095.989169025529
 10
4807.501022690502
 20
1095.989192423326
 10
4807.501015396835
 20
1095.989197149636
 10
4807.501008400532
 20
1095.98920132031
 10
4807.50100510107
 20
1095.989203191284
 10
4807.501001976165
 20
1095.989204918845
 10
4807.500999053043
 20
1095.989206504217
 10
4807.500996354335
 20
1095.989207949824
 10
4807.500993897138
 20
1095.989209259198
 10
4807.50099169209
 20
1095.989210436881
 10
4807.50098804316
 20
1095.989212419755
 10
4807.500983312731
 20
1095.989215091988
 10
4807.50097106483
 20
1095.989217138344
 10
4807.500961915749
 20
1095.989217304619
  0
LWPOLYLINE
  5
436C
330
1F
100
AcDbEntity
  8
Sanindusa
  6
Continuous
100
AcDbPolyline
 90
        5
 70
   128
 43
0.0
 10
4807.501156363207
 20
1095.989021720275
 10
4807.501123477931
 20
1095.989029009035
 10
4807.501092587851
 20
1095.989050946467
 10
4807.501072439805
 20
1095.989083912332
 10
4807.501066601556
 20
1095.989119448544
  0
LWPOLYLINE
  5
436E
330
1F
100
AcDbEntity
  8
Sanindusa
  6
Continuous
100
AcDbPolyline
 90
        7
 70
   128
 43
0.0
 10
4807.50213609854
 20
1095.989005979473
 10
4807.502173008787
 20
1095.989012146871
 10
4807.502191067094
 20
1095.989020791398
 10
4807.502207266314
 20
1095.989033037617
 10
4807.502220516075
 20
1095.989048220606
 10
4807.502230089934
 20
1095.989065313082
 10
4807.502237721824
 20
1095.989100632878
  0
LWPOLYLINE
  5
4375
330
1F
100
AcDbEntity
  8
Sanindusa
  6
Continuous
100
AcDbPolyline
 90
        6
 70
   128
 43
0.0
 10
4807.503836998897
 20
1095.989073332133
 10
4807.503843920572
 20
1095.989038132404
 10
4807.503853041985
 20
1095.989021024437
 10
4807.503865790202
 20
1095.989005731339
 10
4807.503899056087
 20
1095.988984251111
 10
4807.503935300895
 20
1095.988977072801
  0
LWPOLYLINE
  5
437B
330
1F
100
AcDbEntity
  8
Sanindusa
  6
Continuous
100
AcDbPolyline
 90
        6
 70
   128
 43
0.0
 10
4807.503836995533
 20
1095.989074938336
 10
4807.503832226993
 20
1095.989105964572
 10
4807.503817507041
 20
1095.989133670743
 10
4807.503794261696
 20
1095.989155485286
 10
4807.503764250836
 20
1095.989169181543
 10
4807.50373870497
 20
1095.989172803633
  0
LINE
  5
437C
330
1F
100
AcDbEntity
  8
Sanindusa
  6
Continuous
100
AcDbLine
 10
4807.503738705046
 20
1095.989172803632
 30
0.0
 11
4807.502339364628
 21
1095.989195285969
 31
0.0
  0
LWPOLYLINE
  5
4380
330
1F
100
AcDbEntity
  8
Sanindusa
  6
Continuous
100
AcDbPolyline
 90
        6
 70
   128
 43
0.0
 10
4807.506360063952
 20
1095.989034401755
 10
4807.50635781735
 20
1095.989060811982
 10
4807.506349556248
 20
1095.989087038931
 10
4807.506335448474
 20
1095.989109297902
 10
4807.506313831577
 20
1095.989126249612
 10
4807.506291047282
 20
1095.989131796726
  0
LINE
  5
4381
330
1F
100
AcDbEntity
  8
Sanindusa
  6
Continuous
100
AcDbLine
 10
4807.506291047282
 20
1095.989131796726
 30
0.0
 11
4807.50501324517
 21
1095.989152326383
 31
0.0
  0
LWPOLYLINE
  5
4383
330
1F
100
AcDbEntity
  8
Sanindusa
  6
Continuous
100
AcDbPolyline
 90
        5
 70
   128
 43
0.0
 10
4807.50501877479
 20
1095.989152237542
 10
4807.504978923595
 20
1095.989146117394
 10
4807.504942307506
 20
1095.989125264542
 10
4807.504917891309
 20
1095.989093014664
 10
4807.504909629262
 20
1095.989057704993
  0
LWPOLYLINE
  5
4384
330
1F
100
AcDbEntity
  8
Sanindusa
  6
Continuous
100
AcDbPolyline
 90
        5
 70
   128
 43
0.0
 10
4807.504909629262
 20
1095.989057704993
 10
4807.504902638106
 20
1095.989022374903
 10
4807.504881555485
 20
1095.988990071466
 10
4807.504850234177
 20
1095.988969133546
 10
4807.504817535466
 20
1095.988962898483
  0
LINE
  5
4385
330
1F
100
AcDbEntity
  8
Sanindusa
  6
Continuous
100
AcDbLine
 10
4807.507631729504
 20
1095.989110256813
 30
0.0
 11
4807.509330959177
 21
1095.989082956341
 31
0.0
  0
LWPOLYLINE
  5
4387
330
1F
100
AcDbEntity
  8
Sanindusa
  6
Continuous
100
AcDbPolyline
 90
        6
 70
   128
 43
0.0
 10
4807.506360063952
 20
1095.989034401755
 10
4807.506362310554
 20
1095.989007991528
 10
4807.506370571656
 20
1095.988981764578
 10
4807.506384679429
 20
1095.988959505608
 10
4807.506406296326
 20
1095.988942553897
 10
4807.506429080622
 20
1095.988937006783
  0
LWPOLYLINE
  5
4389
330
1F
100
AcDbEntity
  8
Sanindusa
  6
Continuous
100
AcDbPolyline
 90
        7
 70
   128
 43
0.0
 10
4807.507530098028
 20
1095.989015603541
 10
4807.507522466138
 20
1095.988980283745
 10
4807.507512892283
 20
1095.988963191269
 10
4807.507499642526
 20
1095.98894800828
 10
4807.507483443313
 20
1095.98893576206
 10
4807.507465385009
 20
1095.988927117534
 10
4807.507428474777
 20
1095.988920950135
  0
LWPOLYLINE
  5
438B
330
1F
100
AcDbEntity
  8
Sanindusa
  6
Continuous
100
AcDbPolyline
 90
        7
 70
   128
 43
0.0
 10
4807.50753009805
 20
1095.98901560354
 10
4807.507537729941
 20
1095.989050923336
 10
4807.507547303799
 20
1095.989068015812
 10
4807.507560553559
 20
1095.989083198801
 10
4807.507576752776
 20
1095.989095445021
 10
4807.507594811083
 20
1095.989104089547
 10
4807.507631721241
 20
1095.989110256947
  0
LWPOLYLINE
  5
438C
330
1F
100
AcDbEntity
  8
Sanindusa
  6
Continuous
100
AcDbPolyline
 90
        6
 70
   128
 43
0.0
 10
4807.510303632414
 20
1095.989067329001
 10
4807.510269429569
 20
1095.989062101303
 10
4807.510238902604
 20
1095.989045771442
 10
4807.510216180404
 20
1095.989020504511
 10
4807.510203970331
 20
1095.988990116411
 10
4807.510202008234
 20
1095.988972675611
  0
LWPOLYLINE
  5
438E
330
1F
100
AcDbEntity
  8
Sanindusa
  6
Continuous
100
AcDbPolyline
 90
        5
 70
   128
 43
0.0
 10
4807.506608866158
 20
1095.989030404403
 10
4807.506601831775
 20
1095.989065959833
 10
4807.506578546247
 20
1095.989098976106
 10
4807.506542672843
 20
1095.989120993602
 10
4807.506503055816
 20
1095.989128390516
  0
LWPOLYLINE
  5
438F
330
1F
100
AcDbEntity
  8
Sanindusa
  6
Continuous
100
AcDbPolyline
 90
        5
 70
   128
 43
0.0
 10
4807.506697624766
 20
1095.98893269225
 10
4807.506665160224
 20
1095.988939974251
 10
4807.506634581601
 20
1095.988961906679
 10
4807.506614629648
 20
1095.988994869393
 10
4807.506608866158
 20
1095.989030404403
  0
LINE
  5
4392
330
1F
100
AcDbEntity
  8
Sanindusa
  6
Continuous
100
AcDbLine
 10
4807.512720852731
 20
1095.988835920769
 30
0.0
 11
4807.509527537014
 21
1095.988887225799
 31
0.0
  0
LWPOLYLINE
  5
4395
330
1F
100
AcDbEntity
  8
Sanindusa
  6
Continuous
100
AcDbPolyline
 90
        5
 70
   128
 43
0.0
 10
4807.510202000941
 20
1095.988972675728
 10
4807.510194496482
 20
1095.988937353885
 10
4807.510172110378
 20
1095.98890507139
 10
4807.510138641266
 20
1095.988884167977
 10
4807.510102912608
 20
1095.988877981595
  0
LWPOLYLINE
  5
4399
330
1F
100
AcDbEntity
  8
Sanindusa
  6
Continuous
100
AcDbPolyline
 90
        7
 70
   128
 43
0.0
 10
4807.509330967766
 20
1095.989082956203
 10
4807.509367643747
 20
1095.98907560654
 10
4807.509385392569
 20
1095.989066386723
 10
4807.509401158579
 20
1095.989053626938
 10
4807.509413875049
 20
1095.989038026765
 10
4807.509422851522
 20
1095.989020636253
 10
4807.509429255746
 20
1095.988985090947
  0
LWPOLYLINE
  5
439B
330
1F
100
AcDbEntity
  8
Sanindusa
  6
Continuous
100
AcDbPolyline
 90
        6
 70
   128
 43
0.0
 10
4807.509429248209
 20
1095.988985091068
 10
4807.50943401679
 20
1095.988954064494
 10
4807.509448736905
 20
1095.988926358018
 10
4807.509471982459
 20
1095.988904543401
 10
4807.509501993245
 20
1095.988890847457
 10
4807.509527537032
 20
1095.988887225799
  0
LINE
  5
43A2
330
1F
100
AcDbEntity
  8
Sanindusa
  6
Continuous
100
AcDbLine
 10
4807.511839383167
 20
1095.989042655043
 30
0.0
 11
4807.510303632414
 21
1095.989067329001
 31
0.0
  0
LINE
  5
43A5
330
1F
100
AcDbEntity
  8
Sanindusa
  6
Continuous
100
AcDbLine
 10
4807.512093793409
 20
1095.989038567591
 30
0.0
 11
4807.511839383168
 21
1095.989042655043
 31
0.0
  0
LWPOLYLINE
  5
43A7
330
1F
100
AcDbEntity
  8
Sanindusa
  6
Continuous
100
AcDbPolyline
 90
        6
 70
   128
 43
0.0
 10
4807.511908399838
 20
1095.988945260071
 10
4807.511906153234
 20
1095.988971670298
 10
4807.511897892133
 20
1095.988997897248
 10
4807.511883784361
 20
1095.989020156218
 10
4807.511862167462
 20
1095.989037107929
 10
4807.511839383167
 20
1095.989042655043
  0
LWPOLYLINE
  5
43A8
330
1F
100
AcDbEntity
  8
Sanindusa
  6
Continuous
100
AcDbPolyline
 90
        6
 70
   128
 43
0.0
 10
4807.511908399838
 20
1095.988945260071
 10
4807.511910646439
 20
1095.988918849844
 10
4807.511918907542
 20
1095.988892622895
 10
4807.511933015315
 20
1095.988870363925
 10
4807.511954632212
 20
1095.988853412214
 10
4807.511977416508
 20
1095.9888478651
  0
LWPOLYLINE
  5
43A9
330
1F
100
AcDbEntity
  8
Sanindusa
  6
Continuous
100
AcDbPolyline
 90
        5
 70
   128
 43
0.0
 10
4807.512201108315
 20
1095.988940557305
 10
4807.512193961795
 20
1095.988976114536
 10
4807.512170382128
 20
1095.989009135534
 10
4807.512134041537
 20
1095.989031160537
 10
4807.512093793409
 20
1095.989038567591
  0
LWPOLYLINE
  5
43AA
330
1F
100
AcDbEntity
  8
Sanindusa
  6
Continuous
100
AcDbPolyline
 90
        5
 70
   128
 43
0.0
 10
4807.512296866603
 20
1095.988842732693
 10
4807.512261372115
 20
1095.988850063373
 10
4807.512228645688
 20
1095.988872030308
 10
4807.512207390252
 20
1095.988905013965
 10
4807.512201113461
 20
1095.988940557222
  0
LWPOLYLINE
  5
43AD
330
1F
100
AcDbEntity
  8
Sanindusa
  6
Continuous
100
AcDbPolyline
 90
        5
 70
   128
 43
0.0
 10
4807.515647423816
 20
1095.988981438197
 10
4807.515606075671
 20
1095.988973542828
 10
4807.515569472729
 20
1095.988947401748
 10
4807.51555171875
 20
1095.988917848714
 10
4807.515545800598
 20
1095.988886784791
  0
LWPOLYLINE
  5
43AE
330
1F
100
AcDbEntity
  8
Sanindusa
  6
Continuous
100
AcDbPolyline
 90
        6
 70
   128
 43
0.0
 10
4807.512822474405
 20
1095.9889305742
 10
4807.512826754074
 20
1095.988956879573
 10
4807.512839527229
 20
1095.988982768579
 10
4807.51286039842
 20
1095.989004465564
 10
4807.51289166143
 20
1095.989020567686
 10
4807.51292409766
 20
1095.989025227606
  0
LWPOLYLINE
  5
43B0
330
1F
100
AcDbEntity
  8
Sanindusa
  6
Continuous
100
AcDbPolyline
 90
        7
 70
   128
 43
0.0
 10
4807.512822474372
 20
1095.9889305742
 10
4807.512814842485
 20
1095.988895254405
 10
4807.512805268633
 20
1095.988878161929
 10
4807.512792018879
 20
1095.98886297894
 10
4807.51277581967
 20
1095.98885073272
 10
4807.512757761374
 20
1095.988842088194
 10
4807.512720851152
 20
1095.988835920795
  0
LINE
  5
43B1
330
1F
100
AcDbEntity
  8
Sanindusa
  6
Continuous
100
AcDbLine
 10
4807.51292409766
 20
1095.989025227606
 30
0.0
 11
4807.514923210613
 21
1095.988993109093
 31
0.0
  0
LINE
  5
43B3
330
1F
100
AcDbEntity
  8
Sanindusa
  6
Continuous
100
AcDbLine
 10
4807.512924099835
 20
1095.989025227571
 30
0.0
 11
4807.512924097591
 21
1095.989025227606
 31
0.0
  0
LWPOLYLINE
  5
43B8
330
1F
100
AcDbEntity
  8
Sanindusa
  6
Continuous
100
AcDbPolyline
 90
        6
 70
   128
 43
0.0
 10
4807.515021498518
 20
1095.988895243839
 10
4807.515018132406
 20
1095.988921672052
 10
4807.515006263109
 20
1095.988947956972
 10
4807.514986155081
 20
1095.988970312345
 10
4807.51495546722
 20
1095.988987409794
 10
4807.514923210451
 20
1095.988993109096
  0
LWPOLYLINE
  5
43BC
330
1F
100
AcDbEntity
  8
Sanindusa
  6
Continuous
100
AcDbPolyline
 90
        6
 70
   128
 43
0.0
 10
4807.515119786584
 20
1095.988797378582
 10
4807.515083541787
 20
1095.988804556892
 10
4807.515050275907
 20
1095.98882603712
 10
4807.515037527692
 20
1095.988841330218
 10
4807.515028406282
 20
1095.988858438184
 10
4807.515021484609
 20
1095.988893637914
  0
LWPOLYLINE
  5
43C1
330
1F
100
AcDbEntity
  8
Sanindusa
  6
Continuous
100
AcDbPolyline
 90
        5
 70
   128
 43
0.0
 10
4807.515545806378
 20
1095.988886820109
 10
4807.515538314574
 20
1095.988851498062
 10
4807.515515970701
 20
1095.988819214889
 10
4807.515482573993
 20
1095.988798310313
 10
4807.515446948491
 20
1095.988792122274
  0
LWPOLYLINE
  5
43C2
330
1F
100
AcDbEntity
  8
Sanindusa
  6
Continuous
100
AcDbPolyline
 90
        5
 70
   128
 43
0.0
 10
4807.515548557287
 20
1095.988983062035
 10
4807.515510559209
 20
1095.988976912114
 10
4807.515475497218
 20
1095.988956034293
 10
4807.515452182025
 20
1095.988923766726
 10
4807.515444399178
 20
1095.988888449355
  0
LWPOLYLINE
  5
43C3
330
1F
100
AcDbEntity
  8
Sanindusa
  6
Continuous
100
AcDbPolyline
 90
        5
 70
   128
 43
0.0
 10
4807.515444399178
 20
1095.988888449355
 10
4807.515436920028
 20
1095.988853127106
 10
4807.515414618386
 20
1095.988820843254
 10
4807.515381294082
 20
1095.988799937515
 10
4807.515345771736
 20
1095.988793747818
  0
LINE
  5
46AE
330
1F
100
AcDbEntity
  8
Sanindusa
  6
Continuous
100
AcDbLine
 10
4807.545238765092
 20
1095.996756583563
 30
0.0
 11
4807.560172068253
 21
1095.996756583405
 31
0.0
  0
LINE
  5
46AF
330
1F
100
AcDbEntity
  8
Sanindusa
  6
Continuous
100
AcDbLine
 10
4807.544214557482
 20
1095.995686250905
 30
0.0
 11
4807.558723619965
 21
1095.995686250752
 31
0.0
  0
LWPOLYLINE
  5
46B0
330
1F
100
AcDbEntity
  8
Sanindusa
  6
Continuous
100
AcDbPolyline
 90
        9
 70
   128
 43
0.0
 10
4807.543269235615
 20
1095.99088142627
 10
4807.544986322827
 20
1095.990855779241
 10
4807.546607039242
 20
1095.990831572168
 10
4807.54812704131
 20
1095.990808869834
 10
4807.549542255145
 20
1095.990787732993
 10
4807.55084888749
 20
1095.99076821821
 10
4807.552043435936
 20
1095.990750377713
 10
4807.553122698352
 20
1095.990734259243
 10
4807.554083781513
 20
1095.990719905938
  0
LINE
  5
46B2
330
1F
100
AcDbEntity
  8
Sanindusa
  6
Continuous
100
AcDbLine
 10
4807.549163135169
 20
1095.984722492732
 30
0.0
 11
4807.539308597205
 21
1095.984722492836
 31
0.0
  0
LINE
  5
46B3
330
1F
100
AcDbEntity
  8
Sanindusa
  6
Continuous
100
AcDbLine
 10
4807.545316789005
 20
1095.988312222007
 30
0.0
 11
4807.550874362437
 21
1095.988222931909
 31
0.0
  0
LINE
  5
46B7
330
1F
100
AcDbEntity
  8
Sanindusa
  6
Continuous
100
AcDbLine
 10
4807.552561847899
 20
1095.986091621437
 30
0.0
 11
4807.546374871902
 21
1095.986091621502
 31
0.0
  0
LINE
  5
46B9
330
1F
100
AcDbEntity
  8
Sanindusa
  6
Continuous
100
AcDbLine
 10
4807.535855777222
 20
1095.996756583662
 30
0.0
 11
4807.5232238835
 21
1095.996756583795
 31
0.0
  0
LWPOLYLINE
  5
46BB
330
1F
100
AcDbEntity
  8
Sanindusa
  6
Continuous
100
AcDbPolyline
 90
       10
 70
   128
 43
0.0
 10
4807.530087738015
 20
1095.990731593328
 10
4807.530724228157
 20
1095.990726974531
 10
4807.531367970835
 20
1095.990734057448
 10
4807.532008807927
 20
1095.990753384608
 10
4807.532636237525
 20
1095.990784755686
 10
4807.533014820286
 20
1095.990809973429
 10
4807.533392465416
 20
1095.990840366556
 10
4807.533766213381
 20
1095.99087620375
 10
4807.534312530202
 20
1095.990940427095
 10
4807.534831569562
 20
1095.991016989035
  0
LINE
  5
46BC
330
1F
100
AcDbEntity
  8
Sanindusa
  6
Continuous
100
AcDbLine
 10
4807.534885420247
 20
1095.984722492883
 30
0.0
 11
4807.522721786991
 21
1095.984722493012
 31
0.0
  0
LINE
  5
46BF
330
1F
100
AcDbEntity
  8
Sanindusa
  6
Continuous
100
AcDbLine
 10
4807.535279011741
 20
1095.987510631537
 30
0.0
 11
4807.524624933859
 21
1095.987681804022
 31
0.0
  0
LINE
  5
46C0
330
1F
100
AcDbEntity
  8
Sanindusa
  6
Continuous
100
AcDbLine
 10
4807.534590048807
 20
1095.988484561912
 30
0.0
 11
4807.531696602808
 21
1095.988531049121
 31
0.0
  0
LINE
  5
46C1
330
1F
100
AcDbEntity
  8
Sanindusa
  6
Continuous
100
AcDbLine
 10
4807.533749989656
 20
1095.98869063087
 30
0.0
 11
4807.531875664263
 21
1095.988720744498
 31
0.0
  0
LWPOLYLINE
  5
46C3
330
1F
100
AcDbEntity
  8
Sanindusa
  6
Continuous
100
AcDbPolyline
 90
        6
 70
   128
 43
0.0
 10
4807.528482723231
 20
1095.988678970661
 10
4807.528484969833
 20
1095.988652560434
 10
4807.528493230936
 20
1095.988626333484
 10
4807.528507338709
 20
1095.988604074514
 10
4807.528528955605
 20
1095.988587122803
 10
4807.528551739901
 20
1095.988581575689
  0
LWPOLYLINE
  5
46C4
330
1F
100
AcDbEntity
  8
Sanindusa
  6
Continuous
100
AcDbPolyline
 90
        7
 70
   128
 43
0.0
 10
4807.528899515478
 20
1095.988672274317
 10
4807.528891883599
 20
1095.988636954522
 10
4807.528882309759
 20
1095.988619862045
 10
4807.528869060023
 20
1095.988604679056
 10
4807.528852860833
 20
1095.988592432836
 10
4807.528834802559
 20
1095.988583788309
 10
4807.528797892383
 20
1095.98857762091
  0
LWPOLYLINE
  5
46C6
330
1F
100
AcDbEntity
  8
Sanindusa
  6
Continuous
100
AcDbPolyline
 90
        3
 70
   128
 43
0.0
 10
4807.528887988948
 20
1095.988631032556
 10
4807.528884119125
 20
1095.988637079269
 10
4807.528877886621
 20
1095.988672621815
  0
LWPOLYLINE
  5
46C9
330
1F
100
AcDbEntity
  8
Sanindusa
  6
Continuous
100
AcDbPolyline
 90
        6
 70
   128
 43
0.0
 10
4807.53159831506
 20
1095.988628914373
 10
4807.531593546464
 20
1095.988659941104
 10
4807.531578826273
 20
1095.988687647721
 10
4807.531555580638
 20
1095.988709462345
 10
4807.531525569924
 20
1095.988723158131
 10
4807.531507765386
 20
1095.988726365933
  0
LWPOLYLINE
  5
46CA
330
1F
100
AcDbEntity
  8
Sanindusa
  6
Continuous
100
AcDbPolyline
 90
        5
 70
   128
 43
0.0
 10
4807.531875485756
 20
1095.988720747365
 10
4807.531837487679
 20
1095.988714597445
 10
4807.531802425689
 20
1095.988693719624
 10
4807.531779110496
 20
1095.988661452057
 10
4807.531771327648
 20
1095.988626134686
  0
LWPOLYLINE
  5
46CC
330
1F
100
AcDbEntity
  8
Sanindusa
  6
Continuous
100
AcDbPolyline
 90
        6
 70
   128
 43
0.0
 10
4807.526156006945
 20
1095.988716352573
 10
4807.526160775544
 20
1095.988685325818
 10
4807.526175495747
 20
1095.988657619179
 10
4807.526198741395
 20
1095.988635804551
 10
4807.526228752102
 20
1095.988622108789
 10
4807.526254295049
 20
1095.988618487316
  0
LWPOLYLINE
  5
46CD
330
1F
100
AcDbEntity
  8
Sanindusa
  6
Continuous
100
AcDbPolyline
 90
        6
 70
   128
 43
0.0
 10
4807.52391970675
 20
1095.987281397034
 10
4807.523976591605
 20
1095.987408293193
 10
4807.524070306909
 20
1095.987509549379
 10
4807.524263825502
 20
1095.987620239869
 10
4807.524568057663
 20
1095.987681152404
 10
4807.524624933847
 20
1095.987681804022
  0
LINE
  5
46CE
330
1F
100
AcDbEntity
  8
Sanindusa
  6
Continuous
100
AcDbLine
 10
4807.518980029602
 20
1095.984722493051
 30
0.0
 11
4807.52272078699
 21
1095.984722493012
 31
0.0
  0
LINE
  5
46CF
330
1F
100
AcDbEntity
  8
Sanindusa
  6
Continuous
100
AcDbLine
 10
4807.517755465729
 20
1095.987391651445
 30
0.0
 11
4807.518281840749
 21
1095.985128554828
 31
0.0
  0
LWPOLYLINE
  5
46D0
330
1F
100
AcDbEntity
  8
Sanindusa
  6
Continuous
100
AcDbPolyline
 90
        5
 70
   128
 43
0.0
 10
4807.517064305471
 20
1095.987803275965
 10
4807.517398053231
 20
1095.987740736193
 10
4807.517589826635
 20
1095.987633999716
 10
4807.517700255392
 20
1095.98751666055
 10
4807.517755465729
 20
1095.987391651445
  0
LWPOLYLINE
  5
46D1
330
1F
100
AcDbEntity
  8
Sanindusa
  6
Continuous
100
AcDbPolyline
 90
        5
 70
   128
 43
0.0
 10
4807.518980029602
 20
1095.984722493052
 10
4807.518649069662
 20
1095.984778510466
 10
4807.518454119085
 20
1095.984882206399
 10
4807.518341130879
 20
1095.984997868841
 10
4807.518281840748
 20
1095.985128554828
  0
LINE
  5
46D2
330
1F
100
AcDbEntity
  8
Sanindusa
  6
Continuous
100
AcDbLine
 10
4807.523418975812
 20
1095.985128554774
 30
0.0
 11
4807.523919706751
 21
1095.987281397034
 31
0.0
  0
LWPOLYLINE
  5
46D3
330
1F
100
AcDbEntity
  8
Sanindusa
  6
Continuous
100
AcDbPolyline
 90
        6
 70
   128
 43
0.0
 10
4807.523418975812
 20
1095.985128554774
 10
4807.523361571735
 20
1095.985000603545
 10
4807.52326716372
 20
1095.984898434625
 10
4807.523070677717
 20
1095.98478559512
 10
4807.522762540907
 20
1095.98472333346
 10
4807.52272078699
 20
1095.984722493012
  0
LINE
  5
46D4
330
1F
100
AcDbEntity
  8
Sanindusa
  6
Continuous
100
AcDbLine
 10
4807.528797892384
 20
1095.98857762091
 30
0.0
 11
4807.526254294998
 21
1095.988618487317
 31
0.0
  0
LINE
  5
46D5
330
1F
100
AcDbEntity
  8
Sanindusa
  6
Continuous
100
AcDbLine
 10
4807.531598314835
 20
1095.988628914376
 30
0.0
 11
4807.531598300926
 21
1095.988627310003
 31
0.0
  0
LINE
  5
46D6
330
1F
100
AcDbEntity
  8
Sanindusa
  6
Continuous
100
AcDbLine
 10
4807.531598314898
 20
1095.988628914375
 30
0.0
 11
4807.531598314835
 21
1095.988628914376
 31
0.0
  0
LINE
  5
46D7
330
1F
100
AcDbEntity
  8
Sanindusa
  6
Continuous
100
AcDbLine
 10
4807.531598300989
 20
1095.988627308453
 30
0.0
 11
4807.531598314898
 21
1095.988628914375
 31
0.0
  0
LWPOLYLINE
  5
46D8
330
1F
100
AcDbEntity
  8
Sanindusa
  6
Continuous
100
AcDbPolyline
 90
        6
 70
   128
 43
0.0
 10
4807.531696603259
 20
1095.988531049113
 10
4807.531659380155
 20
1095.988538619387
 10
4807.531627616699
 20
1095.988559199565
 10
4807.531606002807
 20
1095.988590253493
 10
4807.531600226561
 20
1095.988608409853
 10
4807.53159830115
 20
1095.988627308483
  0
LINE
  5
46D9
330
1F
100
AcDbEntity
  8
Sanindusa
  6
Continuous
100
AcDbLine
 10
4807.53159831506
 20
1095.988628914372
 30
0.0
 11
4807.531598301151
 21
1095.988627308483
 31
0.0
  0
LWPOLYLINE
  5
46DB
330
1F
100
AcDbEntity
  8
Sanindusa
  6
Continuous
100
AcDbPolyline
 90
       12
 70
   128
 43
0.0
 10
4807.531771326875
 20
1095.988626134699
 10
4807.531770677617
 20
1095.98861665406
 10
4807.531768806424
 20
1095.988606119856
 10
4807.531765393466
 20
1095.988594890011
 10
4807.531760194316
 20
1095.988583438287
 10
4807.531756892647
 20
1095.988577799505
 10
4807.531753139131
 20
1095.988572312851
 10
4807.531748975201
 20
1095.988567046027
 10
4807.531744471802
 20
1095.988562060852
 10
4807.531734908852
 20
1095.988553136986
 10
4807.531725802565
 20
1095.988545824744
 10
4807.531714317769
 20
1095.988530764505
  0
LINE
  5
46E0
330
1F
100
AcDbEntity
  8
Sanindusa
  6
Continuous
100
AcDbLine
 10
4807.526057718798
 20
1095.988814217832
 30
0.0
 11
4807.523558826876
 21
1095.988854365984
 31
0.0
  0
LWPOLYLINE
  5
46E5
330
1F
100
AcDbEntity
  8
Sanindusa
  6
Continuous
100
AcDbPolyline
 90
        6
 70
   128
 43
0.0
 10
4807.517492077856
 20
1095.988855550567
 10
4807.517494324457
 20
1095.988829140341
 10
4807.51750258556
 20
1095.988802913391
 10
4807.517516693334
 20
1095.988780654421
 10
4807.517538310229
 20
1095.98876370271
 10
4807.517561094525
 20
1095.988758155596
  0
LWPOLYLINE
  5
46E7
330
1F
100
AcDbEntity
  8
Sanindusa
  6
Continuous
100
AcDbPolyline
 90
        5
 70
   128
 43
0.0
 10
4807.518116518263
 20
1095.988941804193
 10
4807.518075170126
 20
1095.988933908824
 10
4807.51803856719
 20
1095.988907767743
 10
4807.518020813215
 20
1095.988878214709
 10
4807.518014895062
 20
1095.988847150787
  0
LWPOLYLINE
  5
46EA
330
1F
100
AcDbEntity
  8
Sanindusa
  6
Continuous
100
AcDbPolyline
 90
        7
 70
   128
 43
0.0
 10
4807.518014895062
 20
1095.988847150787
 10
4807.518007263177
 20
1095.988811830991
 10
4807.517997689327
 20
1095.988794738515
 10
4807.517984439577
 20
1095.988779555525
 10
4807.517968240371
 20
1095.988767309306
 10
4807.517950182077
 20
1095.988758664779
 10
4807.517913271863
 20
1095.988752497381
  0
LWPOLYLINE
  5
46ED
330
1F
100
AcDbEntity
  8
Sanindusa
  6
Continuous
100
AcDbPolyline
 90
        5
 70
   128
 43
0.0
 10
4807.517843334202
 20
1095.988849907149
 10
4807.51783677902
 20
1095.98888545488
 10
4807.517814594494
 20
1095.988918453463
 10
4807.51778027519
 20
1095.98894044599
 10
4807.51774251128
 20
1095.988947813132
  0
LWPOLYLINE
  5
46EE
330
1F
100
AcDbEntity
  8
Sanindusa
  6
Continuous
100
AcDbPolyline
 90
        5
 70
   128
 43
0.0
 10
4807.517926745839
 20
1095.988754556958
 10
4807.517903338279
 20
1095.98875941739
 10
4807.517870756659
 20
1095.988781381999
 10
4807.517849585686
 20
1095.988814364297
 10
4807.517843334202
 20
1095.988849907149
  0
LWPOLYLINE
  5
46F3
330
1F
100
AcDbEntity
  8
Sanindusa
  6
Continuous
100
AcDbPolyline
 90
        6
 70
   128
 43
0.0
 10
4807.517492077856
 20
1095.988855550567
 10
4807.517489831252
 20
1095.988881960794
 10
4807.51748157015
 20
1095.988908187744
 10
4807.517467462378
 20
1095.988930446714
 10
4807.517445845481
 20
1095.988947398425
 10
4807.517423061185
 20
1095.988952945539
  0
LINE
  5
46F4
330
1F
100
AcDbEntity
  8
Sanindusa
  6
Continuous
100
AcDbLine
 10
4807.520615409146
 20
1095.988901656057
 30
0.0
 11
4807.518116521499
 21
1095.988941804811
 31
0.0
  0
LINE
  5
46F7
330
1F
100
AcDbEntity
  8
Sanindusa
  6
Continuous
100
AcDbLine
 10
4807.523355580296
 20
1095.988665059174
 30
0.0
 11
4807.520811985321
 21
1095.988705925543
 31
0.0
  0
LINE
  5
46F8
330
1F
100
AcDbEntity
  8
Sanindusa
  6
Continuous
100
AcDbLine
 10
4807.522971397071
 20
1095.988863803855
 30
0.0
 11
4807.520841279004
 21
1095.988898027146
 31
0.0
  0
LWPOLYLINE
  5
4700
330
1F
100
AcDbEntity
  8
Sanindusa
  6
Continuous
100
AcDbPolyline
 90
        6
 70
   128
 43
0.0
 10
4807.520713697266
 20
1095.9888037908
 10
4807.520718465866
 20
1095.988772764047
 10
4807.520733186067
 20
1095.988745057411
 10
4807.520756431714
 20
1095.988723242784
 10
4807.520786442422
 20
1095.988709547018
 10
4807.520811985384
 20
1095.988705925542
  0
LWPOLYLINE
  5
4701
330
1F
100
AcDbEntity
  8
Sanindusa
  6
Continuous
100
AcDbPolyline
 90
        6
 70
   128
 43
0.0
 10
4807.520713697266
 20
1095.9888037908
 10
4807.520708928668
 20
1095.988834817552
 10
4807.520694208466
 20
1095.988862524188
 10
4807.520670962819
 20
1095.988884338815
 10
4807.520640952112
 20
1095.988898034581
 10
4807.520615409146
 20
1095.988901656057
  0
LWPOLYLINE
  5
4702
330
1F
100
AcDbEntity
  8
Sanindusa
  6
Continuous
100
AcDbPolyline
 90
        5
 70
   128
 43
0.0
 10
4807.520841279004
 20
1095.988898027146
 10
4807.520803126193
 20
1095.988891879711
 10
4807.520767955598
 20
1095.988871003635
 10
4807.520744577058
 20
1095.988838737086
 10
4807.520736775228
 20
1095.98880342002
  0
LINE
  5
4707
330
1F
100
AcDbEntity
  8
Sanindusa
  6
Continuous
100
AcDbLine
 10
4807.522971397071
 20
1095.988863803855
 30
0.0
 11
4807.523336859607
 21
1095.988857932195
 31
0.0
  0
LWPOLYLINE
  5
4709
330
1F
100
AcDbEntity
  8
Sanindusa
  6
Continuous
100
AcDbPolyline
 90
        6
 70
   128
 43
0.0
 10
4807.523040413741
 20
1095.988766408884
 10
4807.523038167138
 20
1095.988792819111
 10
4807.523029906036
 20
1095.988819046061
 10
4807.523015798263
 20
1095.988841305031
 10
4807.522994181367
 20
1095.988858256741
 10
4807.522971397071
 20
1095.988863803856
  0
LWPOLYLINE
  5
470A
330
1F
100
AcDbEntity
  8
Sanindusa
  6
Continuous
100
AcDbPolyline
 90
        6
 70
   128
 43
0.0
 10
4807.523040413741
 20
1095.988766408884
 10
4807.523042660344
 20
1095.988739998657
 10
4807.523050921446
 20
1095.988713771707
 10
4807.523065029219
 20
1095.988691512737
 10
4807.523086646115
 20
1095.988674561026
 10
4807.523109430411
 20
1095.988669013912
  0
LWPOLYLINE
  5
470C
330
1F
100
AcDbEntity
  8
Sanindusa
  6
Continuous
100
AcDbPolyline
 90
        5
 70
   128
 43
0.0
 10
4807.52355882835
 20
1095.98885436596
 10
4807.523517480233
 20
1095.988846470591
 10
4807.523480877314
 20
1095.98882032951
 10
4807.523463123347
 20
1095.988790776476
 10
4807.523457205197
 20
1095.988759712553
  0
LWPOLYLINE
  5
470E
330
1F
100
AcDbEntity
  8
Sanindusa
  6
Continuous
100
AcDbPolyline
 90
        7
 70
   128
 43
0.0
 10
4807.523457205197
 20
1095.988759712553
 10
4807.523449573317
 20
1095.988724392757
 10
4807.52343999947
 20
1095.988707300281
 10
4807.523426749726
 20
1095.988692117292
 10
4807.523410550528
 20
1095.988679871072
 10
4807.523392492242
 20
1095.988671226545
 10
4807.523355582046
 20
1095.988665059146
  0
LWPOLYLINE
  5
4711
330
1F
100
AcDbEntity
  8
Sanindusa
  6
Continuous
100
AcDbPolyline
 90
        5
 70
   128
 43
0.0
 10
4807.523435577131
 20
1095.988760060038
 10
4807.523429002968
 20
1095.988795608074
 10
4807.523406755096
 20
1095.988828607675
 10
4807.523372327185
 20
1095.988850601947
 10
4807.523334408544
 20
1095.988857971575
  0
LWPOLYLINE
  5
4712
330
1F
100
AcDbEntity
  8
Sanindusa
  6
Continuous
100
AcDbPolyline
 90
        3
 70
   128
 43
0.0
 10
4807.523446380198
 20
1095.988717375853
 10
4807.523441809634
 20
1095.988724517492
 10
4807.523435577131
 20
1095.988760060038
  0
LWPOLYLINE
  5
4715
330
1F
100
AcDbEntity
  8
Sanindusa
  6
Continuous
100
AcDbPolyline
 90
       11
 70
   128
 43
0.0
 10
4807.525955103704
 20
1095.991082810328
 10
4807.526440136997
 20
1095.991003332553
 10
4807.526937177097
 20
1095.990935889636
 10
4807.527421090732
 20
1095.990881921921
 10
4807.52786610054
 20
1095.990840749586
 10
4807.528226244972
 20
1095.990812358932
 10
4807.528594301214
 20
1095.99078783114
 10
4807.528967457519
 20
1095.990767440964
 10
4807.529342757764
 20
1095.990751315642
 10
4807.529717183332
 20
1095.990739427526
 10
4807.530087738015
 20
1095.990731593328
  0
LINE
  5
4719
330
1F
100
AcDbEntity
  8
Sanindusa
  6
Continuous
100
AcDbLine
 10
4807.525955103723
 20
1095.991082810323
 30
0.0
 11
4807.525955103725
 21
1095.995686251004
 31
0.0
  0
LWPOLYLINE
  5
471A
330
1F
100
AcDbEntity
  8
Sanindusa
  6
Continuous
100
AcDbPolyline
 90
        5
 70
   128
 43
0.0
 10
4807.526283588494
 20
1095.988810588923
 10
4807.526245435684
 20
1095.988804441488
 10
4807.526210265089
 20
1095.988783565412
 10
4807.526186886548
 20
1095.988751298863
 10
4807.526179084719
 20
1095.988715981797
  0
LWPOLYLINE
  5
4721
330
1F
100
AcDbEntity
  8
Sanindusa
  6
Continuous
100
AcDbPolyline
 90
        6
 70
   128
 43
0.0
 10
4807.526156006945
 20
1095.988716352573
 10
4807.526151238345
 20
1095.988747379329
 10
4807.526136518142
 20
1095.988775085968
 10
4807.526113272494
 20
1095.988796900595
 10
4807.526083261787
 20
1095.988810596358
 10
4807.526057718838
 20
1095.988814217831
  0
LWPOLYLINE
  5
4722
330
1F
100
AcDbEntity
  8
Sanindusa
  6
Continuous
100
AcDbPolyline
 90
        3
 70
   128
 43
0.0
 10
4807.526179084719
 20
1095.988715981797
 10
4807.526171624551
 20
1095.988680659242
 10
4807.52616689939
 20
1095.9886737994
  0
LINE
  5
4724
330
1F
100
AcDbEntity
  8
Sanindusa
  6
Continuous
100
AcDbLine
 10
4807.526283588494
 20
1095.988810588923
 30
0.0
 11
4807.528413706561
 21
1095.988776365632
 31
0.0
  0
LWPOLYLINE
  5
4725
330
1F
100
AcDbEntity
  8
Sanindusa
  6
Continuous
100
AcDbPolyline
 90
        7
 70
   128
 43
0.0
 10
4807.527480219309
 20
1095.988791363395
 10
4807.527433339004
 20
1095.988809567105
 10
4807.527024759354
 20
1095.989087606012
 10
4807.526658449194
 20
1095.989469070879
 10
4807.526340962937
 20
1095.989958234016
 10
4807.526105116769
 20
1095.99050776311
 10
4807.525955103704
 20
1095.991082810328
  0
LINE
  5
472A
330
1F
100
AcDbEntity
  8
Sanindusa
  6
Continuous
100
AcDbLine
 10
4807.528413706561
 20
1095.988776365632
 30
0.0
 11
4807.528779169098
 21
1095.988770493972
 31
0.0
  0
LWPOLYLINE
  5
472C
330
1F
100
AcDbEntity
  8
Sanindusa
  6
Continuous
100
AcDbPolyline
 90
        6
 70
   128
 43
0.0
 10
4807.528482723231
 20
1095.988678970661
 10
4807.528480476629
 20
1095.988705380888
 10
4807.528472215526
 20
1095.988731607838
 10
4807.528458107753
 20
1095.988753866808
 10
4807.528436490857
 20
1095.988770818519
 10
4807.528413706561
 20
1095.988776365633
  0
LWPOLYLINE
  5
472E
330
1F
100
AcDbEntity
  8
Sanindusa
  6
Continuous
100
AcDbPolyline
 90
        5
 70
   128
 43
0.0
 10
4807.529001138572
 20
1095.988766927725
 10
4807.528959790478
 20
1095.988759032356
 10
4807.528923187581
 20
1095.988732891274
 10
4807.528905433622
 20
1095.98870333824
 10
4807.528899515478
 20
1095.988672274317
  0
LWPOLYLINE
  5
4731
330
1F
100
AcDbEntity
  8
Sanindusa
  6
Continuous
100
AcDbPolyline
 90
        5
 70
   128
 43
0.0
 10
4807.528877886621
 20
1095.988672621815
 10
4807.528871312457
 20
1095.98870816985
 10
4807.528849064585
 20
1095.988741169452
 10
4807.528814636675
 20
1095.988763163724
 10
4807.528776718033
 20
1095.988770533351
  0
LINE
  5
4738
330
1F
100
AcDbEntity
  8
Sanindusa
  6
Continuous
100
AcDbLine
 10
4807.531507765386
 20
1095.988726365933
 30
0.0
 11
4807.531500026846
 21
1095.988726779632
 31
0.0
  0
LWPOLYLINE
  5
473B
330
1F
100
AcDbEntity
  8
Sanindusa
  6
Continuous
100
AcDbPolyline
 90
       14
 70
   128
 43
0.0
 10
4807.534170263446
 20
1095.988587592467
 10
4807.534169702535
 20
1095.988598290257
 10
4807.534150960922
 20
1095.988636101304
 10
4807.534123949835
 20
1095.988659347525
 10
4807.534117064275
 20
1095.988664109961
 10
4807.534113804321
 20
1095.98866629414
 10
4807.534110712383
 20
1095.988668342127
 10
4807.534107818907
 20
1095.988670251924
 10
4807.534105149705
 20
1095.988672022821
 10
4807.534102724828
 20
1095.988673655361
 10
4807.534100557433
 20
1095.988675151289
 10
4807.534094421158
 20
1095.988679841672
 10
4807.534069548505
 20
1095.988685281077
 10
4807.534053182843
 20
1095.988685577695
  0
LWPOLYLINE
  5
473C
330
1F
100
AcDbEntity
  8
Sanindusa
  6
Continuous
100
AcDbPolyline
 90
        6
 70
   128
 43
0.0
 10
4807.533819006326
 20
1095.988593235898
 10
4807.533816759723
 20
1095.988619646125
 10
4807.533808498621
 20
1095.988645873075
 10
4807.533794390848
 20
1095.988668132045
 10
4807.533772773951
 20
1095.988685083756
 10
4807.533749989656
 20
1095.98869063087
  0
LWPOLYLINE
  5
473E
330
1F
100
AcDbEntity
  8
Sanindusa
  6
Continuous
100
AcDbPolyline
 90
       37
 70
   128
 43
0.0
 10
4807.534793295258
 20
1095.988673868724
 10
4807.534791081405
 20
1095.988673880682
 10
4807.534786654443
 20
1095.988673762917
 10
4807.534782236536
 20
1095.988673456389
 10
4807.534777835741
 20
1095.988672961526
 10
4807.534773460116
 20
1095.98867227902
 10
4807.534769117715
 20
1095.988671409836
 10
4807.534764816582
 20
1095.98867035521
 10
4807.534760564759
 20
1095.988669116659
 10
4807.534756370268
 20
1095.988667695984
 10
4807.534752241118
 20
1095.988666095282
 10
4807.534748185293
 20
1095.988664316948
 10
4807.534744210744
 20
1095.988662363691
 10
4807.53474032538
 20
1095.988660238535
 10
4807.534736537059
 20
1095.988657944839
 10
4807.534732853572
 20
1095.988655486296
 10
4807.534729282628
 20
1095.988652866953
 10
4807.53472583184
 20
1095.988650091209
 10
4807.534722508701
 20
1095.988647163832
 10
4807.534719320564
 20
1095.988644089963
 10
4807.53471627462
 20
1095.98864087512
 10
4807.53471337787
 20
1095.988637525203
 10
4807.534710637103
 20
1095.988634046498
 10
4807.534708058856
 20
1095.988630445672
 10
4807.534705649397
 20
1095.988626729773
 10
4807.534703414681
 20
1095.988622906221
 10
4807.534701360328
 20
1095.988618982801
 10
4807.534699491585
 20
1095.988614967645
 10
4807.534697813297
 20
1095.988610869217
 10
4807.534696329873
 20
1095.988606696293
 10
4807.534695045259
 20
1095.988602457935
 10
4807.534693962912
 20
1095.988598163462
 10
4807.534693085768
 20
1095.988593822421
 10
4807.534692416232
 20
1095.988589444546
 10
4807.534691956143
 20
1095.988585039729
 10
4807.534691768281
 20
1095.9885821312
 10
4807.53469167186
 20
1095.988579215321
  0
LWPOLYLINE
  5
473F
330
1F
100
AcDbEntity
  8
Sanindusa
  6
Continuous
100
AcDbPolyline
 90
        5
 70
   128
 43
0.0
 10
4807.534697091471
 20
1095.98867541437
 10
4807.534659196548
 20
1095.988669262792
 10
4807.534624206962
 20
1095.988648383808
 10
4807.534600933999
 20
1095.988616115562
 10
4807.534593163806
 20
1095.988580797989
  0
LINE
  5
4741
330
1F
100
AcDbEntity
  8
Sanindusa
  6
Continuous
100
AcDbLine
 10
4807.53659249021
 20
1095.98864496217
 30
0.0
 11
4807.534793294648
 21
1095.988673868734
 31
0.0
  0
LINE
  5
4744
330
1F
100
AcDbEntity
  8
Sanindusa
  6
Continuous
100
AcDbLine
 10
4807.545316789036
 20
1095.988312222006
 30
0.0
 11
4807.536789065534
 21
1095.988449231669
 31
0.0
  0
LWPOLYLINE
  5
4745
330
1F
100
AcDbEntity
  8
Sanindusa
  6
Continuous
100
AcDbPolyline
 90
        6
 70
   128
 43
0.0
 10
4807.540580317708
 20
1095.98742545873
 10
4807.540409285197
 20
1095.987399314572
 10
4807.540256637781
 20
1095.987317648507
 10
4807.540143035342
 20
1095.987191305193
 10
4807.540081996612
 20
1095.987039361036
 10
4807.540078277861
 20
1095.98701946419
  0
LINE
  5
4746
330
1F
100
AcDbEntity
  8
Sanindusa
  6
Continuous
100
AcDbLine
 10
4807.536621166248
 20
1095.984722492865
 30
0.0
 11
4807.534885420242
 21
1095.984722492883
 31
0.0
  0
LWPOLYLINE
  5
4747
330
1F
100
AcDbEntity
  8
Sanindusa
  6
Continuous
100
AcDbPolyline
 90
        6
 70
   128
 43
0.0
 10
4807.536114971886
 20
1095.98512855464
 10
4807.536167226708
 20
1095.984980580334
 10
4807.536264886226
 20
1095.98485802788
 10
4807.53640133032
 20
1095.984769134803
 10
4807.536568366183
 20
1095.984725061962
 10
4807.53662115001
 20
1095.984722492865
  0
LWPOLYLINE
  5
474A
330
1F
100
AcDbEntity
  8
Sanindusa
  6
Continuous
100
AcDbPolyline
 90
        5
 70
   128
 43
0.0
 10
4807.534265786145
 20
1095.98848977164
 10
4807.534230394812
 20
1095.988497100663
 10
4807.534197740789
 20
1095.988519066435
 10
4807.534176527584
 20
1095.988552049413
 10
4807.534170263446
 20
1095.988587592467
  0
LWPOLYLINE
  5
474B
330
1F
100
AcDbEntity
  8
Sanindusa
  6
Continuous
100
AcDbPolyline
 90
        6
 70
   128
 43
0.0
 10
4807.533819006326
 20
1095.988593235898
 10
4807.533821252928
 20
1095.988566825671
 10
4807.53382951403
 20
1095.988540598722
 10
4807.533843621803
 20
1095.988518339752
 10
4807.5338652387
 20
1095.988501388041
 10
4807.533888022995
 20
1095.988495840927
  0
ARC
  5
474E
330
1F
100
AcDbEntity
  8
Sanindusa
  6
Continuous
100
AcDbCircle
 10
4803.927145338162
 20
1095.375293598934
 30
0.0
 40
3.660131212175933
100
AcDbArc
 50
9.591100794771424
 51
9.622468201649812
  0
ARC
  5
4751
330
1F
100
AcDbEntity
  8
Sanindusa
  6
Continuous
100
AcDbCircle
 10
4807.534592173048
 20
1095.988585828522
 30
0.0
 40
0.0001012888876549
100
AcDbArc
 50
268.7982972661816
 51
323.2483312942156
  0
LWPOLYLINE
  5
4752
330
1F
100
AcDbEntity
  8
Sanindusa
  6
Continuous
100
AcDbPolyline
 90
        6
 70
   128
 43
0.0
 10
4807.535780586305
 20
1095.987104138361
 10
4807.535728353702
 20
1095.987251745243
 10
4807.535630849876
 20
1095.987373961685
 10
4807.535494589515
 20
1095.987462850653
 10
4807.535326813392
 20
1095.987507750821
 10
4807.535278331783
 20
1095.987510642461
  0
LWPOLYLINE
  5
4753
330
1F
100
AcDbEntity
  8
Sanindusa
  6
Continuous
100
AcDbPolyline
 90
        3
 70
   128
 43
0.0
 10
4807.534691671655
 20
1095.988579215324
 10
4807.534686764741
 20
1095.988550783056
 10
4807.534673329389
 20
1095.988525222525
  0
LWPOLYLINE
  5
4754
330
1F
100
AcDbEntity
  8
Sanindusa
  6
Continuous
100
AcDbPolyline
 90
        5
 70
   128
 43
0.0
 10
4807.534593163806
 20
1095.988580797989
 10
4807.534585672002
 20
1095.988545475942
 10
4807.534563328129
 20
1095.988513192769
 10
4807.534529931421
 20
1095.988492288193
 10
4807.53449430592
 20
1095.988486100154
  0
LINE
  5
4758
330
1F
100
AcDbEntity
  8
Sanindusa
  6
Continuous
100
AcDbLine
 10
4807.538874219959
 20
1095.988608303029
 30
0.0
 11
4807.537772029207
 21
1095.988623067081
 31
0.0
  0
LINE
  5
475A
330
1F
100
AcDbEntity
  8
Sanindusa
  6
Continuous
100
AcDbLine
 10
4807.536621166621
 20
1095.984722492865
 30
0.0
 11
4807.539273575311
 21
1095.984722492837
 31
0.0
  0
LINE
  5
475B
330
1F
100
AcDbEntity
  8
Sanindusa
  6
Continuous
100
AcDbLine
 10
4807.537772029207
 20
1095.988623067081
 30
0.0
 11
4807.537726110236
 21
1095.988623984647
 31
0.0
  0
LWPOLYLINE
  5
475E
330
1F
100
AcDbEntity
  8
Sanindusa
  6
Continuous
100
AcDbPolyline
 90
        6
 70
   128
 43
0.0
 10
4807.536690764838
 20
1095.988545491144
 10
4807.536692597039
 20
1095.988526269748
 10
4807.536698093707
 20
1095.98850851111
 10
4807.536720080445
 20
1095.988477382108
 10
4807.536751620061
 20
1095.988456593807
 10
4807.53678906716
 20
1095.988449231643
  0
LINE
  5
475F
330
1F
100
AcDbEntity
  8
Sanindusa
  6
Continuous
100
AcDbLine
 10
4807.536690778748
 20
1095.988547096906
 30
0.0
 11
4807.536690764839
 21
1095.988545491144
 31
0.0
  0
LWPOLYLINE
  5
4760
330
1F
100
AcDbEntity
  8
Sanindusa
  6
Continuous
100
AcDbPolyline
 90
        6
 70
   128
 43
0.0
 10
4807.536690778748
 20
1095.988547096906
 10
4807.536686010159
 20
1095.98857812358
 10
4807.536671289994
 20
1095.988605830146
 10
4807.536648044393
 20
1095.988627644761
 10
4807.536618033661
 20
1095.988641340602
 10
4807.536592490267
 20
1095.98864496217
  0
LWPOLYLINE
  5
4761
330
1F
100
AcDbEntity
  8
Sanindusa
  6
Continuous
100
AcDbPolyline
 90
       17
 70
   128
 43
0.0
 10
4807.537726110236
 20
1095.988623984647
 10
4807.537725360312
 20
1095.98862354917
 10
4807.537723051592
 20
1095.988622559783
 10
4807.53772156736
 20
1095.988621993626
 10
4807.537719871074
 20
1095.988621376539
 10
4807.537717970268
 20
1095.988620706161
 10
4807.537715873639
 20
1095.988619980238
 10
4807.537711132922
 20
1095.988618353414
 10
4807.537705738081
 20
1095.988616481039
 10
4807.537693403778
 20
1095.988611955749
 10
4807.537665898034
 20
1095.988599713364
 10
4807.53762432108
 20
1095.988565861357
 10
4807.53761671901
 20
1095.988548055959
 10
4807.537615359339
 20
1095.98853981262
 10
4807.537615048216
 20
1095.988535937558
 10
4807.537614960105
 20
1095.988534069257
 10
4807.537614910701
 20
1095.988532249449
  0
LWPOLYLINE
  5
4762
330
1F
100
AcDbEntity
  8
Sanindusa
  6
Continuous
100
AcDbPolyline
 90
        5
 70
   128
 43
0.0
 10
4807.537614915332
 20
1095.988532249374
 10
4807.537607886796
 20
1095.988496919885
 10
4807.537586706129
 20
1095.988464618024
 10
4807.537555229092
 20
1095.988443682605
 10
4807.537522320014
 20
1095.988437450923
  0
LWPOLYLINE
  5
4763
330
1F
100
AcDbEntity
  8
Sanindusa
  6
Continuous
100
AcDbPolyline
 90
        5
 70
   128
 43
0.0
 10
4807.536792187579
 20
1095.988545467633
 10
4807.536785645051
 20
1095.98858101516
 10
4807.536763502756
 20
1095.988614013065
 10
4807.536729255855
 20
1095.988636004429
 10
4807.536691595101
 20
1095.988643369913
  0
LWPOLYLINE
  5
4764
330
1F
100
AcDbEntity
  8
Sanindusa
  6
Continuous
100
AcDbPolyline
 90
        5
 70
   128
 43
0.0
 10
4807.536887710277
 20
1095.988447646805
 10
4807.536852318945
 20
1095.988454975828
 10
4807.536819664921
 20
1095.988476941601
 10
4807.536798451717
 20
1095.988509924578
 10
4807.536792187579
 20
1095.988545467633
  0
LWPOLYLINE
  5
4765
330
1F
100
AcDbEntity
  8
Sanindusa
  6
Continuous
100
AcDbPolyline
 90
       17
 70
   128
 43
0.0
 10
4807.537772029206
 20
1095.988623067082
 10
4807.537771537905
 20
1095.988622807242
 10
4807.53776914667
 20
1095.988621819175
 10
4807.537767639898
 20
1095.988621253376
 10
4807.537765933131
 20
1095.988620636454
 10
4807.537764033493
 20
1095.988619966053
 10
4807.537761949203
 20
1095.988619239927
 10
4807.537757264486
 20
1095.988617612194
 10
4807.537751963299
 20
1095.988615738305
 10
4807.537739907122
 20
1095.988611208524
 10
4807.537713152101
 20
1095.988598954034
 10
4807.537672707099
 20
1095.988565083826
 10
4807.537665237191
 20
1095.988547276357
 10
4807.537663885436
 20
1095.988539032932
 10
4807.537663574501
 20
1095.988535157891
 10
4807.537663486375
 20
1095.988533289603
 10
4807.537663436972
 20
1095.988531469807
  0
LWPOLYLINE
  5
4766
330
1F
100
AcDbEntity
  8
Sanindusa
  6
Continuous
100
AcDbPolyline
 90
        5
 70
   128
 43
0.0
 10
4807.537663441313
 20
1095.988531469738
 10
4807.5376563754
 20
1095.988496140849
 10
4807.537635096686
 20
1095.988463840562
 10
4807.53760346392
 20
1095.988442907646
 10
4807.537570344475
 20
1095.988436679343
  0
LINE
  5
4768
330
1F
100
AcDbEntity
  8
Sanindusa
  6
Continuous
100
AcDbLine
 10
4807.536753917087
 20
1095.988455984575
 30
0.0
 11
4807.536744902637
 21
1095.988461021377
 31
0.0
  0
LWPOLYLINE
  5
4769
330
1F
100
AcDbEntity
  8
Sanindusa
  6
Continuous
100
AcDbPolyline
 90
        5
 70
   128
 43
0.0
 10
4807.539767281751
 20
1095.985128554601
 10
4807.539849517906
 20
1095.985628565155
 10
4807.539931754077
 20
1095.986128575705
 10
4807.540005956433
 20
1095.986579739155
 10
4807.540078276922
 20
1095.987019460449
  0
LWPOLYLINE
  5
476A
330
1F
100
AcDbEntity
  8
Sanindusa
  6
Continuous
100
AcDbPolyline
 90
        5
 70
   128
 43
0.0
 10
4807.539273580729
 20
1095.984722492837
 10
4807.539444036995
 20
1095.984751346192
 10
4807.539595233431
 20
1095.984835395327
 10
4807.539706590805
 20
1095.984963379791
 10
4807.539767281751
 20
1095.985128554601
  0
LINE
  5
476E
330
1F
100
AcDbEntity
  8
Sanindusa
  6
Continuous
100
AcDbLine
 10
4807.539057960688
 20
1095.98860535098
 30
0.0
 11
4807.539109118156
 21
1095.988604416622
 31
0.0
  0
LWPOLYLINE
  5
4770
330
1F
100
AcDbEntity
  8
Sanindusa
  6
Continuous
100
AcDbPolyline
 90
        6
 70
   128
 43
0.0
 10
4807.538943236629
 20
1095.988510908057
 10
4807.538940990026
 20
1095.988537318284
 10
4807.538932728924
 20
1095.988563545234
 10
4807.538918621151
 20
1095.988585804204
 10
4807.538897004254
 20
1095.988602755915
 10
4807.538874219958
 20
1095.988608303029
  0
LWPOLYLINE
  5
4771
330
1F
100
AcDbEntity
  8
Sanindusa
  6
Continuous
100
AcDbPolyline
 90
        6
 70
   128
 43
0.0
 10
4807.538943236629
 20
1095.988510908057
 10
4807.538945483231
 20
1095.98848449783
 10
4807.538953744334
 20
1095.98845827088
 10
4807.538967852106
 20
1095.98843601191
 10
4807.538989469002
 20
1095.9884190602
 10
4807.539012253299
 20
1095.988413513086
  0
LWPOLYLINE
  5
4773
330
1F
100
AcDbEntity
  8
Sanindusa
  6
Continuous
100
AcDbPolyline
 90
       14
 70
   128
 43
0.0
 10
4807.539214201747
 20
1095.988506554628
 10
4807.539213590866
 20
1095.988517519606
 10
4807.539193795145
 20
1095.988556197224
 10
4807.539165125623
 20
1095.98857962387
 10
4807.53915769714
 20
1095.988584350791
 10
4807.539150765141
 20
1095.988588518832
 10
4807.539147573989
 20
1095.988590387277
 10
4807.53914460717
 20
1095.988592111529
 10
4807.539141890004
 20
1095.988593692852
 10
4807.539139442282
 20
1095.988595133721
 10
4807.539135401027
 20
1095.988597609514
 10
4807.539129383622
 20
1095.988602223984
 10
4807.539118664937
 20
1095.988604244525
 10
4807.539109118156
 20
1095.988604416622
  0
LWPOLYLINE
  5
4774
330
1F
100
AcDbEntity
  8
Sanindusa
  6
Continuous
100
AcDbPolyline
 90
        5
 70
   128
 43
0.0
 10
4807.539303457247
 20
1095.988408834492
 10
4807.539270782338
 20
1095.988416119872
 10
4807.539240047985
 20
1095.988438054802
 10
4807.539219997988
 20
1095.988471019091
 10
4807.539214197117
 20
1095.988506554703
  0
LWPOLYLINE
  5
4775
330
1F
100
AcDbEntity
  8
Sanindusa
  6
Continuous
100
AcDbPolyline
 90
        5
 70
   128
 43
0.0
 10
4807.539162767986
 20
1095.988507380982
 10
4807.539155808362
 20
1095.988542935211
 10
4807.539132718927
 20
1095.988575948333
 10
4807.53909715698
 20
1095.988597960825
 10
4807.539057960688
 20
1095.98860535098
  0
LWPOLYLINE
  5
4776
330
1F
100
AcDbEntity
  8
Sanindusa
  6
Continuous
100
AcDbPolyline
 90
        5
 70
   128
 43
0.0
 10
4807.539252529637
 20
1095.988409652714
 10
4807.539219644361
 20
1095.988416941474
 10
4807.539188754281
 20
1095.988438878906
 10
4807.539168606236
 20
1095.98847184477
 10
4807.539162767986
 20
1095.988507380982
  0
LINE
  5
4777
330
1F
100
AcDbEntity
  8
Sanindusa
  6
Continuous
100
AcDbLine
 10
4807.544478217881
 20
1095.987362833577
 30
0.0
 11
4807.540580312002
 21
1095.987425458822
 31
0.0
  0
LINE
  5
477B
330
1F
100
AcDbEntity
  8
Sanindusa
  6
Continuous
100
AcDbLine
 10
4807.540542940365
 20
1095.988581492729
 30
0.0
 11
4807.540496519764
 21
1095.988579304462
 31
0.0
  0
LINE
  5
477E
330
1F
100
AcDbEntity
  8
Sanindusa
  6
Continuous
100
AcDbLine
 10
4807.541730365187
 20
1095.988562415108
 30
0.0
 11
4807.541560758359
 21
1095.988565140077
 31
0.0
  0
LWPOLYLINE
  5
4780
330
1F
100
AcDbEntity
  8
Sanindusa
  6
Continuous
100
AcDbPolyline
 90
        6
 70
   128
 43
0.0
 10
4807.541629775029
 20
1095.988467745105
 10
4807.541627528426
 20
1095.988494155332
 10
4807.541619267324
 20
1095.988520382282
 10
4807.541605159551
 20
1095.988542641252
 10
4807.541583542654
 20
1095.988559592963
 10
4807.541560758359
 20
1095.988565140077
  0
LINE
  5
4781
330
1F
100
AcDbEntity
  8
Sanindusa
  6
Continuous
100
AcDbLine
 10
4807.541560758359
 20
1095.988565140077
 30
0.0
 11
4807.540542940365
 21
1095.988581492729
 31
0.0
  0
LWPOLYLINE
  5
4783
330
1F
100
AcDbEntity
  8
Sanindusa
  6
Continuous
100
AcDbPolyline
 90
        6
 70
   128
 43
0.0
 10
4807.541629775029
 20
1095.988467745105
 10
4807.541632021631
 20
1095.988441334878
 10
4807.541640282733
 20
1095.988415107928
 10
4807.541654390507
 20
1095.988392848958
 10
4807.541676007403
 20
1095.988375897247
 10
4807.541698791698
 20
1095.988370350133
  0
LWPOLYLINE
  5
4784
330
1F
100
AcDbEntity
  8
Sanindusa
  6
Continuous
100
AcDbPolyline
 90
       19
 70
   128
 43
0.0
 10
4807.541886104434
 20
1095.988463626819
 10
4807.541886113105
 20
1095.9884662172
 10
4807.541886044366
 20
1095.988468910019
 10
4807.541885621812
 20
1095.988474582696
 10
4807.541883174469
 20
1095.988486890592
 10
4807.54186867443
 20
1095.988513205657
 10
4807.541841946422
 20
1095.988536605092
 10
4807.541834649697
 20
1095.988541331517
 10
4807.541827660048
 20
1095.98854550215
 10
4807.541824367445
 20
1095.988547373047
 10
4807.541821251604
 20
1095.988549100493
 10
4807.54181833958
 20
1095.988550685718
 10
4807.541815653797
 20
1095.988552131147
 10
4807.541813211106
 20
1095.988553440315
 10
4807.541811021866
 20
1095.98855461777
 10
4807.541807407218
 20
1095.988556600139
 10
4807.541802746508
 20
1095.988559271319
 10
4807.541790575302
 20
1095.988561316493
 10
4807.541781417434
 20
1095.988561482923
  0
LWPOLYLINE
  5
4785
330
1F
100
AcDbEntity
  8
Sanindusa
  6
Continuous
100
AcDbPolyline
 90
        5
 70
   128
 43
0.0
 10
4807.541975861743
 20
1095.98836589862
 10
4807.541942976468
 20
1095.98837318738
 10
4807.541912086387
 20
1095.988395124812
 10
4807.541891938342
 20
1095.988428090676
 10
4807.541886100093
 20
1095.988463626889
  0
LWPOLYLINE
  5
4786
330
1F
100
AcDbEntity
  8
Sanindusa
  6
Continuous
100
AcDbPolyline
 90
       17
 70
   128
 43
0.0
 10
4807.540496519763
 20
1095.988579304462
 10
4807.540496066962
 20
1095.988579034011
 10
4807.54049384416
 20
1095.988578043265
 10
4807.540492419158
 20
1095.988577476168
 10
4807.540490791867
 20
1095.988576857986
 10
4807.540488968914
 20
1095.98857618637
 10
4807.540486958026
 20
1095.988575459084
 10
4807.540482408331
 20
1095.988573829221
 10
4807.540477223314
 20
1095.98857195351
 10
4807.540465328833
 20
1095.988567421226
 10
4807.540438540934
 20
1095.988555167455
 10
4807.540396777701
 20
1095.988521318496
 10
4807.540388709963
 20
1095.988503520401
 10
4807.540387239007
 20
1095.98849527871
 10
4807.540386909661
 20
1095.988491403861
 10
4807.540386818924
 20
1095.988489535559
 10
4807.540386769079
 20
1095.988487715714
  0
LWPOLYLINE
  5
4787
330
1F
100
AcDbEntity
  8
Sanindusa
  6
Continuous
100
AcDbPolyline
 90
        5
 70
   128
 43
0.0
 10
4807.540386773419
 20
1095.988487715644
 10
4807.540379707505
 20
1095.988452386755
 10
4807.540358428791
 20
1095.988420086468
 10
4807.540326796027
 20
1095.988399153552
 10
4807.540293676581
 20
1095.98839292525
  0
LWPOLYLINE
  5
4788
330
1F
100
AcDbEntity
  8
Sanindusa
  6
Continuous
100
AcDbPolyline
 90
        5
 70
   128
 43
0.0
 10
4807.541834670963
 20
1095.988464453169
 10
4807.541827748718
 20
1095.988500006797
 10
4807.541804757328
 20
1095.988533018343
 10
4807.541769351111
 20
1095.988555028333
 10
4807.541730365187
 20
1095.988562415109
  0
LWPOLYLINE
  5
4789
330
1F
100
AcDbEntity
  8
Sanindusa
  6
Continuous
100
AcDbPolyline
 90
        5
 70
   128
 43
0.0
 10
4807.541924934136
 20
1095.988366716843
 10
4807.541891838492
 20
1095.988374008983
 10
4807.541860792683
 20
1095.988395948916
 10
4807.541840546591
 20
1095.988428916356
 10
4807.541834670963
 20
1095.988464453169
  0
LWPOLYLINE
  5
478A
330
1F
100
AcDbEntity
  8
Sanindusa
  6
Continuous
100
AcDbPolyline
 90
        5
 70
   128
 43
0.0
 10
4807.540542940365
 20
1095.988581492729
 10
4807.540503720272
 20
1095.988575362442
 10
4807.540467571369
 20
1095.988554502084
 10
4807.540443449312
 20
1095.98852224748
 10
4807.540435299401
 20
1095.988486936007
  0
LWPOLYLINE
  5
478B
330
1F
100
AcDbEntity
  8
Sanindusa
  6
Continuous
100
AcDbPolyline
 90
       11
 70
   128
 43
0.0
 10
4807.540435295349
 20
1095.988486936072
 10
4807.54043299696
 20
1095.988466899161
 10
4807.540429765633
 20
1095.988455661013
 10
4807.540424685123
 20
1095.988444204907
 10
4807.540421394993
 20
1095.988438565776
 10
4807.540417608599
 20
1095.988433080148
 10
4807.540413356433
 20
1095.988427815828
 10
4807.540408695359
 20
1095.988422834768
 10
4807.540398523747
 20
1095.988413924886
 10
4807.540388182133
 20
1095.988406637306
 10
4807.540366507666
 20
1095.988391755118
  0
LINE
  5
478C
330
1F
100
AcDbEntity
  8
Sanindusa
  6
Continuous
100
AcDbLine
 10
4807.546374871902
 20
1095.986091621502
 30
0.0
 11
4807.545469575902
 21
1095.986091621512
 31
0.0
  0
LINE
  5
478D
330
1F
100
AcDbEntity
  8
Sanindusa
  6
Continuous
100
AcDbLine
 10
4807.546443926804
 20
1095.986859224473
 30
0.0
 11
4807.545745357135
 21
1095.988064766427
 31
0.0
  0
LWPOLYLINE
  5
478E
330
1F
100
AcDbEntity
  8
Sanindusa
  6
Continuous
100
AcDbPolyline
 90
        6
 70
   128
 43
0.0
 10
4807.54496972791
 20
1095.986881536916
 10
4807.544943166242
 20
1095.98703636488
 10
4807.544867116177
 20
1095.987173716897
 10
4807.544748854571
 20
1095.987280953654
 10
4807.544597362964
 20
1095.987346981638
 10
4807.544478217879
 20
1095.987362833577
  0
LINE
  5
478F
330
1F
100
AcDbEntity
  8
Sanindusa
  6
Continuous
100
AcDbLine
 10
4807.544969719959
 20
1095.986881536929
 30
0.0
 11
4807.544969725071
 21
1095.986572985145
 31
0.0
  0
LWPOLYLINE
  5
4790
330
1F
100
AcDbEntity
  8
Sanindusa
  6
Continuous
100
AcDbPolyline
 90
        6
 70
   128
 43
0.0
 10
4807.544969727906
 20
1095.986572985149
 10
4807.544996289575
 20
1095.986418157186
 10
4807.54507233964
 20
1095.986280805169
 10
4807.545190601246
 20
1095.986173568411
 10
4807.545342092852
 20
1095.986107540428
 10
4807.545469575902
 20
1095.986091621512
  0
LWPOLYLINE
  5
4791
330
1F
100
AcDbEntity
  8
Sanindusa
  6
Continuous
100
AcDbPolyline
 90
        5
 70
   128
 43
0.0
 10
4807.545744936275
 20
1095.988065492716
 10
4807.545666106902
 20
1095.988167197693
 10
4807.545563259102
 20
1095.988245047333
 10
4807.545444007701
 20
1095.9882942495
 10
4807.545316789006
 20
1095.988312222007
  0
LWPOLYLINE
  5
4794
330
1F
100
AcDbEntity
  8
Sanindusa
  6
Continuous
100
AcDbPolyline
 90
        6
 70
   128
 43
0.0
 10
4807.546374871902
 20
1095.986091621502
 10
4807.546407064487
 20
1095.986097071056
 10
4807.546435619293
 20
1095.986112945384
 10
4807.546456648827
 20
1095.986137116313
 10
4807.546467687374
 20
1095.986165944034
 10
4807.546469271904
 20
1095.986182530591
  0
LINE
  5
4795
330
1F
100
AcDbEntity
  8
Sanindusa
  6
Continuous
100
AcDbLine
 10
4807.546469271904
 20
1095.986182530591
 30
0.0
 11
4807.546469271909
 21
1095.986765397525
 31
0.0
  0
LINE
  5
4797
330
1F
100
AcDbEntity
  8
Sanindusa
  6
Continuous
100
AcDbLine
 10
4807.545238765087
 20
1095.996756583563
 30
0.0
 11
4807.53585577722
 21
1095.996756583662
 31
0.0
  0
LINE
  5
4798
330
1F
100
AcDbEntity
  8
Sanindusa
  6
Continuous
100
AcDbLine
 10
4807.534831569611
 20
1095.995686251004
 30
0.0
 11
4807.544214557483
 21
1095.995686250905
 31
0.0
  0
LINE
  5
4799
330
1F
100
AcDbEntity
  8
Sanindusa
  6
Continuous
100
AcDbLine
 10
4807.534831569562
 20
1095.991016989034
 30
0.0
 11
4807.543269235616
 21
1095.990881426271
 31
0.0
  0
LINE
  5
479A
330
1F
100
AcDbEntity
  8
Sanindusa
  6
Continuous
100
AcDbLine
 10
4807.534831569614
 20
1095.995686251005
 30
0.0
 11
4807.534831569565
 21
1095.991016989035
 31
0.0
  0
LINE
  5
47A3
330
1F
100
AcDbEntity
  8
Sanindusa
  6
Continuous
100
AcDbLine
 10
4807.53405318682
 20
1095.988685759589
 30
0.0
 11
4807.533749989656
 21
1095.98869063087
 31
0.0
  0
LINE
  5
47A6
330
1F
100
AcDbEntity
  8
Sanindusa
  6
Continuous
100
AcDbLine
 10
4807.534791081405
 20
1095.988673880682
 30
0.0
 11
4807.534697091471
 21
1095.98867541437
 31
0.0
  0
LWPOLYLINE
  5
47A7
330
1F
100
AcDbEntity
  8
Sanindusa
  6
Continuous
100
AcDbPolyline
 90
        7
 70
   128
 43
0.0
 10
4807.534831569562
 20
1095.991016989034
 10
4807.534676713072
 20
1095.990459061477
 10
4807.534440672958
 20
1095.989923572933
 10
4807.534127188819
 20
1095.989442587706
 10
4807.53374897748
 20
1095.989045862714
 10
4807.533419425523
 20
1095.988807886017
 10
4807.533194972772
 20
1095.988699547983
  0
LWPOLYLINE
  5
47A8
330
1F
100
AcDbEntity
  8
Sanindusa
  6
Continuous
100
AcDbPolyline
 90
        6
 70
   128
 43
0.0
 10
4807.535855777222
 20
1095.996756583662
 10
4807.535608577961
 20
1095.996716791685
 10
4807.535363381355
 20
1095.996591434423
 10
4807.535144003045
 20
1095.99638287004
 10
4807.534946639107
 20
1095.996055684729
 10
4807.534831569611
 20
1095.995686251004
  0
LWPOLYLINE
  5
47AB
330
1F
100
AcDbEntity
  8
Sanindusa
  6
Continuous
100
AcDbPolyline
 90
       10
 70
   128
 43
0.0
 10
4807.564194152122
 20
1095.995347774753
 10
4807.564167880371
 20
1095.995583097309
 10
4807.564102532407
 20
1095.995810702184
 10
4807.563999876816
 20
1095.996023861576
 10
4807.56386370008
 20
1095.996217374012
 10
4807.563694608837
 20
1095.996388809737
 10
4807.563500106007
 20
1095.996530827488
 10
4807.563277425258
 20
1095.996643093603
 10
4807.56303952025
 20
1095.996717966152
 10
4807.562695055766
 20
1095.996756583378
  0
LWPOLYLINE
  5
47AC
330
1F
100
AcDbEntity
  8
Sanindusa
  6
Continuous
100
AcDbPolyline
 90
       10
 70
   128
 43
0.0
 10
4807.562780567854
 20
1095.990498856167
 10
4807.563039884906
 20
1095.990520757253
 10
4807.563291947059
 20
1095.990585422333
 10
4807.563529566801
 20
1095.990692079256
 10
4807.563745540159
 20
1095.990837586032
 10
4807.563929327806
 20
1095.991015014579
 10
4807.564079594308
 20
1095.991221541236
 10
4807.564187159989
 20
1095.991442905301
 10
4807.564254941625
 20
1095.991679469577
 10
4807.564279664241
 20
1095.991978229332
  0
LINE
  5
47AD
330
1F
100
AcDbEntity
  8
Sanindusa
  6
Continuous
100
AcDbLine
 10
4807.561052922849
 20
1095.989586514174
 30
0.0
 11
4807.560788221582
 21
1095.984722492609
 31
0.0
  0
LWPOLYLINE
  5
47AF
330
1F
100
AcDbEntity
  8
Sanindusa
  6
Continuous
100
AcDbPolyline
 90
        9
 70
   128
 43
0.0
 10
4807.554006416164
 20
1095.988223786418
 10
4807.554561951502
 20
1095.988273360273
 10
4807.555102162499
 20
1095.988407311778
 10
4807.555617139158
 20
1095.988624165749
 10
4807.556089027054
 20
1095.988917342517
 10
4807.556511106977
 20
1095.989284525112
 10
4807.556865301171
 20
1095.989711953233
 10
4807.557146604849
 20
1095.990196446257
 10
4807.557342085778
 20
1095.990720962318
  0
LINE
  5
47B1
330
1F
100
AcDbEntity
  8
Sanindusa
  6
Continuous
100
AcDbLine
 10
4807.558163517274
 20
1095.984722492637
 30
0.0
 11
4807.554548122243
 21
1095.984722492675
 31
0.0
  0
LINE
  5
47B4
330
1F
100
AcDbEntity
  8
Sanindusa
  6
Continuous
100
AcDbLine
 10
4807.556878893826
 20
1095.987295805979
 30
0.0
 11
4807.554460548048
 21
1095.987266488326
 31
0.0
  0
LINE
  5
47B6
330
1F
100
AcDbEntity
  8
Sanindusa
  6
Continuous
100
AcDbLine
 10
4807.55256511751
 20
1095.984722492696
 30
0.0
 11
4807.549163135169
 21
1095.984722492732
 31
0.0
  0
LWPOLYLINE
  5
47B7
330
1F
100
AcDbEntity
  8
Sanindusa
  6
Continuous
100
AcDbPolyline
 90
        9
 70
   128
 43
0.0
 10
4807.550874362437
 20
1095.988222931909
 10
4807.551364347064
 20
1095.98821634493
 10
4807.551821426759
 20
1095.988212517445
 10
4807.552240432864
 20
1095.988210973453
 10
4807.552611361848
 20
1095.988211174746
 10
4807.552929492049
 20
1095.988212520558
 10
4807.553187439505
 20
1095.988214407075
 10
4807.553381576699
 20
1095.988216296669
 10
4807.553507731741
 20
1095.988217740857
  0
LINE
  5
47C1
330
1F
100
AcDbEntity
  8
Sanindusa
  6
Continuous
100
AcDbLine
 10
4807.554435298649
 20
1095.984722492676
 30
0.0
 11
4807.55373884725
 21
1095.984722492684
 31
0.0
  0
LWPOLYLINE
  5
47C5
330
1F
100
AcDbEntity
  8
Sanindusa
  6
Continuous
100
AcDbPolyline
 90
        6
 70
   128
 43
0.0
 10
4807.554460548047
 20
1095.987266488326
 10
4807.554290600855
 20
1095.987235613137
 10
4807.554140555553
 20
1095.987149823996
 10
4807.554030888503
 20
1095.987020649085
 10
4807.553974361293
 20
1095.986867515617
 10
4807.553966991907
 20
1095.986785162836
  0
LINE
  5
47C8
330
1F
100
AcDbEntity
  8
Sanindusa
  6
Continuous
100
AcDbLine
 10
4807.553467143899
 20
1095.986091621427
 30
0.0
 11
4807.552561847899
 21
1095.986091621437
 31
0.0
  0
LINE
  5
47CC
330
1F
100
AcDbEntity
  8
Sanindusa
  6
Continuous
100
AcDbLine
 10
4807.554006416165
 20
1095.988223786418
 30
0.0
 11
4807.55356763253
 21
1095.988218467035
 31
0.0
  0
LWPOLYLINE
  5
47CD
330
1F
100
AcDbEntity
  8
Sanindusa
  6
Continuous
100
AcDbPolyline
 90
        5
 70
   128
 43
0.0
 10
4807.553567632528
 20
1095.988218467035
 10
4807.553439650051
 20
1095.988200811856
 10
4807.553319862339
 20
1095.988151688382
 10
4807.5532165557
 20
1095.988073696915
 10
4807.553137439156
 20
1095.987971708914
  0
LINE
  5
47CE
330
1F
100
AcDbEntity
  8
Sanindusa
  6
Continuous
100
AcDbLine
 10
4807.553137439155
 20
1095.987971708912
 30
0.0
 11
4807.552492793013
 21
1095.986859224409
 31
0.0
  0
LWPOLYLINE
  5
47CF
330
1F
100
AcDbEntity
  8
Sanindusa
  6
Continuous
100
AcDbPolyline
 90
        4
 70
   128
 43
0.0
 10
4807.552492793013
 20
1095.986859224409
 10
4807.552477929488
 20
1095.986826921516
 10
4807.552470166708
 20
1095.98679704258
 10
4807.552467447905
 20
1095.986765397462
  0
LINE
  5
47D0
330
1F
100
AcDbEntity
  8
Sanindusa
  6
Continuous
100
AcDbLine
 10
4807.552467447905
 20
1095.986765397461
 30
0.0
 11
4807.552467447899
 21
1095.986182530528
 31
0.0
  0
LWPOLYLINE
  5
47D1
330
1F
100
AcDbEntity
  8
Sanindusa
  6
Continuous
100
AcDbPolyline
 90
        6
 70
   128
 43
0.0
 10
4807.552467447899
 20
1095.986182530528
 10
4807.552472464267
 20
1095.986153290119
 10
4807.552486826885
 20
1095.986127350173
 10
4807.552509161467
 20
1095.986107097716
 10
4807.55253777178
 20
1095.986094627842
 10
4807.552561847898
 20
1095.986091621437
  0
LINE
  5
47D2
330
1F
100
AcDbEntity
  8
Sanindusa
  6
Continuous
100
AcDbLine
 10
4807.55348171575
 20
1095.984722492687
 30
0.0
 11
4807.552565117518
 21
1095.984722492696
 31
0.0
  0
LINE
  5
47D3
330
1F
100
AcDbEntity
  8
Sanindusa
  6
Continuous
100
AcDbLine
 10
4807.55373884725
 20
1095.984722492684
 30
0.0
 11
4807.55348171575
 21
1095.984722492687
 31
0.0
  0
LWPOLYLINE
  5
47D7
330
1F
100
AcDbEntity
  8
Sanindusa
  6
Continuous
100
AcDbPolyline
 90
        6
 70
   128
 43
0.0
 10
4807.553467143898
 20
1095.986091621427
 10
4807.553637603633
 20
1095.986120476816
 10
4807.553788801334
 20
1095.986204531383
 10
4807.553900152717
 20
1095.986332516451
 10
4807.553958601822
 20
1095.986485159231
 10
4807.553966991903
 20
1095.986572985053
  0
LINE
  5
47D8
330
1F
100
AcDbEntity
  8
Sanindusa
  6
Continuous
100
AcDbLine
 10
4807.553966992938
 20
1095.986572985051
 30
0.0
 11
4807.553966991316
 21
1095.986785162833
 31
0.0
  0
LINE
  5
47DC
330
1F
100
AcDbEntity
  8
Sanindusa
  6
Continuous
100
AcDbLine
 10
4807.554548122244
 20
1095.984722492675
 30
0.0
 11
4807.554435298649
 21
1095.984722492676
 31
0.0
  0
LINE
  5
47E0
330
1F
100
AcDbEntity
  8
Sanindusa
  6
Continuous
100
AcDbLine
 10
4807.558163517405
 20
1095.984722492637
 30
0.0
 11
4807.560788221582
 21
1095.984722492609
 31
0.0
  0
LWPOLYLINE
  5
47E1
330
1F
100
AcDbEntity
  8
Sanindusa
  6
Continuous
100
AcDbPolyline
 90
        6
 70
   128
 43
0.0
 10
4807.55766923443
 20
1095.985128554412
 10
4807.557721224553
 20
1095.984978616365
 10
4807.557819522899
 20
1095.984854201744
 10
4807.557955692937
 20
1095.984765924512
 10
4807.558118830009
 20
1095.984724403351
 10
4807.558163359511
 20
1095.984722492637
  0
LWPOLYLINE
  5
47E2
330
1F
100
AcDbEntity
  8
Sanindusa
  6
Continuous
100
AcDbPolyline
 90
        5
 70
   128
 43
0.0
 10
4807.557379303163
 20
1095.986889772911
 10
4807.557454211331
 20
1095.986434743036
 10
4807.557530882799
 20
1095.985968996303
 10
4807.55760005898
 20
1095.985548775396
 10
4807.557669234437
 20
1095.985128554369
  0
LWPOLYLINE
  5
47E3
330
1F
100
AcDbEntity
  8
Sanindusa
  6
Continuous
100
AcDbPolyline
 90
        6
 70
   128
 43
0.0
 10
4807.557379296905
 20
1095.986889793114
 10
4807.557327309404
 20
1095.987039720444
 10
4807.55722901684
 20
1095.987164125714
 10
4807.557092856801
 20
1095.987252397377
 10
4807.556929718671
 20
1095.987293927813
 10
4807.556878820273
 20
1095.987295805088
  0
ARC
  5
47E4
330
1F
100
AcDbEntity
  8
Sanindusa
  6
Continuous
100
AcDbCircle
 10
4807.555635169069
 20
1096.094564701852
 30
0.0
 40
0.1038563837316019
100
AcDbArc
 50
269.1440943526256
 51
270.6458779583439
  0
LINE
  5
47E5
330
1F
100
AcDbEntity
  8
Sanindusa
  6
Continuous
100
AcDbLine
 10
4807.558723619969
 20
1095.995686250769
 30
0.0
 11
4807.557342085779
 21
1095.990720962319
 31
0.0
  0
LINE
  5
47E7
330
1F
100
AcDbEntity
  8
Sanindusa
  6
Continuous
100
AcDbLine
 10
4807.556805885813
 20
1095.990714916758
 30
0.0
 11
4807.557342085779
 21
1095.990720962318
 31
0.0
  0
LINE
  5
47E8
330
1F
100
AcDbEntity
  8
Sanindusa
  6
Continuous
100
AcDbLine
 10
4807.562780567854
 20
1095.990498856167
 30
0.0
 11
4807.562051248809
 21
1095.990498856175
 31
0.0
  0
LWPOLYLINE
  5
47E9
330
1F
100
AcDbEntity
  8
Sanindusa
  6
Continuous
100
AcDbPolyline
 90
        6
 70
   128
 43
0.0
 10
4807.562051248809
 20
1095.990498856175
 10
4807.561710331078
 20
1095.990441146005
 10
4807.561407936808
 20
1095.990273038587
 10
4807.561185233024
 20
1095.99001706922
 10
4807.561068333618
 20
1095.989711783972
 10
4807.561052922848
 20
1095.989586514174
  0
LWPOLYLINE
  5
47EA
330
1F
100
AcDbEntity
  8
Sanindusa
  6
Continuous
100
AcDbPolyline
 90
        8
 70
   128
 43
0.0
 10
4807.560172068253
 20
1095.996756583405
 10
4807.559912904064
 20
1095.996734708505
 10
4807.559660981879
 20
1095.996670119508
 10
4807.559423476478
 20
1095.996563586796
 10
4807.559207579198
 20
1095.996418244622
 10
4807.559023711733
 20
1095.996240887999
 10
4807.558873353601
 20
1095.996034418786
 10
4807.558723619964
 20
1095.995686250752
  0
LINE
  5
47EB
330
1F
100
AcDbEntity
  8
Sanindusa
  6
Continuous
100
AcDbLine
 10
4807.560172068253
 20
1095.996756583405
 30
0.0
 11
4807.562695055766
 21
1095.996756583378
 31
0.0
  0
LINE
  5
47EC
330
1F
100
AcDbEntity
  8
Sanindusa
  6
Continuous
100
AcDbLine
 10
4807.564194152122
 20
1095.995347774753
 30
0.0
 11
4807.564279664241
 21
1095.991978229332
 31
0.0
  0
LINE
  5
57AF
330
1F
100
AcDbEntity
  8
Sanindusa
  6
Continuous
100
AcDbLine
 10
4807.182704093222
 20
1096.030196413342
 30
0.0
 11
4807.169575084377
 21
1096.030256927205
 31
0.0
  0
CIRCLE
  5
57B3
330
1F
100
AcDbEntity
  8
Sanindusa
  6
Continuous
100
AcDbCircle
 10
4807.18603000746
 20
1096.020742999265
 30
0.0
 40
0.0006
  0
CIRCLE
  5
57B7
330
1F
100
AcDbEntity
  8
Sanindusa
  6
Continuous
100
AcDbCircle
 10
4807.182180007459
 20
1096.020742999265
 30
0.0
 40
0.0006
  0
ARC
  5
57B9
330
1F
100
AcDbEntity
  8
Sanindusa
  6
Continuous
100
AcDbCircle
 10
4807.182484541081
 20
1095.982560952268
 30
0.0
 40
0.0476359670300868
100
AcDbArc
 50
79.59621233874504
 51
89.73592526127511
  0
LWPOLYLINE
  5
57BB
330
1F
100
AcDbEntity
  8
Sanindusa
  6
Continuous
100
AcDbPolyline
 90
        3
 70
   128
 43
0.0
 10
4807.193624003729
 20
1096.028949739643
 10
4807.192358642207
 20
1096.029196666161
 10
4807.191086842458
 20
1096.029413761852
  0
CIRCLE
  5
57BF
330
1F
100
AcDbEntity
  8
Sanindusa
  6
Continuous
100
AcDbCircle
 10
4807.189880007459
 20
1096.016892999265
 30
0.0
 40
0.0007
  0
CIRCLE
  5
57C2
330
1F
100
AcDbEntity
  8
Sanindusa
  6
Continuous
100
AcDbCircle
 10
4807.193730007459
 20
1096.013042999265
 30
0.0
 40
0.00088
  0
CIRCLE
  5
57C4
330
1F
100
AcDbEntity
  8
Sanindusa
  6
Continuous
100
AcDbCircle
 10
4807.193730007459
 20
1096.009192999265
 30
0.0
 40
0.00099
  0
CIRCLE
  5
57C7
330
1F
100
AcDbEntity
  8
Sanindusa
  6
Continuous
100
AcDbCircle
 10
4807.189880007459
 20
1096.013042999265
 30
0.0
 40
0.000825
  0
CIRCLE
  5
57CA
330
1F
100
AcDbEntity
  8
Sanindusa
  6
Continuous
100
AcDbCircle
 10
4807.19758000746
 20
1096.013042999265
 30
0.0
 40
0.000825
  0
CIRCLE
  5
57CD
330
1F
100
AcDbEntity
  8
Sanindusa
  6
Continuous
100
AcDbCircle
 10
4807.19758000746
 20
1096.009192999265
 30
0.0
 40
0.00099
  0
CIRCLE
  5
57D1
330
1F
100
AcDbEntity
  8
Sanindusa
  6
Continuous
100
AcDbCircle
 10
4807.19758000746
 20
1096.005342999265
 30
0.0
 40
0.0011
  0
CIRCLE
  5
57D4
330
1F
100
AcDbEntity
  8
Sanindusa
  6
Continuous
100
AcDbCircle
 10
4807.201430007459
 20
1096.005342999265
 30
0.0
 40
0.001
  0
CIRCLE
  5
57D7
330
1F
100
AcDbEntity
  8
Sanindusa
  6
Continuous
100
AcDbCircle
 10
4807.201430007459
 20
1096.001492999265
 30
0.0
 40
0.0011
  0
CIRCLE
  5
57DA
330
1F
100
AcDbEntity
  8
Sanindusa
  6
Continuous
100
AcDbCircle
 10
4807.201430007459
 20
1096.009192999265
 30
0.0
 40
0.00075
  0
LWPOLYLINE
  5
57DE
330
1F
100
AcDbEntity
  8
Sanindusa
  6
Continuous
100
AcDbPolyline
 90
        3
 70
   128
 43
0.0
 10
4807.208479732038
 20
1096.014064936188
 10
4807.207943014063
 20
1096.013606840648
 10
4807.207472237653
 20
1096.013057441803
  0
CIRCLE
  5
57E2
330
1F
100
AcDbEntity
  8
Sanindusa
  6
Continuous
100
AcDbCircle
 10
4807.18603000746
 20
1096.016892999265
 30
0.0
 40
0.0007
  0
CIRCLE
  5
57E9
330
1F
100
AcDbEntity
  8
Sanindusa
  6
Continuous
100
AcDbCircle
 10
4807.20528000746
 20
1095.997642999265
 30
0.0
 40
0.0011
  0
CIRCLE
  5
57EC
330
1F
100
AcDbEntity
  8
Sanindusa
  6
Continuous
100
AcDbCircle
 10
4807.209130007459
 20
1095.993792999265
 30
0.0
 40
0.00099
  0
CIRCLE
  5
57EE
330
1F
100
AcDbEntity
  8
Sanindusa
  6
Continuous
100
AcDbCircle
 10
4807.209130007459
 20
1095.997642999265
 30
0.0
 40
0.00099
  0
CIRCLE
  5
57F2
330
1F
100
AcDbEntity
  8
Sanindusa
  6
Continuous
100
AcDbCircle
 10
4807.209130007459
 20
1096.001492999265
 30
0.0
 40
0.00075
  0
CIRCLE
  5
57F5
330
1F
100
AcDbEntity
  8
Sanindusa
  6
Continuous
100
AcDbCircle
 10
4807.21313000746
 20
1095.997642999265
 30
0.0
 40
0.000825
  0
CIRCLE
  5
57F9
330
1F
100
AcDbEntity
  8
Sanindusa
  6
Continuous
100
AcDbCircle
 10
4807.21313000746
 20
1095.989942999265
 30
0.0
 40
0.00088
  0
CIRCLE
  5
57FB
330
1F
100
AcDbEntity
  8
Sanindusa
  6
Continuous
100
AcDbCircle
 10
4807.216980007459
 20
1095.986092999265
 30
0.0
 40
0.0007
  0
CIRCLE
  5
57FE
330
1F
100
AcDbEntity
  8
Sanindusa
  6
Continuous
100
AcDbCircle
 10
4807.216980007459
 20
1095.989942999265
 30
0.0
 40
0.0007
  0
CIRCLE
  5
5801
330
1F
100
AcDbEntity
  8
Sanindusa
  6
Continuous
100
AcDbCircle
 10
4807.21313000746
 20
1095.993792999265
 30
0.0
 40
0.00088
  0
LWPOLYLINE
  5
5804
330
1F
100
AcDbEntity
  8
Sanindusa
  6
Continuous
100
AcDbPolyline
 90
        3
 70
   128
 43
0.0
 10
4807.21298028288
 20
1096.007549396575
 10
4807.213517000855
 20
1096.008007492115
 10
4807.213987777266
 20
1096.00855689096
  0
ARC
  5
5806
330
1F
100
AcDbEntity
  8
Sanindusa
  6
Continuous
100
AcDbCircle
 10
4807.182483793346
 20
1095.982561700003
 30
0.0
 40
0.0476359670300796
100
AcDbArc
 50
0.2640747387248322
 51
10.40378766128295
  0
CIRCLE
  5
5808
330
1F
100
AcDbEntity
  8
Sanindusa
  6
Continuous
100
AcDbCircle
 10
4807.220830007459
 20
1095.978392999265
 30
0.0
 40
0.0007
  0
CIRCLE
  5
5809
330
1F
100
AcDbEntity
  8
Sanindusa
  6
Continuous
100
AcDbCircle
 10
4807.220830007459
 20
1095.982242999265
 30
0.0
 40
0.0006
  0
LINE
  5
580F
330
1F
100
AcDbEntity
  8
Sanindusa
  6
Continuous
100
AcDbLine
 10
4807.230179768283
 20
1095.969652243299
 30
0.0
 11
4807.23011925442
 21
1095.982781252143
 31
0.0
  0
LINE
  5
5811
330
1F
100
AcDbEntity
  8
Sanindusa
  6
Continuous
100
AcDbLine
 10
4807.232491688854
 20
1095.968841039945
 30
0.0
 11
4807.232491688854
 21
1095.982807166381
 31
0.0
  0
LINE
  5
5812
330
1F
100
AcDbEntity
  8
Sanindusa
  6
Continuous
100
AcDbLine
 10
4807.233650799845
 20
1095.982807166381
 30
0.0
 11
4807.233650799845
 21
1095.968841039945
 31
0.0
  0
CIRCLE
  5
5817
330
1F
100
AcDbEntity
  8
Sanindusa
  6
Continuous
100
AcDbCircle
 10
4807.216980007459
 20
1095.982242999265
 30
0.0
 40
0.0007
  0
CIRCLE
  5
5818
330
1F
100
AcDbEntity
  8
Sanindusa
  6
Continuous
100
AcDbCircle
 10
4807.220830007459
 20
1095.986092999265
 30
0.0
 40
0.0006
  0
LWPOLYLINE
  5
581B
330
1F
100
AcDbEntity
  8
Sanindusa
  6
Continuous
100
AcDbPolyline
 90
        3
 70
   128
 43
0.0
 10
4807.229336602929
 20
1095.99116400138
 10
4807.229119681707
 20
1095.992434846754
 10
4807.228872580721
 20
1095.993701162651
  0
ARC
  5
581D
330
1F
100
AcDbEntity
  8
Sanindusa
  6
Continuous
100
AcDbCircle
 10
4807.182975423495
 20
1095.983052582417
 30
0.0
 40
0.0471162530601174
100
AcDbArc
 50
13.06207201460814
 51
76.93792798536943
  0
ARC
  5
581F
330
1F
100
AcDbEntity
  8
Sanindusa
  6
Continuous
100
AcDbCircle
 10
4807.182730007459
 20
1095.982807166381
 30
0.0
 40
0.054
100
AcDbArc
 50
0.0
 51
90.0
  0
ARC
  5
5820
330
1F
100
AcDbEntity
  8
Sanindusa
  6
Continuous
100
AcDbCircle
 10
4807.182730007459
 20
1095.982807166381
 30
0.0
 40
0.055
100
AcDbArc
 50
0.0
 51
90.0
  0
ARC
  5
5821
330
1F
100
AcDbEntity
  8
Sanindusa
  6
Continuous
100
AcDbCircle
 10
4807.182730007459
 20
1095.982807166381
 30
0.0
 40
0.0497616813940279
100
AcDbArc
 50
0.0
 51
90.0
  0
ARC
  5
5822
330
1F
100
AcDbEntity
  8
Sanindusa
  6
Continuous
100
AcDbCircle
 10
4807.182730007459
 20
1095.982807166381
 30
0.0
 40
0.0509207923855748
100
AcDbArc
 50
0.0
 51
90.0
  0
CIRCLE
  5
5823
330
1F
100
AcDbEntity
  8
Sanindusa
  6
Continuous
100
AcDbCircle
 10
4807.20528000746
 20
1096.001492999265
 30
0.0
 40
0.00099
  0
LWPOLYLINE
  5
5826
330
1F
100
AcDbEntity
  8
Sanindusa
  6
Continuous
100
AcDbPolyline
 90
       18
 70
   128
 43
0.0
 10
4807.213987777266
 20
1096.00855689096
 10
4807.214206772766
 20
1096.008892085702
 10
4807.21449169983
 20
1096.009492639997
 10
4807.214672494905
 20
1096.01013232406
 10
4807.214742493111
 20
1096.010793419516
 10
4807.214701222089
 20
1096.011456961695
 10
4807.214548394988
 20
1096.012103572992
 10
4807.214289857498
 20
1096.012715664948
 10
4807.213931732357
 20
1096.013274912277
 10
4807.213485376736
 20
1096.01376663318
 10
4807.212962509539
 20
1096.014175676608
 10
4807.212378796852
 20
1096.014491854449
 10
4807.211750053878
 20
1096.014704841655
 10
4807.211094641512
 20
1096.014810087388
 10
4807.210430640992
 20
1096.014803075404
 10
4807.209777123143
 20
1096.014685531426
 10
4807.209100132673
 20
1096.014434357335
 10
4807.208479732038
 20
1096.014064936188
  0
LWPOLYLINE
  5
5827
330
1F
100
AcDbEntity
  8
Sanindusa
  6
Continuous
100
AcDbPolyline
 90
       18
 70
   128
 43
0.0
 10
4807.207472237653
 20
1096.013057441803
 10
4807.207253242153
 20
1096.012722247061
 10
4807.206968315089
 20
1096.012121692766
 10
4807.206787520014
 20
1096.011482008703
 10
4807.206717521808
 20
1096.010820913247
 10
4807.20675879283
 20
1096.010157371068
 10
4807.20691161993
 20
1096.009510759771
 10
4807.207170157419
 20
1096.008898667815
 10
4807.20752828256
 20
1096.008339420486
 10
4807.207974638181
 20
1096.007847699583
 10
4807.208497505378
 20
1096.007438656155
 10
4807.209081218066
 20
1096.007122478314
 10
4807.20970996104
 20
1096.006909491108
 10
4807.210365373406
 20
1096.006804245375
 10
4807.211029373925
 20
1096.006811257358
 10
4807.211682891775
 20
1096.006928801337
 10
4807.212359882244
 20
1096.007179975427
 10
4807.21298028288
 20
1096.007549396575
  0
CIRCLE
  5
5828
330
1F
100
AcDbEntity
  8
Sanindusa
  6
Continuous
100
AcDbCircle
 10
4807.21073000746
 20
1096.010807166381
 30
0.0
 40
0.003
  0
LINE
  5
582A
330
1F
100
AcDbEntity
  8
Sanindusa
  6
Continuous
100
AcDbLine
 10
4807.168763881023
 20
1096.033727958767
 30
0.0
 11
4807.182730007459
 21
1096.033727958767
 31
0.0
  0
LINE
  5
582B
330
1F
100
AcDbEntity
  8
Sanindusa
  6
Continuous
100
AcDbLine
 10
4807.182730007459
 20
1096.032568847775
 30
0.0
 11
4807.168763881023
 21
1096.032568847775
 31
0.0
  0
LINE
  5
582D
330
1F
100
AcDbEntity
  8
Sanindusa
  6
Continuous
100
AcDbLine
 10
4807.157730007459
 20
1096.036807166381
 30
0.0
 11
4807.157730007459
 21
1096.037307166382
 31
0.0
  0
ARC
  5
5831
330
1F
100
AcDbEntity
  8
Sanindusa
  6
Continuous
100
AcDbCircle
 10
4807.158230007459
 20
1096.037307166382
 30
0.0
 40
0.0005
100
AcDbArc
 50
90.0
 51
180.0
  0
CIRCLE
  5
5833
330
1F
100
AcDbEntity
  8
Sanindusa
  6
Continuous
100
AcDbCircle
 10
4807.17448000746
 20
1096.016892999265
 30
0.0
 40
0.0007
  0
CIRCLE
  5
5837
330
1F
100
AcDbEntity
  8
Sanindusa
  6
Continuous
100
AcDbCircle
 10
4807.178330007459
 20
1096.013042999265
 30
0.0
 40
0.00075
  0
CIRCLE
  5
583B
330
1F
100
AcDbEntity
  8
Sanindusa
  6
Continuous
100
AcDbCircle
 10
4807.178330007459
 20
1096.016892999265
 30
0.0
 40
0.0007
  0
CIRCLE
  5
583D
330
1F
100
AcDbEntity
  8
Sanindusa
  6
Continuous
100
AcDbCircle
 10
4807.17448000746
 20
1096.009192999265
 30
0.0
 40
0.0007
  0
CIRCLE
  5
5840
330
1F
100
AcDbEntity
  8
Sanindusa
  6
Continuous
100
AcDbCircle
 10
4807.17448000746
 20
1096.013042999265
 30
0.0
 40
0.0007
  0
CIRCLE
  5
5842
330
1F
100
AcDbEntity
  8
Sanindusa
  6
Continuous
100
AcDbCircle
 10
4807.17448000746
 20
1096.020742999265
 30
0.0
 40
0.0007
  0
CIRCLE
  5
5846
330
1F
100
AcDbEntity
  8
Sanindusa
  6
Continuous
100
AcDbCircle
 10
4807.182180007459
 20
1096.009192999265
 30
0.0
 40
0.000825
  0
CIRCLE
  5
584A
330
1F
100
AcDbEntity
  8
Sanindusa
  6
Continuous
100
AcDbCircle
 10
4807.18603000746
 20
1096.005342999265
 30
0.0
 40
0.00099
  0
CIRCLE
  5
584E
330
1F
100
AcDbEntity
  8
Sanindusa
  6
Continuous
100
AcDbCircle
 10
4807.18603000746
 20
1096.009192999265
 30
0.0
 40
0.00088
  0
CIRCLE
  5
5851
330
1F
100
AcDbEntity
  8
Sanindusa
  6
Continuous
100
AcDbCircle
 10
4807.178330007459
 20
1096.005342999265
 30
0.0
 40
0.000825
  0
CIRCLE
  5
5853
330
1F
100
AcDbEntity
  8
Sanindusa
  6
Continuous
100
AcDbCircle
 10
4807.182180007459
 20
1096.001492999265
 30
0.0
 40
0.0011
  0
CIRCLE
  5
5856
330
1F
100
AcDbEntity
  8
Sanindusa
  6
Continuous
100
AcDbCircle
 10
4807.178330007459
 20
1096.001492999265
 30
0.0
 40
0.00099
  0
CIRCLE
  5
585A
330
1F
100
AcDbEntity
  8
Sanindusa
  6
Continuous
100
AcDbCircle
 10
4807.182180007459
 20
1096.005342999265
 30
0.0
 40
0.00099
  0
CIRCLE
  5
585D
330
1F
100
AcDbEntity
  8
Sanindusa
  6
Continuous
100
AcDbCircle
 10
4807.193730007459
 20
1096.001492999265
 30
0.0
 40
0.00121
  0
CIRCLE
  5
5860
330
1F
100
AcDbEntity
  8
Sanindusa
  6
Continuous
100
AcDbCircle
 10
4807.189880007459
 20
1096.001492999265
 30
0.0
 40
0.00121
  0
CIRCLE
  5
5863
330
1F
100
AcDbEntity
  8
Sanindusa
  6
Continuous
100
AcDbCircle
 10
4807.19758000746
 20
1095.997642999265
 30
0.0
 40
0.001375
  0
CIRCLE
  5
5866
330
1F
100
AcDbEntity
  8
Sanindusa
  6
Continuous
100
AcDbCircle
 10
4807.193730007459
 20
1095.997642999265
 30
0.0
 40
0.001375
  0
CIRCLE
  5
5869
330
1F
100
AcDbEntity
  8
Sanindusa
  6
Continuous
100
AcDbCircle
 10
4807.18603000746
 20
1095.997642999265
 30
0.0
 40
0.00121
  0
CIRCLE
  5
586C
330
1F
100
AcDbEntity
  8
Sanindusa
  6
Continuous
100
AcDbCircle
 10
4807.18603000746
 20
1095.993792999265
 30
0.0
 40
0.00121
  0
CIRCLE
  5
5870
330
1F
100
AcDbEntity
  8
Sanindusa
  6
Continuous
100
AcDbCircle
 10
4807.189880007459
 20
1095.989942999265
 30
0.0
 40
0.001375
  0
CIRCLE
  5
5872
330
1F
100
AcDbEntity
  8
Sanindusa
  6
Continuous
100
AcDbCircle
 10
4807.189880007459
 20
1095.993792999265
 30
0.0
 40
0.001375
  0
CIRCLE
  5
5875
330
1F
100
AcDbEntity
  8
Sanindusa
  6
Continuous
100
AcDbCircle
 10
4807.189880007459
 20
1095.997642999265
 30
0.0
 40
0.001375
  0
CIRCLE
  5
5878
330
1F
100
AcDbEntity
  8
Sanindusa
  6
Continuous
100
AcDbCircle
 10
4807.193730007459
 20
1095.993792999265
 30
0.0
 40
0.001375
  0
CIRCLE
  5
587B
330
1F
100
AcDbEntity
  8
Sanindusa
  6
Continuous
100
AcDbCircle
 10
4807.18603000746
 20
1096.001492999265
 30
0.0
 40
0.00121
  0
CIRCLE
  5
587E
330
1F
100
AcDbEntity
  8
Sanindusa
  6
Continuous
100
AcDbCircle
 10
4807.182180007459
 20
1095.997642999265
 30
0.0
 40
0.0011
  0
CIRCLE
  5
587F
330
1F
100
AcDbEntity
  8
Sanindusa
  6
Continuous
100
AcDbCircle
 10
4807.189880007459
 20
1096.005342999265
 30
0.0
 40
0.0011
  0
CIRCLE
  5
5882
330
1F
100
AcDbEntity
  8
Sanindusa
  6
Continuous
100
AcDbCircle
 10
4807.178330007459
 20
1095.993792999265
 30
0.0
 40
0.00099
  0
CIRCLE
  5
5884
330
1F
100
AcDbEntity
  8
Sanindusa
  6
Continuous
100
AcDbCircle
 10
4807.17448000746
 20
1095.989942999265
 30
0.0
 40
0.00075
  0
CIRCLE
  5
5886
330
1F
100
AcDbEntity
  8
Sanindusa
  6
Continuous
100
AcDbCircle
 10
4807.17448000746
 20
1095.993792999265
 30
0.0
 40
0.00075
  0
CIRCLE
  5
5889
330
1F
100
AcDbEntity
  8
Sanindusa
  6
Continuous
100
AcDbCircle
 10
4807.17448000746
 20
1095.997642999265
 30
0.0
 40
0.000825
  0
CIRCLE
  5
588E
330
1F
100
AcDbEntity
  8
Sanindusa
  6
Continuous
100
AcDbCircle
 10
4807.182180007459
 20
1095.989942999265
 30
0.0
 40
0.0011
  0
CIRCLE
  5
5890
330
1F
100
AcDbEntity
  8
Sanindusa
  6
Continuous
100
AcDbCircle
 10
4807.178330007459
 20
1095.989942999265
 30
0.0
 40
0.00099
  0
CIRCLE
  5
5893
330
1F
100
AcDbEntity
  8
Sanindusa
  6
Continuous
100
AcDbCircle
 10
4807.18603000746
 20
1095.986092999265
 30
0.0
 40
0.00121
  0
CIRCLE
  5
5896
330
1F
100
AcDbEntity
  8
Sanindusa
  6
Continuous
100
AcDbCircle
 10
4807.182180007459
 20
1095.986092999265
 30
0.0
 40
0.0011
  0
CIRCLE
  5
5899
330
1F
100
AcDbEntity
  8
Sanindusa
  6
Continuous
100
AcDbCircle
 10
4807.17448000746
 20
1095.986092999265
 30
0.0
 40
0.00075
  0
CIRCLE
  5
589C
330
1F
100
AcDbEntity
  8
Sanindusa
  6
Continuous
100
AcDbCircle
 10
4807.17448000746
 20
1095.982242999265
 30
0.0
 40
0.00075
  0
CIRCLE
  5
58A0
330
1F
100
AcDbEntity
  8
Sanindusa
  6
Continuous
100
AcDbCircle
 10
4807.178330007459
 20
1095.982242999265
 30
0.0
 40
0.000825
  0
CIRCLE
  5
58A2
330
1F
100
AcDbEntity
  8
Sanindusa
  6
Continuous
100
AcDbCircle
 10
4807.17448000746
 20
1095.978407166382
 30
0.0
 40
0.00075
  0
CIRCLE
  5
58A5
330
1F
100
AcDbEntity
  8
Sanindusa
  6
Continuous
100
AcDbCircle
 10
4807.178330007459
 20
1095.978407166382
 30
0.0
 40
0.000825
  0
CIRCLE
  5
58A8
330
1F
100
AcDbEntity
  8
Sanindusa
  6
Continuous
100
AcDbCircle
 10
4807.182180007459
 20
1095.982242999265
 30
0.0
 40
0.00099
  0
CIRCLE
  5
58AB
330
1F
100
AcDbEntity
  8
Sanindusa
  6
Continuous
100
AcDbCircle
 10
4807.178330007459
 20
1095.986092999265
 30
0.0
 40
0.00099
  0
CIRCLE
  5
58AF
330
1F
100
AcDbEntity
  8
Sanindusa
  6
Continuous
100
AcDbCircle
 10
4807.174477866761
 20
1096.001492999265
 30
0.0
 40
0.000825
  0
CIRCLE
  5
58B1
330
1F
100
AcDbEntity
  8
Sanindusa
  6
Continuous
100
AcDbCircle
 10
4807.178330007459
 20
1095.997642999265
 30
0.0
 40
0.00099
  0
CIRCLE
  5
58B4
330
1F
100
AcDbEntity
  8
Sanindusa
  6
Continuous
100
AcDbCircle
 10
4807.182180007459
 20
1095.993792999265
 30
0.0
 40
0.0011
  0
CIRCLE
  5
58B7
330
1F
100
AcDbEntity
  8
Sanindusa
  6
Continuous
100
AcDbCircle
 10
4807.18603000746
 20
1095.989942999265
 30
0.0
 40
0.00121
  0
CIRCLE
  5
58BA
330
1F
100
AcDbEntity
  8
Sanindusa
  6
Continuous
100
AcDbCircle
 10
4807.17448000746
 20
1096.005342999265
 30
0.0
 40
0.00075
  0
CIRCLE
  5
58BD
330
1F
100
AcDbEntity
  8
Sanindusa
  6
Continuous
100
AcDbCircle
 10
4807.178330007459
 20
1096.009192999265
 30
0.0
 40
0.0008
  0
CIRCLE
  5
58C0
330
1F
100
AcDbEntity
  8
Sanindusa
  6
Continuous
100
AcDbCircle
 10
4807.182180007459
 20
1096.013042999265
 30
0.0
 40
0.00077
  0
CIRCLE
  5
58C3
330
1F
100
AcDbEntity
  8
Sanindusa
  6
Continuous
100
AcDbCircle
 10
4807.17448000746
 20
1095.974557166381
 30
0.0
 40
0.00075
  0
ARC
  5
58C8
330
1F
100
AcDbEntity
  8
Sanindusa
  6
Continuous
100
AcDbCircle
 10
4807.158230007459
 20
1095.958307166381
 30
0.0
 40
0.0005
100
AcDbArc
 50
180.0
 51
270.0
  0
LINE
  5
58CB
330
1F
100
AcDbEntity
  8
Sanindusa
  6
Continuous
100
AcDbLine
 10
4807.165188163551
 20
1096.025950515594
 30
0.0
 11
4807.164924848587
 21
1095.969348673727
 31
0.0
  0
CIRCLE
  5
58CF
330
1F
100
AcDbEntity
  8
Sanindusa
  6
Continuous
100
AcDbCircle
 10
4807.201430007459
 20
1095.993792999265
 30
0.0
 40
0.00121
  0
CIRCLE
  5
58D2
330
1F
100
AcDbEntity
  8
Sanindusa
  6
Continuous
100
AcDbCircle
 10
4807.20528000746
 20
1095.989942999265
 30
0.0
 40
0.0011
  0
CIRCLE
  5
58D4
330
1F
100
AcDbEntity
  8
Sanindusa
  6
Continuous
100
AcDbCircle
 10
4807.201430007459
 20
1095.989942999265
 30
0.0
 40
0.00121
  0
CIRCLE
  5
58D6
330
1F
100
AcDbEntity
  8
Sanindusa
  6
Continuous
100
AcDbCircle
 10
4807.193730007459
 20
1095.986092999265
 30
0.0
 40
0.00121
  0
CIRCLE
  5
58D9
330
1F
100
AcDbEntity
  8
Sanindusa
  6
Continuous
100
AcDbCircle
 10
4807.19758000746
 20
1095.982242999265
 30
0.0
 40
0.0011
  0
CIRCLE
  5
58DC
330
1F
100
AcDbEntity
  8
Sanindusa
  6
Continuous
100
AcDbCircle
 10
4807.19758000746
 20
1095.986092999265
 30
0.0
 40
0.00121
  0
CIRCLE
  5
58DF
330
1F
100
AcDbEntity
  8
Sanindusa
  6
Continuous
100
AcDbCircle
 10
4807.19758000746
 20
1095.989942999265
 30
0.0
 40
0.001375
  0
CIRCLE
  5
58E2
330
1F
100
AcDbEntity
  8
Sanindusa
  6
Continuous
100
AcDbCircle
 10
4807.201430007459
 20
1095.986092999265
 30
0.0
 40
0.00121
  0
CIRCLE
  5
58E4
330
1F
100
AcDbEntity
  8
Sanindusa
  6
Continuous
100
AcDbCircle
 10
4807.209131389551
 20
1095.986094381358
 30
0.0
 40
0.00091
  0
CIRCLE
  5
58E7
330
1F
100
AcDbEntity
  8
Sanindusa
  6
Continuous
100
AcDbCircle
 10
4807.21313000746
 20
1095.982242999265
 30
0.0
 40
0.00075
  0
CIRCLE
  5
58EB
330
1F
100
AcDbEntity
  8
Sanindusa
  6
Continuous
100
AcDbCircle
 10
4807.209130007459
 20
1095.982242999265
 30
0.0
 40
0.000825
  0
CIRCLE
  5
58ED
330
1F
100
AcDbEntity
  8
Sanindusa
  6
Continuous
100
AcDbCircle
 10
4807.201430007459
 20
1095.978392999265
 30
0.0
 40
0.00088
  0
CIRCLE
  5
58F1
330
1F
100
AcDbEntity
  8
Sanindusa
  6
Continuous
100
AcDbCircle
 10
4807.20535619617
 20
1095.974557166381
 30
0.0
 40
0.00075
  0
CIRCLE
  5
58F6
330
1F
100
AcDbEntity
  8
Sanindusa
  6
Continuous
100
AcDbCircle
 10
4807.20535619617
 20
1095.978392999265
 30
0.0
 40
0.000825
  0
CIRCLE
  5
58F7
330
1F
100
AcDbEntity
  8
Sanindusa
  6
Continuous
100
AcDbCircle
 10
4807.209130007459
 20
1095.978392999265
 30
0.0
 40
0.00075
  0
CIRCLE
  5
58FA
330
1F
100
AcDbEntity
  8
Sanindusa
  6
Continuous
100
AcDbCircle
 10
4807.20535619617
 20
1095.982242999265
 30
0.0
 40
0.00099
  0
CIRCLE
  5
58FC
330
1F
100
AcDbEntity
  8
Sanindusa
  6
Continuous
100
AcDbCircle
 10
4807.20528000746
 20
1095.986092999265
 30
0.0
 40
0.0011
  0
CIRCLE
  5
58FF
330
1F
100
AcDbEntity
  8
Sanindusa
  6
Continuous
100
AcDbCircle
 10
4807.201430007459
 20
1095.982242999265
 30
0.0
 40
0.0011
  0
CIRCLE
  5
5903
330
1F
100
AcDbEntity
  8
Sanindusa
  6
Continuous
100
AcDbCircle
 10
4807.189880007459
 20
1095.982242999265
 30
0.0
 40
0.0011
  0
CIRCLE
  5
5906
330
1F
100
AcDbEntity
  8
Sanindusa
  6
Continuous
100
AcDbCircle
 10
4807.193730007459
 20
1095.978392999265
 30
0.0
 40
0.00099
  0
CIRCLE
  5
590A
330
1F
100
AcDbEntity
  8
Sanindusa
  6
Continuous
100
AcDbCircle
 10
4807.189880007459
 20
1095.978392999265
 30
0.0
 40
0.00099
  0
CIRCLE
  5
590E
330
1F
100
AcDbEntity
  8
Sanindusa
  6
Continuous
100
AcDbCircle
 10
4807.182180007459
 20
1095.978392905033
 30
0.0
 40
0.000825
  0
CIRCLE
  5
5910
330
1F
100
AcDbEntity
  8
Sanindusa
  6
Continuous
100
AcDbCircle
 10
4807.178330007459
 20
1095.974557166381
 30
0.0
 40
0.00075
  0
CIRCLE
  5
5912
330
1F
100
AcDbEntity
  8
Sanindusa
  6
Continuous
100
AcDbCircle
 10
4807.182180007459
 20
1095.974557166381
 30
0.0
 40
0.00075
  0
CIRCLE
  5
5915
330
1F
100
AcDbEntity
  8
Sanindusa
  6
Continuous
100
AcDbCircle
 10
4807.18603000746
 20
1095.974540858567
 30
0.0
 40
0.00075
  0
CIRCLE
  5
5917
330
1F
100
AcDbEntity
  8
Sanindusa
  6
Continuous
100
AcDbCircle
 10
4807.18603000746
 20
1095.978392999265
 30
0.0
 40
0.00088
  0
CIRCLE
  5
591A
330
1F
100
AcDbEntity
  8
Sanindusa
  6
Continuous
100
AcDbCircle
 10
4807.189880007459
 20
1095.974557166381
 30
0.0
 40
0.000825
  0
CIRCLE
  5
591D
330
1F
100
AcDbEntity
  8
Sanindusa
  6
Continuous
100
AcDbCircle
 10
4807.19758000746
 20
1095.974540858567
 30
0.0
 40
0.000825
  0
CIRCLE
  5
5920
330
1F
100
AcDbEntity
  8
Sanindusa
  6
Continuous
100
AcDbCircle
 10
4807.193730007459
 20
1095.974540858567
 30
0.0
 40
0.00088
  0
CIRCLE
  5
5923
330
1F
100
AcDbEntity
  8
Sanindusa
  6
Continuous
100
AcDbCircle
 10
4807.19758000746
 20
1095.978392999265
 30
0.0
 40
0.00099
  0
CIRCLE
  5
5925
330
1F
100
AcDbEntity
  8
Sanindusa
  6
Continuous
100
AcDbCircle
 10
4807.201430007459
 20
1095.974540858567
 30
0.0
 40
0.00075
  0
CIRCLE
  5
5928
330
1F
100
AcDbEntity
  8
Sanindusa
  6
Continuous
100
AcDbCircle
 10
4807.193730007459
 20
1095.982242999265
 30
0.0
 40
0.0011
  0
CIRCLE
  5
592B
330
1F
100
AcDbEntity
  8
Sanindusa
  6
Continuous
100
AcDbCircle
 10
4807.216980007459
 20
1095.978392999265
 30
0.0
 40
0.0007
  0
CIRCLE
  5
592E
330
1F
100
AcDbEntity
  8
Sanindusa
  6
Continuous
100
AcDbCircle
 10
4807.21313000746
 20
1095.974557166381
 30
0.0
 40
0.0007
  0
CIRCLE
  5
5931
330
1F
100
AcDbEntity
  8
Sanindusa
  6
Continuous
100
AcDbCircle
 10
4807.216980007459
 20
1095.974557166381
 30
0.0
 40
0.0007
  0
CIRCLE
  5
5933
330
1F
100
AcDbEntity
  8
Sanindusa
  6
Continuous
100
AcDbCircle
 10
4807.220830007459
 20
1095.974557166381
 30
0.0
 40
0.0007
  0
CIRCLE
  5
593A
330
1F
100
AcDbEntity
  8
Sanindusa
  6
Continuous
100
AcDbCircle
 10
4807.209130007459
 20
1095.974557166381
 30
0.0
 40
0.000725
  0
CIRCLE
  5
593D
330
1F
100
AcDbEntity
  8
Sanindusa
  6
Continuous
100
AcDbCircle
 10
4807.21313000746
 20
1095.978392999265
 30
0.0
 40
0.00075
  0
LINE
  5
5942
330
1F
100
AcDbEntity
  8
Sanindusa
  6
Continuous
100
AcDbLine
 10
4807.169271514805
 20
1095.965002007508
 30
0.0
 11
4807.225873356671
 21
1095.965265322474
 31
0.0
  0
LINE
  5
5944
330
1F
100
AcDbEntity
  8
Sanindusa
  6
Continuous
100
AcDbLine
 10
4807.226696133895
 20
1095.961886373996
 30
0.0
 11
4807.168763881023
 21
1095.961886373996
 31
0.0
  0
LINE
  5
5945
330
1F
100
AcDbEntity
  8
Sanindusa
  6
Continuous
100
AcDbLine
 10
4807.168763881023
 20
1095.963045484987
 30
0.0
 11
4807.226696133895
 21
1095.963045484987
 31
0.0
  0
LWPOLYLINE
  5
5947
330
1F
100
AcDbEntity
  8
Sanindusa
  6
Continuous
100
AcDbPolyline
 90
       18
 70
   128
 43
0.0
 10
4807.164924848587
 20
1095.969348673727
 10
4807.164941234565
 20
1095.968937431475
 10
4807.164994102815
 20
1095.968532026833
 10
4807.165083039935
 20
1095.968135629836
 10
4807.165207350488
 20
1095.967751340085
 10
4807.165366062434
 20
1095.967382162507
 10
4807.16555793474
 20
1095.967030983864
 10
4807.165781467068
 20
1095.966700550172
 10
4807.166034911523
 20
1095.966393445237
 10
4807.166316286315
 20
1095.966112070446
 10
4807.16662339125
 20
1095.96585862599
 10
4807.166953824941
 20
1095.965635093662
 10
4807.167305003585
 20
1095.965443221357
 10
4807.167674181163
 20
1095.96528450941
 10
4807.168058470914
 20
1095.965160198857
 10
4807.168454867911
 20
1095.965071261737
 10
4807.168860272553
 20
1095.965018393488
 10
4807.169271514805
 20
1095.965002007508
  0
LWPOLYLINE
  5
5949
330
1F
100
AcDbEntity
  8
Sanindusa
  6
Continuous
100
AcDbPolyline
 90
       23
 70
   128
 43
0.0
 10
4807.168763881023
 20
1095.961886373996
 10
4807.168257087141
 20
1095.961903780063
 10
4807.167754992094
 20
1095.961955916972
 10
4807.167259940801
 20
1095.962042541231
 10
4807.166774245285
 20
1095.96216324828
 10
4807.166300173873
 20
1095.962317474385
 10
4807.165839940609
 20
1095.962504499269
 10
4807.165395694905
 20
1095.962723449475
 10
4807.164969511507
 20
1095.962973302447
 10
4807.164563380808
 20
1095.963252891304
 10
4807.164179199547
 20
1095.963560910291
 10
4807.163818761954
 20
1095.963895920876
 10
4807.163483751368
 20
1095.964256358469
 10
4807.163175732382
 20
1095.96464053973
 10
4807.162896143525
 20
1095.96504667043
 10
4807.162646290553
 20
1095.965472853827
 10
4807.162427340347
 20
1095.965917099532
 10
4807.162240315463
 20
1095.966377332796
 10
4807.162086089357
 20
1095.966851404207
 10
4807.161965382308
 20
1095.967337099724
 10
4807.161878758051
 20
1095.967832151017
 10
4807.161826621141
 20
1095.968334246063
 10
4807.161809215074
 20
1095.968841039945
  0
LWPOLYLINE
  5
594A
330
1F
100
AcDbEntity
  8
Sanindusa
  6
Continuous
100
AcDbPolyline
 90
       21
 70
   128
 43
0.0
 10
4807.162968326065
 20
1095.968841039945
 10
4807.162980265216
 20
1095.968371051303
 10
4807.16302770651
 20
1095.967906539815
 10
4807.163110381878
 20
1095.967450130234
 10
4807.163227824159
 20
1095.96700440153
 10
4807.163379369736
 20
1095.966571872324
 10
4807.163564162291
 20
1095.966154986647
 10
4807.163781157642
 20
1095.96575610014
 10
4807.164029129643
 20
1095.965377466736
 10
4807.164306677114
 20
1095.965021225927
 10
4807.164612231753
 20
1095.964689390675
 10
4807.164944067006
 20
1095.964383836036
 10
4807.165300307814
 20
1095.964106288566
 10
4807.165678941217
 20
1095.963858316565
 10
4807.166077827725
 20
1095.963641321213
 10
4807.166494713402
 20
1095.963456528658
 10
4807.166927242608
 20
1095.963304983082
 10
4807.167372971311
 20
1095.963187540802
 10
4807.167829380893
 20
1095.963104865433
 10
4807.168293892381
 20
1095.963057424138
 10
4807.168763881023
 20
1095.963045484987
  0
CIRCLE
  5
594C
330
1F
100
AcDbEntity
  8
Sanindusa
  6
Continuous
100
AcDbCircle
 10
4807.193730007459
 20
1095.989942999265
 30
0.0
 40
0.001375
  0
CIRCLE
  5
594F
330
1F
100
AcDbEntity
  8
Sanindusa
  6
Continuous
100
AcDbCircle
 10
4807.189880007459
 20
1095.986092999265
 30
0.0
 40
0.00121
  0
CIRCLE
  5
5952
330
1F
100
AcDbEntity
  8
Sanindusa
  6
Continuous
100
AcDbCircle
 10
4807.18603000746
 20
1095.982242999265
 30
0.0
 40
0.0011
  0
CIRCLE
  5
5955
330
1F
100
AcDbEntity
  8
Sanindusa
  6
Continuous
100
AcDbCircle
 10
4807.19758000746
 20
1095.993792999265
 30
0.0
 40
0.001375
  0
ARC
  5
5957
330
1F
100
AcDbEntity
  8
Sanindusa
  6
Continuous
100
AcDbCircle
 10
4807.237230007459
 20
1095.958307166381
 30
0.0
 40
0.0005
100
AcDbArc
 50
270.0
 51
0.0
  0
LINE
  5
5959
330
1F
100
AcDbEntity
  8
Sanindusa
  6
Continuous
100
AcDbLine
 10
4807.237230007459
 20
1095.957807166382
 30
0.0
 11
4807.23673000746
 21
1095.957807166382
 31
0.0
  0
LINE
  5
595B
330
1F
100
AcDbEntity
  8
Sanindusa
  6
Continuous
100
AcDbLine
 10
4807.158230007459
 20
1095.958307166381
 30
0.0
 11
4807.23673000746
 21
1095.958307166381
 31
0.0
  0
LINE
  5
595C
330
1F
100
AcDbEntity
  8
Sanindusa
  6
Continuous
100
AcDbLine
 10
4807.23673000746
 20
1095.957807166382
 30
0.0
 11
4807.158230007459
 21
1095.957807166382
 31
0.0
  0
LINE
  5
595D
330
1F
100
AcDbEntity
  8
Sanindusa
  6
Continuous
100
AcDbLine
 10
4807.161809215074
 20
1095.968841039945
 30
0.0
 11
4807.161809215074
 21
1096.026773292818
 31
0.0
  0
LINE
  5
595E
330
1F
100
AcDbEntity
  8
Sanindusa
  6
Continuous
100
AcDbLine
 10
4807.162968326065
 20
1096.026773292818
 30
0.0
 11
4807.162968326065
 21
1095.968841039945
 31
0.0
  0
LINE
  5
595F
330
1F
100
AcDbEntity
  8
Sanindusa
  6
Continuous
100
AcDbLine
 10
4807.157730007459
 20
1095.958307166381
 30
0.0
 11
4807.157730007459
 21
1096.036807166381
 31
0.0
  0
LINE
  5
5960
330
1F
100
AcDbEntity
  8
Sanindusa
  6
Continuous
100
AcDbLine
 10
4807.158230007459
 20
1096.036807166381
 30
0.0
 11
4807.158230007459
 21
1095.958307166381
 31
0.0
  0
CIRCLE
  5
5964
330
1F
100
AcDbEntity
  8
Sanindusa
  6
Continuous
100
AcDbCircle
 10
4807.19758000746
 20
1096.001492999265
 30
0.0
 40
0.00121
  0
CIRCLE
  5
5967
330
1F
100
AcDbEntity
  8
Sanindusa
  6
Continuous
100
AcDbCircle
 10
4807.209130007459
 20
1095.989942999265
 30
0.0
 40
0.00099
  0
CIRCLE
  5
5969
330
1F
100
AcDbEntity
  8
Sanindusa
  6
Continuous
100
AcDbCircle
 10
4807.21313000746
 20
1095.986092999265
 30
0.0
 40
0.000825
  0
CIRCLE
  5
596C
330
1F
100
AcDbEntity
  8
Sanindusa
  6
Continuous
100
AcDbCircle
 10
4807.201430007459
 20
1095.997642999265
 30
0.0
 40
0.00121
  0
CIRCLE
  5
596F
330
1F
100
AcDbEntity
  8
Sanindusa
  6
Continuous
100
AcDbCircle
 10
4807.20528000746
 20
1095.993792999265
 30
0.0
 40
0.0011
  0
CIRCLE
  5
5971
330
1F
100
AcDbEntity
  8
Sanindusa
  6
Continuous
100
AcDbCircle
 10
4807.182180007459
 20
1096.016892999265
 30
0.0
 40
0.0007
  0
CIRCLE
  5
5973
330
1F
100
AcDbEntity
  8
Sanindusa
  6
Continuous
100
AcDbCircle
 10
4807.178330007459
 20
1096.020742999265
 30
0.0
 40
0.0007
  0
LWPOLYLINE
  5
5975
330
1F
100
AcDbEntity
  8
Sanindusa
  6
Continuous
100
AcDbPolyline
 90
       18
 70
   128
 43
0.0
 10
4807.169575084377
 20
1096.030256927205
 10
4807.169163690375
 20
1096.030240692978
 10
4807.168757796118
 20
1096.030188314343
 10
4807.168360575471
 20
1096.030100200872
 10
4807.167975134476
 20
1096.029977041562
 10
4807.167604487062
 20
1096.029819799451
 10
4807.167251531485
 20
1096.029629704082
 10
4807.166919027652
 20
1096.029408241893
 10
4807.166609575561
 20
1096.029157144594
 10
4807.166325594949
 20
1096.028878375624
 10
4807.166069306385
 20
1096.028574114797
 10
4807.165842713901
 20
1096.028246741261
 10
4807.165647589321
 20
1096.027898814894
 10
4807.165485458408
 20
1096.027533056281
 10
4807.165357588935
 20
1096.027152325449
 10
4807.165264980772
 20
1096.026759599497
 10
4807.165208358057
 20
1096.026357949319
 10
4807.165188163551
 20
1096.025950515594
  0
LWPOLYLINE
  5
5977
330
1F
100
AcDbEntity
  8
Sanindusa
  6
Continuous
100
AcDbPolyline
 90
       23
 70
   128
 43
0.0
 10
4807.161809215074
 20
1096.026773292818
 10
4807.161826621141
 20
1096.027280086699
 10
4807.161878758051
 20
1096.027782181746
 10
4807.161965382308
 20
1096.028277233039
 10
4807.162086089357
 20
1096.028762928556
 10
4807.162240315463
 20
1096.029236999966
 10
4807.162427340347
 20
1096.029697233231
 10
4807.162646290553
 20
1096.030141478935
 10
4807.162896143525
 20
1096.030567662333
 10
4807.163175732382
 20
1096.030973793032
 10
4807.163483751368
 20
1096.031357974293
 10
4807.163818761954
 20
1096.031718411887
 10
4807.164179199547
 20
1096.032053422472
 10
4807.164563380808
 20
1096.032361441459
 10
4807.164969511507
 20
1096.032641030316
 10
4807.165395694905
 20
1096.032890883287
 10
4807.165839940609
 20
1096.033109833494
 10
4807.166300173873
 20
1096.033296858378
 10
4807.166774245285
 20
1096.033451084483
 10
4807.167259940801
 20
1096.033571791532
 10
4807.167754992094
 20
1096.033658415791
 10
4807.168257087141
 20
1096.0337105527
 10
4807.168763881023
 20
1096.033727958767
  0
LWPOLYLINE
  5
5978
330
1F
100
AcDbEntity
  8
Sanindusa
  6
Continuous
100
AcDbPolyline
 90
       21
 70
   128
 43
0.0
 10
4807.168763881023
 20
1096.032568847775
 10
4807.168293892381
 20
1096.032556908625
 10
4807.167829380893
 20
1096.03250946733
 10
4807.167372971311
 20
1096.032426791961
 10
4807.166927242608
 20
1096.032309349681
 10
4807.166494713402
 20
1096.032157804105
 10
4807.166077827725
 20
1096.03197301155
 10
4807.165678941217
 20
1096.031756016198
 10
4807.165300307814
 20
1096.031508044197
 10
4807.164944067006
 20
1096.031230496727
 10
4807.164612231753
 20
1096.030924942088
 10
4807.164306677114
 20
1096.030593106835
 10
4807.164029129643
 20
1096.030236866027
 10
4807.163781157642
 20
1096.029858232623
 10
4807.163564162291
 20
1096.029459346116
 10
4807.163379369736
 20
1096.029042460439
 10
4807.163227824159
 20
1096.028609931232
 10
4807.163110381878
 20
1096.028164202529
 10
4807.16302770651
 20
1096.027707792948
 10
4807.162980265216
 20
1096.02724328146
 10
4807.162968326065
 20
1096.026773292818
  0
LINE
  5
5979
330
1F
100
AcDbEntity
  8
Sanindusa
  6
Continuous
100
AcDbLine
 10
4807.158230007459
 20
1096.037807166381
 30
0.0
 11
4807.182730007459
 21
1096.037807166381
 31
0.0
  0
LINE
  5
597A
330
1F
100
AcDbEntity
  8
Sanindusa
  6
Continuous
100
AcDbLine
 10
4807.182730007459
 20
1096.036807166381
 30
0.0
 11
4807.158230007459
 21
1096.036807166381
 31
0.0
  0
CIRCLE
  5
597B
330
1F
100
AcDbEntity
  8
Sanindusa
  6
Continuous
100
AcDbCircle
 10
4807.189880007459
 20
1096.009192999265
 30
0.0
 40
0.00099
  0
CIRCLE
  5
597E
330
1F
100
AcDbEntity
  8
Sanindusa
  6
Continuous
100
AcDbCircle
 10
4807.18603000746
 20
1096.013042999265
 30
0.0
 40
0.00077
  0
CIRCLE
  5
5982
330
1F
100
AcDbEntity
  8
Sanindusa
  6
Continuous
100
AcDbCircle
 10
4807.193730007459
 20
1096.005342999265
 30
0.0
 40
0.0011
  0
LINE
  5
5984
330
1F
100
AcDbEntity
  8
Sanindusa
  6
Continuous
100
AcDbLine
 10
4807.23673000746
 20
1095.958307166381
 30
0.0
 11
4807.23673000746
 21
1095.982807166381
 31
0.0
  0
LINE
  5
5985
330
1F
100
AcDbEntity
  8
Sanindusa
  6
Continuous
100
AcDbLine
 10
4807.23773000746
 20
1095.982807166381
 30
0.0
 11
4807.23773000746
 21
1095.958307166381
 31
0.0
  0
LWPOLYLINE
  5
5986
330
1F
100
AcDbEntity
  8
Sanindusa
  6
Continuous
100
AcDbPolyline
 90
       23
 70
   128
 43
0.0
 10
4807.233650799844
 20
1095.968841039945
 10
4807.233633393778
 20
1095.968334246063
 10
4807.233581256868
 20
1095.967832151017
 10
4807.23349463261
 20
1095.967337099724
 10
4807.233373925561
 20
1095.966851404207
 10
4807.233219699456
 20
1095.966377332796
 10
4807.233032674571
 20
1095.965917099532
 10
4807.232813724365
 20
1095.965472853827
 10
4807.232563871393
 20
1095.96504667043
 10
4807.232284282537
 20
1095.96464053973
 10
4807.23197626355
 20
1095.964256358469
 10
4807.231641252965
 20
1095.963895920876
 10
4807.231280815371
 20
1095.963560910291
 10
4807.230896634109
 20
1095.963252891304
 10
4807.23049050341
 20
1095.962973302447
 10
4807.230064320013
 20
1095.962723449475
 10
4807.229620074309
 20
1095.962504499269
 10
4807.229159841045
 20
1095.962317474385
 10
4807.228685769633
 20
1095.96216324828
 10
4807.228200074117
 20
1095.962042541231
 10
4807.227705022825
 20
1095.961955916972
 10
4807.227202927776
 20
1095.961903780063
 10
4807.226696133895
 20
1095.961886373996
  0
LWPOLYLINE
  5
5987
330
1F
100
AcDbEntity
  8
Sanindusa
  6
Continuous
100
AcDbPolyline
 90
       18
 70
   128
 43
0.0
 10
4807.225873356671
 20
1095.965265322474
 10
4807.226280790398
 20
1095.96528551698
 10
4807.226682440575
 20
1095.965342139694
 10
4807.227075166526
 20
1095.965434747859
 10
4807.227455897359
 20
1095.965562617331
 10
4807.227821655971
 20
1095.965724748243
 10
4807.228169582339
 20
1095.965919872823
 10
4807.228496955874
 20
1095.966146465308
 10
4807.228801216701
 20
1095.966402753872
 10
4807.229079985671
 20
1095.966686734483
 10
4807.229331082971
 20
1095.966996186575
 10
4807.22955254516
 20
1095.967328690406
 10
4807.229742640529
 20
1095.967681645985
 10
4807.229899882639
 20
1095.968052293398
 10
4807.23002304195
 20
1095.968437734394
 10
4807.230111155419
 20
1095.96883495504
 10
4807.230163534056
 20
1095.969240849296
 10
4807.230179768283
 20
1095.969652243299
  0
LWPOLYLINE
  5
5989
330
1F
100
AcDbEntity
  8
Sanindusa
  6
Continuous
100
AcDbPolyline
 90
       21
 70
   128
 43
0.0
 10
4807.226696133895
 20
1095.963045484987
 10
4807.227166122538
 20
1095.963057424138
 10
4807.227630634026
 20
1095.963104865433
 10
4807.228087043608
 20
1095.963187540802
 10
4807.22853277231
 20
1095.963304983082
 10
4807.228965301517
 20
1095.963456528658
 10
4807.229382187194
 20
1095.963641321213
 10
4807.2297810737
 20
1095.963858316565
 10
4807.230159707104
 20
1095.964106288566
 10
4807.230515947913
 20
1095.964383836036
 10
4807.230847783165
 20
1095.964689390675
 10
4807.231153337804
 20
1095.965021225927
 10
4807.231430885274
 20
1095.965377466736
 10
4807.231678857276
 20
1095.96575610014
 10
4807.231895852627
 20
1095.966154986647
 10
4807.232080645182
 20
1095.966571872324
 10
4807.232232190759
 20
1095.96700440153
 10
4807.232349633039
 20
1095.967450130234
 10
4807.232432308407
 20
1095.967906539815
 10
4807.232479749703
 20
1095.968371051303
 10
4807.232491688854
 20
1095.968841039945
  0
LINE
  5
6278
330
1F
100
AcDbEntity
  8
Sanindusa
  6
Continuous
100
AcDbLine
 10
4807.500084310076
 20
1095.985722493251
 30
0.0
 11
4807.503444348178
 21
1095.985722493216
 31
0.0
  0
LINE
  5
6279
330
1F
100
AcDbEntity
  8
Sanindusa
  6
Continuous
100
AcDbLine
 10
4807.503444348178
 20
1095.985722493216
 30
0.0
 11
4807.503968587859
 21
1095.987976408944
 31
0.0
  0
LINE
  5
627A
330
1F
100
AcDbEntity
  8
Sanindusa
  6
Continuous
100
AcDbLine
 10
4807.499543534518
 20
1095.988047503541
 30
0.0
 11
4807.500084310076
 21
1095.985722493251
 31
0.0
  0
LINE
  5
627B
330
1F
100
AcDbEntity
  8
Sanindusa
  6
Continuous
100
AcDbLine
 10
4807.503968587859
 20
1095.987976408944
 30
0.0
 11
4807.499543534518
 21
1095.988047503541
 31
0.0
  0
LINE
  5
627C
330
1F
100
AcDbEntity
  8
Sanindusa
  6
Continuous
100
AcDbLine
 10
4807.519170389236
 20
1095.98572249305
 30
0.0
 11
4807.522530427338
 21
1095.985722493014
 31
0.0
  0
LINE
  5
627D
330
1F
100
AcDbEntity
  8
Sanindusa
  6
Continuous
100
AcDbLine
 10
4807.522530427338
 20
1095.985722493014
 30
0.0
 11
4807.52298361002
 21
1095.987670906335
 31
0.0
  0
LINE
  5
627E
330
1F
100
AcDbEntity
  8
Sanindusa
  6
Continuous
100
AcDbLine
 10
4807.518701203724
 20
1095.98773970911
 30
0.0
 11
4807.519170389236
 21
1095.98572249305
 31
0.0
  0
LINE
  5
627F
330
1F
100
AcDbEntity
  8
Sanindusa
  6
Continuous
100
AcDbLine
 10
4807.52298361002
 20
1095.987670906335
 30
0.0
 11
4807.518701203724
 21
1095.98773970911
 31
0.0
  0
ARC
  5
6280
330
1F
100
AcDbEntity
  8
Sanindusa
  6
Continuous
100
AcDbCircle
 10
4803.927145338162
 20
1095.375293598934
 30
0.0
 40
3.661131212175933
100
AcDbArc
 50
9.597883157200499
 51
9.625302354079517
  0
LWPOLYLINE
  5
6282
330
1F
100
AcDbEntity
  8
Sanindusa
  6
Continuous
100
AcDbPolyline
 90
        7
 70
   128
 43
0.0
 10
4807.537028759857
 20
1095.985722492861
 10
4807.53885153133
 20
1095.985722492841
 10
4807.538862774564
 20
1095.985790853717
 10
4807.538945010739
 20
1095.986290864296
 10
4807.5390192131
 20
1095.986742027772
 10
4807.539129321002
 20
1095.987411503175
 10
4807.536736222549
 20
1095.987449951609
  0
LWPOLYLINE
  5
628E
330
1F
100
AcDbEntity
  8
Sanindusa
  6
Continuous
100
AcDbPolyline
 90
       43
 70
   129
 43
0.0
 10
4807.556898131703
 20
1095.988295772768
 10
4807.557073110693
 20
1095.988289319054
 10
4807.557498885172
 20
1095.9881809287
 10
4807.557911403328
 20
1095.987913495872
 10
4807.558216743693
 20
1095.987527037853
 10
4807.558352130503
 20
1095.987136594328
 10
4807.558440930524
 20
1095.986597178366
 10
4807.558517602384
 20
1095.986131429245
 10
4807.55858492096
 20
1095.985722492633
 10
4807.559841162145
 20
1095.985722492619
 10
4807.560068321678
 20
1095.989896665585
 10
4807.560314642893
 20
1095.990539938593
 10
4807.560768684727
 20
1095.991061801309
 10
4807.56137433562
 20
1095.991398495544
 10
4807.561967207185
 20
1095.991498856175
 10
4807.562828286997
 20
1095.991498856166
 10
4807.562960540054
 20
1095.991532784919
 10
4807.563041890252
 20
1095.991569299401
 10
4807.563114073472
 20
1095.991617931083
 10
4807.563172027772
 20
1095.991673880148
 10
4807.563218870047
 20
1095.991738260289
 10
4807.563249765399
 20
1095.991801841168
 10
4807.563266476176
 20
1095.991860163352
 10
4807.563278615628
 20
1095.992006862229
 10
4807.563191621752
 20
1095.995434795323
 10
4807.563093570159
 20
1095.995574130448
 10
4807.563039514714
 20
1095.995628935382
 10
4807.562976668815
 20
1095.995674822803
 10
4807.562899760267
 20
1095.995713596806
 10
4807.562831781369
 20
1095.995734990863
 10
4807.562639176785
 20
1095.995756583379
 10
4807.560124376927
 20
1095.995756583405
 10
4807.559992195494
 20
1095.995722694106
 10
4807.559910880328
 20
1095.995686220304
 10
4807.559838739598
 20
1095.995637655122
 10
4807.559780734234
 20
1095.995581703758
 10
4807.559747712828
 20
1095.995536359329
 10
4807.55966893227
 20
1095.995353174894
 10
4807.558294040519
 20
1095.990411759628
 10
4807.558054011512
 20
1095.989767711793
 10
4807.557688347092
 20
1095.989137923152
 10
4807.557229019497
 20
1095.988583624031
 10
4807.556898131703
 20
1095.988295772768
  0
LINE
  5
6294
330
1F
100
AcDbEntity
  8
Sanindusa
100
AcDbLine
 10
4807.536592490267
 20
1095.988644962169
 30
0.0
 11
4807.536691595101
 21
1095.988643369913
 31
0.0
  0
LINE
  5
6295
330
1F
100
AcDbEntity
  8
Sanindusa
100
AcDbLine
 10
4807.539057960688
 20
1095.98860535098
 30
0.0
 11
4807.538874219959
 21
1095.988608303029
 31
0.0
  0
LINE
  5
6296
330
1F
100
AcDbEntity
  8
Sanindusa
100
AcDbLine
 10
4807.541781417434
 20
1095.988561482923
 30
0.0
 11
4807.541730365187
 21
1095.988562415108
 31
0.0
  0
LINE
  5
6297
330
1F
100
AcDbEntity
  8
Sanindusa
100
AcDbLine
 10
4807.529001138572
 20
1095.988766927725
 30
0.0
 11
4807.531500026846
 21
1095.988726779632
 31
0.0
  0
LWPOLYLINE
  5
6299
330
1F
100
AcDbEntity
  8
Sanindusa
  6
Continuous
100
AcDbPolyline
 90
        3
 70
   128
 43
0.0
 10
4807.520725534537
 20
1095.988757738892
 10
4807.520732523006
 20
1095.988775131262
 10
4807.520734485273
 20
1095.988792572937
  0
LINE
  5
629A
330
1F
100
AcDbEntity
  8
Sanindusa
100
AcDbLine
 10
4807.517423061185
 20
1095.988952945539
 30
0.0
 11
4807.51774251128
 21
1095.988947813132
 31
0.0
  0
LINE
  5
629B
330
1F
100
AcDbEntity
  8
Sanindusa
100
AcDbLine
 10
4807.515548557287
 20
1095.988983062035
 30
0.0
 11
4807.515647423818
 21
1095.988981438197
 31
0.0
  0
LINE
  5
629C
330
1F
100
AcDbEntity
  8
Sanindusa
100
AcDbLine
 10
4807.515647423818
 20
1095.988981438197
 30
0.0
 11
4807.515751232774
 21
1095.988979805773
 31
0.0
  0
LINE
  5
629D
330
1F
100
AcDbEntity
  8
Sanindusa
100
AcDbLine
 10
4807.506291047282
 20
1095.989131796726
 30
0.0
 11
4807.506503055816
 21
1095.989128390516
 31
0.0
  0
LINE
  5
62D2
330
1F
100
AcDbEntity
  8
Sanindusa
  6
Continuous
100
AcDbLine
 10
4807.475281414159
 20
1095.98609777737
 30
0.0
 11
4807.475464697638
 21
1095.98624523287
 31
0.0
  0
LINE
  5
62D3
330
1F
100
AcDbEntity
  8
Sanindusa
  6
Continuous
100
AcDbLine
 10
4807.475464697638
 20
1095.98624523287
 30
0.0
 11
4807.475818327049
 21
1095.986375066074
 31
0.0
  0
LINE
  5
62D4
330
1F
100
AcDbEntity
  8
Sanindusa
  6
Continuous
100
AcDbLine
 10
4807.475818327049
 20
1095.986375066074
 30
0.0
 11
4807.476042846172
 21
1095.98639640259
 31
0.0
  0
LINE
  5
62D5
330
1F
100
AcDbEntity
  8
Sanindusa
  6
Continuous
100
AcDbLine
 10
4807.476042846172
 20
1095.98639640259
 30
0.0
 11
4807.480791572109
 21
1095.98639640254
 31
0.0
  0
LINE
  5
62D6
330
1F
100
AcDbEntity
  8
Sanindusa
  6
Continuous
100
AcDbLine
 10
4807.480791572109
 20
1095.98639640254
 30
0.0
 11
4807.480993134885
 21
1095.986380426387
 31
0.0
  0
LINE
  5
62D7
330
1F
100
AcDbEntity
  8
Sanindusa
  6
Continuous
100
AcDbLine
 10
4807.480993134885
 20
1095.986380426387
 30
0.0
 11
4807.481343657006
 21
1095.986263809136
 31
0.0
  0
LINE
  5
62D8
330
1F
100
AcDbEntity
  8
Sanindusa
  6
Continuous
100
AcDbLine
 10
4807.481343657006
 20
1095.986263809136
 30
0.0
 11
4807.481670955381
 21
1095.986016582169
 31
0.0
  0
LINE
  5
62D9
330
1F
100
AcDbEntity
  8
Sanindusa
  6
Continuous
100
AcDbLine
 10
4807.481670955381
 20
1095.986016582169
 30
0.0
 11
4807.481870509427
 21
1095.985722493444
 31
0.0
  0
LINE
  5
62DA
330
1F
100
AcDbEntity
  8
Sanindusa
  6
Continuous
100
AcDbLine
 10
4807.481870509427
 20
1095.985722493444
 30
0.0
 11
4807.484121723931
 21
1095.98572249342
 31
0.0
  0
LINE
  5
62DB
330
1F
100
AcDbEntity
  8
Sanindusa
  6
Continuous
100
AcDbLine
 10
4807.484121723931
 20
1095.98572249342
 30
0.0
 11
4807.484515130719
 21
1095.988114512409
 31
0.0
  0
LINE
  5
62DC
330
1F
100
AcDbEntity
  8
Sanindusa
  6
Continuous
100
AcDbLine
 10
4807.484515130719
 20
1095.988114512409
 30
0.0
 11
4807.484623749345
 21
1095.988505085663
 31
0.0
  0
LINE
  5
62DD
330
1F
100
AcDbEntity
  8
Sanindusa
  6
Continuous
100
AcDbLine
 10
4807.484623749345
 20
1095.988505085663
 30
0.0
 11
4807.484932627041
 21
1095.988948285583
 31
0.0
  0
LINE
  5
62DE
330
1F
100
AcDbEntity
  8
Sanindusa
  6
Continuous
100
AcDbLine
 10
4807.484932627041
 20
1095.988948285583
 30
0.0
 11
4807.48536349143
 21
1095.989230151874
 31
0.0
  0
LINE
  5
62DF
330
1F
100
AcDbEntity
  8
Sanindusa
  6
Continuous
100
AcDbLine
 10
4807.48536349143
 20
1095.989230151874
 30
0.0
 11
4807.486029323162
 21
1095.989356593668
 31
0.0
  0
LINE
  5
62E0
330
1F
100
AcDbEntity
  8
Sanindusa
  6
Continuous
100
AcDbLine
 10
4807.486029323162
 20
1095.989356593668
 30
0.0
 11
4807.485536675155
 21
1095.989877082974
 31
0.0
  0
LINE
  5
62E1
330
1F
100
AcDbEntity
  8
Sanindusa
  6
Continuous
100
AcDbLine
 10
4807.485536675155
 20
1095.989877082974
 30
0.0
 11
4807.485157656089
 21
1095.990423599494
 31
0.0
  0
LINE
  5
62E2
330
1F
100
AcDbEntity
  8
Sanindusa
  6
Continuous
100
AcDbLine
 10
4807.485157656089
 20
1095.990423599494
 30
0.0
 11
4807.484882447141
 21
1095.990989575178
 31
0.0
  0
LINE
  5
62E3
330
1F
100
AcDbEntity
  8
Sanindusa
  6
Continuous
100
AcDbLine
 10
4807.484882447141
 20
1095.990989575178
 30
0.0
 11
4807.483131387708
 21
1095.99543966489
 31
0.0
  0
LINE
  5
62EB
330
1F
100
AcDbEntity
  8
Sanindusa
  6
Continuous
100
AcDbLine
 10
4807.482666112021
 20
1095.995756584224
 30
0.0
 11
4807.476365289907
 21
1095.995756584291
 31
0.0
  0
LINE
  5
62EC
330
1F
100
AcDbEntity
  8
Sanindusa
  6
Continuous
100
AcDbLine
 10
4807.476365289907
 20
1095.995756584291
 30
0.0
 11
4807.475943924952
 21
1095.995738199419
 31
0.0
  0
LINE
  5
62ED
330
1F
100
AcDbEntity
  8
Sanindusa
  6
Continuous
100
AcDbLine
 10
4807.475943924952
 20
1095.995738199419
 30
0.0
 11
4807.475682664212
 21
1095.995614935343
 31
0.0
  0
LINE
  5
62EE
330
1F
100
AcDbEntity
  8
Sanindusa
  6
Continuous
100
AcDbLine
 10
4807.475682664212
 20
1095.995614935343
 30
0.0
 11
4807.475609270025
 21
1095.995563521874
 31
0.0
  0
LINE
  5
62EF
330
1F
100
AcDbEntity
  8
Sanindusa
  6
Continuous
100
AcDbLine
 10
4807.475609270025
 20
1095.995563521874
 30
0.0
 11
4807.475466861744
 21
1095.99542384806
 31
0.0
  0
LINE
  5
62F0
330
1F
100
AcDbEntity
  8
Sanindusa
  6
Continuous
100
AcDbLine
 10
4807.475466861744
 20
1095.99542384806
 30
0.0
 11
4807.475291162442
 21
1095.986631754533
 31
0.0
  0
LINE
  5
62F1
330
1F
100
AcDbEntity
  8
Sanindusa
  6
Continuous
100
AcDbLine
 10
4807.475291162442
 20
1095.986631754533
 30
0.0
 11
4807.475281414159
 21
1095.98609777737
 31
0.0
  0
ARC
  5
62F5
330
1F
100
AcDbEntity
  8
Sanindusa
100
AcDbCircle
 10
4807.482666112016
 20
1095.995256584224
 30
0.0
 40
0.0015
100
AcDbArc
 50
21.47907058542637
 51
89.99999939409724
  0
ARC
  5
62FB
330
1F
100
AcDbEntity
  8
Sanindusa
100
AcDbCircle
 10
4807.482666112016
 20
1095.995256584224
 30
0.0
 40
0.0005
100
AcDbArc
 50
21.47907058542637
 51
89.99999939409724
  0
LINE
  5
62FC
330
1F
100
AcDbEntity
  8
Sanindusa
100
AcDbLine
 10
4807.484061939092
 20
1095.995805826223
 30
0.0
 11
4807.485982373593
 21
1095.995686251004
 31
0.0
  0
LWPOLYLINE
  5
62FE
330
1F
100
AcDbEntity
  8
Sanindusa
  6
Continuous
100
AcDbPolyline
 90
        6
 70
   128
 43
0.0
 10
4807.524930896114
 20
1095.996756583662
 10
4807.525178095374
 20
1095.996716791685
 10
4807.525423291981
 20
1095.996591434423
 10
4807.525642670291
 20
1095.99638287004
 10
4807.52584003423
 20
1095.996055684729
 10
4807.525955103725
 20
1095.995686251004
  0
LINE
  5
6300
330
1F
100
AcDbEntity
  8
Sanindusa
100
AcDbLine
 10
4807.534831569611
 20
1095.995686251004
 30
0.0
 11
4807.525955103725
 21
1095.995686251004
 31
0.0
  0
LINE
  5
6301
330
1F
100
AcDbEntity
  8
Sanindusa
100
AcDbLine
 10
4807.525955103725
 20
1095.995686251004
 30
0.0
 11
4807.485982373593
 21
1095.995686251004
 31
0.0
  0
LINE
  5
652E
330
1F
100
AcDbEntity
  8
Sanindusa
  6
Continuous
100
AcDbLine
 10
4807.341452899321
 20
1095.996756583399
 30
0.0
 11
4807.264745507563
 21
1095.996756583399
 31
0.0
  0
LINE
  5
652F
330
1F
100
AcDbEntity
  8
Sanindusa
  6
Continuous
100
AcDbLine
 10
4807.267479373273
 20
1095.98472249261
 30
0.0
 11
4807.341952747321
 21
1095.98472249261
 31
0.0
  0
LWPOLYLINE
  5
6532
330
1F
100
AcDbEntity
  8
Sanindusa
  6
Continuous
100
AcDbPolyline
 90
       12
 70
   128
 43
0.0
 10
4807.341452899319
 20
1095.996756583399
 10
4807.34163382381
 20
1095.996746033943
 10
4807.34178854345
 20
1095.996719943951
 10
4807.341916375097
 20
1095.99668587602
 10
4807.342018276396
 20
1095.996650009433
 10
4807.342204410914
 20
1095.996562143193
 10
4807.34236503489
 20
1095.996458705177
 10
4807.342500203771
 20
1095.996346017864
 10
4807.342692001825
 20
1095.996125806778
 10
4807.342827548926
 20
1095.99588947787
 10
4807.342917988708
 20
1095.995620275411
 10
4807.342951995691
 20
1095.99534777479
  0
LINE
  5
6537
330
1F
100
AcDbEntity
  8
Sanindusa
  6
Continuous
100
AcDbLine
 10
4807.341952747321
 20
1095.98472249261
 30
0.0
 11
4807.34295244332
 21
1095.98472249261
 31
0.0
  0
LINE
  5
6538
330
1F
100
AcDbEntity
  8
Sanindusa
  6
Continuous
100
AcDbLine
 10
4807.34295244332
 20
1095.995312492504
 30
0.0
 11
4807.34295244332
 21
1095.98472249261
 31
0.0
  0
LINE
  5
6540
330
1F
100
AcDbEntity
  8
Sanindusa
  6
Continuous
100
AcDbLine
 10
4807.263246411197
 20
1095.99534777479
 30
0.0
 11
4807.26316089905
 21
1095.991978229655
 31
0.0
  0
LWPOLYLINE
  5
6542
330
1F
100
AcDbEntity
  8
Sanindusa
  6
Continuous
100
AcDbPolyline
 90
       13
 70
   128
 43
0.0
 10
4807.265711150106
 20
1095.989586514177
 10
4807.265700484597
 20
1095.9896850672
 10
4807.265673476906
 20
1095.989802553916
 10
4807.265620691254
 20
1095.989939184068
 10
4807.265548785214
 20
1095.990064089842
 10
4807.26547755381
 20
1095.990156197652
 10
4807.265445575517
 20
1095.990191030358
 10
4807.265419602273
 20
1095.990216989382
 10
4807.265400969471
 20
1095.990234466608
 10
4807.265243483346
 20
1095.990352025106
 10
4807.265067968206
 20
1095.990436058019
 10
4807.264887107924
 20
1095.990484113067
 10
4807.264712824156
 20
1095.990498856188
  0
LWPOLYLINE
  5
654A
330
1F
100
AcDbEntity
  8
Sanindusa
  6
Continuous
100
AcDbPolyline
 90
        8
 70
   128
 43
0.0
 10
4807.264745507567
 20
1095.996756583399
 10
4807.264443240826
 20
1095.996726941425
 10
4807.264135814501
 20
1095.996631832243
 10
4807.263846261639
 20
1095.996468112103
 10
4807.263598588334
 20
1095.996242796003
 10
4807.263404660775
 20
1095.995959052764
 10
4807.263288024812
 20
1095.995652120908
 10
4807.263246411196
 20
1095.99534777479
  0
LWPOLYLINE
  5
654D
330
1F
100
AcDbEntity
  8
Sanindusa
  6
Continuous
100
AcDbPolyline
 90
        8
 70
   128
 43
0.0
 10
4807.26316089905
 20
1095.991978229655
 10
4807.263185773727
 20
1095.991678681637
 10
4807.263282662102
 20
1095.991371928051
 10
4807.263455911505
 20
1095.991082234422
 10
4807.2636979041
 20
1095.990835259488
 10
4807.264004065089
 20
1095.990644337663
 10
4807.264334542626
 20
1095.990533277635
 10
4807.264659995388
 20
1095.990498856188
  0
LINE
  5
654E
330
1F
100
AcDbEntity
  8
Sanindusa
  6
Continuous
100
AcDbLine
 10
4807.26597585132
 20
1095.98472249261
 30
0.0
 11
4807.267479373273
 21
1095.98472249261
 31
0.0
  0
LINE
  5
654F
330
1F
100
AcDbEntity
  8
Sanindusa
  6
Continuous
100
AcDbLine
 10
4807.265711150106
 20
1095.989586514177
 30
0.0
 11
4807.26597585132
 21
1095.98472249261
 31
0.0
  0
ENDSEC
  0
SECTION
  2
OBJECTS
  0
DICTIONARY
  5
C
330
0
100
AcDbDictionary
281
     1
  3
ACAD_COLOR
350
659D
  3
ACAD_GROUP
350
D
  3
ACAD_LAYOUT
350
1A
  3
ACAD_MATERIAL
350
6570
  3
ACAD_MLEADERSTYLE
350
65B2
  3
ACAD_MLINESTYLE
350
17
  3
ACAD_PLOTSETTINGS
350
19
  3
ACAD_PLOTSTYLENAME
350
E
  3
ACAD_SCALELIST
350
65A0
  3
ACAD_TABLESTYLE
350
659E
  3
ACAD_VISUALSTYLE
350
6589
  3
ACDB_RECOMPOSE_DATA
350
65E3
  3
AcDbVariableDictionary
350
3D
  3
ASE_INDEX_DICTIONARY
350
2905
  3
DWGPROPS
350
65E4
  0
DICTIONARY
  5
65B9
330
10
100
AcDbDictionary
280
     1
281
     1
  3
ADSK_XREC_LAYER_RECONCILED
360
65BA
  0
DICTIONARY
  5
65BB
330
2F
100
AcDbDictionary
280
     1
281
     1
  3
ADSK_XREC_LAYER_RECONCILED
360
65BC
  0
DICTIONARY
  5
65BD
330
30
100
AcDbDictionary
280
     1
281
     1
  3
ADSK_XREC_LAYER_RECONCILED
360
65BE
  0
DICTIONARY
  5
65BF
330
31
100
AcDbDictionary
280
     1
281
     1
  3
ADSK_XREC_LAYER_RECONCILED
360
65C0
  0
DICTIONARY
  5
65C1
330
32
100
AcDbDictionary
280
     1
281
     1
  3
ADSK_XREC_LAYER_RECONCILED
360
65C2
  0
DICTIONARY
  5
65C3
330
33
100
AcDbDictionary
280
     1
281
     1
  3
ADSK_XREC_LAYER_RECONCILED
360
65C4
  0
DICTIONARY
  5
65C5
330
34
100
AcDbDictionary
280
     1
281
     1
  3
ADSK_XREC_LAYER_RECONCILED
360
65C6
  0
DICTIONARY
  5
65C7
330
35
100
AcDbDictionary
280
     1
281
     1
  3
ADSK_XREC_LAYER_RECONCILED
360
65C8
  0
DICTIONARY
  5
65C9
330
36
100
AcDbDictionary
280
     1
281
     1
  3
ADSK_XREC_LAYER_RECONCILED
360
65CA
  0
DICTIONARY
  5
65CB
330
37
100
AcDbDictionary
280
     1
281
     1
  3
ADSK_XREC_LAYER_RECONCILED
360
65CC
  0
DICTIONARY
  5
65CD
330
5D6
100
AcDbDictionary
280
     1
281
     1
  3
ADSK_XREC_LAYER_RECONCILED
360
65CE
  0
DICTIONARY
  5
65CF
330
8AF
100
AcDbDictionary
280
     1
281
     1
  3
ADSK_XREC_LAYER_RECONCILED
360
65D0
  0
DICTIONARY
  5
65D1
330
8F8
100
AcDbDictionary
280
     1
281
     1
  3
ADSK_XREC_LAYER_RECONCILED
360
65D2
  0
DICTIONARY
  5
65D3
330
91D
100
AcDbDictionary
280
     1
281
     1
  3
ADSK_XREC_LAYER_RECONCILED
360
65D4
  0
DICTIONARY
  5
65D5
330
BA2
100
AcDbDictionary
280
     1
281
     1
  3
ADSK_XREC_LAYER_RECONCILED
360
65D6
  0
DICTIONARY
  5
65D7
330
49F6
100
AcDbDictionary
280
     1
281
     1
  3
ADSK_XREC_LAYER_RECONCILED
360
65D8
  0
DICTIONARY
  5
65D9
330
49F7
100
AcDbDictionary
280
     1
281
     1
  3
ADSK_XREC_LAYER_RECONCILED
360
65DA
  0
DICTIONARY
  5
659D
102
{ACAD_REACTORS
330
C
102
}
330
C
100
AcDbDictionary
281
     1
  0
DICTIONARY
  5
D
102
{ACAD_REACTORS
330
C
102
}
330
C
100
AcDbDictionary
281
     1
  0
DICTIONARY
  5
1A
102
{ACAD_REACTORS
330
C
102
}
330
C
100
AcDbDictionary
281
     1
  3
Layout1
350
1E
  3
Layout2
350
26
  3
Model
350
22
  0
DICTIONARY
  5
6570
102
{ACAD_REACTORS
330
C
102
}
330
C
100
AcDbDictionary
281
     1
  3
ByBlock
350
6579
  3
ByLayer
350
6571
  3
Global
350
6581
  0
DICTIONARY
  5
65B2
102
{ACAD_REACTORS
330
C
102
}
330
C
100
AcDbDictionary
281
     1
  3
Standard
350
65B3
  0
DICTIONARY
  5
17
102
{ACAD_REACTORS
330
C
102
}
330
C
100
AcDbDictionary
281
     1
  3
Standard
350
18
  0
DICTIONARY
  5
19
102
{ACAD_REACTORS
330
C
102
}
330
C
100
AcDbDictionary
281
     1
  0
ACDBDICTIONARYWDFLT
  5
E
102
{ACAD_REACTORS
330
C
102
}
330
C
100
AcDbDictionary
281
     1
  3
Normal
350
F
100
AcDbDictionaryWithDefault
340
F
  0
DICTIONARY
  5
65A0
102
{ACAD_REACTORS
330
C
102
}
330
C
100
AcDbDictionary
281
     1
  3
A0
350
65A1
  3
A1
350
65A2
  3
A2
350
65A3
  3
A3
350
65A4
  3
A4
350
65A5
  3
A5
350
65A6
  3
A6
350
65A7
  3
A7
350
65A8
  3
A8
350
65A9
  3
A9
350
65AA
  3
B0
350
65AB
  3
B1
350
65AC
  3
B2
350
65AD
  3
B3
350
65AE
  3
B4
350
65AF
  3
B5
350
65B0
  3
B6
350
65B1
  0
DICTIONARY
  5
659E
102
{ACAD_REACTORS
330
C
102
}
330
C
100
AcDbDictionary
281
     1
  3
Standard
350
659F
  0
DICTIONARY
  5
6589
102
{ACAD_REACTORS
330
C
102
}
330
C
100
AcDbDictionary
281
     1
  3
2dWireframe
350
658F
  3
3D Hidden
350
6591
  3
3dWireframe
350
6590
  3
Basic
350
658E
  3
Brighten
350
6595
  3
ColorChange
350
6599
  3
Conceptual
350
6592
  3
Dim
350
6594
  3
EdgeColorOff
350
659C
  3
Facepattern
350
6598
  3
Flat
350
658A
  3
FlatWithEdges
350
658B
  3
Gouraud
350
658C
  3
GouraudWithEdges
350
658D
  3
JitterOff
350
659A
  3
Linepattern
350
6597
  3
OverhangOff
350
659B
  3
Realistic
350
6593
  3
Thicken
350
6596
  0
XRECORD
  5
65E3
102
{ACAD_REACTORS
330
C
102
}
330
C
100
AcDbXrecord
280
     1
 90
        1
330
659F
  0
DICTIONARY
  5
3D
102
{ACAD_REACTORS
330
C
102
}
330
C
100
AcDbDictionary
281
     1
  3
CANNOSCALE
350
65DD
  3
CMLEADERSTYLE
350
65DC
  3
CTABLESTYLE
350
65DB
  3
DIMASSOC
350
3F
  3
HIDETEXT
350
3E
  3
INDEXCTL
350
65DF
  3
SORTENTS
350
65DE
  3
XCLIPFRAME
350
65E0
  0
DICTIONARY
  5
2905
102
{ACAD_REACTORS
330
C
102
}
330
C
100
AcDbDictionary
281
     1
  3
ASEBlockHierarchyIndexRecord
350
2906
1001
DCO15
1040
1757672653.75
  0
XRECORD
  5
65E4
102
{ACAD_REACTORS
330
C
102
}
330
C
100
AcDbXrecord
280
     1
  1
DWGPROPS COOKIE
  2

  3

  4

  6

  7

  8
Julio
  9

300
=
301
=
302
=
303
=
304
=
305
=
306
=
307
=
308
=
309
=
 40
0.1645423148148148
 41
2453154.503405486
 42
2456146.645344329
  1

 90
        0
  0
XRECORD
  5
65BA
102
{ACAD_REACTORS
330
65B9
102
}
330
65B9
100
AcDbXrecord
280
     1
290
     1
  0
XRECORD
  5
65BC
102
{ACAD_REACTORS
330
65BB
102
}
330
65BB
100
AcDbXrecord
280
     1
290
     1
  0
XRECORD
  5
65BE
102
{ACAD_REACTORS
330
65BD
102
}
330
65BD
100
AcDbXrecord
280
     1
290
     1
  0
XRECORD
  5
65C0
102
{ACAD_REACTORS
330
65BF
102
}
330
65BF
100
AcDbXrecord
280
     1
290
     1
  0
XRECORD
  5
65C2
102
{ACAD_REACTORS
330
65C1
102
}
330
65C1
100
AcDbXrecord
280
     1
290
     1
  0
XRECORD
  5
65C4
102
{ACAD_REACTORS
330
65C3
102
}
330
65C3
100
AcDbXrecord
280
     1
290
     1
  0
XRECORD
  5
65C6
102
{ACAD_REACTORS
330
65C5
102
}
330
65C5
100
AcDbXrecord
280
     1
290
     1
  0
XRECORD
  5
65C8
102
{ACAD_REACTORS
330
65C7
102
}
330
65C7
100
AcDbXrecord
280
     1
290
     1
  0
XRECORD
  5
65CA
102
{ACAD_REACTORS
330
65C9
102
}
330
65C9
100
AcDbXrecord
280
     1
290
     1
  0
XRECORD
  5
65CC
102
{ACAD_REACTORS
330
65CB
102
}
330
65CB
100
AcDbXrecord
280
     1
290
     1
  0
XRECORD
  5
65CE
102
{ACAD_REACTORS
330
65CD
102
}
330
65CD
100
AcDbXrecord
280
     1
290
     1
  0
XRECORD
  5
65D0
102
{ACAD_REACTORS
330
65CF
102
}
330
65CF
100
AcDbXrecord
280
     1
290
     1
  0
XRECORD
  5
65D2
102
{ACAD_REACTORS
330
65D1
102
}
330
65D1
100
AcDbXrecord
280
     1
290
     1
  0
XRECORD
  5
65D4
102
{ACAD_REACTORS
330
65D3
102
}
330
65D3
100
AcDbXrecord
280
     1
290
     1
  0
XRECORD
  5
65D6
102
{ACAD_REACTORS
330
65D5
102
}
330
65D5
100
AcDbXrecord
280
     1
290
     1
  0
XRECORD
  5
65D8
102
{ACAD_REACTORS
330
65D7
102
}
330
65D7
100
AcDbXrecord
280
     1
290
     1
  0
XRECORD
  5
65DA
102
{ACAD_REACTORS
330
65D9
102
}
330
65D9
100
AcDbXrecord
280
     1
290
     1
  0
LAYOUT
  5
1E
102
{ACAD_XDICTIONARY
360
65E5
102
}
102
{ACAD_REACTORS
330
1A
102
}
330
1A
100
AcDbPlotSettings
  1

  2
Ploter HP500
  4

  6

 40
0.0
 41
0.0
 42
0.0
 43
0.0
 44
0.0
 45
0.0
 46
0.0
 47
0.0
 48
0.0
 49
0.0
140
0.0
141
0.0
142
1.0
143
1.0
 70
   688
 72
     0
 73
     0
 74
     5
  7
monochrome.ctb
 75
    16
147
1.0
148
0.0
149
0.0
100
AcDbLayout
  1
Layout1
 70
     1
 71
     1
 10
0.0
 20
0.0
 11
420.0
 21
297.0
 12
0.0
 22
0.0
 32
0.0
 14
1.000000000000000E+20
 24
1.000000000000000E+20
 34
1.000000000000000E+20
 15
-1.000000000000000E+20
 25
-1.000000000000000E+20
 35
-1.000000000000000E+20
146
0.0
 13
0.0
 23
0.0
 33
0.0
 16
1.0
 26
0.0
 36
0.0
 17
0.0
 27
1.0
 37
0.0
 76
     0
330
1B
  0
LAYOUT
  5
26
102
{ACAD_XDICTIONARY
360
65E9
102
}
102
{ACAD_REACTORS
330
1A
102
}
330
1A
100
AcDbPlotSettings
  1

  2
Ploter HP500
  4

  6

 40
0.0
 41
0.0
 42
0.0
 43
0.0
 44
0.0
 45
0.0
 46
0.0
 47
0.0
 48
0.0
 49
0.0
140
0.0
141
0.0
142
1.0
143
1.0
 70
   688
 72
     0
 73
     0
 74
     5
  7
monochrome.ctb
 75
    16
147
1.0
148
0.0
149
0.0
100
AcDbLayout
  1
Layout2
 70
     1
 71
     2
 10
0.0
 20
0.0
 11
12.0
 21
9.0
 12
0.0
 22
0.0
 32
0.0
 14
0.0
 24
0.0
 34
0.0
 15
0.0
 25
0.0
 35
0.0
146
0.0
 13
0.0
 23
0.0
 33
0.0
 16
1.0
 26
0.0
 36
0.0
 17
0.0
 27
1.0
 37
0.0
 76
     0
330
23
  0
LAYOUT
  5
22
102
{ACAD_XDICTIONARY
360
65E7
102
}
102
{ACAD_REACTORS
330
1A
102
}
330
1A
100
AcDbPlotSettings
  1

  2
Ploter HP500
  4
User268
  6

 40
4.995333194732666
 41
16.97565841674804
 42
4.995330810546875
 43
16.97567749023437
 44
209.9733276367187
 45
296.9259948730469
 46
0.0
 47
0.0
 48
0.0
 49
0.0
140
0.0
141
0.0
142
1.0
143
1.0
 70
 11952
 72
     1
 73
     1
 74
     0
  7

 75
     0
147
1.0
148
-427.5957866592534
149
7.362384574453926
100
AcDbLayout
  1
Model
 70
     1
 71
     0
 10
0.0
 20
0.0
 11
12.0
 21
9.0
 12
0.0
 22
0.0
 32
0.0
 14
0.0
 24
0.0
 34
0.0
 15
0.0
 25
0.0
 35
0.0
146
0.0
 13
0.0
 23
0.0
 33
0.0
 16
1.0
 26
0.0
 36
0.0
 17
0.0
 27
1.0
 37
0.0
 76
     0
330
1F
331
656E
  0
MATERIAL
  5
6579
102
{ACAD_XDICTIONARY
360
657A
102
}
102
{ACAD_REACTORS
330
6570
102
}
330
6570
100
AcDbMaterial
  1
ByBlock
 72
     0
 43
0.0008202099737533
 43
0.0
 43
0.0
 43
0.0
 43
0.0
 43
0.0008202099737533
 43
0.0
 43
0.0
 43
0.0
 43
0.0
 43
1.0
 43
0.0
 43
0.0
 43
0.0
 43
0.0
 43
1.0
 77
     0
 47
0.0008202099737533
 47
0.0
 47
0.0
 47
0.0
 47
0.0
 47
0.0008202099737533
 47
0.0
 47
0.0
 47
0.0
 47
0.0
 47
1.0
 47
0.0
 47
0.0
 47
0.0
 47
0.0
 47
1.0
171
     0
 49
0.0008202099737533
 49
0.0
 49
0.0
 49
0.0
 49
0.0
 49
0.0008202099737533
 49
0.0
 49
0.0
 49
0.0
 49
0.0
 49
1.0
 49
0.0
 49
0.0
 49
0.0
 49
0.0
 49
1.0
175
     0
142
0.0008202099737533
142
0.0
142
0.0
142
0.0
142
0.0
142
0.0008202099737533
142
0.0
142
0.0
142
0.0
142
0.0
142
1.0
142
0.0
142
0.0
142
0.0
142
0.0
142
1.0
179
     0
144
0.0008202099737533
144
0.0
144
0.0
144
0.0
144
0.0
144
0.0008202099737533
144
0.0
144
0.0
144
0.0
144
0.0
144
1.0
144
0.0
144
0.0
144
0.0
144
0.0
144
1.0
147
0.0008202099737533
147
0.0
147
0.0
147
0.0
147
0.0
147
0.0008202099737533
147
0.0
147
0.0
147
0.0
147
0.0
147
1.0
147
0.0
147
0.0
147
0.0
147
0.0
147
1.0
  0
MATERIAL
  5
6571
102
{ACAD_XDICTIONARY
360
6572
102
}
102
{ACAD_REACTORS
330
6570
102
}
330
6570
100
AcDbMaterial
  1
ByLayer
 72
     0
 43
0.0008202099737533
 43
0.0
 43
0.0
 43
0.0
 43
0.0
 43
0.0008202099737533
 43
0.0
 43
0.0
 43
0.0
 43
0.0
 43
1.0
 43
0.0
 43
0.0
 43
0.0
 43
0.0
 43
1.0
 77
     0
 47
0.0008202099737533
 47
0.0
 47
0.0
 47
0.0
 47
0.0
 47
0.0008202099737533
 47
0.0
 47
0.0
 47
0.0
 47
0.0
 47
1.0
 47
0.0
 47
0.0
 47
0.0
 47
0.0
 47
1.0
171
     0
 49
0.0008202099737533
 49
0.0
 49
0.0
 49
0.0
 49
0.0
 49
0.0008202099737533
 49
0.0
 49
0.0
 49
0.0
 49
0.0
 49
1.0
 49
0.0
 49
0.0
 49
0.0
 49
0.0
 49
1.0
175
     0
142
0.0008202099737533
142
0.0
142
0.0
142
0.0
142
0.0
142
0.0008202099737533
142
0.0
142
0.0
142
0.0
142
0.0
142
1.0
142
0.0
142
0.0
142
0.0
142
0.0
142
1.0
179
     0
144
0.0008202099737533
144
0.0
144
0.0
144
0.0
144
0.0
144
0.0008202099737533
144
0.0
144
0.0
144
0.0
144
0.0
144
1.0
144
0.0
144
0.0
144
0.0
144
0.0
144
1.0
147
0.0008202099737533
147
0.0
147
0.0
147
0.0
147
0.0
147
0.0008202099737533
147
0.0
147
0.0
147
0.0
147
0.0
147
1.0
147
0.0
147
0.0
147
0.0
147
0.0
147
1.0
  0
MATERIAL
  5
6581
102
{ACAD_XDICTIONARY
360
6582
102
}
102
{ACAD_REACTORS
330
6570
102
}
330
6570
100
AcDbMaterial
  1
Global
 72
     0
 43
0.0008202099737533
 43
0.0
 43
0.0
 43
0.0
 43
0.0
 43
0.0008202099737533
 43
0.0
 43
0.0
 43
0.0
 43
0.0
 43
1.0
 43
0.0
 43
0.0
 43
0.0
 43
0.0
 43
1.0
 77
     0
 47
0.0008202099737533
 47
0.0
 47
0.0
 47
0.0
 47
0.0
 47
0.0008202099737533
 47
0.0
 47
0.0
 47
0.0
 47
0.0
 47
1.0
 47
0.0
 47
0.0
 47
0.0
 47
0.0
 47
1.0
171
     0
 49
0.0008202099737533
 49
0.0
 49
0.0
 49
0.0
 49
0.0
 49
0.0008202099737533
 49
0.0
 49
0.0
 49
0.0
 49
0.0
 49
1.0
 49
0.0
 49
0.0
 49
0.0
 49
0.0
 49
1.0
175
     0
142
0.0008202099737533
142
0.0
142
0.0
142
0.0
142
0.0
142
0.0008202099737533
142
0.0
142
0.0
142
0.0
142
0.0
142
1.0
142
0.0
142
0.0
142
0.0
142
0.0
142
1.0
179
     0
144
0.0008202099737533
144
0.0
144
0.0
144
0.0
144
0.0
144
0.0008202099737533
144
0.0
144
0.0
144
0.0
144
0.0
144
1.0
144
0.0
144
0.0
144
0.0
144
0.0
144
1.0
147
0.0008202099737533
147
0.0
147
0.0
147
0.0
147
0.0
147
0.0008202099737533
147
0.0
147
0.0
147
0.0
147
0.0
147
1.0
147
0.0
147
0.0
147
0.0
147
0.0
147
1.0
  0
MLEADERSTYLE
  5
65B3
102
{ACAD_REACTORS
330
65B2
102
}
330
65B2
100
AcDbMLeaderStyle
170
     2
171
     1
172
     0
 90
        2
 40
0.0
 41
0.0
173
     1
 91
-1056964608
340
14
 92
       -2
290
     1
 42
2.0
291
     1
 43
0.36
  3
Standard
 44
4.0
300

342
11
174
     1
178
     6
175
     1
176
     0
 93
-1056964608
 45
4.0
292
     0
297
     0
 46
4.0
 94
-1056964608
 47
1.0
 49
1.0
140
1.0
293
     1
141
0.0
294
     1
177
     0
142
1.0
295
     0
296
     0
143
0.125
1001
ACAD_MLEADERVER
1070
     2
  0
MLINESTYLE
  5
18
102
{ACAD_REACTORS
330
17
102
}
330
17
100
AcDbMlineStyle
  2
STANDARD
 70
     0
  3

 62
   256
 51
90.0
 52
90.0
 71
     2
 49
0.5
 62
   256
  6
BYLAYER
 49
-0.5
 62
   256
  6
BYLAYER
  0
ACDBPLACEHOLDER
  5
F
102
{ACAD_REACTORS
330
E
102
}
330
E
  0
SCALE
  5
65A1
102
{ACAD_REACTORS
330
65A0
102
}
330
65A0
100
AcDbScale
 70
     0
300
1:1
140
1.0
141
1.0
290
     1
  0
SCALE
  5
65A2
102
{ACAD_REACTORS
330
65A0
102
}
330
65A0
100
AcDbScale
 70
     0
300
1:2
140
1.0
141
2.0
290
     0
  0
SCALE
  5
65A3
102
{ACAD_REACTORS
330
65A0
102
}
330
65A0
100
AcDbScale
 70
     0
300
1:4
140
1.0
141
4.0
290
     0
  0
SCALE
  5
65A4
102
{ACAD_REACTORS
330
65A0
102
}
330
65A0
100
AcDbScale
 70
     0
300
1:5
140
1.0
141
5.0
290
     0
  0
SCALE
  5
65A5
102
{ACAD_REACTORS
330
65A0
102
}
330
65A0
100
AcDbScale
 70
     0
300
1:8
140
1.0
141
8.0
290
     0
  0
SCALE
  5
65A6
102
{ACAD_REACTORS
330
65A0
102
}
330
65A0
100
AcDbScale
 70
     0
300
1:10
140
1.0
141
10.0
290
     0
  0
SCALE
  5
65A7
102
{ACAD_REACTORS
330
65A0
102
}
330
65A0
100
AcDbScale
 70
     0
300
1:16
140
1.0
141
16.0
290
     0
  0
SCALE
  5
65A8
102
{ACAD_REACTORS
330
65A0
102
}
330
65A0
100
AcDbScale
 70
     0
300
1:20
140
1.0
141
20.0
290
     0
  0
SCALE
  5
65A9
102
{ACAD_REACTORS
330
65A0
102
}
330
65A0
100
AcDbScale
 70
     0
300
1:30
140
1.0
141
30.0
290
     0
  0
SCALE
  5
65AA
102
{ACAD_REACTORS
330
65A0
102
}
330
65A0
100
AcDbScale
 70
     0
300
1:40
140
1.0
141
40.0
290
     0
  0
SCALE
  5
65AB
102
{ACAD_REACTORS
330
65A0
102
}
330
65A0
100
AcDbScale
 70
     0
300
1:50
140
1.0
141
50.0
290
     0
  0
SCALE
  5
65AC
102
{ACAD_REACTORS
330
65A0
102
}
330
65A0
100
AcDbScale
 70
     0
300
1:100
140
1.0
141
100.0
290
     0
  0
SCALE
  5
65AD
102
{ACAD_REACTORS
330
65A0
102
}
330
65A0
100
AcDbScale
 70
     0
300
2:1
140
2.0
141
1.0
290
     0
  0
SCALE
  5
65AE
102
{ACAD_REACTORS
330
65A0
102
}
330
65A0
100
AcDbScale
 70
     0
300
4:1
140
4.0
141
1.0
290
     0
  0
SCALE
  5
65AF
102
{ACAD_REACTORS
330
65A0
102
}
330
65A0
100
AcDbScale
 70
     0
300
8:1
140
8.0
141
1.0
290
     0
  0
SCALE
  5
65B0
102
{ACAD_REACTORS
330
65A0
102
}
330
65A0
100
AcDbScale
 70
     0
300
10:1
140
10.0
141
1.0
290
     0
  0
SCALE
  5
65B1
102
{ACAD_REACTORS
330
65A0
102
}
330
65A0
100
AcDbScale
 70
     0
300
100:1
140
100.0
141
1.0
290
     0
  0
TABLESTYLE
  5
659F
102
{ACAD_XDICTIONARY
360
65E1
102
}
102
{ACAD_REACTORS
330
659E
102
}
330
659E
100
AcDbTableStyle
  3
Standard
 70
     0
 71
     0
 40
1.5
 41
1.5
280
     0
281
     0
  7
Standard
140
4.5
170
     2
 62
     0
 63
     7
283
     0
274
    -2
284
     1
 64
     0
275
    -2
285
     1
 65
     0
276
    -2
286
     1
 66
     0
277
    -2
287
     1
 67
     0
278
    -2
288
     1
 68
     0
279
    -2
289
     1
 69
     0
  7
Standard
140
6.0
170
     5
 62
     0
 63
     7
283
     0
274
    -2
284
     1
 64
     0
275
    -2
285
     1
 65
     0
276
    -2
286
     1
 66
     0
277
    -2
287
     1
 67
     0
278
    -2
288
     1
 68
     0
279
    -2
289
     1
 69
     0
  7
Standard
140
4.5
170
     5
 62
     0
 63
     7
283
     0
274
    -2
284
     1
 64
     0
275
    -2
285
     1
 65
     0
276
    -2
286
     1
 66
     0
277
    -2
287
     1
 67
     0
278
    -2
288
     1
 68
     0
279
    -2
289
     1
 69
     0
  0
VISUALSTYLE
  5
658F
102
{ACAD_XDICTIONARY
360
65FA
102
}
102
{ACAD_REACTORS
330
6589
102
}
330
6589
100
AcDbVisualStyle
  2
2dWireframe
 70
     4
 71
     0
 72
     2
 73
     0
 90
        0
 40
-0.6
 41
-30.0
 62
     5
 63
     7
 74
     1
 91
        4
 64
     7
 65
   257
 75
     1
175
     1
 42
1.0
 92
        0
 66
   257
 43
1.0
 76
     1
 77
     6
 78
     2
 67
     7
 79
     5
170
     0
171
     0
290
     0
174
     0
 93
        1
 44
0.0
173
     0
291
     0
 45
0.0
1001
ACAD
1000
AcDbSavedByObjectVersion
1070
     0
  0
VISUALSTYLE
  5
6591
102
{ACAD_XDICTIONARY
360
65FE
102
}
102
{ACAD_REACTORS
330
6589
102
}
330
6589
100
AcDbVisualStyle
  2
3D Hidden
 70
     6
 71
     1
 72
     2
 73
     2
 90
        0
 40
-0.6
 41
-30.0
 62
     5
 63
     7
 74
     2
 91
        2
 64
     7
 65
   257
 75
     2
175
     1
 42
179.0
 92
        0
 66
   257
 43
1.0
 76
     1
 77
     6
 78
     2
 67
     7
 79
     3
170
     0
171
     0
290
     0
174
     0
 93
        1
 44
0.0
173
     0
291
     0
 45
0.0
1001
ACAD
1000
AcDbSavedByObjectVersion
1070
     0
  0
VISUALSTYLE
  5
6590
102
{ACAD_XDICTIONARY
360
65FC
102
}
102
{ACAD_REACTORS
330
6589
102
}
330
6589
100
AcDbVisualStyle
  2
3dWireframe
 70
     5
 71
     0
 72
     2
 73
     0
 90
        0
 40
-0.6
 41
-30.0
 62
     5
 63
     7
 74
     1
 91
        4
 64
     7
 65
   257
 75
     1
175
     1
 42
1.0
 92
        0
 66
   257
 43
1.0
 76
     1
 77
     6
 78
     2
 67
     7
 79
     5
170
     0
171
     0
290
     0
174
     0
 93
        1
 44
0.0
173
     0
291
     0
 45
0.0
1001
ACAD
1000
AcDbSavedByObjectVersion
1070
     0
  0
VISUALSTYLE
  5
658E
102
{ACAD_XDICTIONARY
360
65F8
102
}
102
{ACAD_REACTORS
330
6589
102
}
330
6589
100
AcDbVisualStyle
  2
Basic
 70
     7
 71
     1
 72
     0
 73
     1
 90
        0
 40
-0.6
 41
-30.0
 62
     5
 63
     7
 74
     0
 91
        4
 64
     7
 65
   257
 75
     1
175
     1
 42
1.0
 92
        8
 66
     7
 43
1.0
 76
     1
 77
     6
 78
     2
 67
     7
 79
     5
170
     0
171
     0
290
     0
174
     0
 93
        1
 44
0.0
173
     0
291
     1
 45
0.0
1001
ACAD
1000
AcDbSavedByObjectVersion
1070
     0
  0
VISUALSTYLE
  5
6595
102
{ACAD_XDICTIONARY
360
6606
102
}
102
{ACAD_REACTORS
330
6589
102
}
330
6589
100
AcDbVisualStyle
  2
Brighten
 70
    12
 71
     2
 72
     2
 73
     0
 90
        0
 40
-0.6
 41
-30.0
 62
     5
 63
     7
 74
     1
 91
        4
 64
     7
 65
   257
 75
     1
175
     1
 42
1.0
 92
        8
 66
     7
 43
1.0
 76
     1
 77
     6
 78
     2
 67
     7
 79
     5
170
     0
171
     0
290
     0
174
     0
 93
        1
 44
50.0
173
     0
291
     1
 45
0.0
1001
ACAD
1000
AcDbSavedByObjectVersion
1070
     0
  0
VISUALSTYLE
  5
6599
102
{ACAD_XDICTIONARY
360
660E
102
}
102
{ACAD_REACTORS
330
6589
102
}
330
6589
100
AcDbVisualStyle
  2
ColorChange
 70
    16
 71
     2
 72
     2
 73
     3
 90
        0
 40
-0.6
 41
-30.0
 62
     5
 63
     8
 74
     1
 91
        4
 64
     7
 65
   257
 75
     1
175
     1
 42
1.0
 92
        8
 66
     8
 43
1.0
 76
     1
 77
     6
 78
     2
 67
     7
 79
     5
170
     0
171
     0
290
     0
174
     0
 93
        1
 44
0.0
173
     0
291
     1
 45
0.0
1001
ACAD
1000
AcDbSavedByObjectVersion
1070
     0
  0
VISUALSTYLE
  5
6592
102
{ACAD_XDICTIONARY
360
6600
102
}
102
{ACAD_REACTORS
330
6589
102
}
330
6589
100
AcDbVisualStyle
  2
Conceptual
 70
     9
 71
     3
 72
     2
 73
     0
 90
        0
 40
-0.6
 41
-30.0
 62
     5
 63
     7
 74
     2
 91
        2
 64
     7
 65
   257
 75
     1
175
     1
 42
179.0
 92
        8
 66
     7
 43
1.0
 76
     1
 77
     6
 78
     2
 67
     7
 79
     3
170
     0
171
     0
290
     0
174
     0
 93
        1
 44
0.0
173
     0
291
     0
 45
0.0
1001
ACAD
1000
AcDbSavedByObjectVersion
1070
     0
  0
VISUALSTYLE
  5
6594
102
{ACAD_XDICTIONARY
360
6604
102
}
102
{ACAD_REACTORS
330
6589
102
}
330
6589
100
AcDbVisualStyle
  2
Dim
 70
    11
 71
     2
 72
     2
 73
     0
 90
        0
 40
-0.6
 41
-30.0
 62
     5
 63
     7
 74
     1
 91
        4
 64
     7
 65
   257
 75
     1
175
     1
 42
1.0
 92
        8
 66
     7
 43
1.0
 76
     1
 77
     6
 78
     2
 67
     7
 79
     5
170
     0
171
     0
290
     0
174
     0
 93
        1
 44
-50.0
173
     0
291
     1
 45
0.0
1001
ACAD
1000
AcDbSavedByObjectVersion
1070
     0
  0
VISUALSTYLE
  5
659C
102
{ACAD_XDICTIONARY
360
6614
102
}
102
{ACAD_REACTORS
330
6589
102
}
330
6589
100
AcDbVisualStyle
  2
EdgeColorOff
 70
    22
 71
     2
 72
     2
 73
     0
 90
        0
 40
-0.6
 41
-30.0
 62
     5
 63
     7
 74
     1
 91
        4
 64
     7
 65
   257
 75
     1
175
     1
 42
1.0
 92
        8
 66
     7
 43
1.0
 76
     1
 77
     6
 78
     2
 67
     7
 79
     5
170
     0
171
     0
290
     0
174
     0
 93
        1
 44
0.0
173
     0
291
     1
 45
0.0
1001
ACAD
1000
AcDbSavedByObjectVersion
1070
     0
  0
VISUALSTYLE
  5
6598
102
{ACAD_XDICTIONARY
360
660C
102
}
102
{ACAD_REACTORS
330
6589
102
}
330
6589
100
AcDbVisualStyle
  2
Facepattern
 70
    15
 71
     2
 72
     2
 73
     0
 90
        0
 40
-0.6
 41
-30.0
 62
     5
 63
     7
 74
     1
 91
        4
 64
     7
 65
   257
 75
     1
175
     1
 42
1.0
 92
        8
 66
     7
 43
1.0
 76
     1
 77
     6
 78
     2
 67
     7
 79
     5
170
     0
171
     0
290
     0
174
     0
 93
        1
 44
0.0
173
     0
291
     1
 45
0.0
1001
ACAD
1000
AcDbSavedByObjectVersion
1070
     0
  0
VISUALSTYLE
  5
658A
102
{ACAD_XDICTIONARY
360
65F0
102
}
102
{ACAD_REACTORS
330
6589
102
}
330
6589
100
AcDbVisualStyle
  2
Flat
 70
     0
 71
     2
 72
     1
 73
     1
 90
        2
 40
-0.6
 41
30.0
 62
     5
 63
     7
 74
     0
 91
        4
 64
     7
 65
   257
 75
     1
175
     1
 42
1.0
 92
        8
 66
     7
 43
1.0
 76
     1
 77
     6
 78
     2
 67
     7
 79
     5
170
     0
171
     0
290
     0
174
     0
 93
       13
 44
0.0
173
     0
291
     1
 45
0.0
1001
ACAD
1000
AcDbSavedByObjectVersion
1070
     0
  0
VISUALSTYLE
  5
658B
102
{ACAD_XDICTIONARY
360
65F2
102
}
102
{ACAD_REACTORS
330
6589
102
}
330
6589
100
AcDbVisualStyle
  2
FlatWithEdges
 70
     1
 71
     2
 72
     1
 73
     1
 90
        2
 40
-0.6
 41
30.0
 62
     5
 63
     7
 74
     1
 91
        4
 64
     7
 65
   257
 75
     1
175
     1
 42
1.0
 92
        0
 66
   257
 43
1.0
 76
     1
 77
     6
 78
     2
 67
     7
 79
     5
170
     0
171
     0
290
     0
174
     0
 93
       13
 44
0.0
173
     0
291
     1
 45
0.0
1001
ACAD
1000
AcDbSavedByObjectVersion
1070
     0
  0
VISUALSTYLE
  5
658C
102
{ACAD_XDICTIONARY
360
65F4
102
}
102
{ACAD_REACTORS
330
6589
102
}
330
6589
100
AcDbVisualStyle
  2
Gouraud
 70
     2
 71
     2
 72
     2
 73
     1
 90
        2
 40
-0.6
 41
30.0
 62
     5
 63
     7
 74
     0
 91
        4
 64
     7
 65
   257
 75
     1
175
     1
 42
1.0
 92
        0
 66
     7
 43
1.0
 76
     1
 77
     6
 78
     2
 67
     7
 79
     5
170
     0
171
     0
290
     0
174
     0
 93
       13
 44
0.0
173
     0
291
     1
 45
0.0
1001
ACAD
1000
AcDbSavedByObjectVersion
1070
     0
  0
VISUALSTYLE
  5
658D
102
{ACAD_XDICTIONARY
360
65F6
102
}
102
{ACAD_REACTORS
330
6589
102
}
330
6589
100
AcDbVisualStyle
  2
GouraudWithEdges
 70
     3
 71
     2
 72
     2
 73
     1
 90
        2
 40
-0.6
 41
30.0
 62
     5
 63
     7
 74
     1
 91
        4
 64
     7
 65
   257
 75
     1
175
     1
 42
1.0
 92
        0
 66
   257
 43
1.0
 76
     1
 77
     6
 78
     2
 67
     7
 79
     5
170
     0
171
     0
290
     0
174
     0
 93
       13
 44
0.0
173
     0
291
     1
 45
0.0
1001
ACAD
1000
AcDbSavedByObjectVersion
1070
     0
  0
VISUALSTYLE
  5
659A
102
{ACAD_XDICTIONARY
360
6610
102
}
102
{ACAD_REACTORS
330
6589
102
}
330
6589
100
AcDbVisualStyle
  2
JitterOff
 70
    20
 71
     2
 72
     2
 73
     0
 90
        0
 40
-0.6
 41
-30.0
 62
     5
 63
     7
 74
     1
 91
        4
 64
     7
 65
   257
 75
     1
175
     1
 42
1.0
 92
       10
 66
     7
 43
1.0
 76
     1
 77
     6
 78
     2
 67
     7
 79
     5
170
     0
171
     0
290
     0
174
     0
 93
        1
 44
0.0
173
     0
291
     1
 45
0.0
1001
ACAD
1000
AcDbSavedByObjectVersion
1070
     0
  0
VISUALSTYLE
  5
6597
102
{ACAD_XDICTIONARY
360
660A
102
}
102
{ACAD_REACTORS
330
6589
102
}
330
6589
100
AcDbVisualStyle
  2
Linepattern
 70
    14
 71
     2
 72
     2
 73
     0
 90
        0
 40
-0.6
 41
-30.0
 62
     5
 63
     7
 74
     1
 91
        4
 64
     7
 65
   257
 75
     7
175
     7
 42
1.0
 92
        8
 66
     7
 43
1.0
 76
     1
 77
     6
 78
     2
 67
     7
 79
     5
170
     0
171
     0
290
     0
174
     0
 93
        1
 44
0.0
173
     0
291
     1
 45
0.0
1001
ACAD
1000
AcDbSavedByObjectVersion
1070
     0
  0
VISUALSTYLE
  5
659B
102
{ACAD_XDICTIONARY
360
6612
102
}
102
{ACAD_REACTORS
330
6589
102
}
330
6589
100
AcDbVisualStyle
  2
OverhangOff
 70
    21
 71
     2
 72
     2
 73
     0
 90
        0
 40
-0.6
 41
-30.0
 62
     5
 63
     7
 74
     1
 91
        4
 64
     7
 65
   257
 75
     1
175
     1
 42
1.0
 92
        9
 66
     7
 43
1.0
 76
     1
 77
     6
 78
     2
 67
     7
 79
     5
170
     0
171
     0
290
     0
174
     0
 93
        1
 44
0.0
173
     0
291
     1
 45
0.0
1001
ACAD
1000
AcDbSavedByObjectVersion
1070
     0
  0
VISUALSTYLE
  5
6593
102
{ACAD_XDICTIONARY
360
6602
102
}
102
{ACAD_REACTORS
330
6589
102
}
330
6589
100
AcDbVisualStyle
  2
Realistic
 70
     8
 71
     2
 72
     2
 73
     0
 90
        0
 40
-0.6
 41
-30.0
 62
     5
 63
     7
 74
     1
 91
        0
 64
     7
 65
   257
 75
     1
175
     1
 42
1.0
 92
        8
 66
     8
 43
1.0
 76
     1
 77
     6
 78
     2
 67
     7
 79
     5
170
     0
171
     0
290
     0
174
     0
 93
       13
 44
0.0
173
     0
291
     0
 45
0.0
1001
ACAD
1000
AcDbSavedByObjectVersion
1070
     0
  0
VISUALSTYLE
  5
6596
102
{ACAD_XDICTIONARY
360
6608
102
}
102
{ACAD_REACTORS
330
6589
102
}
330
6589
100
AcDbVisualStyle
  2
Thicken
 70
    13
 71
     2
 72
     2
 73
     0
 90
        0
 40
-0.6
 41
-30.0
 62
     5
 63
     7
 74
     1
 91
        4
 64
     7
 65
   257
 75
     1
175
     1
 42
1.0
 92
       12
 66
     7
 43
1.0
 76
     1
 77
     6
 78
     2
 67
     7
 79
     5
170
     0
171
     0
290
     0
174
     0
 93
        1
 44
0.0
173
     0
291
     1
 45
0.0
1001
ACAD
1000
AcDbSavedByObjectVersion
1070
     0
  0
DICTIONARYVAR
  5
65DD
102
{ACAD_REACTORS
330
3D
102
}
330
3D
100
DictionaryVariables
280
     0
  1
1:1
  0
DICTIONARYVAR
  5
65DC
102
{ACAD_REACTORS
330
3D
102
}
330
3D
100
DictionaryVariables
280
     0
  1
STANDARD
  0
DICTIONARYVAR
  5
65DB
102
{ACAD_REACTORS
330
3D
102
}
330
3D
100
DictionaryVariables
280
     0
  1
STANDARD
  0
DICTIONARYVAR
  5
3F
102
{ACAD_REACTORS
330
3D
102
}
330
3D
100
DictionaryVariables
280
     0
  1
2
  0
DICTIONARYVAR
  5
3E
102
{ACAD_REACTORS
330
3D
102
}
330
3D
100
DictionaryVariables
280
     0
  1
1
  0
DICTIONARYVAR
  5
65DF
102
{ACAD_REACTORS
330
3D
102
}
330
3D
100
DictionaryVariables
280
     0
  1
0
  0
DICTIONARYVAR
  5
65DE
102
{ACAD_REACTORS
330
3D
102
}
330
3D
100
DictionaryVariables
280
     0
  1
127
  0
DICTIONARYVAR
  5
65E0
102
{ACAD_REACTORS
330
3D
102
}
330
3D
100
DictionaryVariables
280
     0
  1
2
  0
XRECORD
  5
2906
102
{ACAD_REACTORS
330
2905
102
}
330
2905
100
AcDbXrecord
280
     1
330
0
330
0
  0
DICTIONARY
  5
65E5
330
1E
100
AcDbDictionary
280
     1
281
     1
  3
ACAD_XREC_ROUNDTRIP
360
65E6
  0
DICTIONARY
  5
65E9
330
26
100
AcDbDictionary
280
     1
281
     1
  3
ACAD_XREC_ROUNDTRIP
360
65EA
  0
DICTIONARY
  5
65E7
330
22
100
AcDbDictionary
280
     1
281
     1
  3
ACAD_XREC_ROUNDTRIP
360
65E8
  0
DICTIONARY
  5
657A
330
6579
100
AcDbDictionary
280
     1
281
     1
  3
ACAD_XREC_ROUNDTRIP
360
65EE
  3
BUMPTILE
360
657C
  3
DIFFUSETILE
360
657B
  3
OPACITYTILE
360
657F
  3
REFLECTIONTILE
360
657E
  3
REFRACTIONTILE
360
6580
  3
SPECULARTILE
360
657D
  0
DICTIONARY
  5
6572
330
6571
100
AcDbDictionary
280
     1
281
     1
  3
ACAD_XREC_ROUNDTRIP
360
65ED
  3
BUMPTILE
360
6574
  3
DIFFUSETILE
360
6573
  3
OPACITYTILE
360
6577
  3
REFLECTIONTILE
360
6576
  3
REFRACTIONTILE
360
6578
  3
SPECULARTILE
360
6575
  0
DICTIONARY
  5
6582
330
6581
100
AcDbDictionary
280
     1
281
     1
  3
ACAD_XREC_ROUNDTRIP
360
65EF
  3
BUMPTILE
360
6584
  3
DIFFUSETILE
360
6583
  3
OPACITYTILE
360
6587
  3
REFLECTIONTILE
360
6586
  3
REFRACTIONTILE
360
6588
  3
SPECULARTILE
360
6585
  0
DICTIONARY
  5
65E1
330
659F
100
AcDbDictionary
280
     1
281
     1
  3
ACAD_ROUNDTRIP_2008_TABLESTYLE_CELLSTYLEMAP
360
65E2
  3
ACAD_XREC_ROUNDTRIP
360
6616
  0
DICTIONARY
  5
65FA
330
658F
100
AcDbDictionary
280
     1
281
     1
  3
ACAD_XREC_ROUNDTRIP
360
65FB
  0
DICTIONARY
  5
65FE
330
6591
100
AcDbDictionary
280
     1
281
     1
  3
ACAD_XREC_ROUNDTRIP
360
65FF
  0
DICTIONARY
  5
65FC
330
6590
100
AcDbDictionary
280
     1
281
     1
  3
ACAD_XREC_ROUNDTRIP
360
65FD
  0
DICTIONARY
  5
65F8
330
658E
100
AcDbDictionary
280
     1
281
     1
  3
ACAD_XREC_ROUNDTRIP
360
65F9
  0
DICTIONARY
  5
6606
330
6595
100
AcDbDictionary
280
     1
281
     1
  3
ACAD_XREC_ROUNDTRIP
360
6607
  0
DICTIONARY
  5
660E
330
6599
100
AcDbDictionary
280
     1
281
     1
  3
ACAD_XREC_ROUNDTRIP
360
660F
  0
DICTIONARY
  5
6600
330
6592
100
AcDbDictionary
280
     1
281
     1
  3
ACAD_XREC_ROUNDTRIP
360
6601
  0
DICTIONARY
  5
6604
330
6594
100
AcDbDictionary
280
     1
281
     1
  3
ACAD_XREC_ROUNDTRIP
360
6605
  0
DICTIONARY
  5
6614
330
659C
100
AcDbDictionary
280
     1
281
     1
  3
ACAD_XREC_ROUNDTRIP
360
6615
  0
DICTIONARY
  5
660C
330
6598
100
AcDbDictionary
280
     1
281
     1
  3
ACAD_XREC_ROUNDTRIP
360
660D
  0
DICTIONARY
  5
65F0
330
658A
100
AcDbDictionary
280
     1
281
     1
  3
ACAD_XREC_ROUNDTRIP
360
65F1
  0
DICTIONARY
  5
65F2
330
658B
100
AcDbDictionary
280
     1
281
     1
  3
ACAD_XREC_ROUNDTRIP
360
65F3
  0
DICTIONARY
  5
65F4
330
658C
100
AcDbDictionary
280
     1
281
     1
  3
ACAD_XREC_ROUNDTRIP
360
65F5
  0
DICTIONARY
  5
65F6
330
658D
100
AcDbDictionary
280
     1
281
     1
  3
ACAD_XREC_ROUNDTRIP
360
65F7
  0
DICTIONARY
  5
6610
330
659A
100
AcDbDictionary
280
     1
281
     1
  3
ACAD_XREC_ROUNDTRIP
360
6611
  0
DICTIONARY
  5
660A
330
6597
100
AcDbDictionary
280
     1
281
     1
  3
ACAD_XREC_ROUNDTRIP
360
660B
  0
DICTIONARY
  5
6612
330
659B
100
AcDbDictionary
280
     1
281
     1
  3
ACAD_XREC_ROUNDTRIP
360
6613
  0
DICTIONARY
  5
6602
330
6593
100
AcDbDictionary
280
     1
281
     1
  3
ACAD_XREC_ROUNDTRIP
360
6603
  0
DICTIONARY
  5
6608
330
6596
100
AcDbDictionary
280
     1
281
     1
  3
ACAD_XREC_ROUNDTRIP
360
6609
  0
XRECORD
  5
65E6
102
{ACAD_REACTORS
330
65E5
102
}
330
65E5
100
AcDbXrecord
280
     1
102
SHADEPLOT
 70
     0
102
SHADEPLOTRESLEVEL
 70
     2
102
SHADEPLOTCUSTOMDPI
 70
   300
  0
XRECORD
  5
65EA
102
{ACAD_REACTORS
330
65E9
102
}
330
65E9
100
AcDbXrecord
280
     1
102
SHADEPLOT
 70
     0
102
SHADEPLOTRESLEVEL
 70
     2
102
SHADEPLOTCUSTOMDPI
 70
   300
  0
XRECORD
  5
65E8
102
{ACAD_REACTORS
330
65E7
102
}
330
65E7
100
AcDbXrecord
280
     1
102
SHADEPLOT
 70
     0
102
SHADEPLOTRESLEVEL
 70
     2
102
SHADEPLOTCUSTOMDPI
 70
   300
  0
XRECORD
  5
65EE
102
{ACAD_REACTORS
330
657A
102
}
330
657A
100
AcDbXrecord
280
     1
102
MATERIAL
148
0.0
149
0.0
149
0.0
 93
        0
 94
      127
282
     0
 72
     0
 77
     0
171
     0
175
     0
179
     0
273
     0
  0
XRECORD
  5
657C
102
{ACAD_REACTORS
330
657A
102
}
330
657A
100
AcDbXrecord
280
     1
270
     1
271
     1
  0
XRECORD
  5
657B
102
{ACAD_REACTORS
330
657A
102
}
330
657A
100
AcDbXrecord
280
     1
270
     1
271
     1
  0
XRECORD
  5
657F
102
{ACAD_REACTORS
330
657A
102
}
330
657A
100
AcDbXrecord
280
     1
270
     1
271
     1
  0
XRECORD
  5
657E
102
{ACAD_REACTORS
330
657A
102
}
330
657A
100
AcDbXrecord
280
     1
270
     1
271
     1
  0
XRECORD
  5
6580
102
{ACAD_REACTORS
330
657A
102
}
330
657A
100
AcDbXrecord
280
     1
270
     1
271
     1
  0
XRECORD
  5
657D
102
{ACAD_REACTORS
330
657A
102
}
330
657A
100
AcDbXrecord
280
     1
270
     1
271
     1
  0
XRECORD
  5
65ED
102
{ACAD_REACTORS
330
6572
102
}
330
6572
100
AcDbXrecord
280
     1
102
MATERIAL
148
0.0
149
0.0
149
0.0
 93
        0
 94
      127
282
     0
 72
     0
 77
     0
171
     0
175
     0
179
     0
273
     0
  0
XRECORD
  5
6574
102
{ACAD_REACTORS
330
6572
102
}
330
6572
100
AcDbXrecord
280
     1
270
     1
271
     1
  0
XRECORD
  5
6573
102
{ACAD_REACTORS
330
6572
102
}
330
6572
100
AcDbXrecord
280
     1
270
     1
271
     1
  0
XRECORD
  5
6577
102
{ACAD_REACTORS
330
6572
102
}
330
6572
100
AcDbXrecord
280
     1
270
     1
271
     1
  0
XRECORD
  5
6576
102
{ACAD_REACTORS
330
6572
102
}
330
6572
100
AcDbXrecord
280
     1
270
     1
271
     1
  0
XRECORD
  5
6578
102
{ACAD_REACTORS
330
6572
102
}
330
6572
100
AcDbXrecord
280
     1
270
     1
271
     1
  0
XRECORD
  5
6575
102
{ACAD_REACTORS
330
6572
102
}
330
6572
100
AcDbXrecord
280
     1
270
     1
271
     1
  0
XRECORD
  5
65EF
102
{ACAD_REACTORS
330
6582
102
}
330
6582
100
AcDbXrecord
280
     1
102
MATERIAL
148
0.0
149
0.0
149
0.0
 93
        0
 94
      127
282
     0
 72
     0
 77
     0
171
     0
175
     0
179
     0
273
     0
  0
XRECORD
  5
6584
102
{ACAD_REACTORS
330
6582
102
}
330
6582
100
AcDbXrecord
280
     1
270
     1
271
     1
  0
XRECORD
  5
6583
102
{ACAD_REACTORS
330
6582
102
}
330
6582
100
AcDbXrecord
280
     1
270
     1
271
     1
  0
XRECORD
  5
6587
102
{ACAD_REACTORS
330
6582
102
}
330
6582
100
AcDbXrecord
280
     1
270
     1
271
     1
  0
XRECORD
  5
6586
102
{ACAD_REACTORS
330
6582
102
}
330
6582
100
AcDbXrecord
280
     1
270
     1
271
     1
  0
XRECORD
  5
6588
102
{ACAD_REACTORS
330
6582
102
}
330
6582
100
AcDbXrecord
280
     1
270
     1
271
     1
  0
XRECORD
  5
6585
102
{ACAD_REACTORS
330
6582
102
}
330
6582
100
AcDbXrecord
280
     1
270
     1
271
     1
  0
CELLSTYLEMAP
  5
65E2
102
{ACAD_REACTORS
330
65E1
102
}
330
65E1
100
AcDbCellStyleMap
 90
        3
300
CELLSTYLE
  1
TABLEFORMAT_BEGIN
 90
        5
170
     1
 91
        0
 92
    32768
 62
   257
 93
        1
300
CONTENTFORMAT
  1
CONTENTFORMAT_BEGIN
 90
        0
 91
        0
 92
      512
 93
        0
300

 40
0.0
140
1.0
 94
        5
 62
     0
340
11
144
6.0
309
CONTENTFORMAT_END
171
     1
301
MARGIN
  1
CELLMARGIN_BEGIN
 40
1.5
 40
1.5
 40
1.5
 40
1.5
 40
4.5
 40
4.5
309
CELLMARGIN_END
 94
        6
 95
        1
302
GRIDFORMAT
  1
GRIDFORMAT_BEGIN
 90
        0
 91
        1
 62
     0
 92
       -2
340
0
 93
        0
 40
1.125
309
GRIDFORMAT_END
 95
        2
302
GRIDFORMAT
  1
GRIDFORMAT_BEGIN
 90
        0
 91
        1
 62
     0
 92
       -2
340
0
 93
        0
 40
1.125
309
GRIDFORMAT_END
 95
        4
302
GRIDFORMAT
  1
GRIDFORMAT_BEGIN
 90
        0
 91
        1
 62
     0
 92
       -2
340
0
 93
        0
 40
1.125
309
GRIDFORMAT_END
 95
        8
302
GRIDFORMAT
  1
GRIDFORMAT_BEGIN
 90
        0
 91
        1
 62
     0
 92
       -2
340
0
 93
        0
 40
1.125
309
GRIDFORMAT_END
 95
       16
302
GRIDFORMAT
  1
GRIDFORMAT_BEGIN
 90
        0
 91
        1
 62
     0
 92
       -2
340
0
 93
        0
 40
1.125
309
GRIDFORMAT_END
 95
       32
302
GRIDFORMAT
  1
GRIDFORMAT_BEGIN
 90
        0
 91
        1
 62
     0
 92
       -2
340
0
 93
        0
 40
1.125
309
GRIDFORMAT_END
309
TABLEFORMAT_END
  1
CELLSTYLE_BEGIN
 90
        1
 91
        1
300
_TITLE
309
CELLSTYLE_END
300
CELLSTYLE
  1
TABLEFORMAT_BEGIN
 90
        5
170
     1
 91
        0
 92
        0
 62
   257
 93
        1
300
CONTENTFORMAT
  1
CONTENTFORMAT_BEGIN
 90
        0
 91
        0
 92
      512
 93
        0
300

 40
0.0
140
1.0
 94
        5
 62
     0
340
11
144
4.5
309
CONTENTFORMAT_END
171
     1
301
MARGIN
  1
CELLMARGIN_BEGIN
 40
1.5
 40
1.5
 40
1.5
 40
1.5
 40
4.5
 40
4.5
309
CELLMARGIN_END
 94
        6
 95
        1
302
GRIDFORMAT
  1
GRIDFORMAT_BEGIN
 90
        0
 91
        1
 62
     0
 92
       -2
340
0
 93
        0
 40
1.125
309
GRIDFORMAT_END
 95
        2
302
GRIDFORMAT
  1
GRIDFORMAT_BEGIN
 90
        0
 91
        1
 62
     0
 92
       -2
340
0
 93
        0
 40
1.125
309
GRIDFORMAT_END
 95
        4
302
GRIDFORMAT
  1
GRIDFORMAT_BEGIN
 90
        0
 91
        1
 62
     0
 92
       -2
340
0
 93
        0
 40
1.125
309
GRIDFORMAT_END
 95
        8
302
GRIDFORMAT
  1
GRIDFORMAT_BEGIN
 90
        0
 91
        1
 62
     0
 92
       -2
340
0
 93
        0
 40
1.125
309
GRIDFORMAT_END
 95
       16
302
GRIDFORMAT
  1
GRIDFORMAT_BEGIN
 90
        0
 91
        1
 62
     0
 92
       -2
340
0
 93
        0
 40
1.125
309
GRIDFORMAT_END
 95
       32
302
GRIDFORMAT
  1
GRIDFORMAT_BEGIN
 90
        0
 91
        1
 62
     0
 92
       -2
340
0
 93
        0
 40
1.125
309
GRIDFORMAT_END
309
TABLEFORMAT_END
  1
CELLSTYLE_BEGIN
 90
        2
 91
        1
300
_HEADER
309
CELLSTYLE_END
300
CELLSTYLE
  1
TABLEFORMAT_BEGIN
 90
        5
170
     1
 91
        0
 92
        0
 62
   257
 93
        1
300
CONTENTFORMAT
  1
CONTENTFORMAT_BEGIN
 90
        0
 91
        0
 92
      512
 93
        0
300

 40
0.0
140
1.0
 94
        2
 62
     0
340
11
144
4.5
309
CONTENTFORMAT_END
171
     1
301
MARGIN
  1
CELLMARGIN_BEGIN
 40
1.5
 40
1.5
 40
1.5
 40
1.5
 40
4.5
 40
4.5
309
CELLMARGIN_END
 94
        6
 95
        1
302
GRIDFORMAT
  1
GRIDFORMAT_BEGIN
 90
        0
 91
        1
 62
     0
 92
       -2
340
0
 93
        0
 40
1.125
309
GRIDFORMAT_END
 95
        2
302
GRIDFORMAT
  1
GRIDFORMAT_BEGIN
 90
        0
 91
        1
 62
     0
 92
       -2
340
0
 93
        0
 40
1.125
309
GRIDFORMAT_END
 95
        4
302
GRIDFORMAT
  1
GRIDFORMAT_BEGIN
 90
        0
 91
        1
 62
     0
 92
       -2
340
0
 93
        0
 40
1.125
309
GRIDFORMAT_END
 95
        8
302
GRIDFORMAT
  1
GRIDFORMAT_BEGIN
 90
        0
 91
        1
 62
     0
 92
       -2
340
0
 93
        0
 40
1.125
309
GRIDFORMAT_END
 95
       16
302
GRIDFORMAT
  1
GRIDFORMAT_BEGIN
 90
        0
 91
        1
 62
     0
 92
       -2
340
0
 93
        0
 40
1.125
309
GRIDFORMAT_END
 95
       32
302
GRIDFORMAT
  1
GRIDFORMAT_BEGIN
 90
        0
 91
        1
 62
     0
 92
       -2
340
0
 93
        0
 40
1.125
309
GRIDFORMAT_END
309
TABLEFORMAT_END
  1
CELLSTYLE_BEGIN
 90
        3
 91
        2
300
_DATA
309
CELLSTYLE_END
  0
XRECORD
  5
6616
102
{ACAD_REACTORS
330
65E1
102
}
330
65E1
100
AcDbXrecord
280
     1
102
ACAD_ROUNDTRIP_PRE2007_TABLESTYLE
 90
      512
 91
        0
  1

 92
      512
 93
        0
  2

 94
      512
 95
        0
  3

  0
XRECORD
  5
65FB
102
{ACAD_REACTORS
330
65FA
102
}
330
65FA
100
AcDbXrecord
280
     1
102
RTVSPropertyOp0
 70
     1
102
RTVSPropertyOp1
 70
     1
102
RTVSPropertyOp2
 70
     1
102
RTVSPropertyOp3
 70
     1
102
RTVSPropertyOp4
 70
     1
102
RTVSPropertyOp5
 70
     1
102
RTVSPropertyOp6
 70
     1
102
RTVSPropertyOp7
 70
     1
102
RTVSPropertyOp8
 70
     1
102
RTVSPropertyOp9
 70
     1
102
RTVSPropertyOp10
 70
     1
102
RTVSPropertyOp11
 70
     1
102
RTVSPropertyOp12
 70
     1
102
RTVSPropertyOp13
 70
     1
102
RTVSPropertyOp14
 70
     1
102
RTVSPropertyOp15
 70
     1
102
RTVSPropertyOp16
 70
     1
102
RTVSPropertyOp17
 70
     1
102
RTVSPropertyOp18
 70
     1
102
RTVSPropertyOp19
 70
     1
102
RTVSPropertyOp20
 70
     1
102
RTVSPropertyOp21
 70
     1
102
RTVSPropertyOp22
 70
     1
102
RTVSPropertyOp23
 70
     1
102
RTVSPropertyOp24
 70
     1
102
RTVSPropertyOp25
 70
     1
102
RTVSPropertyOp26
 70
     1
102
RTVSPropertyOp27
 70
     1
  0
XRECORD
  5
65FF
102
{ACAD_REACTORS
330
65FE
102
}
330
65FE
100
AcDbXrecord
280
     1
102
RTVSPropertyOp0
 70
     1
102
RTVSPropertyOp1
 70
     1
102
RTVSPropertyOp2
 70
     1
102
RTVSPropertyOp3
 70
     1
102
RTVSPropertyOp4
 70
     1
102
RTVSPropertyOp5
 70
     1
102
RTVSPropertyOp6
 70
     1
102
RTVSPropertyOp7
 70
     1
102
RTVSPropertyOp8
 70
     1
102
RTVSPropertyOp9
 70
     1
102
RTVSPropertyOp10
 70
     1
102
RTVSPropertyOp11
 70
     1
102
RTVSPropertyOp12
 70
     1
102
RTVSPropertyOp13
 70
     1
102
RTVSPropertyOp14
 70
     1
102
RTVSPropertyOp15
 70
     1
102
RTVSPropertyOp16
 70
     1
102
RTVSPropertyOp17
 70
     1
102
RTVSPropertyOp18
 70
     1
102
RTVSPropertyOp19
 70
     1
102
RTVSPropertyOp20
 70
     1
102
RTVSPropertyOp21
 70
     1
102
RTVSPropertyOp22
 70
     1
102
RTVSPropertyOp23
 70
     1
102
RTVSPropertyOp24
 70
     1
102
RTVSPropertyOp25
 70
     1
102
RTVSPropertyOp26
 70
     1
102
RTVSPropertyOp27
 70
     1
  0
XRECORD
  5
65FD
102
{ACAD_REACTORS
330
65FC
102
}
330
65FC
100
AcDbXrecord
280
     1
102
RTVSPropertyOp0
 70
     1
102
RTVSPropertyOp1
 70
     1
102
RTVSPropertyOp2
 70
     1
102
RTVSPropertyOp3
 70
     1
102
RTVSPropertyOp4
 70
     1
102
RTVSPropertyOp5
 70
     1
102
RTVSPropertyOp6
 70
     1
102
RTVSPropertyOp7
 70
     1
102
RTVSPropertyOp8
 70
     1
102
RTVSPropertyOp9
 70
     1
102
RTVSPropertyOp10
 70
     1
102
RTVSPropertyOp11
 70
     1
102
RTVSPropertyOp12
 70
     1
102
RTVSPropertyOp13
 70
     1
102
RTVSPropertyOp14
 70
     1
102
RTVSPropertyOp15
 70
     1
102
RTVSPropertyOp16
 70
     1
102
RTVSPropertyOp17
 70
     1
102
RTVSPropertyOp18
 70
     1
102
RTVSPropertyOp19
 70
     1
102
RTVSPropertyOp20
 70
     1
102
RTVSPropertyOp21
 70
     1
102
RTVSPropertyOp22
 70
     1
102
RTVSPropertyOp23
 70
     1
102
RTVSPropertyOp24
 70
     1
102
RTVSPropertyOp25
 70
     1
102
RTVSPropertyOp26
 70
     1
102
RTVSPropertyOp27
 70
     1
  0
XRECORD
  5
65F9
102
{ACAD_REACTORS
330
65F8
102
}
330
65F8
100
AcDbXrecord
280
     1
102
RTVSPropertyOp0
 70
     1
102
RTVSPropertyOp1
 70
     1
102
RTVSPropertyOp2
 70
     1
102
RTVSPropertyOp3
 70
     1
102
RTVSPropertyOp4
 70
     1
102
RTVSPropertyOp5
 70
     1
102
RTVSPropertyOp6
 70
     1
102
RTVSPropertyOp7
 70
     1
102
RTVSPropertyOp8
 70
     1
102
RTVSPropertyOp9
 70
     1
102
RTVSPropertyOp10
 70
     1
102
RTVSPropertyOp11
 70
     1
102
RTVSPropertyOp12
 70
     1
102
RTVSPropertyOp13
 70
     1
102
RTVSPropertyOp14
 70
     1
102
RTVSPropertyOp15
 70
     1
102
RTVSPropertyOp16
 70
     1
102
RTVSPropertyOp17
 70
     1
102
RTVSPropertyOp18
 70
     1
102
RTVSPropertyOp19
 70
     1
102
RTVSPropertyOp20
 70
     1
102
RTVSPropertyOp21
 70
     1
102
RTVSPropertyOp22
 70
     1
102
RTVSPropertyOp23
 70
     1
102
RTVSPropertyOp24
 70
     1
102
RTVSPropertyOp25
 70
     1
102
RTVSPropertyOp26
 70
     1
102
RTVSPropertyOp27
 70
     1
  0
XRECORD
  5
6607
102
{ACAD_REACTORS
330
6606
102
}
330
6606
100
AcDbXrecord
280
     1
102
RTVSPropertyOp0
 70
     1
102
RTVSPropertyOp1
 70
     1
102
RTVSPropertyOp2
 70
     1
102
RTVSPropertyOp3
 70
     1
102
RTVSPropertyOp4
 70
     1
102
RTVSPropertyOp5
 70
     1
102
RTVSPropertyOp6
 70
     1
102
RTVSPropertyOp7
 70
     1
102
RTVSPropertyOp8
 70
     1
102
RTVSPropertyOp9
 70
     1
102
RTVSPropertyOp10
 70
     1
102
RTVSPropertyOp11
 70
     1
102
RTVSPropertyOp12
 70
     1
102
RTVSPropertyOp13
 70
     1
102
RTVSPropertyOp14
 70
     1
102
RTVSPropertyOp15
 70
     1
102
RTVSPropertyOp16
 70
     1
102
RTVSPropertyOp17
 70
     1
102
RTVSPropertyOp18
 70
     1
102
RTVSPropertyOp19
 70
     1
102
RTVSPropertyOp20
 70
     1
102
RTVSPropertyOp21
 70
     1
102
RTVSPropertyOp22
 70
     1
102
RTVSPropertyOp23
 70
     1
102
RTVSPropertyOp24
 70
     1
102
RTVSPropertyOp25
 70
     1
102
RTVSPropertyOp26
 70
     1
102
RTVSPropertyOp27
 70
     1
  0
XRECORD
  5
660F
102
{ACAD_REACTORS
330
660E
102
}
330
660E
100
AcDbXrecord
280
     1
102
RTVSPropertyOp0
 70
     1
102
RTVSPropertyOp1
 70
     1
102
RTVSPropertyOp2
 70
     1
102
RTVSPropertyOp3
 70
     1
102
RTVSPropertyOp4
 70
     1
102
RTVSPropertyOp5
 70
     1
102
RTVSPropertyOp6
 70
     1
102
RTVSPropertyOp7
 70
     1
102
RTVSPropertyOp8
 70
     1
102
RTVSPropertyOp9
 70
     1
102
RTVSPropertyOp10
 70
     1
102
RTVSPropertyOp11
 70
     1
102
RTVSPropertyOp12
 70
     1
102
RTVSPropertyOp13
 70
     1
102
RTVSPropertyOp14
 70
     1
102
RTVSPropertyOp15
 70
     1
102
RTVSPropertyOp16
 70
     1
102
RTVSPropertyOp17
 70
     1
102
RTVSPropertyOp18
 70
     1
102
RTVSPropertyOp19
 70
     1
102
RTVSPropertyOp20
 70
     1
102
RTVSPropertyOp21
 70
     1
102
RTVSPropertyOp22
 70
     1
102
RTVSPropertyOp23
 70
     1
102
RTVSPropertyOp24
 70
     1
102
RTVSPropertyOp25
 70
     1
102
RTVSPropertyOp26
 70
     1
102
RTVSPropertyOp27
 70
     1
  0
XRECORD
  5
6601
102
{ACAD_REACTORS
330
6600
102
}
330
6600
100
AcDbXrecord
280
     1
102
RTVSPropertyOp0
 70
     1
102
RTVSPropertyOp1
 70
     1
102
RTVSPropertyOp2
 70
     1
102
RTVSPropertyOp3
 70
     1
102
RTVSPropertyOp4
 70
     1
102
RTVSPropertyOp5
 70
     1
102
RTVSPropertyOp6
 70
     1
102
RTVSPropertyOp7
 70
     1
102
RTVSPropertyOp8
 70
     1
102
RTVSPropertyOp9
 70
     1
102
RTVSPropertyOp10
 70
     1
102
RTVSPropertyOp11
 70
     1
102
RTVSPropertyOp12
 70
     1
102
RTVSPropertyOp13
 70
     1
102
RTVSPropertyOp14
 70
     1
102
RTVSPropertyOp15
 70
     1
102
RTVSPropertyOp16
 70
     1
102
RTVSPropertyOp17
 70
     1
102
RTVSPropertyOp18
 70
     1
102
RTVSPropertyOp19
 70
     1
102
RTVSPropertyOp20
 70
     1
102
RTVSPropertyOp21
 70
     1
102
RTVSPropertyOp22
 70
     1
102
RTVSPropertyOp23
 70
     1
102
RTVSPropertyOp24
 70
     1
102
RTVSPropertyOp25
 70
     1
102
RTVSPropertyOp26
 70
     1
102
RTVSPropertyOp27
 70
     1
  0
XRECORD
  5
6605
102
{ACAD_REACTORS
330
6604
102
}
330
6604
100
AcDbXrecord
280
     1
102
RTVSPropertyOp0
 70
     1
102
RTVSPropertyOp1
 70
     1
102
RTVSPropertyOp2
 70
     1
102
RTVSPropertyOp3
 70
     1
102
RTVSPropertyOp4
 70
     1
102
RTVSPropertyOp5
 70
     1
102
RTVSPropertyOp6
 70
     1
102
RTVSPropertyOp7
 70
     1
102
RTVSPropertyOp8
 70
     1
102
RTVSPropertyOp9
 70
     1
102
RTVSPropertyOp10
 70
     1
102
RTVSPropertyOp11
 70
     1
102
RTVSPropertyOp12
 70
     1
102
RTVSPropertyOp13
 70
     1
102
RTVSPropertyOp14
 70
     1
102
RTVSPropertyOp15
 70
     1
102
RTVSPropertyOp16
 70
     1
102
RTVSPropertyOp17
 70
     1
102
RTVSPropertyOp18
 70
     1
102
RTVSPropertyOp19
 70
     1
102
RTVSPropertyOp20
 70
     1
102
RTVSPropertyOp21
 70
     1
102
RTVSPropertyOp22
 70
     1
102
RTVSPropertyOp23
 70
     1
102
RTVSPropertyOp24
 70
     1
102
RTVSPropertyOp25
 70
     1
102
RTVSPropertyOp26
 70
     1
102
RTVSPropertyOp27
 70
     1
  0
XRECORD
  5
6615
102
{ACAD_REACTORS
330
6614
102
}
330
6614
100
AcDbXrecord
280
     1
102
RTVSPropertyOp0
 70
     0
102
RTVSPropertyOp1
 70
     0
102
RTVSPropertyOp2
 70
     0
102
RTVSPropertyOp3
 70
     0
102
RTVSPropertyOp4
 70
     0
102
RTVSPropertyOp5
 70
     0
102
RTVSPropertyOp6
 70
     0
102
RTVSPropertyOp7
 70
     0
102
RTVSPropertyOp8
 70
     0
102
RTVSPropertyOp9
 70
     0
102
RTVSPropertyOp10
 70
     0
102
RTVSPropertyOp11
 70
     0
102
RTVSPropertyOp12
 70
     0
102
RTVSPropertyOp13
 70
     0
102
RTVSPropertyOp14
 70
     2
102
RTVSPropertyOp15
 70
     0
102
RTVSPropertyOp16
 70
     0
102
RTVSPropertyOp17
 70
     0
102
RTVSPropertyOp18
 70
     0
102
RTVSPropertyOp19
 70
     0
102
RTVSPropertyOp20
 70
     0
102
RTVSPropertyOp21
 70
     0
102
RTVSPropertyOp22
 70
     0
102
RTVSPropertyOp23
 70
     0
102
RTVSPropertyOp24
 70
     0
102
RTVSPropertyOp25
 70
     0
102
RTVSPropertyOp26
 70
     0
102
RTVSPropertyOp27
 70
     0
  0
XRECORD
  5
660D
102
{ACAD_REACTORS
330
660C
102
}
330
660C
100
AcDbXrecord
280
     1
102
RTVSPropertyOp0
 70
     1
102
RTVSPropertyOp1
 70
     1
102
RTVSPropertyOp2
 70
     1
102
RTVSPropertyOp3
 70
     1
102
RTVSPropertyOp4
 70
     1
102
RTVSPropertyOp5
 70
     1
102
RTVSPropertyOp6
 70
     1
102
RTVSPropertyOp7
 70
     1
102
RTVSPropertyOp8
 70
     1
102
RTVSPropertyOp9
 70
     1
102
RTVSPropertyOp10
 70
     1
102
RTVSPropertyOp11
 70
     1
102
RTVSPropertyOp12
 70
     1
102
RTVSPropertyOp13
 70
     1
102
RTVSPropertyOp14
 70
     1
102
RTVSPropertyOp15
 70
     1
102
RTVSPropertyOp16
 70
     1
102
RTVSPropertyOp17
 70
     1
102
RTVSPropertyOp18
 70
     1
102
RTVSPropertyOp19
 70
     1
102
RTVSPropertyOp20
 70
     1
102
RTVSPropertyOp21
 70
     1
102
RTVSPropertyOp22
 70
     1
102
RTVSPropertyOp23
 70
     1
102
RTVSPropertyOp24
 70
     1
102
RTVSPropertyOp25
 70
     1
102
RTVSPropertyOp26
 70
     1
102
RTVSPropertyOp27
 70
     1
  0
XRECORD
  5
65F1
102
{ACAD_REACTORS
330
65F0
102
}
330
65F0
100
AcDbXrecord
280
     1
102
RTVSPropertyOp0
 70
     1
102
RTVSPropertyOp1
 70
     1
102
RTVSPropertyOp2
 70
     1
102
RTVSPropertyOp3
 70
     1
102
RTVSPropertyOp4
 70
     1
102
RTVSPropertyOp5
 70
     1
102
RTVSPropertyOp6
 70
     1
102
RTVSPropertyOp7
 70
     1
102
RTVSPropertyOp8
 70
     1
102
RTVSPropertyOp9
 70
     1
102
RTVSPropertyOp10
 70
     1
102
RTVSPropertyOp11
 70
     1
102
RTVSPropertyOp12
 70
     1
102
RTVSPropertyOp13
 70
     1
102
RTVSPropertyOp14
 70
     1
102
RTVSPropertyOp15
 70
     1
102
RTVSPropertyOp16
 70
     1
102
RTVSPropertyOp17
 70
     1
102
RTVSPropertyOp18
 70
     1
102
RTVSPropertyOp19
 70
     1
102
RTVSPropertyOp20
 70
     1
102
RTVSPropertyOp21
 70
     1
102
RTVSPropertyOp22
 70
     1
102
RTVSPropertyOp23
 70
     1
102
RTVSPropertyOp24
 70
     1
102
RTVSPropertyOp25
 70
     1
102
RTVSPropertyOp26
 70
     1
102
RTVSPropertyOp27
 70
     1
  0
XRECORD
  5
65F3
102
{ACAD_REACTORS
330
65F2
102
}
330
65F2
100
AcDbXrecord
280
     1
102
RTVSPropertyOp0
 70
     1
102
RTVSPropertyOp1
 70
     1
102
RTVSPropertyOp2
 70
     1
102
RTVSPropertyOp3
 70
     1
102
RTVSPropertyOp4
 70
     1
102
RTVSPropertyOp5
 70
     1
102
RTVSPropertyOp6
 70
     1
102
RTVSPropertyOp7
 70
     1
102
RTVSPropertyOp8
 70
     1
102
RTVSPropertyOp9
 70
     1
102
RTVSPropertyOp10
 70
     1
102
RTVSPropertyOp11
 70
     1
102
RTVSPropertyOp12
 70
     1
102
RTVSPropertyOp13
 70
     1
102
RTVSPropertyOp14
 70
     1
102
RTVSPropertyOp15
 70
     1
102
RTVSPropertyOp16
 70
     1
102
RTVSPropertyOp17
 70
     1
102
RTVSPropertyOp18
 70
     1
102
RTVSPropertyOp19
 70
     1
102
RTVSPropertyOp20
 70
     1
102
RTVSPropertyOp21
 70
     1
102
RTVSPropertyOp22
 70
     1
102
RTVSPropertyOp23
 70
     1
102
RTVSPropertyOp24
 70
     1
102
RTVSPropertyOp25
 70
     1
102
RTVSPropertyOp26
 70
     1
102
RTVSPropertyOp27
 70
     1
  0
XRECORD
  5
65F5
102
{ACAD_REACTORS
330
65F4
102
}
330
65F4
100
AcDbXrecord
280
     1
102
RTVSPropertyOp0
 70
     1
102
RTVSPropertyOp1
 70
     1
102
RTVSPropertyOp2
 70
     1
102
RTVSPropertyOp3
 70
     1
102
RTVSPropertyOp4
 70
     1
102
RTVSPropertyOp5
 70
     1
102
RTVSPropertyOp6
 70
     1
102
RTVSPropertyOp7
 70
     1
102
RTVSPropertyOp8
 70
     1
102
RTVSPropertyOp9
 70
     1
102
RTVSPropertyOp10
 70
     1
102
RTVSPropertyOp11
 70
     1
102
RTVSPropertyOp12
 70
     1
102
RTVSPropertyOp13
 70
     1
102
RTVSPropertyOp14
 70
     1
102
RTVSPropertyOp15
 70
     1
102
RTVSPropertyOp16
 70
     1
102
RTVSPropertyOp17
 70
     1
102
RTVSPropertyOp18
 70
     1
102
RTVSPropertyOp19
 70
     1
102
RTVSPropertyOp20
 70
     1
102
RTVSPropertyOp21
 70
     1
102
RTVSPropertyOp22
 70
     1
102
RTVSPropertyOp23
 70
     1
102
RTVSPropertyOp24
 70
     1
102
RTVSPropertyOp25
 70
     1
102
RTVSPropertyOp26
 70
     1
102
RTVSPropertyOp27
 70
     1
  0
XRECORD
  5
65F7
102
{ACAD_REACTORS
330
65F6
102
}
330
65F6
100
AcDbXrecord
280
     1
102
RTVSPropertyOp0
 70
     1
102
RTVSPropertyOp1
 70
     1
102
RTVSPropertyOp2
 70
     1
102
RTVSPropertyOp3
 70
     1
102
RTVSPropertyOp4
 70
     1
102
RTVSPropertyOp5
 70
     1
102
RTVSPropertyOp6
 70
     1
102
RTVSPropertyOp7
 70
     1
102
RTVSPropertyOp8
 70
     1
102
RTVSPropertyOp9
 70
     1
102
RTVSPropertyOp10
 70
     1
102
RTVSPropertyOp11
 70
     1
102
RTVSPropertyOp12
 70
     1
102
RTVSPropertyOp13
 70
     1
102
RTVSPropertyOp14
 70
     1
102
RTVSPropertyOp15
 70
     1
102
RTVSPropertyOp16
 70
     1
102
RTVSPropertyOp17
 70
     1
102
RTVSPropertyOp18
 70
     1
102
RTVSPropertyOp19
 70
     1
102
RTVSPropertyOp20
 70
     1
102
RTVSPropertyOp21
 70
     1
102
RTVSPropertyOp22
 70
     1
102
RTVSPropertyOp23
 70
     1
102
RTVSPropertyOp24
 70
     1
102
RTVSPropertyOp25
 70
     1
102
RTVSPropertyOp26
 70
     1
102
RTVSPropertyOp27
 70
     1
  0
XRECORD
  5
6611
102
{ACAD_REACTORS
330
6610
102
}
330
6610
100
AcDbXrecord
280
     1
102
RTVSPropertyOp0
 70
     0
102
RTVSPropertyOp1
 70
     0
102
RTVSPropertyOp2
 70
     0
102
RTVSPropertyOp3
 70
     0
102
RTVSPropertyOp4
 70
     0
102
RTVSPropertyOp5
 70
     0
102
RTVSPropertyOp6
 70
     0
102
RTVSPropertyOp7
 70
     0
102
RTVSPropertyOp8
 70
     0
102
RTVSPropertyOp9
 70
     0
102
RTVSPropertyOp10
 70
     0
102
RTVSPropertyOp11
 70
     0
102
RTVSPropertyOp12
 70
     0
102
RTVSPropertyOp13
 70
     0
102
RTVSPropertyOp14
 70
     2
102
RTVSPropertyOp15
 70
     0
102
RTVSPropertyOp16
 70
     0
102
RTVSPropertyOp17
 70
     0
102
RTVSPropertyOp18
 70
     0
102
RTVSPropertyOp19
 70
     0
102
RTVSPropertyOp20
 70
     0
102
RTVSPropertyOp21
 70
     0
102
RTVSPropertyOp22
 70
     0
102
RTVSPropertyOp23
 70
     0
102
RTVSPropertyOp24
 70
     0
102
RTVSPropertyOp25
 70
     0
102
RTVSPropertyOp26
 70
     0
102
RTVSPropertyOp27
 70
     0
  0
XRECORD
  5
660B
102
{ACAD_REACTORS
330
660A
102
}
330
660A
100
AcDbXrecord
280
     1
102
RTVSPropertyOp0
 70
     1
102
RTVSPropertyOp1
 70
     1
102
RTVSPropertyOp2
 70
     1
102
RTVSPropertyOp3
 70
     1
102
RTVSPropertyOp4
 70
     1
102
RTVSPropertyOp5
 70
     1
102
RTVSPropertyOp6
 70
     1
102
RTVSPropertyOp7
 70
     1
102
RTVSPropertyOp8
 70
     1
102
RTVSPropertyOp9
 70
     1
102
RTVSPropertyOp10
 70
     1
102
RTVSPropertyOp11
 70
     1
102
RTVSPropertyOp12
 70
     1
102
RTVSPropertyOp13
 70
     1
102
RTVSPropertyOp14
 70
     1
102
RTVSPropertyOp15
 70
     1
102
RTVSPropertyOp16
 70
     1
102
RTVSPropertyOp17
 70
     1
102
RTVSPropertyOp18
 70
     1
102
RTVSPropertyOp19
 70
     1
102
RTVSPropertyOp20
 70
     1
102
RTVSPropertyOp21
 70
     1
102
RTVSPropertyOp22
 70
     1
102
RTVSPropertyOp23
 70
     1
102
RTVSPropertyOp24
 70
     1
102
RTVSPropertyOp25
 70
     1
102
RTVSPropertyOp26
 70
     1
102
RTVSPropertyOp27
 70
     1
  0
XRECORD
  5
6613
102
{ACAD_REACTORS
330
6612
102
}
330
6612
100
AcDbXrecord
280
     1
102
RTVSPropertyOp0
 70
     0
102
RTVSPropertyOp1
 70
     0
102
RTVSPropertyOp2
 70
     0
102
RTVSPropertyOp3
 70
     0
102
RTVSPropertyOp4
 70
     0
102
RTVSPropertyOp5
 70
     0
102
RTVSPropertyOp6
 70
     0
102
RTVSPropertyOp7
 70
     0
102
RTVSPropertyOp8
 70
     0
102
RTVSPropertyOp9
 70
     0
102
RTVSPropertyOp10
 70
     0
102
RTVSPropertyOp11
 70
     0
102
RTVSPropertyOp12
 70
     0
102
RTVSPropertyOp13
 70
     0
102
RTVSPropertyOp14
 70
     2
102
RTVSPropertyOp15
 70
     0
102
RTVSPropertyOp16
 70
     0
102
RTVSPropertyOp17
 70
     0
102
RTVSPropertyOp18
 70
     0
102
RTVSPropertyOp19
 70
     0
102
RTVSPropertyOp20
 70
     0
102
RTVSPropertyOp21
 70
     0
102
RTVSPropertyOp22
 70
     0
102
RTVSPropertyOp23
 70
     0
102
RTVSPropertyOp24
 70
     0
102
RTVSPropertyOp25
 70
     0
102
RTVSPropertyOp26
 70
     0
102
RTVSPropertyOp27
 70
     0
  0
XRECORD
  5
6603
102
{ACAD_REACTORS
330
6602
102
}
330
6602
100
AcDbXrecord
280
     1
102
RTVSPropertyOp0
 70
     1
102
RTVSPropertyOp1
 70
     1
102
RTVSPropertyOp2
 70
     1
102
RTVSPropertyOp3
 70
     1
102
RTVSPropertyOp4
 70
     1
102
RTVSPropertyOp5
 70
     1
102
RTVSPropertyOp6
 70
     1
102
RTVSPropertyOp7
 70
     1
102
RTVSPropertyOp8
 70
     1
102
RTVSPropertyOp9
 70
     1
102
RTVSPropertyOp10
 70
     1
102
RTVSPropertyOp11
 70
     1
102
RTVSPropertyOp12
 70
     1
102
RTVSPropertyOp13
 70
     1
102
RTVSPropertyOp14
 70
     1
102
RTVSPropertyOp15
 70
     1
102
RTVSPropertyOp16
 70
     1
102
RTVSPropertyOp17
 70
     1
102
RTVSPropertyOp18
 70
     1
102
RTVSPropertyOp19
 70
     1
102
RTVSPropertyOp20
 70
     1
102
RTVSPropertyOp21
 70
     1
102
RTVSPropertyOp22
 70
     1
102
RTVSPropertyOp23
 70
     1
102
RTVSPropertyOp24
 70
     1
102
RTVSPropertyOp25
 70
     1
102
RTVSPropertyOp26
 70
     1
102
RTVSPropertyOp27
 70
     1
  0
XRECORD
  5
6609
102
{ACAD_REACTORS
330
6608
102
}
330
6608
100
AcDbXrecord
280
     1
102
RTVSPropertyOp0
 70
     1
102
RTVSPropertyOp1
 70
     1
102
RTVSPropertyOp2
 70
     1
102
RTVSPropertyOp3
 70
     1
102
RTVSPropertyOp4
 70
     1
102
RTVSPropertyOp5
 70
     1
102
RTVSPropertyOp6
 70
     1
102
RTVSPropertyOp7
 70
     1
102
RTVSPropertyOp8
 70
     1
102
RTVSPropertyOp9
 70
     1
102
RTVSPropertyOp10
 70
     1
102
RTVSPropertyOp11
 70
     1
102
RTVSPropertyOp12
 70
     1
102
RTVSPropertyOp13
 70
     1
102
RTVSPropertyOp14
 70
     1
102
RTVSPropertyOp15
 70
     1
102
RTVSPropertyOp16
 70
     1
102
RTVSPropertyOp17
 70
     1
102
RTVSPropertyOp18
 70
     1
102
RTVSPropertyOp19
 70
     1
102
RTVSPropertyOp20
 70
     1
102
RTVSPropertyOp21
 70
     1
102
RTVSPropertyOp22
 70
     1
102
RTVSPropertyOp23
 70
     1
102
RTVSPropertyOp24
 70
     1
102
RTVSPropertyOp25
 70
     1
102
RTVSPropertyOp26
 70
     1
102
RTVSPropertyOp27
 70
     1
  0
ENDSEC
  0
EOF
