  0
SECTION
  2
HEADER
  9
$ACADVER
  1
AC1015
  9
$ACADMAINTVER
 70
    20
  9
$DWGCODEPAGE
  3
ANSI_1252
  9
$INSBASE
 10
0.0
 20
0.0
 30
0.0
  9
$EXTMIN
 10
-2.204675545864009
 20
-0.4231738667598295
 30
0.0
  9
$EXTMAX
 10
2.718061902608138
 20
0.3806662475241724
 30
0.0
  9
$LIMMIN
 10
0.0
 20
0.0
  9
$LIMMAX
 10
420.0
 20
297.0
  9
$ORTHOMODE
 70
     0
  9
$REGENMODE
 70
     1
  9
$FILLMODE
 70
     1
  9
$QTEXTMODE
 70
     0
  9
$MIRRTEXT
 70
     1
  9
$LTSCALE
 40
1.0
  9
$ATTMODE
 70
     1
  9
$TEXTSIZE
 40
2.0
  9
$TRACEWID
 40
1.0
  9
$TEXTSTYLE
  7
LEG-ATT
  9
$CLAYER
  8
BLOCKS
  9
$CELTYPE
  6
ByLayer
  9
$CECOLOR
 62
   256
  9
$CELTSCALE
 40
1.0
  9
$DISPSILH
 70
     0
  9
$DIMSCALE
 40
1.0
  9
$DIMASZ
 40
2.5
  9
$DIMEXO
 40
0.625
  9
$DIMDLI
 40
3.75
  9
$DIMRND
 40
0.0
  9
$DIMDLE
 40
0.0
  9
$DIMEXE
 40
1.25
  9
$DIMTP
 40
0.0
  9
$DIMTM
 40
0.0
  9
$DIMTXT
 40
2.5
  9
$DIMCEN
 40
2.5
  9
$DIMTSZ
 40
0.0
  9
$DIMTOL
 70
     0
  9
$DIMLIM
 70
     0
  9
$DIMTIH
 70
     0
  9
$DIMTOH
 70
     0
  9
$DIMSE1
 70
     0
  9
$DIMSE2
 70
     0
  9
$DIMTAD
 70
     1
  9
$DIMZIN
 70
     8
  9
$DIMBLK
  1

  9
$DIMASO
 70
     1
  9
$DIMSHO
 70
     1
  9
$DIMPOST
  1

  9
$DIMAPOST
  1

  9
$DIMALT
 70
     0
  9
$DIMALTD
 70
     3
  9
$DIMALTF
 40
0.03937007874016
  9
$DIMLFAC
 40
1.0
  9
$DIMTOFL
 70
     1
  9
$DIMTVP
 40
0.0
  9
$DIMTIX
 70
     0
  9
$DIMSOXD
 70
     0
  9
$DIMSAH
 70
     0
  9
$DIMBLK1
  1

  9
$DIMBLK2
  1

  9
$DIMSTYLE
  2
ISO-25
  9
$DIMCLRD
 70
     0
  9
$DIMCLRE
 70
     0
  9
$DIMCLRT
 70
     0
  9
$DIMTFAC
 40
1.0
  9
$DIMGAP
 40
0.625
  9
$DIMJUST
 70
     0
  9
$DIMSD1
 70
     0
  9
$DIMSD2
 70
     0
  9
$DIMTOLJ
 70
     0
  9
$DIMTZIN
 70
     8
  9
$DIMALTZ
 70
     0
  9
$DIMALTTZ
 70
     0
  9
$DIMUPT
 70
     0
  9
$DIMDEC
 70
     2
  9
$DIMTDEC
 70
     2
  9
$DIMALTU
 70
     2
  9
$DIMALTTD
 70
     3
  9
$DIMTXSTY
  7
Standard
  9
$DIMAUNIT
 70
     0
  9
$DIMADEC
 70
     0
  9
$DIMALTRND
 40
0.0
  9
$DIMAZIN
 70
     0
  9
$DIMDSEP
 70
    44
  9
$DIMATFIT
 70
     3
  9
$DIMFRAC
 70
     0
  9
$DIMLDRBLK
  1

  9
$DIMLUNIT
 70
     2
  9
$DIMLWD
 70
    -2
  9
$DIMLWE
 70
    -2
  9
$DIMTMOVE
 70
     0
  9
$LUNITS
 70
     2
  9
$LUPREC
 70
     4
  9
$SKETCHINC
 40
1.0
  9
$FILLETRAD
 40
0.0
  9
$AUNITS
 70
     0
  9
$AUPREC
 70
     0
  9
$MENU
  1
.
  9
$ELEVATION
 40
0.0
  9
$PELEVATION
 40
0.0
  9
$THICKNESS
 40
0.0
  9
$LIMCHECK
 70
     0
  9
$CHAMFERA
 40
10.0
  9
$CHAMFERB
 40
10.0
  9
$CHAMFERC
 40
20.0
  9
$CHAMFERD
 40
0.0
  9
$SKPOLY
 70
     0
  9
$TDCREATE
 40
2453125.639648206
  9
$TDUCREATE
 40
2453125.597981539
  9
$TDUPDATE
 40
2456146.643120475
  9
$TDUUPDATE
 40
2456146.601453808
  9
$TDINDWG
 40
0.0162476736
  9
$TDUSRTIMER
 40
0.0162476736
  9
$USRTIMER
 70
     1
  9
$ANGBASE
 50
0.0
  9
$ANGDIR
 70
     0
  9
$PDMODE
 70
     3
  9
$PDSIZE
 40
0.0
  9
$PLINEWID
 40
0.0
  9
$SPLFRAME
 70
     0
  9
$SPLINETYPE
 70
     6
  9
$SPLINESEGS
 70
     8
  9
$HANDSEED
  5
843
  9
$SURFTAB1
 70
     6
  9
$SURFTAB2
 70
     6
  9
$SURFTYPE
 70
     6
  9
$SURFU
 70
     6
  9
$SURFV
 70
     6
  9
$UCSBASE
  2

  9
$UCSNAME
  2

  9
$UCSORG
 10
0.0
 20
0.0
 30
0.0
  9
$UCSXDIR
 10
1.0
 20
0.0
 30
0.0
  9
$UCSYDIR
 10
0.0
 20
1.0
 30
0.0
  9
$UCSORTHOREF
  2

  9
$UCSORTHOVIEW
 70
     0
  9
$UCSORGTOP
 10
0.0
 20
0.0
 30
0.0
  9
$UCSORGBOTTOM
 10
0.0
 20
0.0
 30
0.0
  9
$UCSORGLEFT
 10
0.0
 20
0.0
 30
0.0
  9
$UCSORGRIGHT
 10
0.0
 20
0.0
 30
0.0
  9
$UCSORGFRONT
 10
0.0
 20
0.0
 30
0.0
  9
$UCSORGBACK
 10
0.0
 20
0.0
 30
0.0
  9
$PUCSBASE
  2

  9
$PUCSNAME
  2

  9
$PUCSORG
 10
0.0
 20
0.0
 30
0.0
  9
$PUCSXDIR
 10
1.0
 20
0.0
 30
0.0
  9
$PUCSYDIR
 10
0.0
 20
1.0
 30
0.0
  9
$PUCSORTHOREF
  2

  9
$PUCSORTHOVIEW
 70
     0
  9
$PUCSORGTOP
 10
0.0
 20
0.0
 30
0.0
  9
$PUCSORGBOTTOM
 10
0.0
 20
0.0
 30
0.0
  9
$PUCSORGLEFT
 10
0.0
 20
0.0
 30
0.0
  9
$PUCSORGRIGHT
 10
0.0
 20
0.0
 30
0.0
  9
$PUCSORGFRONT
 10
0.0
 20
0.0
 30
0.0
  9
$PUCSORGBACK
 10
0.0
 20
0.0
 30
0.0
  9
$USERI1
 70
     0
  9
$USERI2
 70
     0
  9
$USERI3
 70
     0
  9
$USERI4
 70
     0
  9
$USERI5
 70
     0
  9
$USERR1
 40
0.0
  9
$USERR2
 40
0.0
  9
$USERR3
 40
0.0
  9
$USERR4
 40
0.0
  9
$USERR5
 40
0.0
  9
$WORLDVIEW
 70
     1
  9
$SHADEDGE
 70
     3
  9
$SHADEDIF
 70
    70
  9
$TILEMODE
 70
     1
  9
$MAXACTVP
 70
    64
  9
$PINSBASE
 10
0.0
 20
0.0
 30
0.0
  9
$PLIMCHECK
 70
     0
  9
$PEXTMIN
 10
1.000000000000000E+20
 20
1.000000000000000E+20
 30
1.000000000000000E+20
  9
$PEXTMAX
 10
-1.000000000000000E+20
 20
-1.000000000000000E+20
 30
-1.000000000000000E+20
  9
$PLIMMIN
 10
0.0
 20
0.0
  9
$PLIMMAX
 10
420.0
 20
297.0
  9
$UNITMODE
 70
     0
  9
$VISRETAIN
 70
     1
  9
$PLINEGEN
 70
     0
  9
$PSLTSCALE
 70
     1
  9
$TREEDEPTH
 70
  3020
  9
$CMLSTYLE
  2
Standard
  9
$CMLJUST
 70
     0
  9
$CMLSCALE
 40
20.0
  9
$PROXYGRAPHICS
 70
     1
  9
$MEASUREMENT
 70
     1
  9
$CELWEIGHT
370
    -1
  9
$ENDCAPS
280
     0
  9
$JOINSTYLE
280
     0
  9
$LWDISPLAY
290
     0
  9
$INSUNITS
 70
     4
  9
$HYPERLINKBASE
  1

  9
$STYLESHEET
  1

  9
$XEDIT
290
     1
  9
$CEPSNTYPE
380
     0
  9
$PSTYLEMODE
290
     1
  9
$FINGERPRINTGUID
  2
{38505E8A-DB8E-4A5A-9240-5BDA279CF715}
  9
$VERSIONGUID
  2
{37E2A785-E50F-47C1-95FF-F38781418E97}
  9
$EXTNAMES
290
     1
  9
$PSVPSCALE
 40
0.0
  9
$OLESTARTUP
290
     0
  0
ENDSEC
  0
SECTION
  2
CLASSES
  0
CLASS
  1
ACDBDICTIONARYWDFLT
  2
AcDbDictionaryWithDefault
  3
ObjectDBX Classes
 90
        0
280
     0
281
     0
  0
CLASS
  1
ACDBPLACEHOLDER
  2
AcDbPlaceHolder
  3
ObjectDBX Classes
 90
        0
280
     0
281
     0
  0
CLASS
  1
LAYOUT
  2
AcDbLayout
  3
ObjectDBX Classes
 90
        0
280
     0
281
     0
  0
CLASS
  1
DICTIONARYVAR
  2
AcDbDictionaryVar
  3
ObjectDBX Classes
 90
        0
280
     0
281
     0
  0
CLASS
  1
TABLESTYLE
  2
AcDbTableStyle
  3
ObjectDBX Classes
 90
     4095
280
     0
281
     0
  0
CLASS
  1
SORTENTSTABLE
  2
AcDbSortentsTable
  3
ObjectDBX Classes
 90
        0
280
     0
281
     0
  0
CLASS
  1
DIMASSOC
  2
AcDbDimAssoc
  3
"AcDbDimAssoc|Product Desc:     AcDim ARX App For Dimension|Company:          Autodesk, Inc.|WEB Address:      www.autodesk.com"
 90
    32768
280
     0
281
     0
  0
CLASS
  1
MATERIAL
  2
AcDbMaterial
  3
ObjectDBX Classes
 90
     1153
280
     0
281
     0
  0
CLASS
  1
VISUALSTYLE
  2
AcDbVisualStyle
  3
ObjectDBX Classes
 90
     4095
280
     0
281
     0
  0
CLASS
  1
SCALE
  2
AcDbScale
  3
ObjectDBX Classes
 90
     1153
280
     0
281
     0
  0
CLASS
  1
MLEADERSTYLE
  2
AcDbMLeaderStyle
  3
ACDB_MLEADERSTYLE_CLASS
 90
     4095
280
     0
281
     0
  0
CLASS
  1
CELLSTYLEMAP
  2
AcDbCellStyleMap
  3
ObjectDBX Classes
 90
     1152
280
     0
281
     0
  0
ENDSEC
  0
SECTION
  2
TABLES
  0
TABLE
  2
VPORT
  5
19
330
0
100
AcDbSymbolTable
 70
     1
  0
VPORT
  5
799
330
19
100
AcDbSymbolTableRecord
100
AcDbViewportTableRecord
  2
*Active
 70
     0
 10
0.0
 20
0.0
 11
1.0
 21
1.0
 12
0.3590149234631879
 22
-0.0227881536599171
 13
0.0
 23
0.0
 14
10.0
 24
10.0
 15
10.0
 25
10.0
 16
0.0
 26
0.0
 36
1.0
 17
0.0
 27
0.0
 37
0.0
 40
3.133580151554045
 41
1.645464025026068
 42
50.0
 43
0.0
 44
0.0
 50
0.0
 51
0.0
 71
     0
 72
   100
 73
     1
 74
     2
 75
     0
 76
     0
 77
     0
 78
     0
281
     0
 65
     1
110
0.0
120
0.0
130
0.0
111
1.0
121
0.0
131
0.0
112
0.0
122
1.0
132
0.0
 79
     0
146
0.0
  0
ENDTAB
  0
TABLE
  2
LTYPE
  5
14
330
0
100
AcDbSymbolTable
 70
     3
  0
LTYPE
  5
15
330
14
100
AcDbSymbolTableRecord
100
AcDbLinetypeTableRecord
  2
ByBlock
 70
     0
  3

 72
    65
 73
     0
 40
0.0
  0
LTYPE
  5
16
330
14
100
AcDbSymbolTableRecord
100
AcDbLinetypeTableRecord
  2
ByLayer
 70
     0
  3

 72
    65
 73
     0
 40
0.0
  0
LTYPE
  5
8
330
14
100
AcDbSymbolTableRecord
100
AcDbLinetypeTableRecord
  2
Continuous
 70
     0
  3
Solid line
 72
    65
 73
     0
 40
0.0
  0
LTYPE
  5
18A
330
14
100
AcDbSymbolTableRecord
100
AcDbLinetypeTableRecord
  2
DASHDOT
 70
     0
  3
Dash dot __ . __ . __ . __ . __ . __ . __ . __
 72
    65
 73
     4
 40
25.4
 49
12.7
 74
     0
 49
-6.349999999999999
 74
     0
 49
0.0
 74
     0
 49
-6.349999999999999
 74
     0
  0
LTYPE
  5
18B
330
14
100
AcDbSymbolTableRecord
100
AcDbLinetypeTableRecord
  2
HIDDEN
 70
     0
  3
Hidden __ __ __ __ __ __ __ __ __ __ __ __ __ _
 72
    65
 73
     2
 40
9.524999999999998
 49
6.349999999999999
 74
     0
 49
-3.174999999999999
 74
     0
  0
ENDTAB
  0
TABLE
  2
LAYER
  5
10
330
0
100
AcDbSymbolTable
 70
    10
  0
LAYER
  5
4
102
{ACAD_XDICTIONARY
360
7E5
102
}
330
10
100
AcDbSymbolTableRecord
100
AcDbLayerTableRecord
  2
0
 70
     0
 62
     7
  6
Continuous
370
    -3
390
5
  0
LAYER
  5
22
102
{ACAD_XDICTIONARY
360
7E7
102
}
330
10
100
AcDbSymbolTableRecord
100
AcDbLayerTableRecord
  2
BLOCKS
 70
     0
 62
     3
  6
Continuous
370
    -3
390
5
  0
LAYER
  5
18C
102
{ACAD_XDICTIONARY
360
7E9
102
}
330
10
100
AcDbSymbolTableRecord
100
AcDbLayerTableRecord
  2
2
 70
     0
 62
     2
  6
Continuous
370
    -3
390
5
  0
LAYER
  5
18D
102
{ACAD_XDICTIONARY
360
7EB
102
}
330
10
100
AcDbSymbolTableRecord
100
AcDbLayerTableRecord
  2
cen
 70
     0
 62
     7
  6
DASHDOT
370
    -3
390
5
  0
LAYER
  5
18E
102
{ACAD_XDICTIONARY
360
7ED
102
}
330
10
100
AcDbSymbolTableRecord
100
AcDbLayerTableRecord
  2
hid
 70
     0
 62
     7
  6
HIDDEN
370
    -3
390
5
  0
LAYER
  5
18F
330
10
100
AcDbSymbolTableRecord
100
AcDbLayerTableRecord
  2
Defpoints
 70
     0
 62
     7
  6
Continuous
290
     0
370
    -3
390
5
  0
LAYER
  5
190
102
{ACAD_XDICTIONARY
360
7EF
102
}
330
10
100
AcDbSymbolTableRecord
100
AcDbLayerTableRecord
  2
9
 70
     0
 62
     9
  6
Continuous
370
    -3
390
5
  0
LAYER
  5
191
102
{ACAD_XDICTIONARY
360
7F1
102
}
330
10
100
AcDbSymbolTableRecord
100
AcDbLayerTableRecord
  2
hatch
 70
     0
 62
     9
  6
Continuous
370
    -3
390
5
  0
LAYER
  5
192
102
{ACAD_XDICTIONARY
360
7F3
102
}
330
10
100
AcDbSymbolTableRecord
100
AcDbLayerTableRecord
  2
COTAS
 70
     0
 62
     1
  6
Continuous
370
    -3
390
5
  0
LAYER
  5
193
102
{ACAD_XDICTIONARY
360
7F5
102
}
330
10
100
AcDbSymbolTableRecord
100
AcDbLayerTableRecord
  2
SANINDUSA
 70
     0
 62
     3
  6
Continuous
370
    -3
390
5
  0
ENDTAB
  0
TABLE
  2
STYLE
  5
11
330
0
100
AcDbSymbolTable
 70
     3
  0
STYLE
  5
12
330
11
100
AcDbSymbolTableRecord
100
AcDbTextStyleTableRecord
  2
Standard
 70
     0
 40
0.0
 41
1.0
 50
0.0
 71
     0
 42
2.5
  3
txt
  4

  0
STYLE
  5
23
330
11
100
AcDbSymbolTableRecord
100
AcDbTextStyleTableRecord
  2
LEG-ATT
 70
     0
 40
2.0
 41
0.8
 50
0.0
 71
     0
 42
2.0
  3
ARIAL.TTF
  4

1001
ACAD
1000
Arial
1071
       34
  0
STYLE
  5
194
330
11
100
AcDbSymbolTableRecord
100
AcDbTextStyleTableRecord
  2
SANINDUSA
 70
     0
 40
0.0
 41
1.0
 50
0.0
 71
     0
 42
2.5
  3
verdana.TTF
  4

1001
ACAD
1000
Verdana
1071
       34
  0
ENDTAB
  0
TABLE
  2
VIEW
  5
17
330
0
100
AcDbSymbolTable
 70
     0
  0
ENDTAB
  0
TABLE
  2
UCS
  5
18
330
0
100
AcDbSymbolTable
 70
     0
  0
ENDTAB
  0
TABLE
  2
APPID
  5
1B
330
0
100
AcDbSymbolTable
 70
     4
  0
APPID
  5
1C
330
1B
100
AcDbSymbolTableRecord
100
AcDbRegAppTableRecord
  2
ACAD
 70
     0
  0
APPID
  5
196
330
1B
100
AcDbSymbolTableRecord
100
AcDbRegAppTableRecord
  2
ACAD_PSEXT
 70
     0
  0
APPID
  5
7F9
330
1B
100
AcDbSymbolTableRecord
100
AcDbRegAppTableRecord
  2
DCO15
 70
     0
  0
APPID
  5
842
330
1B
100
AcDbSymbolTableRecord
100
AcDbRegAppTableRecord
  2
ACAD_MLEADERVER
 70
     0
  0
ENDTAB
  0
TABLE
  2
DIMSTYLE
  5
1D
330
0
100
AcDbSymbolTable
 70
     2
100
AcDbDimStyleTable
 71
     0
  0
DIMSTYLE
105
25
330
1D
100
AcDbSymbolTableRecord
100
AcDbDimStyleTableRecord
  2
ISO-25
 70
     0
 41
2.5
 42
0.625
 43
3.75
 44
1.25
 73
     0
 74
     0
 77
     1
 78
     8
140
2.5
141
2.5
143
0.03937007874016
147
0.625
171
     3
172
     1
271
     2
272
     2
274
     3
278
    44
283
     0
284
     8
340
12
  0
DIMSTYLE
105
195
330
1D
100
AcDbSymbolTableRecord
100
AcDbDimStyleTableRecord
  2
SANINDUSA
 70
     0
 40
5.0
 41
2.0
 42
1.0
 43
1.0
 44
1.0
 73
     0
 74
     0
 77
     1
 78
     8
140
2.0
141
0.0
143
0.03937007874016
147
1.0
171
     3
172
     1
176
   256
177
   256
178
   256
179
     1
271
     0
272
     0
274
     3
278
    44
283
     0
284
     8
340
194
371
    -1
372
    -1
  0
ENDTAB
  0
TABLE
  2
BLOCK_RECORD
  5
1
330
0
100
AcDbSymbolTable
 70
    20
  0
BLOCK_RECORD
  5
2
102
{ACAD_XDICTIONARY
360
89
102
}
330
1
100
AcDbSymbolTableRecord
100
AcDbBlockTableRecord
  2
*Model_Space
340
A
  0
BLOCK_RECORD
  5
C
330
1
100
AcDbSymbolTableRecord
100
AcDbBlockTableRecord
  2
*Paper_Space
340
F
  0
BLOCK_RECORD
  5
39
330
1
100
AcDbSymbolTableRecord
100
AcDbBlockTableRecord
  2
107212AL
340
0
102
{BLKREFS
331
44
102
}
1001
ACAD
1000
DesignCenter Data
1002
{
1070
     1
1070
     4
1002
}
  0
BLOCK_RECORD
  5
45
330
1
100
AcDbSymbolTableRecord
100
AcDbBlockTableRecord
  2
107212CT
340
0
1001
ACAD
1000
DesignCenter Data
1002
{
1070
     1
1070
     4
1002
}
  0
BLOCK_RECORD
  5
A2
330
1
100
AcDbSymbolTableRecord
100
AcDbBlockTableRecord
  2
107212PL
340
0
102
{BLKREFS
331
115
102
}
1001
ACAD
1000
DesignCenter Data
1002
{
1070
     1
1070
     4
1002
}
  0
BLOCK_RECORD
  5
121
330
1
100
AcDbSymbolTableRecord
100
AcDbBlockTableRecord
  2
_DotSmall
340
0
  0
ENDTAB
  0
ENDSEC
  0
SECTION
  2
BLOCKS
  0
BLOCK
  5
3
330
2
100
AcDbEntity
  8
0
100
AcDbBlockBegin
  2
*Model_Space
 70
     0
 10
0.0
 20
0.0
 30
0.0
  3
*Model_Space
  1

  0
ENDBLK
  5
9
330
2
100
AcDbEntity
  8
0
100
AcDbBlockEnd
  0
BLOCK
  5
D
330
C
100
AcDbEntity
 67
     1
  8
0
100
AcDbBlockBegin
  2
*Paper_Space
 70
     0
 10
0.0
 20
0.0
 30
0.0
  3
*Paper_Space
  1

  0
ENDBLK
  5
E
330
C
100
AcDbEntity
 67
     1
  8
0
100
AcDbBlockEnd
  0
BLOCK
  5
42
330
39
100
AcDbEntity
  8
0
100
AcDbBlockBegin
  2
107212AL
 70
     0
 10
0.0
 20
0.0
 30
0.0
  3
107212AL
  1

  0
ARC
  5
3A
330
39
100
AcDbEntity
  8
BLOCKS
  6
Continuous
100
AcDbCircle
 10
0.3901730273689998
 20
0.0999999999999995
 30
0.0
 40
0.01
100
AcDbArc
 50
1.000000106427112
 51
90.00000001175738
  0
LINE
  5
3B
330
39
100
AcDbEntity
  8
BLOCKS
  6
Continuous
100
AcDbLine
 10
0.4019200571420004
 20
0.0
 30
0.0
 11
0.39
 21
0.0
 31
0.0
  0
LINE
  5
3C
330
39
100
AcDbEntity
  8
BLOCKS
  6
Continuous
100
AcDbLine
 10
0.4001715043202399
 20
0.1001745240665855
 30
0.0
 11
0.4019200571420004
 21
0.0
 31
0.0
  0
ARC
  5
3D
330
39
100
AcDbEntity
  8
BLOCKS
  6
Continuous
100
AcDbCircle
 10
-0.3901730273690003
 20
0.1
 30
0.0
 40
0.01
100
AcDbArc
 50
89.99999998824263
 51
179.0000000020437
  0
LINE
  5
3E
330
39
100
AcDbEntity
  8
BLOCKS
  6
Continuous
100
AcDbLine
 10
-0.3900000000000006
 20
0.0
 30
0.0
 11
-0.4019200571420004
 21
0.0
 31
0.0
  0
LINE
  5
3F
330
39
100
AcDbEntity
  8
BLOCKS
  6
Continuous
100
AcDbLine
 10
-0.4019200571420004
 20
0.0
 30
0.0
 11
-0.4001715043200006
 21
0.1001745240640002
 31
0.0
  0
LINE
  5
40
330
39
100
AcDbEntity
  8
BLOCKS
  6
Continuous
100
AcDbLine
 10
-0.3900000000000006
 20
0.11
 30
0.0
 11
0.39
 21
0.11
 31
0.0
  0
LINE
  5
41
330
39
100
AcDbEntity
  8
BLOCKS
  6
Continuous
100
AcDbLine
 10
0.39
 20
0.0
 30
0.0
 11
-0.3900000000000006
 21
0.0
 31
0.0
  0
ENDBLK
  5
43
330
39
100
AcDbEntity
  8
0
100
AcDbBlockEnd
  0
BLOCK
  5
66
330
45
100
AcDbEntity
  8
0
100
AcDbBlockBegin
  2
107212CT
 70
     0
 10
0.0
 20
0.0
 30
0.0
  3
107212CT
  1

  0
ARC
  5
46
330
45
100
AcDbEntity
  8
BLOCKS
  6
Continuous
100
AcDbCircle
 10
0.3901730273690009
 20
0.1
 30
0.0
 40
0.0099999999999997
100
AcDbArc
 50
1.000000184995159
 51
90.00000001175738
  0
LINE
  5
47
330
45
100
AcDbEntity
  8
BLOCKS
  6
Continuous
100
AcDbLine
 10
0.3533909963140513
 20
0.11
 30
0.0
 11
0.39017302736695
 21
0.11
 31
0.0
  0
LINE
  5
48
330
45
100
AcDbEntity
  8
BLOCKS
  6
Continuous
100
AcDbLine
 10
0.4019200571420004
 20
0.0
 30
0.0
 11
0.4001715043200011
 21
0.1001745240640002
 31
0.0
  0
ARC
  5
49
330
45
100
AcDbEntity
  8
BLOCKS
  6
Continuous
100
AcDbCircle
 10
0.3193653089600014
 20
0.0510000000000002
 30
0.0
 40
0.0150000000000003
100
AcDbArc
 50
270.0000000220491
 51
349.9999999878981
  0
LINE
  5
4A
330
45
100
AcDbEntity
  8
BLOCKS
  6
Continuous
100
AcDbLine
 10
0.2499999999680011
 20
0.0367999999998563
 30
0.0
 11
0.2499999999680011
 21
0.0372000000000003
 31
0.0
  0
ARC
  5
4B
330
45
100
AcDbEntity
  8
BLOCKS
  6
Continuous
100
AcDbCircle
 10
0.2491999999680007
 20
0.0372000000000003
 30
0.0
 40
0.0008000000000001
100
AcDbArc
 50
0.0
 51
90.00000000589496
  0
ARC
  5
4C
330
45
100
AcDbEntity
  8
BLOCKS
  6
Continuous
100
AcDbCircle
 10
0.250799999968001
 20
0.0367999999999995
 30
0.0
 40
0.0007999999999998
100
AcDbArc
 50
180.0
 51
269.9999975673978
  0
LINE
  5
4D
330
45
100
AcDbEntity
  8
BLOCKS
  6
Continuous
100
AcDbLine
 10
0.319365308965771
 20
0.0359999999999991
 30
0.0
 11
0.2507999999340353
 21
0.0359999999999991
 31
0.0
  0
LINE
  5
4E
330
45
100
AcDbEntity
  8
BLOCKS
  6
Continuous
100
AcDbLine
 10
0.3341374252546347
 20
0.0483952773318822
 30
0.0
 11
0.3435429187820012
 21
0.1017364817769999
 31
0.0
  0
ARC
  5
4F
330
45
100
AcDbEntity
  8
BLOCKS
  6
Continuous
100
AcDbCircle
 10
-0.0930921588109993
 20
0.0367999999999995
 30
0.0
 40
0.0008000000000001
100
AcDbArc
 50
270.000006738371
 51
0.0
  0
LINE
  5
50
330
45
100
AcDbEntity
  8
BLOCKS
  6
Continuous
100
AcDbLine
 10
-0.0922921588109995
 20
0.0372000000000003
 30
0.0
 11
-0.0922921588109995
 21
0.0367999999999995
 31
0.0
  0
ARC
  5
51
330
45
100
AcDbEntity
  8
BLOCKS
  6
Continuous
100
AcDbCircle
 10
-0.0914921588109996
 20
0.0372000000000003
 30
0.0
 40
0.0007999999999998
100
AcDbArc
 50
89.99999999482154
 51
180.0
  0
LWPOLYLINE
  5
52
330
45
100
AcDbEntity
  8
BLOCKS
  6
Continuous
100
AcDbPolyline
 90
        3
 70
   128
 43
0.0
 10
-0.1102841629696411
 20
0.035999999999998
 10
-0.1202640140556753
 20
0.0260575776454226
 10
-0.1203218812068008
 20
0.025999999999998
  0
LINE
  5
53
330
45
100
AcDbEntity
  8
BLOCKS
  6
Continuous
100
AcDbLine
 10
-0.1203218812068008
 20
0.0259999999999991
 30
0.0
 11
-0.1203218812068008
 21
0.0
 31
0.0
  0
LINE
  5
54
330
45
100
AcDbEntity
  8
BLOCKS
  6
Continuous
100
AcDbLine
 10
-0.0930921587169138
 20
0.0359999999999991
 30
0.0
 11
-0.1102841629696411
 21
0.0359999999999991
 31
0.0
  0
LWPOLYLINE
  5
55
330
45
100
AcDbEntity
  8
BLOCKS
  6
Continuous
100
AcDbPolyline
 90
        4
 70
   128
 43
0.0
 10
-0.180021127433198
 20
0.025999999999998
 10
-0.1822754083956397
 20
0.0282437692724943
 10
-0.1851073364653235
 20
0.031064403141736
 10
-0.1900588456703576
 20
0.035999999999998
  0
LINE
  5
56
330
45
100
AcDbEntity
  8
BLOCKS
  6
Continuous
100
AcDbLine
 10
-0.180021127433198
 20
0.0
 30
0.0
 11
-0.180021127433198
 21
0.0259999999999991
 31
0.0
  0
LINE
  5
57
330
45
100
AcDbEntity
  8
BLOCKS
  6
Continuous
100
AcDbLine
 10
-0.180021127433198
 20
0.0
 30
0.0
 11
-0.1203218812068008
 21
0.0
 31
0.0
  0
LINE
  5
58
330
45
100
AcDbEntity
  8
BLOCKS
  6
Continuous
100
AcDbLine
 10
0.2491999999679183
 20
0.0379999999999996
 30
0.0
 11
-0.0914921588109269
 21
0.0379999999999996
 31
0.0
  0
LINE
  5
59
330
45
100
AcDbEntity
  8
BLOCKS
  6
Continuous
100
AcDbLine
 10
0.3533909963140513
 20
0.11
 30
0.0
 11
0.3139986861909984
 21
0.11
 31
0.0
  0
ARC
  5
5A
330
45
100
AcDbEntity
  8
BLOCKS
  6
Continuous
100
AcDbCircle
 10
0.3533909963120005
 20
0.1
 30
0.0
 40
0.0099999999999997
100
AcDbArc
 50
89.99999998824263
 51
169.9999999959352
  0
LINE
  5
5B
330
45
100
AcDbEntity
  8
BLOCKS
  6
Continuous
100
AcDbLine
 10
-0.1203218812068008
 20
0.0
 30
0.0
 11
0.4019200571420004
 21
0.0
 31
0.0
  0
ARC
  5
5C
330
45
100
AcDbEntity
  8
BLOCKS
  6
Continuous
100
AcDbCircle
 10
-0.3533909963119993
 20
0.1
 30
0.0
 40
0.01
100
AcDbArc
 50
10.00000000403267
 51
90.00000001175738
  0
LINE
  5
5D
330
45
100
AcDbEntity
  8
BLOCKS
  6
Continuous
100
AcDbLine
 10
-0.3901730273669483
 20
0.11
 30
0.0
 11
-0.3533909963140502
 21
0.11
 31
0.0
  0
LINE
  5
5E
330
45
100
AcDbEntity
  8
BLOCKS
  6
Continuous
100
AcDbLine
 10
-0.313998686210926
 20
0.1100000000002615
 30
0.0
 11
-0.3533909963140502
 21
0.11
 31
0.0
  0
ARC
  5
5F
330
45
100
AcDbEntity
  8
BLOCKS
  6
Continuous
100
AcDbCircle
 10
-0.3901730273689998
 20
0.1
 30
0.0
 40
0.01
100
AcDbArc
 50
89.99999998824263
 51
178.9999998149397
  0
ARC
  5
60
330
45
100
AcDbEntity
  8
BLOCKS
  6
Continuous
100
AcDbCircle
 10
-0.3193653089599991
 20
0.0509999999999991
 30
0.0
 40
0.0150000000000002
100
AcDbArc
 50
190.0000000120698
 51
269.9999999779509
  0
LINE
  5
61
330
45
100
AcDbEntity
  8
BLOCKS
  6
Continuous
100
AcDbLine
 10
-0.4001715043199999
 20
0.1001745240640002
 30
0.0
 11
-0.4019200571419993
 21
0.0
 31
0.0
  0
LINE
  5
62
330
45
100
AcDbEntity
  8
BLOCKS
  6
Continuous
100
AcDbLine
 10
-0.3435429187819994
 20
0.1017364817769999
 30
0.0
 11
-0.3341374252546336
 21
0.0483952773318822
 31
0.0
  0
LINE
  5
63
330
45
100
AcDbEntity
  8
BLOCKS
  6
Continuous
100
AcDbLine
 10
-0.1900588456703576
 20
0.0359999999999991
 30
0.0
 11
-0.3193653089657698
 21
0.0359999999999991
 31
0.0
  0
LINE
  5
64
330
45
100
AcDbEntity
  8
BLOCKS
  6
Continuous
100
AcDbLine
 10
-0.4019200571419993
 20
0.0
 30
0.0
 11
-0.180021127433198
 21
0.0
 31
0.0
  0
LINE
  5
65
330
45
100
AcDbEntity
  8
BLOCKS
  6
Continuous
100
AcDbLine
 10
-0.313998686210926
 20
0.1100000000002615
 30
0.0
 11
0.3139986861909984
 21
0.11
 31
0.0
  0
ENDBLK
  5
67
330
45
100
AcDbEntity
  8
0
100
AcDbBlockEnd
  0
BLOCK
  5
113
330
A2
100
AcDbEntity
  8
0
100
AcDbBlockBegin
  2
107212PL
 70
     0
 10
0.0
 20
0.0
 30
0.0
  3
107212PL
  1

  0
ARC
  5
A3
330
A2
100
AcDbEntity
  8
BLOCKS
  6
Continuous
100
AcDbCircle
 10
0.5899999999987779
 20
-0.0119200571420015
 30
0.0
 40
0.0119200571420004
100
AcDbArc
 50
0.0
 51
89.99999998824263
  0
LWPOLYLINE
  5
A4
330
A2
100
AcDbEntity
  8
BLOCKS
  6
Continuous
100
AcDbPolyline
 90
        9
 70
   128
 43
0.0
 10
0.5193653089587779
 20
-0.0973268644769996
 10
0.5190862254775651
 20
-0.0944209587596936
 10
0.5182494340062781
 20
-0.0916405715545023
 10
0.516895793032972
 20
-0.0890858193475697
 10
0.5150653104652776
 20
-0.0868547466755024
 10
0.5128352220560112
 20
-0.0850249189613897
 10
0.510279485586278
 20
-0.0836706231345011
 10
0.5074997089236025
 20
-0.0828338317106295
 10
0.5045931926637774
 20
-0.0825547481820013
  0
LWPOLYLINE
  5
A5
330
A2
100
AcDbEntity
  8
BLOCKS
  6
Continuous
100
AcDbPolyline
 90
       10
 70
   128
 43
0.0
 10
0.5435429187808892
 20
-0.0879213709502119
 10
0.5430079757092682
 20
-0.0819386993489764
 10
0.5414003561971272
 20
-0.0764595977936233
 10
0.5401700659035317
 20
-0.0737990694493976
 10
0.5386912080044374
 20
-0.0712985507365466
 10
0.5350633647640098
 20
-0.0668566923642766
 10
0.530621465342583
 20
-0.0632288219711711
 10
0.5254604593584241
 20
-0.0605197009485573
 10
0.5199813426538635
 20
-0.0589120789498202
 10
0.513998686178951
 20
-0.0583771383595388
  0
ARC
  5
A6
330
A2
100
AcDbEntity
  8
BLOCKS
100
AcDbCircle
 10
0.4479999999987786
 20
-0.6179150811630018
 30
0.0
 40
0.0011999999999273
100
AcDbArc
 50
0.0000000000542815
 51
89.99999999974217
  0
LINE
  5
A7
330
A2
100
AcDbEntity
  8
BLOCKS
100
AcDbLine
 10
0.447999999998784
 20
-0.6167150811630746
 30
0.0
 11
0.4318819996727752
 21
-0.6167150811630023
 31
0.0
  0
LINE
  5
A8
330
A2
100
AcDbEntity
  8
BLOCKS
100
AcDbLine
 10
0.4318819996727752
 20
-0.6167150811630023
 30
0.0
 11
0.431583001729423
 21
-0.6167529278900782
 31
0.0
  0
LINE
  5
A9
330
A2
100
AcDbEntity
  8
BLOCKS
100
AcDbLine
 10
0.431583001729423
 20
-0.6167529278900782
 30
0.0
 11
0.4312642855490277
 21
-0.6168862812500419
 31
0.0
  0
LINE
  5
AA
330
A2
100
AcDbEntity
  8
BLOCKS
100
AcDbLine
 10
0.4312642855490277
 20
-0.6168862812500419
 30
0.0
 11
0.4309717704132235
 21
-0.6171331075737982
 31
0.0
  0
LINE
  5
AB
330
A2
100
AcDbEntity
  8
BLOCKS
100
AcDbLine
 10
0.4309717704132235
 20
-0.6171331075737982
 30
0.0
 11
0.4307636636699255
 21
-0.6174799667142855
 31
0.0
  0
LINE
  5
AC
330
A2
100
AcDbEntity
  8
BLOCKS
100
AcDbLine
 10
0.4307636636699255
 20
-0.6174799667142855
 30
0.0
 11
0.430682627606466
 21
-0.6178762656372692
 31
0.0
  0
LINE
  5
AD
330
A2
100
AcDbEntity
  8
BLOCKS
100
AcDbLine
 10
0.430682627606466
 20
-0.6178762656372692
 30
0.0
 11
0.4307314107693503
 21
-0.6182558819459105
 31
0.0
  0
LINE
  5
AE
330
A2
100
AcDbEntity
  8
BLOCKS
100
AcDbLine
 10
0.4307314107693503
 20
-0.6182558819459105
 30
0.0
 11
0.4308761948568807
 21
-0.6185695707889585
 31
0.0
  0
LINE
  5
AF
330
A2
100
AcDbEntity
  8
BLOCKS
100
AcDbLine
 10
0.4308761948568807
 20
-0.6185695707889585
 30
0.0
 11
0.4310709927507796
 21
-0.6187995401900009
 31
0.0
  0
LWPOLYLINE
  5
B0
330
A2
100
AcDbEntity
  8
BLOCKS
100
AcDbPolyline
 90
       16
 70
     1
 43
0.0
 10
0.4491999999987059
 20
-0.5929150811630006
 42
0.4142135623722627
 10
0.4479999999987809
 20
-0.5917150811630745
 10
0.4046177740957808
 20
-0.5917150811630013
 10
0.4043187761522044
 20
-0.5917529278900782
 10
0.4040000599715816
 20
-0.5918862812500408
 10
0.4037075448355722
 20
-0.592133107573797
 10
0.4034994380921089
 20
-0.592479966714285
 10
0.4034184020285409
 20
-0.5928762656372686
 10
0.4034671851913715
 20
-0.593255881945911
 10
0.4036119692788816
 20
-0.5935695707889569
 10
0.4038067671727794
 20
-0.5937995401900019
 10
0.4103501813117779
 20
-0.5997995401900016
 10
0.4107260737857838
 20
-0.600033417166282
 10
0.4111611882339038
 20
-0.6001150811628372
 10
0.4479999999987757
 20
-0.6001150811629282
 42
0.4142135623737611
 10
0.4491999999987059
 20
-0.5989150811630008
  0
LWPOLYLINE
  5
B1
330
A2
100
AcDbEntity
  8
BLOCKS
100
AcDbPolyline
 90
       16
 70
     1
 43
0.0
 10
0.4491999999987059
 20
-0.5679150811630008
 42
0.4142135623724068
 10
0.4479999999987797
 20
-0.5667150811630746
 10
0.3773535485187733
 20
-0.5667150811630018
 10
0.3770545505752034
 20
-0.5667529278900787
 10
0.3767358343945819
 20
-0.5668862812500408
 10
0.3764433192585721
 20
-0.567133107573797
 10
0.3762352125151085
 20
-0.5674799667142838
 10
0.3761541764515411
 20
-0.5678762656372686
 10
0.3762029596143714
 20
-0.5682558819459115
 10
0.3763477437018827
 20
-0.5685695707889574
 10
0.3765425415957719
 20
-0.568799540189998
 10
0.3830859557347796
 20
-0.5747995401900016
 10
0.3834618482082845
 20
-0.575033417166282
 10
0.3838969626559072
 20
-0.5751150811628367
 10
0.4479999999987769
 20
-0.5751150811629282
 42
0.4142135623734559
 10
0.4491999999987059
 20
-0.573915081163001
  0
LWPOLYLINE
  5
B2
330
A2
100
AcDbEntity
  8
BLOCKS
100
AcDbPolyline
 90
       16
 70
     1
 43
0.0
 10
0.4491999999987059
 20
-0.5429150811630013
 42
0.4142135623726233
 10
0.4479999999987795
 20
-0.5417150811630746
 10
0.35008932294077
 20
-0.5417150811630017
 10
0.3497903249974232
 20
-0.5417529278900782
 10
0.3494716088170273
 20
-0.5418862812500414
 10
0.3491790936812234
 20
-0.5421331075737977
 10
0.3489709869379257
 20
-0.5424799667142845
 10
0.348889950874466
 20
-0.5428762656372687
 10
0.3489387340373503
 20
-0.5432558819459127
 10
0.3490835181248815
 20
-0.5435695707889602
 10
0.3492783160187753
 20
-0.5437995401899997
 10
0.3558217301567765
 20
-0.5497995401899999
 10
0.3561976226311558
 20
-0.5500334171662815
 10
0.3566327370789062
 20
-0.5501150811628373
 10
0.4479999999987769
 20
-0.5501150811629282
 42
0.4142135623734501
 10
0.4491999999987059
 20
-0.5489150811630004
  0
LWPOLYLINE
  5
B3
330
A2
100
AcDbEntity
  8
BLOCKS
100
AcDbPolyline
 90
       16
 70
     1
 43
0.0
 10
0.4491999999987059
 20
-0.5179150811630012
 42
0.4142135623726789
 10
0.4479999999987792
 20
-0.5167150811630746
 10
0.3228250973637714
 20
-0.5167150811630023
 10
0.322526099420395
 20
-0.5167529278900776
 10
0.3222073832398996
 20
-0.5168862812500414
 10
0.3219148681039323
 20
-0.5171331075737977
 10
0.3217067613604255
 20
-0.5174799667142839
 10
0.321625725296758
 20
-0.5178762656372687
 10
0.3216745084594774
 20
-0.5182558819459122
 10
0.3218192925469097
 20
-0.5185695707889586
 10
0.3220140904407785
 20
-0.5187995401899997
 10
0.3285575045797759
 20
-0.5247995401899999
 10
0.3289333970537831
 20
-0.5250334171662808
 10
0.329368511501905
 20
-0.5251150811628373
 10
0.4479999999987775
 20
-0.5251150811629282
 42
0.4142135623732338
 10
0.4491999999987059
 20
-0.5239150811630004
  0
LWPOLYLINE
  5
B4
330
A2
100
AcDbEntity
  8
BLOCKS
100
AcDbPolyline
 90
       16
 70
     1
 43
0.0
 10
0.4491999999987059
 20
-0.4929150811630007
 42
0.4142135623726234
 10
0.4479999999987792
 20
-0.4917150811630746
 10
0.2955608717867748
 20
-0.4917150811630018
 10
0.2952618738432034
 20
-0.4917529278900782
 10
0.294943157662581
 20
-0.4918862812500413
 10
0.2946506425265718
 20
-0.4921331075737982
 10
0.2944425357831086
 20
-0.492479966714285
 10
0.2943614997195417
 20
-0.4928762656372692
 10
0.2944102828823711
 20
-0.4932558819459115
 10
0.2945550669698833
 20
-0.4935695707889568
 10
0.2947498648637805
 20
-0.4937995401900042
 10
0.3012932790027875
 20
-0.4997995401900074
 10
0.301669171476286
 20
-0.5000334171662821
 10
0.3021042859239066
 20
-0.5001150811628367
 10
0.4479999999987778
 20
-0.5001150811629281
 42
0.4142135623732339
 10
0.4491999999987059
 20
-0.4989150811630009
  0
LWPOLYLINE
  5
B5
330
A2
100
AcDbEntity
  8
BLOCKS
100
AcDbPolyline
 90
       16
 70
     1
 43
0.0
 10
0.4491999999987059
 20
-0.4679150811630007
 42
0.4142135623726398
 10
0.4479999999987788
 20
-0.4667150811630746
 10
0.2682966462087765
 20
-0.4667150811630023
 10
0.2679976482654232
 20
-0.4667529278900787
 10
0.2676789320850279
 20
-0.4668862812500413
 10
0.2673864169492234
 20
-0.4671331075737982
 10
0.2671783102059251
 20
-0.4674799667142856
 10
0.267097274142466
 20
-0.4678762656372686
 10
0.2671460573053503
 20
-0.4682558819459121
 10
0.2672908413928806
 20
-0.4685695707889585
 10
0.2674856392867787
 20
-0.4687995401900037
 10
0.2740290534247788
 20
-0.4747995401899999
 10
0.2744049458991558
 20
-0.4750334171662815
 10
0.2748400603469057
 20
-0.4751150811628373
 10
0.4479999999987778
 20
-0.4751150811629282
 42
0.4142135623732615
 10
0.4491999999987059
 20
-0.4739150811630009
  0
LWPOLYLINE
  5
B6
330
A2
100
AcDbEntity
  8
BLOCKS
100
AcDbPolyline
 90
       16
 70
     1
 43
0.0
 10
0.4491999999987059
 20
-0.4429150811630007
 42
0.4142135623725565
 10
0.4479999999987786
 20
-0.4417150811630746
 10
0.2410324206317719
 20
-0.4417150811630023
 10
0.2407334226883944
 20
-0.4417529278900782
 10
0.240414706507899
 20
-0.4418862812500414
 10
0.240122191371932
 20
-0.4421331075737977
 10
0.2399140846284252
 20
-0.4424799667142855
 10
0.2398330485647574
 20
-0.4428762656372686
 10
0.2398818317274777
 20
-0.4432558819459109
 10
0.2400266158149103
 20
-0.4435695707889591
 10
0.2402214137087847
 20
-0.4437995401900066
 10
0.2467648278477793
 20
-0.4497995401900034
 10
0.2471407203217848
 20
-0.450033417166282
 10
0.2475758347699048
 20
-0.4501150811628373
 10
0.447999999998778
 20
-0.4501150811629282
 42
0.414213562373306
 10
0.4491999999987059
 20
-0.4489150811630004
  0
LWPOLYLINE
  5
B7
330
A2
100
AcDbEntity
  8
BLOCKS
100
AcDbPolyline
 90
       16
 70
     1
 43
0.0
 10
0.4491999999987059
 20
-0.4179150811630007
 42
0.4142135623726676
 10
0.4479999999987788
 20
-0.4167150811630746
 10
0.213768195054773
 20
-0.4167150811630012
 10
0.2134691971112037
 20
-0.4167529278900776
 10
0.2131504809305818
 20
-0.4168862812500408
 10
0.2128579657945724
 20
-0.417133107573797
 10
0.2126498590511085
 20
-0.417479966714285
 10
0.2125688229875414
 20
-0.4178762656372686
 10
0.2126176061503711
 20
-0.4182558819459121
 10
0.2127623902378832
 20
-0.4185695707889585
 10
0.2129571881317764
 20
-0.4187995401899992
 10
0.219500602270781
 20
-0.4247995401900033
 10
0.2198764947442851
 20
-0.4250334171662821
 10
0.2203116091919071
 20
-0.4251150811628373
 10
0.447999999998778
 20
-0.4251150811629282
 42
0.4142135623731507
 10
0.4491999999987059
 20
-0.4239150811630003
  0
LWPOLYLINE
  5
B8
330
A2
100
AcDbEntity
  8
BLOCKS
100
AcDbPolyline
 90
       16
 70
     1
 43
0.0
 10
0.4491999999987059
 20
-0.3929150811630007
 42
0.4142135623726789
 10
0.4479999999987788
 20
-0.3917150811630745
 10
0.1865039694777729
 20
-0.3917150811630017
 10
0.1862049715342042
 20
-0.391752927890077
 10
0.1858862553535826
 20
-0.3918862812500401
 10
0.1855937402175718
 20
-0.392133107573797
 10
0.185385633474109
 20
-0.3924799667142844
 10
0.1853045974105416
 20
-0.3928762656372686
 10
0.185353380573371
 20
-0.3932558819459115
 10
0.1854981646608834
 20
-0.3935695707889579
 10
0.1856929625547798
 20
-0.3937995401900002
 10
0.1922363766927828
 20
-0.3997995401900039
 10
0.1926122691671566
 20
-0.400033417166282
 10
0.1930473836149079
 20
-0.4001150811628373
 10
0.447999999998778
 20
-0.4001150811629282
 42
0.4142135623732449
 10
0.4491999999987059
 20
-0.3989150811630009
  0
LWPOLYLINE
  5
B9
330
A2
100
AcDbEntity
  8
BLOCKS
  6
Continuous
100
AcDbPolyline
 90
        9
 70
   128
 43
0.0
 10
0.5045931926637774
 20
-0.7212853661020012
 10
0.5074990983818856
 20
-0.7210062826207172
 10
0.5102794855862777
 20
-0.7201694911494992
 10
0.5128342377931711
 20
-0.7188158501759494
 10
0.5150653104652776
 20
-0.7169853676085018
 10
0.5168951381794171
 20
-0.7147552791994873
 10
0.5182494340062781
 20
-0.7121995427295019
 10
0.5190862254300873
 20
-0.7094197660666555
 10
0.5193653089587779
 20
-0.7065132498070012
  0
ARC
  5
BA
330
A2
100
AcDbEntity
  8
BLOCKS
  6
Continuous
100
AcDbCircle
 10
0.5899999999987779
 20
-0.7919200571420016
 30
0.0
 40
0.0119200571420004
100
AcDbArc
 50
270.0
 51
0.0
  0
LWPOLYLINE
  5
BB
330
A2
100
AcDbEntity
  8
BLOCKS
  6
Continuous
100
AcDbPolyline
 90
       10
 70
   128
 43
0.0
 10
0.5139986861844457
 20
-0.7454629759242942
 10
0.5199813694923126
 20
-0.7449280304809105
 10
0.5254604593634867
 20
-0.7433204133332709
 10
0.5281209876963766
 20
-0.7420901230437972
 10
0.5306215064014697
 20
-0.7406112651492601
 10
0.5350633647679124
 20
-0.7369834219158742
 10
0.5386912351654596
 20
-0.7325415224924177
 10
0.5414003561993117
 20
-0.7273805164854293
 10
0.5430079805661683
 20
-0.7219013880791334
 10
0.543542918780886
 20
-0.7159187433338827
  0
LINE
  5
BC
330
A2
100
AcDbEntity
  8
BLOCKS
100
AcDbLine
 10
0.4376144068887766
 20
-0.6247995401900011
 30
0.0
 11
0.4379902993627866
 21
-0.6250334171662815
 31
0.0
  0
LINE
  5
BD
330
A2
100
AcDbEntity
  8
BLOCKS
100
AcDbLine
 10
0.4379902993627866
 20
-0.6250334171662815
 30
0.0
 11
0.4384254138109057
 21
-0.6251150811628378
 31
0.0
  0
LINE
  5
BE
330
A2
100
AcDbEntity
  8
BLOCKS
100
AcDbLine
 10
0.4384254138109057
 20
-0.6251150811628378
 30
0.0
 11
0.4479999999987672
 21
-0.6251150811629281
 31
0.0
  0
ARC
  5
BF
330
A2
100
AcDbEntity
  8
BLOCKS
100
AcDbCircle
 10
0.4479999999987786
 20
-0.6239150811630009
 30
0.0
 40
0.0011999999999273
100
AcDbArc
 50
269.9999999994572
 51
0.0
  0
LWPOLYLINE
  5
C0
330
A2
100
AcDbEntity
  8
BLOCKS
100
AcDbPolyline
 90
       18
 70
     1
 43
0.0
 10
0.4041999999987786
 20
-0.644345359554003
 10
0.4041748911600541
 20
-0.6441011654529813
 10
0.4040984553475812
 20
-0.64386224895976
 10
0.4039740204507467
 20
-0.6436444428979718
 10
0.4038110069209052
 20
-0.6434609005260148
 10
0.3978110069217846
 20
-0.6379591854830073
 10
0.3975711342485374
 20
-0.6377882745901838
 10
0.3972577733534052
 20
-0.6376716577797163
 10
0.3968910940052138
 20
-0.637648596610311
 10
0.3965168894043813
 20
-0.6377451891619877
 10
0.3961927938410508
 20
-0.6379557153364494
 10
0.3959619748159233
 20
-0.6382415616929467
 10
0.3958361455957001
 20
-0.6385513382872489
 10
0.3957999999989428
 20
-0.6388436445096721
 10
0.3957999999988507
 20
-0.6499200571419915
 42
0.41421356237567
 10
0.3969999999987786
 20
-0.6511200571419295
 10
0.4029999999987783
 20
-0.6511200571419295
 42
0.4142135623693214
 10
0.4041999999987059
 20
-0.649920057142017
  0
LWPOLYLINE
  5
C1
330
A2
100
AcDbEntity
  8
BLOCKS
100
AcDbPolyline
 90
       18
 70
     1
 43
0.0
 10
0.2041999999987783
 20
-0.4609548581139985
 10
0.2041748911600539
 20
-0.4607106640129655
 10
0.2040984553475803
 20
-0.4604717475196299
 10
0.2039740204507459
 20
-0.4602539414575365
 10
0.2038110069217796
 20
-0.4600703990860001
 10
0.1978110069217851
 20
-0.4545686840430056
 10
0.1975711342485354
 20
-0.454397773150185
 10
0.1972577733534052
 20
-0.454281156339717
 10
0.1968910940052146
 20
-0.4542580951703111
 10
0.1965168894043816
 20
-0.4543546877219887
 10
0.196192793841052
 20
-0.4545652138964523
 10
0.1959619748159238
 20
-0.4548510602529473
 10
0.1958361455957001
 20
-0.4551608368472461
 10
0.1957999999989426
 20
-0.4554531430696773
 10
0.1957999999988508
 20
-0.6499200571420005
 42
0.4142135623733391
 10
0.1969999999987786
 20
-0.6511200571419295
 10
0.202999999998778
 20
-0.6511200571419295
 42
0.4142135623730061
 10
0.2041999999987058
 20
-0.6499200571420022
  0
LWPOLYLINE
  5
C2
330
A2
100
AcDbEntity
  8
BLOCKS
100
AcDbPolyline
 90
       18
 70
     1
 43
0.0
 10
0.2291999999987783
 20
-0.4838786707940034
 10
0.2291748911600541
 20
-0.483634476692966
 10
0.2290984553475803
 20
-0.4833955601996303
 10
0.2289740204507461
 20
-0.4831777541375374
 10
0.2288110069217803
 20
-0.4829942117660039
 10
0.2228110069217848
 20
-0.477492496723005
 10
0.2225711342485363
 20
-0.4773215858301842
 10
0.2222577733534052
 20
-0.4772049690197145
 10
0.2218910940052123
 20
-0.4771819078503121
 10
0.2215168894043822
 20
-0.4772785004019892
 10
0.2211927938410517
 20
-0.4774890265764493
 10
0.2209619748159233
 20
-0.4777748729329466
 10
0.2208361455957004
 20
-0.4780846495272466
 10
0.2207999999989428
 20
-0.4783769557496721
 10
0.2207999999988508
 20
-0.6499530670250005
 42
0.4142135623733449
 10
0.2219999999987786
 20
-0.6511530670249295
 10
0.2279999999987786
 20
-0.6511530670249295
 42
0.4142135623729841
 10
0.2291999999987058
 20
-0.6499530670250028
  0
LWPOLYLINE
  5
C3
330
A2
100
AcDbEntity
  8
BLOCKS
100
AcDbPolyline
 90
       18
 70
     1
 43
0.0
 10
0.2541999999987786
 20
-0.5068024834740004
 10
0.2541748911600539
 20
-0.5065582893729652
 10
0.2540984553475809
 20
-0.5063193728796307
 10
0.2539740204507453
 20
-0.5061015668175349
 10
0.2538110069217882
 20
-0.5059180244460113
 10
0.247811006921786
 20
-0.5004163094030087
 10
0.2475711342485346
 20
-0.5002453985101852
 10
0.2472577733534052
 20
-0.5001287816997149
 10
0.2468910940052123
 20
-0.500105720530309
 10
0.2465168894043816
 20
-0.5002023130819879
 10
0.246192793841052
 20
-0.5004128392564497
 10
0.2459619748159239
 20
-0.5006986856129469
 10
0.2458361455957004
 20
-0.5010084622072459
 10
0.2457999999989428
 20
-0.5013007684296753
 10
0.2457999999988508
 20
-0.6499530670250005
 42
0.4142135623735114
 10
0.2469999999987783
 20
-0.6511530670249295
 10
0.2529999999987785
 20
-0.6511530670249295
 42
0.4142135623729841
 10
0.2541999999987059
 20
-0.6499530670250028
  0
LWPOLYLINE
  5
C4
330
A2
100
AcDbEntity
  8
BLOCKS
100
AcDbPolyline
 90
       18
 70
     1
 43
0.0
 10
0.2791999999987783
 20
-0.5297262961540009
 10
0.2791748911600538
 20
-0.5294821020529799
 10
0.27909845534758
 20
-0.5292431855597602
 10
0.2789740204507459
 20
-0.5290253794979686
 10
0.2788110069217782
 20
-0.5288418371270013
 10
0.2728110069217689
 20
-0.5233401220829945
 10
0.2725711342485357
 20
-0.5231692111901845
 10
0.2722577733534047
 20
-0.5230525943797159
 10
0.2718910940052138
 20
-0.52302953321031
 10
0.2715168894043813
 20
-0.5231261257619906
 10
0.271192793841052
 20
-0.5233366519364512
 10
0.2709619748159233
 20
-0.5236224982929486
 10
0.2708361455957001
 20
-0.5239322748872468
 10
0.2707999999989425
 20
-0.5242245811096763
 10
0.2707999999988507
 20
-0.6499530670250005
 42
0.4142135623735114
 10
0.2719999999987783
 20
-0.6511530670249295
 10
0.2779999999987786
 20
-0.6511530670249295
 42
0.4142135623728731
 10
0.2791999999987058
 20
-0.6499530670250028
  0
LWPOLYLINE
  5
C5
330
A2
100
AcDbEntity
  8
BLOCKS
100
AcDbPolyline
 90
       18
 70
     1
 43
0.0
 10
0.3041999999987783
 20
-0.5526501088340023
 10
0.3041748911600541
 20
-0.5524059147329803
 10
0.3040984553475806
 20
-0.5521669982397606
 10
0.3039740204507464
 20
-0.5519491921779701
 10
0.3038110069217851
 20
-0.5517656498070069
 10
0.2978110069217777
 20
-0.5462639347629989
 10
0.2975711342485354
 20
-0.546093023870186
 10
0.2972577733534047
 20
-0.5459764070597152
 10
0.296891094005214
 20
-0.545953345890311
 10
0.2965168894043822
 20
-0.5460499384419894
 10
0.296192793841052
 20
-0.5462604646164505
 10
0.2959619748159239
 20
-0.5465463109729479
 10
0.2958361455957004
 20
-0.5468560875672478
 10
0.2957999999989425
 20
-0.547148393789675
 10
0.2957999999988508
 20
-0.6499200571420005
 42
0.4142135623734559
 10
0.2969999999987786
 20
-0.6511200571419295
 10
0.3029999999987786
 20
-0.6511200571419295
 42
0.4142135623728674
 10
0.3041999999987058
 20
-0.6499200571420028
  0
LWPOLYLINE
  5
C6
330
A2
100
AcDbEntity
  8
BLOCKS
100
AcDbPolyline
 90
       18
 70
     1
 43
0.0
 10
0.3291999999987783
 20
-0.5755739215140023
 10
0.3291748911600538
 20
-0.5753297274129789
 10
0.3290984553475797
 20
-0.5750908109197593
 10
0.3289740204507456
 20
-0.5748730048579734
 10
0.3288110069217731
 20
-0.574689462486997
 10
0.322811006921774
 20
-0.5691877474429987
 10
0.3225711342485345
 20
-0.5690168365501832
 10
0.3222577733534024
 20
-0.5689002197397162
 10
0.3218910940052115
 20
-0.5688771585703109
 10
0.3215168894043822
 20
-0.5689737511219892
 10
0.3211927938410517
 20
-0.5691842772964515
 10
0.3209619748159239
 20
-0.5694701236529483
 10
0.3208361455956998
 20
-0.5697799002472478
 10
0.3207999999989425
 20
-0.5700722064696759
 10
0.3207999999988508
 20
-0.649920057142
 42
0.4142135623736224
 10
0.3219999999987783
 20
-0.6511200571419295
 10
0.3279999999987786
 20
-0.6511200571419295
 42
0.4142135623726789
 10
0.3291999999987059
 20
-0.6499200571420034
  0
LWPOLYLINE
  5
C7
330
A2
100
AcDbEntity
  8
BLOCKS
100
AcDbPolyline
 90
       18
 70
     1
 43
0.0
 10
0.3541999999987783
 20
-0.598497734194001
 10
0.3541748911600541
 20
-0.5982535400929817
 10
0.3540984553475803
 20
-0.598014623599762
 10
0.3539740204507467
 20
-0.5977968175379715
 10
0.3538110069217862
 20
-0.597613275167007
 10
0.34781100692178
 20
-0.5921115601230019
 10
0.3475711342485354
 20
-0.5919406492301835
 10
0.3472577733534052
 20
-0.5918240324197161
 10
0.3468910940052137
 20
-0.5918009712503113
 10
0.3465168894043824
 20
-0.5918975638019896
 10
0.346192793841052
 20
-0.5921080899764514
 10
0.3459619748159233
 20
-0.5923939363329453
 10
0.3458361455957004
 20
-0.5927037129272487
 10
0.3457999999989428
 20
-0.5929960191496764
 10
0.3457999999988508
 20
-0.6499200571419994
 42
0.4142135623737335
 10
0.3469999999987783
 20
-0.6511200571419295
 10
0.3529999999987786
 20
-0.6511200571419295
 42
0.4142135623726512
 10
0.3541999999987058
 20
-0.6499200571420039
  0
LWPOLYLINE
  5
C8
330
A2
100
AcDbEntity
  8
BLOCKS
100
AcDbPolyline
 90
       18
 70
     1
 43
0.0
 10
0.3791999999987783
 20
-0.6214215468740015
 10
0.3791748911600541
 20
-0.6211773527729804
 10
0.3790984553475801
 20
-0.6209384362797568
 10
0.3789740204507459
 20
-0.620720630217972
 10
0.3788110069217754
 20
-0.6205370878469995
 10
0.3728110069217791
 20
-0.6150353728030018
 10
0.3725711342485346
 20
-0.6148644619101828
 10
0.3722577733534061
 20
-0.6147478450997176
 10
0.3718910940052132
 20
-0.6147247839303107
 10
0.3715168894043836
 20
-0.6148213764819889
 10
0.3711927938410517
 20
-0.6150319026564519
 10
0.3709619748159233
 20
-0.6153177490129468
 10
0.3708361455957001
 20
-0.6156275256072479
 10
0.3707999999989426
 20
-0.6159198318296757
 10
0.3707999999988508
 20
-0.6499200571419982
 42
0.4142135623740607
 10
0.3719999999987783
 20
-0.6511200571419295
 10
0.377999999998778
 20
-0.6511200571419295
 42
0.4142135623723402
 10
0.3791999999987059
 20
-0.6499200571420051
  0
LINE
  5
C9
330
A2
100
AcDbEntity
  8
BLOCKS
  6
Continuous
100
AcDbLine
 10
0.5435429188123637
 20
-0.0879213709359124
 30
0.0
 11
0.5435429187803095
 21
-0.7159187433329999
 31
0.0
  0
LINE
  5
CA
330
A2
100
AcDbEntity
  8
BLOCKS
  6
Continuous
100
AcDbLine
 10
0.6019200571407782
 20
-0.0119200571420015
 30
0.0
 11
0.6019200571407782
 21
-0.7919200571432226
 31
0.0
  0
LINE
  5
CB
330
A2
100
AcDbEntity
  8
BLOCKS
  6
Continuous
100
AcDbLine
 10
0.5193653089645486
 20
-0.7065132498070012
 30
0.0
 11
0.5193653089587775
 21
-0.0973268644722634
 31
0.0
  0
LINE
  5
CC
330
A2
100
AcDbEntity
  8
BLOCKS
100
AcDbLine
 10
0.4310709927507796
 20
-0.6187995401900009
 30
0.0
 11
0.4376144068887766
 21
-0.6247995401900011
 31
0.0
  0
LINE
  5
CD
330
A2
100
AcDbEntity
  8
BLOCKS
100
AcDbLine
 10
0.4491999999987059
 20
-0.6239150811630009
 30
0.0
 11
0.4491999999987059
 21
-0.6179150811630007
 31
0.0
  0
CIRCLE
  5
CE
330
A2
100
AcDbEntity
  8
BLOCKS
  6
Continuous
100
AcDbCircle
 10
-0.0000000000012221
 20
-0.2517485528220004
 30
0.0
 40
0.0399999999999999
  0
CIRCLE
  5
CF
330
A2
100
AcDbEntity
  8
BLOCKS
  6
Continuous
100
AcDbCircle
 10
-0.0000000000012221
 20
-0.2517485528220004
 30
0.0
 40
0.03
  0
LWPOLYLINE
  5
D0
330
A2
100
AcDbEntity
  8
BLOCKS
100
AcDbPolyline
 90
       16
 70
     1
 43
0.0
 10
-0.1584287369777209
 20
-0.3687995401886246
 10
-0.15823393908533
 20
-0.3685695707891011
 10
-0.1580891549979927
 20
-0.3682558819459842
 10
-0.1580403718353036
 20
-0.3678762656372607
 10
-0.158121407898945
 20
-0.3674799667141906
 10
-0.1583295146423963
 20
-0.3671331075736259
 10
-0.158622029778319
 20
-0.3668862812498168
 10
-0.1589407459588018
 20
-0.3667529278898263
 10
-0.1592397439024408
 20
-0.3667150811627153
 10
-0.4476050053662246
 20
-0.3667150811630745
 42
0.4142135623727067
 10
-0.4488050053661506
 20
-0.3679150811630023
 10
-0.4488050053661506
 20
-0.373915081163002
 42
0.4142135623728177
 10
-0.4476050053662226
 20
-0.3751150811629282
 10
-0.1657831580403503
 20
-0.3751150811628372
 10
-0.1653480435922296
 20
-0.375033417166282
 10
-0.1649721511182221
 20
-0.3747995401900011
  0
LWPOLYLINE
  5
D1
330
A2
100
AcDbEntity
  8
BLOCKS
100
AcDbPolyline
 90
       16
 70
     1
 43
0.0
 10
-0.4038067671752262
 20
-0.5937995401900043
 10
-0.403611969281327
 20
-0.5935695707889585
 10
-0.4034671851938155
 20
-0.5932558819459115
 10
-0.4034184020309855
 20
-0.5928762656372686
 10
-0.4034994380945529
 20
-0.5924799667142855
 10
-0.4037075448380171
 20
-0.5921331075737976
 10
-0.4040000599740262
 20
-0.5918862812500402
 10
-0.4043187761546483
 20
-0.5917529278900782
 10
-0.4046177740982228
 20
-0.5917150811630023
 10
-0.4480000000012251
 20
-0.5917150811630745
 42
0.4142135623725957
 10
-0.4492000000011504
 20
-0.5929150811630024
 10
-0.4492000000011504
 20
-0.5989150811630021
 42
0.4142135623734281
 10
-0.44800000000122
 20
-0.6001150811629282
 10
-0.4111611882363492
 20
-0.6001150811628372
 10
-0.4107260737882281
 20
-0.6000334171662809
 10
-0.4103501813142226
 20
-0.5997995401900011
  0
LWPOLYLINE
  5
D2
330
A2
100
AcDbEntity
  8
BLOCKS
100
AcDbPolyline
 90
       16
 70
     1
 43
0.0
 10
-0.321625725299202
 20
-0.5178762656372687
 10
-0.32170676136287
 20
-0.5174799667142855
 10
-0.321914868106377
 20
-0.5171331075737971
 10
-0.3222073832423451
 20
-0.5168862812500402
 10
-0.3225260994228367
 20
-0.5167529278900781
 10
-0.3228250973662168
 20
-0.5167150811630018
 10
-0.448000000001224
 20
-0.5167150811630746
 42
0.4142135623728177
 10
-0.4492000000011504
 20
-0.5179150811630024
 10
-0.4492000000011504
 20
-0.5239150811630021
 42
0.4142135623728731
 10
-0.4480000000012218
 20
-0.5251150811629282
 10
-0.329368511504353
 20
-0.5251150811628373
 10
-0.3289333970562285
 20
-0.5250334171662808
 10
-0.3285575045822222
 20
-0.5247995401900017
 10
-0.3220140904432216
 20
-0.5187995401900015
 10
-0.3218192925493545
 20
-0.5185695707889586
 10
-0.3216745084619217
 20
-0.5182558819459109
  0
LWPOLYLINE
  5
D3
330
A2
100
AcDbEntity
  8
BLOCKS
100
AcDbPolyline
 90
       16
 70
     1
 43
0.0
 10
-0.3492783160212178
 20
-0.5437995401899975
 10
-0.3490835181273249
 20
-0.5435695707889591
 10
-0.3489387340397947
 20
-0.5432558819459109
 10
-0.3488899508769109
 20
-0.5428762656372698
 10
-0.3489709869403694
 20
-0.5424799667142856
 10
-0.3491790936836682
 20
-0.5421331075737977
 10
-0.3494716088194747
 20
-0.5418862812500401
 10
-0.3497903249998686
 20
-0.5417529278900782
 10
-0.3500893229432171
 20
-0.5417150811630024
 10
-0.4480000000012242
 20
-0.5417150811630746
 42
0.4142135623727623
 10
-0.4492000000011504
 20
-0.5429150811630024
 10
-0.4492000000011504
 20
-0.5489150811630021
 42
0.4142135623730062
 10
-0.4480000000012215
 20
-0.5501150811629282
 10
-0.3566327370813498
 20
-0.5501150811628373
 10
-0.3561976226335997
 20
-0.5500334171662809
 10
-0.3558217301592236
 20
-0.5497995401900028
  0
LWPOLYLINE
  5
D4
330
A2
100
AcDbEntity
  8
BLOCKS
100
AcDbPolyline
 90
       16
 70
     1
 43
0.0
 10
-0.3765425415982176
 20
-0.5687995401899957
 10
-0.3763477437043272
 20
-0.5685695707889585
 10
-0.3762029596168158
 20
-0.5682558819459121
 10
-0.3761541764539853
 20
-0.5678762656372692
 10
-0.3762352125175531
 20
-0.5674799667142856
 10
-0.376443319261015
 20
-0.5671331075737988
 10
-0.3767358343970247
 20
-0.5668862812500402
 10
-0.3770545505776471
 20
-0.5667529278900777
 10
-0.377353548521219
 20
-0.5667150811630018
 10
-0.4480000000012243
 20
-0.5667150811630746
 42
0.4142135623726843
 10
-0.4492000000011504
 20
-0.5679150811630024
 10
-0.4492000000011504
 20
-0.5739150811630021
 42
0.4142135623730951
 10
-0.4480000000012215
 20
-0.5751150811629282
 10
-0.3838969626583477
 20
-0.5751150811628373
 10
-0.3834618482107284
 20
-0.5750334171662815
 10
-0.3830859557372239
 20
-0.5747995401900034
  0
LWPOLYLINE
  5
D5
330
A2
100
AcDbEntity
  8
BLOCKS
100
AcDbPolyline
 90
       16
 70
     1
 43
0.0
 10
-0.1856929625572235
 20
-0.393799540190002
 10
-0.1854981646633277
 20
-0.3935695707889585
 10
-0.1853533805758158
 20
-0.393255881945912
 10
-0.185304597412986
 20
-0.3928762656372697
 10
-0.1853856334765541
 20
-0.3924799667142838
 10
-0.1855937402200161
 20
-0.3921331075737981
 10
-0.1858862553560252
 20
-0.3918862812500401
 10
-0.1862049715366478
 20
-0.3917529278900787
 10
-0.1865039694802175
 20
-0.3917150811630017
 10
-0.4480000000012231
 20
-0.3917150811630745
 42
0.4142135623730395
 10
-0.4492000000011504
 20
-0.3929150811630024
 10
-0.4492000000011504
 20
-0.3989150811629992
 42
0.4142135623735224
 10
-0.4480000000012223
 20
-0.4001150811629282
 10
-0.1930473836173476
 20
-0.4001150811628378
 10
-0.192612269169599
 20
-0.4000334171662809
 10
-0.192236376695225
 20
-0.3997995401900039
  0
LWPOLYLINE
  5
D6
330
A2
100
AcDbEntity
  8
BLOCKS
100
AcDbPolyline
 90
       16
 70
     1
 43
0.0
 10
-0.2129571881342248
 20
-0.418799540190002
 10
-0.2127623902403273
 20
-0.4185695707889597
 10
-0.2126176061528155
 20
-0.4182558819459115
 10
-0.2125688229899855
 20
-0.4178762656372676
 10
-0.2126498590535538
 20
-0.4174799667142838
 10
-0.2128579657970157
 20
-0.4171331075737987
 10
-0.2131504809330251
 20
-0.4168862812500419
 10
-0.2134691971136489
 20
-0.4167529278900782
 10
-0.2137681950572224
 20
-0.4167150811630012
 10
-0.4480000000012235
 20
-0.4167150811630746
 42
0.4142135623730007
 10
-0.4492000000011504
 20
-0.4179150811630024
 10
-0.4492000000011504
 20
-0.4239150811629998
 42
0.4142135623733171
 10
-0.448000000001222
 20
-0.4251150811629282
 10
-0.2203116091943515
 20
-0.4251150811628373
 10
-0.2198764947467299
 20
-0.4250334171662815
 10
-0.2195006022732221
 20
-0.4247995401900011
  0
LWPOLYLINE
  5
D7
330
A2
100
AcDbEntity
  8
BLOCKS
100
AcDbPolyline
 90
       16
 70
     1
 43
0.0
 10
-0.24022141371123
 20
-0.4437995401900094
 10
-0.2400266158173544
 20
-0.4435695707889586
 10
-0.2398818317299222
 20
-0.4432558819459115
 10
-0.239833048567202
 20
-0.4428762656372686
 10
-0.2399140846308704
 20
-0.4424799667142845
 10
-0.2401221913743774
 20
-0.4421331075737965
 10
-0.2404147065103444
 20
-0.4418862812500408
 10
-0.2407334226908384
 20
-0.4417529278900777
 10
-0.2410324206342267
 20
-0.4417150811630012
 10
-0.4480000000012235
 20
-0.4417150811630746
 42
0.4142135623728897
 10
-0.4492000000011504
 20
-0.4429150811630024
 10
-0.4492000000011504
 20
-0.4489150811629998
 42
0.4142135623733893
 10
-0.4480000000012226
 20
-0.4501150811629282
 10
-0.2475758347723515
 20
-0.4501150811628378
 10
-0.2471407203242285
 20
-0.4500334171662815
 10
-0.2467648278502223
 20
-0.4497995401900023
  0
LWPOLYLINE
  5
D8
330
A2
100
AcDbEntity
  8
BLOCKS
100
AcDbPolyline
 90
       16
 70
     1
 43
0.0
 10
-0.2674856392892231
 20
-0.4687995401900009
 10
-0.2672908413953249
 20
-0.4685695707889585
 10
-0.2671460573077948
 20
-0.4682558819459115
 10
-0.2670972741449098
 20
-0.4678762656372686
 10
-0.2671783102083697
 20
-0.4674799667142856
 10
-0.2673864169516676
 20
-0.467133107573797
 10
-0.2676789320874712
 20
-0.4668862812500397
 10
-0.2679976482678704
 20
-0.4667529278900782
 10
-0.2682966462112205
 20
-0.4667150811630018
 10
-0.4480000000012235
 20
-0.4667150811630746
 42
0.4142135623730007
 10
-0.4492000000011504
 20
-0.4679150811630024
 10
-0.4492000000011504
 20
-0.4739150811630021
 42
0.4142135623728731
 10
-0.4480000000012223
 20
-0.4751150811629282
 10
-0.2748400603493514
 20
-0.4751150811628378
 10
-0.2744049459016004
 20
-0.475033417166282
 10
-0.2740290534272222
 20
-0.4747995401900023
  0
LWPOLYLINE
  5
D9
330
A2
100
AcDbEntity
  8
BLOCKS
100
AcDbPolyline
 90
       16
 70
     1
 43
0.0
 10
-0.2947498648662237
 20
-0.493799540190002
 10
-0.2945550669723274
 20
-0.4935695707889585
 10
-0.2944102828848154
 20
-0.4932558819459115
 10
-0.2943614997219859
 20
-0.4928762656372692
 10
-0.2944425357855527
 20
-0.492479966714285
 10
-0.2946506425290153
 20
-0.4921331075737988
 10
-0.2949431576650264
 20
-0.4918862812500408
 10
-0.2952618738456451
 20
-0.4917529278900787
 10
-0.2955608717892186
 20
-0.4917150811630018
 10
-0.4480000000012237
 20
-0.4917150811630746
 42
0.4142135623729287
 10
-0.4492000000011504
 20
-0.4929150811630024
 10
-0.4492000000011504
 20
-0.4989150811630021
 42
0.4142135623728731
 10
-0.4480000000012223
 20
-0.5001150811629281
 10
-0.3021042859263505
 20
-0.5001150811628373
 10
-0.3016691714787299
 20
-0.5000334171662815
 10
-0.3012932790052295
 20
-0.4997995401900056
  0
LWPOLYLINE
  5
DA
330
A2
100
AcDbEntity
  8
BLOCKS
100
AcDbPolyline
 90
        8
 70
     1
 43
0.0
 10
-0.084012335121295
 20
-0.1679150811630007
 42
0.4142135623725957
 10
-0.0852123351212228
 20
-0.1667150811630745
 10
-0.4480000000012229
 20
-0.1667150811630745
 42
0.4142135623729841
 10
-0.4492000000011504
 20
-0.1679150811630029
 10
-0.4492000000011504
 20
-0.1739150811629997
 42
0.4142135623732061
 10
-0.4480000000012226
 20
-0.1751150811629282
 10
-0.0852123351212228
 20
-0.1751150811629282
 42
0.4142135623728731
 10
-0.0840123351212958
 20
-0.1739150811629997
  0
LWPOLYLINE
  5
DB
330
A2
100
AcDbEntity
  8
BLOCKS
100
AcDbPolyline
 90
        8
 70
     1
 43
0.0
 10
-0.0840123351212958
 20
-0.1929150811630007
 42
0.4142135623726511
 10
-0.0852123351212237
 20
-0.1917150811630745
 10
-0.4480000000012229
 20
-0.1917150811630745
 42
0.4142135623730007
 10
-0.4492000000011504
 20
-0.1929150811630029
 10
-0.4492000000011504
 20
-0.198915081163002
 42
0.4142135623727623
 10
-0.4480000000012229
 20
-0.2001150811629281
 10
-0.0852123351212228
 20
-0.2001150811629281
 42
0.4142135623731507
 10
-0.084012335121295
 20
-0.1989150811630009
  0
LWPOLYLINE
  5
DC
330
A2
100
AcDbEntity
  8
BLOCKS
100
AcDbPolyline
 90
        8
 70
     1
 43
0.0
 10
-0.084012335121295
 20
-0.2179150811630007
 42
0.4142135623727067
 10
-0.0852123351212222
 20
-0.2167150811630745
 10
-0.4480000000012229
 20
-0.2167150811630745
 42
0.4142135623730951
 10
-0.4492000000011504
 20
-0.2179150811630018
 10
-0.4492000000011504
 20
-0.223915081163002
 42
0.4142135623727623
 10
-0.4480000000012229
 20
-0.2251150811629281
 10
-0.0852123351212228
 20
-0.2251150811629281
 42
0.4142135623731507
 10
-0.084012335121295
 20
-0.2239150811630009
  0
LWPOLYLINE
  5
DD
330
A2
100
AcDbEntity
  8
BLOCKS
100
AcDbPolyline
 90
        8
 70
     1
 43
0.0
 10
-0.0840123351212958
 20
-0.2429150811630007
 42
0.4142135623726511
 10
-0.0852123351212231
 20
-0.2417150811630745
 10
-0.4480000000012229
 20
-0.2417150811630745
 42
0.4142135623730951
 10
-0.4492000000011504
 20
-0.2429150811630018
 10
-0.4492000000011504
 20
-0.248915081163002
 42
0.4142135623727623
 10
-0.4480000000012229
 20
-0.2501150811629282
 10
-0.0852123351212228
 20
-0.2501150811629282
 42
0.4142135623731507
 10
-0.084012335121295
 20
-0.2489150811630009
  0
LWPOLYLINE
  5
DE
330
A2
100
AcDbEntity
  8
BLOCKS
100
AcDbPolyline
 90
        8
 70
     1
 43
0.0
 10
-0.0840123351212958
 20
-0.2679150811630007
 42
0.4142135623727623
 10
-0.0852123351212231
 20
-0.2667150811630745
 10
-0.4480000000012229
 20
-0.2667150811630745
 42
0.4142135623731117
 10
-0.4492000000011504
 20
-0.2679150811630018
 10
-0.4492000000011504
 20
-0.273915081163002
 42
0.4142135623727453
 10
-0.4480000000012228
 20
-0.2751150811629281
 10
-0.0852123351212225
 20
-0.2751150811629281
 42
0.4142135623729509
 10
-0.0840123351212958
 20
-0.2739150811630009
  0
LWPOLYLINE
  5
DF
330
A2
100
AcDbEntity
  8
BLOCKS
100
AcDbPolyline
 90
        8
 70
     1
 43
0.0
 10
-0.0840123351212958
 20
-0.2929150811630006
 42
0.4142135623727623
 10
-0.0852123351212231
 20
-0.2917150811630745
 10
-0.4480000000012229
 20
-0.2917150811630745
 42
0.4142135623731117
 10
-0.4492000000011504
 20
-0.2929150811630018
 10
-0.4492000000011504
 20
-0.298915081163002
 42
0.4142135623727453
 10
-0.4480000000012228
 20
-0.3001150811629282
 10
-0.0852123351212225
 20
-0.3001150811629282
 42
0.4142135623730618
 10
-0.084012335121295
 20
-0.2989150811630008
  0
LWPOLYLINE
  5
E0
330
A2
100
AcDbEntity
  8
BLOCKS
100
AcDbPolyline
 90
       16
 70
     1
 43
0.0
 10
-0.1039002858252252
 20
-0.3187995401900025
 10
-0.1037054879313269
 20
-0.318569570788959
 10
-0.1035607038438161
 20
-0.3182558819459109
 10
-0.1035119206809858
 20
-0.3178762656372692
 10
-0.1035929567445527
 20
-0.317479966714285
 10
-0.1038010634880155
 20
-0.3171331075737976
 10
-0.1040935786240257
 20
-0.3168862812500401
 10
-0.1044122948046478
 20
-0.3167529278900782
 10
-0.1047112927482146
 20
-0.3167150811630017
 10
-0.4477689268532231
 20
-0.3167150811630745
 42
0.4142135623730951
 10
-0.4489689268531505
 20
-0.3179150811630018
 10
-0.4489689268531505
 20
-0.323915081163002
 42
0.4142135623728008
 10
-0.4477689268532226
 20
-0.3251150811629281
 10
-0.1112547068853496
 20
-0.3251150811628372
 10
-0.1108195924375991
 20
-0.3250334171662803
 10
-0.1104436999632276
 20
-0.3247995401900039
  0
LWPOLYLINE
  5
E1
330
A2
100
AcDbEntity
  8
BLOCKS
100
AcDbPolyline
 90
       16
 70
     1
 43
0.0
 10
-0.1311645114022266
 20
-0.3437995401900042
 10
-0.1309697135083272
 20
-0.343569570788959
 10
-0.1308249294208159
 20
-0.3432558819459126
 10
-0.1307761462579857
 20
-0.3428762656372686
 10
-0.130857182321553
 20
-0.3424799667142861
 10
-0.1310652890650157
 20
-0.342133107573797
 10
-0.131357804201027
 20
-0.3418862812500413
 10
-0.131676520381645
 20
-0.3417529278900787
 10
-0.1319755183252178
 20
-0.3417150811630018
 10
-0.4480000000012231
 20
-0.3417150811630745
 42
0.4142135623730561
 10
-0.4492000000011504
 20
-0.3429150811630023
 10
-0.4492000000011504
 20
-0.348915081163002
 42
0.4142135623728177
 10
-0.4480000000012226
 20
-0.3501150811629281
 10
-0.1385189324623488
 20
-0.3501150811628372
 10
-0.1380838180147283
 20
-0.3500334171662808
 10
-0.1377079255412232
 20
-0.3497995401900022
  0
ARC
  5
E2
330
A2
100
AcDbEntity
  8
BLOCKS
  6
Continuous
100
AcDbCircle
 10
-0.5900000000012224
 20
-0.0119200571420015
 30
0.0
 40
0.0119200571420001
100
AcDbArc
 50
90.0
 51
180.0
  0
LWPOLYLINE
  5
E3
330
A2
100
AcDbEntity
  8
BLOCKS
  6
Continuous
100
AcDbPolyline
 90
        9
 70
   128
 43
0.0
 10
-0.5045931926662226
 20
-0.0825547481820013
 10
-0.5074990983840868
 20
-0.0828338316634518
 10
-0.5102794855887226
 20
-0.0836706231345011
 10
-0.5128342377955803
 20
-0.0850242641077694
 10
-0.5150653104677225
 20
-0.0868547466755024
 10
-0.516895138181713
 20
-0.0890848350846113
 10
-0.5182494340087226
 20
-0.0916405715545023
 10
-0.5190862254325931
 20
-0.0944203482170394
 10
-0.5193653089612224
 20
-0.0973268644769996
  0
LWPOLYLINE
  5
E4
330
A2
100
AcDbEntity
  8
BLOCKS
  6
Continuous
100
AcDbPolyline
 90
       10
 70
   128
 43
0.0
 10
-0.5139986862050434
 20
-0.0583771383602084
 10
-0.5199813695189814
 20
-0.0589120838076065
 10
-0.5254604593554019
 20
-0.060519700946104
 10
-0.5281209877055551
 20
-0.0617499912435733
 10
-0.5306215064197105
 20
-0.063228849145039
 10
-0.5350633647834409
 20
-0.0668566923811568
 10
-0.538691235180129
 20
-0.0712985918100651
 10
-0.5414003561972063
 20
-0.0764595977880208
 10
-0.5430079781959777
 20
-0.0819387145000474
 10
-0.5435429187830198
 20
-0.0879213709383703
  0
LWPOLYLINE
  5
E5
330
A2
100
AcDbEntity
  8
BLOCKS
100
AcDbPolyline
 90
       18
 70
     1
 43
0.0
 10
-0.3958000000013873
 20
-0.6388436445096733
 10
-0.3958361455981443
 20
-0.6385513382872478
 10
-0.3959619748183681
 20
-0.6382415616929467
 10
-0.3961927938434952
 20
-0.6379557153364505
 10
-0.3965168894068265
 20
-0.6377451891619877
 10
-0.3968910940076563
 20
-0.6376485966103122
 10
-0.3972577733558478
 20
-0.6376716577797157
 10
-0.39757113425098
 20
-0.6377882745901843
 10
-0.3978110069242268
 20
-0.6379591854830068
 10
-0.4038110069233472
 20
-0.6434609005260171
 10
-0.4039740204531902
 20
-0.6436444428979718
 10
-0.4040984553500247
 20
-0.64386224895976
 10
-0.4041748911624988
 20
-0.6441011654529826
 10
-0.4042000000012229
 20
-0.6443453595540052
 10
-0.4042000000011505
 20
-0.6499200571420164
 42
0.4142135623694323
 10
-0.4030000000012226
 20
-0.6511200571419295
 10
-0.3970000000012229
 20
-0.6511200571419295
 42
0.4142135623755589
 10
-0.395800000001295
 20
-0.6499200571419915
  0
LWPOLYLINE
  5
E6
330
A2
100
AcDbEntity
  8
BLOCKS
  6
Continuous
100
AcDbPolyline
 90
        9
 70
   128
 43
0.0
 10
-0.5193653089612224
 20
-0.7065132498070012
 10
-0.5190862254797722
 20
-0.7094191555248921
 10
-0.5182494340087226
 20
-0.7121995427295019
 10
-0.5168957930353795
 20
-0.7147542949365101
 10
-0.5150653104677225
 20
-0.7169853676085002
 10
-0.5128352220587784
 20
-0.7188151953222456
 10
-0.5102794855887226
 20
-0.7201694911495014
 10
-0.5074997089267665
 20
-0.7210062825733093
 10
-0.5045931926662226
 20
-0.7212853661020012
  0
ARC
  5
E7
330
A2
100
AcDbEntity
  8
BLOCKS
  6
Continuous
100
AcDbCircle
 10
-0.5900000000012224
 20
-0.7919200571420016
 30
0.0
 40
0.0119200571420001
100
AcDbArc
 50
180.0
 51
270.0
  0
LWPOLYLINE
  5
E8
330
A2
100
AcDbEntity
  8
BLOCKS
  6
Continuous
100
AcDbPolyline
 90
       10
 70
   128
 43
0.0
 10
-0.5435429187830139
 20
-0.7159187433458226
 10
-0.5430079733367316
 20
-0.7219014266535027
 10
-0.5414003561971192
 20
-0.7273805164961794
 10
-0.5401700659015863
 20
-0.7300410448428807
 10
-0.5386912080011931
 20
-0.7325415635561399
 10
-0.5350633647620669
 20
-0.73698342192422
 10
-0.530621465330313
 20
-0.7406112923228153
 10
-0.5254604593552018
 20
-0.7433204133379855
 10
-0.5199813426386642
 20
-0.7449280353376122
 10
-0.513998686204852
 20
-0.7454629759237993
  0
LWPOLYLINE
  5
E9
330
A2
100
AcDbEntity
  8
BLOCKS
100
AcDbPolyline
 90
       18
 70
     1
 43
0.0
 10
0.1041999999987783
 20
-0.3692596073940007
 10
0.1041748911600541
 20
-0.3690154132929615
 10
0.1040984553475801
 20
-0.3687764967996327
 10
0.103974020450745
 20
-0.3685586907375341
 10
0.1038110069217748
 20
-0.3683751483659984
 10
0.0978110069217692
 20
-0.3628734333229926
 10
0.0975711342485363
 20
-0.3627025224301849
 10
0.0972577733534058
 20
-0.3625859056197169
 10
0.0968910940052138
 20
-0.3625628444503098
 10
0.0965168894043825
 20
-0.3626594370019893
 10
0.0961927938410517
 20
-0.3628699631764499
 10
0.0959619748159233
 20
-0.363155809532945
 10
0.0958361455956998
 20
-0.3634655861272478
 10
0.0957999999989426
 20
-0.3637578923496755
 10
0.0957999999988508
 20
-0.6499200571080013
 42
0.4142135623728177
 10
0.0969999999987781
 20
-0.651120057107928
 10
0.1029999999987783
 20
-0.651120057107928
 42
0.4142135623729841
 10
0.1041999999987058
 20
-0.6499200571080013
  0
LWPOLYLINE
  5
EA
330
A2
100
AcDbEntity
  8
BLOCKS
100
AcDbPolyline
 90
       18
 70
     1
 43
0.0
 10
0.1291999999987783
 20
-0.3921834200740033
 10
0.1291748911600538
 20
-0.3919392259729648
 10
0.1290984553475806
 20
-0.3917003094796286
 10
0.1289740204507461
 20
-0.3914825034175368
 10
0.1288110069217839
 20
-0.3912989610460062
 10
0.1228110069217828
 20
-0.3857972460030044
 10
0.1225711342485363
 20
-0.3856263351101865
 10
0.1222577733534049
 20
-0.3855097182997161
 10
0.1218910940052126
 20
-0.3854866571303097
 10
0.1215168894043822
 20
-0.3855832496819875
 10
0.1211927938410523
 20
-0.3857937758564503
 10
0.1209619748159241
 20
-0.3860796222129448
 10
0.1208361455956998
 20
-0.3863893988072465
 10
0.1207999999989425
 20
-0.3866817050296771
 10
0.1207999999988508
 20
-0.6499200571080013
 42
0.4142135623728177
 10
0.1219999999987783
 20
-0.651120057107928
 10
0.1279999999987786
 20
-0.651120057107928
 42
0.4142135623728731
 10
0.1291999999987059
 20
-0.6499200571080013
  0
LWPOLYLINE
  5
EB
330
A2
100
AcDbEntity
  8
BLOCKS
100
AcDbPolyline
 90
       18
 70
     1
 43
0.0
 10
0.1541999999987783
 20
-0.4151072327539993
 10
0.1541748911600541
 20
-0.414863038652963
 10
0.1540984553475812
 20
-0.4146241221596313
 10
0.153974020450747
 20
-0.4144063160975373
 10
0.1538110069217726
 20
-0.4142227737259935
 10
0.1478110069217803
 20
-0.4087210586830014
 10
0.1475711342485332
 20
-0.4085501477901824
 10
0.1472577733534053
 20
-0.4084335309797166
 10
0.1468910940052137
 20
-0.4084104698103113
 10
0.1465168894043816
 20
-0.4085070623619885
 10
0.146192793841052
 20
-0.4087175885364509
 10
0.145961974815923
 20
-0.4090034348929476
 10
0.1458361455957004
 20
-0.4093132114872481
 10
0.1457999999989423
 20
-0.4096055177096777
 10
0.1457999999988508
 20
-0.6499200571080013
 42
0.4142135623728455
 10
0.1469999999987783
 20
-0.651120057107928
 10
0.1529999999987786
 20
-0.651120057107928
 42
0.414213562373012
 10
0.1541999999987058
 20
-0.6499200571080013
  0
LWPOLYLINE
  5
EC
330
A2
100
AcDbEntity
  8
BLOCKS
100
AcDbPolyline
 90
       16
 70
     1
 43
0.0
 10
-0.4307314107717952
 20
-0.6182558819459122
 10
-0.4306826276089101
 20
-0.6178762656372698
 10
-0.43076366367237
 20
-0.6174799667142845
 10
-0.4309717704156674
 20
-0.6171331075737982
 10
-0.431264285551472
 20
-0.6168862812500402
 10
-0.4315830017318692
 20
-0.6167529278900787
 10
-0.4318819996752171
 20
-0.6167150811630023
 10
-0.4480000000012286
 20
-0.6167150811630746
 42
0.4142135623717632
 10
-0.4492000000011504
 20
-0.6179150811630025
 10
-0.4492000000011504
 20
-0.623915081163002
 42
0.4142135623754815
 10
-0.4480000000012116
 20
-0.6251150811629281
 10
-0.4384254138133498
 20
-0.6251150811628367
 10
-0.4379902993652297
 20
-0.6250334171662815
 10
-0.4376144068912228
 20
-0.6247995401900028
 10
-0.4310709927532236
 20
-0.6187995401900014
 10
-0.4308761948593253
 20
-0.6185695707889585
  0
LWPOLYLINE
  5
ED
330
A2
100
AcDbEntity
  8
BLOCKS
100
AcDbPolyline
 90
       18
 70
     1
 43
0.0
 10
-0.3708000000013864
 20
-0.6159198318296757
 10
-0.3708361455981444
 20
-0.6156275256072474
 10
-0.3709619748183667
 20
-0.6153177490129491
 10
-0.3711927938434952
 20
-0.6150319026564512
 10
-0.3715168894068269
 20
-0.6148213764819906
 10
-0.3718910940076572
 20
-0.6147247839303112
 10
-0.372257773355847
 20
-0.6147478450997165
 10
-0.3725711342509797
 20
-0.6148644619101833
 10
-0.372811006924222
 20
-0.6150353728030013
 10
-0.37881100692422
 20
-0.6205370878469989
 10
-0.378974020453191
 20
-0.6207206302179725
 10
-0.3790984553500241
 20
-0.620938436279759
 10
-0.3791748911624984
 20
-0.6211773527729804
 10
-0.3792000000012229
 20
-0.6214215468740009
 10
-0.3792000000011504
 20
-0.6499200571420046
 42
0.4142135623724512
 10
-0.3780000000012225
 20
-0.6511200571419295
 10
-0.3720000000012227
 20
-0.6511200571419295
 42
0.4142135623738943
 10
-0.370800000001295
 20
-0.6499200571419987
  0
LWPOLYLINE
  5
EE
330
A2
100
AcDbEntity
  8
BLOCKS
100
AcDbPolyline
 90
       18
 70
     1
 43
0.0
 10
-0.3458000000013871
 20
-0.5929960191496782
 10
-0.3458361455981447
 20
-0.5927037129272481
 10
-0.3459619748183673
 20
-0.5923939363329458
 10
-0.3461927938434943
 20
-0.5921080899764525
 10
-0.3465168894068273
 20
-0.591897563801989
 10
-0.3468910940076577
 20
-0.5918009712503113
 10
-0.347257773355849
 20
-0.5918240324197161
 10
-0.3475711342509791
 20
-0.5919406492301841
 10
-0.3478110069242247
 20
-0.5921115601230025
 10
-0.3538110069242283
 20
-0.5976132751670065
 10
-0.3539740204531907
 20
-0.5977968175379727
 10
-0.3540984553500255
 20
-0.5980146235997631
 10
-0.3541748911624978
 20
-0.5982535400929799
 10
-0.3542000000012226
 20
-0.5984977341940016
 10
-0.3542000000011503
 20
-0.6499200571420028
 42
0.4142135623728177
 10
-0.353000000001223
 20
-0.6511200571419295
 10
-0.3470000000012227
 20
-0.6511200571419295
 42
0.4142135623735391
 10
-0.345800000001295
 20
-0.6499200571420005
  0
LWPOLYLINE
  5
EF
330
A2
100
AcDbEntity
  8
BLOCKS
100
AcDbPolyline
 90
       18
 70
     1
 43
0.0
 10
-0.3208000000013871
 20
-0.5700722064696759
 10
-0.3208361455981446
 20
-0.569779900247247
 10
-0.3209619748183674
 20
-0.5694701236529494
 10
-0.3211927938434951
 20
-0.569184277296451
 10
-0.3215168894068259
 20
-0.5689737511219903
 10
-0.321891094007657
 20
-0.5688771585703109
 10
-0.3222577733558498
 20
-0.5689002197397168
 10
-0.3225711342509777
 20
-0.5690168365501825
 10
-0.3228110069242209
 20
-0.5691877474429993
 10
-0.3288110069242188
 20
-0.5746894624869975
 10
-0.328974020453191
 20
-0.5748730048579734
 10
-0.3290984553500246
 20
-0.5750908109197605
 10
-0.3291748911624984
 20
-0.5753297274129796
 10
-0.329200000001223
 20
-0.5755739215140028
 10
-0.3292000000011503
 20
-0.6499200571420028
 42
0.4142135623729287
 10
-0.3280000000012228
 20
-0.6511200571419295
 10
-0.3220000000012227
 20
-0.6511200571419295
 42
0.4142135623734281
 10
-0.3208000000012951
 20
-0.6499200571420005
  0
LWPOLYLINE
  5
F0
330
A2
100
AcDbEntity
  8
BLOCKS
100
AcDbPolyline
 90
       18
 70
     1
 43
0.0
 10
-0.2958000000013866
 20
-0.547148393789679
 10
-0.2958361455981441
 20
-0.5468560875672495
 10
-0.2959619748183671
 20
-0.5465463109729473
 10
-0.296192793843495
 20
-0.5462604646164517
 10
-0.2965168894068284
 20
-0.5460499384419894
 10
-0.2968910940076581
 20
-0.545953345890311
 10
-0.2972577733558481
 20
-0.5459764070597152
 10
-0.2975711342509788
 20
-0.5460930238701855
 10
-0.2978110069242217
 20
-0.5462639347630005
 10
-0.3038110069242292
 20
-0.5517656498070096
 10
-0.3039740204531907
 20
-0.5519491921779713
 10
-0.3040984553500252
 20
-0.5521669982397617
 10
-0.3041748911624981
 20
-0.5524059147329798
 10
-0.3042000000012226
 20
-0.5526501088339973
 10
-0.3042000000011504
 20
-0.6499200571420022
 42
0.4142135623731173
 10
-0.3030000000012227
 20
-0.6511200571419295
 10
-0.2970000000012229
 20
-0.6511200571419295
 42
0.4142135623733171
 10
-0.295800000001295
 20
-0.6499200571420005
  0
LWPOLYLINE
  5
F1
330
A2
100
AcDbEntity
  8
BLOCKS
100
AcDbPolyline
 90
       18
 70
     1
 43
0.0
 10
-0.2708000000013873
 20
-0.5242245811096808
 10
-0.2708361455981445
 20
-0.5239322748872474
 10
-0.270961974818367
 20
-0.5236224982929492
 10
-0.2711927938434952
 20
-0.5233366519364524
 10
-0.2715168894068255
 20
-0.5231261257619896
 10
-0.271891094007657
 20
-0.5230295332103106
 10
-0.2722577733558504
 20
-0.5230525943797164
 10
-0.2725711342509791
 20
-0.5231692111901851
 10
-0.2728110069242085
 20
-0.5233401220829893
 10
-0.2788110069242238
 20
-0.5288418371270013
 10
-0.278974020453191
 20
-0.5290253794979703
 10
-0.2790984553500246
 20
-0.5292431855597596
 10
-0.2791748911624983
 20
-0.5294821020529805
 10
-0.279200000001223
 20
-0.5297262961540003
 10
-0.2792000000011504
 20
-0.6499530670250023
 42
0.4142135623730396
 10
-0.278000000001223
 20
-0.6511530670249295
 10
-0.2720000000012227
 20
-0.6511530670249295
 42
0.4142135623733171
 10
-0.270800000001295
 20
-0.6499530670250011
  0
LWPOLYLINE
  5
F2
330
A2
100
AcDbEntity
  8
BLOCKS
100
AcDbPolyline
 90
       18
 70
     1
 43
0.0
 10
-0.2458000000013868
 20
-0.5013007684296799
 10
-0.2458361455981445
 20
-0.5010084622072459
 10
-0.2459619748183671
 20
-0.5006986856129482
 10
-0.2461927938434964
 20
-0.5004128392564486
 10
-0.246516889406828
 20
-0.5002023130819885
 10
-0.2468910940076574
 20
-0.500105720530309
 10
-0.2472577733558495
 20
-0.5001287816997154
 10
-0.2475711342509784
 20
-0.5002453985101852
 10
-0.2478110069242271
 20
-0.5004163094030042
 10
-0.2538110069242325
 20
-0.5059180244460129
 10
-0.2539740204531898
 20
-0.5061015668175361
 10
-0.2540984553500246
 20
-0.5063193728796297
 10
-0.2541748911624985
 20
-0.5065582893729636
 10
-0.254200000001223
 20
-0.5068024834740022
 10
-0.2542000000011504
 20
-0.6499530670250016
 42
0.4142135623731506
 10
-0.253000000001223
 20
-0.6511530670249295
 10
-0.2470000000012227
 20
-0.6511530670249295
 42
0.4142135623733171
 10
-0.245800000001295
 20
-0.6499530670250011
  0
LWPOLYLINE
  5
F3
330
A2
100
AcDbEntity
  8
BLOCKS
100
AcDbPolyline
 90
       18
 70
     1
 43
0.0
 10
-0.2208000000013868
 20
-0.4783769557496771
 10
-0.2208361455981445
 20
-0.478084649527246
 10
-0.2209619748183667
 20
-0.4777748729329472
 10
-0.2211927938434953
 20
-0.4774890265764493
 10
-0.2215168894068276
 20
-0.4772785004019892
 10
-0.2218910940076579
 20
-0.4771819078503126
 10
-0.2222577733558483
 20
-0.4772049690197145
 10
-0.2225711342509797
 20
-0.4773215858301842
 10
-0.2228110069242297
 20
-0.4774924967230067
 10
-0.2288110069242222
 20
-0.4829942117659999
 10
-0.2289740204531901
 20
-0.4831777541375362
 10
-0.2290984553500242
 20
-0.4833955601996309
 10
-0.2291748911624985
 20
-0.4836344766929665
 10
-0.2292000000012226
 20
-0.4838786707940012
 10
-0.2292000000011504
 20
-0.6499530670250016
 42
0.4142135623731506
 10
-0.228000000001223
 20
-0.6511530670249295
 10
-0.2220000000012229
 20
-0.6511530670249295
 42
0.4142135623732061
 10
-0.220800000001295
 20
-0.6499530670250011
  0
LWPOLYLINE
  5
F4
330
A2
100
AcDbEntity
  8
BLOCKS
100
AcDbPolyline
 90
       18
 70
     1
 43
0.0
 10
-0.1958000000013864
 20
-0.4554531430696796
 10
-0.1958361455981445
 20
-0.4551608368472461
 10
-0.1959619748183681
 20
-0.454851060252949
 10
-0.196192793843496
 20
-0.4545652138964516
 10
-0.1965168894068287
 20
-0.4543546877219877
 10
-0.1968910940076559
 20
-0.4542580951703111
 10
-0.1972577733558487
 20
-0.4542811563397175
 10
-0.1975711342509797
 20
-0.454397773150185
 10
-0.1978110069242285
 20
-0.4545686840430068
 10
-0.2038110069242222
 20
-0.460070399085999
 10
-0.2039740204531913
 20
-0.4602539414575375
 10
-0.2040984553500249
 20
-0.4604717475196293
 10
-0.2041748911624985
 20
-0.4607106640129633
 10
-0.204200000001223
 20
-0.460954858113999
 10
-0.2042000000011504
 20
-0.6499200571420017
 42
0.4142135623731173
 10
-0.2030000000012225
 20
-0.6511200571419295
 10
-0.1970000000012229
 20
-0.6511200571419295
 42
0.4142135623732281
 10
-0.195800000001295
 20
-0.6499200571420011
  0
LWPOLYLINE
  5
F5
330
A2
100
AcDbEntity
  8
BLOCKS
100
AcDbPolyline
 90
       18
 70
     1
 43
0.0
 10
-0.1708000000013871
 20
-0.4325293303896774
 10
-0.1708361455981445
 20
-0.4322370241672479
 10
-0.1709619748183671
 20
-0.4319272475729469
 10
-0.1711927938434957
 20
-0.4316414012164519
 10
-0.1715168894068259
 20
-0.4314308750419878
 10
-0.1718910940076572
 20
-0.4313342824903117
 10
-0.1722577733558488
 20
-0.431357343659716
 10
-0.1725711342509803
 20
-0.4314739604701851
 10
-0.1728110069242176
 20
-0.4316448713629962
 10
-0.1788110069242181
 20
-0.4371465864059969
 10
-0.1789740204531901
 20
-0.4373301287775343
 10
-0.1790984553500252
 20
-0.4375479348396318
 10
-0.1791748911624983
 20
-0.4377868513329651
 10
-0.1792000000012227
 20
-0.4380310454340015
 10
-0.1792000000011504
 20
-0.649920057125001
 42
0.4142135623732063
 10
-0.178000000001223
 20
-0.6511200571249287
 10
-0.1720000000012227
 20
-0.6511200571249287
 42
0.4142135623732284
 10
-0.170800000001295
 20
-0.649920057125001
  0
LWPOLYLINE
  5
F6
330
A2
100
AcDbEntity
  8
BLOCKS
100
AcDbPolyline
 90
       18
 70
     1
 43
0.0
 10
-0.1458000000013865
 20
-0.4096055177096782
 10
-0.1458361455981449
 20
-0.4093132114872481
 10
-0.1459619748183675
 20
-0.4090034348929465
 10
-0.1461927938434968
 20
-0.4087175885364525
 10
-0.1465168894068266
 20
-0.4085070623619885
 10
-0.1468910940076559
 20
-0.4084104698103107
 10
-0.1472577733558487
 20
-0.4084335309797166
 10
-0.1475711342509793
 20
-0.4085501477901836
 10
-0.1478110069242243
 20
-0.408721058683002
 10
-0.153811006924217
 20
-0.4142227737259948
 10
-0.1539740204531907
 20
-0.4144063160975361
 10
-0.1540984553500249
 20
-0.4146241221596296
 10
-0.1541748911624982
 20
-0.4148630386529641
 10
-0.154200000001223
 20
-0.415107232754001
 10
-0.1542000000011504
 20
-0.6499200571080026
 42
0.4142135623726512
 10
-0.153000000001223
 20
-0.651120057107928
 10
-0.1470000000012227
 20
-0.651120057107928
 42
0.4142135623732061
 10
-0.145800000001295
 20
-0.6499200571080002
  0
LWPOLYLINE
  5
F7
330
A2
100
AcDbEntity
  8
BLOCKS
100
AcDbPolyline
 90
       18
 70
     1
 43
0.0
 10
-0.1208000000013868
 20
-0.3866817050296771
 10
-0.1208361455981448
 20
-0.3863893988072471
 10
-0.1209619748183667
 20
-0.3860796222129465
 10
-0.1211927938434961
 20
-0.3857937758564498
 10
-0.1215168894068253
 20
-0.3855832496819875
 10
-0.121891094007657
 20
-0.3854866571303097
 10
-0.1222577733558495
 20
-0.3855097182997156
 10
-0.1225711342509791
 20
-0.3856263351101853
 10
-0.1228110069242244
 20
-0.3857972460030021
 10
-0.1288110069242269
 20
-0.3912989610460045
 10
-0.1289740204531898
 20
-0.3914825034175346
 10
-0.1290984553500237
 20
-0.3917003094796274
 10
-0.1291748911624982
 20
-0.3919392259729642
 10
-0.129200000001223
 20
-0.3921834200740022
 10
-0.1292000000011504
 20
-0.6499200571080026
 42
0.4142135623725957
 10
-0.128000000001223
 20
-0.651120057107928
 10
-0.1220000000012227
 20
-0.651120057107928
 42
0.4142135623732061
 10
-0.120800000001295
 20
-0.6499200571080002
  0
LWPOLYLINE
  5
F8
330
A2
100
AcDbEntity
  8
BLOCKS
100
AcDbPolyline
 90
       18
 70
     1
 43
0.0
 10
-0.0958000000013874
 20
-0.3637578923496739
 10
-0.0958361455981447
 20
-0.3634655861272467
 10
-0.0959619748183676
 20
-0.3631558095329455
 10
-0.0961927938434974
 20
-0.3628699631764499
 10
-0.0965168894068276
 20
-0.3626594370019893
 10
-0.0968910940076572
 20
-0.3625628444503104
 10
-0.097257773355849
 20
-0.3625859056197169
 10
-0.097571134250978
 20
-0.3627025224301837
 10
-0.0978110069242155
 20
-0.3628734333229965
 10
-0.1038110069242197
 20
-0.3683751483659978
 10
-0.1039740204531904
 20
-0.3685586907375358
 10
-0.1040984553500249
 20
-0.3687764967996321
 10
-0.1041748911624984
 20
-0.3690154132929632
 10
-0.1042000000012229
 20
-0.3692596073940024
 10
-0.1042000000011504
 20
-0.6499200571080026
 42
0.4142135623725956
 10
-0.1030000000012228
 20
-0.651120057107928
 10
-0.0970000000012229
 20
-0.651120057107928
 42
0.4142135623733172
 10
-0.095800000001295
 20
-0.6499200571080002
  0
LWPOLYLINE
  5
F9
330
A2
100
AcDbEntity
  8
BLOCKS
100
AcDbPolyline
 90
       18
 70
     1
 43
0.0
 10
-0.070800000000387
 20
-0.3408340796686724
 10
-0.0708361455971735
 20
-0.3405417734462475
 10
-0.0709619748174771
 20
-0.3402319968519686
 10
-0.0711927938427169
 20
-0.3399461504955224
 10
-0.0715168894061481
 20
-0.3397356243211664
 10
-0.0718910940070248
 20
-0.3396390317696512
 10
-0.0722577733551759
 20
-0.3396620929392589
 10
-0.0725711342501785
 20
-0.3397787097499548
 10
-0.0728110069232247
 20
-0.3399496206430024
 10
-0.0788110069242228
 20
-0.3454513356860019
 10
-0.0789740204531901
 20
-0.3456348780575349
 10
-0.0790984553500249
 20
-0.3458526841196312
 10
-0.0791748911624987
 20
-0.3460916006129622
 10
-0.0792000000012232
 20
-0.3463357947139997
 10
-0.0792000000011504
 20
-0.6499200571090029
 42
0.4142135623725622
 10
-0.0780000000012225
 20
-0.6511200571089285
 10
-0.0720000000002227
 20
-0.6511200571089285
 42
0.4142135623731729
 10
-0.0708000000002952
 20
-0.6499200571090006
  0
LWPOLYLINE
  5
FA
330
A2
100
AcDbEntity
  8
BLOCKS
100
AcDbPolyline
 90
        8
 70
     1
 43
0.0
 10
-0.045800000001295
 20
-0.3382866515580008
 42
0.4142135623738943
 10
-0.0470000000012249
 20
-0.3370866515580724
 10
-0.0530000000002249
 20
-0.3370866515580837
 42
0.4142135623725956
 10
-0.0542000000001409
 20
-0.3382866515580019
 10
-0.0542000000001409
 20
-0.6499200571090024
 42
0.4142135623728952
 10
-0.053000000000223
 20
-0.6511200571089195
 10
-0.0470000000012229
 20
-0.6511200571089195
 42
0.4142135623731173
 10
-0.0458000000013047
 20
-0.6499200571090011
  0
LWPOLYLINE
  5
FB
330
A2
100
AcDbEntity
  8
BLOCKS
100
AcDbPolyline
 90
        8
 70
     1
 43
0.0
 10
-0.020800000001295
 20
-0.3382866515580008
 42
0.4142135623733394
 10
-0.0220000000012226
 20
-0.3370866515580724
 10
-0.0280000000012225
 20
-0.3370866515580724
 42
0.4142135623732063
 10
-0.0292000000011504
 20
-0.3382866515580003
 10
-0.0292000000011504
 20
-0.6499200571100028
 42
0.4142135623726732
 10
-0.0280000000012225
 20
-0.651120057109929
 10
-0.0220000000012229
 20
-0.651120057109929
 42
0.4142135623731171
 10
-0.020800000001295
 20
-0.649920057110001
  0
LWPOLYLINE
  5
FC
330
A2
100
AcDbEntity
  8
BLOCKS
100
AcDbPolyline
 90
        8
 70
     1
 43
0.0
 10
0.004199999998705
 20
-0.3382866515580008
 42
0.4142135623733171
 10
0.0029999999987766
 20
-0.3370866515580724
 10
-0.0030000000012237
 20
-0.3370866515580746
 42
0.4142135623729285
 10
-0.0042000000011504
 20
-0.3382866515580025
 10
-0.004200000001141
 20
-0.6499200571100005
 42
0.4142135623733946
 10
-0.0030000000012228
 20
-0.6511200571099199
 10
0.0029999999987774
 20
-0.6511200571099199
 42
0.4142135623730062
 10
0.0041999999986953
 20
-0.6499200571100018
  0
LWPOLYLINE
  5
FD
330
A2
100
AcDbEntity
  8
BLOCKS
100
AcDbPolyline
 90
        8
 70
     1
 43
0.0
 10
0.0291999999987058
 20
-0.3382866515580008
 42
0.414213562373317
 10
0.0279999999987786
 20
-0.3370866515580724
 10
0.0219999999987783
 20
-0.3370866515580724
 42
0.4142135623731173
 10
0.0207999999988508
 20
-0.3382866515580003
 10
0.0207999999988508
 20
-0.6499200571100005
 42
0.4142135623732281
 10
0.0219999999987786
 20
-0.651120057109929
 10
0.0279999999987783
 20
-0.651120057109929
 42
0.4142135623730062
 10
0.0291999999987058
 20
-0.6499200571100018
  0
LWPOLYLINE
  5
FE
330
A2
100
AcDbEntity
  8
BLOCKS
100
AcDbPolyline
 90
        8
 70
     1
 43
0.0
 10
0.0541999999976963
 20
-0.3382866515580008
 42
0.4142135623723182
 10
0.0529999999977807
 20
-0.3370866515580837
 10
0.0469999999987806
 20
-0.3370866515580724
 42
0.4142135623736723
 10
0.0457999999988508
 20
-0.3382866515580003
 10
0.0457999999988604
 20
-0.6499200571090029
 42
0.4142135623727288
 10
0.0469999999987789
 20
-0.6511200571089195
 10
0.0529999999977784
 20
-0.6511200571089195
 42
0.4142135623731173
 10
0.0541999999976963
 20
-0.6499200571090018
  0
LWPOLYLINE
  5
FF
330
A2
100
AcDbEntity
  8
BLOCKS
100
AcDbPolyline
 90
       18
 70
     1
 43
0.0
 10
0.0791999999987786
 20
-0.3463357947139997
 10
0.0791748911600544
 20
-0.3460916006129617
 10
0.0790984553475798
 20
-0.3458526841196289
 10
0.078974020450745
 20
-0.3456348780575349
 10
0.0788110069217777
 20
-0.3454513356860002
 10
0.072811006920777
 20
-0.339949620642999
 10
0.0725711342477328
 20
-0.3397787097499548
 10
0.0722577733527305
 20
-0.3396620929392589
 10
0.0718910940045791
 20
-0.3396390317696518
 10
0.0715168894037049
 20
-0.3397356243211664
 10
0.0711927938402721
 20
-0.339946150495523
 10
0.0709619748150325
 20
-0.3402319968519674
 10
0.0708361455947286
 20
-0.3405417734462475
 10
0.0707999999979424
 20
-0.3408340796686724
 10
0.0707999999978509
 20
-0.6499200571090018
 42
0.4142135623728399
 10
0.0719999999977785
 20
-0.6511200571089285
 10
0.0779999999987786
 20
-0.6511200571089285
 42
0.4142135623728952
 10
0.0791999999987058
 20
-0.6499200571090011
  0
LINE
  5
100
330
A2
100
AcDbEntity
  8
BLOCKS
  6
Continuous
100
AcDbLine
 10
-0.5435429187836136
 20
-0.7159187433480908
 30
0.0
 11
-0.543542918782754
 21
-0.0879213709510009
 31
0.0
  0
LINE
  5
101
330
A2
100
AcDbEntity
  8
BLOCKS
  6
Continuous
100
AcDbLine
 10
-0.6019200571432223
 20
-0.7919200571420016
 30
0.0
 11
-0.6019200571432223
 21
-0.0119200571442934
 31
0.0
  0
LINE
  5
102
330
A2
100
AcDbEntity
  8
BLOCKS
  6
Continuous
100
AcDbLine
 10
-0.5193653089669926
 20
-0.0973268644769996
 30
0.0
 11
-0.5193653089612224
 21
-0.7065132498117374
 31
0.0
  0
LWPOLYLINE
  5
103
330
A2
100
AcDbEntity
  8
BLOCKS
100
AcDbPolyline
 90
        8
 70
     1
 43
0.0
 10
0.4491999999987059
 20
-0.1679150811630007
 42
0.4142135623726788
 10
0.447999999998778
 20
-0.1667150811630745
 10
0.0852123351187788
 20
-0.1667150811630745
 42
0.4142135623731506
 10
0.0840123351188507
 20
-0.1679150811630029
 10
0.0840123351188513
 20
-0.1739150811629997
 42
0.4142135623730951
 10
0.0852123351187788
 20
-0.1751150811629282
 10
0.4479999999987786
 20
-0.1751150811629282
 42
0.4142135623730397
 10
0.4491999999987059
 20
-0.1739150811629997
  0
LWPOLYLINE
  5
104
330
A2
100
AcDbEntity
  8
BLOCKS
100
AcDbPolyline
 90
        8
 70
     1
 43
0.0
 10
0.4491999999987059
 20
-0.1929150811630007
 42
0.4142135623726676
 10
0.447999999998778
 20
-0.1917150811630745
 10
0.0852123351187788
 20
-0.1917150811630745
 42
0.4142135623730396
 10
0.0840123351188513
 20
-0.1929150811630029
 10
0.0840123351188507
 20
-0.198915081163002
 42
0.4142135623727623
 10
0.0852123351187783
 20
-0.2001150811629281
 10
0.4479999999987786
 20
-0.2001150811629281
 42
0.414213562373123
 10
0.4491999999987059
 20
-0.1989150811630009
  0
LWPOLYLINE
  5
105
330
A2
100
AcDbEntity
  8
BLOCKS
100
AcDbPolyline
 90
        8
 70
     1
 43
0.0
 10
0.4491999999987059
 20
-0.2179150811630007
 42
0.4142135623727621
 10
0.4479999999987786
 20
-0.2167150811630745
 10
0.0852123351187785
 20
-0.2167150811630745
 42
0.4142135623731507
 10
0.0840123351188507
 20
-0.2179150811630018
 10
0.0840123351188507
 20
-0.223915081163002
 42
0.4142135623727623
 10
0.0852123351187783
 20
-0.2251150811629281
 10
0.4479999999987786
 20
-0.2251150811629281
 42
0.414213562373123
 10
0.4491999999987059
 20
-0.2239150811630009
  0
LWPOLYLINE
  5
106
330
A2
100
AcDbEntity
  8
BLOCKS
100
AcDbPolyline
 90
        8
 70
     1
 43
0.0
 10
0.4491999999987059
 20
-0.2429150811630007
 42
0.4142135623727621
 10
0.4479999999987786
 20
-0.2417150811630745
 10
0.0852123351187785
 20
-0.2417150811630745
 42
0.4142135623730396
 10
0.0840123351188513
 20
-0.2429150811630018
 10
0.0840123351188507
 20
-0.248915081163002
 42
0.4142135623727623
 10
0.0852123351187783
 20
-0.2501150811629282
 10
0.4479999999987786
 20
-0.2501150811629282
 42
0.414213562373123
 10
0.4491999999987059
 20
-0.2489150811630009
  0
LWPOLYLINE
  5
107
330
A2
100
AcDbEntity
  8
BLOCKS
100
AcDbPolyline
 90
        8
 70
     1
 43
0.0
 10
0.4491999999987059
 20
-0.2679150811630007
 42
0.4142135623727508
 10
0.4479999999987786
 20
-0.2667150811630745
 10
0.0852123351187785
 20
-0.2667150811630745
 42
0.4142135623730396
 10
0.0840123351188513
 20
-0.2679150811630018
 10
0.0840123351188513
 20
-0.273915081163002
 42
0.4142135623727844
 10
0.0852123351187788
 20
-0.2751150811629281
 10
0.4479999999987786
 20
-0.2751150811629281
 42
0.4142135623731338
 10
0.4491999999987059
 20
-0.2739150811630009
  0
LWPOLYLINE
  5
108
330
A2
100
AcDbEntity
  8
BLOCKS
100
AcDbPolyline
 90
        8
 70
     1
 43
0.0
 10
0.4491999999987059
 20
-0.2929150811630006
 42
0.4142135623727508
 10
0.4479999999987786
 20
-0.2917150811630745
 10
0.0852123351187785
 20
-0.2917150811630745
 42
0.4142135623730396
 10
0.0840123351188513
 20
-0.2929150811630018
 10
0.0840123351188507
 20
-0.298915081163002
 42
0.4142135623727289
 10
0.0852123351187783
 20
-0.3001150811629282
 10
0.4479999999987786
 20
-0.3001150811629282
 42
0.4142135623731338
 10
0.4491999999987059
 20
-0.2989150811630008
  0
LWPOLYLINE
  5
109
330
A2
100
AcDbEntity
  8
BLOCKS
100
AcDbPolyline
 90
       16
 70
     1
 43
0.0
 10
0.4477689268507789
 20
-0.3167150811630745
 10
0.1047112927457749
 20
-0.3167150811630017
 10
0.1044122948022016
 20
-0.3167529278900782
 10
0.1040935786215826
 20
-0.3168862812500401
 10
0.1038010634855715
 20
-0.3171331075737976
 10
0.103592956742109
 20
-0.3174799667142838
 10
0.1035119206785416
 20
-0.3178762656372692
 10
0.1035607038413713
 20
-0.3182558819459109
 10
0.1037054879288829
 20
-0.3185695707889579
 10
0.1039002858227792
 20
-0.3187995401899991
 10
0.1104436999607822
 20
-0.324799540190005
 10
0.110819592435156
 20
-0.3250334171662814
 10
0.1112547068829053
 20
-0.3251150811628372
 10
0.4477689268507783
 20
-0.3251150811629281
 42
0.4142135623731339
 10
0.4489689268507062
 20
-0.3239150811630009
 10
0.4489689268507062
 20
-0.3179150811630007
 42
0.4142135623727067
  0
LWPOLYLINE
  5
10A
330
A2
100
AcDbEntity
  8
BLOCKS
100
AcDbPolyline
 90
       16
 70
     1
 43
0.0
 10
0.4491999999987059
 20
-0.3429150811630007
 42
0.4142135623726954
 10
0.4479999999987788
 20
-0.3417150811630745
 10
0.1319755183227755
 20
-0.3417150811630018
 10
0.1316765203792022
 20
-0.3417529278900781
 10
0.1313578041985815
 20
-0.3418862812500402
 10
0.1310652890625715
 20
-0.3421331075737987
 10
0.130857182319109
 20
-0.3424799667142855
 10
0.130776146255541
 20
-0.3428762656372692
 10
0.1308249294183716
 20
-0.343255881945912
 10
0.1309697135058824
 20
-0.3435695707889574
 10
0.1311645113997787
 20
-0.3437995401900042
 10
0.1377079255387798
 20
-0.3497995401900027
 10
0.1380838180122845
 20
-0.350033417166282
 10
0.1385189324599037
 20
-0.3501150811628372
 10
0.447999999998778
 20
-0.3501150811629281
 42
0.4142135623731784
 10
0.4491999999987059
 20
-0.3489150811630009
  0
LWPOLYLINE
  5
10B
330
A2
100
AcDbEntity
  8
BLOCKS
100
AcDbPolyline
 90
       16
 70
     1
 43
0.0
 10
0.4488050053637063
 20
-0.3679150811630007
 42
0.4142135623724015
 10
0.4476050053637801
 20
-0.3667150811630745
 10
0.1592397438999964
 20
-0.3667150811627153
 10
0.1589407459563566
 20
-0.3667529278898269
 10
0.1586220297758737
 20
-0.3668862812498168
 10
0.1583295146399519
 20
-0.367133107573627
 10
0.1581214078965013
 20
-0.36747996671419
 10
0.1580403718328591
 20
-0.3678762656372612
 10
0.158089154995549
 20
-0.3682558819459831
 10
0.1582339390828841
 20
-0.3685695707891006
 10
0.1584287369752769
 20
-0.3687995401886257
 10
0.1649721511157787
 20
-0.3747995401900011
 10
0.1653480435897859
 20
-0.375033417166282
 10
0.1657831580379028
 20
-0.3751150811628372
 10
0.4476050053637781
 20
-0.3751150811629282
 42
0.4142135623731507
 10
0.4488050053637063
 20
-0.3739150811630009
  0
LWPOLYLINE
  5
10C
330
A2
100
AcDbEntity
  8
BLOCKS
100
AcDbPolyline
 90
       18
 70
     1
 43
0.0
 10
0.1791999999987783
 20
-0.4380310454340015
 10
0.1791748911600539
 20
-0.4377868513329662
 10
0.1790984553475812
 20
-0.4375479348396318
 10
0.178974020450745
 20
-0.4373301287775365
 10
0.178811006921774
 20
-0.4371465864059952
 10
0.1728110069217757
 20
-0.431644871362999
 10
0.1725711342485363
 20
-0.4314739604701846
 10
0.1722577733534035
 20
-0.4313573436597153
 10
0.1718910940052126
 20
-0.4313342824903123
 10
0.1715168894043825
 20
-0.4314308750419872
 10
0.171192793841052
 20
-0.4316414012164506
 10
0.170961974815923
 20
-0.4319272475729469
 10
0.1708361455957004
 20
-0.4322370241672485
 10
0.1707999999989425
 20
-0.4325293303896757
 10
0.1707999999988508
 20
-0.6499200571249998
 42
0.4142135623735057
 10
0.1719999999987783
 20
-0.6511200571249287
 10
0.1779999999987783
 20
-0.6511200571249287
 42
0.4142135623730674
 10
0.1791999999987058
 20
-0.649920057125002
  0
LINE
  5
10D
330
A2
100
AcDbEntity
  8
BLOCKS
  6
Continuous
100
AcDbLine
 10
-0.5139986862073114
 20
-0.0583771383284147
 30
0.0
 11
0.5139986861993459
 21
-0.0583771383711724
 31
0.0
  0
LINE
  5
10E
330
A2
100
AcDbEntity
  8
BLOCKS
  6
Continuous
100
AcDbLine
 10
-0.5900000000012224
 20
0.0
 30
0.0
 11
0.5900000000012221
 21
0.0
 31
0.0
  0
LINE
  5
10F
330
A2
100
AcDbEntity
  8
BLOCKS
  6
Continuous
100
AcDbLine
 10
0.5045931926712499
 20
-0.0825547481820013
 30
0.0
 11
-0.5045931926709598
 21
-0.0825547481820013
 31
0.0
  0
LINE
  5
110
330
A2
100
AcDbEntity
  8
BLOCKS
  6
Continuous
100
AcDbLine
 10
0.5139986862048676
 20
-0.7454629759243927
 30
0.0
 11
-0.5139986861922222
 21
-0.7454629759235332
 31
0.0
  0
LINE
  5
111
330
A2
100
AcDbEntity
  8
BLOCKS
  6
Continuous
100
AcDbLine
 10
0.5899999999987779
 20
-0.8038401142840006
 30
0.0
 11
-0.5900000000012224
 21
-0.8038401142840006
 31
0.0
  0
LINE
  5
112
330
A2
100
AcDbEntity
  8
BLOCKS
  6
Continuous
100
AcDbLine
 10
-0.5045931926662223
 20
-0.7212853661077702
 30
0.0
 11
0.504593192668516
 21
-0.7212853661020019
 31
0.0
  0
ENDBLK
  5
114
330
A2
100
AcDbEntity
  8
0
100
AcDbBlockEnd
  0
BLOCK
  5
122
330
121
100
AcDbEntity
  8
0
100
AcDbBlockBegin
  2
_DotSmall
 70
     0
 10
0.0
 20
0.0
 30
0.0
  3
_DotSmall
  1

  0
LWPOLYLINE
  5
123
330
121
100
AcDbEntity
  8
0
  6
ByBlock
 62
     0
100
AcDbPolyline
 90
        2
 70
     1
 43
0.5
 10
-0.0625
 20
0.0
 42
1.0
 10
0.0625
 20
0.0
 42
1.0
  0
ENDBLK
  5
124
330
121
100
AcDbEntity
  8
0
100
AcDbBlockEnd
  0
ENDSEC
  0
SECTION
  2
ENTITIES
  0
ARC
  5
26
330
2
100
AcDbEntity
  8
SANINDUSA
100
AcDbCircle
 10
0.5901730273690001
 20
0.1
 30
0.0
 40
0.01
100
AcDbArc
 50
1.000000106427112
 51
90.00000001175738
  0
LINE
  5
27
330
2
100
AcDbEntity
  8
SANINDUSA
100
AcDbLine
 10
0.6019200571420002
 20
0.0
 30
0.0
 11
0.5899999999999995
 21
0.0
 31
0.0
  0
LINE
  5
28
330
2
100
AcDbEntity
  8
SANINDUSA
100
AcDbLine
 10
0.6001715043202398
 20
0.1001745240665855
 30
0.0
 11
0.6019200571420002
 21
0.0
 31
0.0
  0
ARC
  5
29
330
2
100
AcDbEntity
  8
SANINDUSA
100
AcDbCircle
 10
-0.5901730273690004
 20
0.1
 30
0.0
 40
0.01
100
AcDbArc
 50
89.99999998824263
 51
179.0000000020439
  0
LINE
  5
2A
330
2
100
AcDbEntity
  8
SANINDUSA
100
AcDbLine
 10
-0.5900000000000007
 20
0.0
 30
0.0
 11
-0.6019200571420002
 21
0.0
 31
0.0
  0
LINE
  5
2B
330
2
100
AcDbEntity
  8
SANINDUSA
100
AcDbLine
 10
-0.6019200571420002
 20
0.0
 30
0.0
 11
-0.6001715043200006
 21
0.1001745240640002
 31
0.0
  0
LINE
  5
2C
330
2
100
AcDbEntity
  8
SANINDUSA
100
AcDbLine
 10
0.5899999999999995
 20
0.0
 30
0.0
 11
-0.5900000000000007
 21
0.0
 31
0.0
  0
LINE
  5
2D
330
2
100
AcDbEntity
  8
SANINDUSA
100
AcDbLine
 10
-0.5900000000000007
 20
0.11
 30
0.0
 11
0.5899999999999995
 21
0.11
 31
0.0
  0
INSERT
  5
44
330
2
100
AcDbEntity
  8
SANINDUSA
100
AcDbBlockReference
  2
107212AL
 10
1.31239919728939
 20
0.0
 30
0.0
  0
INSERT
  5
115
330
2
100
AcDbEntity
  8
SANINDUSA
100
AcDbBlockReference
  2
107212PL
 10
-1.602755488720787
 20
0.3806662475241724
 30
0.0
  0
LINE
  5
428
330
2
100
AcDbEntity
  8
SANINDUSA
100
AcDbLine
 10
2.012076567541624
 20
0.1150000000000019
 30
0.0
 11
2.628061902608131
 21
0.1150000000000019
 31
0.0
  0
LWPOLYLINE
  5
42B
330
2
100
AcDbEntity
  8
SANINDUSA
100
AcDbPolyline
 90
        6
 70
   128
 43
0.0
 10
2.405568347672443
 20
0.036855413762743
 10
2.405290816766802
 20
0.0368505638688944
 10
2.405044577212576
 20
0.0368433530844245
 10
2.404857452000821
 20
0.0368345984564385
 10
2.404750159076362
 20
0.0368252720830688
 10
2.404729422373299
 20
0.0368193065775554
  0
LWPOLYLINE
  5
42C
330
2
100
AcDbEntity
  8
SANINDUSA
100
AcDbPolyline
 90
        9
 70
   128
 43
0.0
 10
2.404728613018875
 20
0.0327784876740716
 10
2.404776013082852
 20
0.0327734193629786
 10
2.40491284758095
 20
0.0327707484296471
 10
2.405123665055681
 20
0.032770777151608
 10
2.405384790187187
 20
0.0327735033986565
 10
2.405666786312082
 20
0.0327786199981702
 10
2.405937792242085
 20
0.0327855470218779
 10
2.406167170907007
 20
0.032793498316868
 10
2.406194101394895
 20
0.0327946294436597
  0
LWPOLYLINE
  5
42D
330
2
100
AcDbEntity
  8
SANINDUSA
100
AcDbPolyline
 90
        4
 70
   128
 43
0.0
 10
2.557068407165103
 20
0.0359473062308976
 10
2.533096646500299
 20
0.0351148056936236
 10
2.43719141654472
 20
0.0323394407389506
 10
2.398682240248123
 20
0.0314758428487235
  0
LWPOLYLINE
  5
42F
330
2
100
AcDbEntity
  8
SANINDUSA
100
AcDbPolyline
 90
        4
 70
   128
 43
0.0
 10
2.372570618260816
 20
0.0304513987781925
 10
2.396551246772607
 20
0.0309290493803124
 10
2.492461551310003
 20
0.0334235992814561
 10
2.55706988536766
 20
0.0356300169165789
  0
LWPOLYLINE
  5
431
330
2
100
AcDbEntity
  8
SANINDUSA
100
AcDbPolyline
 90
        4
 70
   128
 43
0.0
 10
2.327550349952658
 20
0.0289845506778434
 10
2.351531835156607
 20
0.0293695213337619
 10
2.447446927905004
 20
0.0315273978276801
 10
2.557069686280129
 20
0.0352066580445503
  0
LINE
  5
433
330
2
100
AcDbEntity
  8
SANINDUSA
100
AcDbLine
 10
2.628480246738048
 20
0.0000000000000018
 30
0.0
 11
2.282150890944966
 21
0.0000000000000018
 31
0.0
  0
ARC
  5
434
330
2
100
AcDbEntity
  8
SANINDUSA
100
AcDbCircle
 10
2.192918596918187
 20
8.694817586646186
 30
0.0
 40
8.667803205006091
100
AcDbArc
 50
270.359002786786
 51
272.4133863336731
  0
LWPOLYLINE
  5
435
330
2
100
AcDbEntity
  8
SANINDUSA
100
AcDbPolyline
 90
        4
 70
   128
 43
0.0
 10
2.484136559215445
 20
0.0379700224308354
 10
2.42267764152457
 20
0.0372606984537233
 10
2.217014906141818
 20
0.0360323231485259
 10
2.012125200582405
 20
0.0354520129995481
  0
LINE
  5
436
330
2
100
AcDbEntity
  8
SANINDUSA
100
AcDbLine
 10
1.960566662721938
 20
0.1150000000000019
 30
0.0
 11
2.012076567541624
 21
0.1150000000000019
 31
0.0
  0
LINE
  5
438
330
2
100
AcDbEntity
  8
SANINDUSA
100
AcDbLine
 10
1.963464440200808
 20
0.1007764571353091
 30
0.0
 11
1.980625234408933
 21
0.0367315012523496
 31
0.0
  0
LWPOLYLINE
  5
439
330
2
100
AcDbEntity
  8
SANINDUSA
100
AcDbPolyline
 90
        8
 70
   128
 43
0.0
 10
1.975055550116277
 20
0.1038822856765401
 10
1.974196748393875
 20
0.1062590286141713
 10
1.97295373577938
 20
0.1084593392809179
 10
1.971356630546112
 20
0.1104178341784964
 10
1.969455372920617
 20
0.1120826665518839
 10
1.967300025676273
 20
0.1134021079663799
 10
1.964954875414565
 20
0.1143437648253294
 10
1.960566662721941
 20
0.1150000000000037
  0
LINE
  5
43A
330
2
100
AcDbEntity
  8
SANINDUSA
100
AcDbLine
 10
2.057987579204794
 20
0.0000000000000018
 30
0.0
 11
1.922104449860825
 21
0.0000000000000018
 31
0.0
  0
LINE
  5
43B
330
2
100
AcDbEntity
  8
SANINDUSA
100
AcDbLine
 10
2.053828823717687
 20
0.0120000000000003
 30
0.0
 11
1.932280523790549
 21
0.012
 31
0.0
  0
LINE
  5
43C
330
2
100
AcDbEntity
  8
SANINDUSA
100
AcDbLine
 10
1.920104754470511
 20
0.002034904812876
 30
0.0
 11
1.921905063221218
 21
0.105174524064375
 31
0.0
  0
LINE
  5
43D
330
2
100
AcDbEntity
  8
SANINDUSA
100
AcDbLine
 10
1.932280523790549
 20
0.012
 30
0.0
 11
1.933868934699015
 21
0.1030000000000014
 31
0.0
  0
ARC
  5
43E
330
2
100
AcDbEntity
  8
SANINDUSA
100
AcDbCircle
 10
1.922104449860825
 20
0.002
 30
0.0
 40
0.002
100
AcDbArc
 50
178.9999999996336
 51
270.0
  0
LINE
  5
43F
330
2
100
AcDbEntity
  8
SANINDUSA
100
AcDbLine
 10
1.960566662721943
 20
0.1030000000000014
 30
0.0
 11
1.933868934699015
 21
0.1030000000000014
 31
0.0
  0
LINE
  5
440
330
2
100
AcDbEntity
  8
SANINDUSA
100
AcDbLine
 10
1.960566662721938
 20
0.1150000000000019
 30
0.0
 11
1.931903540172783
 21
0.1150000000000019
 31
0.0
  0
ARC
  5
441
330
2
100
AcDbEntity
  8
SANINDUSA
100
AcDbCircle
 10
1.931903540172783
 20
0.1050000000000018
 30
0.0
 40
0.01
100
AcDbArc
 50
90.0
 51
178.9999999999462
  0
ARC
  5
442
330
2
100
AcDbEntity
  8
SANINDUSA
100
AcDbCircle
 10
1.960566662721943
 20
0.1000000000000018
 30
0.0
 40
0.0029999999999997
100
AcDbArc
 50
14.99999999999148
 51
90.0
  0
LWPOLYLINE
  5
443
330
2
100
AcDbEntity
  8
SANINDUSA
100
AcDbPolyline
 90
        9
 70
   128
 43
0.0
 10
2.185408706476788
 20
0.0352260662234576
 10
2.185847540715405
 20
0.0352115357376252
 10
2.186284136663227
 20
0.0351649727777513
 10
2.186716156265462
 20
0.0350866266973904
 10
2.187141285974532
 20
0.0349769170547816
 10
2.187557249139555
 20
0.0348364313660423
 10
2.187961818198242
 20
0.034665921958896
 10
2.18835282660592
 20
0.0344663019438249
 10
2.188728180437803
 20
0.0342386403241826
  0
LWPOLYLINE
  5
444
330
2
100
AcDbEntity
  8
SANINDUSA
100
AcDbPolyline
 90
        9
 70
   128
 43
0.0
 10
2.18540810925114
 20
0.0272780271664001
 10
2.185846983197171
 20
0.0272620092253047
 10
2.18628350987036
 20
0.0272139333481928
 10
2.186715350616351
 20
0.0271340570974726
 10
2.187140191885251
 20
0.027022808403332
 10
2.187555757626256
 20
0.0268807832711437
 10
2.187959821481414
 20
0.0267087425884156
 10
2.188350218713154
 20
0.0265076080484087
 10
2.188724857801654
 20
0.0262784572122373
  0
LINE
  5
445
330
2
100
AcDbEntity
  8
SANINDUSA
100
AcDbLine
 10
2.202069235074881
 20
0.0000000000000018
 30
0.0
 11
2.13806923507488
 21
0.0000000000000018
 31
0.0
  0
LWPOLYLINE
  5
446
330
2
100
AcDbEntity
  8
SANINDUSA
100
AcDbPolyline
 90
        7
 70
   128
 43
0.0
 10
2.192041797666294
 20
0.0252788886216845
 10
2.19204179114483
 20
0.0252788220048515
 10
2.191617374150824
 20
0.0252622097618078
 10
2.190398587269707
 20
0.0252478406156697
 10
2.189292078345439
 20
0.0252406624949222
 10
2.187108434751309
 20
0.0252327735381883
 10
2.184569353854628
 20
0.0252298180644985
  0
LINE
  5
447
330
2
100
AcDbEntity
  8
SANINDUSA
100
AcDbLine
 10
2.140069235074882
 20
0.002
 30
0.0
 11
2.200069235074882
 21
0.002
 31
0.0
  0
LWPOLYLINE
  5
448
330
2
100
AcDbEntity
  8
SANINDUSA
100
AcDbPolyline
 90
        9
 70
   128
 43
0.0
 10
2.076415863792104
 20
0.0339529203624798
 10
2.076789982439301
 20
0.0341827752948748
 10
2.077179922169085
 20
0.0343846667317157
 10
2.0775835939419
 20
0.0345575130720036
 10
2.077998835150953
 20
0.0347003883191942
 10
2.07842342120805
 20
0.0348125270420579
 10
2.078855077461495
 20
0.0348933284753744
 10
2.079291491382115
 20
0.0349423597384194
 10
2.07973032495233
 20
0.0349593581540662
  0
LWPOLYLINE
  5
449
330
2
100
AcDbEntity
  8
SANINDUSA
100
AcDbPolyline
 90
        9
 70
   128
 43
0.0
 10
2.076413818016177
 20
0.0262649683109353
 10
2.076788407236396
 20
0.026494200728147
 10
2.077178760667822
 20
0.0266954202253274
 10
2.0775827870268
 20
0.0268675487869942
 10
2.077998321778205
 20
0.0270096642497483
 10
2.078423138731719
 20
0.0271210052426946
 10
2.078854961968455
 20
0.0272009752664067
 10
2.079291478033989
 20
0.0272491458886239
 10
2.079730348332483
 20
0.0272652590395287
  0
LINE
  5
44A
330
2
100
AcDbEntity
  8
SANINDUSA
100
AcDbLine
 10
2.129567308751573
 20
0.0000000000000018
 30
0.0
 11
2.057987579204794
 21
0.0000000000000018
 31
0.0
  0
LINE
  5
44B
330
2
100
AcDbEntity
  8
SANINDUSA
100
AcDbLine
 10
2.119028120727564
 20
0.0250137007115609
 30
0.0
 11
2.01153486336337
 21
0.0250137106956318
 31
0.0
  0
LWPOLYLINE
  5
44C
330
2
100
AcDbEntity
  8
SANINDUSA
100
AcDbPolyline
 90
        6
 70
   128
 43
0.0
 10
2.080569351270461
 20
0.0252194878389574
 10
2.078102558713618
 20
0.0252217465992035
 10
2.07590669104985
 20
0.0252287496313616
 10
2.074790005081951
 20
0.025235276411494
 10
2.073548323877504
 20
0.0252485397859109
 10
2.073097286983417
 20
0.0252646769694675
  0
LINE
  5
44D
330
2
100
AcDbEntity
  8
SANINDUSA
100
AcDbLine
 10
2.113727038222872
 20
0.0130136963224955
 30
0.0
 11
2.068289441998025
 21
0.0130137135205742
 31
0.0
  0
LWPOLYLINE
  5
451
330
2
100
AcDbEntity
  8
SANINDUSA
100
AcDbPolyline
 90
       10
 70
   128
 43
0.0
 10
2.008828661723752
 20
0.0353100663669275
 10
2.005923894349699
 20
0.0355136481053014
 10
2.003079686497409
 20
0.0361366067722829
 10
2.000356340052396
 20
0.0371657346192901
 10
1.997811594439523
 20
0.0385792124429318
 10
1.995499402452179
 20
0.0403470721880117
 10
1.99346878636433
 20
0.0424318323195999
 10
1.99176279857763
 20
0.0447892924932321
 10
1.990417608839708
 20
0.0473694706749316
 10
1.989461737386005
 20
0.0501176628425529
  0
ARC
  5
452
330
2
100
AcDbEntity
  8
SANINDUSA
100
AcDbCircle
 10
2.011534860850186
 20
0.0450137106956318
 30
0.0
 40
0.0200000000000002
100
AcDbArc
 50
194.9999999999914
 51
270.000007199758
  0
ARC
  5
453
330
2
100
AcDbEntity
  8
SANINDUSA
100
AcDbCircle
 10
2.011534860850186
 20
0.0450137106956318
 30
0.0
 40
0.0320000000000001
100
AcDbArc
 50
194.9999999999914
 51
270.000007199758
  0
LINE
  5
454
330
2
100
AcDbEntity
  8
SANINDUSA
100
AcDbLine
 10
2.054147301852158
 20
0.0130136969105941
 30
0.0
 11
2.01153486487128
 21
0.0130137106956313
 31
0.0
  0
LWPOLYLINE
  5
455
330
2
100
AcDbEntity
  8
SANINDUSA
100
AcDbPolyline
 90
        6
 70
   128
 43
0.0
 10
2.012125200582405
 20
0.0354520129995481
 10
2.011372093860187
 20
0.03544664725633
 10
2.010351454762818
 20
0.0354267948206339
 10
2.009530774868186
 20
0.0353948160829705
 10
2.009003278642759
 20
0.0353543685730724
 10
2.008828661723752
 20
0.0353100663669275
  0
LWPOLYLINE
  5
457
330
2
100
AcDbEntity
  8
SANINDUSA
100
AcDbPolyline
 90
        9
 70
   128
 43
0.0
 10
2.076415863792104
 20
0.0339529203624798
 10
2.076041740311976
 20
0.0337230616799016
 10
2.075651795375398
 20
0.0335211672195183
 10
2.075248118102614
 20
0.0333483186258527
 10
2.074832871184522
 20
0.0332054419309261
 10
2.074408279296104
 20
0.0330933025930554
 10
2.073976617177788
 20
0.0330125013959437
 10
2.073540197448575
 20
0.0329634712299813
 10
2.07310135821626
 20
0.0329464747730586
  0
LWPOLYLINE
  5
458
330
2
100
AcDbEntity
  8
SANINDUSA
100
AcDbPolyline
 90
        9
 70
   128
 43
0.0
 10
2.076413818016177
 20
0.0262649683109353
 10
2.076039228717906
 20
0.0260357357687295
 10
2.075648875202424
 20
0.0258345161586376
 10
2.075244848754683
 20
0.0256623874971902
 10
2.074829313911174
 20
0.0255202719486888
 10
2.074404496863609
 20
0.0254089308848066
 10
2.073972673532313
 20
0.0253289608055903
 10
2.073536157373152
 20
0.0252807901437691
 10
2.073097286983417
 20
0.0252646769694675
  0
ARC
  5
459
330
2
100
AcDbEntity
  8
SANINDUSA
100
AcDbCircle
 10
2.057987579204794
 20
0.0050000000000019
 30
0.0
 40
0.0050000000000001
100
AcDbArc
 50
270.0
 51
354.9999999999997
  0
LWPOLYLINE
  5
45A
330
2
100
AcDbEntity
  8
SANINDUSA
100
AcDbPolyline
 90
        6
 70
   128
 43
0.0
 10
2.073097286983417
 20
0.0252646769694675
 10
2.073098266613329
 20
0.0266587007600643
 10
2.073098831504718
 20
0.0275388092107383
 10
2.0730989836541
 20
0.0277877252976273
 10
2.073100211735642
 20
0.0300468699180229
 10
2.07310135821626
 20
0.0329464747730586
  0
LINE
  5
45B
330
2
100
AcDbEntity
  8
SANINDUSA
100
AcDbLine
 10
2.063308469857932
 20
0.0084494922343124
 30
0.0
 11
2.062968552695255
 21
0.0045642212862613
 31
0.0
  0
ARC
  5
45C
330
2
100
AcDbEntity
  8
SANINDUSA
100
AcDbCircle
 10
2.068289443348393
 20
0.0080137135205742
 30
0.0
 40
0.0050000000000001
100
AcDbArc
 50
90.00001547408555
 51
174.9999999999997
  0
LINE
  5
45E
330
2
100
AcDbEntity
  8
SANINDUSA
100
AcDbLine
 10
1.975055550116275
 20
0.1038822856765383
 30
0.0
 11
1.992216344324404
 21
0.039837329793581
 31
0.0
  0
LINE
  5
462
330
2
100
AcDbEntity
  8
SANINDUSA
100
AcDbLine
 10
2.134569581516642
 20
0.0351118496308637
 30
0.0
 11
2.130569579366118
 21
0.0351022670391713
 31
0.0
  0
LINE
  5
463
330
2
100
AcDbEntity
  8
SANINDUSA
100
AcDbLine
 10
2.130569150869844
 20
0.0272648751132665
 30
0.0
 11
2.134569148778349
 21
0.0272653099719487
 31
0.0
  0
LINE
  5
464
330
2
100
AcDbEntity
  8
SANINDUSA
100
AcDbLine
 10
2.13806923507488
 20
0.0000000000000018
 30
0.0
 11
2.129567308751573
 21
0.0000000000000018
 31
0.0
  0
LINE
  5
465
330
2
100
AcDbEntity
  8
SANINDUSA
100
AcDbLine
 10
2.134569371924284
 20
0.0252239795873693
 30
0.0
 11
2.130569373059518
 21
0.0252236157202783
 31
0.0
  0
LWPOLYLINE
  5
466
330
2
100
AcDbEntity
  8
SANINDUSA
100
AcDbPolyline
 90
        6
 70
   128
 43
0.0
 10
2.105569571427596
 20
0.0350452089155297
 10
2.105291947534543
 20
0.0350429108645031
 10
2.105045795601019
 20
0.0350375113410874
 10
2.104858742801849
 20
0.0350296338807666
 10
2.104751133215919
 20
0.0350201292697957
 10
2.104730283522145
 20
0.0350134688502558
  0
LWPOLYLINE
  5
467
330
2
100
AcDbEntity
  8
SANINDUSA
100
AcDbPolyline
 90
        6
 70
   128
 43
0.0
 10
2.104730343368324
 20
0.0272676460386484
 10
2.104777664677086
 20
0.0272658434224755
 10
2.104914379537564
 20
0.0272642580394532
 10
2.105125265212901
 20
0.0272630662317456
 10
2.105385982886233
 20
0.0272624018015077
 10
2.105569159247158
 20
0.0272622889043069
  0
LWPOLYLINE
  5
468
330
2
100
AcDbEntity
  8
SANINDUSA
100
AcDbPolyline
 90
        6
 70
   128
 43
0.0
 10
2.105569356960956
 20
0.0252214429319625
 10
2.10310262253885
 20
0.0252237165939746
 10
2.100906740827432
 20
0.0252307815206146
 10
2.099790048062874
 20
0.0252373681014174
 10
2.098548348936907
 20
0.0252507547052224
 10
2.098097289205362
 20
0.0252670435762221
  0
LWPOLYLINE
  5
469
330
2
100
AcDbEntity
  8
SANINDUSA
100
AcDbPolyline
 90
        9
 70
   128
 43
0.0
 10
2.092045701134481
 20
0.0329870646233272
 10
2.091606789924882
 20
0.0330021795724875
 10
2.091170160779257
 20
0.0330493386407571
 10
2.09073815296019
 20
0.0331282891710603
 10
2.090313080971269
 20
0.0332386081819678
 10
2.089897222157034
 20
0.0333797046338318
 10
2.089492804501966
 20
0.0335508225953268
 10
2.089101994693971
 20
0.0337510452933785
 10
2.08872688651622
 20
0.0339793000248224
  0
LWPOLYLINE
  5
46A
330
2
100
AcDbEntity
  8
SANINDUSA
100
AcDbPolyline
 90
        9
 70
   128
 43
0.0
 10
2.101415931444481
 20
0.0340068492364995
 10
2.101041815562668
 20
0.0337769675488826
 10
2.10065187623086
 20
0.0335750498580879
 10
2.100248202597964
 20
0.0334021779634773
 10
2.099832957396121
 20
0.0332592780479163
 10
2.099408365353598
 20
0.0331471157156389
 10
2.098976701275543
 20
0.0330662918904082
 10
2.098540277856424
 20
0.0330172395960122
 10
2.098101433289458
 20
0.0330002216362723
  0
LWPOLYLINE
  5
46B
330
2
100
AcDbEntity
  8
SANINDUSA
100
AcDbPolyline
 90
        9
 70
   128
 43
0.0
 10
2.085408158143629
 20
0.0349715433088559
 10
2.08584705838227
 20
0.0349564219503159
 10
2.086283676265626
 20
0.0349092580369066
 10
2.086715672706224
 20
0.0348303042392686
 10
2.087140733374982
 20
0.0347199835355869
 10
2.08755658109974
 20
0.0345788869455705
 10
2.087960988064734
 20
0.0344077703642043
 10
2.088351787745624
 20
0.0342075505121934
 10
2.08872688651622
 20
0.0339793000248224
  0
LWPOLYLINE
  5
46C
330
2
100
AcDbEntity
  8
SANINDUSA
100
AcDbPolyline
 90
        9
 70
   128
 43
0.0
 10
2.101415931444481
 20
0.0340068492364995
 10
2.101790031431952
 20
0.0342367209271143
 10
2.102179953639685
 20
0.0344386309981738
 10
2.102583609184117
 20
0.034611497781033
 10
2.102998835609734
 20
0.0347543951971684
 10
2.103423408473715
 20
0.0348665577193597
 10
2.103855053262683
 20
0.0349473844727586
 10
2.104291457577688
 20
0.0349964424538749
 10
2.104730283522145
 20
0.0350134688502558
  0
LWPOLYLINE
  5
46D
330
2
100
AcDbEntity
  8
SANINDUSA
100
AcDbPolyline
 90
        6
 70
   128
 43
0.0
 10
2.085408158143629
 20
0.0349715433088559
 10
2.085360829028688
 20
0.0349812979648905
 10
2.085223998298248
 20
0.03498975974719
 10
2.085012735516649
 20
0.0349959669086539
 10
2.084751948088074
 20
0.03499919251325
 10
2.084569568275425
 20
0.0349995134029123
  0
LINE
  5
46E
330
2
100
AcDbEntity
  8
SANINDUSA
100
AcDbLine
 10
2.084569568275427
 20
0.0349995134029105
 30
0.0
 11
2.080569567873716
 21
0.0349909274516036
 31
0.0
  0
LWPOLYLINE
  5
46F
330
2
100
AcDbEntity
  8
SANINDUSA
100
AcDbPolyline
 90
        6
 70
   128
 43
0.0
 10
2.080569567873714
 20
0.0349909274516054
 10
2.08029196274848
 20
0.0349886545680593
 10
2.080045829795032
 20
0.0349832902821313
 10
2.079858792451319
 20
0.0349754544370299
 10
2.07975118069127
 20
0.0349659928229485
 10
2.07973032495233
 20
0.0349593581540662
  0
LINE
  5
470
330
2
100
AcDbEntity
  8
SANINDUSA
100
AcDbLine
 10
2.080569162698087
 20
0.0272599494375295
 30
0.0
 11
2.084569162368214
 21
0.0272603182384406
 31
0.0
  0
LWPOLYLINE
  5
471
330
2
100
AcDbEntity
  8
SANINDUSA
100
AcDbPolyline
 90
        9
 70
   128
 43
0.0
 10
2.101413822513287
 20
0.0262673451297238
 10
2.10178841031871
 20
0.0264965782666869
 10
2.102178762372269
 20
0.0266977986469001
 10
2.102582787405159
 20
0.0268699282539902
 10
2.102998320897064
 20
0.0270120449222455
 10
2.103423136672351
 20
0.0271233872770259
 10
2.103854958826556
 20
0.0272033588137347
 10
2.104291473919312
 20
0.0272515310935355
 10
2.104730343368324
 20
0.0272676460386484
  0
LWPOLYLINE
  5
472
330
2
100
AcDbEntity
  8
SANINDUSA
100
AcDbPolyline
 90
        9
 70
   128
 43
0.0
 10
2.085408122898158
 20
0.0272657949810255
 10
2.085846996046444
 20
0.0272497644765227
 10
2.086283521006772
 20
0.0272016760870284
 10
2.086715359137575
 20
0.0271217874415825
 10
2.087140196906526
 20
0.0270105265361158
 10
2.087555758285094
 20
0.0268684894405047
 10
2.087959816942122
 20
0.0266964371051827
 10
2.088350208171215
 20
0.0264952912844106
 10
2.088724840487949
 20
0.0262661295980788
  0
LWPOLYLINE
  5
473
330
2
100
AcDbEntity
  8
SANINDUSA
100
AcDbPolyline
 90
        6
 70
   128
 43
0.0
 10
2.084569162368212
 20
0.0272603182384424
 10
2.084846753092816
 20
0.0272606463835146
 10
2.085092964986921
 20
0.0272615431666341
 10
2.085280092251111
 20
0.0272629090027217
 10
2.085387442641942
 20
0.0272645966410474
 10
2.085408122898158
 20
0.0272657949810255
  0
LWPOLYLINE
  5
474
330
2
100
AcDbEntity
  8
SANINDUSA
100
AcDbPolyline
 90
        6
 70
   128
 43
0.0
 10
2.079730348332483
 20
0.0272652590395287
 10
2.079777669534975
 20
0.0272634732187421
 10
2.079914383369988
 20
0.0272619022991117
 10
2.080125266112151
 20
0.027260721001102
 10
2.080385983021434
 20
0.0272600619196819
 10
2.080569162698085
 20
0.0272599494375314
  0
LWPOLYLINE
  5
475
330
2
100
AcDbEntity
  8
SANINDUSA
100
AcDbPolyline
 90
        9
 70
   128
 43
0.0
 10
2.092041562327327
 20
0.0252664648399255
 10
2.091602688637914
 20
0.0252824950018876
 10
2.091166163122262
 20
0.0253305831248295
 10
2.090734324430578
 20
0.0254104715805116
 10
2.090309486103775
 20
0.0255217323729826
 10
2.089893924178888
 20
0.0256637694315341
 10
2.089489864995372
 20
0.0258358218040931
 10
2.089099473267671
 20
0.0260369677339659
 10
2.088724840487949
 20
0.0262661295980788
  0
LWPOLYLINE
  5
476
330
2
100
AcDbEntity
  8
SANINDUSA
100
AcDbPolyline
 90
        9
 70
   128
 43
0.0
 10
2.101413822513287
 20
0.0262673451297238
 10
2.101039233351294
 20
0.0260381111442635
 10
2.100648879836755
 20
0.0258368901185477
 10
2.100244853261125
 20
0.0256647600800389
 10
2.099829318168309
 20
0.0255226432032955
 10
2.099404500758293
 20
0.0254113008694654
 10
2.098972676960417
 20
0.0253313295872604
 10
2.098536160240252
 20
0.0252831577971884
 10
2.098097289205367
 20
0.0252670435762221
  0
LINE
  5
477
330
2
100
AcDbEntity
  8
SANINDUSA
100
AcDbLine
 10
2.084569351340936
 20
0.0252197961979091
 30
0.0
 11
2.080569351270458
 21
0.0252194878389555
 31
0.0
  0
LWPOLYLINE
  5
478
330
2
100
AcDbEntity
  8
SANINDUSA
100
AcDbPolyline
 90
        6
 70
   128
 43
0.0
 10
2.092045701134481
 20
0.0329870646233272
 10
2.0920441222295
 20
0.0292294482304797
 10
2.092043465072021
 20
0.0280676402617192
 10
2.092043306145957
 20
0.0278057542048319
 10
2.092042247741148
 20
0.0261980250167781
 10
2.092041562327327
 20
0.0252664648399255
  0
LWPOLYLINE
  5
479
330
2
100
AcDbEntity
  8
SANINDUSA
100
AcDbPolyline
 90
        7
 70
   128
 43
0.0
 10
2.092041562327327
 20
0.0252664648399255
 10
2.092041556617579
 20
0.0252664052416358
 10
2.091617367696086
 20
0.0252506055445534
 10
2.090398805790011
 20
0.0252369513716408
 10
2.089292395385215
 20
0.0252301221706116
 10
2.087108959667999
 20
0.0252226016295791
 10
2.084569351340934
 20
0.025219796197911
  0
LWPOLYLINE
  5
47A
330
2
100
AcDbEntity
  8
SANINDUSA
100
AcDbPolyline
 90
        6
 70
   128
 43
0.0
 10
2.098097289205367
 20
0.0252670435762221
 10
2.098098294162711
 20
0.0266735099872667
 10
2.098098872368961
 20
0.0275607766514
 10
2.098099027902427
 20
0.0278116182011004
 10
2.098100279019387
 20
0.0300862645767998
 10
2.098101433289458
 20
0.0330002216362723
  0
LWPOLYLINE
  5
47B
330
2
100
AcDbEntity
  8
SANINDUSA
100
AcDbPolyline
 90
        9
 70
   128
 43
0.0
 10
2.117045941355455
 20
0.0330422196993859
 10
2.116607019874224
 20
0.0330572892803357
 10
2.116170377237337
 20
0.0331044043320108
 10
2.1157383528724
 20
0.0331833124231403
 10
2.11531326146344
 20
0.0332935907829042
 10
2.114897380549329
 20
0.0334346485660208
 10
2.11449293832131
 20
0.033605730018368
 10
2.114102101684844
 20
0.0338059185261241
 10
2.113726964649882
 20
0.0340341415267804
  0
LWPOLYLINE
  5
47C
330
2
100
AcDbEntity
  8
SANINDUSA
100
AcDbPolyline
 90
        9
 70
   128
 43
0.0
 10
2.126416096911485
 20
0.0340631846406782
 10
2.126042004171064
 20
0.0338332444311678
 10
2.125652083165124
 20
0.0336312673029684
 10
2.125248423054187
 20
0.0334583354307725
 10
2.124833186611641
 20
0.033315375367487
 10
2.124408598635774
 20
0.0332031530798522
 10
2.123976934029521
 20
0.0331222698444654
 10
2.12354050561175
 20
0.0330731590261863
 10
2.123101651725388
 20
0.033056083756218
  0
LWPOLYLINE
  5
47D
330
2
100
AcDbEntity
  8
SANINDUSA
100
AcDbPolyline
 90
        9
 70
   128
 43
0.0
 10
2.110408210315146
 20
0.0350260714545894
 10
2.110847103510792
 20
0.0350109867283336
 10
2.111283717110628
 20
0.0349638606226486
 10
2.111715712138512
 20
0.0348849455960831
 10
2.112140774360383
 20
0.0347746644031363
 10
2.112556626681813
 20
0.0346336078295272
 10
2.112961041346594
 20
0.0344625315273052
 10
2.113351851871008
 20
0.0342623519667509
 10
2.113726964649882
 20
0.0340341415267804
  0
LWPOLYLINE
  5
47E
330
2
100
AcDbEntity
  8
SANINDUSA
100
AcDbPolyline
 90
        9
 70
   128
 43
0.0
 10
2.126416096911485
 20
0.0340631846406782
 10
2.126790153071002
 20
0.0342931031765525
 10
2.127180034664794
 20
0.0344950640952552
 10
2.127583653143007
 20
0.0346679855158996
 10
2.127998846368929
 20
0.0348109411187707
 10
2.12842339020127
 20
0.0349231651075129
 10
2.128855010408648
 20
0.0350040563114194
 10
2.129291394852376
 20
0.0350531814058232
 10
2.129730205872307
 20
0.035070277233373
  0
LWPOLYLINE
  5
47F
330
2
100
AcDbEntity
  8
SANINDUSA
100
AcDbPolyline
 90
        6
 70
   128
 43
0.0
 10
2.110408210315146
 20
0.0350260714545894
 10
2.110360880319596
 20
0.0350358599656548
 10
2.110224049904678
 20
0.0350443439395476
 10
2.110012796451857
 20
0.035050559283035
 10
2.109752003934451
 20
0.0350537788073771
 10
2.109569572251176
 20
0.0350540881187376
  0
LINE
  5
480
330
2
100
AcDbEntity
  8
SANINDUSA
100
AcDbLine
 10
2.109569572251178
 20
0.0350540881187358
 30
0.0
 11
2.105569571427598
 21
0.0350452089155279
 31
0.0
  0
LWPOLYLINE
  5
481
330
2
100
AcDbEntity
  8
SANINDUSA
100
AcDbPolyline
 90
        6
 70
   128
 43
0.0
 10
2.130569579366116
 20
0.0351022670391731
 10
2.130291919452425
 20
0.0350999168787453
 10
2.130045731150795
 20
0.0350944584473169
 10
2.129858648681908
 20
0.0350865213434045
 10
2.129751043600478
 20
0.0350769638236321
 10
2.129730205872307
 20
0.035070277233373
  0
LINE
  5
482
330
2
100
AcDbEntity
  8
SANINDUSA
100
AcDbLine
 10
2.105569159247159
 20
0.0272622889043051
 30
0.0
 11
2.109569158323619
 21
0.0272626786786323
 31
0.0
  0
LWPOLYLINE
  5
483
330
2
100
AcDbEntity
  8
SANINDUSA
100
AcDbPolyline
 90
        6
 70
   128
 43
0.0
 10
2.129730346021248
 20
0.0272702769929006
 10
2.129777666917886
 20
0.0272684567244451
 10
2.129914381942763
 20
0.0272668568691679
 10
2.130125270595859
 20
0.0272656553678794
 10
2.130385986507818
 20
0.0272649871264039
 10
2.130569150869843
 20
0.0272648751132684
  0
LWPOLYLINE
  5
484
330
2
100
AcDbEntity
  8
SANINDUSA
100
AcDbPolyline
 90
        9
 70
   128
 43
0.0
 10
2.126413834924511
 20
0.026269933644393
 10
2.126788420111048
 20
0.0264991717199373
 10
2.127178769934804
 20
0.0267003972027433
 10
2.127582793135131
 20
0.0268725320471563
 10
2.127998325197619
 20
0.0270146540577335
 10
2.12842313995026
 20
0.0271260018298372
 10
2.128854961489952
 20
0.0272059788287689
 10
2.129291476375416
 20
0.0272541565856468
 10
2.129730346021248
 20
0.0272702769929006
  0
LWPOLYLINE
  5
485
330
2
100
AcDbEntity
  8
SANINDUSA
100
AcDbPolyline
 90
        9
 70
   128
 43
0.0
 10
2.110408131059394
 20
0.0272682124818553
 10
2.11084700300221
 20
0.0272521849721025
 10
2.111283526989638
 20
0.027204099766042
 10
2.111715364399321
 20
0.0271242144741191
 10
2.11214020171663
 20
0.0270129570717418
 10
2.11255576292907
 20
0.0268709236064515
 10
2.112959821719706
 20
0.0266988750046735
 10
2.113350213394375
 20
0.0264977329951571
 10
2.113724846478777
 20
0.0262685751709264
  0
LWPOLYLINE
  5
486
330
2
100
AcDbEntity
  8
SANINDUSA
100
AcDbPolyline
 90
        6
 70
   128
 43
0.0
 10
2.109569158323616
 20
0.0272626786786341
 10
2.109846753024691
 20
0.0272630114338622
 10
2.110092967735683
 20
0.0272639181423656
 10
2.110280097241312
 20
0.0272652981000752
 10
2.110387450277554
 20
0.0272670025305334
 10
2.110408131059394
 20
0.0272682124818553
  0
LWPOLYLINE
  5
487
330
2
100
AcDbEntity
  8
SANINDUSA
100
AcDbPolyline
 90
        9
 70
   128
 43
0.0
 10
2.117041588248777
 20
0.025268938533417
 10
2.116602712950549
 20
0.0252849642806259
 10
2.116166185519711
 20
0.0253330482105289
 10
2.115734344632125
 20
0.025412932715657
 10
2.115309503855725
 20
0.0255241898184082
 10
2.114893939255663
 20
0.0256662234639057
 10
2.1144898772004
 20
0.0258382727133531
 10
2.114099482434031
 20
0.0260394158207114
 10
2.113724846478777
 20
0.0262685751709264
  0
LWPOLYLINE
  5
488
330
2
100
AcDbEntity
  8
SANINDUSA
100
AcDbPolyline
 90
        9
 70
   128
 43
0.0
 10
2.126413834924511
 20
0.026269933644393
 10
2.126039248778171
 20
0.0260406949344852
 10
2.125648897920738
 20
0.0258394689611092
 10
2.125244873628882
 20
0.0256673337779639
 10
2.124829340433713
 20
0.025525211586918
 10
2.124404524524458
 20
0.0254138637973997
 10
2.123972701821827
 20
0.0253338869471886
 10
2.12353618578492
 20
0.0252857095065147
 10
2.12309731501704
 20
0.0252695895825505
  0
LWPOLYLINE
  5
489
330
2
100
AcDbEntity
  8
SANINDUSA
100
AcDbPolyline
 90
        6
 70
   128
 43
0.0
 10
2.130569373059521
 20
0.0252236157202802
 10
2.128102697908294
 20
0.025225887955086
 10
2.125906803967351
 20
0.0252330002106615
 10
2.124790110996024
 20
0.0252396398618671
 10
2.123548396786706
 20
0.0252531448106484
 10
2.123097315017036
 20
0.0252695895825528
  0
LWPOLYLINE
  5
48A
330
2
100
AcDbEntity
  8
SANINDUSA
100
AcDbPolyline
 90
        6
 70
   128
 43
0.0
 10
2.12309731501704
 20
0.0252695895825505
 10
2.123098389746561
 20
0.0266891910867153
 10
2.12309900429848
 20
0.0275839770025951
 10
2.123099169013122
 20
0.0278368353075612
 10
2.123100481365151
 20
0.0301275961051024
 10
2.123101651725388
 20
0.033056083756218
  0
LINE
  5
48B
330
2
100
AcDbEntity
  8
SANINDUSA
100
AcDbLine
 10
2.109569359799086
 20
0.0252217691616257
 30
0.0
 11
2.105569356960953
 21
0.0252214429319607
 31
0.0
  0
LWPOLYLINE
  5
48C
330
2
100
AcDbEntity
  8
SANINDUSA
100
AcDbPolyline
 90
        6
 70
   128
 43
0.0
 10
2.117045941355455
 20
0.0330422196993859
 10
2.117044324023383
 20
0.0292646170853928
 10
2.117043629405635
 20
0.0280944355701049
 10
2.11704346040373
 20
0.0278305215492961
 10
2.117042327642167
 20
0.0262092686131032
 10
2.117041588248777
 20
0.025268938533417
  0
LWPOLYLINE
  5
48D
330
2
100
AcDbEntity
  8
SANINDUSA
100
AcDbPolyline
 90
        7
 70
   128
 43
0.0
 10
2.117041588248777
 20
0.025268938533417
 10
2.117041582411699
 20
0.0252688777061545
 10
2.116617359709204
 20
0.0252529208858178
 10
2.115398767931352
 20
0.0252391243998514
 10
2.114292340283651
 20
0.0252322210631215
 10
2.112108882656481
 20
0.0252246143010725
 10
2.109569359799085
 20
0.0252217691616275
  0
ARC
  5
48E
330
2
100
AcDbEntity
  8
SANINDUSA
100
AcDbCircle
 10
2.129567308751573
 20
0.002
 30
0.0
 40
0.002
100
AcDbArc
 50
198.5337799271245
 51
270.0
  0
ARC
  5
48F
330
2
100
AcDbEntity
  8
SANINDUSA
 48
0.1
100
AcDbCircle
 10
2.110604580415078
 20
-0.0043572741062389
 30
0.0
 40
0.0180000000006397
100
AcDbArc
 50
14.00879198075515
 51
18.53377992698479
  0
ARC
  5
490
330
2
100
AcDbEntity
  8
SANINDUSA
100
AcDbCircle
 10
2.110604580415696
 20
-0.0043572741060739
 30
0.0
 40
0.0180000000000002
100
AcDbArc
 50
18.53377992710444
 51
65.00378921799728
  0
LINE
  5
491
330
2
100
AcDbEntity
  8
SANINDUSA
100
AcDbLine
 10
2.118210630225338
 20
0.0119567691172729
 30
0.0
 11
2.117952634626843
 21
0.0120770536688083
 31
0.0
  0
ARC
  5
492
330
2
100
AcDbEntity
  8
SANINDUSA
100
AcDbCircle
 10
2.113727051399262
 20
0.0030136963225046
 30
0.0
 40
0.01
100
AcDbArc
 50
65.00378921799728
 51
90.0000754951726
  0
LWPOLYLINE
  5
493
330
2
100
AcDbEntity
  8
SANINDUSA
100
AcDbPolyline
 90
        6
 70
   128
 43
0.0
 10
2.160408450402834
 20
0.035148627412515
 10
2.160361117879739
 20
0.035158460372933
 10
2.160224293231659
 20
0.0351669297856952
 10
2.160013091377742
 20
0.0351730738817324
 10
2.159752283023364
 20
0.0351761771332181
 10
2.159569597319988
 20
0.0351763913005052
  0
LWPOLYLINE
  5
494
330
2
100
AcDbEntity
  8
SANINDUSA
100
AcDbPolyline
 90
        6
 70
   128
 43
0.0
 10
2.159569129914931
 20
0.0272682387897194
 10
2.15984674697103
 20
0.0272685885116121
 10
2.16009297888541
 20
0.027269524167863
 10
2.160280122749878
 20
0.0272709418089758
 10
2.160387484029817
 20
0.0272726885326702
 10
2.160408162389145
 20
0.0272739263509257
  0
LWPOLYLINE
  5
495
330
2
100
AcDbEntity
  8
SANINDUSA
100
AcDbPolyline
 90
        7
 70
   128
 43
0.0
 10
2.167041713256159
 20
0.0252749536270599
 10
2.167041707033578
 20
0.0252748894648394
 10
2.166617385760948
 20
0.0252585384370914
 10
2.165398707510918
 20
0.0252443667693288
 10
2.164292240798046
 20
0.0252372596042428
 10
2.162108725924114
 20
0.0252294010922324
 10
2.159569405397334
 20
0.0252264143826269
  0
LWPOLYLINE
  5
496
330
2
100
AcDbEntity
  8
SANINDUSA
100
AcDbPolyline
 90
        9
 70
   128
 43
0.0
 10
2.142046464299834
 20
0.033101446541929
 10
2.141607523398239
 20
0.0331164147430095
 10
2.141170854102189
 20
0.0331634311150802
 10
2.140738796151965
 20
0.0332422437372943
 10
2.140313664579558
 20
0.0333524303196751
 10
2.139897737304383
 20
0.0334934004658103
 10
2.139493242927825
 20
0.0336643988362871
 10
2.139102348792072
 20
0.0338645091959179
 10
2.138727149367151
 20
0.0340926593230566
  0
LWPOLYLINE
  5
497
330
2
100
AcDbEntity
  8
SANINDUSA
100
AcDbPolyline
 90
        9
 70
   128
 43
0.0
 10
2.151416431697127
 20
0.0341249487845394
 10
2.151042391936049
 20
0.0338948879924229
 10
2.150652514232148
 20
0.0336927878179941
 10
2.150248887691579
 20
0.033519731187304
 10
2.149833675091778
 20
0.0333766454005527
 10
2.149409101292473
 20
0.0332642971632927
 10
2.148977441314092
 20
0.0331832884781343
 10
2.148541008147391
 20
0.0331340534189999
 10
2.148102140359602
 20
0.0331168558051982
  0
LWPOLYLINE
  5
498
330
2
100
AcDbEntity
  8
SANINDUSA
100
AcDbPolyline
 90
        9
 70
   128
 43
0.0
 10
2.135408306506693
 20
0.0350838806657217
 10
2.135847187367081
 20
0.0350688812864897
 10
2.136283795024757
 20
0.0350218424628579
 10
2.136715790697868
 20
0.034943016168294
 10
2.137140860309652
 20
0.0348328246526253
 10
2.13755672688426
 20
0.0346918581801574
 10
2.137961162743869
 20
0.0345208718678046
 10
2.138352001441722
 20
0.0343207816401391
 10
2.138727149367151
 20
0.0340926593230566
  0
LWPOLYLINE
  5
499
330
2
100
AcDbEntity
  8
SANINDUSA
100
AcDbPolyline
 90
        9
 70
   128
 43
0.0
 10
2.151416431697127
 20
0.0341249487845394
 10
2.151790401830004
 20
0.0343549692357911
 10
2.152180204512634
 20
0.0345570394648976
 10
2.152583751801272
 20
0.0347300771004612
 10
2.152998882130388
 20
0.0348731552816221
 10
2.153423371890914
 20
0.0349855076226973
 10
2.15385494734082
 20
0.0350665323182593
 10
2.154291296784196
 20
0.0351157953666634
 10
2.154730082953661
 20
0.0351330328947247
  0
LWPOLYLINE
  5
49A
330
2
100
AcDbEntity
  8
SANINDUSA
100
AcDbPolyline
 90
        6
 70
   128
 43
0.0
 10
2.135408306506693
 20
0.0350838806657217
 10
2.135360975354671
 20
0.0350936966978534
 10
2.135224146747279
 20
0.0351021867667433
 10
2.135012912926383
 20
0.0351083863653176
 10
2.134752113215523
 20
0.0351115714711719
 10
2.134569581516636
 20
0.0351118496308655
  0
LINE
  5
49B
330
2
100
AcDbEntity
  8
SANINDUSA
100
AcDbLine
 10
2.15956959731999
 20
0.0351763913005057
 30
0.0
 11
2.155569594423535
 21
0.035165409044259
 31
0.0
  0
LWPOLYLINE
  5
49C
330
2
100
AcDbEntity
  8
SANINDUSA
100
AcDbPolyline
 90
        6
 70
   128
 43
0.0
 10
2.155569594423533
 20
0.0351654090442608
 10
2.155291875993395
 20
0.035162960210379
 10
2.155045629195503
 20
0.0351574019750606
 10
2.154858498517302
 20
0.0351493742220592
 10
2.154750900500595
 20
0.0351397466937206
 10
2.154730082953661
 20
0.0351330328947247
  0
LINE
  5
49D
330
2
100
AcDbEntity
  8
SANINDUSA
100
AcDbLine
 10
2.155569133655638
 20
0.0272677177567989
 30
0.0
 11
2.159569129914933
 21
0.0272682387897176
 31
0.0
  0
LWPOLYLINE
  5
49E
330
2
100
AcDbEntity
  8
SANINDUSA
100
AcDbPolyline
 90
        6
 70
   128
 43
0.0
 10
2.154730324962794
 20
0.027273168600731
 10
2.154777644466086
 20
0.0272713280973485
 10
2.154914356847063
 20
0.0272697119201089
 10
2.155125240887411
 20
0.0272684998711966
 10
2.15538595028686
 20
0.0272678280818323
 10
2.155569133655637
 20
0.0272677177568008
  0
LWPOLYLINE
  5
49F
330
2
100
AcDbEntity
  8
SANINDUSA
100
AcDbPolyline
 90
        9
 70
   128
 43
0.0
 10
2.151413852733982
 20
0.0262727843281519
 10
2.151788432181403
 20
0.0265020253527305
 10
2.152178776395677
 20
0.0267032544240706
 10
2.152582794177552
 20
0.0268753934934503
 10
2.152998321074088
 20
0.027017520356616
 10
2.15342313097433
 20
0.0271288735943418
 10
2.153854948035274
 20
0.0272088566515927
 10
2.154291458874319
 20
0.0272570410334552
 10
2.154730324962794
 20
0.027273168600731
  0
LWPOLYLINE
  5
4A0
330
2
100
AcDbEntity
  8
SANINDUSA
100
AcDbPolyline
 90
        9
 70
   128
 43
0.0
 10
2.135408125695427
 20
0.027270908910456
 10
2.135846998655444
 20
0.0272548859556096
 10
2.136283523983676
 20
0.0272068051701208
 10
2.136715363041513
 20
0.0271269241417522
 10
2.137140202296551
 20
0.0270156708247228
 10
2.137555765717098
 20
0.0268736412469948
 10
2.137959826965758
 20
0.0267015963171198
 10
2.138350221326828
 20
0.0265004577477398
 10
2.138724857303506
 20
0.0262713031176227
  0
LWPOLYLINE
  5
4A1
330
2
100
AcDbEntity
  8
SANINDUSA
100
AcDbPolyline
 90
        6
 70
   128
 43
0.0
 10
2.134569148778347
 20
0.0272653099719505
 10
2.134846744005236
 20
0.0272656487983491
 10
2.135092957181337
 20
0.0272665671816813
 10
2.135280085174105
 20
0.0272679631221527
 10
2.135387442705693
 20
0.0272696861924388
 10
2.135408125695427
 20
0.027270908910456
  0
LWPOLYLINE
  5
4A2
330
2
100
AcDbEntity
  8
SANINDUSA
100
AcDbPolyline
 90
        9
 70
   128
 43
0.0
 10
2.142041602412533
 20
0.0252716980992014
 10
2.141602727733353
 20
0.0252877201025072
 10
2.141166200640874
 20
0.025335800183615
 10
2.140734359801109
 20
0.025415680756561
 10
2.14030951877378
 20
0.0255269338662756
 10
2.139893953617562
 20
0.0256689634813315
 10
2.139489890696237
 20
0.0258410086871336
 10
2.139099494751104
 20
0.0260421477624814
 10
2.138724857303506
 20
0.0262713031176227
  0
LWPOLYLINE
  5
4A3
330
2
100
AcDbEntity
  8
SANINDUSA
100
AcDbPolyline
 90
        9
 70
   128
 43
0.0
 10
2.151413852733982
 20
0.0262727843281519
 10
2.151039267282277
 20
0.026043539811175
 10
2.150648916601573
 20
0.0258423081444917
 10
2.150244891991325
 20
0.0256701674245292
 10
2.14982935800893
 20
0.0255280398932987
 10
2.149404540873116
 20
0.0254166869974816
 10
2.148972716537001
 20
0.0253367053089883
 10
2.148536198494704
 20
0.0252885233288307
 10
2.148097325386821
 20
0.0252723991914391
  0
ARC
  5
4A4
330
2
100
AcDbEntity
  8
SANINDUSA
100
AcDbCircle
 10
2.13806923507488
 20
0.002
 30
0.0
 40
0.0020000000000002
100
AcDbArc
 50
270.0
 51
0.0
  0
LWPOLYLINE
  5
4A5
330
2
100
AcDbEntity
  8
SANINDUSA
100
AcDbPolyline
 90
        6
 70
   128
 43
0.0
 10
2.142046464299834
 20
0.033101446541929
 10
2.142044744957358
 20
0.0293031277239893
 10
2.142043962274593
 20
0.0281239145263308
 10
2.142043769813814
 20
0.0278577966023468
 10
2.142042465383657
 20
0.0262217291148764
 10
2.142041602412533
 20
0.0252716980992014
  0
LWPOLYLINE
  5
4A6
330
2
100
AcDbEntity
  8
SANINDUSA
100
AcDbPolyline
 90
        7
 70
   128
 43
0.0
 10
2.142041602412533
 20
0.0252716980992014
 10
2.142041596415889
 20
0.0252716358300827
 10
2.141617335004776
 20
0.0252555062199249
 10
2.14039871563739
 20
0.0252415557256054
 10
2.139292264006982
 20
0.0252345727066782
 10
2.137108780150062
 20
0.0252268723112789
 10
2.134569371924282
 20
0.0252239795873711
  0
LINE
  5
4A7
330
2
100
AcDbEntity
  8
SANINDUSA
100
AcDbLine
 10
2.159569405397335
 20
0.0252264143826251
 30
0.0
 11
2.155569392435857
 21
0.0252259793609115
 31
0.0
  0
LWPOLYLINE
  5
4A8
330
2
100
AcDbEntity
  8
SANINDUSA
100
AcDbPolyline
 90
        6
 70
   128
 43
0.0
 10
2.155569392435865
 20
0.0252259793609133
 10
2.153102777690902
 20
0.0252282495635055
 10
2.150906862919434
 20
0.025235423404678
 10
2.149790151863382
 20
0.0252421292870113
 10
2.148548422008658
 20
0.0252557756610591
 10
2.148097325386817
 20
0.0252723991914391
  0
LWPOLYLINE
  5
4A9
330
2
100
AcDbEntity
  8
SANINDUSA
100
AcDbPolyline
 90
        6
 70
   128
 43
0.0
 10
2.148097325386821
 20
0.0252723991914391
 10
2.148098565791462
 20
0.0267067727104896
 10
2.148099267496201
 20
0.0276099341752425
 10
2.148099454372069
 20
0.0278650262484271
 10
2.148100917787798
 20
0.0301733685165087
 10
2.148102140359602
 20
0.0331168558051959
  0
LINE
  5
4AA
330
2
100
AcDbEntity
  8
SANINDUSA
100
AcDbLine
 10
2.140069235074882
 20
0.0121196892561818
 30
0.0
 11
2.140069235074882
 21
0.002
 31
0.0
  0
LWPOLYLINE
  5
4AB
330
2
100
AcDbEntity
  8
SANINDUSA
100
AcDbPolyline
 90
        9
 70
   128
 43
0.0
 10
2.167047417216851
 20
0.0331688861430021
 10
2.166608446289088
 20
0.0331836647039714
 10
2.166171733353531
 20
0.0332304957120291
 10
2.165739618635558
 20
0.0333091282125898
 10
2.165314417719947
 20
0.0334191408355528
 10
2.164898409142312
 20
0.0335599440533147
 10
2.164493822179025
 20
0.0337307833398736
 10
2.164102824901148
 20
0.0339307432141427
 10
2.163727512556335
 20
0.0341587521457532
  0
LWPOLYLINE
  5
4AC
330
2
100
AcDbEntity
  8
SANINDUSA
100
AcDbPolyline
 90
        9
 70
   128
 43
0.0
 10
2.1764170280688
 20
0.0341970031664314
 10
2.176043086567966
 20
0.0339667275664365
 10
2.175653290062993
 20
0.0337644077802398
 10
2.175249727506353
 20
0.0335911280567021
 10
2.174834561623962
 20
0.0334478170165349
 10
2.174410017324932
 20
0.0333352426757383
 10
2.173978369778107
 20
0.0332540083297354
 10
2.173541932219237
 20
0.0332045493202636
 10
2.173103043554162
 20
0.0331871307023417
  0
LWPOLYLINE
  5
4AD
330
2
100
AcDbEntity
  8
SANINDUSA
100
AcDbPolyline
 90
        9
 70
   128
 43
0.0
 10
2.160408450402834
 20
0.035148627412515
 10
2.160847314196918
 20
0.0351337938826091
 10
2.161283917141978
 20
0.0350869235089922
 10
2.161715920723137
 20
0.035008267336847
 10
2.162141011060436
 20
0.034898246661152
 10
2.162556911302341
 20
0.0347574507701657
 10
2.162961393820952
 20
0.0345866337890962
 10
2.163352292143501
 20
0.0343867106408871
 10
2.163727512556335
 20
0.0341587521457532
  0
LWPOLYLINE
  5
4AE
330
2
100
AcDbEntity
  8
SANINDUSA
100
AcDbPolyline
 90
        9
 70
   128
 43
0.0
 10
2.1764170280688
 20
0.0341970031664314
 10
2.176790844168391
 20
0.0344272068770183
 10
2.177180505546117
 20
0.0346294734920403
 10
2.177583925343107
 20
0.0348027197584375
 10
2.17799894301631
 20
0.0349460178436621
 10
2.178423335909434
 20
0.0350586003047616
 10
2.178854831156542
 20
0.0351398641984534
 10
2.179291117854537
 20
0.0351893743102519
 10
2.179729859439373
 20
0.0352068654852806
  0
LWPOLYLINE
  5
4AF
330
2
100
AcDbEntity
  8
SANINDUSA
100
AcDbPolyline
 90
        6
 70
   128
 43
0.0
 10
2.185408706476788
 20
0.0352260662234576
 10
2.185361376455081
 20
0.0352358972802077
 10
2.185224568511641
 20
0.0352442998984671
 10
2.185013437678277
 20
0.0352503204303949
 10
2.184752638883316
 20
0.0352532615479359
 10
2.184569633560783
 20
0.0352533563651983
  0
LINE
  5
4B0
330
2
100
AcDbEntity
  8
SANINDUSA
100
AcDbLine
 10
2.184569633560784
 20
0.0352533563651964
 30
0.0
 11
2.180569623359022
 21
0.0352398388552702
 31
0.0
  0
LWPOLYLINE
  5
4B1
330
2
100
AcDbEntity
  8
SANINDUSA
100
AcDbPolyline
 90
        6
 70
   128
 43
0.0
 10
2.180569623359021
 20
0.035239838855272
 10
2.180291797545848
 20
0.035237218335441
 10
2.18004544010431
 20
0.0352314966127201
 10
2.179858225663553
 20
0.0352233303020935
 10
2.179750643388926
 20
0.0352136073427701
 10
2.179729859439373
 20
0.0352068654852806
  0
LINE
  5
4B2
330
2
100
AcDbEntity
  8
SANINDUSA
100
AcDbLine
 10
2.180569103484629
 20
0.0272716771655196
 30
0.0
 11
2.184569094908541
 21
0.027272266185159
 31
0.0
  0
LWPOLYLINE
  5
4B3
330
2
100
AcDbEntity
  8
SANINDUSA
100
AcDbPolyline
 90
        6
 70
   128
 43
0.0
 10
2.184569094908539
 20
0.0272722661851608
 10
2.184846703870204
 20
0.0272726179420138
 10
2.185092910497024
 20
0.0272735640909096
 10
2.185280050420389
 20
0.0272749998959844
 10
2.185387437247719
 20
0.0272767713566273
 10
2.18540810925114
 20
0.0272780271664001
  0
LWPOLYLINE
  5
4B4
330
2
100
AcDbEntity
  8
SANINDUSA
100
AcDbPolyline
 90
        6
 70
   128
 43
0.0
 10
2.17973039094371
 20
0.0272771669411432
 10
2.179777713059658
 20
0.0272753027376294
 10
2.17991443509348
 20
0.0272736703475871
 10
2.180125337246396
 20
0.0272724509982063
 10
2.180386070862533
 20
0.0272717812663418
 10
2.180569103484628
 20
0.0272716771655214
  0
LWPOLYLINE
  5
4B5
330
2
100
AcDbEntity
  8
SANINDUSA
100
AcDbPolyline
 90
        9
 70
   128
 43
0.0
 10
2.176413911674528
 20
0.0262765692083317
 10
2.176788484120558
 20
0.0265058386609703
 10
2.177178823743676
 20
0.0267070960301945
 10
2.177582839283983
 20
0.0268792630717158
 10
2.177998366212297
 20
0.0270214173938294
 10
2.178423178326735
 20
0.0271327973991529
 10
2.178854999679658
 20
0.0272128063649225
 10
2.179291516771155
 20
0.0272610156399483
 10
2.17973039094371
 20
0.0272771669411432
  0
LWPOLYLINE
  5
4B6
330
2
100
AcDbEntity
  8
SANINDUSA
100
AcDbPolyline
 90
        9
 70
   128
 43
0.0
 10
2.160408162389145
 20
0.0272739263509257
 10
2.160847029918924
 20
0.0272579160565138
 10
2.161283550805034
 20
0.0272098487402982
 10
2.161715386495372
 20
0.02712998191097
 10
2.162140223537614
 20
0.027018743435207
 10
2.16255578597296
 20
0.0268767292454814
 10
2.162959847528997
 20
0.0267047001474989
 10
2.163350243546416
 20
0.0265035777443714
 10
2.163724882575644
 20
0.0262744394993606
  0
LWPOLYLINE
  5
4B7
330
2
100
AcDbEntity
  8
SANINDUSA
100
AcDbPolyline
 90
        9
 70
   128
 43
0.0
 10
2.167041713256159
 20
0.0252749536270599
 10
2.166602831656697
 20
0.0252909567389579
 10
2.166166296331822
 20
0.0253390189209804
 10
2.165734446057978
 20
0.025418882675755
 10
2.165309594511042
 20
0.0255301201261832
 10
2.164894017870603
 20
0.025672135307822
 10
2.164489942625115
 20
0.0258441673618327
 10
2.16409953364329
 20
0.0260452946113301
 10
2.163724882575644
 20
0.0262744394993606
  0
LWPOLYLINE
  5
4B8
330
2
100
AcDbEntity
  8
SANINDUSA
100
AcDbPolyline
 90
        9
 70
   128
 43
0.0
 10
2.176413911674528
 20
0.0262765692083317
 10
2.176039338262277
 20
0.0260472990660801
 10
2.17564899759856
 20
0.0258460411522733
 10
2.175244980959411
 20
0.0256738737195533
 10
2.174829452890805
 20
0.0255317191663803
 10
2.174404639611981
 20
0.0254203390952116
 10
2.173972817088289
 20
0.0253403302321786
 10
2.173536298837595
 20
0.0252921212300808
 10
2.173097423535415
 20
0.0252759703718485
  0
LINE
  5
4B9
330
2
100
AcDbEntity
  8
SANINDUSA
100
AcDbLine
 10
2.184569353854629
 20
0.0252298180644944
 30
0.0
 11
2.18056944942299
 21
0.0252293424516297
 31
0.0
  0
LWPOLYLINE
  5
4BA
330
2
100
AcDbEntity
  8
SANINDUSA
100
AcDbPolyline
 90
        6
 70
   128
 43
0.0
 10
2.180569449423016
 20
0.0252293424516316
 10
2.178102919198414
 20
0.0252315267896384
 10
2.175906997383428
 20
0.0252386642831257
 10
2.17479030179929
 20
0.0252453935076565
 10
2.173548539688173
 20
0.0252591507048615
 10
2.173097423535415
 20
0.0252759703718485
  0
LWPOLYLINE
  5
4BB
330
2
100
AcDbEntity
  8
SANINDUSA
100
AcDbPolyline
 90
        6
 70
   128
 43
0.0
 10
2.173097423535415
 20
0.0252759703718485
 10
2.173098955290012
 20
0.0267282488001584
 10
2.173099808819098
 20
0.0276414183944044
 10
2.173100034053278
 20
0.0278991569174573
 10
2.173101753360207
 20
0.0302278466030421
 10
2.173103043554162
 20
0.0331871307023417
  0
LWPOLYLINE
  5
4BC
330
2
100
AcDbEntity
  8
SANINDUSA
100
AcDbPolyline
 90
        6
 70
   128
 43
0.0
 10
2.167047417216851
 20
0.0331688861430021
 10
2.167045548895918
 20
0.029348376440536
 10
2.167044618978335
 20
0.0281587892298003
 10
2.167044386861736
 20
0.0278901082540224
 10
2.16704278934647
 20
0.0262365891845903
 10
2.167041713256159
 20
0.0252749536270599
  0
LWPOLYLINE
  5
4BD
330
2
100
AcDbEntity
  8
SANINDUSA
100
AcDbPolyline
 90
        9
 70
   128
 43
0.0
 10
2.242051300306635
 20
0.0334598859464736
 10
2.24161225997993
 20
0.0334738428956544
 10
2.241175417954101
 20
0.0335198626430875
 10
2.24074311559854
 20
0.0335976985338735
 10
2.240317669951079
 20
0.0337069333861419
 10
2.239901361299231
 20
0.0338469817270575
 10
2.239496420958381
 20
0.0340170929308161
 10
2.239105019312479
 20
0.0342163552418097
 10
2.238729254181281
 20
0.0344437006614308
  0
LWPOLYLINE
  5
4BE
330
2
100
AcDbEntity
  8
SANINDUSA
100
AcDbPolyline
 90
        9
 70
   128
 43
0.0
 10
2.242053660993202
 20
0.0255846673632314
 10
2.241614477477361
 20
0.0255982207906723
 10
2.24117746353743
 20
0.0256438774136691
 10
2.240744962853301
 20
0.0257213923784516
 10
2.240319294900565
 20
0.0258303499768513
 10
2.239902742511259
 20
0.0259701658757117
 10
2.239497539631207
 20
0.0261400902506435
 10
2.23910585933948
 20
0.0263392118072752
 10
2.238729802194308
 20
0.0265664626684784
  0
LINE
  5
4BF
330
2
100
AcDbEntity
  8
SANINDUSA
100
AcDbLine
 10
2.282150890944966
 20
0.0000000000000018
 30
0.0
 11
2.210565692729172
 21
0.0000000000000018
 31
0.0
  0
LWPOLYLINE
  5
4C0
330
2
100
AcDbEntity
  8
SANINDUSA
100
AcDbPolyline
 90
        9
 70
   128
 43
0.0
 10
2.243920109373485
 20
0.0261649962168295
 10
2.243546664093975
 20
0.0259334513207355
 10
2.243157274717765
 20
0.025729857780133
 10
2.242754029609497
 20
0.0255553075034723
 10
2.242339091444556
 20
0.0254107366350027
 10
2.241914685610301
 20
0.0252969205340619
 10
2.241483088270871
 20
0.0252144696166888
 10
2.241046614159737
 20
0.0251638260818518
 10
2.240607604165358
 20
0.0251452615398548
  0
LWPOLYLINE
  5
4C1
330
2
100
AcDbEntity
  8
SANINDUSA
100
AcDbPolyline
 90
        5
 70
   128
 43
0.0
 10
2.242053660993202
 20
0.0255846673632314
 10
2.242053640148116
 20
0.0255845130461844
 10
2.241626446163533
 20
0.0255607291831293
 10
2.240404548818675
 20
0.0255353346266784
 10
2.24013396812171
 20
0.0255311752362323
  0
LINE
  5
4C2
330
2
100
AcDbEntity
  8
SANINDUSA
100
AcDbLine
 10
2.271772153723344
 20
0.0133720641711325
 30
0.0
 11
2.226381556022237
 21
0.0130745792355693
 31
0.0
  0
LWPOLYLINE
  5
4C5
330
2
100
AcDbEntity
  8
SANINDUSA
100
AcDbPolyline
 90
        9
 70
   128
 43
0.0
 10
2.217049548187316
 20
0.0333502102742264
 10
2.21661059379193
 20
0.0333644920276302
 10
2.216173860698851
 20
0.0334108237717569
 10
2.215741688889917
 20
0.0334889572647344
 10
2.215316393907948
 20
0.0335984738734092
 10
2.214900254450264
 20
0.0337387868163355
 10
2.214495500159606
 20
0.0339091443077169
 10
2.21410429967788
 20
0.0341086335854075
 10
2.213728749026733
 20
0.0343361858014296
  0
LWPOLYLINE
  5
4C6
330
2
100
AcDbEntity
  8
SANINDUSA
100
AcDbPolyline
 90
        9
 70
   128
 43
0.0
 10
2.217048866310043
 20
0.0253105360386135
 10
2.216609555223918
 20
0.0253252892833817
 10
2.216172503150739
 20
0.0253721644115708
 10
2.215740055747771
 20
0.0254509098445024
 10
2.215314533959014
 20
0.0255611029556544
 10
2.214898221558729
 20
0.0257021523389076
 10
2.214493352894411
 20
0.0258733009826133
 10
2.214102100895058
 20
0.0260736303324771
 10
2.213726565409062
 20
0.0263020652214337
  0
LWPOLYLINE
  5
4C7
330
2
100
AcDbEntity
  8
SANINDUSA
100
AcDbPolyline
 90
        7
 70
   128
 43
0.0
 10
2.217048866310043
 20
0.0253105360386135
 10
2.217048857140636
 20
0.0253104553024369
 10
2.216623510097807
 20
0.0252923567345752
 10
2.215403081369346
 20
0.0252743613086309
 10
2.2142971064096
 20
0.0252641769127641
 10
2.212113652691838
 20
0.0252510005137415
 10
2.209572821520133
 20
0.0252430564971669
  0
ARC
  5
4C8
330
2
100
AcDbEntity
  8
SANINDUSA
100
AcDbCircle
 10
2.229549306862357
 20
-0.0042950076023958
 30
0.0
 40
0.0180000000000003
100
AcDbArc
 50
115.0331419445124
 51
161.6542548680796
  0
ARC
  5
4C9
330
2
100
AcDbEntity
  8
SANINDUSA
 48
0.1
100
AcDbCircle
 10
2.229549306862139
 20
-0.0042950076023378
 30
0.0
 40
0.0179999999997747
100
AcDbArc
 50
161.6542548680458
 51
166.1953935690233
  0
LWPOLYLINE
  5
4CA
330
2
100
AcDbEntity
  8
SANINDUSA
100
AcDbPolyline
 90
        9
 70
   128
 43
0.0
 10
2.192049086339385
 20
0.033251225849821
 10
2.191610070081634
 20
0.0332656633832212
 10
2.191173287239732
 20
0.0333121599321967
 10
2.190741078775515
 20
0.0333904662959199
 10
2.19031576113418
 20
0.033500162787092
 10
2.189899613829185
 20
0.0336406614812986
 10
2.189494867225058
 20
0.0338112093680038
 10
2.189103690583639
 20
0.0340108923863627
 10
2.188728180437803
 20
0.0342386403241826
  0
LWPOLYLINE
  5
4CB
330
2
100
AcDbEntity
  8
SANINDUSA
100
AcDbPolyline
 90
        9
 70
   128
 43
0.0
 10
2.201417762149045
 20
0.0342868215908575
 10
2.201044019063503
 20
0.0340562630338345
 10
2.200654400324011
 20
0.0338536451583846
 10
2.200250993742771
 20
0.0336800537132913
 10
2.199835961015561
 20
0.0335364189062207
 10
2.199411526138052
 20
0.0334235104190966
 10
2.198979963488319
 20
0.0333419332836993
 10
2.198543585639328
 20
0.033292124639519
 10
2.198104730966798
 20
0.0332743513913138
  0
LWPOLYLINE
  5
4CC
330
2
100
AcDbEntity
  8
SANINDUSA
100
AcDbPolyline
 90
        9
 70
   128
 43
0.0
 10
2.210408182807619
 20
0.0353221605729655
 10
2.210847107599589
 20
0.0353078639920241
 10
2.211283810294263
 20
0.0352615217506573
 10
2.211715951382722
 20
0.0351833821140795
 10
2.212141215793532
 20
0.0350738636928886
 10
2.212557325295098
 20
0.0349335532004866
 10
2.212962050700599
 20
0.0347632023099245
 10
2.213353223810233
 20
0.0345637236270377
 10
2.213728749026733
 20
0.0343361858014296
  0
LWPOLYLINE
  5
4CD
330
2
100
AcDbEntity
  8
SANINDUSA
100
AcDbPolyline
 90
        9
 70
   128
 43
0.0
 10
2.201417762149045
 20
0.0342868215908575
 10
2.201791430719082
 20
0.0345173373441949
 10
2.202180969152301
 20
0.0347199235393091
 10
2.202584290880687
 20
0.0348934950204503
 10
2.202999235505837
 20
0.0350371220495745
 10
2.203423580371119
 20
0.035150035286521
 10
2.203855052467403
 20
0.0352316299099712
 10
2.204291340608439
 20
0.0352814688571962
 10
2.204730107810766
 20
0.0352992851651893
  0
LWPOLYLINE
  5
4CE
330
2
100
AcDbEntity
  8
SANINDUSA
100
AcDbPolyline
 90
        6
 70
   128
 43
0.0
 10
2.210408182807619
 20
0.0353221605729655
 10
2.210360840934969
 20
0.0353319904152081
 10
2.21022399381544
 20
0.0353403402711584
 10
2.210012720171518
 20
0.0353462613402294
 10
2.20975187835019
 20
0.0353490606863366
 10
2.209569547427228
 20
0.0353490508101677
  0
LINE
  5
4CF
330
2
100
AcDbEntity
  8
SANINDUSA
100
AcDbLine
 10
2.20956954742723
 20
0.0353490508101659
 30
0.0
 11
2.205569587528565
 21
0.035332943247608
 31
0.0
  0
LWPOLYLINE
  5
4D0
330
2
100
AcDbEntity
  8
SANINDUSA
100
AcDbPolyline
 90
        6
 70
   128
 43
0.0
 10
2.205569587528563
 20
0.0353329432476099
 10
2.205291876702246
 20
0.0353301199933653
 10
2.205045647968582
 20
0.0353242091608027
 10
2.204858514658482
 20
0.0353158899917199
 10
2.204750911111597
 20
0.0353060634687736
 10
2.204730107810766
 20
0.0352992851651893
  0
LINE
  5
4D1
330
2
100
AcDbEntity
  8
SANINDUSA
100
AcDbLine
 10
2.205569088043224
 20
0.0272803184824279
 30
0.0
 11
2.209569102369199
 21
0.0272862568217484
 31
0.0
  0
LWPOLYLINE
  5
4D2
330
2
100
AcDbEntity
  8
SANINDUSA
100
AcDbPolyline
 90
        9
 70
   128
 43
0.0
 10
2.210410798653275
 20
0.0272936116212045
 10
2.210849278712154
 20
0.0272784380198405
 10
2.211285477644848
 20
0.0272312638751842
 10
2.211717063059196
 20
0.0271523414313279
 10
2.212141727231898
 20
0.0270420926931788
 10
2.21255719944813
 20
0.0269011071699575
 10
2.212961258143215
 20
0.0267301387230432
 10
2.213351742781525
 20
0.0265301015350124
 10
2.213726565409062
 20
0.0263020652214337
  0
LWPOLYLINE
  5
4D3
330
2
100
AcDbEntity
  8
SANINDUSA
100
AcDbPolyline
 90
        6
 70
   128
 43
0.0
 10
2.209569102369197
 20
0.0272862568217502
 10
2.209847840098379
 20
0.0272870942179739
 10
2.210095228381675
 20
0.0272884973936848
 10
2.210283293851849
 20
0.0272903062186006
 10
2.210390478687069
 20
0.0272923085106268
 10
2.210410798653275
 20
0.0272936116212045
  0
LWPOLYLINE
  5
4D4
330
2
100
AcDbEntity
  8
SANINDUSA
100
AcDbPolyline
 90
        6
 70
   128
 43
0.0
 10
2.204728622356825
 20
0.0272851140439903
 10
2.204775950607178
 20
0.0272832592824639
 10
2.204912623330225
 20
0.0272817219243203
 10
2.205123187247833
 20
0.0272806768460978
 10
2.205383939843947
 20
0.027280242992596
 10
2.205569088043222
 20
0.0272803184824298
  0
LWPOLYLINE
  5
4D5
330
2
100
AcDbEntity
  8
SANINDUSA
100
AcDbPolyline
 90
        9
 70
   128
 43
0.0
 10
2.201414870074505
 20
0.0262827973104473
 10
2.201789083087789
 20
0.0265121255779755
 10
2.202179059299857
 20
0.026713485847678
 10
2.202582712020077
 20
0.0268858006779706
 10
2.202997881377342
 20
0.0270281480440408
 10
2.203422345877162
 20
0.0271397662714449
 10
2.203853834288444
 20
0.027220058111674
 10
2.204290037796451
 20
0.0272685939379349
 10
2.204728622356825
 20
0.0272851140439903
  0
LWPOLYLINE
  5
4D6
330
2
100
AcDbEntity
  8
SANINDUSA
100
AcDbPolyline
 90
        9
 70
   128
 43
0.0
 10
2.192041797666294
 20
0.0252788886216845
 10
2.191602899359274
 20
0.0252948941638706
 10
2.191166347686031
 20
0.0253429611902894
 10
2.190734481689402
 20
0.0254228321579254
 10
2.190309615306379
 20
0.0255340791183235
 10
2.189894024970041
 20
0.0256761060105342
 10
2.189489937412433
 20
0.0258481518548015
 10
2.189099517733731
 20
0.0260492948298966
 10
2.188724857801654
 20
0.0262784572122373
  0
LWPOLYLINE
  5
4D7
330
2
100
AcDbEntity
  8
SANINDUSA
100
AcDbPolyline
 90
        9
 70
   128
 43
0.0
 10
2.201414870074505
 20
0.0262827973104473
 10
2.201040231429393
 20
0.026053229008352
 10
2.200649796777726
 20
0.0258516922506297
 10
2.20024565991379
 20
0.0256792678238085
 10
2.199829988113084
 20
0.0255368803929437
 10
2.199405010509828
 20
0.0254252935428977
 10
2.198973006142701
 20
0.0253451056834356
 10
2.198536291733013
 20
0.0252967468401212
 10
2.198097209260737
 20
0.0252804763482109
  0
LINE
  5
4D8
330
2
100
AcDbEntity
  8
SANINDUSA
100
AcDbLine
 10
2.210565817212512
 20
0.0000000000000018
 30
0.0
 11
2.202069235074881
 21
0.0000000000000018
 31
0.0
  0
ARC
  5
4D9
330
2
100
AcDbEntity
  8
SANINDUSA
100
AcDbCircle
 10
2.202069235074881
 20
0.002
 30
0.0
 40
0.0020000000000002
100
AcDbArc
 50
180.0
 51
270.0
  0
LWPOLYLINE
  5
4DA
330
2
100
AcDbEntity
  8
SANINDUSA
100
AcDbPolyline
 90
        6
 70
   128
 43
0.0
 10
2.192049086339385
 20
0.033251225849821
 10
2.192046914595677
 20
0.0294056990160757
 10
2.192045709852319
 20
0.0282032725912441
 10
2.192045404166216
 20
0.0279313713289994
 10
2.192043265501093
 20
0.0262555901790998
 10
2.192041797666294
 20
0.0252788886216845
  0
LWPOLYLINE
  5
4DB
330
2
100
AcDbEntity
  8
SANINDUSA
100
AcDbPolyline
 90
        3
 70
   128
 43
0.0
 10
2.209572821520133
 20
0.0252430564971669
 10
2.207569244065545
 20
0.0252398086989311
 10
2.205571494453357
 20
0.0252372170619074
  0
LWPOLYLINE
  5
4DC
330
2
100
AcDbEntity
  8
SANINDUSA
100
AcDbPolyline
 90
        6
 70
   128
 43
0.0
 10
2.205571494453357
 20
0.0252372170619074
 10
2.203103151876499
 20
0.0252373898300235
 10
2.200906978497911
 20
0.0252434460862415
 10
2.19978916772283
 20
0.0252498610138073
 10
2.198547500633518
 20
0.0252634900141166
 10
2.198097209260737
 20
0.0252804763482132
  0
LWPOLYLINE
  5
4DD
330
2
100
AcDbEntity
  8
SANINDUSA
100
AcDbPolyline
 90
        6
 70
   128
 43
0.0
 10
2.198097209260737
 20
0.0252804763482109
 10
2.19809938251478
 20
0.0267563001620184
 10
2.198100575281775
 20
0.0276824280838051
 10
2.198100887095571
 20
0.0279435606883103
 10
2.198103203913444
 20
0.0302976507848862
 10
2.198104730966798
 20
0.0332743513913138
  0
LINE
  5
4DE
330
2
100
AcDbEntity
  8
SANINDUSA
100
AcDbLine
 10
2.200069235074882
 20
0.002
 30
0.0
 11
2.200069235074882
 21
0.0121196892561841
 31
0.0
  0
ARC
  5
4DF
330
2
100
AcDbEntity
  8
SANINDUSA
100
AcDbCircle
 10
2.210565817212512
 20
0.002
 30
0.0
 40
0.002
100
AcDbArc
 50
270.0
 51
341.6542548680668
  0
LWPOLYLINE
  5
4E0
330
2
100
AcDbEntity
  8
SANINDUSA
100
AcDbPolyline
 90
        9
 70
   128
 43
0.0
 10
2.235408733207765
 20
0.0354275110425956
 10
2.235847579773382
 20
0.0354134569295789
 10
2.236284222814862
 20
0.0353673683685375
 10
2.236716324058976
 20
0.0352894921689645
 10
2.237141569554329
 20
0.0351802453667815
 10
2.237557682062839
 20
0.0350402129910631
 10
2.237962433254616
 20
0.0348701449311343
 10
2.238353655640914
 20
0.0346709519208335
 10
2.238729254181281
 20
0.0344437006614308
  0
LWPOLYLINE
  5
4E1
330
2
100
AcDbEntity
  8
SANINDUSA
100
AcDbPolyline
 90
        9
 70
   128
 43
0.0
 10
2.235409578197105
 20
0.0275482779004633
 10
2.235848300115664
 20
0.0275344893101592
 10
2.236284839957367
 20
0.0274886649905275
 10
2.236716861420874
 20
0.0274110501870373
 10
2.237142052386576
 20
0.0273020602834722
 10
2.237558137290749
 20
0.0271622785788455
 10
2.237962889304068
 20
0.0269924531656616
 10
2.238354142249287
 20
0.026793492926237
 10
2.238729802194308
 20
0.0265664626684784
  0
LWPOLYLINE
  5
4E2
330
2
100
AcDbEntity
  8
SANINDUSA
100
AcDbPolyline
 90
        9
 70
   128
 43
0.0
 10
2.226418123930567
 20
0.0343886696878704
 10
2.226044435790205
 20
0.0341579879538508
 10
2.225654862187463
 20
0.0339552444191955
 10
2.225251490865813
 20
0.0337815255961473
 10
2.224836483511345
 20
0.0336377624521393
 10
2.224412064168206
 20
0.033524725420697
 10
2.223980507319839
 20
0.0334430202726494
 10
2.223544125699919
 20
0.0333930848697687
 10
2.223105257898302
 20
0.0333751868182517
  0
LWPOLYLINE
  5
4E3
330
2
100
AcDbEntity
  8
SANINDUSA
100
AcDbPolyline
 90
        9
 70
   128
 43
0.0
 10
2.226418123930567
 20
0.0343886696878704
 10
2.226791689422936
 20
0.0346192827282803
 10
2.227181130839295
 20
0.0348219758678661
 10
2.227584362484032
 20
0.0349956635615982
 10
2.227999224806468
 20
0.0351394156062534
 10
2.228423495966573
 20
0.0352524621222088
 10
2.228854903734269
 20
0.0353341976766242
 10
2.229291137658607
 20
0.0353841845259026
 10
2.229729861441639
 20
0.0354021549600648
  0
LWPOLYLINE
  5
4E4
330
2
100
AcDbEntity
  8
SANINDUSA
100
AcDbPolyline
 90
        6
 70
   128
 43
0.0
 10
2.235408733207765
 20
0.0354275110425956
 10
2.235361362831242
 20
0.0354372880939437
 10
2.235224476608606
 20
0.0354455394318111
 10
2.235013239635474
 20
0.0354513302642263
 10
2.234752255649406
 20
0.0354539896564202
 10
2.234569357668525
 20
0.0354538870372803
  0
LINE
  5
4E5
330
2
100
AcDbEntity
  8
SANINDUSA
100
AcDbLine
 10
2.234569357668527
 20
0.0354538870372785
 30
0.0
 11
2.230569377443256
 21
0.0354360590707047
 31
0.0
  0
LWPOLYLINE
  5
4E6
330
2
100
AcDbEntity
  8
SANINDUSA
100
AcDbPolyline
 90
        6
 70
   128
 43
0.0
 10
2.230569377443254
 20
0.0354360590707065
 10
2.230291651500353
 20
0.0354331380574186
 10
2.230045365767856
 20
0.0354271474839166
 10
2.229858207964936
 20
0.035418773770979
 10
2.229750660161909
 20
0.0354089287195248
 10
2.229729861441639
 20
0.0354021549600648
  0
LWPOLYLINE
  5
4E7
330
2
100
AcDbEntity
  8
SANINDUSA
100
AcDbPolyline
 90
        4
 70
   128
 43
0.0
 10
2.235193705805583
 20
0.0275422676746976
 10
2.235344645500082
 20
0.0275451185164698
 10
2.235408151354901
 20
0.0275478431566458
 10
2.235409578197105
 20
0.0275482779004633
  0
LWPOLYLINE
  5
4E8
330
2
100
AcDbEntity
  8
SANINDUSA
100
AcDbPolyline
 90
        9
 70
   128
 43
0.0
 10
2.235193705805583
 20
0.0275422676746976
 10
2.235519769736521
 20
0.0275253416112619
 10
2.235844253841229
 20
0.0274763959864108
 10
2.236165421492416
 20
0.0273956927553709
 10
2.236481553812324
 20
0.0272836638389449
 10
2.236790958872107
 20
0.0271409088118744
 10
2.237091980746983
 20
0.0269681916939444
 10
2.23738300837867
 20
0.0267664368609795
 10
2.237662484197718
 20
0.0265367240976152
  0
LINE
  5
4E9
330
2
100
AcDbEntity
  8
SANINDUSA
100
AcDbLine
 10
2.231193769318113
 20
0.0274847373398161
 30
0.0
 11
2.235193705805585
 21
0.0275422676746958
 31
0.0
  0
LWPOLYLINE
  5
4EA
330
2
100
AcDbEntity
  8
SANINDUSA
100
AcDbPolyline
 90
        9
 70
   128
 43
0.0
 10
2.233662111162654
 20
0.0264791364475914
 10
2.233382728501648
 20
0.0267088537666942
 10
2.233091783818914
 20
0.0269106139264696
 10
2.232790834203389
 20
0.0270833371391419
 10
2.232481490288789
 20
0.0272260990179794
 10
2.232165407633766
 20
0.0273381355244729
 10
2.231844277861624
 20
0.0274188470573418
 10
2.231519819607016
 20
0.0274678016614999
 10
2.231193769318112
 20
0.027484737339818
  0
LWPOLYLINE
  5
4EB
330
2
100
AcDbEntity
  8
SANINDUSA
100
AcDbPolyline
 90
        9
 70
   128
 43
0.0
 10
2.229728680876643
 20
0.0274825395612234
 10
2.229776048240111
 20
0.0274804427274731
 10
2.229912801679721
 20
0.0274790268777852
 10
2.230123484160236
 20
0.0274784517996741
 10
2.230384450217253
 20
0.0274787826476896
 10
2.230666299403025
 20
0.0274799831619967
 10
2.230937210586872
 20
0.0274819182770434
 10
2.231166603818111
 20
0.0274843694280494
 10
2.231193769318112
 20
0.027484737339818
  0
LWPOLYLINE
  5
4EC
330
2
100
AcDbEntity
  8
SANINDUSA
100
AcDbPolyline
 90
        9
 70
   128
 43
0.0
 10
2.226418463745768
 20
0.0264684482093517
 10
2.226791864032717
 20
0.0266991073382283
 10
2.227181127388718
 20
0.0269018541994447
 10
2.227584170875103
 20
0.0270756038995219
 10
2.227998837816068
 20
0.0272194267080741
 10
2.228422909338979
 20
0.0273325530327875
 10
2.228854116247531
 20
0.0274143775374696
 10
2.229290151164133
 20
0.0274644623812051
 10
2.229728680876643
 20
0.0274825395612234
  0
LWPOLYLINE
  5
4ED
330
2
100
AcDbEntity
  8
SANINDUSA
100
AcDbPolyline
 90
        9
 70
   128
 43
0.0
 10
2.24013396812171
 20
0.0255311752362323
 10
2.239807561611684
 20
0.0255478733284568
 10
2.239482725469967
 20
0.0255966573786409
 10
2.239161201745043
 20
0.0256772657650882
 10
2.238844714721391
 20
0.0257892661968768
 10
2.238534961672409
 20
0.0259320580321483
 10
2.238233603758164
 20
0.0261048754992762
 10
2.237942257116861
 20
0.026306791803585
 10
2.237662484197718
 20
0.0265367240976152
  0
LWPOLYLINE
  5
4EE
330
2
100
AcDbEntity
  8
SANINDUSA
100
AcDbPolyline
 90
        9
 70
   128
 43
0.0
 10
2.236133254972761
 20
0.0254735306906119
 10
2.235806850416317
 20
0.0254902339698893
 10
2.235482028068564
 20
0.0255390238417104
 10
2.235160529930955
 20
0.0256196386491174
 10
2.234844080177423
 20
0.0257316460600546
 10
2.234534375907734
 20
0.025874445385954
 10
2.23423307804606
 20
0.0260472708031685
 10
2.233941802433547
 20
0.0262491954600492
 10
2.233662111162654
 20
0.0264791364475914
  0
LWPOLYLINE
  5
4EF
330
2
100
AcDbEntity
  8
SANINDUSA
100
AcDbPolyline
 90
        9
 70
   128
 43
0.0
 10
2.226418463745768
 20
0.0264684482093517
 10
2.226044591297351
 20
0.0262375207416872
 10
2.225654819058997
 20
0.0260345760509031
 10
2.225251237853418
 20
0.0258607027762801
 10
2.224836012577631
 20
0.0257168336117266
 10
2.224411370589961
 20
0.0256037403026076
 10
2.223979589762012
 20
0.025522029505934
 10
2.223542986259686
 20
0.0254721395361176
 10
2.223103902118742
 20
0.0254543380137616
  0
LINE
  5
4F0
330
2
100
AcDbEntity
  8
SANINDUSA
100
AcDbLine
 10
2.240607604149416
 20
0.0251450834401585
 30
0.0
 11
2.221172294279476
 21
0.0250516605689234
 31
0.0
  0
LINE
  5
4F1
330
2
100
AcDbEntity
  8
SANINDUSA
100
AcDbLine
 10
2.240607604149416
 20
0.0251450834401585
 30
0.0
 11
2.24060760416536
 21
0.025145261539853
 31
0.0
  0
LINE
  5
4F2
330
2
100
AcDbEntity
  8
SANINDUSA
100
AcDbLine
 10
2.240133968121711
 20
0.0255311752362305
 30
0.0
 11
2.236133254972763
 21
0.02547353069061
 31
0.0
  0
LWPOLYLINE
  5
4F3
330
2
100
AcDbEntity
  8
SANINDUSA
100
AcDbPolyline
 90
        9
 70
   128
 43
0.0
 10
2.236133254972761
 20
0.0254735306906119
 10
2.234164700205866
 20
0.0254512226004809
 10
2.231791834358979
 20
0.0254332048528354
 10
2.229282154236845
 20
0.0254215390276604
 10
2.226918547056804
 20
0.0254175619232856
 10
2.224967515156178
 20
0.0254217123503227
 10
2.224059239522768
 20
0.0254282308280804
 10
2.223216415892471
 20
0.0254440853583369
 10
2.223103902118742
 20
0.0254543380137616
  0
LWPOLYLINE
  5
4F4
330
2
100
AcDbEntity
  8
SANINDUSA
100
AcDbPolyline
 90
        6
 70
   128
 43
0.0
 10
2.223103902118742
 20
0.0254543380137616
 10
2.223104545718607
 20
0.0269670377914863
 10
2.22310486707414
 20
0.0279338082279983
 10
2.223104944272405
 20
0.0282049890328099
 10
2.223105367323393
 20
0.0305107586411591
 10
2.223105257898302
 20
0.0333751868182517
  0
LWPOLYLINE
  5
4F5
330
2
100
AcDbEntity
  8
SANINDUSA
100
AcDbPolyline
 90
        6
 70
   128
 43
0.0
 10
2.217049548187316
 20
0.0333502102742264
 10
2.217049791194269
 20
0.02948632344907
 10
2.217049643492747
 20
0.0282726316394647
 10
2.217049595940244
 20
0.0279978328573693
 10
2.217049194490602
 20
0.0263015203685873
 10
2.217048866310043
 20
0.0253105360386135
  0
LINE
  5
4F6
330
2
100
AcDbEntity
  8
SANINDUSA
100
AcDbLine
 10
2.222192200851771
 20
0.0121352995045455
 30
0.0
 11
2.221932743084406
 21
0.0120141295978483
 31
0.0
  0
ARC
  5
4F7
330
2
100
AcDbEntity
  8
SANINDUSA
100
AcDbCircle
 10
2.226423625172864
 20
0.0030746677266321
 30
0.0
 40
0.0100000000000033
100
AcDbArc
 50
90.24103918884735
 51
115.0331419445415
  0
LWPOLYLINE
  5
4F8
330
2
100
AcDbEntity
  8
SANINDUSA
100
AcDbPolyline
 90
        9
 70
   128
 43
0.0
 10
2.267053181501984
 20
0.0335923324072169
 10
2.266614128222323
 20
0.0336058722341536
 10
2.266177242700702
 20
0.0336514772539286
 10
2.265744866538131
 20
0.0337289030346406
 10
2.265319317166542
 20
0.0338377345927748
 10
2.264902875427916
 20
0.0339773886174399
 10
2.264497773349518
 20
0.0341471165967428
 10
2.264106182180773
 20
0.0343460088296629
 10
2.263730200755882
 20
0.0345729993018031
  0
LWPOLYLINE
  5
4F9
330
2
100
AcDbEntity
  8
SANINDUSA
100
AcDbPolyline
 90
        9
 70
   128
 43
0.0
 10
2.260408743384747
 20
0.0355536544043835
 10
2.260847603221956
 20
0.0355400183482916
 10
2.261284290057002
 20
0.0354943454542595
 10
2.261716465381274
 20
0.0354168803059261
 10
2.262141814845819
 20
0.0353080377381403
 10
2.262558060654961
 20
0.0351684006154679
 10
2.262962973764148
 20
0.0349987167108807
 10
2.263354385816757
 20
0.0347998947013585
 10
2.263730200755882
 20
0.0345729993018031
  0
LWPOLYLINE
  5
4FA
330
2
100
AcDbEntity
  8
SANINDUSA
100
AcDbPolyline
 90
        7
 70
   128
 43
0.0
 10
2.260409930794609
 20
0.0279831207298494
 10
2.260848634838927
 20
0.0279704201650648
 10
2.261285236750424
 20
0.0279256867250288
 10
2.261717400435219
 20
0.0278491597616872
 10
2.262142813546721
 20
0.027741248742258
 10
2.26255919985813
 20
0.0276025310583341
 10
2.263357605539435
 20
0.0273005980976027
  0
LWPOLYLINE
  5
4FB
330
2
100
AcDbEntity
  8
SANINDUSA
100
AcDbPolyline
 90
        9
 70
   128
 43
0.0
 10
2.251419085441517
 20
0.0345063771529331
 10
2.251045583985197
 20
0.034275337484859
 10
2.250656169469549
 20
0.0340722253986647
 10
2.250252929060681
 20
0.0338981295252225
 10
2.249838024028087
 20
0.0337539829756329
 10
2.249413678160787
 20
0.0336405583399769
 10
2.248982165848348
 20
0.0335584635464275
 10
2.248545799890727
 20
0.0335081386029074
 10
2.248106919102216
 20
0.0334898532387424
  0
LWPOLYLINE
  5
4FC
330
2
100
AcDbEntity
  8
SANINDUSA
100
AcDbPolyline
 90
        9
 70
   128
 43
0.0
 10
2.251419085441517
 20
0.0345063771529331
 10
2.251792421782785
 20
0.034737324926954
 10
2.252181658312939
 20
0.0349403697507537
 10
2.252584710623074
 20
0.0351144242946284
 10
2.252999420319107
 20
0.0352585564753545
 10
2.253423566580228
 20
0.0353719944475952
 10
2.253854878051685
 20
0.0354541307372224
 10
2.254291045008145
 20
0.0355045254944312
 10
2.254729731722574
 20
0.035522908849172
  0
LWPOLYLINE
  5
4FD
330
2
100
AcDbEntity
  8
SANINDUSA
100
AcDbPolyline
 90
        6
 70
   128
 43
0.0
 10
2.260408743384743
 20
0.0355536544043835
 10
2.260361357886996
 20
0.035563316124657
 10
2.260224443651242
 20
0.0355713745854828
 10
2.260013172114492
 20
0.0355769174103776
 10
2.259752119612636
 20
0.0355793025298786
 10
2.259569235769514
 20
0.0355790214099434
  0
LINE
  5
4FE
330
2
100
AcDbEntity
  8
SANINDUSA
100
AcDbLine
 10
2.259569235769516
 20
0.0355790214099416
 30
0.0
 11
2.255569260707928
 21
0.0355574104109083
 31
0.0
  0
LWPOLYLINE
  5
4FF
330
2
100
AcDbEntity
  8
SANINDUSA
100
AcDbPolyline
 90
        6
 70
   128
 43
0.0
 10
2.255569260707926
 20
0.0355574104109101
 10
2.255291524687919
 20
0.0355542386308562
 10
2.255045217449061
 20
0.0355480470836838
 10
2.254858032260842
 20
0.0355395433887216
 10
2.254750509629308
 20
0.0355296563629545
 10
2.254729731722574
 20
0.035522908849172
  0
LWPOLYLINE
  5
500
330
2
100
AcDbEntity
  8
SANINDUSA
100
AcDbPolyline
 90
        4
 70
   128
 43
0.0
 10
2.260194073340009
 20
0.027975222345207
 10
2.260344988992097
 20
0.0279790201461802
 10
2.260408501814082
 20
0.0279825641062157
 10
2.260409930794609
 20
0.0279831207298494
  0
LWPOLYLINE
  5
501
330
2
100
AcDbEntity
  8
SANINDUSA
100
AcDbPolyline
 90
        6
 70
   128
 43
0.0
 10
2.260194073340009
 20
0.027975222345207
 10
2.260520135046837
 20
0.0279583960003097
 10
2.260844696436339
 20
0.0279095556952316
 10
2.26116602073144
 20
0.0278289627818336
 10
2.26148238847724
 20
0.0277170485249817
 10
2.262412783582979
 20
0.0272929712364526
  0
LINE
  5
502
330
2
100
AcDbEntity
  8
SANINDUSA
100
AcDbLine
 10
2.256194101697422
 20
0.0278972060602992
 30
0.0
 11
2.260194073340011
 21
0.0279752223452051
 31
0.0
  0
LWPOLYLINE
  5
503
330
2
100
AcDbEntity
  8
SANINDUSA
100
AcDbPolyline
 90
        6
 70
   128
 43
0.0
 10
2.258327124671052
 20
0.027261176376273
 10
2.257482290747695
 20
0.0276388947314686
 10
2.257165975670738
 20
0.0277508427288004
 10
2.256844690080244
 20
0.0278314699278658
 10
2.256520153211414
 20
0.027880344883487
 10
2.25619410169742
 20
0.027897206060301
  0
LWPOLYLINE
  5
504
330
2
100
AcDbEntity
  8
SANINDUSA
100
AcDbPolyline
 90
        9
 70
   128
 43
0.0
 10
2.254728671330719
 20
0.0278928604502508
 10
2.254776024119515
 20
0.0278902014821202
 10
2.254912752421975
 20
0.0278885129458436
 10
2.255123409318008
 20
0.0278879859605823
 10
2.255384297058837
 20
0.0278886803897708
 10
2.255666117899892
 20
0.027890519332831
 10
2.255937172091659
 20
0.0278932971586974
 10
2.25616679501573
 20
0.0278967005175846
 10
2.25619410169742
 20
0.027897206060301
  0
LWPOLYLINE
  5
505
330
2
100
AcDbEntity
  8
SANINDUSA
100
AcDbPolyline
 90
        7
 70
   128
 43
0.0
 10
2.251907114174068
 20
0.0272151064013863
 10
2.252585112900784
 20
0.0274808087727106
 10
2.252999440065974
 20
0.0276256207073734
 10
2.253423245377331
 20
0.027739758665829
 10
2.253854261006505
 20
0.027822611883436
 10
2.25429018054193
 20
0.0278737370036029
 10
2.254728671330719
 20
0.0278928604502508
  0
ARC
  5
506
330
2
100
AcDbEntity
  8
SANINDUSA
100
AcDbCircle
 10
2.24726643677778
 20
0.0211846481668745
 30
0.0
 40
0.0060000000000001
100
AcDbArc
 50
90.35945319146794
 51
123.8983518457612
  0
LINE
  5
507
330
2
100
AcDbEntity
  8
SANINDUSA
100
AcDbLine
 10
2.24722879519505
 20
0.0271847081477695
 30
0.0
 11
2.247228795174513
 21
0.0271845300915193
 31
0.0
  0
LINE
  5
508
330
2
100
AcDbEntity
  8
SANINDUSA
100
AcDbLine
 10
2.243920109380681
 20
0.0261648181390156
 30
0.0
 11
2.243920109373487
 21
0.0261649962168276
 31
0.0
  0
LWPOLYLINE
  5
509
330
2
100
AcDbEntity
  8
SANINDUSA
100
AcDbPolyline
 90
        6
 70
   128
 43
0.0
 10
2.242051300306635
 20
0.0334598859464736
 10
2.242052827996936
 20
0.0298872107545676
 10
2.242053177658514
 20
0.0286352076105245
 10
2.242053244532236
 20
0.0283503954084782
 10
2.242053551524633
 20
0.0266559657920484
 10
2.242053660993202
 20
0.0255846673632314
  0
LWPOLYLINE
  5
50A
330
2
100
AcDbEntity
  8
SANINDUSA
100
AcDbPolyline
 90
        6
 70
   128
 43
0.0
 10
2.248108852109913
 20
0.0273143078263402
 10
2.248108848577227
 20
0.0273569542340434
 10
2.248108690029873
 20
0.0283779917568555
 10
2.248108634930905
 20
0.0286622896859435
 10
2.248108049192093
 20
0.0308443727260115
 10
2.248106919102216
 20
0.0334898532387424
  0
LWPOLYLINE
  5
50B
330
2
100
AcDbEntity
  8
SANINDUSA
100
AcDbPolyline
 90
        5
 70
   128
 43
0.0
 10
2.267053181501984
 20
0.0335923324072169
 10
2.267055877735098
 20
0.0304371684576054
 10
2.267056864894831
 20
0.0291412485389756
 10
2.267057081481376
 20
0.0288447689917976
 10
2.267057934954024
 20
0.0276157362299696
  0
LWPOLYLINE
  5
50C
330
2
100
AcDbEntity
  8
SANINDUSA
100
AcDbPolyline
 90
        9
 70
   128
 43
0.0
 10
2.292055333790491
 20
0.0337496153049611
 10
2.291616251679867
 20
0.0337626893979305
 10
2.291179303373625
 20
0.0338078336390154
 10
2.29074683096576
 20
0.0338848060498085
 10
2.290321152558923
 20
0.0339931940491934
 10
2.289904549839144
 20
0.0341324166648192
 10
2.289499255845691
 20
0.0343017276471929
 10
2.289107443001745
 20
0.0345002194696613
 10
2.28873121146995
 20
0.034726828192851
  0
LWPOLYLINE
  5
50D
330
2
100
AcDbEntity
  8
SANINDUSA
100
AcDbPolyline
 90
        9
 70
   128
 43
0.0
 10
2.285408857271378
 20
0.0357040231408669
 10
2.285847714979237
 20
0.0356908378111976
 10
2.286284432761746
 20
0.0356456152669821
 10
2.28671667211394
 20
0.0355685976626447
 10
2.287142118511625
 20
0.0354601974065159
 10
2.287558493805028
 20
0.035320994952489
 10
2.287963568417677
 20
0.0351517356918535
 10
2.288355173285177
 20
0.034953325961923
 10
2.28873121146995
 20
0.034726828192851
  0
LWPOLYLINE
  5
50E
330
2
100
AcDbEntity
  8
SANINDUSA
100
AcDbPolyline
 90
        7
 70
   128
 43
0.0
 10
2.285409865712023
 20
0.0285485148025864
 10
2.285848619270383
 20
0.0285369461015662
 10
2.286285353139184
 20
0.0284933374523135
 10
2.286717730324568
 20
0.0284179222077992
 10
2.287143437145597
 20
0.0283111039203359
 10
2.28756019561492
 20
0.0281734541821461
 10
2.289085466530585
 20
0.0275478704147377
  0
LWPOLYLINE
  5
50F
330
2
100
AcDbEntity
  8
SANINDUSA
100
AcDbPolyline
 90
        9
 70
   128
 43
0.0
 10
2.276420077341974
 20
0.0346478312782656
 10
2.276046792910157
 20
0.0344164239479201
 10
2.275657567827048
 20
0.0342129301819605
 10
2.275254488319625
 20
0.0340384406967965
 10
2.274839714873884
 20
0.0338938907473394
 10
2.274415470654754
 20
0.0337800551140859
 10
2.273984029590025
 20
0.0336975439503422
 10
2.273547704182225
 20
0.0336467995118133
 10
2.273108833113725
 20
0.0336280937861548
  0
LWPOLYLINE
  5
510
330
2
100
AcDbEntity
  8
SANINDUSA
100
AcDbPolyline
 90
        9
 70
   128
 43
0.0
 10
2.276420077341974
 20
0.0346478312782656
 10
2.276793179870661
 20
0.0348791381911101
 10
2.277182208837586
 20
0.0350825586713418
 10
2.277585081053554
 20
0.0352570034341434
 10
2.27799963920094
 20
0.035401538355126
 10
2.278423663385771
 20
0.0355153894724199
 10
2.278854883024947
 20
0.0355979471311198
 10
2.279290989004822
 20
0.035648769247895
 10
2.279729646046168
 20
0.0356675836782656
  0
LWPOLYLINE
  5
511
330
2
100
AcDbEntity
  8
SANINDUSA
100
AcDbPolyline
 90
        6
 70
   128
 43
0.0
 10
2.285408857271378
 20
0.0357040231408669
 10
2.285361453281567
 20
0.0357135189181159
 10
2.285224508293951
 20
0.0357213325985995
 10
2.285013218449609
 20
0.0357265805776379
 10
2.284752078461639
 20
0.0357286562886216
 10
2.284569091129516
 20
0.0357281811195858
  0
LINE
  5
512
330
2
100
AcDbEntity
  8
SANINDUSA
100
AcDbLine
 10
2.284569091129518
 20
0.035728181119584
 30
0.0
 11
2.280569113443605
 21
0.0357025770439641
 31
0.0
  0
LWPOLYLINE
  5
513
330
2
100
AcDbEntity
  8
SANINDUSA
100
AcDbPolyline
 90
        6
 70
   128
 43
0.0
 10
2.280569113443604
 20
0.0357025770439659
 10
2.2802913988914
 20
0.0356991516953658
 10
2.28004509018219
 20
0.0356927725570577
 10
2.279857909253675
 20
0.0356841674167586
 10
2.279750420585211
 20
0.0356742787359545
 10
2.279729646046168
 20
0.0356675836782656
  0
LWPOLYLINE
  5
514
330
2
100
AcDbEntity
  8
SANINDUSA
100
AcDbPolyline
 90
        4
 70
   128
 43
0.0
 10
2.285193993658837
 20
0.0285387714195204
 10
2.285344924139091
 20
0.0285435053738743
 10
2.285408437542042
 20
0.0285478426272507
 10
2.285409865712023
 20
0.0285485148025864
  0
LWPOLYLINE
  5
515
330
2
100
AcDbEntity
  8
SANINDUSA
100
AcDbPolyline
 90
        7
 70
   128
 43
0.0
 10
2.285193993658833
 20
0.0285387714195204
 10
2.285520104760054
 20
0.0285221170218907
 10
2.285844798274416
 20
0.0284734489693702
 10
2.286166336695402
 20
0.028393027695428
 10
2.286482999400074
 20
0.0282812835520181
 10
2.286793091856544
 20
0.0281388145066731
 10
2.287873098156016
 20
0.0275345034990496
  0
LINE
  5
516
330
2
100
AcDbEntity
  8
SANINDUSA
100
AcDbLine
 10
2.281193995115653
 20
0.028440083257005
 30
0.0
 11
2.285193993658834
 21
0.0285387714195186
 31
0.0
  0
LWPOLYLINE
  5
517
330
2
100
AcDbEntity
  8
SANINDUSA
100
AcDbPolyline
 90
        7
 70
   128
 43
0.0
 10
2.283849776237497
 20
0.027491359871204
 10
2.282792936741012
 20
0.0280400038684311
 10
2.282482900280048
 20
0.0281824973044823
 10
2.282166281428368
 20
0.0282942660234394
 10
2.281844774486641
 20
0.0283747119250452
 10
2.281520099912837
 20
0.0284234045246867
 10
2.281193995115651
 20
0.0284400832570068
  0
LWPOLYLINE
  5
518
330
2
100
AcDbEntity
  8
SANINDUSA
100
AcDbPolyline
 90
        9
 70
   128
 43
0.0
 10
2.279728607354287
 20
0.0284331659287741
 10
2.279775969316748
 20
0.0284299878377388
 10
2.279912716781806
 20
0.0284280896214173
 10
2.280123394016792
 20
0.0284276858829858
 10
2.280384333852536
 20
0.0284288225871015
 10
2.280666194764422
 20
0.0284313730731574
 10
2.280937204898688
 20
0.0284350506494584
 10
2.281166737936156
 20
0.0284394398837108
 10
2.281193995115651
 20
0.0284400832570068
  0
LWPOLYLINE
  5
519
330
2
100
AcDbEntity
  8
SANINDUSA
100
AcDbPolyline
 90
        7
 70
   128
 43
0.0
 10
2.276202467855552
 20
0.0274145039716798
 10
2.277586164615701
 20
0.0280154630028429
 10
2.278000103971
 20
0.0281613641200002
 10
2.278423602347117
 20
0.0282766178073657
 10
2.278854393598086
 20
0.0283606073407864
 10
2.279290172553652
 20
0.0284128832910474
 10
2.279728607354287
 20
0.0284331659287741
  0
ARC
  5
51A
330
2
100
AcDbEntity
  8
SANINDUSA
100
AcDbCircle
 10
2.282150890944966
 20
0.0050000000000019
 30
0.0
 40
0.0050000000000001
100
AcDbArc
 50
185.0000000000003
 51
270.0
  0
LWPOLYLINE
  5
51B
330
2
100
AcDbEntity
  8
SANINDUSA
100
AcDbPolyline
 90
        6
 70
   128
 43
0.0
 10
2.273113410276156
 20
0.0276944814641038
 10
2.273113334907371
 20
0.0278152893764482
 10
2.273112615575234
 20
0.0288837519704103
 10
2.273112408448729
 20
0.0291792771532314
 10
2.273110882635247
 20
0.0312151561522901
 10
2.273108833113725
 20
0.0336280937861571
  0
LWPOLYLINE
  5
51C
330
2
100
AcDbEntity
  8
SANINDUSA
100
AcDbPolyline
 90
        5
 70
   128
 43
0.0
 10
2.292055333790491
 20
0.0337496153049611
 10
2.292058783733497
 20
0.0310354881411891
 10
2.292060382459077
 20
0.0297052620900595
 10
2.292060742032614
 20
0.0293993640112504
 10
2.292062268349619
 20
0.0280680758480631
  0
LINE
  5
51D
330
2
100
AcDbEntity
  8
SANINDUSA
100
AcDbLine
 10
2.27716991745451
 20
0.0045642212862613
 30
0.0
 11
2.276798630556958
 21
0.0088080499445819
 31
0.0
  0
ARC
  5
51E
330
2
100
AcDbEntity
  8
SANINDUSA
100
AcDbCircle
 10
2.271817657066502
 20
0.0083722712308436
 30
0.0
 40
0.0050000000000001
100
AcDbArc
 50
5.000000000000313
 51
90.52143710123869
  0
LWPOLYLINE
  5
51F
330
2
100
AcDbEntity
  8
SANINDUSA
100
AcDbPolyline
 90
        9
 70
   128
 43
0.0
 10
2.401426094414047
 20
0.0357797970361108
 10
2.40179780406511
 20
0.0360133383346093
 10
2.402185604083816
 20
0.0362190861418881
 10
2.402587418021672
 20
0.0363959387954779
 10
2.403001094393617
 20
0.0365429493500269
 10
2.403424418198011
 20
0.0366593306476434
 10
2.403855122776687
 20
0.0367444595326825
 10
2.404290901951641
 20
0.0367978801883956
 10
2.404729422373294
 20
0.0368193065775554
  0
LWPOLYLINE
  5
520
330
2
100
AcDbEntity
  8
SANINDUSA
100
AcDbPolyline
 90
        9
 70
   128
 43
0.0
 10
2.351423612244927
 20
0.0352370265457958
 10
2.351051119639793
 20
0.0350042998859126
 10
2.35066258820778
 20
0.0347994355311985
 10
2.350260100624033
 20
0.0346235316319271
 10
2.349845814373944
 20
0.0344775310994046
 10
2.349421950188212
 20
0.0343622165516027
 10
2.34899078013888
 20
0.0342782061180279
 10
2.348554615460185
 20
0.0342259501263189
 10
2.348115794159454
 20
0.0342057286883201
  0
LWPOLYLINE
  5
521
330
2
100
AcDbEntity
  8
SANINDUSA
100
AcDbPolyline
 90
        9
 70
   128
 43
0.0
 10
2.32642238944041
 20
0.0350113969057671
 10
2.326049620463392
 20
0.0347791270595408
 10
2.325660846514252
 20
0.03457473742693
 10
2.325258151528216
 20
0.0343993235925464
 10
2.324843694061097
 20
0.0342538258227628
 10
2.324419695718849
 20
0.0341390240256138
 10
2.323988429249135
 20
0.0340555335702916
 10
2.323552206358769
 20
0.0340038019885847
 10
2.323113365322353
 20
0.0339841065759893
  0
LWPOLYLINE
  5
522
330
2
100
AcDbEntity
  8
SANINDUSA
100
AcDbPolyline
 90
        9
 70
   128
 43
0.0
 10
2.317057613441803
 20
0.0339347721293407
 10
2.316618511429338
 20
0.0339473427882686
 10
2.316181506407676
 20
0.0339919874898751
 10
2.315748940829877
 20
0.0340684669277144
 10
2.315323133352509
 20
0.0341763711534227
 10
2.314906366407091
 20
0.0343151217741402
 10
2.314500873965677
 20
0.0344839750528368
 10
2.314108829566254
 20
0.0346820258949233
 10
2.313732334662028
 20
0.0349082126997783
  0
LWPOLYLINE
  5
523
330
2
100
AcDbEntity
  8
SANINDUSA
100
AcDbPolyline
 90
        9
 70
   128
 43
0.0
 10
2.310408910659667
 20
0.0358816290722089
 10
2.310847777407199
 20
0.0358689423002366
 10
2.311284540703601
 20
0.0358242160622777
 10
2.311716861860501
 20
0.0357476898489986
 10
2.312142425975372
 20
0.0356397734268913
 10
2.312558954326865
 20
0.0355010446441511
 10
2.312964216576443
 20
0.0353322463365239
 10
2.313356042710926
 20
0.0351342823497398
 10
2.313732334662028
 20
0.0349082126997783
  0
LWPOLYLINE
  5
524
330
2
100
AcDbEntity
  8
SANINDUSA
100
AcDbPolyline
 90
        8
 70
   128
 43
0.0
 10
2.310409897691089
 20
0.0292366301697066
 10
2.310848681485187
 20
0.0292260954521149
 10
2.31128552103181
 20
0.0291835164885052
 10
2.311718078726882
 20
0.0291091211262861
 10
2.312144039879246
 20
0.0290033074679277
 10
2.312561125097005
 20
0.0288666417406435
 10
2.312967102484914
 20
0.0286998552664104
 10
2.31337596686371
 20
0.0285038040498303
  0
LWPOLYLINE
  5
525
330
2
100
AcDbEntity
  8
SANINDUSA
100
AcDbPolyline
 90
        9
 70
   128
 43
0.0
 10
2.301421208517769
 20
0.0348153543709637
 10
2.301048172277261
 20
0.0345835255114994
 10
2.30065916381107
 20
0.0343795943324167
 10
2.300256268277063
 20
0.0342046539428352
 10
2.299841645270386
 20
0.0340596420558464
 10
2.299417517247612
 20
0.0339453359621817
 10
2.298986157613978
 20
0.0338623483638085
 10
2.298549878537507
 20
0.0338111240897152
 10
2.298111018555343
 20
0.0337919377115568
  0
LWPOLYLINE
  5
526
330
2
100
AcDbEntity
  8
SANINDUSA
100
AcDbPolyline
 90
        9
 70
   128
 43
0.0
 10
2.301421208517769
 20
0.0348153543709637
 10
2.30179404690809
 20
0.0350470746335227
 10
2.302182842022608
 20
0.0352509267230712
 10
2.302585512007887
 20
0.0354258190873807
 10
2.302999900715705
 20
0.0355708152427897
 10
2.303423789248428
 20
0.0356851387887437
 10
2.303854907840401
 20
0.035768177565109
 10
2.304290948011672
 20
0.0358194869300806
 10
2.304729574929075
 20
0.0358387921410613
  0
LWPOLYLINE
  5
527
330
2
100
AcDbEntity
  8
SANINDUSA
100
AcDbPolyline
 90
        6
 70
   128
 43
0.0
 10
2.310408910659663
 20
0.0358816290722089
 10
2.310361490054598
 20
0.0358909055599739
 10
2.310224517428393
 20
0.0358984166126257
 10
2.310013206523496
 20
0.035903313692078
 10
2.309751989346224
 20
0.0359050314663923
 10
2.309568950860026
 20
0.0359043377257004
  0
LINE
  5
528
330
2
100
AcDbEntity
  8
SANINDUSA
100
AcDbLine
 10
2.309568950860028
 20
0.0359043377256985
 30
0.0
 11
2.305568973678822
 21
0.0358742447625919
 31
0.0
  0
LWPOLYLINE
  5
529
330
2
100
AcDbEntity
  8
SANINDUSA
100
AcDbPolyline
 90
        6
 70
   128
 43
0.0
 10
2.30556897367882
 20
0.0358742447625937
 10
2.305291281594064
 20
0.035870536871511
 10
2.305044975671045
 20
0.0358639605539488
 10
2.304857796681482
 20
0.0358552647885509
 10
2.304750341279583
 20
0.0358454045592353
 10
2.304729574929075
 20
0.0358387921410613
  0
LWPOLYLINE
  5
52A
330
2
100
AcDbEntity
  8
SANINDUSA
100
AcDbPolyline
 90
        4
 70
   128
 43
0.0
 10
2.310194025029533
 20
0.0292251845448223
 10
2.310344956170757
 20
0.0292307805729697
 10
2.310408469551486
 20
0.0292358507830059
 10
2.310409897691089
 20
0.0292366301697066
  0
LWPOLYLINE
  5
52B
330
2
100
AcDbEntity
  8
SANINDUSA
100
AcDbPolyline
 90
        8
 70
   128
 43
0.0
 10
2.310194025029528
 20
0.0292251845448223
 10
2.310520168928302
 20
0.0292086776696297
 10
2.3108449708425
 20
0.0291601591055578
 10
2.311166692734897
 20
0.0290798884787583
 10
2.311483613049673
 20
0.0289682953228399
 10
2.311794035924582
 20
0.0288259767803984
 10
2.312096300265617
 20
0.0286536944076775
 10
2.312347856674602
 20
0.0284895733375359
  0
LINE
  5
52C
330
2
100
AcDbEntity
  8
SANINDUSA
100
AcDbLine
 10
2.306194018179883
 20
0.0291075036738194
 30
0.0
 11
2.31019402502953
 21
0.0292251845448205
 31
0.0
  0
LWPOLYLINE
  5
52D
330
2
100
AcDbEntity
  8
SANINDUSA
100
AcDbPolyline
 90
        7
 70
   128
 43
0.0
 10
2.308277157900787
 20
0.0284332282650903
 10
2.307793888781449
 20
0.0287081754920192
 10
2.307483516926569
 20
0.0288505182959412
 10
2.307166636323628
 20
0.0289621357568367
 10
2.306844942631461
 20
0.0290424305988463
 10
2.306520157264213
 20
0.0290909731564844
 10
2.306194018179882
 20
0.0291075036738212
  0
LWPOLYLINE
  5
52E
330
2
100
AcDbEntity
  8
SANINDUSA
100
AcDbPolyline
 90
        9
 70
   128
 43
0.0
 10
2.304728597427475
 20
0.0290982968412859
 10
2.3047759607321
 20
0.0290946317538956
 10
2.304912713508612
 20
0.0290925279516219
 10
2.305123402741684
 20
0.0290922233734037
 10
2.305384349876964
 20
0.0290937527622933
 10
2.305666212555367
 20
0.0290969450962248
 10
2.305937224355281
 20
0.029101441199729
 10
2.306166760919756
 20
0.0291067330598517
 10
2.306194018179882
 20
0.0291075036738212
  0
LWPOLYLINE
  5
52F
330
2
100
AcDbEntity
  8
SANINDUSA
100
AcDbPolyline
 90
        9
 70
   128
 43
0.0
 10
2.300754813207362
 20
0.0276852032583395
 10
2.301797620493077
 20
0.0282931267855898
 10
2.302185374586194
 20
0.0284987479405632
 10
2.302587124431348
 20
0.0286754762886735
 10
2.30300072018722
 20
0.0288223661222596
 10
2.303423948622713
 20
0.0289386314053391
 10
2.303854544960392
 20
0.0290236499798348
 10
2.30429020499576
 20
0.029076966894867
 10
2.304728597427475
 20
0.0290982968412859
  0
LWPOLYLINE
  5
530
330
2
100
AcDbEntity
  8
SANINDUSA
100
AcDbPolyline
 90
        6
 70
   128
 43
0.0
 10
2.304201011733581
 20
0.0283874035115255
 10
2.304232045958744
 20
0.0283848026427804
 10
2.304354083322156
 20
0.028383618471245
 10
2.304553376728423
 20
0.0283839843069236
 10
2.304807575947217
 20
0.0283858606426602
 10
2.305040240112363
 20
0.0283884240736179
  0
LWPOLYLINE
  5
531
330
2
100
AcDbEntity
  8
SANINDUSA
100
AcDbPolyline
 90
        5
 70
   128
 43
0.0
 10
2.323122400993699
 20
0.0286387105038946
 10
2.323121927706539
 20
0.0289316357534827
 10
2.323120057247557
 20
0.0300698555627733
 10
2.323119540210206
 20
0.0303810562462277
 10
2.323113365322353
 20
0.0339841065759893
  0
LWPOLYLINE
  5
532
330
2
100
AcDbEntity
  8
SANINDUSA
100
AcDbPolyline
 90
        5
 70
   128
 43
0.0
 10
2.298117922244156
 20
0.0281574142580339
 10
2.298117715146014
 20
0.0283418366254219
 10
2.298116431549876
 20
0.0294494255116447
 10
2.298116072083204
 20
0.0297539307107186
 10
2.298111018555343
 20
0.0337919377115568
  0
LWPOLYLINE
  5
533
330
2
100
AcDbEntity
  8
SANINDUSA
100
AcDbPolyline
 90
        5
 70
   128
 43
0.0
 10
2.317057613441808
 20
0.0339347721293407
 10
2.31706145520007
 20
0.031677147313375
 10
2.317063684035012
 20
0.0303223057761457
 10
2.317064191288806
 20
0.0300092625535572
 10
2.317066487083959
 20
0.0285548868345623
  0
LWPOLYLINE
  5
534
330
2
100
AcDbEntity
  8
SANINDUSA
100
AcDbPolyline
 90
        6
 70
   128
 43
0.0
 10
2.304201011733581
 20
0.0283874035115255
 10
2.304201011733581
 20
0.0283874035115255
 10
2.303972784343474
 20
0.0283812635822383
 10
2.303721095068473
 20
0.0283627118921518
 10
2.303285069287968
 20
0.0283058939491903
 10
2.300907382133815
 20
0.0277741460967612
  0
LWPOLYLINE
  5
535
330
2
100
AcDbEntity
  8
SANINDUSA
100
AcDbPolyline
 90
        9
 70
   128
 43
0.0
 10
2.342059957095267
 20
0.0341491558346334
 10
2.341620836576245
 20
0.0341612064799861
 10
2.341183775004989
 20
0.0342053350882603
 10
2.340751115179206
 20
0.0342813051152043
 10
2.340325176301763
 20
0.0343887093358026
 10
2.339908241548984
 20
0.0345269720271372
 10
2.33950254583202
 20
0.034695352054463
 10
2.339110263817012
 20
0.0348929468439374
 10
2.338733498268117
 20
0.0351186972207134
  0
LWPOLYLINE
  5
536
330
2
100
AcDbEntity
  8
SANINDUSA
100
AcDbPolyline
 90
        9
 70
   128
 43
0.0
 10
2.335408954683522
 20
0.0360882086301527
 10
2.335847832413179
 20
0.0360760386152052
 10
2.336284644482049
 20
0.0360318263688046
 10
2.3367170519796
 20
0.0359558086254529
 10
2.337142739579591
 20
0.0358483924222119
 10
2.337559427937468
 20
0.0357101529192133
 10
2.337964885895136
 20
0.0355418303199749
 10
2.338356942427678
 20
0.0353443259079714
 10
2.338733498268117
 20
0.0351186972207134
  0
LWPOLYLINE
  5
537
330
2
100
AcDbEntity
  8
SANINDUSA
100
AcDbPolyline
 90
        9
 70
   128
 43
0.0
 10
2.335409908923463
 20
0.0300374994063409
 10
2.335848723022969
 20
0.0300279143594244
 10
2.336285662121287
 20
0.0299862807000377
 10
2.336718387990646
 20
0.0299128212257724
 10
2.337144584949848
 20
0.0298079290462934
 10
2.337561972256404
 20
0.0296721654796661
 10
2.337968316311627
 20
0.0295062570485211
 10
2.338361442613483
 20
0.0293110915921548
 10
2.33863191617399
 20
0.0291624411537896
  0
LWPOLYLINE
  5
538
330
2
100
AcDbEntity
  8
SANINDUSA
100
AcDbPolyline
 90
        9
 70
   128
 43
0.0
 10
2.32642238944041
 20
0.0350113969057671
 10
2.326794954530607
 20
0.0352435555463822
 10
2.327183508572508
 20
0.0354478643777079
 10
2.327585971036484
 20
0.0356232294191605
 10
2.32800018691964
 20
0.0357687116709454
 10
2.328423938284896
 20
0.0358835321419738
 10
2.328854956137003
 20
0.0359670760210056
 10
2.329290932571999
 20
0.0360188959686812
 10
2.329729533134965
 20
0.0360387145128234
  0
LWPOLYLINE
  5
539
330
2
100
AcDbEntity
  8
SANINDUSA
100
AcDbPolyline
 90
        6
 70
   128
 43
0.0
 10
2.335408954683522
 20
0.0360882086301527
 10
2.335361516927775
 20
0.0360972151583761
 10
2.335224516533122
 20
0.0361043745748648
 10
2.335013185674243
 20
0.036108878969118
 10
2.334751888970205
 20
0.036110208846118
 10
2.334568803728067
 20
0.0361092850914784
  0
LINE
  5
53A
330
2
100
AcDbEntity
  8
SANINDUSA
100
AcDbLine
 10
2.334568803728069
 20
0.0361092850914766
 30
0.0
 11
2.330568827689575
 21
0.0360745210830074
 31
0.0
  0
LWPOLYLINE
  5
53B
330
2
100
AcDbEntity
  8
SANINDUSA
100
AcDbPolyline
 90
        6
 70
   128
 43
0.0
 10
2.330568827689573
 20
0.0360745210830092
 10
2.330291171733348
 20
0.0360705255182066
 10
2.330044880682209
 20
0.0360637638661583
 10
2.329857714254518
 20
0.0360550051339729
 10
2.329750294185493
 20
0.0360452136253016
 10
2.329729533134965
 20
0.0360387145128234
  0
LWPOLYLINE
  5
53C
330
2
100
AcDbEntity
  8
SANINDUSA
100
AcDbPolyline
 90
        4
 70
   128
 43
0.0
 10
2.335194044660853
 20
0.0300245095281016
 10
2.335344970786151
 20
0.0300308893200909
 10
2.335408480773723
 20
0.0300366232084676
 10
2.335409908923463
 20
0.0300374994063409
  0
LWPOLYLINE
  5
53D
330
2
100
AcDbEntity
  8
SANINDUSA
100
AcDbPolyline
 90
        8
 70
   128
 43
0.0
 10
2.335194044660853
 20
0.0300245095281016
 10
2.335520219012584
 20
0.0300081486504669
 10
2.335845120852274
 20
0.0299597780976856
 10
2.336167011653234
 20
0.0298796566971524
 10
2.336484169000611
 20
0.0297682131727961
 10
2.336794895807944
 20
0.0296260438510117
 10
2.337097529398121
 20
0.0294539094697566
 10
2.337548832448033
 20
0.0291450545970836
  0
LINE
  5
53E
330
2
100
AcDbEntity
  8
SANINDUSA
100
AcDbLine
 10
2.331194045904998
 20
0.0298894866784004
 30
0.0
 11
2.335194044660855
 21
0.0300245095280998
 31
0.0
  0
LWPOLYLINE
  5
53F
330
2
100
AcDbEntity
  8
SANINDUSA
100
AcDbPolyline
 90
        8
 70
   128
 43
0.0
 10
2.333465350279829
 20
0.0290795031604082
 10
2.333097343849973
 20
0.0293187494581289
 10
2.332794766904982
 20
0.0294909065690754
 10
2.332484086810147
 20
0.0296330988389755
 10
2.332166965996949
 20
0.0297445654050935
 10
2.331845101360787
 20
0.0298247098161883
 10
2.331520215180991
 20
0.0298731032240803
 10
2.331194045904996
 20
0.0298894866784022
  0
LWPOLYLINE
  5
540
330
2
100
AcDbEntity
  8
SANINDUSA
100
AcDbPolyline
 90
        9
 70
   128
 43
0.0
 10
2.329728569742634
 20
0.0298781479872187
 10
2.329775937683567
 20
0.0298740423708651
 10
2.329912701433633
 20
0.0298717568895304
 10
2.330123406368149
 20
0.0298715500909603
 10
2.33038437745046
 20
0.0298734457543506
 10
2.330666264352909
 20
0.029877231550162
 10
2.330937288209799
 20
0.029882481012377
 10
2.331166818462403
 20
0.0298886005453906
 10
2.331194045904996
 20
0.0298894866784022
  0
LWPOLYLINE
  5
541
330
2
100
AcDbEntity
  8
SANINDUSA
100
AcDbPolyline
 90
        9
 70
   128
 43
0.0
 10
2.326654518562103
 20
0.0289819033010106
 10
2.326799341818965
 20
0.02906652491968
 10
2.327186645287594
 20
0.0292729987067801
 10
2.327588008673307
 20
0.0294506108873716
 10
2.328001284149392
 20
0.0295984110006012
 10
2.328424260143648
 20
0.02971560811974
 10
2.328854673173242
 20
0.0298015750846858
 10
2.329290219957316
 20
0.0298558518580981
 10
2.32972856974262
 20
0.0298781479872187
  0
LWPOLYLINE
  5
542
330
2
100
AcDbEntity
  8
SANINDUSA
100
AcDbPolyline
 90
        6
 70
   128
 43
0.0
 10
2.326711061312104
 20
0.028983354023234
 10
2.326742091340239
 20
0.0289802861573312
 10
2.326864118002937
 20
0.0289788883340876
 10
2.327063400008166
 20
0.02897931788497
 10
2.327317601264132
 20
0.0289815284750753
 10
2.327550349952658
 20
0.0289845506778434
  0
LWPOLYLINE
  5
543
330
2
100
AcDbEntity
  8
SANINDUSA
100
AcDbPolyline
 90
        5
 70
   128
 43
0.0
 10
2.342059957095263
 20
0.0341491558346334
 10
2.342063825235624
 20
0.03235592994933
 10
2.34206671070565
 20
0.0309867897934637
 10
2.34206737237998
 20
0.0306690388684856
 10
2.34207009258506
 20
0.0293371236753583
  0
LWPOLYLINE
  5
544
330
2
100
AcDbEntity
  8
SANINDUSA
100
AcDbPolyline
 90
        5
 70
   128
 43
0.0
 10
2.348125995916795
 20
0.0295494363182698
 10
2.348125931106662
 20
0.0295798341627702
 10
2.348123434265577
 20
0.0307394543549063
 10
2.348122750201497
 20
0.0310548907639273
 10
2.348115794159454
 20
0.0342057286883201
  0
LWPOLYLINE
  5
545
330
2
100
AcDbEntity
  8
SANINDUSA
100
AcDbPolyline
 90
        6
 70
   128
 43
0.0
 10
2.349221160398607
 20
0.0296737653130495
 10
2.349003190585191
 20
0.0296682136569498
 10
2.348732702789144
 20
0.0296467061644981
 10
2.34827674485624
 20
0.0295836249823597
 10
2.347716394420659
 20
0.0294565419469191
 10
2.347266186479295
 20
0.0293010456094581
  0
LWPOLYLINE
  5
546
330
2
100
AcDbEntity
  8
SANINDUSA
100
AcDbPolyline
 90
        7
 70
   128
 43
0.0
 10
2.326711061312104
 20
0.028983354023234
 10
2.326711061312104
 20
0.028983354023234
 10
2.32649333242684
 20
0.0289777677344082
 10
2.326244681603131
 20
0.0289591408343986
 10
2.325839249691336
 20
0.0289072573039394
 10
2.325301902495668
 20
0.0287946986742773
 10
2.324900001512464
 20
0.0286633153777932
  0
LWPOLYLINE
  5
547
330
2
100
AcDbEntity
  8
SANINDUSA
100
AcDbPolyline
 90
        9
 70
   128
 43
0.0
 10
2.376424850437794
 20
0.0354930903483151
 10
2.376796846920029
 20
0.0357261660621921
 10
2.377184899650329
 20
0.0359314295996833
 10
2.377586930823691
 20
0.0361077818895242
 10
2.378000787788379
 20
0.0362542786639884
 10
2.378424254572179
 20
0.0363701355149092
 10
2.378855063747661
 20
0.0364547320937473
 10
2.379290908573012
 20
0.0365076154332101
 10
2.379729455343332
 20
0.0365285023726383
  0
LWPOLYLINE
  5
548
330
2
100
AcDbEntity
  8
SANINDUSA
100
AcDbPolyline
 90
        9
 70
   128
 43
0.0
 10
2.376193061281776
 20
0.0305235512694942
 10
2.376802161118804
 20
0.0309110005794983
 10
2.377188733920749
 20
0.0311188740401931
 10
2.377589472444457
 20
0.0312979357759187
 10
2.378002231989891
 20
0.0314472274717437
 10
2.378424803522081
 20
0.031565950138087
 10
2.378854925493584
 20
0.0316534683868022
 10
2.379290295948004
 20
0.0317093138316969
 10
2.379728584839755
 20
0.0317331875952723
  0
LWPOLYLINE
  5
549
330
2
100
AcDbEntity
  8
SANINDUSA
100
AcDbPolyline
 90
        9
 70
   128
 43
0.0
 10
2.376424850437794
 20
0.0354930903483151
 10
2.3760526427044
 20
0.0352599005670268
 10
2.375664362024505
 20
0.0350545544596153
 10
2.37526208973246
 20
0.034878152760497
 10
2.374847982163052
 20
0.0347316410508816
 10
2.374424259092735
 20
0.0346158046900965
 10
2.373993191840746
 20
0.0345312646057587
 10
2.373557091093982
 20
0.0344784739653588
 10
2.37311829452081
 20
0.0344577157471068
  0
LWPOLYLINE
  5
54A
330
2
100
AcDbEntity
  8
SANINDUSA
100
AcDbPolyline
 90
        9
 70
   128
 43
0.0
 10
2.367062353300322
 20
0.0343937252814763
 10
2.366623216587305
 20
0.0344052406303868
 10
2.366186099638513
 20
0.034448837744184
 10
2.365753345567692
 20
0.0345242829256941
 10
2.365327274101906
 20
0.0346311717599352
 10
2.364910169146893
 20
0.0347689312819435
 10
2.364504266544473
 20
0.03493682304808
 10
2.364111742087581
 20
0.0351339470943745
 10
2.363734699857178
 20
0.0353592467606691
  0
LWPOLYLINE
  5
54B
330
2
100
AcDbEntity
  8
SANINDUSA
100
AcDbPolyline
 90
        9
 70
   128
 43
0.0
 10
2.36040899411477
 20
0.0363247331945368
 10
2.360847884076035
 20
0.0363130969313388
 10
2.361284747402147
 20
0.0362694152660734
 10
2.361717244932162
 20
0.036193922089848
 10
2.36214306088155
 20
0.0360870216267713
 10
2.362559915241942
 20
0.0359492862695643
 10
2.362965575989316
 20
0.0357814535147159
 10
2.363357871035228
 20
0.0355844220135933
 10
2.363734699857178
 20
0.0353592467606691
  0
LWPOLYLINE
  5
54C
330
2
100
AcDbEntity
  8
SANINDUSA
100
AcDbPolyline
 90
        9
 70
   128
 43
0.0
 10
2.360409905733078
 20
0.030938926631749
 10
2.360848747834808
 20
0.0309301694738352
 10
2.361285775270581
 20
0.0308893596381077
 10
2.3617186492258
 20
0.0308167155242214
 10
2.362145053113801
 20
0.0307126258975032
 10
2.362562704973412
 20
0.0305776478084218
 10
2.362969369681192
 20
0.0304125036114615
 10
2.363362870912994
 20
0.0302180770993223
 10
2.36374110279091
 20
0.0299954087731899
  0
LWPOLYLINE
  5
54D
330
2
100
AcDbEntity
  8
SANINDUSA
100
AcDbPolyline
 90
        9
 70
   128
 43
0.0
 10
2.351423612244927
 20
0.0352370265457958
 10
2.351795894067273
 20
0.0354696387829804
 10
2.352184198105065
 20
0.035674420145323
 10
2.352586445204307
 20
0.0358502741415523
 10
2.353000481553605
 20
0.0359962591704917
 10
2.353424090216619
 20
0.0361115935628155
 10
2.35385500300256
 20
0.036195659766453
 10
2.354290912611082
 20
0.0362480076532407
 10
2.35472948498662
 20
0.0362683569291076
  0
LWPOLYLINE
  5
54E
330
2
100
AcDbEntity
  8
SANINDUSA
100
AcDbPolyline
 90
        6
 70
   128
 43
0.0
 10
2.360408994114765
 20
0.0363247331945368
 10
2.360361539582619
 20
0.0363334188339323
 10
2.36022451326955
 20
0.0363401776782271
 10
2.360013166955924
 20
0.0363442479789901
 10
2.359751793216143
 20
0.0363451606960726
 10
2.359568652266467
 20
0.0363439960271799
  0
LINE
  5
54F
330
2
100
AcDbEntity
  8
SANINDUSA
100
AcDbLine
 10
2.359568652266469
 20
0.0363439960271781
 30
0.0
 11
2.355568677048025
 21
0.0363044026605071
 31
0.0
  0
LWPOLYLINE
  5
550
330
2
100
AcDbEntity
  8
SANINDUSA
100
AcDbPolyline
 90
        6
 70
   128
 43
0.0
 10
2.355568677048023
 20
0.036304402660509
 10
2.355291055201247
 20
0.0363001167799226
 10
2.355044775638194
 20
0.0362931839725789
 10
2.354857618341831
 20
0.0362843915930844
 10
2.354750237538575
 20
0.0362747103892971
 10
2.35472948498662
 20
0.0362683569291076
  0
LWPOLYLINE
  5
551
330
2
100
AcDbEntity
  8
SANINDUSA
100
AcDbPolyline
 90
        4
 70
   128
 43
0.0
 10
2.36019405890791
 20
0.0309245913581904
 10
2.360344973543162
 20
0.0309316541297076
 10
2.360408477464999
 20
0.0309379660541154
 10
2.360409905733078
 20
0.030938926631749
  0
LWPOLYLINE
  5
552
330
2
100
AcDbEntity
  8
SANINDUSA
100
AcDbPolyline
 90
        9
 70
   128
 43
0.0
 10
2.36019405890791
 20
0.0309245913581904
 10
2.360520259734259
 20
0.0309083584233386
 10
2.36084524864913
 20
0.0308601178239829
 10
2.361167286701467
 20
0.0307801276859791
 10
2.361484650729686
 20
0.0306688160206468
 10
2.361795642581984
 20
0.030526778434577
 10
2.362098598202798
 20
0.0303547749426448
 10
2.362391896536843
 20
0.0301537259013358
 10
2.362673968203063
 20
0.0299247070840866
  0
LINE
  5
553
330
2
100
AcDbEntity
  8
SANINDUSA
100
AcDbLine
 10
2.356194053725015
 20
0.0307743925085488
 30
0.0
 11
2.360194058907912
 21
0.0309245913581886
 31
0.0
  0
LWPOLYLINE
  5
554
330
2
100
AcDbEntity
  8
SANINDUSA
100
AcDbPolyline
 90
        9
 70
   128
 43
0.0
 10
2.358423522570639
 20
0.0299793521798429
 10
2.358391678707782
 20
0.0300033850879905
 10
2.358098436775172
 20
0.0302044543739603
 10
2.35779552921827
 20
0.0303764783114585
 10
2.357484576843459
 20
0.0305185364299009
 10
2.357167243503551
 20
0.0306298686006667
 10
2.356845227194818
 20
0.0307098791044055
 10
2.356520250971295
 20
0.0307581398186349
 10
2.356194053725013
 20
0.0307743925085506
  0
LWPOLYLINE
  5
555
330
2
100
AcDbEntity
  8
SANINDUSA
100
AcDbPolyline
 90
        9
 70
   128
 43
0.0
 10
2.354728582467465
 20
0.0307611763382775
 10
2.354775956633722
 20
0.0307566841351982
 10
2.354912735460217
 20
0.0307542399738614
 10
2.355123467559161
 20
0.0307541204427267
 10
2.355384468733769
 20
0.0307563395169578
 10
2.355666370189771
 20
0.0307606480223595
 10
2.355937382396315
 20
0.0307665598613667
 10
2.356166879826743
 20
0.0307734061021134
 10
2.356194053725013
 20
0.0307743925085506
  0
LWPOLYLINE
  5
556
330
2
100
AcDbEntity
  8
SANINDUSA
100
AcDbPolyline
 90
        9
 70
   128
 43
0.0
 10
2.351430139714863
 20
0.0297088941843813
 10
2.351800861972757
 20
0.0299438497732618
 10
2.35218777188271
 20
0.0301510795902655
 10
2.352588798848329
 20
0.0303294746193151
 10
2.353001796724039
 20
0.0304780801572738
 10
2.353424555300463
 20
0.030596100923166
 10
2.353854812132619
 20
0.0306829053142147
 10
2.354290264647676
 20
0.030738028785951
 10
2.354728582467465
 20
0.0307611763382775
  0
LINE
  5
557
330
2
100
AcDbEntity
  8
SANINDUSA
100
AcDbLine
 10
2.375547219062199
 20
0.0305936802924244
 30
0.0
 11
2.375440889517711
 21
0.030591512032881
 31
0.0
  0
LWPOLYLINE
  5
558
330
2
100
AcDbEntity
  8
SANINDUSA
100
AcDbPolyline
 90
        4
 70
   128
 43
0.0
 10
2.376172220710437
 20
0.0306099982136894
 10
2.375893803964133
 20
0.030603961475314
 10
2.375646765707398
 20
0.0305970782505565
 10
2.375547219062197
 20
0.0305936802924262
  0
LINE
  5
559
330
2
100
AcDbEntity
  8
SANINDUSA
100
AcDbLine
 10
2.375547219062199
 20
0.0305936802924244
 30
0.0
 11
2.371945609939883
 21
0.0304619935876572
 31
0.0
  0
LINE
  5
55A
330
2
100
AcDbEntity
  8
SANINDUSA
100
AcDbLine
 10
2.371945609939883
 20
0.0304619935876572
 30
0.0
 11
2.371840897131731
 21
0.0304598915642073
 31
0.0
  0
LWPOLYLINE
  5
55B
330
2
100
AcDbEntity
  8
SANINDUSA
100
AcDbPolyline
 90
        8
 70
   128
 43
0.0
 10
2.371945609939881
 20
0.030461993587659
 10
2.371794739913745
 20
0.030455394001373
 10
2.371731224875894
 20
0.0304498430371077
 10
2.371762250983184
 20
0.0304459687118711
 10
2.371884265859736
 20
0.0304442086341501
 10
2.37208354729678
 20
0.0304447613354037
 10
2.372337772465954
 20
0.0304475673326138
 10
2.372570618260816
 20
0.0304513987781925
  0
LWPOLYLINE
  5
55C
330
2
100
AcDbEntity
  8
SANINDUSA
100
AcDbPolyline
 90
        7
 70
   128
 43
0.0
 10
2.372570618260816
 20
0.0304513987781925
 10
2.372570995023908
 20
0.0304284136602192
 10
2.372571970116238
 20
0.0303734446517674
 10
2.372573538318366
 20
0.0302867859886228
 10
2.372575691236094
 20
0.0301689015336151
 10
2.372578417345372
 20
0.0300204222936705
 10
2.372578855826933
 20
0.0299965915380599
  0
LWPOLYLINE
  5
55D
330
2
100
AcDbEntity
  8
SANINDUSA
100
AcDbPolyline
 90
        4
 70
   128
 43
0.0
 10
2.373129044443941
 20
0.0305071568413487
 10
2.373126506518048
 20
0.0314516844611526
 10
2.373125649685499
 20
0.0317687701827859
 10
2.37311829452081
 20
0.0344577157471068
  0
LWPOLYLINE
  5
55E
330
2
100
AcDbEntity
  8
SANINDUSA
100
AcDbPolyline
 90
        5
 70
   128
 43
0.0
 10
2.367062353300317
 20
0.0343937252814763
 10
2.367065863399235
 20
0.0330647884889041
 10
2.367069421720772
 20
0.0316921894309067
 10
2.367070241626076
 20
0.0313723028259679
 10
2.367073432344833
 20
0.0301061171686356
  0
LWPOLYLINE
  5
55F
330
2
100
AcDbEntity
  8
SANINDUSA
100
AcDbPolyline
 90
        3
 70
   128
 43
0.0
 10
2.375439683865112
 20
0.0305915424882724
 10
2.374107867263611
 20
0.0305425506774364
 10
2.371839603898576
 20
0.0304605311943069
  0
LWPOLYLINE
  5
560
330
2
100
AcDbEntity
  8
SANINDUSA
100
AcDbPolyline
 90
        6
 70
   128
 43
0.0
 10
2.371907482294101
 20
0.0304619374475979
 10
2.371796681743491
 20
0.0304582423311072
 10
2.371498637846804
 20
0.0304434417132793
 10
2.371176511466775
 20
0.0304150025054233
 10
2.370578932868344
 20
0.0303170618668437
 10
2.370051987180351
 20
0.0301700363117689
  0
LWPOLYLINE
  5
561
330
2
100
AcDbEntity
  8
SANINDUSA
100
AcDbPolyline
 90
        9
 70
   128
 43
0.0
 10
2.401426094414047
 20
0.0357797970361108
 10
2.401054173009375
 20
0.0355461418797441
 10
2.400666144448506
 20
0.0353403117850885
 10
2.400264088718041
 20
0.0351634100828815
 10
2.399850160995757
 20
0.0350163850362369
 10
2.399426580098012
 20
0.0349000247575705
 10
2.39899561658599
 20
0.0348149529840125
 10
2.398559580594625
 20
0.0347616257339237
 10
2.398120809449334
 20
0.0347403288624642
  0
LWPOLYLINE
  5
562
330
2
100
AcDbEntity
  8
SANINDUSA
100
AcDbPolyline
 90
        9
 70
   128
 43
0.0
 10
2.401433175575176
 20
0.0317163077456612
 10
2.401803207197168
 20
0.0319523804497353
 10
2.402189511638304
 20
0.0321607748341867
 10
2.402590021325674
 20
0.0323403755336736
 10
2.40300259265725
 20
0.0324902212919906
 10
2.40342501747487
 20
0.0326095101068918
 10
2.403855034882668
 20
0.0326976035225439
 10
2.404290343347839
 20
0.0327540300466731
 10
2.40472861301887
 20
0.0327784876740716
  0
LWPOLYLINE
  5
563
330
2
100
AcDbEntity
  8
SANINDUSA
100
AcDbPolyline
 90
        2
 70
   128
 43
0.0
 10
2.401433175575176
 20
0.0317163077456612
 10
2.401142720430637
 20
0.0315310210088119
  0
LWPOLYLINE
  5
564
330
2
100
AcDbEntity
  8
SANINDUSA
100
AcDbPolyline
 90
        9
 70
   128
 43
0.0
 10
2.392064746998163
 20
0.0346688997902166
 10
2.391625596068389
 20
0.0346798777760924
 10
2.391188425554138
 20
0.0347229412359198
 10
2.390755578860859
 20
0.034797859332663
 10
2.390329376216611
 20
0.0349042304759328
 10
2.389912102234749
 20
0.0350414844746765
 10
2.389505993667486
 20
0.0352088855936282
 10
2.389113227416052
 20
0.0354055364971182
 10
2.388735908861614
 20
0.035630383059171
  0
LWPOLYLINE
  5
565
330
2
100
AcDbEntity
  8
SANINDUSA
100
AcDbPolyline
 90
        9
 70
   128
 43
0.0
 10
2.385409025118393
 20
0.0365918268359147
 10
2.385847928602176
 20
0.03658072797144
 10
2.386284844731359
 20
0.036537580145613
 10
2.386717434066623
 20
0.0364626143906926
 10
2.387143380336189
 20
0.0363562321059945
 10
2.38756040283814
 20
0.0362190029086187
 10
2.387966268652313
 20
0.0360516615834845
 10
2.388358804596292
 20
0.0358551041489514
 10
2.388735908861614
 20
0.035630383059171
  0
LWPOLYLINE
  5
566
330
2
100
AcDbEntity
  8
SANINDUSA
100
AcDbPolyline
 90
        9
 70
   128
 43
0.0
 10
2.385409896458301
 20
0.0319264725673761
 10
2.385848763136811
 20
0.0319184174308739
 10
2.386285866289305
 20
0.0318783060084243
 10
2.386718866577267
 20
0.0318063529729184
 10
2.387145446620358
 20
0.0317029434108136
 10
2.387563323398832
 20
0.0315686307612091
 10
2.38797026047208
 20
0.031404133853861
 10
2.388364079947847
 20
0.0312103330620849
 10
2.38909676683609
 20
0.0307805696676803
  0
LWPOLYLINE
  5
567
330
2
100
AcDbEntity
  8
SANINDUSA
100
AcDbPolyline
 90
        6
 70
   128
 43
0.0
 10
2.385409025118393
 20
0.0365918268359147
 10
2.385361552884875
 20
0.0366001422340506
 10
2.385224499675802
 20
0.0366064558325175
 10
2.385013137541911
 20
0.0366100571168627
 10
2.384751682860225
 20
0.0366105312253572
 10
2.384568491149622
 20
0.036609120265397
  0
LINE
  5
568
330
2
100
AcDbEntity
  8
SANINDUSA
100
AcDbLine
 10
2.384568491149624
 20
0.0366091202653952
 30
0.0
 11
2.380568517634763
 21
0.0365646513973975
 31
0.0
  0
LWPOLYLINE
  5
569
330
2
100
AcDbEntity
  8
SANINDUSA
100
AcDbPolyline
 90
        6
 70
   128
 43
0.0
 10
2.380568517634761
 20
0.0365646513973994
 10
2.380290940235973
 20
0.0365600798190726
 10
2.380044680702828
 20
0.0365529964645012
 10
2.379857539672199
 20
0.0365442048391188
 10
2.379750200802861
 20
0.0365346782647239
 10
2.379729455343332
 20
0.0365285023726383
  0
LWPOLYLINE
  5
56A
330
2
100
AcDbEntity
  8
SANINDUSA
100
AcDbPolyline
 90
        4
 70
   128
 43
0.0
 10
2.385194084320129
 20
0.0319110137506337
 10
2.385344974897272
 20
0.0319186482839328
 10
2.385408467762187
 20
0.0319254417451353
 10
2.385409896458301
 20
0.0319264725673761
  0
LWPOLYLINE
  5
56B
330
2
100
AcDbEntity
  8
SANINDUSA
100
AcDbPolyline
 90
        9
 70
   128
 43
0.0
 10
2.385194084320129
 20
0.0319110137506337
 10
2.385520305354044
 20
0.031894898171428
 10
2.385845365917345
 20
0.0318467770669272
 10
2.386167526729315
 20
0.0317669079156408
 10
2.386485064024747
 20
0.0316557180683154
 10
2.386796278777184
 20
0.0315138024613421
 10
2.387099505789803
 20
0.0313419204334596
 10
2.387393122605264
 20
0.0311409916628182
 10
2.387868038026582
 20
0.0307560956195787
  0
LINE
  5
56C
330
2
100
AcDbEntity
  8
SANINDUSA
100
AcDbLine
 10
2.381194080812946
 20
0.0317480185024438
 30
0.0
 11
2.385194084320131
 21
0.0319110137506318
 31
0.0
  0
LWPOLYLINE
  5
56D
330
2
100
AcDbEntity
  8
SANINDUSA
100
AcDbPolyline
 90
        9
 70
   128
 43
0.0
 10
2.383767266172564
 20
0.0306744156859495
 10
2.38339294305924
 20
0.0309778678299281
 10
2.383099372968792
 20
0.0311788149485338
 10
2.382796185766107
 20
0.0313507155030007
 10
2.382485003703474
 20
0.0314926497115371
 10
2.382167491810974
 20
0.0316038581321405
 10
2.381845348987491
 20
0.0316837457261263
 10
2.381520298910433
 20
0.031731885041967
 10
2.381194080812944
 20
0.0317480185024456
  0
LWPOLYLINE
  5
56E
330
2
100
AcDbEntity
  8
SANINDUSA
100
AcDbPolyline
 90
        9
 70
   128
 43
0.0
 10
2.379728584839764
 20
0.0317331875952723
 10
2.379775969622002
 20
0.0317283716109787
 10
2.37991277147789
 20
0.0317257976870169
 10
2.38012353828161
 20
0.031725757125927
 10
2.380384590815566
 20
0.0317282552330462
 10
2.380666533940608
 20
0.031733011086591
 10
2.380937548617708
 20
0.0317394870729586
 10
2.381167002734447
 20
0.0317469494712864
 10
2.381194080812944
 20
0.0317480185024456
  0
LINE
  5
56F
330
2
100
AcDbEntity
  8
SANINDUSA
100
AcDbLine
 10
2.398057280813389
 20
0.0314581548683982
 30
0.0
 11
2.397942381891324
 21
0.0314556117885668
 31
0.0
  0
LWPOLYLINE
  5
570
330
2
100
AcDbEntity
  8
SANINDUSA
100
AcDbPolyline
 90
        4
 70
   128
 43
0.0
 10
2.398682240248123
 20
0.0314758428487235
 10
2.39840384574115
 20
0.0314692956624813
 10
2.39815682226838
 20
0.0314618358243743
 10
2.398057280813388
 20
0.0314581548684001
  0
LINE
  5
571
330
2
100
AcDbEntity
  8
SANINDUSA
100
AcDbLine
 10
2.397942381891324
 20
0.0314556117885668
 30
0.0
 11
2.394455670561745
 21
0.0313152898841231
 31
0.0
  0
LINE
  5
572
330
2
100
AcDbEntity
  8
SANINDUSA
100
AcDbLine
 10
2.394455670561745
 20
0.0313152898841231
 30
0.0
 11
2.394342127753819
 21
0.0313128080000998
 31
0.0
  0
LWPOLYLINE
  5
573
330
2
100
AcDbEntity
  8
SANINDUSA
100
AcDbPolyline
 90
        8
 70
   128
 43
0.0
 10
2.394455670561743
 20
0.031315289884125
 10
2.394304815977212
 20
0.0313081216208857
 10
2.394241310792832
 20
0.0313020971354027
 10
2.394272332280908
 20
0.0312978982932523
 10
2.394394333564429
 20
0.0312959991910989
 10
2.394593615095092
 20
0.0312966146255226
 10
2.39484786627119
 20
0.0312996787676357
 10
2.395080791139609
 20
0.0313038544655743
  0
LWPOLYLINE
  5
574
330
2
100
AcDbEntity
  8
SANINDUSA
100
AcDbPolyline
 90
        5
 70
   128
 43
0.0
 10
2.392064746998168
 20
0.0346688997902166
 10
2.392067518984128
 20
0.0337959121462509
 10
2.392071787632363
 20
0.0324313375889838
 10
2.392072775520925
 20
0.032112054595556
 10
2.392076653459677
 20
0.0308399236015985
  0
LWPOLYLINE
  5
575
330
2
100
AcDbEntity
  8
SANINDUSA
100
AcDbPolyline
 90
        4
 70
   128
 43
0.0
 10
2.398131664977264
 20
0.0314609055297424
 10
2.398129241814009
 20
0.0321994611792039
 10
2.398128200590019
 20
0.0325154265022061
 10
2.398120809449334
 20
0.0347403288624642
  0
LWPOLYLINE
  5
576
330
2
100
AcDbEntity
  8
SANINDUSA
100
AcDbPolyline
 90
        7
 70
   128
 43
0.0
 10
2.394408056777494
 20
0.0313150042705288
 10
2.394296803430876
 20
0.031310971103284
 10
2.394008171097599
 20
0.0312957171227109
 10
2.393692232858521
 20
0.0312672385531587
 10
2.393106337040928
 20
0.0311712592440168
 10
2.392456028885359
 20
0.0309931775657415
 10
2.392094266539298
 20
0.0308402744221819
  0
LINE
  5
577
330
2
100
AcDbEntity
  8
SANINDUSA
100
AcDbLine
 10
2.632600356036117
 20
0.0361703978761075
 30
0.0
 11
2.564624082714693
 21
0.0329862058668523
 31
0.0
  0
LINE
  5
578
330
2
100
AcDbEntity
  8
SANINDUSA
100
AcDbLine
 10
2.62834475769035
 20
0.0396343916829683
 30
0.0
 11
2.53722595981026
 21
0.0385827501876357
 31
0.0
  0
LWPOLYLINE
  5
579
330
2
100
AcDbEntity
  8
SANINDUSA
100
AcDbPolyline
 90
        7
 70
   128
 43
0.0
 10
2.515958291965311
 20
0.0365935575607034
 10
2.515766633543518
 20
0.0366255334713415
 10
2.515339790792615
 20
0.0367293233773799
 10
2.514921687617167
 20
0.0368640568788456
 10
2.514514565190403
 20
0.0370290117589857
 10
2.514120605825079
 20
0.0372233038043228
 10
2.513741921275501
 20
0.0374458915443338
  0
LWPOLYLINE
  5
57A
330
2
100
AcDbEntity
  8
SANINDUSA
100
AcDbPolyline
 90
        3
 70
   128
 43
0.0
 10
2.557067691757662
 20
0.0376621152621274
 10
2.533086329851399
 20
0.0370225622638591
 10
2.511231713292078
 20
0.0364751712928697
  0
LWPOLYLINE
  5
57B
330
2
100
AcDbEntity
  8
SANINDUSA
100
AcDbPolyline
 90
        3
 70
   128
 43
0.0
 10
2.557067855324381
 20
0.0372679682786102
 10
2.533088565259205
 20
0.0365837548445407
 10
2.488721915837683
 20
0.0354342520633636
  0
LWPOLYLINE
  5
57D
330
2
100
AcDbEntity
  8
SANINDUSA
100
AcDbPolyline
 90
        3
 70
   128
 43
0.0
 10
2.557068008433567
 20
0.0368984680907093
 10
2.533090734563949
 20
0.0361725601761887
 10
2.466212067006191
 20
0.0343982023620552
  0
LWPOLYLINE
  5
57F
330
2
100
AcDbEntity
  8
SANINDUSA
100
AcDbPolyline
 90
        3
 70
   128
 43
0.0
 10
2.556794353770179
 20
0.0365455626016356
 10
2.533092817191401
 20
0.0357900355076995
 10
2.443702169285358
 20
0.033383264895198
  0
LWPOLYLINE
  5
581
330
2
100
AcDbEntity
  8
SANINDUSA
100
AcDbPolyline
 90
        4
 70
   128
 43
0.0
 10
2.557068283994346
 20
0.0362372692497766
 10
2.533094793819715
 20
0.0354371541904075
 10
2.437184235240867
 20
0.0327668280453977
 10
2.421192225077735
 20
0.0324045066470913
  0
LINE
  5
583
330
2
100
AcDbEntity
  8
SANINDUSA
100
AcDbLine
 10
2.528041011939921
 20
0.0384767427277321
 30
0.0
 11
2.511601014619212
 21
0.0382870016011153
 31
0.0
  0
LWPOLYLINE
  5
584
330
2
100
AcDbEntity
  8
SANINDUSA
100
AcDbPolyline
 90
        9
 70
   128
 43
0.0
 10
2.510409488734791
 20
0.037521548346489
 10
2.510848452189503
 20
0.0375144749171969
 10
2.511285722895042
 20
0.0374753306577887
 10
2.511718959763822
 20
0.0374043251412777
 10
2.512145843304857
 20
0.0373018385214928
 10
2.512564088042028
 20
0.0371684194977857
 10
2.512971454750178
 20
0.0370047823773771
 10
2.513365762443633
 20
0.0368118032510384
 10
2.513744900052894
 20
0.0365905153026361
  0
LWPOLYLINE
  5
585
330
2
100
AcDbEntity
  8
SANINDUSA
100
AcDbPolyline
 90
        9
 70
   128
 43
0.0
 10
2.501431065979406
 20
0.0372332923593072
 10
2.501060294516775
 20
0.0369977787575945
 10
2.500673279956182
 20
0.0367900159955107
 10
2.500272096833802
 20
0.0366111177556118
 10
2.499858895634344
 20
0.0364620429963102
 10
2.499435891263707
 20
0.0363435908115198
 10
2.499005351176284
 20
0.0362563961472224
 10
2.498569583220602
 20
0.0362009263979408
 10
2.498130923268424
 20
0.0361774789013285
  0
LWPOLYLINE
  5
586
330
2
100
AcDbEntity
  8
SANINDUSA
100
AcDbPolyline
 90
        9
 70
   128
 43
0.0
 10
2.510194174407894
 20
0.0375048070291487
 10
2.510520406508368
 20
0.0374890012470737
 10
2.51084555125468
 20
0.0374411967126562
 10
2.51116786924215
 20
0.0373616491625549
 10
2.511485636188223
 20
0.0372507841468715
 10
2.511797152156724
 20
0.0371091947526238
 10
2.512100750651931
 20
0.0369376384309376
 10
2.51239480753367
 20
0.0367370329449673
 10
2.512677749705896
 20
0.0365084514602077
  0
LWPOLYLINE
  5
587
330
2
100
AcDbEntity
  8
SANINDUSA
100
AcDbPolyline
 90
        9
 70
   128
 43
0.0
 10
2.508631281203917
 20
0.0363659819845184
 10
2.508394888031849
 20
0.0365569429666439
 10
2.50810081048047
 20
0.0367575496539612
 10
2.507797194179048
 20
0.0369291071650232
 10
2.50748566337396
 20
0.0370706977241289
 10
2.507167884651531
 20
0.0371815638688159
 10
2.506845558022375
 20
0.0372611125020344
 10
2.506520407826902
 20
0.03730891806502
 10
2.506194173510658
 20
0.0373247248138878
  0
LWPOLYLINE
  5
588
330
2
100
AcDbEntity
  8
SANINDUSA
100
AcDbPolyline
 90
        9
 70
   128
 43
0.0
 10
2.501434482474525
 20
0.0362403586564929
 10
2.501804242407262
 20
0.0364769757692548
 10
2.502190318101149
 20
0.0366859292761401
 10
2.502590642592846
 20
0.0368661004865785
 10
2.503003072634116
 20
0.0370165248040021
 10
2.503425400166312
 20
0.0371363968900996
 10
2.50385536414181
 20
0.0372250749763967
 10
2.504290662629183
 20
0.0372820843001537
 10
2.504728965137211
 20
0.0373071196461447
  0
LWPOLYLINE
  5
589
330
2
100
AcDbEntity
  8
SANINDUSA
100
AcDbPolyline
 90
        9
 70
   128
 43
0.0
 10
2.492074235937372
 20
0.0360763772571218
 10
2.491635037463121
 20
0.0360852067189276
 10
2.491197662081073
 20
0.0361261366370732
 10
2.49076445428445
 20
0.0361989476121144
 10
2.490337736226676
 20
0.0363032493503979
 10
2.489919795273782
 20
0.0364384827561653
 10
2.489512871743292
 20
0.0366039229285357
 10
2.489119146895274
 20
0.0367986830472174
 10
2.488740731240001
 20
0.0370217191262046
  0
LWPOLYLINE
  5
58A
330
2
100
AcDbEntity
  8
SANINDUSA
100
AcDbPolyline
 90
        9
 70
   128
 43
0.0
 10
2.476429827620115
 20
0.0368240741614991
 10
2.476058768880212
 20
0.036589022946288
 10
2.475671500788672
 20
0.0363817410758534
 10
2.475270099248811
 20
0.0362033396593543
 10
2.474856715924572
 20
0.0360547749958042
 10
2.474433566706799
 20
0.035936843447943
 10
2.474002919835212
 20
0.0358501771734328
 10
2.473567083739777
 20
0.0357952407362578
 10
2.473128394666684
 20
0.0357723286164824
  0
LWPOLYLINE
  5
58B
330
2
100
AcDbEntity
  8
SANINDUSA
100
AcDbPolyline
 90
        9
 70
   128
 43
0.0
 10
2.467071883740187
 20
0.0356786093133374
 10
2.466632695890718
 20
0.0356879740308037
 10
2.466195370321949
 20
0.0357294354705155
 10
2.465762251265124
 20
0.0358027713833999
 10
2.46533566040298
 20
0.0359075886610972
 10
2.464917884424655
 20
0.0360433254431646
 10
2.464511162768154
 20
0.0362092541288658
 10
2.464117675616122
 20
0.0364044852773909
 10
2.463739532209225
 20
0.036627972375592
  0
LWPOLYLINE
  5
58C
330
2
100
AcDbEntity
  8
SANINDUSA
100
AcDbPolyline
 90
        9
 70
   128
 43
0.0
 10
2.451428584802712
 20
0.0364453643799462
 10
2.451799720460409
 20
0.0366798388094335
 10
2.452187014757315
 20
0.0368865567609228
 10
2.452588393944899
 20
0.0370644113731774
 10
2.453001708857788
 20
0.0372124503322985
 10
2.453424746421325
 20
0.0373298809708686
 10
2.453855241501402
 20
0.0374160745122267
 10
2.45429088903301
 20
0.0374705694372383
 10
2.454729356362564
 20
0.0374930739554739
  0
LWPOLYLINE
  5
58D
330
2
100
AcDbEntity
  8
SANINDUSA
100
AcDbPolyline
 90
        9
 70
   128
 43
0.0
 10
2.435409091220596
 20
0.0372181150068709
 10
2.435848020797972
 20
0.0372080941974255
 10
2.43628504183138
 20
0.0371660169258703
 10
2.436717814318414
 20
0.037092108492383
 10
2.437144021005239
 20
0.0369867646351591
 10
2.437561379794202
 20
0.0368505494114393
 10
2.437967655963176
 20
0.0366841921773144
 10
2.438360674131241
 20
0.0364885836824251
 10
2.438738329906652
 20
0.0362647713005063
  0
LWPOLYLINE
  5
58E
330
2
100
AcDbEntity
  8
SANINDUSA
100
AcDbPolyline
 90
        9
 70
   128
 43
0.0
 10
2.426427341479331
 20
0.0360972285337121
 10
2.426798763629669
 20
0.0363312368539428
 10
2.427186310329349
 20
0.036537470286643
 10
2.427587906485583
 20
0.0367148245687386
 10
2.428001401778712
 20
0.0368623500686354
 10
2.42842458217594
 20
0.0369792568709445
 10
2.428855181786231
 20
0.0370649190060354
 10
2.429290894992879
 20
0.0371188778017622
 10
2.429729388798756
 20
0.0371408443393685
  0
LWPOLYLINE
  5
58F
330
2
100
AcDbEntity
  8
SANINDUSA
100
AcDbPolyline
 90
        9
 70
   128
 43
0.0
 10
2.410409058409278
 20
0.0368896014900534
 10
2.41084797496938
 20
0.0368790416291963
 10
2.411284943577981
 20
0.0368364291314052
 10
2.41171762451727
 20
0.0367619921623114
 10
2.412143701027472
 20
0.0366561292894553
 10
2.412560891711761
 20
0.0365194073481703
 10
2.412966962751835
 20
0.0363525584065147
 10
2.413359739868766
 20
0.0361564758454588
 10
2.413737119964991
 20
0.0359322095753455
  0
LINE
  5
590
330
2
100
AcDbEntity
  8
SANINDUSA
100
AcDbLine
 10
2.456194142678894
 20
0.0350330926435068
 30
0.0
 11
2.460194146356192
 21
0.0352168352012605
 31
0.0
  0
LWPOLYLINE
  5
591
330
2
100
AcDbEntity
  8
SANINDUSA
100
AcDbPolyline
 90
        7
 70
   128
 43
0.0
 10
2.46192108466943
 20
0.0342129361632774
 10
2.461809120196027
 20
0.0342082490184012
 10
2.461511127491149
 20
0.034190282192682
 10
2.461201532200413
 20
0.0341598860747436
 10
2.460601885685033
 20
0.034056481058
 10
2.459974186769064
 20
0.0338794320863226
 10
2.459831405770948
 20
0.0338175314911442
  0
LINE
  5
592
330
2
100
AcDbEntity
  8
SANINDUSA
100
AcDbLine
 10
2.431194121395227
 20
0.0338962649069772
 30
0.0
 11
2.435194124627495
 21
0.0340763321885989
 31
0.0
  0
LWPOLYLINE
  5
593
330
2
100
AcDbEntity
  8
SANINDUSA
100
AcDbPolyline
 90
        9
 70
   128
 43
0.0
 10
2.433677575272737
 20
0.0328987711459709
 10
2.433394676569675
 20
0.0331274949242029
 10
2.433100654926771
 20
0.0333282444644752
 10
2.43279708345207
 20
0.0334999456937604
 10
2.432485586348208
 20
0.03364167995661
 10
2.43216783022243
 20
0.0337526889302435
 10
2.431845515169708
 20
0.0338323786818242
 10
2.431520365676703
 20
0.0338803228461771
 10
2.431194121395225
 20
0.0338962649069791
  0
LWPOLYLINE
  5
594
330
2
100
AcDbEntity
  8
SANINDUSA
100
AcDbPolyline
 90
        9
 70
   128
 43
0.0
 10
2.426427341479331
 20
0.0360972285337121
 10
2.426055707781134
 20
0.0358631068246714
 10
2.425667932710895
 20
0.0356567915417409
 10
2.425266094896429
 20
0.0354793886164808
 10
2.424852348347432
 20
0.0353318489987637
 10
2.424428910909124
 20
0.0352149635593255
 10
2.423998052373737
 20
0.0351293588503714
 10
2.423562082313502
 20
0.0350754937470188
 10
2.423123337700468
 20
0.0350536569875331
  0
LWPOLYLINE
  5
595
330
2
100
AcDbEntity
  8
SANINDUSA
100
AcDbPolyline
 90
        9
 70
   128
 43
0.0
 10
2.429728663342594
 20
0.0338791597194122
 10
2.429776084180963
 20
0.0338739182258442
 10
2.429912962316226
 20
0.0338711857778745
 10
2.430123847325059
 20
0.03387127155684
 10
2.430385070282292
 20
0.0338741675706106
 10
2.430667136778635
 20
0.0338795467889432
 10
2.430938127034407
 20
0.0338867974228597
 10
2.431167397672317
 20
0.0338950947639401
 10
2.431194121395225
 20
0.0338962649069791
  0
LWPOLYLINE
  5
596
330
2
100
AcDbEntity
  8
SANINDUSA
100
AcDbPolyline
 90
        9
 70
   128
 43
0.0
 10
2.42643415234788
 20
0.0328137624506067
 10
2.426803964893566
 20
0.0330502014953654
 10
2.427190078400905
 20
0.0332589767997061
 10
2.427590426181797
 20
0.0334389708854033
 10
2.428002865358618
 20
0.0335892203268636
 10
2.428425188334069
 20
0.0337089209078991
 10
2.428855134607407
 20
0.033797431926329
 10
2.42929040287389
 20
0.0338542796233619
 10
2.42972866334259
 20
0.0338791597194122
  0
LWPOLYLINE
  5
597
330
2
100
AcDbEntity
  8
SANINDUSA
100
AcDbPolyline
 90
        3
 70
   128
 43
0.0
 10
2.42643415234788
 20
0.0328137624506067
 10
2.426063995245737
 20
0.032577125703805
 10
2.425946165226517
 20
0.0325122138223995
  0
LWPOLYLINE
  5
598
330
2
100
AcDbEntity
  8
SANINDUSA
100
AcDbPolyline
 90
        9
 70
   128
 43
0.0
 10
2.417067139551437
 20
0.0349747747365214
 10
2.416627975239227
 20
0.0349852138352062
 10
2.416190751881782
 20
0.0350277421717024
 10
2.415757813170145
 20
0.0351021317772157
 10
2.415331479827933
 20
0.0352079838938803
 10
2.414914037171376
 20
0.0353447311122673
 10
2.414507722859081
 20
0.0355116404129185
 10
2.414114714897306
 20
0.0357078170956166
 10
2.413737119964991
 20
0.0359322095753455
  0
LWPOLYLINE
  5
599
330
2
100
AcDbEntity
  8
SANINDUSA
100
AcDbPolyline
 90
        9
 70
   128
 43
0.0
 10
2.410409863770865
 20
0.0329840162115207
 10
2.410848753723772
 20
0.0329765158148862
 10
2.411285920511692
 20
0.0329369556822181
 10
2.411719024312129
 20
0.0328655475489282
 10
2.412145747048681
 20
0.032762673608635
 10
2.412563804797952
 20
0.032628884467571
 10
2.412970960013641
 20
0.0324648961976132
 10
2.413365033502465
 20
0.0322715865036881
 10
2.413743916087693
 20
0.0320499900260793
  0
LWPOLYLINE
  5
59A
330
2
100
AcDbEntity
  8
SANINDUSA
100
AcDbPolyline
 90
        3
 70
   128
 43
0.0
 10
2.414174574211066
 20
0.0318009215076554
 10
2.414123172489936
 20
0.0318281885630759
 10
2.413743916087693
 20
0.0320499900260793
  0
LWPOLYLINE
  5
59B
330
2
100
AcDbEntity
  8
SANINDUSA
100
AcDbPolyline
 90
        4
 70
   128
 43
0.0
 10
2.41019410456202
 20
0.0329676877871284
 10
2.410344958273828
 20
0.0329757663758247
 10
2.410408434390821
 20
0.0329829312213715
 10
2.41040986377087
 20
0.0329840162115229
  0
LWPOLYLINE
  5
59C
330
2
100
AcDbEntity
  8
SANINDUSA
100
AcDbPolyline
 90
        9
 70
   128
 43
0.0
 10
2.41019410456202
 20
0.0329676877871284
 10
2.410520340789854
 20
0.0329516742403089
 10
2.410845457264723
 20
0.0329036571209318
 10
2.411167714461636
 20
0.0328238933430103
 10
2.411485388154079
 20
0.0327128096800121
 10
2.411796778639419
 20
0.0325710004814178
 10
2.41210021983312
 20
0.0323992244926754
 10
2.412394088183065
 20
0.0321984007955521
 10
2.412676811356337
 20
0.0319696038906287
  0
LINE
  5
59D
330
2
100
AcDbEntity
  8
SANINDUSA
100
AcDbLine
 10
2.406194101394897
 20
0.0327946294436579
 30
0.0
 11
2.410194104562022
 21
0.0329676877871266
 31
0.0
  0
LWPOLYLINE
  5
59E
330
2
100
AcDbEntity
  8
SANINDUSA
100
AcDbPolyline
 90
        9
 70
   128
 43
0.0
 10
2.408792575890644
 20
0.0317025748998877
 10
2.40839395247565
 20
0.0320252332673013
 10
2.408100119489724
 20
0.0322260725951301
 10
2.407796708388456
 20
0.0323978643507272
 10
2.407485342571396
 20
0.0325396893631787
 10
2.407167687999759
 20
0.0326507887984817
 10
2.406845444282708
 20
0.0327305682196712
 10
2.40652033558361
 20
0.032778600767364
 10
2.406194101394895
 20
0.0327946294436597
  0
LINE
  5
59F
330
2
100
AcDbEntity
  8
SANINDUSA
100
AcDbLine
 10
2.412914061484992
 20
0.0317751566265174
 30
0.0
 11
2.412676811356339
 21
0.0319696038906268
 31
0.0
  0
LINE
  5
5A0
330
2
100
AcDbEntity
  8
SANINDUSA
100
AcDbLine
 10
2.420567345745865
 20
0.0323856801772009
 30
0.0
 11
2.420445536561909
 21
0.0323828060876481
 31
0.0
  0
LWPOLYLINE
  5
5A1
330
2
100
AcDbEntity
  8
SANINDUSA
100
AcDbPolyline
 90
        4
 70
   128
 43
0.0
 10
2.421192225077735
 20
0.0324045066470913
 10
2.420913872945808
 20
0.0323975329368923
 10
2.420666879816018
 20
0.0323895948773239
 10
2.420567345745868
 20
0.0323856801772027
  0
LINE
  5
5A2
330
2
100
AcDbEntity
  8
SANINDUSA
100
AcDbLine
 10
2.420445536561909
 20
0.0323828060876481
 30
0.0
 11
2.416965735355832
 21
0.0322335477742986
 31
0.0
  0
LINE
  5
5A3
330
2
100
AcDbEntity
  8
SANINDUSA
100
AcDbLine
 10
2.416965735355832
 20
0.0322335477742986
 30
0.0
 11
2.41684499149412
 21
0.0322307260667385
 31
0.0
  0
LWPOLYLINE
  5
5A4
330
2
100
AcDbEntity
  8
SANINDUSA
100
AcDbPolyline
 90
        8
 70
   128
 43
0.0
 10
2.416965735355835
 20
0.0322335477743004
 10
2.416814903019127
 20
0.0322259079567371
 10
2.41675141350515
 20
0.0322194941836179
 10
2.416782429693649
 20
0.0322150326197462
 10
2.416904414820902
 20
0.0322130266731997
 10
2.41710370156488
 20
0.0322137041898659
 10
2.417357991503723
 20
0.0322169933128126
 10
2.417590997477492
 20
0.0322214633802642
  0
LWPOLYLINE
  5
5A5
330
2
100
AcDbEntity
  8
SANINDUSA
100
AcDbPolyline
 90
        5
 70
   128
 43
0.0
 10
2.423133681860573
 20
0.0324484930708823
 10
2.423131604199749
 20
0.0329750684826459
 10
2.423130369423908
 20
0.0332869703478596
 10
2.423125090176746
 20
0.0346149217317261
 10
2.423123337700468
 20
0.0350536569875331
  0
LWPOLYLINE
  5
5A6
330
2
100
AcDbEntity
  8
SANINDUSA
100
AcDbPolyline
 90
        5
 70
   128
 43
0.0
 10
2.417067139551437
 20
0.0349747747365214
 10
2.41706877575874
 20
0.0345408194572511
 10
2.417073783721363
 20
0.0331964311860557
 10
2.417074947008447
 20
0.0328806705547063
 10
2.417077272541338
 20
0.0322409480777642
  0
LWPOLYLINE
  5
5A7
330
2
100
AcDbEntity
  8
SANINDUSA
100
AcDbPolyline
 90
        7
 70
   128
 43
0.0
 10
2.41691038608241
 20
0.0322330452914312
 10
2.416798792236856
 20
0.0322287295935658
 10
2.416525018771468
 20
0.0322136378958558
 10
2.416214288603924
 20
0.0321854679072513
 10
2.415633201634624
 20
0.0320907611286967
 10
2.415011655127697
 20
0.0319231595885335
 10
2.41480482496058
 20
0.0318374042084238
  0
LWPOLYLINE
  5
5A8
330
2
100
AcDbEntity
  8
SANINDUSA
100
AcDbPolyline
 90
        9
 70
   128
 43
0.0
 10
2.451428584802712
 20
0.0364453643799462
 10
2.451057239068929
 20
0.0362107776016947
 10
2.450669717940333
 20
0.03600397861993
 10
2.450268098676225
 20
0.0358260759551322
 10
2.449854534107231
 20
0.0356780232326392
 10
2.449431241095314
 20
0.0355606140708428
 10
2.449000488650559
 20
0.0354744778271006
 10
2.448564585768414
 20
0.0354200762241444
 10
2.44812586905262
 20
0.0353977008750681
  0
LWPOLYLINE
  5
5A9
330
2
100
AcDbEntity
  8
SANINDUSA
100
AcDbPolyline
 90
        9
 70
   128
 43
0.0
 10
2.458678112301282
 20
0.0340361537477398
 10
2.45839509003105
 20
0.0342648084362227
 10
2.458100960905786
 20
0.0344654879928649
 10
2.457797298548972
 20
0.0346371187597506
 10
2.457485727587951
 20
0.0347787824932121
 10
2.457167914961961
 20
0.0348897212765442
 10
2.456845561003857
 20
0.034969341574928
 10
2.456520390343118
 20
0.0350172174109312
 10
2.456194142678893
 20
0.0350330926435086
  0
LWPOLYLINE
  5
5AA
330
2
100
AcDbEntity
  8
SANINDUSA
100
AcDbPolyline
 90
        9
 70
   128
 43
0.0
 10
2.454728737100332
 20
0.035015403547458
 10
2.454776185041165
 20
0.0350100754325527
 10
2.454913119461968
 20
0.0350073203015964
 10
2.455124091167787
 20
0.0350074497845745
 10
2.455385441102709
 20
0.0350104517483365
 10
2.455667598866499
 20
0.0350159863201011
 10
2.455938566867768
 20
0.0350234213038916
 10
2.456167693186199
 20
0.0350319086078039
 10
2.456194142678893
 20
0.0350330926435086
  0
LWPOLYLINE
  5
5AB
330
2
100
AcDbEntity
  8
SANINDUSA
100
AcDbPolyline
 90
        9
 70
   128
 43
0.0
 10
2.451434717003905
 20
0.0339481040738374
 10
2.451804406277102
 20
0.0341847632828003
 10
2.452190413609702
 20
0.0343937664254568
 10
2.45259067273371
 20
0.0345739947238226
 10
2.453003041092362
 20
0.0347244834294716
 10
2.453425311309084
 20
0.0348444269877692
 10
2.453855223003408
 20
0.0349331833499346
 10
2.454290474890614
 20
0.0349902774098896
 10
2.454728737100332
 20
0.035015403547458
  0
LWPOLYLINE
  5
5AC
330
2
100
AcDbEntity
  8
SANINDUSA
100
AcDbPolyline
 90
        3
 70
   128
 43
0.0
 10
2.459008051831435
 20
0.033773085085044
 10
2.458961542521589
 20
0.0338072060027926
 10
2.458678112301282
 20
0.0340361537477398
  0
LWPOLYLINE
  5
5AD
330
2
100
AcDbEntity
  8
SANINDUSA
100
AcDbPolyline
 90
        3
 70
   128
 43
0.0
 10
2.451434717003905
 20
0.0339481040738374
 10
2.451064710458523
 20
0.0337112642144475
 10
2.450812432656866
 20
0.0335747029631678
  0
LWPOLYLINE
  5
5AE
330
2
100
AcDbEntity
  8
SANINDUSA
100
AcDbPolyline
 90
        9
 70
   128
 43
0.0
 10
2.442069520338651
 20
0.0353113823038816
 10
2.441630343958305
 20
0.0353212829836653
 10
2.441193069103057
 20
0.0353632766252318
 10
2.440760039735515
 20
0.0354371381263982
 10
2.440333577060829
 20
0.0355424715609016
 10
2.439915967084135
 20
0.0356787123007362
 10
2.439509448356672
 20
0.0358451300427592
 10
2.439116199976298
 20
0.0360408327234077
 10
2.438738329906652
 20
0.0362647713005063
  0
LWPOLYLINE
  5
5AF
330
2
100
AcDbEntity
  8
SANINDUSA
100
AcDbPolyline
 90
        9
 70
   128
 43
0.0
 10
2.435409809399094
 20
0.0340932479265157
 10
2.435848720606806
 20
0.0340861373088697
 10
2.436285936947926
 20
0.034046963777636
 10
2.436719118177185
 20
0.0339759370131551
 10
2.43714594564765
 20
0.0338734371934643
 10
2.437564134721543
 20
0.0337400129593507
 10
2.437971446998991
 20
0.0335763784777069
 10
2.43836570229928
 20
0.0333834096188607
 10
2.438744790330507
 20
0.0331621392684101
  0
LWPOLYLINE
  5
5B0
330
2
100
AcDbEntity
  8
SANINDUSA
100
AcDbPolyline
 90
        4
 70
   128
 43
0.0
 10
2.435194124627493
 20
0.0340763321886007
 10
2.435344926136127
 20
0.0340847126430108
 10
2.435408378997596
 20
0.0340921265581701
 10
2.435409809399094
 20
0.0340932479265157
  0
LWPOLYLINE
  5
5B1
330
2
100
AcDbEntity
  8
SANINDUSA
100
AcDbPolyline
 90
        9
 70
   128
 43
0.0
 10
2.435194124627493
 20
0.0340763321886007
 10
2.435520369923948
 20
0.0340604021892423
 10
2.435845524172947
 20
0.0340124703448137
 10
2.436167847707221
 20
0.0339327931042444
 10
2.436485616004612
 20
0.0338217967633309
 10
2.436797128914783
 20
0.0336800751839146
 10
2.437100719755477
 20
0.0335083866165647
 10
2.437394764229758
 20
0.0333076496437152
 10
2.43781251764581
 20
0.0329699453121378
  0
LINE
  5
5B2
330
2
100
AcDbEntity
  8
SANINDUSA
100
AcDbLine
 10
2.433957354570996
 20
0.0326723851587185
 30
0.0
 11
2.433677575272739
 21
0.0328987711459691
 31
0.0
  0
LINE
  5
5B3
330
2
100
AcDbEntity
  8
SANINDUSA
100
AcDbLine
 10
2.443077409790233
 20
0.0333635557674616
 30
0.0
 11
2.442950520538909
 21
0.033360415542722
 31
0.0
  0
LWPOLYLINE
  5
5B4
330
2
100
AcDbEntity
  8
SANINDUSA
100
AcDbPolyline
 90
        4
 70
   128
 43
0.0
 10
2.443702169285358
 20
0.0333832648952003
 10
2.443423880901788
 20
0.033375957392706
 10
2.443176934247623
 20
0.0333676498136256
 10
2.443077409790231
 20
0.0333635557674634
  0
LINE
  5
5B5
330
2
100
AcDbEntity
  8
SANINDUSA
100
AcDbLine
 10
2.442950520538909
 20
0.033360415542722
 30
0.0
 11
2.439475799657623
 21
0.0332042710265655
 31
0.0
  0
LINE
  5
5B6
330
2
100
AcDbEntity
  8
SANINDUSA
100
AcDbLine
 10
2.439475799657623
 20
0.0332042710265655
 30
0.0
 11
2.439349656517868
 21
0.0332011709837907
 31
0.0
  0
LWPOLYLINE
  5
5B7
330
2
100
AcDbEntity
  8
SANINDUSA
100
AcDbPolyline
 90
        8
 70
   128
 43
0.0
 10
2.439475799657622
 20
0.0332042710265674
 10
2.439324998083558
 20
0.0331962674149227
 10
2.439261530834284
 20
0.0331895577075025
 10
2.439292540224748
 20
0.0331849017737377
 10
2.439414504443262
 20
0.0331828243598616
 10
2.439613800402318
 20
0.0331835628574313
 10
2.439868143823733
 20
0.0331870398344327
 10
2.440101243083474
 20
0.0331917488322588
  0
LWPOLYLINE
  5
5B8
330
2
100
AcDbEntity
  8
SANINDUSA
100
AcDbPolyline
 90
        5
 70
   128
 43
0.0
 10
2.442069520338651
 20
0.0353113823038816
 10
2.442071025102583
 20
0.0349722485520274
 10
2.442075389778898
 20
0.033979145896939
 10
2.442076736143163
 20
0.0336699855540806
 10
2.44207823742027
 20
0.0333217792793303
  0
LWPOLYLINE
  5
5B9
330
2
100
AcDbEntity
  8
SANINDUSA
100
AcDbPolyline
 90
        4
 70
   128
 43
0.0
 10
2.44813482528071
 20
0.0335026105586976
 10
2.448133566023135
 20
0.033770270866743
 10
2.448132128896783
 20
0.0340750071582912
 10
2.44812586905262
 20
0.0353977008750681
  0
LWPOLYLINE
  5
5BA
330
2
100
AcDbEntity
  8
SANINDUSA
100
AcDbPolyline
 90
        7
 70
   128
 43
0.0
 10
2.439349656517868
 20
0.0332011709837907
 10
2.439302835485097
 20
0.0331990499689405
 10
2.43901451805824
 20
0.0331822703065873
 10
2.438705346995731
 20
0.0331528742345509
 10
2.438116225154819
 20
0.0330537759184395
 10
2.43749410933911
 20
0.0328820569306836
 10
2.43722518675686
 20
0.0327679682108342
  0
LWPOLYLINE
  5
5BB
330
2
100
AcDbEntity
  8
SANINDUSA
100
AcDbPolyline
 90
        9
 70
   128
 43
0.0
 10
2.485409627237737
 20
0.0363845806460918
 10
2.485848574767675
 20
0.0363776978246406
 10
2.486285843688584
 20
0.0363387465968381
 10
2.486719093124808
 20
0.0362679354842012
 10
2.487146003718595
 20
0.036165643566982
 10
2.487564290046558
 20
0.0360324184547781
 10
2.487971712854461
 20
0.0358689733549741
 10
2.488366091044833
 20
0.0356761832546468
 10
2.488745313353275
 20
0.035455080236417
  0
LWPOLYLINE
  5
5BC
330
2
100
AcDbEntity
  8
SANINDUSA
100
AcDbPolyline
 90
        9
 70
   128
 43
0.0
 10
2.485194164815617
 20
0.0363674363655869
 10
2.485520407908935
 20
0.0363516127553171
 10
2.485845577195215
 20
0.0363037898105441
 10
2.486167933065663
 20
0.0362242233771249
 10
2.486485750962871
 20
0.0361133391240028
 10
2.486797330606915
 20
0.0359717302659433
 10
2.487101005091637
 20
0.0358001543899141
 10
2.487395149802333
 20
0.0355995294021059
 10
2.487678191107226
 20
0.0353709286172753
  0
LINE
  5
5BD
330
2
100
AcDbEntity
  8
SANINDUSA
100
AcDbLine
 10
2.488097540910251
 20
0.0354136328557588
 30
0.0
 11
2.484495929456623
 21
0.0352471292149831
 31
0.0
  0
LWPOLYLINE
  5
5BE
330
2
100
AcDbEntity
  8
SANINDUSA
100
AcDbPolyline
 90
        4
 70
   128
 43
0.0
 10
2.485194164815617
 20
0.0363674363655869
 10
2.485344809538511
 20
0.0363759441951575
 10
2.485408193614027
 20
0.0363834462674018
 10
2.485409627237733
 20
0.0363845806460895
  0
LINE
  5
5BF
330
2
100
AcDbEntity
  8
SANINDUSA
100
AcDbLine
 10
2.481194162425348
 20
0.0361836037886856
 30
0.0
 11
2.485194164815619
 21
0.0363674363655851
 31
0.0
  0
LWPOLYLINE
  5
5C0
330
2
100
AcDbEntity
  8
SANINDUSA
100
AcDbPolyline
 90
        9
 70
   128
 43
0.0
 10
2.483678216839531
 20
0.0351870516398085
 10
2.483395169856081
 20
0.0354156579848646
 10
2.483101020016607
 20
0.0356162886018811
 10
2.482797340990774
 20
0.0357878701388668
 10
2.482485757428368
 20
0.0359294846532467
 10
2.482167936267584
 20
0.0360403745227577
 10
2.48184557781709
 20
0.0361199464986535
 10
2.481520406659562
 20
0.0361677748795105
 10
2.481194162425346
 20
0.0361836037886874
  0
LWPOLYLINE
  5
5C1
330
2
100
AcDbEntity
  8
SANINDUSA
100
AcDbPolyline
 90
        9
 70
   128
 43
0.0
 10
2.479728834681947
 20
0.0361657362381439
 10
2.479776316688595
 20
0.0361604151923885
 10
2.479913321234004
 20
0.0361576797160515
 10
2.480124400436431
 20
0.0361578390387481
 10
2.480385909455173
 20
0.0361608786551315
 10
2.480668181227298
 20
0.036166453378693
 10
2.480939118770821
 20
0.0361739229785317
 10
2.481168060136925
 20
0.0361824323842839
 10
2.481194162425346
 20
0.0361836037886874
  0
LWPOLYLINE
  5
5C2
330
2
100
AcDbEntity
  8
SANINDUSA
100
AcDbPolyline
 90
        9
 70
   128
 43
0.0
 10
2.476434838872011
 20
0.0350979467650328
 10
2.476804507688604
 20
0.0353346690864592
 10
2.477190499769723
 20
0.035543735620619
 10
2.477590748773465
 20
0.0357240271659558
 10
2.478003112035977
 20
0.0358745785628426
 10
2.478425382041802
 20
0.0359945838603963
 10
2.478855298241448
 20
0.0360834006309997
 10
2.479290559152851
 20
0.036140553409422
 10
2.479728834681947
 20
0.0361657362381439
  0
LWPOLYLINE
  5
5C3
330
2
100
AcDbEntity
  8
SANINDUSA
100
AcDbPolyline
 90
        4
 70
   128
 43
0.0
 10
2.476434838872011
 20
0.0350979467650328
 10
2.476064881224607
 20
0.0348610617317482
 10
2.475678576930973
 20
0.0346518755963771
 10
2.475672845576636
 20
0.0346492062620619
  0
LWPOLYLINE
  5
5C4
330
2
100
AcDbEntity
  8
SANINDUSA
100
AcDbPolyline
 90
        9
 70
   128
 43
0.0
 10
2.460409732409444
 20
0.0352340304929581
 10
2.460848662627651
 20
0.0352271300436305
 10
2.461285913147559
 20
0.0351881638154
 10
2.461719143373854
 20
0.0351173403938847
 10
2.462146034231797
 20
0.0350150388957732
 10
2.46256430058119
 20
0.0348818069394124
 10
2.462971703448685
 20
0.0347183577134174
 10
2.463366062013002
 20
0.0345255661589809
 10
2.4637452652788
 20
0.0343044642863302
  0
LWPOLYLINE
  5
5C5
330
2
100
AcDbEntity
  8
SANINDUSA
100
AcDbPolyline
 90
        4
 70
   128
 43
0.0
 10
2.46019414635619
 20
0.0352168352012623
 10
2.460344878284828
 20
0.0352253625266545
 10
2.46040830058948
 20
0.0352328921525068
 10
2.460409732409444
 20
0.0352340304929581
  0
LWPOLYLINE
  5
5C6
330
2
100
AcDbEntity
  8
SANINDUSA
100
AcDbPolyline
 90
        9
 70
   128
 43
0.0
 10
2.46019414635619
 20
0.0352168352012623
 10
2.46052039389253
 20
0.0352009688030981
 10
2.460845566010413
 20
0.0351531020138159
 10
2.461167923014223
 20
0.0350734909243843
 10
2.461485740269441
 20
0.0349625614601987
 10
2.461797317429524
 20
0.0348209071023453
 10
2.462100987532927
 20
0.0346492857124295
 10
2.462395125921463
 20
0.034448615477967
 10
2.462648476550156
 20
0.0342439486251083
  0
LINE
  5
5C7
330
2
100
AcDbEntity
  8
SANINDUSA
100
AcDbLine
 10
2.484495929456623
 20
0.0352471292149831
 30
0.0
 11
2.484365049528922
 21
0.0352437302578183
 31
0.0
  0
LWPOLYLINE
  5
5C8
330
2
100
AcDbEntity
  8
SANINDUSA
100
AcDbPolyline
 90
        8
 70
   128
 43
0.0
 10
2.484495929456617
 20
0.0352471292149849
 10
2.48434521899686
 20
0.0352387595740302
 10
2.48428181972267
 20
0.0352317717601991
 10
2.48431281068759
 20
0.0352269573994945
 10
2.484434717253181
 20
0.0352248570820157
 10
2.484634047717614
 20
0.0352257154140207
 10
2.484888552355947
 20
0.0352294451180742
 10
2.485121873927679
 20
0.0352344467244475
  0
LWPOLYLINE
  5
5C9
330
2
100
AcDbEntity
  8
SANINDUSA
100
AcDbPolyline
 90
        4
 70
   128
 43
0.0
 10
2.466212067006191
 20
0.0343982023620529
 10
2.465933866820424
 20
0.0343906615269921
 10
2.465686985097619
 20
0.0343821024021159
 10
2.465587472676121
 20
0.0343778880939718
  0
LINE
  5
5CA
330
2
100
AcDbEntity
  8
SANINDUSA
100
AcDbLine
 10
2.465587472676123
 20
0.0343778880939722
 30
0.0
 11
2.461985862431291
 21
0.0342137511769529
 31
0.0
  0
LINE
  5
5CB
330
2
100
AcDbEntity
  8
SANINDUSA
100
AcDbLine
 10
2.461985862431291
 20
0.0342137511769529
 30
0.0
 11
2.461856288555321
 21
0.0342104533292191
 31
0.0
  0
LWPOLYLINE
  5
5CC
330
2
100
AcDbEntity
  8
SANINDUSA
100
AcDbPolyline
 90
        8
 70
   128
 43
0.0
 10
2.461985862431289
 20
0.0342137511769547
 10
2.461835101457228
 20
0.0342055011648713
 10
2.461771664057884
 20
0.0341985974072477
 10
2.461802664852481
 20
0.0341938219054069
 10
2.461924602478608
 20
0.0341917120116355
 10
2.462123912233765
 20
0.0341925108163505
 10
2.462378326617869
 20
0.0341961357621713
 10
2.462611534273766
 20
0.034201023698819
  0
LWPOLYLINE
  5
5CD
330
2
100
AcDbEntity
  8
SANINDUSA
100
AcDbPolyline
 90
        3
 70
   128
 43
0.0
 10
2.473135074222311
 20
0.0345818766546168
 10
2.47313345631339
 20
0.0348706834074019
 10
2.473128394666684
 20
0.0357723286164824
  0
LWPOLYLINE
  5
5CE
330
2
100
AcDbEntity
  8
SANINDUSA
100
AcDbPolyline
 90
        4
 70
   128
 43
0.0
 10
2.467071883740187
 20
0.0356786093133374
 10
2.467076591184592
 20
0.0347706801708537
 10
2.467078129028851
 20
0.0344713572405763
 10
2.467078384161597
 20
0.0344211866210176
  0
LWPOLYLINE
  5
5CF
330
2
100
AcDbEntity
  8
SANINDUSA
100
AcDbPolyline
 90
        7
 70
   128
 43
0.0
 10
2.484429829933721
 20
0.0352462533348549
 10
2.484317828837848
 20
0.0352414892276138
 10
2.484016074843849
 20
0.0352229983680345
 10
2.483706056349366
 20
0.0351921267526009
 10
2.483101164014707
 20
0.0350866248316507
 10
2.482470235009874
 20
0.0349068268357442
 10
2.482282406456321
 20
0.0348245645104103
  0
LWPOLYLINE
  5
5D0
330
2
100
AcDbEntity
  8
SANINDUSA
100
AcDbPolyline
 90
        4
 70
   128
 43
0.0
 10
2.501434482474525
 20
0.0362403586564929
 10
2.501064465388459
 20
0.0360035987596316
 10
2.500678111740923
 20
0.0357945408388119
 10
2.500299214425059
 20
0.035623186438269
  0
LINE
  5
5D1
330
2
100
AcDbEntity
  8
SANINDUSA
100
AcDbLine
 10
2.488745313353277
 20
0.0354550802364152
 30
0.0
 11
2.488592235922422
 21
0.0354320004576762
 31
0.0
  0
LINE
  5
5D2
330
2
100
AcDbEntity
  8
SANINDUSA
100
AcDbLine
 10
2.510607617890981
 20
0.03645457111711
 30
0.0
 11
2.510478063367143
 21
0.0364511917854334
 31
0.0
  0
LWPOLYLINE
  5
5D3
330
2
100
AcDbEntity
  8
SANINDUSA
100
AcDbPolyline
 90
        4
 70
   128
 43
0.0
 10
2.511231713292078
 20
0.0364751712928697
 10
2.510953779502434
 20
0.0364674991369648
 10
2.510707097729001
 20
0.0364588296441335
 10
2.510607617890979
 20
0.0364545711171095
  0
LWPOLYLINE
  5
5D4
330
2
100
AcDbEntity
  8
SANINDUSA
100
AcDbPolyline
 90
        4
 70
   128
 43
0.0
 10
2.488721915837683
 20
0.0354342520633636
 10
2.488443832829622
 20
0.0354265866805068
 10
2.488197038527706
 20
0.0354179035979987
 10
2.488097540910249
 20
0.0354136328557607
  0
LWPOLYLINE
  5
5D5
330
2
100
AcDbEntity
  8
SANINDUSA
100
AcDbPolyline
 90
        3
 70
   128
 43
0.0
 10
2.492074235937372
 20
0.0360763772571218
 10
2.492077379866733
 20
0.0355619104151734
 10
2.49207762702818
 20
0.0355211957338147
  0
LINE
  5
5D6
330
2
100
AcDbEntity
  8
SANINDUSA
100
AcDbLine
 10
2.498134252893577
 20
0.0356781178446245
 30
0.0
 11
2.498130923268425
 21
0.0361774789013266
 31
0.0
  0
LWPOLYLINE
  5
5D7
330
2
100
AcDbEntity
  8
SANINDUSA
100
AcDbPolyline
 90
        3
 70
   128
 43
0.0
 10
2.510476677063858
 20
0.036451116225011
 10
2.509143946747586
 20
0.036389663286067
 10
2.506874705667125
 20
0.0362848413744396
  0
LWPOLYLINE
  5
5D8
330
2
100
AcDbEntity
  8
SANINDUSA
100
AcDbPolyline
 90
        7
 70
   128
 43
0.0
 10
2.506874705667125
 20
0.0362848413744396
 10
2.506829124137699
 20
0.0362827564544332
 10
2.506530186677597
 20
0.0362645056401894
 10
2.506220496158991
 20
0.0362338287035428
 10
2.505618953052723
 20
0.0361294424775102
 10
2.504989939777716
 20
0.0359510983557166
 10
2.504757169753208
 20
0.0358497120814891
  0
LWPOLYLINE
  5
5D9
330
2
100
AcDbEntity
  8
SANINDUSA
100
AcDbPolyline
 90
        6
 70
   128
 43
0.0
 10
2.460409126787441
 20
0.0375772890838871
 10
2.460361594221909
 20
0.0375841987464392
 10
2.460224451628843
 20
0.0375889140429891
 10
2.460013042284032
 20
0.0375909080653074
 10
2.459751312876625
 20
0.0375899497282413
 10
2.459567939504573
 20
0.0375877762276437
  0
LINE
  5
5DA
330
2
100
AcDbEntity
  8
SANINDUSA
100
AcDbLine
 10
2.434568136327041
 20
0.037231016345224
 30
0.0
 11
2.430568166481928
 21
0.0371767626224001
 31
0.0
  0
LINE
  5
5DB
330
2
100
AcDbEntity
  8
SANINDUSA
100
AcDbLine
 10
2.430568197122227
 20
0.0371793398700898
 30
0.0
 11
2.430568166481928
 21
0.0371767626224001
 31
0.0
  0
LWPOLYLINE
  5
5DC
330
2
100
AcDbEntity
  8
SANINDUSA
100
AcDbPolyline
 90
        6
 70
   128
 43
0.0
 10
2.430568166481926
 20
0.0371767626224019
 10
2.430290685713536
 20
0.0371716425338482
 10
2.43004446770769
 20
0.0371643280707317
 10
2.429857359225658
 20
0.0371556471903059
 10
2.429750115827693
 20
0.0371465667915905
 10
2.429729388798756
 20
0.0371408443393685
  0
LWPOLYLINE
  5
5DD
330
2
100
AcDbEntity
  8
SANINDUSA
100
AcDbPolyline
 90
        6
 70
   128
 43
0.0
 10
2.410409058409278
 20
0.0368896014900534
 10
2.410361567434716
 20
0.0368974972924926
 10
2.410224486342491
 20
0.0369033214480456
 10
2.410013109469797
 20
0.0369064197233311
 10
2.409751569307005
 20
0.0369064351012562
 10
2.409568319474785
 20
0.036904773402529
  0
LINE
  5
5DE
330
2
100
AcDbEntity
  8
SANINDUSA
100
AcDbLine
 10
2.409568319474786
 20
0.0369047734025271
 30
0.0
 11
2.405568347672445
 21
0.0368554137627412
 31
0.0
  0
LINE
  5
5DF
330
2
100
AcDbEntity
  8
SANINDUSA
100
AcDbLine
 10
2.455568006986434
 20
0.0375309522732205
 30
0.0
 11
2.455567971979351
 21
0.0375286511605982
 31
0.0
  0
LINE
  5
5E0
330
2
100
AcDbEntity
  8
SANINDUSA
100
AcDbLine
 10
2.459567939504575
 20
0.0375877762276419
 30
0.0
 11
2.455567971979351
 21
0.0375286511605982
 31
0.0
  0
LWPOLYLINE
  5
5E1
330
2
100
AcDbEntity
  8
SANINDUSA
100
AcDbPolyline
 90
        6
 70
   128
 43
0.0
 10
2.45556797197935
 20
0.0375286511606001
 10
2.455290546824577
 20
0.0375232708400941
 10
2.455044353513373
 20
0.037515878045489
 10
2.454857264215626
 20
0.0375073088812488
 10
2.454750073726815
 20
0.0374985208175295
 10
2.454729356362564
 20
0.0374930739554739
  0
LWPOLYLINE
  5
5E2
330
2
100
AcDbEntity
  8
SANINDUSA
100
AcDbPolyline
 90
        6
 70
   128
 43
0.0
 10
2.435409091220596
 20
0.0372181150068709
 10
2.435361580318614
 20
0.0372255421066316
 10
2.435224469822002
 20
0.0372308331867626
 10
2.435013077726286
 20
0.0372333952498289
 10
2.434751446907931
 20
0.0372329326095624
 10
2.434568136327039
 20
0.0372310163452258
  0
LWPOLYLINE
  5
5E3
330
2
100
AcDbEntity
  8
SANINDUSA
100
AcDbPolyline
 90
        9
 70
   128
 43
0.0
 10
2.485409165568604
 20
0.0379670150100392
 10
2.485848119152666
 20
0.0379580662382401
 10
2.486285242583273
 20
0.0379170532853018
 10
2.486718195301015
 20
0.0378441957533928
 10
2.487144659078418
 20
0.037739883755161
 10
2.48756235043275
 20
0.0376046758249086
 10
2.487969032852872
 20
0.0374392959279217
 10
2.48836252877452
 20
0.0372446295840487
 10
2.488740731240001
 20
0.0370217191262046
  0
LINE
  5
5E4
330
2
100
AcDbEntity
  8
SANINDUSA
100
AcDbLine
 10
2.503790470571016
 20
0.0381968567307563
 30
0.0
 11
2.485099995672606
 21
0.0379811418680943
 31
0.0
  0
LINE
  5
5E5
330
2
100
AcDbEntity
  8
SANINDUSA
100
AcDbLine
 10
2.480567801689893
 20
0.0379129657455492
 30
0.0
 11
2.480567762764188
 21
0.0379109525418399
 31
0.0
  0
LWPOLYLINE
  5
5E6
330
2
100
AcDbEntity
  8
SANINDUSA
100
AcDbPolyline
 90
        9
 70
   128
 43
0.0
 10
2.476429827620115
 20
0.0368240741614991
 10
2.476800676408844
 20
0.0370590131035342
 10
2.47718771775376
 20
0.0372662140012826
 10
2.477588879260585
 20
0.0374445674074982
 10
2.478002012929306
 20
0.0375931183374351
 10
2.478424906655547
 20
0.0377110713822768
 10
2.478855296075172
 20
0.0377977949681136
 10
2.479290876688711
 20
0.0378528247376735
 10
2.479729316200706
 20
0.0378758660366944
  0
LWPOLYLINE
  5
5E7
330
2
100
AcDbEntity
  8
SANINDUSA
100
AcDbPolyline
 90
        6
 70
   128
 43
0.0
 10
2.485409165568604
 20
0.0379670150100392
 10
2.485361609552689
 20
0.0379733582583813
 10
2.485224431862953
 20
0.0379774544627517
 10
2.485013002425227
 20
0.0379788476979539
 10
2.484751166274383
 20
0.0379773748049789
 10
2.484567727858804
 20
0.0379749406187275
  0
LINE
  5
5E8
330
2
100
AcDbEntity
  8
SANINDUSA
100
AcDbLine
 10
2.484567727858805
 20
0.0379749406187257
 30
0.0
 11
2.480567762764188
 21
0.0379109525418399
 31
0.0
  0
LWPOLYLINE
  5
5E9
330
2
100
AcDbEntity
  8
SANINDUSA
100
AcDbPolyline
 90
        6
 70
   128
 43
0.0
 10
2.480567762764186
 20
0.0379109525418417
 10
2.480290395761673
 20
0.0379053211045735
 10
2.480044227314271
 20
0.0378978745583359
 10
2.479857156800864
 20
0.0378894544516711
 10
2.479750022907498
 20
0.037881004705479
 10
2.479729316200706
 20
0.0378758660366944
  0
LWPOLYLINE
  5
5EA
330
2
100
AcDbEntity
  8
SANINDUSA
100
AcDbPolyline
 90
        9
 70
   128
 43
0.0
 10
2.460409126787441
 20
0.0375772890838871
 10
2.460848068699516
 20
0.0375678046808767
 10
2.461285141288036
 20
0.0375262599599355
 10
2.461718004270238
 20
0.0374528773701459
 10
2.462144339903481
 20
0.0373480498348172
 10
2.462561865395474
 20
0.0372123386476133
 10
2.462968345127388
 20
0.0370464704671272
 10
2.463361602624337
 20
0.0368513334260265
 10
2.463739532209225
 20
0.036627972375592
  0
LINE
  5
5EB
330
2
100
AcDbEntity
  8
SANINDUSA
100
AcDbLine
 10
2.505567579901711
 20
0.0383253137401739
 30
0.0
 11
2.505567537700161
 21
0.0383235945510451
 31
0.0
  0
LINE
  5
5EC
330
2
100
AcDbEntity
  8
SANINDUSA
100
AcDbLine
 10
2.509567500120414
 20
0.038392418197188
 30
0.0
 11
2.509567542122389
 21
0.0383940899734371
 31
0.0
  0
LWPOLYLINE
  5
5ED
330
2
100
AcDbEntity
  8
SANINDUSA
100
AcDbPolyline
 90
        9
 70
   128
 43
0.0
 10
2.510409201624726
 20
0.0383871963315633
 10
2.510848167058126
 20
0.0383787796579932
 10
2.511285341247845
 20
0.0383382948446788
 10
2.511718383348704
 20
0.0382659586671812
 10
2.512144974640756
 20
0.0381621584489008
 10
2.512562830944845
 20
0.0380274499871521
 10
2.512969714853235
 20
0.0378625545771538
 10
2.513363447709772
 20
0.0376683551498664
 10
2.513741921275501
 20
0.0374458915443338
  0
LWPOLYLINE
  5
5EE
330
2
100
AcDbEntity
  8
SANINDUSA
100
AcDbPolyline
 90
        9
 70
   128
 43
0.0
 10
2.501431065979406
 20
0.0372332923593072
 10
2.501801629212397
 20
0.0374686944931173
 10
2.502188418836391
 20
0.0376763768323431
 10
2.50258936379582
 20
0.0378552273469873
 10
2.503002317240722
 20
0.0380042883863453
 10
2.50342506802198
 20
0.0381227618067365
 10
2.503855352530892
 20
0.0382100132451265
 10
2.504290866819594
 20
0.0382655755158285
 10
2.504729278937485
 20
0.0382891511120229
  0
LWPOLYLINE
  5
5EF
330
2
100
AcDbEntity
  8
SANINDUSA
100
AcDbPolyline
 90
        6
 70
   128
 43
0.0
 10
2.510409201624726
 20
0.0383871963315633
 10
2.510361620167483
 20
0.0383929245199661
 10
2.510224403537801
 20
0.0383963592110481
 10
2.510012948533737
 20
0.0383971201960403
 10
2.509750996476965
 20
0.0383951153391254
 10
2.509567500120412
 20
0.0383924181971898
  0
LINE
  5
5F0
330
2
100
AcDbEntity
  8
SANINDUSA
100
AcDbLine
 10
2.509567500120414
 20
0.038392418197188
 30
0.0
 11
2.505567537700161
 21
0.0383235945510451
 31
0.0
  0
LWPOLYLINE
  5
5F1
330
2
100
AcDbEntity
  8
SANINDUSA
100
AcDbPolyline
 90
        6
 70
   128
 43
0.0
 10
2.505567537700159
 20
0.0383235945510469
 10
2.505290236562983
 20
0.0383177221945394
 10
2.505044098310933
 20
0.0383102474109901
 10
2.504857050765364
 20
0.0383020144853654
 10
2.50474997617891
 20
0.0382939493160271
 10
2.504729278937485
 20
0.0382891511120229
  0
LWPOLYLINE
  5
5F2
330
2
100
AcDbEntity
  8
SANINDUSA
100
AcDbPolyline
 90
        4
 70
   128
 43
0.0
 10
2.510194174407894
 20
0.0375048070291487
 10
2.510344714851709
 20
0.0375131179027849
 10
2.510408052957847
 20
0.0375204402126829
 10
2.510409488734791
 20
0.037521548346489
  0
LINE
  5
5F3
330
2
100
AcDbEntity
  8
SANINDUSA
100
AcDbLine
 10
2.50619417351066
 20
0.037324724813886
 30
0.0
 11
2.510194174407896
 21
0.0375048070291469
 31
0.0
  0
LWPOLYLINE
  5
5F4
330
2
100
AcDbEntity
  8
SANINDUSA
100
AcDbPolyline
 90
        9
 70
   128
 43
0.0
 10
2.504728965137211
 20
0.0373071196461447
 10
2.504776487982836
 20
0.0373019051088059
 10
2.504913576423533
 20
0.0372992334015603
 10
2.505124785363051
 20
0.0372994063540219
 10
2.505386484442935
 20
0.0373024090196023
 10
2.505668888237806
 20
0.0373078990834497
 10
2.505939780765226
 20
0.0373152418882992
 10
2.506168491703534
 20
0.0373235933198421
 10
2.506194173510663
 20
0.0373247248138878
  0
LWPOLYLINE
  5
5F6
330
2
100
AcDbEntity
  8
SANINDUSA
100
AcDbPolyline
 90
        9
 70
   128
 43
0.0
 10
2.561249855437169
 20
0.0371728869932204
 10
2.56163038981255
 20
0.0369533707539827
 10
2.562025968503482
 20
0.0367622834038312
 10
2.562434470703152
 20
0.0366006494149238
 10
2.562853706318229
 20
0.0364693353518024
 10
2.563281427710573
 20
0.036369045225496
 10
2.563715341747448
 20
0.0363003167191201
 10
2.564153122095641
 20
0.0362635183052148
 10
2.564592421693561
 20
0.0362588472702592
  0
LWPOLYLINE
  5
5F8
330
2
100
AcDbEntity
  8
SANINDUSA
100
AcDbPolyline
 90
        9
 70
   128
 43
0.0
 10
2.561251841301924
 20
0.0367645940341427
 10
2.561632844962111
 20
0.0365458593379858
 10
2.562028834762997
 20
0.0363555871917393
 10
2.562437687545021
 20
0.0361947977684659
 10
2.562857211181791
 20
0.0360643531651149
 10
2.563285156333501
 20
0.035964952780279
 10
2.563719228507121
 20
0.0358971295642382
 10
2.564157100358653
 20
0.0358612471614847
 10
2.564596424171551
 20
0.0358574979609821
  0
LWPOLYLINE
  5
5F9
330
2
100
AcDbEntity
  8
SANINDUSA
100
AcDbPolyline
 90
        9
 70
   128
 43
0.0
 10
2.561253702394634
 20
0.0363794024845802
 10
2.560872593024583
 20
0.0365972211384988
 10
2.56047657604635
 20
0.0367865954904064
 10
2.560067771266418
 20
0.0369465118540134
 10
2.559648366942034
 20
0.0370761142262668
 10
2.559220608067868
 20
0.0371747088693601
 10
2.558786784358973
 20
0.0372417680241952
 10
2.558349217994342
 20
0.0372769327353754
 10
2.557910251186737
 20
0.0372800147726312
  0
LWPOLYLINE
  5
5FB
330
2
100
AcDbEntity
  8
SANINDUSA
100
AcDbPolyline
 90
        9
 70
   128
 43
0.0
 10
2.561255436156663
 20
0.0360183565751723
 10
2.560873942096424
 20
0.0362354766359286
 10
2.560477593232064
 20
0.0364241266566378
 10
2.560068511013456
 20
0.0365832968915939
 10
2.559648885045527
 20
0.0367121353850908
 10
2.559220961368406
 20
0.0368099525315065
 10
2.55878703043557
 20
0.0368762247663963
 10
2.558349414854216
 20
0.0369105973688639
 10
2.557910456953547
 20
0.0369128863601955
  0
LWPOLYLINE
  5
5FE
330
2
100
AcDbEntity
  8
SANINDUSA
100
AcDbPolyline
 90
        9
 70
   128
 43
0.0
 10
2.561253702394634
 20
0.0363794024845802
 10
2.561635145716547
 20
0.0361614029320495
 10
2.56203152045483
 20
0.0359718974951116
 10
2.562440701244633
 20
0.0358119023035979
 10
2.562860494054936
 20
0.0356822752531425
 10
2.563288647952969
 20
0.0355837114051351
 10
2.563722867173748
 20
0.0355167392598028
 10
2.564160823429957
 20
0.0354817179223838
 10
2.564600168396283
 20
0.0354788351775974
  0
LWPOLYLINE
  5
600
330
2
100
AcDbEntity
  8
SANINDUSA
100
AcDbPolyline
 90
        9
 70
   128
 43
0.0
 10
2.561255436156663
 20
0.0360183565751723
 10
2.561637288933999
 20
0.0358010442452328
 10
2.562034021967744
 20
0.0356122554536719
 10
2.562443507838362
 20
0.035453002551184
 10
2.5628635507412
 20
0.0353241395068303
 10
2.563291898261155
 20
0.0352263573287555
 10
2.563726253450896
 20
0.0351601803587724
 10
2.564164287147892
 20
0.0351259634606427
 10
2.564603650464188
 20
0.0351238901171919
  0
LWPOLYLINE
  5
602
330
2
100
AcDbEntity
  8
SANINDUSA
100
AcDbPolyline
 90
        9
 70
   128
 43
0.0
 10
2.561257040261781
 20
0.0356824237410151
 10
2.561639271761215
 20
0.0354657492980905
 10
2.562036336027332
 20
0.0352776256299913
 10
2.562446103739381
 20
0.0351190615800274
 10
2.56286637745237
 20
0.0349909074733219
 10
2.563294903381171
 20
0.0348938505567995
 10
2.563729383486839
 20
0.0348284113137279
 10
2.564167487800201
 20
0.0347949406725334
 10
2.564606866916689
 20
0.0347936181248852
  0
LWPOLYLINE
  5
606
330
2
100
AcDbEntity
  8
SANINDUSA
100
AcDbPolyline
 90
        9
 70
   128
 43
0.0
 10
2.561258512606711
 20
0.0353724946004118
 10
2.561641091621241
 20
0.0351564074025864
 10
2.562038459680763
 20
0.0349688959904202
 10
2.562448485719375
 20
0.0348109659786442
 10
2.56286897078705
 20
0.0346834643383559
 10
2.563297659842489
 20
0.0345870748547568
 10
2.563732253846784
 20
0.0345223144600314
 10
2.56417042209309
 20
0.0344895304610819
 10
2.564609814706065
 20
0.034488898676922
  0
LWPOLYLINE
  5
607
330
2
100
AcDbEntity
  8
SANINDUSA
100
AcDbPolyline
 90
        9
 70
   128
 43
0.0
 10
2.561258512606711
 20
0.0353724946004118
 10
2.560876337064993
 20
0.0355883692865123
 10
2.560479400863388
 20
0.0357757283430547
 10
2.560069828355155
 20
0.0359335690476351
 10
2.559649811521504
 20
0.0360610466563972
 10
2.559221598240375
 20
0.0361574789250099
 10
2.558787480256084
 20
0.0362223497599453
 10
2.558349780914173
 20
0.036255311980548
 10
2.55791084272718
 20
0.0362561891771079
  0
LWPOLYLINE
  5
608
330
2
100
AcDbEntity
  8
SANINDUSA
100
AcDbPolyline
 90
        6
 70
   128
 43
0.0
 10
2.55791084272718
 20
0.0362561891771079
 10
2.557863336003048
 20
0.036257904174212
 10
2.557726383371383
 20
0.0362561519960368
 10
2.557515673111971
 20
0.0362511448448222
 10
2.557254070064638
 20
0.036243423990667
 10
2.557068283994346
 20
0.0362372692497766
  0
LWPOLYLINE
  5
60C
330
2
100
AcDbEntity
  8
SANINDUSA
100
AcDbPolyline
 90
        9
 70
   128
 43
0.0
 10
2.561259851302158
 20
0.0350893829347015
 10
2.561642746201761
 20
0.0348738311430216
 10
2.562040390282351
 20
0.0346868778869148
 10
2.562450650891229
 20
0.0345295258378306
 10
2.562871327710483
 20
0.0344026189094316
 10
2.563300164557764
 20
0.0343068377314981
 10
2.563734861486701
 20
0.0342426959995615
 10
2.564173087122022
 20
0.034210537719845
 10
2.564612491163217
 20
0.0342105353642765
  0
LWPOLYLINE
  5
60D
330
2
100
AcDbEntity
  8
SANINDUSA
100
AcDbPolyline
 90
        9
 70
   128
 43
0.0
 10
2.561259851302158
 20
0.0350893829347015
 10
2.560877379670593
 20
0.0353047133847136
 10
2.560480188524813
 20
0.0354915083994356
 10
2.560070403476389
 20
0.0356487683250467
 10
2.559650217534555
 20
0.0357756515679594
 10
2.559221879370035
 20
0.0358714790987156
 10
2.558787681281074
 20
0.0359357380858651
 10
2.558349946925924
 20
0.0359680846404595
 10
2.557911018887567
 20
0.0359683456563917
  0
LWPOLYLINE
  5
60E
330
2
100
AcDbEntity
  8
SANINDUSA
100
AcDbPolyline
 90
        6
 70
   128
 43
0.0
 10
2.557911018887567
 20
0.0359683456563917
 10
2.557863524214832
 20
0.0359696856948281
 10
2.557726605809404
 20
0.035967468377377
 10
2.557515980063878
 20
0.0359619594430742
 10
2.557254432465307
 20
0.0359537533355311
 10
2.557068407165103
 20
0.0359473062308976
  0
LWPOLYLINE
  5
612
330
2
100
AcDbEntity
  8
SANINDUSA
100
AcDbPolyline
 90
        9
 70
   128
 43
0.0
 10
2.561261234541481
 20
0.0347955387360699
 10
2.56087845725711
 20
0.03501030535247
 10
2.56048100308824
 20
0.035196516089276
 10
2.560070998943416
 20
0.0353531744713328
 10
2.559650638890245
 20
0.035479442167888
 10
2.559222172414216
 20
0.0355746434787889
 10
2.558787892380984
 20
0.0356382689503758
 10
2.558350122766448
 20
0.0356699781017337
 10
2.557911206220416
 20
0.0356696012467196
  0
LWPOLYLINE
  5
613
330
2
100
AcDbEntity
  8
SANINDUSA
100
AcDbPolyline
 90
        6
 70
   128
 43
0.0
 10
2.55706988536766
 20
0.0356300169165789
 10
2.557348535048155
 20
0.0356409019844946
 10
2.557595945235322
 20
0.0356514847038798
 10
2.557784073404419
 20
0.0356605658859044
 10
2.557891018474603
 20
0.0356670839823223
 10
2.557911206220416
 20
0.0356696012467196
  0
LWPOLYLINE
  5
614
330
2
100
AcDbEntity
  8
SANINDUSA
100
AcDbPolyline
 90
        9
 70
   128
 43
0.0
 10
2.561261234541481
 20
0.0347955387360699
 10
2.561644455749362
 20
0.0345805416434123
 10
2.562042384835923
 20
0.0343941666024321
 10
2.562452887508817
 20
0.0342374132355158
 10
2.562873762037285
 20
0.0341111222892223
 10
2.563302751061125
 20
0.0340159711249444
 10
2.563737553698044
 20
0.0339524700858774
 10
2.564175837884437
 20
0.0339209597597929
 10
2.564615252883419
 20
0.0339216091523022
  0
LWPOLYLINE
  5
618
330
2
100
AcDbEntity
  8
SANINDUSA
100
AcDbPolyline
 90
        9
 70
   128
 43
0.0
 10
2.561263185291524
 20
0.0343788777509636
 10
2.560879977453456
 20
0.0345928466195633
 10
2.560482153050076
 20
0.0347782308116885
 10
2.560071840813426
 20
0.0349340383488075
 10
2.559651236297128
 20
0.0350594355150966
 10
2.559222590128098
 20
0.0351537513186272
 10
2.558788195963613
 20
0.035216481081774
 10
2.558350378218079
 20
0.0352472891417315
 10
2.557911479625278
 20
0.0352460106466051
  0
LWPOLYLINE
  5
619
330
2
100
AcDbEntity
  8
SANINDUSA
100
AcDbPolyline
 90
        6
 70
   128
 43
0.0
 10
2.557069686280129
 20
0.0352066580445503
 10
2.557348537203217
 20
0.0352180088259379
 10
2.557596128733549
 20
0.0352287831324057
 10
2.55778440881059
 20
0.0352377601716253
 10
2.557891355894781
 20
0.0352438860743123
 10
2.557911479625278
 20
0.0352460106466051
  0
LWPOLYLINE
  5
61A
330
2
100
AcDbEntity
  8
SANINDUSA
100
AcDbPolyline
 90
        9
 70
   128
 43
0.0
 10
2.561263185291524
 20
0.0343788777509636
 10
2.561646866528173
 20
0.0341646655089985
 10
2.562045197201102
 20
0.0339791084984509
 10
2.562456040705602
 20
0.0338232020280148
 10
2.562877193319433
 20
0.0336977823639441
 10
2.563306396023332
 20
0.0336035222444016
 10
2.5637413466182
 20
0.0335409272709594
 10
2.564179712073838
 20
0.0335103331966084
 10
2.564619141043086
 20
0.0335119041248177
  0
ARC
  5
61E
330
2
100
AcDbEntity
  8
SANINDUSA
100
AcDbCircle
 10
2.564366855588849
 20
0.038980786235888
 30
0.0
 40
0.0059999999788572
100
AcDbArc
 50
238.8778517630116
 51
272.4570825362458
  0
ARC
  5
61F
330
2
100
AcDbEntity
  8
SANINDUSA
100
AcDbCircle
 10
2.558164484147763
 20
0.0287079780758968
 30
0.0
 40
0.0059999999788571
100
AcDbArc
 50
58.87785176301158
 51
92.41325351274729
  0
LWPOLYLINE
  5
626
330
2
100
AcDbEntity
  8
SANINDUSA
100
AcDbPolyline
 90
        5
 70
   128
 43
0.0
 10
2.561250242528277
 20
0.0356863262606194
 10
2.561243157946197
 20
0.0356914831287113
 10
2.560476508403049
 20
0.0360883552938495
 10
2.559756871437004
 20
0.0363445590143115
 10
2.55921728962992
 20
0.036467603882833
  0
LWPOLYLINE
  5
627
330
2
100
AcDbEntity
  8
SANINDUSA
100
AcDbPolyline
 90
        9
 70
   128
 43
0.0
 10
2.55921728962992
 20
0.036467603882833
 10
2.559122732152924
 20
0.0364891665303722
 10
2.558609503949257
 20
0.0365547844944868
 10
2.558262013437317
 20
0.0365743296061137
 10
2.558077751734096
 20
0.0365771675051556
 10
2.557930710137849
 20
0.0365765417914954
 10
2.557478283655528
 20
0.0365673710511865
 10
2.557112538354009
 20
0.0365565715292692
 10
2.556794353770179
 20
0.0365455626016356
  0
LINE
  5
628
330
2
100
AcDbEntity
  8
SANINDUSA
100
AcDbLine
 10
2.557067517749268
 20
0.0380798463209563
 30
0.0
 11
2.533741459271385
 21
0.0375035752992967
 31
0.0
  0
LWPOLYLINE
  5
62A
330
2
100
AcDbEntity
  8
SANINDUSA
100
AcDbPolyline
 90
        3
 70
   128
 43
0.0
 10
2.539225783161511
 20
0.037623495428426
 10
2.539122042435252
 20
0.0376780120115646
 10
2.53874309404429
 20
0.0379001570478718
  0
LWPOLYLINE
  5
62B
330
2
100
AcDbEntity
  8
SANINDUSA
100
AcDbPolyline
 90
        9
 70
   128
 43
0.0
 10
2.535409235429998
 20
0.0388375270686598
 10
2.535848212696406
 20
0.0388296352673879
 10
2.536285437100256
 20
0.0387896713405772
 10
2.536718567505392
 20
0.0387178492767262
 10
2.53714528469715
 20
0.0386145536500467
 10
2.537563303800672
 20
0.0384803375612424
 10
2.537970386515381
 20
0.0383159196759121
 10
2.538364353100047
 20
0.0381221803764256
 10
2.53874309404429
 20
0.0379001570478718
  0
LWPOLYLINE
  5
62C
330
2
100
AcDbEntity
  8
SANINDUSA
100
AcDbPolyline
 90
        9
 70
   128
 43
0.0
 10
2.535409318042317
 20
0.038620045199315
 10
2.535848295308579
 20
0.0386125578061311
 10
2.536285549355904
 20
0.0385729974798087
 10
2.536718738965106
 20
0.0385015760409001
 10
2.537145544679507
 20
0.0383986759060909
 10
2.537563681224138
 20
0.0382648480405933
 10
2.537970909741967
 20
0.0381008090080823
 10
2.538365049781551
 20
0.0379074371339439
 10
2.538743990971981
 20
0.0376857678023944
  0
LWPOLYLINE
  5
62D
330
2
100
AcDbEntity
  8
SANINDUSA
100
AcDbPolyline
 90
        6
 70
   128
 43
0.0
 10
2.526432290967397
 20
0.0376727919537134
 10
2.526061804883967
 20
0.0374368215172299
 10
2.525675042409453
 20
0.037228583489215
 10
2.525274076712832
 20
0.0370491940912407
 10
2.524861057096815
 20
0.0368996149071145
 10
2.524536933797805
 20
0.0368084261707161
  0
LWPOLYLINE
  5
62E
330
2
100
AcDbEntity
  8
SANINDUSA
100
AcDbPolyline
 90
        9
 70
   128
 43
0.0
 10
2.526432290967397
 20
0.0376727919537134
 10
2.52680257195666
 20
0.0379086523405877
 10
2.527189112833699
 20
0.0381168108984175
 10
2.527589843858041
 20
0.0382961530382445
 10
2.528002619307814
 20
0.0384457184691806
 10
2.528425228969023
 20
0.038564706340284
 10
2.52885540997022
 20
0.0386524795287383
 10
2.529290858899059
 20
0.0387085680513397
 10
2.529729244135979
 20
0.0387326715810255
  0
LWPOLYLINE
  5
62F
330
2
100
AcDbEntity
  8
SANINDUSA
100
AcDbPolyline
 90
        6
 70
   128
 43
0.0
 10
2.535409235429998
 20
0.0388375270686598
 10
2.535361626250911
 20
0.0388425920096748
 10
2.53522436601667
 20
0.0388453239814535
 10
2.53501287831784
 20
0.0388454230525613
 10
2.534750799726704
 20
0.0388428709778705
 10
2.534567254893501
 20
0.0388399102351278
  0
LINE
  5
630
330
2
100
AcDbEntity
  8
SANINDUSA
100
AcDbLine
 10
2.534567254893503
 20
0.0388399102351237
 30
0.0
 11
2.530567295356089
 21
0.0387663127622905
 31
0.0
  0
LWPOLYLINE
  5
631
330
2
100
AcDbEntity
  8
SANINDUSA
100
AcDbPolyline
 90
        6
 70
   128
 43
0.0
 10
2.530567295356087
 20
0.0387663127622923
 10
2.530290068489772
 20
0.0387602120946477
 10
2.530043966371533
 20
0.0387527366747318
 10
2.529856946489423
 20
0.0387447306052027
 10
2.529749933652189
 20
0.0387370970144539
 10
2.529729244135979
 20
0.0387326715810255
  0
LWPOLYLINE
  5
632
330
2
100
AcDbEntity
  8
SANINDUSA
100
AcDbPolyline
 90
        4
 70
   128
 43
0.0
 10
2.535194174426775
 20
0.0386040770233322
 10
2.535344594880067
 20
0.0386120038359118
 10
2.53540787979147
 20
0.0386189867331782
 10
2.535409318042317
 20
0.038620045199315
  0
LWPOLYLINE
  5
633
330
2
100
AcDbEntity
  8
SANINDUSA
100
AcDbPolyline
 90
        9
 70
   128
 43
0.0
 10
2.535194174426775
 20
0.0386040770233322
 10
2.535520388561273
 20
0.0385882590631164
 10
2.535845485537171
 20
0.0385404424859226
 10
2.536167726279001
 20
0.0384608830819971
 10
2.536485386990458
 20
0.0383500064468299
 10
2.536796768375672
 20
0.0382084057044713
 10
2.537100204729433
 20
0.0380368383346777
 10
2.537394072847725
 20
0.0378362221208263
 10
2.537676800710902
 20
0.0376076302403467
  0
LINE
  5
634
330
2
100
AcDbEntity
  8
SANINDUSA
100
AcDbLine
 10
2.531194175064673
 20
0.0384318191410667
 30
0.0
 11
2.535194174426777
 21
0.0386040770233304
 31
0.0
  0
LWPOLYLINE
  5
635
330
2
100
AcDbEntity
  8
SANINDUSA
100
AcDbPolyline
 90
        9
 70
   128
 43
0.0
 10
2.533597501341347
 20
0.037499660792417
 10
2.533394217718338
 20
0.0376639928629848
 10
2.533100312365383
 20
0.0378646051570664
 10
2.532796844066198
 20
0.038036168522955
 10
2.532485436206726
 20
0.038177765192444
 10
2.532167754645126
 20
0.0382886377024161
 10
2.531845498800368
 20
0.038368192946854
 10
2.531520392561266
 20
0.0384160053496239
 10
2.531194175064671
 20
0.0384318191410685
  0
LWPOLYLINE
  5
636
330
2
100
AcDbEntity
  8
SANINDUSA
100
AcDbPolyline
 90
        9
 70
   128
 43
0.0
 10
2.529729128070782
 20
0.0384149553347507
 10
2.52977669831978
 20
0.0384099512900516
 10
2.529913884059452
 20
0.0384073880393058
 10
2.530125244653037
 20
0.0384075549990635
 10
2.530387163755114
 20
0.0384104389846462
 10
2.530669716184221
 20
0.0384157096030745
 10
2.530940548272425
 20
0.0384227527855901
 10
2.531168983912968
 20
0.0384307548472148
 10
2.531194175064676
 20
0.0384318191410708
  0
LWPOLYLINE
  5
637
330
2
100
AcDbEntity
  8
SANINDUSA
100
AcDbPolyline
 90
        9
 70
   128
 43
0.0
 10
2.526433612410293
 20
0.0373508588941891
 10
2.526803583106517
 20
0.0375871891443162
 10
2.527189848354379
 20
0.0377958393265445
 10
2.527590339984796
 20
0.0379756922711058
 10
2.52800291365677
 20
0.0381257849964723
 10
2.528425360338757
 20
0.0382453138654128
 10
2.528855418136446
 20
0.0383336388878857
 10
2.529290784403548
 20
0.0383902871477235
 10
2.529729128070782
 20
0.0384149553347507
  0
LWPOLYLINE
  5
638
330
2
100
AcDbEntity
  8
SANINDUSA
100
AcDbPolyline
 90
        4
 70
   128
 43
0.0
 10
2.526433612410293
 20
0.0373508588941891
 10
2.526063419292146
 20
0.0371144075196381
 10
2.525676913668359
 20
0.0369056693867188
 10
2.525514862710714
 20
0.0368329202841563
  0
LINE
  5
639
330
2
100
AcDbEntity
  8
SANINDUSA
100
AcDbLine
 10
2.533117705354323
 20
0.0374833404642409
 30
0.0
 11
2.532991913615154
 21
0.0374801046247167
 31
0.0
  0
LWPOLYLINE
  5
63A
330
2
100
AcDbEntity
  8
SANINDUSA
100
AcDbPolyline
 90
        4
 70
   128
 43
0.0
 10
2.533741459271383
 20
0.0375035752992986
 10
2.533463707697111
 20
0.0374960226729959
 10
2.533217164449507
 20
0.0374875136187907
 10
2.533117705354321
 20
0.0374833404642427
  0
LINE
  5
63B
330
2
100
AcDbEntity
  8
SANINDUSA
100
AcDbLine
 10
2.529516090599248
 20
0.037320302096211
 30
0.0
 11
2.529389517578391
 21
0.0373170348676963
 31
0.0
  0
LWPOLYLINE
  5
63C
330
2
100
AcDbEntity
  8
SANINDUSA
100
AcDbPolyline
 90
        8
 70
   128
 43
0.0
 10
2.529516090599246
 20
0.0373203020962128
 10
2.52936551057871
 20
0.0373121100652511
 10
2.529302214241476
 20
0.037305313784606
 10
2.529333183791615
 20
0.0373006832352362
 10
2.529455019353982
 20
0.0372987355872183
 10
2.529654419078766
 20
0.0372997048590642
 10
2.52990916708212
 20
0.0373034957536666
 10
2.530142708032332
 20
0.0373085040606239
  0
LWPOLYLINE
  5
63D
330
2
100
AcDbEntity
  8
SANINDUSA
100
AcDbPolyline
 90
        3
 70
   128
 43
0.0
 10
2.532990561116113
 20
0.0374800134449097
 10
2.53165760060154
 20
0.0374197914348079
 10
2.529388195159555
 20
0.037316732530634
  0
LWPOLYLINE
  5
63E
330
2
100
AcDbEntity
  8
SANINDUSA
100
AcDbPolyline
 90
        7
 70
   128
 43
0.0
 10
2.529454911752683
 20
0.0373195469390808
 10
2.529343149259249
 20
0.0373148750820329
 10
2.529053759424147
 20
0.0372976400224016
 10
2.528744632836329
 20
0.0372677867605617
 10
2.528153300528766
 20
0.0371672887997502
 10
2.527529666659667
 20
0.0369937722948876
 10
2.52725514390537
 20
0.0368765089790371
  0
LWPOLYLINE
  5
63F
330
2
100
AcDbEntity
  8
SANINDUSA
100
AcDbPolyline
 90
        9
 70
   128
 43
0.0
 10
2.561247747601306
 20
0.0376031603578818
 10
2.561627783711184
 20
0.0373828178034287
 10
2.562022925640327
 20
0.0371908684343444
 10
2.562431055078601
 20
0.037028341268971
 10
2.56284998409135
 20
0.0368961075966231
 10
2.563277466848645
 20
0.0367948763067048
 10
2.563711211664928
 20
0.0367251900884403
 10
2.56414889328446
 20
0.0366874225215761
 10
2.564588165346764
 20
0.0366817760736663
  0
LWPOLYLINE
  5
640
330
2
100
AcDbEntity
  8
SANINDUSA
100
AcDbPolyline
 90
        9
 70
   128
 43
0.0
 10
2.561247747601306
 20
0.0376031603578818
 10
2.560867962952299
 20
0.0378233607934786
 10
2.560473090702941
 20
0.0380152055797467
 10
2.560065244975845
 20
0.0381776675910751
 10
2.559646609352868
 20
0.038309877015478
 10
2.55921942518432
 20
0.038411126011537
 10
2.558785979588921
 20
0.0384808724981249
 10
2.558348593208704
 20
0.0385187430566876
 10
2.557909607784423
 20
0.0385245349305015
  0
LWPOLYLINE
  5
641
330
2
100
AcDbEntity
  8
SANINDUSA
100
AcDbPolyline
 90
        6
 70
   128
 43
0.0
 10
2.557909607784423
 20
0.0385245349305015
 10
2.557862004864161
 20
0.0385284227908042
 10
2.55772478790098
 20
0.0385296565725971
 10
2.557513454742962
 20
0.038528106561445
 10
2.557251407011527
 20
0.0385239383096487
 10
2.557067333480673
 20
0.0385200208189067
  0
LINE
  5
642
330
2
100
AcDbEntity
  8
SANINDUSA
100
AcDbLine
 10
2.557067333480675
 20
0.0385200208189026
 30
0.0
 11
2.556251157004456
 21
0.0385010451231706
 31
0.0
  0
LWPOLYLINE
  5
643
330
2
100
AcDbEntity
  8
SANINDUSA
100
AcDbPolyline
 90
        4
 70
   128
 43
0.0
 10
2.556251157004454
 20
0.0385010451231724
 10
2.555973619535863
 20
0.038493745827524
 10
2.555727240088619
 20
0.0384855521018508
 10
2.555627804494039
 20
0.0384815413917604
  0
LINE
  5
644
330
2
100
AcDbEntity
  8
SANINDUSA
100
AcDbLine
 10
2.555627804494041
 20
0.0384815413917586
 30
0.0
 11
2.552026187816357
 21
0.0383246684794286
 31
0.0
  0
LINE
  5
646
330
2
100
AcDbEntity
  8
SANINDUSA
100
AcDbLine
 10
2.552026187816357
 20
0.0383246684794286
 30
0.0
 11
2.551905458303566
 21
0.038321640651961
 31
0.0
  0
LWPOLYLINE
  5
647
330
2
100
AcDbEntity
  8
SANINDUSA
100
AcDbPolyline
 90
        8
 70
   128
 43
0.0
 10
2.552026187816355
 20
0.0383246684794304
 10
2.551875686613695
 20
0.0383167898563434
 10
2.551812454938295
 20
0.0383102818416469
 10
2.551843413704402
 20
0.0383058817598149
 10
2.551965211203875
 20
0.0383040795762068
 10
2.55216466144651
 20
0.0383050966082229
 10
2.552419563141753
 20
0.0383088343293676
 10
2.55265320111038
 20
0.0383137236877874
  0
LWPOLYLINE
  5
64A
330
2
100
AcDbEntity
  8
SANINDUSA
100
AcDbPolyline
 90
        9
 70
   128
 43
0.0
 10
2.561249855437169
 20
0.0371728869932204
 10
2.560869601261912
 20
0.0373922474415909
 10
2.560474322957349
 20
0.0375832208150305
 10
2.560066136665042
 20
0.0377447847283375
 10
2.559647227630077
 20
0.0378760742412683
 10
2.559219838502269
 20
0.0379763864890574
 10
2.558786257330017
 20
0.0380451844452264
 10
2.558348805311135
 20
0.038082099796583
 10
2.557909824366203
 20
0.038086934915008
  0
LWPOLYLINE
  5
64B
330
2
100
AcDbEntity
  8
SANINDUSA
100
AcDbPolyline
 90
        6
 70
   128
 43
0.0
 10
2.557909824366207
 20
0.038086934915008
 10
2.557862240623668
 20
0.0380904748602498
 10
2.557725074790124
 20
0.0380911937601868
 10
2.557513857195819
 20
0.0380890205038068
 10
2.557251898361998
 20
0.0380841896155871
 10
2.557067517749266
 20
0.0380798463209581
  0
LWPOLYLINE
  5
64E
330
2
100
AcDbEntity
  8
SANINDUSA
100
AcDbPolyline
 90
        9
 70
   128
 43
0.0
 10
2.561251841301924
 20
0.0367645940341427
 10
2.560871145381494
 20
0.0369831600012449
 10
2.560475485371568
 20
0.037173309331412
 10
2.560066979308782
 20
0.0373340241223073
 10
2.559647813996931
 20
0.037464444039787
 10
2.559220233300608
 20
0.0375638709234195
 10
2.558786526133418
 20
0.0376317725238564
 10
2.558349014205033
 20
0.0376677853520587
 10
2.557910039592663
 20
0.0376717166251106
  0
LWPOLYLINE
  5
64F
330
2
100
AcDbEntity
  8
SANINDUSA
100
AcDbPolyline
 90
        6
 70
   128
 43
0.0
 10
2.557910039592658
 20
0.0376717166251106
 10
2.557862473722613
 20
0.0376749015847113
 10
2.557725356256811
 20
0.0376751108266049
 10
2.557514250227133
 20
0.0376723314257461
 10
2.557252374143192
 20
0.0376668644746033
 10
2.557067691757662
 20
0.0376621152621274
  0
LWPOLYLINE
  5
650
330
2
100
AcDbEntity
  8
SANINDUSA
100
AcDbPolyline
 90
        6
 70
   128
 43
0.0
 10
2.557910251186737
 20
0.0372800147726312
 10
2.557862701903492
 20
0.0372828387221844
 10
2.557725629953985
 20
0.0372825448073664
 10
2.557514630894476
 20
0.0372791776984005
 10
2.557252831515508
 20
0.0372731025333829
 10
2.557067855324381
 20
0.0372679682786102
  0
LWPOLYLINE
  5
652
330
2
100
AcDbEntity
  8
SANINDUSA
100
AcDbPolyline
 90
        6
 70
   128
 43
0.0
 10
2.557910456953547
 20
0.0369128863601955
 10
2.557862923012741
 20
0.0369153443053975
 10
2.557725893691146
 20
0.0369145549739679
 10
2.557514996506117
 20
0.0369106198686168
 10
2.557253267989919
 20
0.0369039655541328
 10
2.557068008433567
 20
0.0368984680907093
  0
LWPOLYLINE
  5
654
330
2
100
AcDbEntity
  8
SANINDUSA
100
AcDbPolyline
 90
        7
 70
   128
 43
0.0
 10
2.551971489871126
 20
0.0383240945531261
 10
2.551860020944619
 20
0.0383196015178251
 10
2.55158648430002
 20
0.0383040696355184
 10
2.5512759161127
 20
0.0382753970223339
 10
2.550693492933625
 20
0.0381794138406977
 10
2.550070678678763
 20
0.0380101089784549
 10
2.549801837754968
 20
0.0378979415990344
  0
LINE
  5
655
330
2
100
AcDbEntity
  8
SANINDUSA
100
AcDbLine
 10
2.718061902608136
 20
0.1050000000000018
 30
0.0
 11
2.718061902608136
 21
0.002
 31
0.0
  0
ARC
  5
656
330
2
100
AcDbEntity
  8
SANINDUSA
100
AcDbCircle
 10
2.631586139636877
 20
0.0561446654495508
 30
0.0
 40
0.0200000000000008
100
AcDbArc
 50
272.9067627007215
 51
345.0000000000085
  0
LWPOLYLINE
  5
657
330
2
100
AcDbEntity
  8
SANINDUSA
100
AcDbPolyline
 90
        4
 70
   128
 43
0.0
 10
2.632600356036115
 20
0.0361703978761093
 10
2.632610151983418
 20
0.0363140969329348
 10
2.632688321826941
 20
0.0374940758333278
 10
2.632819108298328
 20
0.0396433741057504
  0
LINE
  5
658
330
2
100
AcDbEntity
  8
SANINDUSA
100
AcDbLine
 10
2.695700638006845
 20
0.0000000000000018
 30
0.0
 11
2.643423167209424
 21
0.0000000000000018
 31
0.0
  0
LINE
  5
659
330
2
100
AcDbEntity
  8
SANINDUSA
100
AcDbLine
 10
2.643423167209424
 20
0.0045642212862613
 30
0.0
 11
2.695700638006845
 21
0.0045642212862613
 31
0.0
  0
LINE
  5
65A
330
2
100
AcDbEntity
  8
SANINDUSA
100
AcDbLine
 10
2.693874613341812
 20
0.0254357787137401
 30
0.0
 11
2.646726498861961
 21
0.0254357787137401
 31
0.0
  0
LINE
  5
65B
330
2
100
AcDbEntity
  8
SANINDUSA
100
AcDbLine
 10
2.652976865654012
 20
0.0300000000000019
 30
0.0
 11
2.698855586832272
 21
0.0300000000000019
 31
0.0
  0
ARC
  5
65C
330
2
100
AcDbEntity
  8
SANINDUSA
100
AcDbCircle
 10
2.652976865654012
 20
0.0200000000000019
 30
0.0
 40
0.0100000000000002
100
AcDbArc
 50
90.0
 51
120.6174140958973
  0
LINE
  5
65D
330
2
100
AcDbEntity
  8
SANINDUSA
100
AcDbLine
 10
2.646726498861961
 20
0.0254357787137401
 30
0.0
 11
2.646726498861961
 21
0.0279530084827225
 31
0.0
  0
LWPOLYLINE
  5
65E
330
2
100
AcDbEntity
  8
SANINDUSA
100
AcDbPolyline
 90
        4
 70
   128
 43
0.0
 10
2.645229151316704
 20
0.0252067140904378
 10
2.644950267882187
 20
0.0260828576097415
 10
2.644681116059143
 20
0.0269132217249299
 10
2.644671558032215
 20
0.0269424082521905
  0
LINE
  5
65F
330
2
100
AcDbEntity
  8
SANINDUSA
100
AcDbLine
 10
2.646726498861961
 20
0.0254357787137401
 30
0.0
 11
2.645229151316706
 21
0.025206714090436
 31
0.0
  0
LINE
  5
660
330
2
100
AcDbEntity
  8
SANINDUSA
100
AcDbLine
 10
2.643423167209424
 20
0.0000000000000018
 30
0.0
 11
2.628480246738048
 21
0.0000000000000018
 31
0.0
  0
LINE
  5
661
330
2
100
AcDbEntity
  8
SANINDUSA
100
AcDbLine
 10
2.643423167209424
 20
0.0000000000000018
 30
0.0
 11
2.643423167209424
 21
0.0045642212862613
 31
0.0
  0
LWPOLYLINE
  5
662
330
2
100
AcDbEntity
  8
SANINDUSA
100
AcDbPolyline
 90
        3
 70
   128
 43
0.0
 10
2.644837171622377
 20
0.0251558892340782
 10
2.644530051694101
 20
0.0260110121575067
 10
2.644261248158942
 20
0.0267619898743888
  0
LWPOLYLINE
  5
663
330
2
100
AcDbEntity
  8
SANINDUSA
100
AcDbPolyline
 90
        9
 70
   128
 43
0.0
 10
2.633461220228506
 20
0.0045642212862631
 10
2.633645625428895
 20
0.0044885440682847
 10
2.634206515453285
 20
0.004432332779908
 10
2.635122542918535
 20
0.0043977268136351
 10
2.636358843968252
 20
0.0043860432669149
 10
2.637868365185487
 20
0.0043977268136351
 10
2.639593654438145
 20
0.004432332779908
 10
2.641469047497768
 20
0.0044885440682847
 10
2.643423167209422
 20
0.0045642212862631
  0
LINE
  5
664
330
2
100
AcDbEntity
  8
SANINDUSA
100
AcDbLine
 10
2.645229151316706
 20
0.025206714090436
 30
0.0
 11
2.643423167209424
 21
0.0045642212862613
 31
0.0
  0
LINE
  5
665
330
2
100
AcDbEntity
  8
SANINDUSA
100
AcDbLine
 10
2.645229151316706
 20
0.025206714090436
 30
0.0
 11
2.644837171622378
 21
0.0251558892340764
 31
0.0
  0
LWPOLYLINE
  5
666
330
2
100
AcDbEntity
  8
SANINDUSA
100
AcDbPolyline
 90
        5
 70
   128
 43
0.0
 10
2.644837171622377
 20
0.0251558892340782
 10
2.642272829995887
 20
0.0248015599934061
 10
2.639439295745175
 20
0.0244296479087407
 10
2.637164865936876
 20
0.024124487096939
 10
2.637024692141823
 20
0.0241013934976846
  0
ARC
  5
667
330
2
100
AcDbEntity
  8
SANINDUSA
100
AcDbCircle
 10
2.631586139636877
 20
0.0561446654495508
 30
0.0
 40
0.032
100
AcDbArc
 50
282.8858143830303
 51
300.6174140959034
  0
LINE
  5
668
330
2
100
AcDbEntity
  8
SANINDUSA
100
AcDbLine
 10
2.633461220228508
 20
0.0045642212862613
 30
0.0
 11
2.634856490718433
 21
0.0205122359626144
 31
0.0
  0
ARC
  5
669
330
2
100
AcDbEntity
  8
SANINDUSA
100
AcDbCircle
 10
2.628480246738048
 20
0.0050000000000019
 30
0.0
 40
0.005
100
AcDbArc
 50
270.0
 51
354.9999999999737
  0
ARC
  5
66A
330
2
100
AcDbEntity
  8
SANINDUSA
100
AcDbCircle
 10
2.639837464208893
 20
0.0200764572488761
 30
0.0
 40
0.0050000000000003
100
AcDbArc
 50
102.8858143830563
 51
174.9999999999997
  0
LINE
  5
66B
330
2
100
AcDbEntity
  8
SANINDUSA
100
AcDbLine
 10
2.710643558478221
 20
0.0000000000000018
 30
0.0
 11
2.695700638006845
 21
0.0000000000000018
 31
0.0
  0
LWPOLYLINE
  5
66C
330
2
100
AcDbEntity
  8
SANINDUSA
100
AcDbPolyline
 90
        9
 70
   128
 43
0.0
 10
2.695700638006843
 20
0.0045642212862631
 10
2.697654757718497
 20
0.0044885440682847
 10
2.699530150778119
 20
0.004432332779908
 10
2.701255440030774
 20
0.0043977268136351
 10
2.702764961248014
 20
0.0043860432669149
 10
2.70400126229773
 20
0.0043977268136351
 10
2.704917289762981
 20
0.004432332779908
 10
2.70547817978737
 20
0.0044885440682847
 10
2.705662584987759
 20
0.0045642212862631
  0
LINE
  5
66D
330
2
100
AcDbEntity
  8
SANINDUSA
100
AcDbLine
 10
2.703836560322732
 20
0.0254357787137401
 30
0.0
 11
2.705662584987766
 21
0.0045642212862613
 31
0.0
  0
ARC
  5
66E
330
2
100
AcDbEntity
  8
SANINDUSA
100
AcDbCircle
 10
2.710643558478221
 20
0.0050000000000019
 30
0.0
 40
0.0050000000000003
100
AcDbArc
 50
185.0000000000003
 51
270.0
  0
LINE
  5
66F
330
2
100
AcDbEntity
  8
SANINDUSA
100
AcDbLine
 10
2.695700638006845
 20
0.0000000000000018
 30
0.0
 11
2.695700638006845
 21
0.0045642212862613
 31
0.0
  0
LINE
  5
670
330
2
100
AcDbEntity
  8
SANINDUSA
100
AcDbLine
 10
2.695700638006845
 20
0.0045642212862613
 30
0.0
 11
2.693874613341812
 21
0.0254357787137401
 31
0.0
  0
LINE
  5
671
330
2
100
AcDbEntity
  8
SANINDUSA
100
AcDbLine
 10
2.693874613341812
 20
0.0254357787137401
 30
0.0
 11
2.693874613341812
 21
0.0300000000000019
 31
0.0
  0
LWPOLYLINE
  5
672
330
2
100
AcDbEntity
  8
SANINDUSA
100
AcDbPolyline
 90
        9
 70
   128
 43
0.0
 10
2.703836560322726
 20
0.025435778713742
 10
2.703638913325013
 20
0.0255114559317226
 10
2.703068187599634
 20
0.0255676672200971
 10
2.702146104874906
 20
0.02560227318637
 10
2.700907759469411
 20
0.0256139567330902
 10
2.69940028260795
 20
0.02560227318637
 10
2.697681048614773
 20
0.0255676672200971
 10
2.69581549125614
 20
0.0255114559317226
 10
2.69387461334181
 20
0.025435778713742
  0
ARC
  5
673
330
2
100
AcDbEntity
  8
SANINDUSA
100
AcDbCircle
 10
2.698855586832272
 20
0.0250000000000019
 30
0.0
 40
0.0050000000000003
100
AcDbArc
 50
5.000000000000313
 51
90.0
  0
LINE
  5
674
330
2
100
AcDbEntity
  8
SANINDUSA
100
AcDbLine
 10
2.716061902608138
 20
0.0000000000000018
 30
0.0
 11
2.710643558478221
 21
0.0000000000000018
 31
0.0
  0
ARC
  5
675
330
2
100
AcDbEntity
  8
SANINDUSA
100
AcDbCircle
 10
2.716061902608138
 20
0.002
 30
0.0
 40
0.002
100
AcDbArc
 50
270.0
 51
0.0
  0
LINE
  5
676
330
2
100
AcDbEntity
  8
SANINDUSA
100
AcDbLine
 10
2.628061902608131
 20
0.1150000000000019
 30
0.0
 11
2.698754982127292
 21
0.1150000000000019
 31
0.0
  0
LWPOLYLINE
  5
677
330
2
100
AcDbEntity
  8
SANINDUSA
100
AcDbPolyline
 90
        9
 70
   128
 43
0.0
 10
2.698754982127294
 20
0.1030000000000032
 10
2.694054656422378
 20
0.1025998008052548
 10
2.689486825580349
 20
0.1014216062006349
 10
2.685183931080238
 20
0.0994881326299119
 10
2.681263583378064
 20
0.0968643767300946
 10
2.677843238796923
 20
0.093615613261633
 10
2.675012363699212
 20
0.0898421046411423
 10
2.673079879268394
 20
0.0861666589111056
 10
2.671709058991197
 20
0.0822469332628739
  0
LWPOLYLINE
  5
678
330
2
100
AcDbEntity
  8
SANINDUSA
100
AcDbPolyline
 90
        9
 70
   128
 43
0.0
 10
2.698754982127294
 20
0.1150000000000037
 10
2.692040231120269
 20
0.1144282868646487
 10
2.685514758488799
 20
0.1127451517151931
 10
2.679367766345782
 20
0.1099830466141603
 10
2.673767269628394
 20
0.1062348239001349
 10
2.668881063083905
 20
0.1015937332309013
 10
2.664836955801462
 20
0.0962030066302001
 10
2.662076263757436
 20
0.0909523698730087
 10
2.66011794907573
 20
0.0853527618041031
  0
LINE
  5
679
330
2
100
AcDbEntity
  8
SANINDUSA
100
AcDbLine
 10
2.660290293331425
 20
0.042
 30
0.0
 11
2.706061902608138
 21
0.042
 31
0.0
  0
LINE
  5
67A
330
2
100
AcDbEntity
  8
SANINDUSA
100
AcDbLine
 10
2.628061902608136
 20
0.0544543715076084
 30
0.0
 11
2.628061902608131
 21
0.1038822856765383
 31
0.0
  0
LINE
  5
67B
330
2
100
AcDbEntity
  8
SANINDUSA
100
AcDbLine
 10
2.662495766078126
 20
0.0478624560062708
 30
0.0
 11
2.671709058991199
 21
0.0822469332628721
 31
0.0
  0
LINE
  5
67C
330
2
100
AcDbEntity
  8
SANINDUSA
100
AcDbLine
 10
2.650904656162659
 20
0.0509682845475
 30
0.0
 11
2.660117949075732
 21
0.0853527618041012
 31
0.0
  0
LWPOLYLINE
  5
67D
330
2
100
AcDbEntity
  8
SANINDUSA
100
AcDbPolyline
 90
       10
 70
   128
 43
0.0
 10
2.628061902608134
 20
0.0544543715076102
 10
2.632038411666286
 20
0.0544641598707759
 10
2.635904016839337
 20
0.0544721263306829
 10
2.639545200222411
 20
0.0544780438268495
 10
2.642865614559756
 20
0.0544817987935849
 10
2.645765884842673
 20
0.0544832663986554
 10
2.648171623161257
 20
0.0544824365113518
 10
2.65000792488811
 20
0.054479290651681
 10
2.651230909053285
 20
0.0544739274182112
 10
2.651841146668972
 20
0.0544633146978768
  0
LWPOLYLINE
  5
67E
330
2
100
AcDbEntity
  8
SANINDUSA
100
AcDbPolyline
 90
       10
 70
   128
 43
0.0
 10
2.651841146668972
 20
0.0544633146978768
 10
2.650900017385716
 20
0.0517485408161784
 10
2.649579531238152
 20
0.0491966608048133
 10
2.647906946479999
 20
0.0468603520757816
 10
2.645916789592134
 20
0.0447878420915495
 10
2.643650142566604
 20
0.0430219128253398
 10
2.641153794867915
 20
0.0415990176304049
 10
2.638479277577313
 20
0.0405485287484171
 10
2.635681799657838
 20
0.0398921309903372
 10
2.632819108298328
 20
0.0396433741057504
  0
LWPOLYLINE
  5
67F
330
2
100
AcDbEntity
  8
SANINDUSA
100
AcDbPolyline
 90
       10
 70
   128
 43
0.0
 10
2.628344757690348
 20
0.0396343916829701
 10
2.628330393263223
 20
0.0398780154946863
 10
2.628310469126378
 20
0.040530664654174
 10
2.628285397854371
 20
0.0415788245760555
 10
2.628255698604931
 20
0.0430007907249833
 10
2.628221986368559
 20
0.0447671180574153
 10
2.6281849592338
 20
0.0468412307482131
 10
2.628145383931702
 20
0.0491801795762959
 10
2.628104079958908
 20
0.0517355312859595
 10
2.628061902608134
 20
0.0544543715076102
  0
LWPOLYLINE
  5
680
330
2
100
AcDbEntity
  8
SANINDUSA
100
AcDbPolyline
 90
        6
 70
   128
 43
0.0
 10
2.632819108298328
 20
0.0396433741057504
 10
2.632704228792914
 20
0.0396539543067857
 10
2.632127772158188
 20
0.039662429849549
 10
2.63112806505677
 20
0.0396617793092073
 10
2.629817805068479
 20
0.0396521162307559
 10
2.628344757690348
 20
0.0396343916829701
  0
ARC
  5
681
330
2
100
AcDbEntity
  8
SANINDUSA
100
AcDbCircle
 10
2.631586139636877
 20
0.0561446654495508
 30
0.0
 40
0.0320000000000004
100
AcDbArc
 50
333.767112927502
 51
345.0000000000085
  0
LWPOLYLINE
  5
682
330
2
100
AcDbEntity
  8
SANINDUSA
100
AcDbPolyline
 90
       24
 70
   128
 43
0.0
 10
2.660117949075726
 20
0.0853527618041031
 10
2.660036531595102
 20
0.0855337141856708
 10
2.659759003849918
 20
0.0860765713303718
 10
2.659438591664608
 20
0.0866395342952447
 10
2.658989844426034
 20
0.0873633438215111
 10
2.658394552058927
 20
0.0882479999091711
 10
2.657634902751684
 20
0.089283598400124
 10
2.656629810997266
 20
0.0905210007371229
 10
2.655587870980617
 20
0.0916855309160874
 10
2.654352453379743
 20
0.092941250817918
 10
2.65248433275971
 20
0.0946175237403227
 10
2.651417741697625
 20
0.0954788155485463
 10
2.650392130059737
 20
0.0962495693332394
 10
2.649428055199734
 20
0.0969297850943977
 10
2.648543247673111
 20
0.0975194628320278
 10
2.647752744791211
 20
0.0980186025461231
 10
2.646268294010211
 20
0.0988875066980509
 10
2.644793263915832
 20
0.0996718822529161
 10
2.643343285660959
 20
0.1003717292107231
 10
2.641932355731156
 20
0.100987047571472
 10
2.638395517765581
 20
0.1022536142929144
 10
2.63485267528175
 20
0.1031583428842409
 10
2.631385154083947
 20
0.1037012333454495
 10
2.628061902608134
 20
0.1038822856765401
  0
LINE
  5
683
330
2
100
AcDbEntity
  8
SANINDUSA
100
AcDbLine
 10
2.628061902608131
 20
0.1038822856765383
 30
0.0
 11
2.628061902608131
 21
0.1150000000000019
 31
0.0
  0
LINE
  5
684
330
2
100
AcDbEntity
  8
SANINDUSA
100
AcDbLine
 10
2.706061902608138
 20
0.1030000000000014
 30
0.0
 11
2.706061902608138
 21
0.042
 31
0.0
  0
LINE
  5
685
330
2
100
AcDbEntity
  8
SANINDUSA
100
AcDbLine
 10
2.706061902608138
 20
0.1030000000000014
 30
0.0
 11
2.698754982127296
 21
0.1030000000000014
 31
0.0
  0
LINE
  5
686
330
2
100
AcDbEntity
  8
SANINDUSA
100
AcDbLine
 10
2.708061902608136
 20
0.1150000000000019
 30
0.0
 11
2.698754982127296
 21
0.1150000000000019
 31
0.0
  0
ARC
  5
687
330
2
100
AcDbEntity
  8
SANINDUSA
100
AcDbCircle
 10
2.708061902608136
 20
0.1050000000000018
 30
0.0
 40
0.01
100
AcDbArc
 50
0.0
 51
90.0
  0
ARC
  5
688
330
2
100
AcDbEntity
  8
SANINDUSA
100
AcDbCircle
 10
2.068289443348393
 20
0.0080137135205742
 30
0.0
 40
0.0150000000000001
100
AcDbArc
 50
160.5288466595502
 51
164.5883327870249
  0
ARC
  5
689
330
2
100
AcDbEntity
  8
SANINDUSA
100
AcDbCircle
 10
2.271817657066502
 20
0.0083722712308436
 30
0.0
 40
0.0170000000000001
100
AcDbArc
 50
12.3214300019676
 51
24.88880900106242
  0
ARC
  5
68A
330
2
100
AcDbEntity
  8
SANINDUSA
100
AcDbCircle
 10
2.192918596918187
 20
8.694817586646186
 30
0.0
 40
8.679803205006091
100
AcDbArc
 50
270.6226242655924
 51
272.4027455975825
  0
LINE
  5
68B
330
2
100
AcDbEntity
  8
SANINDUSA
100
AcDbLine
 10
2.622065928519927
 20
0.0120000000000019
 30
0.0
 11
2.288426076135679
 21
0.0120000000000019
 31
0.0
  0
ARC
  5
68C
330
2
100
AcDbEntity
  8
SANINDUSA
100
AcDbCircle
 10
2.564367212958187
 20
0.0389818852997742
 30
0.0
 40
0.0180011474993137
100
AcDbArc
 50
245.1649489123124
 51
272.6056733020656
  0
LINE
  5
68D
330
2
100
AcDbEntity
  8
SANINDUSA
100
AcDbLine
 10
2.623232157985318
 20
0.0237184079928204
 30
0.0
 11
2.565185579393645
 21
0.0209993496701873
 31
0.0
  0
LINE
  5
68E
330
2
100
AcDbEntity
  8
SANINDUSA
100
AcDbLine
 10
2.622065928519927
 20
0.0120000000000021
 30
0.0
 11
2.622902154341332
 21
0.0215581048755853
 31
0.0
  0
ARC
  5
68F
330
2
100
AcDbEntity
  8
SANINDUSA
100
AcDbCircle
 10
2.639837464208893
 20
0.0200764572488761
 30
0.0
 40
0.0170000000000003
100
AcDbArc
 50
167.6295023867012
 51
174.9999999999997
  0
LWPOLYLINE
  5
690
330
2
100
AcDbEntity
  8
SANINDUSA
100
AcDbPolyline
 90
        6
 70
   128
 43
0.0
 10
2.349221160398607
 20
0.0296737653130495
 10
2.349252191463152
 20
0.0296702705786802
 10
2.349374219711623
 20
0.0296686795166866
 10
2.349573508393165
 20
0.0296691713300757
 10
2.349827719840551
 20
0.0296716928464789
 10
2.350060473983273
 20
0.02967513844401
  0
LINE
  5
6A3
330
2
100
AcDbEntity
  8
SANINDUSA
100
AcDbLine
 10
2.20006923507488
 20
0.012119689256183
 30
0.0
 11
2.221172294279476
 21
0.0250516605689234
 31
0.0
  0
LINE
  5
6A4
330
2
100
AcDbEntity
  8
SANINDUSA
100
AcDbLine
 10
2.14006923507488
 20
0.012119689256183
 30
0.0
 11
2.119028120727564
 21
0.0250137007115609
 31
0.0
  0
LINE
  5
6A5
330
2
100
AcDbEntity
  8
SANINDUSA
100
AcDbLine
 10
2.221172294279476
 20
0.0250516605689234
 30
0.0
 11
2.119028120727564
 21
0.0250137007115609
 31
0.0
  0
LINE
  5
6A6
330
2
100
AcDbEntity
  8
SANINDUSA
100
AcDbLine
 10
2.14006923507488
 20
0.012119689256183
 30
0.0
 11
2.20006923507488
 21
0.012119689256183
 31
0.0
  0
ENDSEC
  0
SECTION
  2
OBJECTS
  0
DICTIONARY
  5
7
330
0
100
AcDbDictionary
281
     1
  3
ACAD_COLOR
350
33
  3
ACAD_GROUP
350
1F
  3
ACAD_LAYOUT
350
B
  3
ACAD_MATERIAL
350
32
  3
ACAD_MLEADERSTYLE
350
7DE
  3
ACAD_MLINESTYLE
350
20
  3
ACAD_PLOTSETTINGS
350
21
  3
ACAD_PLOTSTYLENAME
350
6
  3
ACAD_SCALELIST
350
7CC
  3
ACAD_TABLESTYLE
350
34
  3
ACAD_VISUALSTYLE
350
7B8
  3
ACDB_RECOMPOSE_DATA
350
802
  3
AcDbVariableDictionary
350
2E
  3
ASE_INDEX_DICTIONARY
350
7F8
  3
DWGPROPS
350
803
  0
DICTIONARY
  5
7E5
330
4
100
AcDbDictionary
280
     1
281
     1
  3
ADSK_XREC_LAYER_RECONCILED
360
7E6
  0
DICTIONARY
  5
7E7
330
22
100
AcDbDictionary
280
     1
281
     1
  3
ADSK_XREC_LAYER_RECONCILED
360
7E8
  0
DICTIONARY
  5
7E9
330
18C
100
AcDbDictionary
280
     1
281
     1
  3
ADSK_XREC_LAYER_RECONCILED
360
7EA
  0
DICTIONARY
  5
7EB
330
18D
100
AcDbDictionary
280
     1
281
     1
  3
ADSK_XREC_LAYER_RECONCILED
360
7EC
  0
DICTIONARY
  5
7ED
330
18E
100
AcDbDictionary
280
     1
281
     1
  3
ADSK_XREC_LAYER_RECONCILED
360
7EE
  0
DICTIONARY
  5
7EF
330
190
100
AcDbDictionary
280
     1
281
     1
  3
ADSK_XREC_LAYER_RECONCILED
360
7F0
  0
DICTIONARY
  5
7F1
330
191
100
AcDbDictionary
280
     1
281
     1
  3
ADSK_XREC_LAYER_RECONCILED
360
7F2
  0
DICTIONARY
  5
7F3
330
192
100
AcDbDictionary
280
     1
281
     1
  3
ADSK_XREC_LAYER_RECONCILED
360
7F4
  0
DICTIONARY
  5
7F5
330
193
100
AcDbDictionary
280
     1
281
     1
  3
ADSK_XREC_LAYER_RECONCILED
360
7F6
  0
DICTIONARY
  5
89
330
2
100
AcDbDictionary
280
     1
281
     1
  3
ACAD_SORTENTS
360
8A
  0
DICTIONARY
  5
33
102
{ACAD_REACTORS
330
7
102
}
330
7
100
AcDbDictionary
281
     1
  0
DICTIONARY
  5
1F
102
{ACAD_REACTORS
330
7
102
}
330
7
100
AcDbDictionary
281
     1
  0
DICTIONARY
  5
B
102
{ACAD_REACTORS
330
7
102
}
330
7
100
AcDbDictionary
281
     1
  3
Layout1
350
F
  3
Model
350
A
  0
DICTIONARY
  5
32
102
{ACAD_REACTORS
330
7
102
}
330
7
100
AcDbDictionary
281
     1
  3
ByBlock
350
7A8
  3
ByLayer
350
7A0
  3
Global
350
7B0
  0
DICTIONARY
  5
7DE
102
{ACAD_REACTORS
330
7
102
}
330
7
100
AcDbDictionary
281
     1
  3
Standard
350
7DF
  0
DICTIONARY
  5
20
102
{ACAD_REACTORS
330
7
102
}
330
7
100
AcDbDictionary
281
     1
  3
Standard
350
24
  0
DICTIONARY
  5
21
102
{ACAD_REACTORS
330
7
102
}
330
7
100
AcDbDictionary
281
     1
  0
ACDBDICTIONARYWDFLT
  5
6
102
{ACAD_REACTORS
330
7
102
}
330
7
100
AcDbDictionary
281
     1
  3
Normal
350
5
100
AcDbDictionaryWithDefault
340
5
  0
DICTIONARY
  5
7CC
102
{ACAD_REACTORS
330
7
102
}
330
7
100
AcDbDictionary
281
     1
  3
A0
350
7CD
  3
A1
350
7CE
  3
A2
350
7CF
  3
A3
350
7D0
  3
A4
350
7D1
  3
A5
350
7D2
  3
A6
350
7D3
  3
A7
350
7D4
  3
A8
350
7D5
  3
A9
350
7D6
  3
B0
350
7D7
  3
B1
350
7D8
  3
B2
350
7D9
  3
B3
350
7DA
  3
B4
350
7DB
  3
B5
350
7DC
  3
B6
350
7DD
  0
DICTIONARY
  5
34
102
{ACAD_REACTORS
330
7
102
}
330
7
100
AcDbDictionary
281
     1
  3
Standard
350
35
  0
DICTIONARY
  5
7B8
102
{ACAD_REACTORS
330
7
102
}
330
7
100
AcDbDictionary
281
     1
  3
2dWireframe
350
7BE
  3
3D Hidden
350
7C0
  3
3dWireframe
350
7BF
  3
Basic
350
7BD
  3
Brighten
350
7C4
  3
ColorChange
350
7C8
  3
Conceptual
350
7C1
  3
Dim
350
7C3
  3
EdgeColorOff
350
7CB
  3
Facepattern
350
7C7
  3
Flat
350
7B9
  3
FlatWithEdges
350
7BA
  3
Gouraud
350
7BB
  3
GouraudWithEdges
350
7BC
  3
JitterOff
350
7C9
  3
Linepattern
350
7C6
  3
OverhangOff
350
7CA
  3
Realistic
350
7C2
  3
Thicken
350
7C5
  0
XRECORD
  5
802
102
{ACAD_REACTORS
330
7
102
}
330
7
100
AcDbXrecord
280
     1
 90
        1
330
35
  0
DICTIONARY
  5
2E
102
{ACAD_REACTORS
330
7
102
}
330
7
100
AcDbDictionary
281
     1
  3
CANNOSCALE
350
7FC
  3
CMLEADERSTYLE
350
7FB
  3
CTABLESTYLE
350
A1
  3
DIMASSOC
350
30
  3
HIDETEXT
350
2F
  3
INDEXCTL
350
7FE
  3
PROJECTNAME
350
11C
  3
SORTENTS
350
7FD
  3
XCLIPFRAME
350
7FF
  0
DICTIONARY
  5
7F8
102
{ACAD_REACTORS
330
7
102
}
330
7
100
AcDbDictionary
281
     1
  3
ASEBlockHierarchyIndexRecord
350
7FA
1001
DCO15
1040
1757672461.609
  0
XRECORD
  5
803
102
{ACAD_REACTORS
330
7
102
}
330
7
100
AcDbXrecord
280
     1
  1
DWGPROPS COOKIE
  2

  3

  4

  6

  7

  8
Julio
  9

300
=
301
=
302
=
303
=
304
=
305
=
306
=
307
=
308
=
309
=
 40
0.0162473148148148
 41
2453125.639648206
 42
2456146.643120475
  1

 90
        0
  0
XRECORD
  5
7E6
102
{ACAD_REACTORS
330
7E5
102
}
330
7E5
100
AcDbXrecord
280
     1
290
     1
  0
XRECORD
  5
7E8
102
{ACAD_REACTORS
330
7E7
102
}
330
7E7
100
AcDbXrecord
280
     1
290
     1
  0
XRECORD
  5
7EA
102
{ACAD_REACTORS
330
7E9
102
}
330
7E9
100
AcDbXrecord
280
     1
290
     1
  0
XRECORD
  5
7EC
102
{ACAD_REACTORS
330
7EB
102
}
330
7EB
100
AcDbXrecord
280
     1
290
     1
  0
XRECORD
  5
7EE
102
{ACAD_REACTORS
330
7ED
102
}
330
7ED
100
AcDbXrecord
280
     1
290
     1
  0
XRECORD
  5
7F0
102
{ACAD_REACTORS
330
7EF
102
}
330
7EF
100
AcDbXrecord
280
     1
290
     1
  0
XRECORD
  5
7F2
102
{ACAD_REACTORS
330
7F1
102
}
330
7F1
100
AcDbXrecord
280
     1
290
     1
  0
XRECORD
  5
7F4
102
{ACAD_REACTORS
330
7F3
102
}
330
7F3
100
AcDbXrecord
280
     1
290
     1
  0
XRECORD
  5
7F6
102
{ACAD_REACTORS
330
7F5
102
}
330
7F5
100
AcDbXrecord
280
     1
290
     1
  0
SORTENTSTABLE
  5
8A
102
{ACAD_REACTORS
330
89
102
}
330
89
100
AcDbSortentsTable
330
2
331
28
  5
28
331
2C
  5
2C
331
27
  5
27
331
44
  5
44
331
2B
  5
2B
331
26
  5
26
331
2A
  5
2A
331
29
  5
29
331
2D
  5
2D
  0
LAYOUT
  5
F
102
{ACAD_XDICTIONARY
360
806
102
}
102
{ACAD_REACTORS
330
B
102
}
330
B
100
AcDbPlotSettings
  1

  2
C:\Programas\Autodesk\MDT6\plotters\LASER_BANHEIRAS.pc3
  4

  6

 40
0.0
 41
0.0
 42
0.0
 43
0.0
 44
0.0
 45
0.0
 46
0.0
 47
0.0
 48
0.0
 49
0.0
140
0.0
141
0.0
142
1.0
143
1.0
 70
   688
 72
     0
 73
     0
 74
     5
  7
BANHEIRAS.ctb
 75
    16
147
1.0
148
0.0
149
0.0
100
AcDbLayout
  1
Layout1
 70
     1
 71
     1
 10
0.0
 20
0.0
 11
420.0
 21
297.0
 12
0.0
 22
0.0
 32
0.0
 14
1.000000000000000E+20
 24
1.000000000000000E+20
 34
1.000000000000000E+20
 15
-1.000000000000000E+20
 25
-1.000000000000000E+20
 35
-1.000000000000000E+20
146
0.0
 13
0.0
 23
0.0
 33
0.0
 16
1.0
 26
0.0
 36
0.0
 17
0.0
 27
1.0
 37
0.0
 76
     0
330
C
  0
LAYOUT
  5
A
102
{ACAD_XDICTIONARY
360
804
102
}
102
{ACAD_REACTORS
330
B
102
}
330
B
100
AcDbPlotSettings
  1

  2
Laser 4M+
  4
A4
  6

 40
6.805083274841308
 41
5.069413185119628
 42
6.805084228515625
 43
5.027069091796875
 44
209.9733276367187
 45
296.9683227539062
 46
0.0
 47
4.591826185639661
 48
0.0
 49
0.0
140
0.0
141
0.0
142
1.0
143
1.069577584606243
 70
 11956
 72
     1
 73
     0
 74
     1
  7
FINO.CTB
 75
     0
147
0.934948538930107
148
0.0064049753888185
149
0.004528679247187
100
AcDbLayout
  1
Model
 70
     1
 71
     0
 10
0.0
 20
0.0
 11
12.0
 21
9.0
 12
0.0
 22
0.0
 32
0.0
 14
0.0
 24
0.0
 34
0.0
 15
0.0
 25
0.0
 35
0.0
146
0.0
 13
0.0
 23
0.0
 33
0.0
 16
1.0
 26
0.0
 36
0.0
 17
0.0
 27
1.0
 37
0.0
 76
     0
330
2
331
799
  0
MATERIAL
  5
7A8
102
{ACAD_XDICTIONARY
360
7A9
102
}
102
{ACAD_REACTORS
330
32
102
}
330
32
100
AcDbMaterial
  1
ByBlock
 72
     0
 43
0.0008202099737533
 43
0.0
 43
0.0
 43
0.0
 43
0.0
 43
0.0008202099737533
 43
0.0
 43
0.0
 43
0.0
 43
0.0
 43
1.0
 43
0.0
 43
0.0
 43
0.0
 43
0.0
 43
1.0
 77
     0
 47
0.0008202099737533
 47
0.0
 47
0.0
 47
0.0
 47
0.0
 47
0.0008202099737533
 47
0.0
 47
0.0
 47
0.0
 47
0.0
 47
1.0
 47
0.0
 47
0.0
 47
0.0
 47
0.0
 47
1.0
171
     0
 49
0.0008202099737533
 49
0.0
 49
0.0
 49
0.0
 49
0.0
 49
0.0008202099737533
 49
0.0
 49
0.0
 49
0.0
 49
0.0
 49
1.0
 49
0.0
 49
0.0
 49
0.0
 49
0.0
 49
1.0
175
     0
142
0.0008202099737533
142
0.0
142
0.0
142
0.0
142
0.0
142
0.0008202099737533
142
0.0
142
0.0
142
0.0
142
0.0
142
1.0
142
0.0
142
0.0
142
0.0
142
0.0
142
1.0
179
     0
144
0.0008202099737533
144
0.0
144
0.0
144
0.0
144
0.0
144
0.0008202099737533
144
0.0
144
0.0
144
0.0
144
0.0
144
1.0
144
0.0
144
0.0
144
0.0
144
0.0
144
1.0
147
0.0008202099737533
147
0.0
147
0.0
147
0.0
147
0.0
147
0.0008202099737533
147
0.0
147
0.0
147
0.0
147
0.0
147
1.0
147
0.0
147
0.0
147
0.0
147
0.0
147
1.0
  0
MATERIAL
  5
7A0
102
{ACAD_XDICTIONARY
360
7A1
102
}
102
{ACAD_REACTORS
330
32
102
}
330
32
100
AcDbMaterial
  1
ByLayer
 72
     0
 43
0.0008202099737533
 43
0.0
 43
0.0
 43
0.0
 43
0.0
 43
0.0008202099737533
 43
0.0
 43
0.0
 43
0.0
 43
0.0
 43
1.0
 43
0.0
 43
0.0
 43
0.0
 43
0.0
 43
1.0
 77
     0
 47
0.0008202099737533
 47
0.0
 47
0.0
 47
0.0
 47
0.0
 47
0.0008202099737533
 47
0.0
 47
0.0
 47
0.0
 47
0.0
 47
1.0
 47
0.0
 47
0.0
 47
0.0
 47
0.0
 47
1.0
171
     0
 49
0.0008202099737533
 49
0.0
 49
0.0
 49
0.0
 49
0.0
 49
0.0008202099737533
 49
0.0
 49
0.0
 49
0.0
 49
0.0
 49
1.0
 49
0.0
 49
0.0
 49
0.0
 49
0.0
 49
1.0
175
     0
142
0.0008202099737533
142
0.0
142
0.0
142
0.0
142
0.0
142
0.0008202099737533
142
0.0
142
0.0
142
0.0
142
0.0
142
1.0
142
0.0
142
0.0
142
0.0
142
0.0
142
1.0
179
     0
144
0.0008202099737533
144
0.0
144
0.0
144
0.0
144
0.0
144
0.0008202099737533
144
0.0
144
0.0
144
0.0
144
0.0
144
1.0
144
0.0
144
0.0
144
0.0
144
0.0
144
1.0
147
0.0008202099737533
147
0.0
147
0.0
147
0.0
147
0.0
147
0.0008202099737533
147
0.0
147
0.0
147
0.0
147
0.0
147
1.0
147
0.0
147
0.0
147
0.0
147
0.0
147
1.0
  0
MATERIAL
  5
7B0
102
{ACAD_XDICTIONARY
360
7B1
102
}
102
{ACAD_REACTORS
330
32
102
}
330
32
100
AcDbMaterial
  1
Global
 72
     0
 43
0.0008202099737533
 43
0.0
 43
0.0
 43
0.0
 43
0.0
 43
0.0008202099737533
 43
0.0
 43
0.0
 43
0.0
 43
0.0
 43
1.0
 43
0.0
 43
0.0
 43
0.0
 43
0.0
 43
1.0
 77
     0
 47
0.0008202099737533
 47
0.0
 47
0.0
 47
0.0
 47
0.0
 47
0.0008202099737533
 47
0.0
 47
0.0
 47
0.0
 47
0.0
 47
1.0
 47
0.0
 47
0.0
 47
0.0
 47
0.0
 47
1.0
171
     0
 49
0.0008202099737533
 49
0.0
 49
0.0
 49
0.0
 49
0.0
 49
0.0008202099737533
 49
0.0
 49
0.0
 49
0.0
 49
0.0
 49
1.0
 49
0.0
 49
0.0
 49
0.0
 49
0.0
 49
1.0
175
     0
142
0.0008202099737533
142
0.0
142
0.0
142
0.0
142
0.0
142
0.0008202099737533
142
0.0
142
0.0
142
0.0
142
0.0
142
1.0
142
0.0
142
0.0
142
0.0
142
0.0
142
1.0
179
     0
144
0.0008202099737533
144
0.0
144
0.0
144
0.0
144
0.0
144
0.0008202099737533
144
0.0
144
0.0
144
0.0
144
0.0
144
1.0
144
0.0
144
0.0
144
0.0
144
0.0
144
1.0
147
0.0008202099737533
147
0.0
147
0.0
147
0.0
147
0.0
147
0.0008202099737533
147
0.0
147
0.0
147
0.0
147
0.0
147
1.0
147
0.0
147
0.0
147
0.0
147
0.0
147
1.0
  0
MLEADERSTYLE
  5
7DF
102
{ACAD_REACTORS
330
7DE
102
}
330
7DE
100
AcDbMLeaderStyle
170
     2
171
     1
172
     0
 90
        2
 40
0.0
 41
0.0
173
     1
 91
-1056964608
340
15
 92
       -2
290
     1
 42
2.0
291
     1
 43
0.36
  3
Standard
 44
4.0
300

342
12
174
     1
178
     6
175
     1
176
     0
 93
-1056964608
 45
4.0
292
     0
297
     0
 46
4.0
 94
-1056964608
 47
1.0
 49
1.0
140
1.0
293
     1
141
0.0
294
     1
177
     0
142
1.0
295
     0
296
     0
143
0.125
1001
ACAD_MLEADERVER
1070
     2
  0
MLINESTYLE
  5
24
102
{ACAD_REACTORS
330
20
102
}
330
20
100
AcDbMlineStyle
  2
STANDARD
 70
     0
  3

 62
   256
 51
90.0
 52
90.0
 71
     2
 49
0.5
 62
   256
  6
BYLAYER
 49
-0.5
 62
   256
  6
BYLAYER
  0
ACDBPLACEHOLDER
  5
5
102
{ACAD_REACTORS
330
6
102
}
330
6
  0
SCALE
  5
7CD
102
{ACAD_REACTORS
330
7CC
102
}
330
7CC
100
AcDbScale
 70
     0
300
1:1
140
1.0
141
1.0
290
     1
  0
SCALE
  5
7CE
102
{ACAD_REACTORS
330
7CC
102
}
330
7CC
100
AcDbScale
 70
     0
300
1:2
140
1.0
141
2.0
290
     0
  0
SCALE
  5
7CF
102
{ACAD_REACTORS
330
7CC
102
}
330
7CC
100
AcDbScale
 70
     0
300
1:4
140
1.0
141
4.0
290
     0
  0
SCALE
  5
7D0
102
{ACAD_REACTORS
330
7CC
102
}
330
7CC
100
AcDbScale
 70
     0
300
1:5
140
1.0
141
5.0
290
     0
  0
SCALE
  5
7D1
102
{ACAD_REACTORS
330
7CC
102
}
330
7CC
100
AcDbScale
 70
     0
300
1:8
140
1.0
141
8.0
290
     0
  0
SCALE
  5
7D2
102
{ACAD_REACTORS
330
7CC
102
}
330
7CC
100
AcDbScale
 70
     0
300
1:10
140
1.0
141
10.0
290
     0
  0
SCALE
  5
7D3
102
{ACAD_REACTORS
330
7CC
102
}
330
7CC
100
AcDbScale
 70
     0
300
1:16
140
1.0
141
16.0
290
     0
  0
SCALE
  5
7D4
102
{ACAD_REACTORS
330
7CC
102
}
330
7CC
100
AcDbScale
 70
     0
300
1:20
140
1.0
141
20.0
290
     0
  0
SCALE
  5
7D5
102
{ACAD_REACTORS
330
7CC
102
}
330
7CC
100
AcDbScale
 70
     0
300
1:30
140
1.0
141
30.0
290
     0
  0
SCALE
  5
7D6
102
{ACAD_REACTORS
330
7CC
102
}
330
7CC
100
AcDbScale
 70
     0
300
1:40
140
1.0
141
40.0
290
     0
  0
SCALE
  5
7D7
102
{ACAD_REACTORS
330
7CC
102
}
330
7CC
100
AcDbScale
 70
     0
300
1:50
140
1.0
141
50.0
290
     0
  0
SCALE
  5
7D8
102
{ACAD_REACTORS
330
7CC
102
}
330
7CC
100
AcDbScale
 70
     0
300
1:100
140
1.0
141
100.0
290
     0
  0
SCALE
  5
7D9
102
{ACAD_REACTORS
330
7CC
102
}
330
7CC
100
AcDbScale
 70
     0
300
2:1
140
2.0
141
1.0
290
     0
  0
SCALE
  5
7DA
102
{ACAD_REACTORS
330
7CC
102
}
330
7CC
100
AcDbScale
 70
     0
300
4:1
140
4.0
141
1.0
290
     0
  0
SCALE
  5
7DB
102
{ACAD_REACTORS
330
7CC
102
}
330
7CC
100
AcDbScale
 70
     0
300
8:1
140
8.0
141
1.0
290
     0
  0
SCALE
  5
7DC
102
{ACAD_REACTORS
330
7CC
102
}
330
7CC
100
AcDbScale
 70
     0
300
10:1
140
10.0
141
1.0
290
     0
  0
SCALE
  5
7DD
102
{ACAD_REACTORS
330
7CC
102
}
330
7CC
100
AcDbScale
 70
     0
300
100:1
140
100.0
141
1.0
290
     0
  0
TABLESTYLE
  5
35
102
{ACAD_XDICTIONARY
360
800
102
}
102
{ACAD_REACTORS
330
34
102
}
330
34
100
AcDbTableStyle
  3
Standard
 70
     0
 71
     0
 40
1.5
 41
1.5
280
     0
281
     0
  7
Standard
140
4.5
170
     2
 62
     0
 63
     7
283
     0
274
    -2
284
     1
 64
     0
275
    -2
285
     1
 65
     0
276
    -2
286
     1
 66
     0
277
    -2
287
     1
 67
     0
278
    -2
288
     1
 68
     0
279
    -2
289
     1
 69
     0
  7
Standard
140
6.0
170
     5
 62
     0
 63
     7
283
     0
274
    -2
284
     1
 64
     0
275
    -2
285
     1
 65
     0
276
    -2
286
     1
 66
     0
277
    -2
287
     1
 67
     0
278
    -2
288
     1
 68
     0
279
    -2
289
     1
 69
     0
  7
Standard
140
4.5
170
     5
 62
     0
 63
     7
283
     0
274
    -2
284
     1
 64
     0
275
    -2
285
     1
 65
     0
276
    -2
286
     1
 66
     0
277
    -2
287
     1
 67
     0
278
    -2
288
     1
 68
     0
279
    -2
289
     1
 69
     0
  0
VISUALSTYLE
  5
7BE
102
{ACAD_XDICTIONARY
360
826
102
}
102
{ACAD_REACTORS
330
7B8
102
}
330
7B8
100
AcDbVisualStyle
  2
2dWireframe
 70
     4
 71
     0
 72
     2
 73
     0
 90
        0
 40
-0.6
 41
-30.0
 62
     5
 63
     7
 74
     1
 91
        4
 64
     7
 65
   257
 75
     1
175
     1
 42
1.0
 92
        0
 66
   257
 43
1.0
 76
     1
 77
     6
 78
     2
 67
     7
 79
     5
170
     0
171
     0
290
     0
174
     0
 93
        1
 44
0.0
173
     0
291
     0
 45
0.0
1001
ACAD
1000
AcDbSavedByObjectVersion
1070
     0
  0
VISUALSTYLE
  5
7C0
102
{ACAD_XDICTIONARY
360
82A
102
}
102
{ACAD_REACTORS
330
7B8
102
}
330
7B8
100
AcDbVisualStyle
  2
3D Hidden
 70
     6
 71
     1
 72
     2
 73
     2
 90
        0
 40
-0.6
 41
-30.0
 62
     5
 63
     7
 74
     2
 91
        2
 64
     7
 65
   257
 75
     2
175
     1
 42
179.0
 92
        0
 66
   257
 43
1.0
 76
     1
 77
     6
 78
     2
 67
     7
 79
     3
170
     0
171
     0
290
     0
174
     0
 93
        1
 44
0.0
173
     0
291
     0
 45
0.0
1001
ACAD
1000
AcDbSavedByObjectVersion
1070
     0
  0
VISUALSTYLE
  5
7BF
102
{ACAD_XDICTIONARY
360
828
102
}
102
{ACAD_REACTORS
330
7B8
102
}
330
7B8
100
AcDbVisualStyle
  2
3dWireframe
 70
     5
 71
     0
 72
     2
 73
     0
 90
        0
 40
-0.6
 41
-30.0
 62
     5
 63
     7
 74
     1
 91
        4
 64
     7
 65
   257
 75
     1
175
     1
 42
1.0
 92
        0
 66
   257
 43
1.0
 76
     1
 77
     6
 78
     2
 67
     7
 79
     5
170
     0
171
     0
290
     0
174
     0
 93
        1
 44
0.0
173
     0
291
     0
 45
0.0
1001
ACAD
1000
AcDbSavedByObjectVersion
1070
     0
  0
VISUALSTYLE
  5
7BD
102
{ACAD_XDICTIONARY
360
824
102
}
102
{ACAD_REACTORS
330
7B8
102
}
330
7B8
100
AcDbVisualStyle
  2
Basic
 70
     7
 71
     1
 72
     0
 73
     1
 90
        0
 40
-0.6
 41
-30.0
 62
     5
 63
     7
 74
     0
 91
        4
 64
     7
 65
   257
 75
     1
175
     1
 42
1.0
 92
        8
 66
     7
 43
1.0
 76
     1
 77
     6
 78
     2
 67
     7
 79
     5
170
     0
171
     0
290
     0
174
     0
 93
        1
 44
0.0
173
     0
291
     1
 45
0.0
1001
ACAD
1000
AcDbSavedByObjectVersion
1070
     0
  0
VISUALSTYLE
  5
7C4
102
{ACAD_XDICTIONARY
360
832
102
}
102
{ACAD_REACTORS
330
7B8
102
}
330
7B8
100
AcDbVisualStyle
  2
Brighten
 70
    12
 71
     2
 72
     2
 73
     0
 90
        0
 40
-0.6
 41
-30.0
 62
     5
 63
     7
 74
     1
 91
        4
 64
     7
 65
   257
 75
     1
175
     1
 42
1.0
 92
        8
 66
     7
 43
1.0
 76
     1
 77
     6
 78
     2
 67
     7
 79
     5
170
     0
171
     0
290
     0
174
     0
 93
        1
 44
50.0
173
     0
291
     1
 45
0.0
1001
ACAD
1000
AcDbSavedByObjectVersion
1070
     0
  0
VISUALSTYLE
  5
7C8
102
{ACAD_XDICTIONARY
360
83A
102
}
102
{ACAD_REACTORS
330
7B8
102
}
330
7B8
100
AcDbVisualStyle
  2
ColorChange
 70
    16
 71
     2
 72
     2
 73
     3
 90
        0
 40
-0.6
 41
-30.0
 62
     5
 63
     8
 74
     1
 91
        4
 64
     7
 65
   257
 75
     1
175
     1
 42
1.0
 92
        8
 66
     8
 43
1.0
 76
     1
 77
     6
 78
     2
 67
     7
 79
     5
170
     0
171
     0
290
     0
174
     0
 93
        1
 44
0.0
173
     0
291
     1
 45
0.0
1001
ACAD
1000
AcDbSavedByObjectVersion
1070
     0
  0
VISUALSTYLE
  5
7C1
102
{ACAD_XDICTIONARY
360
82C
102
}
102
{ACAD_REACTORS
330
7B8
102
}
330
7B8
100
AcDbVisualStyle
  2
Conceptual
 70
     9
 71
     3
 72
     2
 73
     0
 90
        0
 40
-0.6
 41
-30.0
 62
     5
 63
     7
 74
     2
 91
        2
 64
     7
 65
   257
 75
     1
175
     1
 42
179.0
 92
        8
 66
     7
 43
1.0
 76
     1
 77
     6
 78
     2
 67
     7
 79
     3
170
     0
171
     0
290
     0
174
     0
 93
        1
 44
0.0
173
     0
291
     0
 45
0.0
1001
ACAD
1000
AcDbSavedByObjectVersion
1070
     0
  0
VISUALSTYLE
  5
7C3
102
{ACAD_XDICTIONARY
360
830
102
}
102
{ACAD_REACTORS
330
7B8
102
}
330
7B8
100
AcDbVisualStyle
  2
Dim
 70
    11
 71
     2
 72
     2
 73
     0
 90
        0
 40
-0.6
 41
-30.0
 62
     5
 63
     7
 74
     1
 91
        4
 64
     7
 65
   257
 75
     1
175
     1
 42
1.0
 92
        8
 66
     7
 43
1.0
 76
     1
 77
     6
 78
     2
 67
     7
 79
     5
170
     0
171
     0
290
     0
174
     0
 93
        1
 44
-50.0
173
     0
291
     1
 45
0.0
1001
ACAD
1000
AcDbSavedByObjectVersion
1070
     0
  0
VISUALSTYLE
  5
7CB
102
{ACAD_XDICTIONARY
360
840
102
}
102
{ACAD_REACTORS
330
7B8
102
}
330
7B8
100
AcDbVisualStyle
  2
EdgeColorOff
 70
    22
 71
     2
 72
     2
 73
     0
 90
        0
 40
-0.6
 41
-30.0
 62
     5
 63
     7
 74
     1
 91
        4
 64
     7
 65
   257
 75
     1
175
     1
 42
1.0
 92
        8
 66
     7
 43
1.0
 76
     1
 77
     6
 78
     2
 67
     7
 79
     5
170
     0
171
     0
290
     0
174
     0
 93
        1
 44
0.0
173
     0
291
     1
 45
0.0
1001
ACAD
1000
AcDbSavedByObjectVersion
1070
     0
  0
VISUALSTYLE
  5
7C7
102
{ACAD_XDICTIONARY
360
838
102
}
102
{ACAD_REACTORS
330
7B8
102
}
330
7B8
100
AcDbVisualStyle
  2
Facepattern
 70
    15
 71
     2
 72
     2
 73
     0
 90
        0
 40
-0.6
 41
-30.0
 62
     5
 63
     7
 74
     1
 91
        4
 64
     7
 65
   257
 75
     1
175
     1
 42
1.0
 92
        8
 66
     7
 43
1.0
 76
     1
 77
     6
 78
     2
 67
     7
 79
     5
170
     0
171
     0
290
     0
174
     0
 93
        1
 44
0.0
173
     0
291
     1
 45
0.0
1001
ACAD
1000
AcDbSavedByObjectVersion
1070
     0
  0
VISUALSTYLE
  5
7B9
102
{ACAD_XDICTIONARY
360
81C
102
}
102
{ACAD_REACTORS
330
7B8
102
}
330
7B8
100
AcDbVisualStyle
  2
Flat
 70
     0
 71
     2
 72
     1
 73
     1
 90
        2
 40
-0.6
 41
30.0
 62
     5
 63
     7
 74
     0
 91
        4
 64
     7
 65
   257
 75
     1
175
     1
 42
1.0
 92
        8
 66
     7
 43
1.0
 76
     1
 77
     6
 78
     2
 67
     7
 79
     5
170
     0
171
     0
290
     0
174
     0
 93
       13
 44
0.0
173
     0
291
     1
 45
0.0
1001
ACAD
1000
AcDbSavedByObjectVersion
1070
     0
  0
VISUALSTYLE
  5
7BA
102
{ACAD_XDICTIONARY
360
81E
102
}
102
{ACAD_REACTORS
330
7B8
102
}
330
7B8
100
AcDbVisualStyle
  2
FlatWithEdges
 70
     1
 71
     2
 72
     1
 73
     1
 90
        2
 40
-0.6
 41
30.0
 62
     5
 63
     7
 74
     1
 91
        4
 64
     7
 65
   257
 75
     1
175
     1
 42
1.0
 92
        0
 66
   257
 43
1.0
 76
     1
 77
     6
 78
     2
 67
     7
 79
     5
170
     0
171
     0
290
     0
174
     0
 93
       13
 44
0.0
173
     0
291
     1
 45
0.0
1001
ACAD
1000
AcDbSavedByObjectVersion
1070
     0
  0
VISUALSTYLE
  5
7BB
102
{ACAD_XDICTIONARY
360
820
102
}
102
{ACAD_REACTORS
330
7B8
102
}
330
7B8
100
AcDbVisualStyle
  2
Gouraud
 70
     2
 71
     2
 72
     2
 73
     1
 90
        2
 40
-0.6
 41
30.0
 62
     5
 63
     7
 74
     0
 91
        4
 64
     7
 65
   257
 75
     1
175
     1
 42
1.0
 92
        0
 66
     7
 43
1.0
 76
     1
 77
     6
 78
     2
 67
     7
 79
     5
170
     0
171
     0
290
     0
174
     0
 93
       13
 44
0.0
173
     0
291
     1
 45
0.0
1001
ACAD
1000
AcDbSavedByObjectVersion
1070
     0
  0
VISUALSTYLE
  5
7BC
102
{ACAD_XDICTIONARY
360
822
102
}
102
{ACAD_REACTORS
330
7B8
102
}
330
7B8
100
AcDbVisualStyle
  2
GouraudWithEdges
 70
     3
 71
     2
 72
     2
 73
     1
 90
        2
 40
-0.6
 41
30.0
 62
     5
 63
     7
 74
     1
 91
        4
 64
     7
 65
   257
 75
     1
175
     1
 42
1.0
 92
        0
 66
   257
 43
1.0
 76
     1
 77
     6
 78
     2
 67
     7
 79
     5
170
     0
171
     0
290
     0
174
     0
 93
       13
 44
0.0
173
     0
291
     1
 45
0.0
1001
ACAD
1000
AcDbSavedByObjectVersion
1070
     0
  0
VISUALSTYLE
  5
7C9
102
{ACAD_XDICTIONARY
360
83C
102
}
102
{ACAD_REACTORS
330
7B8
102
}
330
7B8
100
AcDbVisualStyle
  2
JitterOff
 70
    20
 71
     2
 72
     2
 73
     0
 90
        0
 40
-0.6
 41
-30.0
 62
     5
 63
     7
 74
     1
 91
        4
 64
     7
 65
   257
 75
     1
175
     1
 42
1.0
 92
       10
 66
     7
 43
1.0
 76
     1
 77
     6
 78
     2
 67
     7
 79
     5
170
     0
171
     0
290
     0
174
     0
 93
        1
 44
0.0
173
     0
291
     1
 45
0.0
1001
ACAD
1000
AcDbSavedByObjectVersion
1070
     0
  0
VISUALSTYLE
  5
7C6
102
{ACAD_XDICTIONARY
360
836
102
}
102
{ACAD_REACTORS
330
7B8
102
}
330
7B8
100
AcDbVisualStyle
  2
Linepattern
 70
    14
 71
     2
 72
     2
 73
     0
 90
        0
 40
-0.6
 41
-30.0
 62
     5
 63
     7
 74
     1
 91
        4
 64
     7
 65
   257
 75
     7
175
     7
 42
1.0
 92
        8
 66
     7
 43
1.0
 76
     1
 77
     6
 78
     2
 67
     7
 79
     5
170
     0
171
     0
290
     0
174
     0
 93
        1
 44
0.0
173
     0
291
     1
 45
0.0
1001
ACAD
1000
AcDbSavedByObjectVersion
1070
     0
  0
VISUALSTYLE
  5
7CA
102
{ACAD_XDICTIONARY
360
83E
102
}
102
{ACAD_REACTORS
330
7B8
102
}
330
7B8
100
AcDbVisualStyle
  2
OverhangOff
 70
    21
 71
     2
 72
     2
 73
     0
 90
        0
 40
-0.6
 41
-30.0
 62
     5
 63
     7
 74
     1
 91
        4
 64
     7
 65
   257
 75
     1
175
     1
 42
1.0
 92
        9
 66
     7
 43
1.0
 76
     1
 77
     6
 78
     2
 67
     7
 79
     5
170
     0
171
     0
290
     0
174
     0
 93
        1
 44
0.0
173
     0
291
     1
 45
0.0
1001
ACAD
1000
AcDbSavedByObjectVersion
1070
     0
  0
VISUALSTYLE
  5
7C2
102
{ACAD_XDICTIONARY
360
82E
102
}
102
{ACAD_REACTORS
330
7B8
102
}
330
7B8
100
AcDbVisualStyle
  2
Realistic
 70
     8
 71
     2
 72
     2
 73
     0
 90
        0
 40
-0.6
 41
-30.0
 62
     5
 63
     7
 74
     1
 91
        0
 64
     7
 65
   257
 75
     1
175
     1
 42
1.0
 92
        8
 66
     8
 43
1.0
 76
     1
 77
     6
 78
     2
 67
     7
 79
     5
170
     0
171
     0
290
     0
174
     0
 93
       13
 44
0.0
173
     0
291
     0
 45
0.0
1001
ACAD
1000
AcDbSavedByObjectVersion
1070
     0
  0
VISUALSTYLE
  5
7C5
102
{ACAD_XDICTIONARY
360
834
102
}
102
{ACAD_REACTORS
330
7B8
102
}
330
7B8
100
AcDbVisualStyle
  2
Thicken
 70
    13
 71
     2
 72
     2
 73
     0
 90
        0
 40
-0.6
 41
-30.0
 62
     5
 63
     7
 74
     1
 91
        4
 64
     7
 65
   257
 75
     1
175
     1
 42
1.0
 92
       12
 66
     7
 43
1.0
 76
     1
 77
     6
 78
     2
 67
     7
 79
     5
170
     0
171
     0
290
     0
174
     0
 93
        1
 44
0.0
173
     0
291
     1
 45
0.0
1001
ACAD
1000
AcDbSavedByObjectVersion
1070
     0
  0
DICTIONARYVAR
  5
7FC
102
{ACAD_REACTORS
330
2E
102
}
330
2E
100
DictionaryVariables
280
     0
  1
1:1
  0
DICTIONARYVAR
  5
7FB
102
{ACAD_REACTORS
330
2E
102
}
330
2E
100
DictionaryVariables
280
     0
  1
STANDARD
  0
DICTIONARYVAR
  5
A1
102
{ACAD_REACTORS
330
2E
102
}
330
2E
100
DictionaryVariables
280
     0
  1
STANDARD
  0
DICTIONARYVAR
  5
30
102
{ACAD_REACTORS
330
2E
102
}
330
2E
100
DictionaryVariables
280
     0
  1
1
  0
DICTIONARYVAR
  5
2F
102
{ACAD_REACTORS
330
2E
102
}
330
2E
100
DictionaryVariables
280
     0
  1
1
  0
DICTIONARYVAR
  5
7FE
102
{ACAD_REACTORS
330
2E
102
}
330
2E
100
DictionaryVariables
280
     0
  1
0
  0
DICTIONARYVAR
  5
11C
102
{ACAD_REACTORS
330
2E
102
}
330
2E
100
DictionaryVariables
280
     0
  1

  0
DICTIONARYVAR
  5
7FD
102
{ACAD_REACTORS
330
2E
102
}
330
2E
100
DictionaryVariables
280
     0
  1
127
  0
DICTIONARYVAR
  5
7FF
102
{ACAD_REACTORS
330
2E
102
}
330
2E
100
DictionaryVariables
280
     0
  1
2
  0
XRECORD
  5
7FA
102
{ACAD_REACTORS
330
7F8
102
}
330
7F8
100
AcDbXrecord
280
     1
330
115
330
44
  0
DICTIONARY
  5
806
330
F
100
AcDbDictionary
280
     1
281
     1
  3
ACAD_XREC_ROUNDTRIP
360
807
  0
DICTIONARY
  5
804
330
A
100
AcDbDictionary
280
     1
281
     1
  3
ACAD_XREC_ROUNDTRIP
360
805
  0
DICTIONARY
  5
7A9
330
7A8
100
AcDbDictionary
280
     1
281
     1
  3
ACAD_XREC_ROUNDTRIP
360
81A
  3
BUMPTILE
360
7AB
  3
DIFFUSETILE
360
7AA
  3
OPACITYTILE
360
7AE
  3
REFLECTIONTILE
360
7AD
  3
REFRACTIONTILE
360
7AF
  3
SPECULARTILE
360
7AC
  0
DICTIONARY
  5
7A1
330
7A0
100
AcDbDictionary
280
     1
281
     1
  3
ACAD_XREC_ROUNDTRIP
360
819
  3
BUMPTILE
360
7A3
  3
DIFFUSETILE
360
7A2
  3
OPACITYTILE
360
7A6
  3
REFLECTIONTILE
360
7A5
  3
REFRACTIONTILE
360
7A7
  3
SPECULARTILE
360
7A4
  0
DICTIONARY
  5
7B1
330
7B0
100
AcDbDictionary
280
     1
281
     1
  3
ACAD_XREC_ROUNDTRIP
360
81B
  3
BUMPTILE
360
7B3
  3
DIFFUSETILE
360
7B2
  3
OPACITYTILE
360
7B6
  3
REFLECTIONTILE
360
7B5
  3
REFRACTIONTILE
360
7B7
  3
SPECULARTILE
360
7B4
  0
DICTIONARY
  5
800
330
35
100
AcDbDictionary
280
     1
281
     1
  3
ACAD_ROUNDTRIP_2008_TABLESTYLE_CELLSTYLEMAP
360
801
  3
ACAD_XREC_ROUNDTRIP
360
808
  0
DICTIONARY
  5
826
330
7BE
100
AcDbDictionary
280
     1
281
     1
  3
ACAD_XREC_ROUNDTRIP
360
827
  0
DICTIONARY
  5
82A
330
7C0
100
AcDbDictionary
280
     1
281
     1
  3
ACAD_XREC_ROUNDTRIP
360
82B
  0
DICTIONARY
  5
828
330
7BF
100
AcDbDictionary
280
     1
281
     1
  3
ACAD_XREC_ROUNDTRIP
360
829
  0
DICTIONARY
  5
824
330
7BD
100
AcDbDictionary
280
     1
281
     1
  3
ACAD_XREC_ROUNDTRIP
360
825
  0
DICTIONARY
  5
832
330
7C4
100
AcDbDictionary
280
     1
281
     1
  3
ACAD_XREC_ROUNDTRIP
360
833
  0
DICTIONARY
  5
83A
330
7C8
100
AcDbDictionary
280
     1
281
     1
  3
ACAD_XREC_ROUNDTRIP
360
83B
  0
DICTIONARY
  5
82C
330
7C1
100
AcDbDictionary
280
     1
281
     1
  3
ACAD_XREC_ROUNDTRIP
360
82D
  0
DICTIONARY
  5
830
330
7C3
100
AcDbDictionary
280
     1
281
     1
  3
ACAD_XREC_ROUNDTRIP
360
831
  0
DICTIONARY
  5
840
330
7CB
100
AcDbDictionary
280
     1
281
     1
  3
ACAD_XREC_ROUNDTRIP
360
841
  0
DICTIONARY
  5
838
330
7C7
100
AcDbDictionary
280
     1
281
     1
  3
ACAD_XREC_ROUNDTRIP
360
839
  0
DICTIONARY
  5
81C
330
7B9
100
AcDbDictionary
280
     1
281
     1
  3
ACAD_XREC_ROUNDTRIP
360
81D
  0
DICTIONARY
  5
81E
330
7BA
100
AcDbDictionary
280
     1
281
     1
  3
ACAD_XREC_ROUNDTRIP
360
81F
  0
DICTIONARY
  5
820
330
7BB
100
AcDbDictionary
280
     1
281
     1
  3
ACAD_XREC_ROUNDTRIP
360
821
  0
DICTIONARY
  5
822
330
7BC
100
AcDbDictionary
280
     1
281
     1
  3
ACAD_XREC_ROUNDTRIP
360
823
  0
DICTIONARY
  5
83C
330
7C9
100
AcDbDictionary
280
     1
281
     1
  3
ACAD_XREC_ROUNDTRIP
360
83D
  0
DICTIONARY
  5
836
330
7C6
100
AcDbDictionary
280
     1
281
     1
  3
ACAD_XREC_ROUNDTRIP
360
837
  0
DICTIONARY
  5
83E
330
7CA
100
AcDbDictionary
280
     1
281
     1
  3
ACAD_XREC_ROUNDTRIP
360
83F
  0
DICTIONARY
  5
82E
330
7C2
100
AcDbDictionary
280
     1
281
     1
  3
ACAD_XREC_ROUNDTRIP
360
82F
  0
DICTIONARY
  5
834
330
7C5
100
AcDbDictionary
280
     1
281
     1
  3
ACAD_XREC_ROUNDTRIP
360
835
  0
XRECORD
  5
807
102
{ACAD_REACTORS
330
806
102
}
330
806
100
AcDbXrecord
280
     1
102
SHADEPLOT
 70
     0
102
SHADEPLOTRESLEVEL
 70
     2
102
SHADEPLOTCUSTOMDPI
 70
   300
  0
XRECORD
  5
805
102
{ACAD_REACTORS
330
804
102
}
330
804
100
AcDbXrecord
280
     1
102
SHADEPLOT
 70
     0
102
SHADEPLOTRESLEVEL
 70
     2
102
SHADEPLOTCUSTOMDPI
 70
   300
  0
XRECORD
  5
81A
102
{ACAD_REACTORS
330
7A9
102
}
330
7A9
100
AcDbXrecord
280
     1
102
MATERIAL
148
0.0
149
0.0
149
0.0
 93
        0
 94
      127
282
     0
 72
     0
 77
     0
171
     0
175
     0
179
     0
273
     0
  0
XRECORD
  5
7AB
102
{ACAD_REACTORS
330
7A9
102
}
330
7A9
100
AcDbXrecord
280
     1
270
     1
271
     1
  0
XRECORD
  5
7AA
102
{ACAD_REACTORS
330
7A9
102
}
330
7A9
100
AcDbXrecord
280
     1
270
     1
271
     1
  0
XRECORD
  5
7AE
102
{ACAD_REACTORS
330
7A9
102
}
330
7A9
100
AcDbXrecord
280
     1
270
     1
271
     1
  0
XRECORD
  5
7AD
102
{ACAD_REACTORS
330
7A9
102
}
330
7A9
100
AcDbXrecord
280
     1
270
     1
271
     1
  0
XRECORD
  5
7AF
102
{ACAD_REACTORS
330
7A9
102
}
330
7A9
100
AcDbXrecord
280
     1
270
     1
271
     1
  0
XRECORD
  5
7AC
102
{ACAD_REACTORS
330
7A9
102
}
330
7A9
100
AcDbXrecord
280
     1
270
     1
271
     1
  0
XRECORD
  5
819
102
{ACAD_REACTORS
330
7A1
102
}
330
7A1
100
AcDbXrecord
280
     1
102
MATERIAL
148
0.0
149
0.0
149
0.0
 93
        0
 94
      127
282
     0
 72
     0
 77
     0
171
     0
175
     0
179
     0
273
     0
  0
XRECORD
  5
7A3
102
{ACAD_REACTORS
330
7A1
102
}
330
7A1
100
AcDbXrecord
280
     1
270
     1
271
     1
  0
XRECORD
  5
7A2
102
{ACAD_REACTORS
330
7A1
102
}
330
7A1
100
AcDbXrecord
280
     1
270
     1
271
     1
  0
XRECORD
  5
7A6
102
{ACAD_REACTORS
330
7A1
102
}
330
7A1
100
AcDbXrecord
280
     1
270
     1
271
     1
  0
XRECORD
  5
7A5
102
{ACAD_REACTORS
330
7A1
102
}
330
7A1
100
AcDbXrecord
280
     1
270
     1
271
     1
  0
XRECORD
  5
7A7
102
{ACAD_REACTORS
330
7A1
102
}
330
7A1
100
AcDbXrecord
280
     1
270
     1
271
     1
  0
XRECORD
  5
7A4
102
{ACAD_REACTORS
330
7A1
102
}
330
7A1
100
AcDbXrecord
280
     1
270
     1
271
     1
  0
XRECORD
  5
81B
102
{ACAD_REACTORS
330
7B1
102
}
330
7B1
100
AcDbXrecord
280
     1
102
MATERIAL
148
0.0
149
0.0
149
0.0
 93
        0
 94
      127
282
     0
 72
     0
 77
     0
171
     0
175
     0
179
     0
273
     0
  0
XRECORD
  5
7B3
102
{ACAD_REACTORS
330
7B1
102
}
330
7B1
100
AcDbXrecord
280
     1
270
     1
271
     1
  0
XRECORD
  5
7B2
102
{ACAD_REACTORS
330
7B1
102
}
330
7B1
100
AcDbXrecord
280
     1
270
     1
271
     1
  0
XRECORD
  5
7B6
102
{ACAD_REACTORS
330
7B1
102
}
330
7B1
100
AcDbXrecord
280
     1
270
     1
271
     1
  0
XRECORD
  5
7B5
102
{ACAD_REACTORS
330
7B1
102
}
330
7B1
100
AcDbXrecord
280
     1
270
     1
271
     1
  0
XRECORD
  5
7B7
102
{ACAD_REACTORS
330
7B1
102
}
330
7B1
100
AcDbXrecord
280
     1
270
     1
271
     1
  0
XRECORD
  5
7B4
102
{ACAD_REACTORS
330
7B1
102
}
330
7B1
100
AcDbXrecord
280
     1
270
     1
271
     1
  0
CELLSTYLEMAP
  5
801
102
{ACAD_REACTORS
330
800
102
}
330
800
100
AcDbCellStyleMap
 90
        3
300
CELLSTYLE
  1
TABLEFORMAT_BEGIN
 90
        5
170
     1
 91
        0
 92
    32768
 62
   257
 93
        1
300
CONTENTFORMAT
  1
CONTENTFORMAT_BEGIN
 90
        0
 91
        0
 92
        4
 93
        0
300

 40
0.0
140
1.0
 94
        5
 62
     0
340
12
144
6.0
309
CONTENTFORMAT_END
171
     1
301
MARGIN
  1
CELLMARGIN_BEGIN
 40
1.5
 40
1.5
 40
1.5
 40
1.5
 40
0.18
 40
0.18
309
CELLMARGIN_END
 94
        6
 95
        1
302
GRIDFORMAT
  1
GRIDFORMAT_BEGIN
 90
        0
 91
        1
 62
     0
 92
       -2
340
0
 93
        0
 40
0.045
309
GRIDFORMAT_END
 95
        2
302
GRIDFORMAT
  1
GRIDFORMAT_BEGIN
 90
        0
 91
        1
 62
     0
 92
       -2
340
0
 93
        0
 40
0.045
309
GRIDFORMAT_END
 95
        4
302
GRIDFORMAT
  1
GRIDFORMAT_BEGIN
 90
        0
 91
        1
 62
     0
 92
       -2
340
0
 93
        0
 40
0.045
309
GRIDFORMAT_END
 95
        8
302
GRIDFORMAT
  1
GRIDFORMAT_BEGIN
 90
        0
 91
        1
 62
     0
 92
       -2
340
0
 93
        0
 40
0.045
309
GRIDFORMAT_END
 95
       16
302
GRIDFORMAT
  1
GRIDFORMAT_BEGIN
 90
        0
 91
        1
 62
     0
 92
       -2
340
0
 93
        0
 40
0.045
309
GRIDFORMAT_END
 95
       32
302
GRIDFORMAT
  1
GRIDFORMAT_BEGIN
 90
        0
 91
        1
 62
     0
 92
       -2
340
0
 93
        0
 40
0.045
309
GRIDFORMAT_END
309
TABLEFORMAT_END
  1
CELLSTYLE_BEGIN
 90
        1
 91
        1
300
_TITLE
309
CELLSTYLE_END
300
CELLSTYLE
  1
TABLEFORMAT_BEGIN
 90
        5
170
     1
 91
        0
 92
        0
 62
   257
 93
        1
300
CONTENTFORMAT
  1
CONTENTFORMAT_BEGIN
 90
        0
 91
        0
 92
        4
 93
        0
300

 40
0.0
140
1.0
 94
        5
 62
     0
340
12
144
4.5
309
CONTENTFORMAT_END
171
     1
301
MARGIN
  1
CELLMARGIN_BEGIN
 40
1.5
 40
1.5
 40
1.5
 40
1.5
 40
0.18
 40
0.18
309
CELLMARGIN_END
 94
        6
 95
        1
302
GRIDFORMAT
  1
GRIDFORMAT_BEGIN
 90
        0
 91
        1
 62
     0
 92
       -2
340
0
 93
        0
 40
0.045
309
GRIDFORMAT_END
 95
        2
302
GRIDFORMAT
  1
GRIDFORMAT_BEGIN
 90
        0
 91
        1
 62
     0
 92
       -2
340
0
 93
        0
 40
0.045
309
GRIDFORMAT_END
 95
        4
302
GRIDFORMAT
  1
GRIDFORMAT_BEGIN
 90
        0
 91
        1
 62
     0
 92
       -2
340
0
 93
        0
 40
0.045
309
GRIDFORMAT_END
 95
        8
302
GRIDFORMAT
  1
GRIDFORMAT_BEGIN
 90
        0
 91
        1
 62
     0
 92
       -2
340
0
 93
        0
 40
0.045
309
GRIDFORMAT_END
 95
       16
302
GRIDFORMAT
  1
GRIDFORMAT_BEGIN
 90
        0
 91
        1
 62
     0
 92
       -2
340
0
 93
        0
 40
0.045
309
GRIDFORMAT_END
 95
       32
302
GRIDFORMAT
  1
GRIDFORMAT_BEGIN
 90
        0
 91
        1
 62
     0
 92
       -2
340
0
 93
        0
 40
0.045
309
GRIDFORMAT_END
309
TABLEFORMAT_END
  1
CELLSTYLE_BEGIN
 90
        2
 91
        1
300
_HEADER
309
CELLSTYLE_END
300
CELLSTYLE
  1
TABLEFORMAT_BEGIN
 90
        5
170
     1
 91
        0
 92
        0
 62
   257
 93
        1
300
CONTENTFORMAT
  1
CONTENTFORMAT_BEGIN
 90
        0
 91
        0
 92
        4
 93
        0
300

 40
0.0
140
1.0
 94
        2
 62
     0
340
12
144
4.5
309
CONTENTFORMAT_END
171
     1
301
MARGIN
  1
CELLMARGIN_BEGIN
 40
1.5
 40
1.5
 40
1.5
 40
1.5
 40
0.18
 40
0.18
309
CELLMARGIN_END
 94
        6
 95
        1
302
GRIDFORMAT
  1
GRIDFORMAT_BEGIN
 90
        0
 91
        1
 62
     0
 92
       -2
340
0
 93
        0
 40
0.045
309
GRIDFORMAT_END
 95
        2
302
GRIDFORMAT
  1
GRIDFORMAT_BEGIN
 90
        0
 91
        1
 62
     0
 92
       -2
340
0
 93
        0
 40
0.045
309
GRIDFORMAT_END
 95
        4
302
GRIDFORMAT
  1
GRIDFORMAT_BEGIN
 90
        0
 91
        1
 62
     0
 92
       -2
340
0
 93
        0
 40
0.045
309
GRIDFORMAT_END
 95
        8
302
GRIDFORMAT
  1
GRIDFORMAT_BEGIN
 90
        0
 91
        1
 62
     0
 92
       -2
340
0
 93
        0
 40
0.045
309
GRIDFORMAT_END
 95
       16
302
GRIDFORMAT
  1
GRIDFORMAT_BEGIN
 90
        0
 91
        1
 62
     0
 92
       -2
340
0
 93
        0
 40
0.045
309
GRIDFORMAT_END
 95
       32
302
GRIDFORMAT
  1
GRIDFORMAT_BEGIN
 90
        0
 91
        1
 62
     0
 92
       -2
340
0
 93
        0
 40
0.045
309
GRIDFORMAT_END
309
TABLEFORMAT_END
  1
CELLSTYLE_BEGIN
 90
        3
 91
        2
300
_DATA
309
CELLSTYLE_END
  0
XRECORD
  5
808
102
{ACAD_REACTORS
330
800
102
}
330
800
100
AcDbXrecord
280
     1
102
ACAD_ROUNDTRIP_PRE2007_TABLESTYLE
 90
        4
 91
        0
  1

 92
        4
 93
        0
  2

 94
        4
 95
        0
  3

  0
XRECORD
  5
827
102
{ACAD_REACTORS
330
826
102
}
330
826
100
AcDbXrecord
280
     1
102
RTVSPropertyOp0
 70
     1
102
RTVSPropertyOp1
 70
     1
102
RTVSPropertyOp2
 70
     1
102
RTVSPropertyOp3
 70
     1
102
RTVSPropertyOp4
 70
     1
102
RTVSPropertyOp5
 70
     1
102
RTVSPropertyOp6
 70
     1
102
RTVSPropertyOp7
 70
     1
102
RTVSPropertyOp8
 70
     1
102
RTVSPropertyOp9
 70
     1
102
RTVSPropertyOp10
 70
     1
102
RTVSPropertyOp11
 70
     1
102
RTVSPropertyOp12
 70
     1
102
RTVSPropertyOp13
 70
     1
102
RTVSPropertyOp14
 70
     1
102
RTVSPropertyOp15
 70
     1
102
RTVSPropertyOp16
 70
     1
102
RTVSPropertyOp17
 70
     1
102
RTVSPropertyOp18
 70
     1
102
RTVSPropertyOp19
 70
     1
102
RTVSPropertyOp20
 70
     1
102
RTVSPropertyOp21
 70
     1
102
RTVSPropertyOp22
 70
     1
102
RTVSPropertyOp23
 70
     1
102
RTVSPropertyOp24
 70
     1
102
RTVSPropertyOp25
 70
     1
102
RTVSPropertyOp26
 70
     1
102
RTVSPropertyOp27
 70
     1
  0
XRECORD
  5
82B
102
{ACAD_REACTORS
330
82A
102
}
330
82A
100
AcDbXrecord
280
     1
102
RTVSPropertyOp0
 70
     1
102
RTVSPropertyOp1
 70
     1
102
RTVSPropertyOp2
 70
     1
102
RTVSPropertyOp3
 70
     1
102
RTVSPropertyOp4
 70
     1
102
RTVSPropertyOp5
 70
     1
102
RTVSPropertyOp6
 70
     1
102
RTVSPropertyOp7
 70
     1
102
RTVSPropertyOp8
 70
     1
102
RTVSPropertyOp9
 70
     1
102
RTVSPropertyOp10
 70
     1
102
RTVSPropertyOp11
 70
     1
102
RTVSPropertyOp12
 70
     1
102
RTVSPropertyOp13
 70
     1
102
RTVSPropertyOp14
 70
     1
102
RTVSPropertyOp15
 70
     1
102
RTVSPropertyOp16
 70
     1
102
RTVSPropertyOp17
 70
     1
102
RTVSPropertyOp18
 70
     1
102
RTVSPropertyOp19
 70
     1
102
RTVSPropertyOp20
 70
     1
102
RTVSPropertyOp21
 70
     1
102
RTVSPropertyOp22
 70
     1
102
RTVSPropertyOp23
 70
     1
102
RTVSPropertyOp24
 70
     1
102
RTVSPropertyOp25
 70
     1
102
RTVSPropertyOp26
 70
     1
102
RTVSPropertyOp27
 70
     1
  0
XRECORD
  5
829
102
{ACAD_REACTORS
330
828
102
}
330
828
100
AcDbXrecord
280
     1
102
RTVSPropertyOp0
 70
     1
102
RTVSPropertyOp1
 70
     1
102
RTVSPropertyOp2
 70
     1
102
RTVSPropertyOp3
 70
     1
102
RTVSPropertyOp4
 70
     1
102
RTVSPropertyOp5
 70
     1
102
RTVSPropertyOp6
 70
     1
102
RTVSPropertyOp7
 70
     1
102
RTVSPropertyOp8
 70
     1
102
RTVSPropertyOp9
 70
     1
102
RTVSPropertyOp10
 70
     1
102
RTVSPropertyOp11
 70
     1
102
RTVSPropertyOp12
 70
     1
102
RTVSPropertyOp13
 70
     1
102
RTVSPropertyOp14
 70
     1
102
RTVSPropertyOp15
 70
     1
102
RTVSPropertyOp16
 70
     1
102
RTVSPropertyOp17
 70
     1
102
RTVSPropertyOp18
 70
     1
102
RTVSPropertyOp19
 70
     1
102
RTVSPropertyOp20
 70
     1
102
RTVSPropertyOp21
 70
     1
102
RTVSPropertyOp22
 70
     1
102
RTVSPropertyOp23
 70
     1
102
RTVSPropertyOp24
 70
     1
102
RTVSPropertyOp25
 70
     1
102
RTVSPropertyOp26
 70
     1
102
RTVSPropertyOp27
 70
     1
  0
XRECORD
  5
825
102
{ACAD_REACTORS
330
824
102
}
330
824
100
AcDbXrecord
280
     1
102
RTVSPropertyOp0
 70
     1
102
RTVSPropertyOp1
 70
     1
102
RTVSPropertyOp2
 70
     1
102
RTVSPropertyOp3
 70
     1
102
RTVSPropertyOp4
 70
     1
102
RTVSPropertyOp5
 70
     1
102
RTVSPropertyOp6
 70
     1
102
RTVSPropertyOp7
 70
     1
102
RTVSPropertyOp8
 70
     1
102
RTVSPropertyOp9
 70
     1
102
RTVSPropertyOp10
 70
     1
102
RTVSPropertyOp11
 70
     1
102
RTVSPropertyOp12
 70
     1
102
RTVSPropertyOp13
 70
     1
102
RTVSPropertyOp14
 70
     1
102
RTVSPropertyOp15
 70
     1
102
RTVSPropertyOp16
 70
     1
102
RTVSPropertyOp17
 70
     1
102
RTVSPropertyOp18
 70
     1
102
RTVSPropertyOp19
 70
     1
102
RTVSPropertyOp20
 70
     1
102
RTVSPropertyOp21
 70
     1
102
RTVSPropertyOp22
 70
     1
102
RTVSPropertyOp23
 70
     1
102
RTVSPropertyOp24
 70
     1
102
RTVSPropertyOp25
 70
     1
102
RTVSPropertyOp26
 70
     1
102
RTVSPropertyOp27
 70
     1
  0
XRECORD
  5
833
102
{ACAD_REACTORS
330
832
102
}
330
832
100
AcDbXrecord
280
     1
102
RTVSPropertyOp0
 70
     1
102
RTVSPropertyOp1
 70
     1
102
RTVSPropertyOp2
 70
     1
102
RTVSPropertyOp3
 70
     1
102
RTVSPropertyOp4
 70
     1
102
RTVSPropertyOp5
 70
     1
102
RTVSPropertyOp6
 70
     1
102
RTVSPropertyOp7
 70
     1
102
RTVSPropertyOp8
 70
     1
102
RTVSPropertyOp9
 70
     1
102
RTVSPropertyOp10
 70
     1
102
RTVSPropertyOp11
 70
     1
102
RTVSPropertyOp12
 70
     1
102
RTVSPropertyOp13
 70
     1
102
RTVSPropertyOp14
 70
     1
102
RTVSPropertyOp15
 70
     1
102
RTVSPropertyOp16
 70
     1
102
RTVSPropertyOp17
 70
     1
102
RTVSPropertyOp18
 70
     1
102
RTVSPropertyOp19
 70
     1
102
RTVSPropertyOp20
 70
     1
102
RTVSPropertyOp21
 70
     1
102
RTVSPropertyOp22
 70
     1
102
RTVSPropertyOp23
 70
     1
102
RTVSPropertyOp24
 70
     1
102
RTVSPropertyOp25
 70
     1
102
RTVSPropertyOp26
 70
     1
102
RTVSPropertyOp27
 70
     1
  0
XRECORD
  5
83B
102
{ACAD_REACTORS
330
83A
102
}
330
83A
100
AcDbXrecord
280
     1
102
RTVSPropertyOp0
 70
     1
102
RTVSPropertyOp1
 70
     1
102
RTVSPropertyOp2
 70
     1
102
RTVSPropertyOp3
 70
     1
102
RTVSPropertyOp4
 70
     1
102
RTVSPropertyOp5
 70
     1
102
RTVSPropertyOp6
 70
     1
102
RTVSPropertyOp7
 70
     1
102
RTVSPropertyOp8
 70
     1
102
RTVSPropertyOp9
 70
     1
102
RTVSPropertyOp10
 70
     1
102
RTVSPropertyOp11
 70
     1
102
RTVSPropertyOp12
 70
     1
102
RTVSPropertyOp13
 70
     1
102
RTVSPropertyOp14
 70
     1
102
RTVSPropertyOp15
 70
     1
102
RTVSPropertyOp16
 70
     1
102
RTVSPropertyOp17
 70
     1
102
RTVSPropertyOp18
 70
     1
102
RTVSPropertyOp19
 70
     1
102
RTVSPropertyOp20
 70
     1
102
RTVSPropertyOp21
 70
     1
102
RTVSPropertyOp22
 70
     1
102
RTVSPropertyOp23
 70
     1
102
RTVSPropertyOp24
 70
     1
102
RTVSPropertyOp25
 70
     1
102
RTVSPropertyOp26
 70
     1
102
RTVSPropertyOp27
 70
     1
  0
XRECORD
  5
82D
102
{ACAD_REACTORS
330
82C
102
}
330
82C
100
AcDbXrecord
280
     1
102
RTVSPropertyOp0
 70
     1
102
RTVSPropertyOp1
 70
     1
102
RTVSPropertyOp2
 70
     1
102
RTVSPropertyOp3
 70
     1
102
RTVSPropertyOp4
 70
     1
102
RTVSPropertyOp5
 70
     1
102
RTVSPropertyOp6
 70
     1
102
RTVSPropertyOp7
 70
     1
102
RTVSPropertyOp8
 70
     1
102
RTVSPropertyOp9
 70
     1
102
RTVSPropertyOp10
 70
     1
102
RTVSPropertyOp11
 70
     1
102
RTVSPropertyOp12
 70
     1
102
RTVSPropertyOp13
 70
     1
102
RTVSPropertyOp14
 70
     1
102
RTVSPropertyOp15
 70
     1
102
RTVSPropertyOp16
 70
     1
102
RTVSPropertyOp17
 70
     1
102
RTVSPropertyOp18
 70
     1
102
RTVSPropertyOp19
 70
     1
102
RTVSPropertyOp20
 70
     1
102
RTVSPropertyOp21
 70
     1
102
RTVSPropertyOp22
 70
     1
102
RTVSPropertyOp23
 70
     1
102
RTVSPropertyOp24
 70
     1
102
RTVSPropertyOp25
 70
     1
102
RTVSPropertyOp26
 70
     1
102
RTVSPropertyOp27
 70
     1
  0
XRECORD
  5
831
102
{ACAD_REACTORS
330
830
102
}
330
830
100
AcDbXrecord
280
     1
102
RTVSPropertyOp0
 70
     1
102
RTVSPropertyOp1
 70
     1
102
RTVSPropertyOp2
 70
     1
102
RTVSPropertyOp3
 70
     1
102
RTVSPropertyOp4
 70
     1
102
RTVSPropertyOp5
 70
     1
102
RTVSPropertyOp6
 70
     1
102
RTVSPropertyOp7
 70
     1
102
RTVSPropertyOp8
 70
     1
102
RTVSPropertyOp9
 70
     1
102
RTVSPropertyOp10
 70
     1
102
RTVSPropertyOp11
 70
     1
102
RTVSPropertyOp12
 70
     1
102
RTVSPropertyOp13
 70
     1
102
RTVSPropertyOp14
 70
     1
102
RTVSPropertyOp15
 70
     1
102
RTVSPropertyOp16
 70
     1
102
RTVSPropertyOp17
 70
     1
102
RTVSPropertyOp18
 70
     1
102
RTVSPropertyOp19
 70
     1
102
RTVSPropertyOp20
 70
     1
102
RTVSPropertyOp21
 70
     1
102
RTVSPropertyOp22
 70
     1
102
RTVSPropertyOp23
 70
     1
102
RTVSPropertyOp24
 70
     1
102
RTVSPropertyOp25
 70
     1
102
RTVSPropertyOp26
 70
     1
102
RTVSPropertyOp27
 70
     1
  0
XRECORD
  5
841
102
{ACAD_REACTORS
330
840
102
}
330
840
100
AcDbXrecord
280
     1
102
RTVSPropertyOp0
 70
     0
102
RTVSPropertyOp1
 70
     0
102
RTVSPropertyOp2
 70
     0
102
RTVSPropertyOp3
 70
     0
102
RTVSPropertyOp4
 70
     0
102
RTVSPropertyOp5
 70
     0
102
RTVSPropertyOp6
 70
     0
102
RTVSPropertyOp7
 70
     0
102
RTVSPropertyOp8
 70
     0
102
RTVSPropertyOp9
 70
     0
102
RTVSPropertyOp10
 70
     0
102
RTVSPropertyOp11
 70
     0
102
RTVSPropertyOp12
 70
     0
102
RTVSPropertyOp13
 70
     0
102
RTVSPropertyOp14
 70
     2
102
RTVSPropertyOp15
 70
     0
102
RTVSPropertyOp16
 70
     0
102
RTVSPropertyOp17
 70
     0
102
RTVSPropertyOp18
 70
     0
102
RTVSPropertyOp19
 70
     0
102
RTVSPropertyOp20
 70
     0
102
RTVSPropertyOp21
 70
     0
102
RTVSPropertyOp22
 70
     0
102
RTVSPropertyOp23
 70
     0
102
RTVSPropertyOp24
 70
     0
102
RTVSPropertyOp25
 70
     0
102
RTVSPropertyOp26
 70
     0
102
RTVSPropertyOp27
 70
     0
  0
XRECORD
  5
839
102
{ACAD_REACTORS
330
838
102
}
330
838
100
AcDbXrecord
280
     1
102
RTVSPropertyOp0
 70
     1
102
RTVSPropertyOp1
 70
     1
102
RTVSPropertyOp2
 70
     1
102
RTVSPropertyOp3
 70
     1
102
RTVSPropertyOp4
 70
     1
102
RTVSPropertyOp5
 70
     1
102
RTVSPropertyOp6
 70
     1
102
RTVSPropertyOp7
 70
     1
102
RTVSPropertyOp8
 70
     1
102
RTVSPropertyOp9
 70
     1
102
RTVSPropertyOp10
 70
     1
102
RTVSPropertyOp11
 70
     1
102
RTVSPropertyOp12
 70
     1
102
RTVSPropertyOp13
 70
     1
102
RTVSPropertyOp14
 70
     1
102
RTVSPropertyOp15
 70
     1
102
RTVSPropertyOp16
 70
     1
102
RTVSPropertyOp17
 70
     1
102
RTVSPropertyOp18
 70
     1
102
RTVSPropertyOp19
 70
     1
102
RTVSPropertyOp20
 70
     1
102
RTVSPropertyOp21
 70
     1
102
RTVSPropertyOp22
 70
     1
102
RTVSPropertyOp23
 70
     1
102
RTVSPropertyOp24
 70
     1
102
RTVSPropertyOp25
 70
     1
102
RTVSPropertyOp26
 70
     1
102
RTVSPropertyOp27
 70
     1
  0
XRECORD
  5
81D
102
{ACAD_REACTORS
330
81C
102
}
330
81C
100
AcDbXrecord
280
     1
102
RTVSPropertyOp0
 70
     1
102
RTVSPropertyOp1
 70
     1
102
RTVSPropertyOp2
 70
     1
102
RTVSPropertyOp3
 70
     1
102
RTVSPropertyOp4
 70
     1
102
RTVSPropertyOp5
 70
     1
102
RTVSPropertyOp6
 70
     1
102
RTVSPropertyOp7
 70
     1
102
RTVSPropertyOp8
 70
     1
102
RTVSPropertyOp9
 70
     1
102
RTVSPropertyOp10
 70
     1
102
RTVSPropertyOp11
 70
     1
102
RTVSPropertyOp12
 70
     1
102
RTVSPropertyOp13
 70
     1
102
RTVSPropertyOp14
 70
     1
102
RTVSPropertyOp15
 70
     1
102
RTVSPropertyOp16
 70
     1
102
RTVSPropertyOp17
 70
     1
102
RTVSPropertyOp18
 70
     1
102
RTVSPropertyOp19
 70
     1
102
RTVSPropertyOp20
 70
     1
102
RTVSPropertyOp21
 70
     1
102
RTVSPropertyOp22
 70
     1
102
RTVSPropertyOp23
 70
     1
102
RTVSPropertyOp24
 70
     1
102
RTVSPropertyOp25
 70
     1
102
RTVSPropertyOp26
 70
     1
102
RTVSPropertyOp27
 70
     1
  0
XRECORD
  5
81F
102
{ACAD_REACTORS
330
81E
102
}
330
81E
100
AcDbXrecord
280
     1
102
RTVSPropertyOp0
 70
     1
102
RTVSPropertyOp1
 70
     1
102
RTVSPropertyOp2
 70
     1
102
RTVSPropertyOp3
 70
     1
102
RTVSPropertyOp4
 70
     1
102
RTVSPropertyOp5
 70
     1
102
RTVSPropertyOp6
 70
     1
102
RTVSPropertyOp7
 70
     1
102
RTVSPropertyOp8
 70
     1
102
RTVSPropertyOp9
 70
     1
102
RTVSPropertyOp10
 70
     1
102
RTVSPropertyOp11
 70
     1
102
RTVSPropertyOp12
 70
     1
102
RTVSPropertyOp13
 70
     1
102
RTVSPropertyOp14
 70
     1
102
RTVSPropertyOp15
 70
     1
102
RTVSPropertyOp16
 70
     1
102
RTVSPropertyOp17
 70
     1
102
RTVSPropertyOp18
 70
     1
102
RTVSPropertyOp19
 70
     1
102
RTVSPropertyOp20
 70
     1
102
RTVSPropertyOp21
 70
     1
102
RTVSPropertyOp22
 70
     1
102
RTVSPropertyOp23
 70
     1
102
RTVSPropertyOp24
 70
     1
102
RTVSPropertyOp25
 70
     1
102
RTVSPropertyOp26
 70
     1
102
RTVSPropertyOp27
 70
     1
  0
XRECORD
  5
821
102
{ACAD_REACTORS
330
820
102
}
330
820
100
AcDbXrecord
280
     1
102
RTVSPropertyOp0
 70
     1
102
RTVSPropertyOp1
 70
     1
102
RTVSPropertyOp2
 70
     1
102
RTVSPropertyOp3
 70
     1
102
RTVSPropertyOp4
 70
     1
102
RTVSPropertyOp5
 70
     1
102
RTVSPropertyOp6
 70
     1
102
RTVSPropertyOp7
 70
     1
102
RTVSPropertyOp8
 70
     1
102
RTVSPropertyOp9
 70
     1
102
RTVSPropertyOp10
 70
     1
102
RTVSPropertyOp11
 70
     1
102
RTVSPropertyOp12
 70
     1
102
RTVSPropertyOp13
 70
     1
102
RTVSPropertyOp14
 70
     1
102
RTVSPropertyOp15
 70
     1
102
RTVSPropertyOp16
 70
     1
102
RTVSPropertyOp17
 70
     1
102
RTVSPropertyOp18
 70
     1
102
RTVSPropertyOp19
 70
     1
102
RTVSPropertyOp20
 70
     1
102
RTVSPropertyOp21
 70
     1
102
RTVSPropertyOp22
 70
     1
102
RTVSPropertyOp23
 70
     1
102
RTVSPropertyOp24
 70
     1
102
RTVSPropertyOp25
 70
     1
102
RTVSPropertyOp26
 70
     1
102
RTVSPropertyOp27
 70
     1
  0
XRECORD
  5
823
102
{ACAD_REACTORS
330
822
102
}
330
822
100
AcDbXrecord
280
     1
102
RTVSPropertyOp0
 70
     1
102
RTVSPropertyOp1
 70
     1
102
RTVSPropertyOp2
 70
     1
102
RTVSPropertyOp3
 70
     1
102
RTVSPropertyOp4
 70
     1
102
RTVSPropertyOp5
 70
     1
102
RTVSPropertyOp6
 70
     1
102
RTVSPropertyOp7
 70
     1
102
RTVSPropertyOp8
 70
     1
102
RTVSPropertyOp9
 70
     1
102
RTVSPropertyOp10
 70
     1
102
RTVSPropertyOp11
 70
     1
102
RTVSPropertyOp12
 70
     1
102
RTVSPropertyOp13
 70
     1
102
RTVSPropertyOp14
 70
     1
102
RTVSPropertyOp15
 70
     1
102
RTVSPropertyOp16
 70
     1
102
RTVSPropertyOp17
 70
     1
102
RTVSPropertyOp18
 70
     1
102
RTVSPropertyOp19
 70
     1
102
RTVSPropertyOp20
 70
     1
102
RTVSPropertyOp21
 70
     1
102
RTVSPropertyOp22
 70
     1
102
RTVSPropertyOp23
 70
     1
102
RTVSPropertyOp24
 70
     1
102
RTVSPropertyOp25
 70
     1
102
RTVSPropertyOp26
 70
     1
102
RTVSPropertyOp27
 70
     1
  0
XRECORD
  5
83D
102
{ACAD_REACTORS
330
83C
102
}
330
83C
100
AcDbXrecord
280
     1
102
RTVSPropertyOp0
 70
     0
102
RTVSPropertyOp1
 70
     0
102
RTVSPropertyOp2
 70
     0
102
RTVSPropertyOp3
 70
     0
102
RTVSPropertyOp4
 70
     0
102
RTVSPropertyOp5
 70
     0
102
RTVSPropertyOp6
 70
     0
102
RTVSPropertyOp7
 70
     0
102
RTVSPropertyOp8
 70
     0
102
RTVSPropertyOp9
 70
     0
102
RTVSPropertyOp10
 70
     0
102
RTVSPropertyOp11
 70
     0
102
RTVSPropertyOp12
 70
     0
102
RTVSPropertyOp13
 70
     0
102
RTVSPropertyOp14
 70
     2
102
RTVSPropertyOp15
 70
     0
102
RTVSPropertyOp16
 70
     0
102
RTVSPropertyOp17
 70
     0
102
RTVSPropertyOp18
 70
     0
102
RTVSPropertyOp19
 70
     0
102
RTVSPropertyOp20
 70
     0
102
RTVSPropertyOp21
 70
     0
102
RTVSPropertyOp22
 70
     0
102
RTVSPropertyOp23
 70
     0
102
RTVSPropertyOp24
 70
     0
102
RTVSPropertyOp25
 70
     0
102
RTVSPropertyOp26
 70
     0
102
RTVSPropertyOp27
 70
     0
  0
XRECORD
  5
837
102
{ACAD_REACTORS
330
836
102
}
330
836
100
AcDbXrecord
280
     1
102
RTVSPropertyOp0
 70
     1
102
RTVSPropertyOp1
 70
     1
102
RTVSPropertyOp2
 70
     1
102
RTVSPropertyOp3
 70
     1
102
RTVSPropertyOp4
 70
     1
102
RTVSPropertyOp5
 70
     1
102
RTVSPropertyOp6
 70
     1
102
RTVSPropertyOp7
 70
     1
102
RTVSPropertyOp8
 70
     1
102
RTVSPropertyOp9
 70
     1
102
RTVSPropertyOp10
 70
     1
102
RTVSPropertyOp11
 70
     1
102
RTVSPropertyOp12
 70
     1
102
RTVSPropertyOp13
 70
     1
102
RTVSPropertyOp14
 70
     1
102
RTVSPropertyOp15
 70
     1
102
RTVSPropertyOp16
 70
     1
102
RTVSPropertyOp17
 70
     1
102
RTVSPropertyOp18
 70
     1
102
RTVSPropertyOp19
 70
     1
102
RTVSPropertyOp20
 70
     1
102
RTVSPropertyOp21
 70
     1
102
RTVSPropertyOp22
 70
     1
102
RTVSPropertyOp23
 70
     1
102
RTVSPropertyOp24
 70
     1
102
RTVSPropertyOp25
 70
     1
102
RTVSPropertyOp26
 70
     1
102
RTVSPropertyOp27
 70
     1
  0
XRECORD
  5
83F
102
{ACAD_REACTORS
330
83E
102
}
330
83E
100
AcDbXrecord
280
     1
102
RTVSPropertyOp0
 70
     0
102
RTVSPropertyOp1
 70
     0
102
RTVSPropertyOp2
 70
     0
102
RTVSPropertyOp3
 70
     0
102
RTVSPropertyOp4
 70
     0
102
RTVSPropertyOp5
 70
     0
102
RTVSPropertyOp6
 70
     0
102
RTVSPropertyOp7
 70
     0
102
RTVSPropertyOp8
 70
     0
102
RTVSPropertyOp9
 70
     0
102
RTVSPropertyOp10
 70
     0
102
RTVSPropertyOp11
 70
     0
102
RTVSPropertyOp12
 70
     0
102
RTVSPropertyOp13
 70
     0
102
RTVSPropertyOp14
 70
     2
102
RTVSPropertyOp15
 70
     0
102
RTVSPropertyOp16
 70
     0
102
RTVSPropertyOp17
 70
     0
102
RTVSPropertyOp18
 70
     0
102
RTVSPropertyOp19
 70
     0
102
RTVSPropertyOp20
 70
     0
102
RTVSPropertyOp21
 70
     0
102
RTVSPropertyOp22
 70
     0
102
RTVSPropertyOp23
 70
     0
102
RTVSPropertyOp24
 70
     0
102
RTVSPropertyOp25
 70
     0
102
RTVSPropertyOp26
 70
     0
102
RTVSPropertyOp27
 70
     0
  0
XRECORD
  5
82F
102
{ACAD_REACTORS
330
82E
102
}
330
82E
100
AcDbXrecord
280
     1
102
RTVSPropertyOp0
 70
     1
102
RTVSPropertyOp1
 70
     1
102
RTVSPropertyOp2
 70
     1
102
RTVSPropertyOp3
 70
     1
102
RTVSPropertyOp4
 70
     1
102
RTVSPropertyOp5
 70
     1
102
RTVSPropertyOp6
 70
     1
102
RTVSPropertyOp7
 70
     1
102
RTVSPropertyOp8
 70
     1
102
RTVSPropertyOp9
 70
     1
102
RTVSPropertyOp10
 70
     1
102
RTVSPropertyOp11
 70
     1
102
RTVSPropertyOp12
 70
     1
102
RTVSPropertyOp13
 70
     1
102
RTVSPropertyOp14
 70
     1
102
RTVSPropertyOp15
 70
     1
102
RTVSPropertyOp16
 70
     1
102
RTVSPropertyOp17
 70
     1
102
RTVSPropertyOp18
 70
     1
102
RTVSPropertyOp19
 70
     1
102
RTVSPropertyOp20
 70
     1
102
RTVSPropertyOp21
 70
     1
102
RTVSPropertyOp22
 70
     1
102
RTVSPropertyOp23
 70
     1
102
RTVSPropertyOp24
 70
     1
102
RTVSPropertyOp25
 70
     1
102
RTVSPropertyOp26
 70
     1
102
RTVSPropertyOp27
 70
     1
  0
XRECORD
  5
835
102
{ACAD_REACTORS
330
834
102
}
330
834
100
AcDbXrecord
280
     1
102
RTVSPropertyOp0
 70
     1
102
RTVSPropertyOp1
 70
     1
102
RTVSPropertyOp2
 70
     1
102
RTVSPropertyOp3
 70
     1
102
RTVSPropertyOp4
 70
     1
102
RTVSPropertyOp5
 70
     1
102
RTVSPropertyOp6
 70
     1
102
RTVSPropertyOp7
 70
     1
102
RTVSPropertyOp8
 70
     1
102
RTVSPropertyOp9
 70
     1
102
RTVSPropertyOp10
 70
     1
102
RTVSPropertyOp11
 70
     1
102
RTVSPropertyOp12
 70
     1
102
RTVSPropertyOp13
 70
     1
102
RTVSPropertyOp14
 70
     1
102
RTVSPropertyOp15
 70
     1
102
RTVSPropertyOp16
 70
     1
102
RTVSPropertyOp17
 70
     1
102
RTVSPropertyOp18
 70
     1
102
RTVSPropertyOp19
 70
     1
102
RTVSPropertyOp20
 70
     1
102
RTVSPropertyOp21
 70
     1
102
RTVSPropertyOp22
 70
     1
102
RTVSPropertyOp23
 70
     1
102
RTVSPropertyOp24
 70
     1
102
RTVSPropertyOp25
 70
     1
102
RTVSPropertyOp26
 70
     1
102
RTVSPropertyOp27
 70
     1
  0
ENDSEC
  0
EOF
