  0
SECTION
  2
HEADER
  9
$ACADVER
  1
AC1015
  9
$ACADMAINTVER
 70
    20
  9
$DWGCODEPAGE
  3
ANSI_1252
  9
$INSBASE
 10
0.0
 20
0.0
 30
0.0
  9
$EXTMIN
 10
-2.002728144384332
 20
-0.3490745841051082
 30
0.0
  9
$EXTMAX
 10
2.67793160833464
 20
0.5572438172072289
 30
0.0
  9
$LIMMIN
 10
0.0
 20
0.0
  9
$LIMMAX
 10
420.0
 20
297.0
  9
$ORTHOMODE
 70
     0
  9
$REGENMODE
 70
     1
  9
$FILLMODE
 70
     1
  9
$QTEXTMODE
 70
     0
  9
$MIRRTEXT
 70
     1
  9
$LTSCALE
 40
1.0
  9
$ATTMODE
 70
     1
  9
$TEXTSIZE
 40
2.0
  9
$TRACEWID
 40
1.0
  9
$TEXTSTYLE
  7
LEG-ATT
  9
$CLAYER
  8
BLOCKS
  9
$CELTYPE
  6
ByLayer
  9
$CECOLOR
 62
   256
  9
$CELTSCALE
 40
1.0
  9
$DISPSILH
 70
     0
  9
$DIMSCALE
 40
1.0
  9
$DIMASZ
 40
2.5
  9
$DIMEXO
 40
0.625
  9
$DIMDLI
 40
3.75
  9
$DIMRND
 40
0.0
  9
$DIMDLE
 40
0.0
  9
$DIMEXE
 40
1.25
  9
$DIMTP
 40
0.0
  9
$DIMTM
 40
0.0
  9
$DIMTXT
 40
2.5
  9
$DIMCEN
 40
2.5
  9
$DIMTSZ
 40
0.0
  9
$DIMTOL
 70
     0
  9
$DIMLIM
 70
     0
  9
$DIMTIH
 70
     0
  9
$DIMTOH
 70
     0
  9
$DIMSE1
 70
     0
  9
$DIMSE2
 70
     0
  9
$DIMTAD
 70
     1
  9
$DIMZIN
 70
     8
  9
$DIMBLK
  1

  9
$DIMASO
 70
     1
  9
$DIMSHO
 70
     1
  9
$DIMPOST
  1

  9
$DIMAPOST
  1

  9
$DIMALT
 70
     0
  9
$DIMALTD
 70
     3
  9
$DIMALTF
 40
0.03937007874016
  9
$DIMLFAC
 40
1.0
  9
$DIMTOFL
 70
     1
  9
$DIMTVP
 40
0.0
  9
$DIMTIX
 70
     0
  9
$DIMSOXD
 70
     0
  9
$DIMSAH
 70
     0
  9
$DIMBLK1
  1

  9
$DIMBLK2
  1

  9
$DIMSTYLE
  2
ISO-25
  9
$DIMCLRD
 70
     0
  9
$DIMCLRE
 70
     0
  9
$DIMCLRT
 70
     0
  9
$DIMTFAC
 40
1.0
  9
$DIMGAP
 40
0.625
  9
$DIMJUST
 70
     0
  9
$DIMSD1
 70
     0
  9
$DIMSD2
 70
     0
  9
$DIMTOLJ
 70
     0
  9
$DIMTZIN
 70
     8
  9
$DIMALTZ
 70
     0
  9
$DIMALTTZ
 70
     0
  9
$DIMUPT
 70
     0
  9
$DIMDEC
 70
     2
  9
$DIMTDEC
 70
     2
  9
$DIMALTU
 70
     2
  9
$DIMALTTD
 70
     3
  9
$DIMTXSTY
  7
Standard
  9
$DIMAUNIT
 70
     0
  9
$DIMADEC
 70
     0
  9
$DIMALTRND
 40
0.0
  9
$DIMAZIN
 70
     0
  9
$DIMDSEP
 70
    44
  9
$DIMATFIT
 70
     3
  9
$DIMFRAC
 70
     0
  9
$DIMLDRBLK
  1

  9
$DIMLUNIT
 70
     2
  9
$DIMLWD
 70
    -2
  9
$DIMLWE
 70
    -2
  9
$DIMTMOVE
 70
     0
  9
$LUNITS
 70
     2
  9
$LUPREC
 70
     4
  9
$SKETCHINC
 40
1.0
  9
$FILLETRAD
 40
0.0
  9
$AUNITS
 70
     0
  9
$AUPREC
 70
     0
  9
$MENU
  1
.
  9
$ELEVATION
 40
0.0
  9
$PELEVATION
 40
0.0
  9
$THICKNESS
 40
0.0
  9
$LIMCHECK
 70
     0
  9
$CHAMFERA
 40
10.0
  9
$CHAMFERB
 40
10.0
  9
$CHAMFERC
 40
20.0
  9
$CHAMFERD
 40
0.0
  9
$SKPOLY
 70
     0
  9
$TDCREATE
 40
2453125.639648206
  9
$TDUCREATE
 40
2453125.597981539
  9
$TDUPDATE
 40
2456146.633998299
  9
$TDUUPDATE
 40
2456146.592331632
  9
$TDINDWG
 40
0.0123598032
  9
$TDUSRTIMER
 40
0.0123598032
  9
$USRTIMER
 70
     1
  9
$ANGBASE
 50
0.0
  9
$ANGDIR
 70
     0
  9
$PDMODE
 70
     3
  9
$PDSIZE
 40
0.0
  9
$PLINEWID
 40
0.0
  9
$SPLFRAME
 70
     0
  9
$SPLINETYPE
 70
     6
  9
$SPLINESEGS
 70
     8
  9
$HANDSEED
  5
6CF
  9
$SURFTAB1
 70
     6
  9
$SURFTAB2
 70
     6
  9
$SURFTYPE
 70
     6
  9
$SURFU
 70
     6
  9
$SURFV
 70
     6
  9
$UCSBASE
  2

  9
$UCSNAME
  2

  9
$UCSORG
 10
0.0
 20
0.0
 30
0.0
  9
$UCSXDIR
 10
1.0
 20
0.0
 30
0.0
  9
$UCSYDIR
 10
0.0
 20
1.0
 30
0.0
  9
$UCSORTHOREF
  2

  9
$UCSORTHOVIEW
 70
     0
  9
$UCSORGTOP
 10
0.0
 20
0.0
 30
0.0
  9
$UCSORGBOTTOM
 10
0.0
 20
0.0
 30
0.0
  9
$UCSORGLEFT
 10
0.0
 20
0.0
 30
0.0
  9
$UCSORGRIGHT
 10
0.0
 20
0.0
 30
0.0
  9
$UCSORGFRONT
 10
0.0
 20
0.0
 30
0.0
  9
$UCSORGBACK
 10
0.0
 20
0.0
 30
0.0
  9
$PUCSBASE
  2

  9
$PUCSNAME
  2

  9
$PUCSORG
 10
0.0
 20
0.0
 30
0.0
  9
$PUCSXDIR
 10
1.0
 20
0.0
 30
0.0
  9
$PUCSYDIR
 10
0.0
 20
1.0
 30
0.0
  9
$PUCSORTHOREF
  2

  9
$PUCSORTHOVIEW
 70
     0
  9
$PUCSORGTOP
 10
0.0
 20
0.0
 30
0.0
  9
$PUCSORGBOTTOM
 10
0.0
 20
0.0
 30
0.0
  9
$PUCSORGLEFT
 10
0.0
 20
0.0
 30
0.0
  9
$PUCSORGRIGHT
 10
0.0
 20
0.0
 30
0.0
  9
$PUCSORGFRONT
 10
0.0
 20
0.0
 30
0.0
  9
$PUCSORGBACK
 10
0.0
 20
0.0
 30
0.0
  9
$USERI1
 70
     0
  9
$USERI2
 70
     0
  9
$USERI3
 70
     0
  9
$USERI4
 70
     0
  9
$USERI5
 70
     0
  9
$USERR1
 40
0.0
  9
$USERR2
 40
0.0
  9
$USERR3
 40
0.0
  9
$USERR4
 40
0.0
  9
$USERR5
 40
0.0
  9
$WORLDVIEW
 70
     1
  9
$SHADEDGE
 70
     3
  9
$SHADEDIF
 70
    70
  9
$TILEMODE
 70
     1
  9
$MAXACTVP
 70
    64
  9
$PINSBASE
 10
0.0
 20
0.0
 30
0.0
  9
$PLIMCHECK
 70
     0
  9
$PEXTMIN
 10
1.000000000000000E+20
 20
1.000000000000000E+20
 30
1.000000000000000E+20
  9
$PEXTMAX
 10
-1.000000000000000E+20
 20
-1.000000000000000E+20
 30
-1.000000000000000E+20
  9
$PLIMMIN
 10
0.0
 20
0.0
  9
$PLIMMAX
 10
420.0
 20
297.0
  9
$UNITMODE
 70
     0
  9
$VISRETAIN
 70
     1
  9
$PLINEGEN
 70
     0
  9
$PSLTSCALE
 70
     1
  9
$TREEDEPTH
 70
  3020
  9
$CMLSTYLE
  2
Standard
  9
$CMLJUST
 70
     0
  9
$CMLSCALE
 40
20.0
  9
$PROXYGRAPHICS
 70
     1
  9
$MEASUREMENT
 70
     1
  9
$CELWEIGHT
370
    -1
  9
$ENDCAPS
280
     0
  9
$JOINSTYLE
280
     0
  9
$LWDISPLAY
290
     0
  9
$INSUNITS
 70
     4
  9
$HYPERLINKBASE
  1

  9
$STYLESHEET
  1

  9
$XEDIT
290
     1
  9
$CEPSNTYPE
380
     0
  9
$PSTYLEMODE
290
     1
  9
$FINGERPRINTGUID
  2
{38505E8A-DB8E-4A5A-9240-5BDA279CF715}
  9
$VERSIONGUID
  2
{FD5E92DD-442C-4DB0-A1D5-7A98625EFEA7}
  9
$EXTNAMES
290
     1
  9
$PSVPSCALE
 40
0.0
  9
$OLESTARTUP
290
     0
  0
ENDSEC
  0
SECTION
  2
CLASSES
  0
CLASS
  1
ACDBDICTIONARYWDFLT
  2
AcDbDictionaryWithDefault
  3
ObjectDBX Classes
 90
        0
280
     0
281
     0
  0
CLASS
  1
ACDBPLACEHOLDER
  2
AcDbPlaceHolder
  3
ObjectDBX Classes
 90
        0
280
     0
281
     0
  0
CLASS
  1
LAYOUT
  2
AcDbLayout
  3
ObjectDBX Classes
 90
        0
280
     0
281
     0
  0
CLASS
  1
DICTIONARYVAR
  2
AcDbDictionaryVar
  3
ObjectDBX Classes
 90
        0
280
     0
281
     0
  0
CLASS
  1
TABLESTYLE
  2
AcDbTableStyle
  3
ObjectDBX Classes
 90
     4095
280
     0
281
     0
  0
CLASS
  1
DIMASSOC
  2
AcDbDimAssoc
  3
"AcDbDimAssoc|Product Desc:     AcDim ARX App For Dimension|Company:          Autodesk, Inc.|WEB Address:      www.autodesk.com"
 90
    32768
280
     0
281
     0
  0
CLASS
  1
MATERIAL
  2
AcDbMaterial
  3
ObjectDBX Classes
 90
     1153
280
     0
281
     0
  0
CLASS
  1
VISUALSTYLE
  2
AcDbVisualStyle
  3
ObjectDBX Classes
 90
     4095
280
     0
281
     0
  0
CLASS
  1
SCALE
  2
AcDbScale
  3
ObjectDBX Classes
 90
     1153
280
     0
281
     0
  0
CLASS
  1
MLEADERSTYLE
  2
AcDbMLeaderStyle
  3
ACDB_MLEADERSTYLE_CLASS
 90
     4095
280
     0
281
     0
  0
CLASS
  1
CELLSTYLEMAP
  2
AcDbCellStyleMap
  3
ObjectDBX Classes
 90
     1152
280
     0
281
     0
  0
ENDSEC
  0
SECTION
  2
TABLES
  0
TABLE
  2
VPORT
  5
19
330
0
100
AcDbSymbolTable
 70
     1
  0
VPORT
  5
632
330
19
100
AcDbSymbolTableRecord
100
AcDbViewportTableRecord
  2
*Active
 70
     0
 10
0.0
 20
0.0
 11
1.0
 21
1.0
 12
0.4108496894917462
 22
0.1070981507759257
 13
0.0
 23
0.0
 14
10.0
 24
10.0
 15
10.0
 25
10.0
 16
0.0
 26
0.0
 36
1.0
 17
0.0
 27
0.0
 37
0.0
 40
2.991604960489114
 41
1.645464025026068
 42
50.0
 43
0.0
 44
0.0
 50
0.0
 51
0.0
 71
     0
 72
   100
 73
     1
 74
     2
 75
     0
 76
     0
 77
     0
 78
     0
281
     0
 65
     1
110
0.0
120
0.0
130
0.0
111
1.0
121
0.0
131
0.0
112
0.0
122
1.0
132
0.0
 79
     0
146
0.0
  0
ENDTAB
  0
TABLE
  2
LTYPE
  5
14
330
0
100
AcDbSymbolTable
 70
     2
  0
LTYPE
  5
15
330
14
100
AcDbSymbolTableRecord
100
AcDbLinetypeTableRecord
  2
ByBlock
 70
     0
  3

 72
    65
 73
     0
 40
0.0
  0
LTYPE
  5
16
330
14
100
AcDbSymbolTableRecord
100
AcDbLinetypeTableRecord
  2
ByLayer
 70
     0
  3

 72
    65
 73
     0
 40
0.0
  0
LTYPE
  5
8
330
14
100
AcDbSymbolTableRecord
100
AcDbLinetypeTableRecord
  2
Continuous
 70
     0
  3
Solid line
 72
    65
 73
     0
 40
0.0
  0
LTYPE
  5
20F
330
14
100
AcDbSymbolTableRecord
100
AcDbLinetypeTableRecord
  2
DASHDOT
 70
     0
  3
Dash dot __ . __ . __ . __ . __ . __ . __ . __
 72
    65
 73
     4
 40
25.4
 49
12.7
 74
     0
 49
-6.349999999999999
 74
     0
 49
0.0
 74
     0
 49
-6.349999999999999
 74
     0
  0
ENDTAB
  0
TABLE
  2
LAYER
  5
10
330
0
100
AcDbSymbolTable
 70
     9
  0
LAYER
  5
4
102
{ACAD_XDICTIONARY
360
67F
102
}
330
10
100
AcDbSymbolTableRecord
100
AcDbLayerTableRecord
  2
0
 70
     0
 62
     7
  6
Continuous
370
    -3
390
5
  0
LAYER
  5
22
102
{ACAD_XDICTIONARY
360
681
102
}
330
10
100
AcDbSymbolTableRecord
100
AcDbLayerTableRecord
  2
BLOCKS
 70
     0
 62
     3
  6
Continuous
370
    -3
390
5
  0
LAYER
  5
210
102
{ACAD_XDICTIONARY
360
683
102
}
330
10
100
AcDbSymbolTableRecord
100
AcDbLayerTableRecord
  2
cen
 70
     0
 62
     7
  6
DASHDOT
370
    -3
390
5
  0
LAYER
  5
211
330
10
100
AcDbSymbolTableRecord
100
AcDbLayerTableRecord
  2
Defpoints
 70
     0
 62
     7
  6
Continuous
290
     0
370
    -3
390
5
  0
LAYER
  5
212
102
{ACAD_XDICTIONARY
360
685
102
}
330
10
100
AcDbSymbolTableRecord
100
AcDbLayerTableRecord
  2
9
 70
     0
 62
     9
  6
Continuous
370
    -3
390
5
  0
LAYER
  5
213
102
{ACAD_XDICTIONARY
360
687
102
}
330
10
100
AcDbSymbolTableRecord
100
AcDbLayerTableRecord
  2
hatch
 70
     0
 62
     9
  6
Continuous
370
    -3
390
5
  0
LAYER
  5
214
102
{ACAD_XDICTIONARY
360
689
102
}
330
10
100
AcDbSymbolTableRecord
100
AcDbLayerTableRecord
  2
INDUSA
 70
     0
 62
     3
  6
Continuous
370
    -3
390
5
  0
LAYER
  5
215
102
{ACAD_XDICTIONARY
360
68B
102
}
330
10
100
AcDbSymbolTableRecord
100
AcDbLayerTableRecord
  2
COTAS
 70
     0
 62
     1
  6
Continuous
370
    -3
390
5
  0
LAYER
  5
61A
102
{ACAD_XDICTIONARY
360
68D
102
}
330
10
100
AcDbSymbolTableRecord
100
AcDbLayerTableRecord
  2
sanindusa
 70
     0
 62
     3
  6
Continuous
370
    -3
390
5
  0
ENDTAB
  0
TABLE
  2
STYLE
  5
11
330
0
100
AcDbSymbolTable
 70
     3
  0
STYLE
  5
12
330
11
100
AcDbSymbolTableRecord
100
AcDbTextStyleTableRecord
  2
Standard
 70
     0
 40
0.0
 41
1.0
 50
0.0
 71
     0
 42
2.5
  3
txt
  4

  0
STYLE
  5
23
330
11
100
AcDbSymbolTableRecord
100
AcDbTextStyleTableRecord
  2
LEG-ATT
 70
     0
 40
2.0
 41
0.8
 50
0.0
 71
     0
 42
2.0
  3
ARIAL.TTF
  4

1001
ACAD
1000
Arial
1071
       34
  0
STYLE
  5
216
330
11
100
AcDbSymbolTableRecord
100
AcDbTextStyleTableRecord
  2
SANINDUSA
 70
     0
 40
0.0
 41
1.0
 50
0.0
 71
     0
 42
2.5
  3
verdana.TTF
  4

1001
ACAD
1000
Verdana
1071
       34
  0
ENDTAB
  0
TABLE
  2
VIEW
  5
17
330
0
100
AcDbSymbolTable
 70
     0
  0
ENDTAB
  0
TABLE
  2
UCS
  5
18
330
0
100
AcDbSymbolTable
 70
     0
  0
ENDTAB
  0
TABLE
  2
APPID
  5
1B
330
0
100
AcDbSymbolTable
 70
     4
  0
APPID
  5
1C
330
1B
100
AcDbSymbolTableRecord
100
AcDbRegAppTableRecord
  2
ACAD
 70
     0
  0
APPID
  5
61C
330
1B
100
AcDbSymbolTableRecord
100
AcDbRegAppTableRecord
  2
ACAD_EXEMPT_FROM_CAD_STANDARDS
 70
     0
  0
APPID
  5
691
330
1B
100
AcDbSymbolTableRecord
100
AcDbRegAppTableRecord
  2
DCO15
 70
     0
  0
APPID
  5
6CE
330
1B
100
AcDbSymbolTableRecord
100
AcDbRegAppTableRecord
  2
ACAD_MLEADERVER
 70
     0
  0
ENDTAB
  0
TABLE
  2
DIMSTYLE
  5
1D
330
0
100
AcDbSymbolTable
 70
     2
100
AcDbDimStyleTable
 71
     1
340
25
  0
DIMSTYLE
105
25
330
1D
100
AcDbSymbolTableRecord
100
AcDbDimStyleTableRecord
  2
ISO-25
 70
     0
 41
2.5
 42
0.625
 43
3.75
 44
1.25
 73
     0
 74
     0
 77
     1
 78
     8
140
2.5
141
2.5
143
0.03937007874016
147
0.625
171
     3
172
     1
271
     2
272
     2
274
     3
278
    44
283
     0
284
     8
340
12
  0
DIMSTYLE
105
217
330
1D
100
AcDbSymbolTableRecord
100
AcDbDimStyleTableRecord
  2
SANINDUSA
 70
     0
 41
15.0
 42
2.0
 43
2.0
 44
2.0
 73
     0
 74
     0
 77
     1
 78
     8
140
10.0
141
0.0
143
0.03937007874016
147
4.0
171
     3
172
     1
176
   256
177
   256
178
   256
179
     1
271
     1
272
     1
274
     3
278
    44
283
     0
284
     8
340
216
371
    -1
372
    -1
  0
ENDTAB
  0
TABLE
  2
BLOCK_RECORD
  5
1
330
0
100
AcDbSymbolTable
 70
    20
  0
BLOCK_RECORD
  5
2
330
1
100
AcDbSymbolTableRecord
100
AcDbBlockTableRecord
  2
*Model_Space
340
A
  0
BLOCK_RECORD
  5
C
330
1
100
AcDbSymbolTableRecord
100
AcDbBlockTableRecord
  2
*Paper_Space
340
F
  0
BLOCK_RECORD
  5
39
330
1
100
AcDbSymbolTableRecord
100
AcDbBlockTableRecord
  2
107171AL
340
0
102
{BLKREFS
331
44
102
}
1001
ACAD
1000
DesignCenter Data
1002
{
1070
     1
1070
     4
1002
}
  0
BLOCK_RECORD
  5
45
330
1
100
AcDbSymbolTableRecord
100
AcDbBlockTableRecord
  2
107171CT
340
0
1001
ACAD
1000
DesignCenter Data
1002
{
1070
     1
1070
     4
1002
}
  0
BLOCK_RECORD
  5
133
330
1
100
AcDbSymbolTableRecord
100
AcDbBlockTableRecord
  2
107171PL
340
0
102
{BLKREFS
331
1A1
102
}
1001
ACAD
1000
DesignCenter Data
1002
{
1070
     1
1070
     4
1002
}
  0
BLOCK_RECORD
  5
1AA
330
1
100
AcDbSymbolTableRecord
100
AcDbBlockTableRecord
  2
_DotSmall
340
0
  0
ENDTAB
  0
ENDSEC
  0
SECTION
  2
BLOCKS
  0
BLOCK
  5
3
330
2
100
AcDbEntity
  8
0
100
AcDbBlockBegin
  2
*Model_Space
 70
     0
 10
0.0
 20
0.0
 30
0.0
  3
*Model_Space
  1

  0
ENDBLK
  5
9
330
2
100
AcDbEntity
  8
0
100
AcDbBlockEnd
  0
BLOCK
  5
D
330
C
100
AcDbEntity
 67
     1
  8
0
100
AcDbBlockBegin
  2
*Paper_Space
 70
     0
 10
0.0
 20
0.0
 30
0.0
  3
*Paper_Space
  1

  0
ENDBLK
  5
E
330
C
100
AcDbEntity
 67
     1
  8
0
100
AcDbBlockEnd
  0
BLOCK
  5
42
330
39
100
AcDbEntity
  8
0
100
AcDbBlockBegin
  2
107171AL
 70
     0
 10
0.0
 20
0.0
 30
0.0
  3
107171AL
  1

  0
ARC
  5
3A
330
39
100
AcDbEntity
  8
BLOCKS
  6
Continuous
100
AcDbCircle
 10
0.4376559165539453
 20
0.0699999999999949
 30
0.0
 40
0.0100000000000004
100
AcDbArc
 50
0.0
 51
90.0
  0
LINE
  5
3B
330
39
100
AcDbEntity
  8
BLOCKS
100
AcDbLine
 10
0.4366559165539457
 20
-0.0000000000000028
 30
0.0
 11
0.4476559165539454
 21
-0.0000000000000028
 31
0.0
  0
LINE
  5
3C
330
39
100
AcDbEntity
  8
BLOCKS
  6
Continuous
100
AcDbLine
 10
0.4476559165539454
 20
0.0699999999999972
 30
0.0
 11
0.4476559165539454
 21
-0.0000000000000028
 31
0.0
  0
LWPOLYLINE
  5
3D
330
39
100
AcDbEntity
  8
BLOCKS
  6
Continuous
100
AcDbPolyline
 90
       10
 70
   128
 43
0.0
 10
-0.4562346559844002
 20
0.0702443217798111
 10
-0.4559674078406346
 20
0.0719499522132532
 10
-0.4552916844038959
 20
0.0735981587777235
 10
-0.4542273849588043
 20
0.0751404036695107
 10
-0.4528058519102974
 20
0.0765312695353123
 10
-0.451068947785546
 20
0.0777297969615148
 10
-0.4490678224302713
 20
0.0787006906822126
 10
-0.4468614067041159
 20
0.0794153589845291
 10
-0.4445146770340318
 20
0.0798527557019674
 10
-0.4420967419326082
 20
0.0800000000000012
  0
LINE
  5
3E
330
39
100
AcDbEntity
  8
BLOCKS
100
AcDbLine
 10
-0.458662484758392
 20
0.0000000000000017
 30
0.0
 11
-0.4476559165539454
 21
0.0000000000000017
 31
0.0
  0
LINE
  5
3F
330
39
100
AcDbEntity
  8
BLOCKS
  6
Continuous
100
AcDbLine
 10
-0.458662484758392
 20
0.0000000000000017
 30
0.0
 11
-0.4562346561153282
 21
0.0702443217820758
 31
0.0
  0
LINE
  5
40
330
39
100
AcDbEntity
  8
BLOCKS
  6
Continuous
100
AcDbLine
 10
0.4476559165539454
 20
-0.0000000000000017
 30
0.0
 11
-0.4476559165539454
 21
0.0000000000000017
 31
0.0
  0
LINE
  5
41
330
39
100
AcDbEntity
  8
BLOCKS
  6
Continuous
100
AcDbLine
 10
0.4376559165539453
 20
0.0800000000000017
 30
0.0
 11
-0.4420967418017443
 21
0.0800000000000017
 31
0.0
  0
ENDBLK
  5
43
330
39
100
AcDbEntity
  8
0
100
AcDbBlockEnd
  0
BLOCK
  5
130
330
45
100
AcDbEntity
  8
0
100
AcDbBlockBegin
  2
107171CT
 70
     0
 10
0.0
 20
0.0
 30
0.0
  3
107171CT
  1

  0
LWPOLYLINE
  5
46
330
45
100
AcDbEntity
  8
BLOCKS
  6
Continuous
100
AcDbPolyline
 90
        6
 70
   128
 43
0.0
 10
0.5517012591001651
 20
0.0800476098203086
 10
0.5550113150096593
 20
0.0794838977483386
 10
0.5579481872243843
 20
0.0778563157938947
 10
0.5601807656805353
 20
0.075348361475896
 10
0.5614573440929883
 20
0.0722427876189539
 10
0.5616997662125425
 20
0.0702203971967714
  0
LINE
  5
47
330
45
100
AcDbEntity
  8
BLOCKS
  6
Continuous
100
AcDbLine
 10
0.4600135257001228
 20
0.0800476098203075
 30
0.0
 11
0.4816360569680927
 21
0.0800476098203086
 31
0.0
  0
LWPOLYLINE
  5
48
330
45
100
AcDbEntity
  8
BLOCKS
  6
Continuous
100
AcDbPolyline
 90
        8
 70
   128
 43
0.0
 10
0.4816358486326834
 20
0.0800476098203075
 10
0.4791178016205516
 20
0.0798332160950054
 10
0.4766707344127855
 20
0.0792020366250921
 10
0.4743655981704751
 20
0.0781662409502127
 10
0.4722653991618489
 20
0.0767606486306454
 10
0.4704330623963534
 20
0.0750202294032147
 10
0.4689165158573787
 20
0.0729986944783082
 10
0.4676090914801251
 20
0.0703628280477511
  0
LWPOLYLINE
  5
49
330
45
100
AcDbEntity
  8
BLOCKS
  6
Continuous
100
AcDbPolyline
 90
        8
 70
   128
 43
0.0
 10
0.4821032887406626
 20
0.0690476098203095
 10
0.4809710390135888
 20
0.0689512068398295
 10
0.4803249693077732
 20
0.0687845641202716
 10
0.4797163726675383
 20
0.0685110957863259
 10
0.4791618845579241
 20
0.0681399956072659
 10
0.4786781192509125
 20
0.0676804979550093
 10
0.4783219583931686
 20
0.067205740607107
 10
0.4777037328322616
 20
0.0659593511173142
  0
LINE
  5
4A
330
45
100
AcDbEntity
  8
BLOCKS
  6
Continuous
100
AcDbLine
 10
0.3616793903580964
 20
0.0800476098203086
 30
0.0
 11
0.4600135257022993
 21
0.0800476098203086
 31
0.0
  0
LINE
  5
4B
330
45
100
AcDbEntity
  8
BLOCKS
  6
Continuous
100
AcDbLine
 10
0.551701259097992
 20
0.0800476098203075
 30
0.0
 11
0.4816358523946974
 21
0.0800476098203098
 31
0.0
  0
LINE
  5
4C
330
45
100
AcDbEntity
  8
BLOCKS
  6
Continuous
100
AcDbLine
 10
0.5507181326827493
 20
0.0690476098203078
 30
0.0
 11
0.4821032887406626
 21
0.0690476098203095
 31
0.0
  0
LINE
  5
4D
330
45
100
AcDbEntity
  8
BLOCKS
100
AcDbLine
 10
0.5518373459661189
 20
0.0000476098203075
 30
0.0
 11
0.5628386564569082
 21
0.0000476098203097
 31
0.0
  0
LWPOLYLINE
  5
4E
330
45
100
AcDbEntity
  8
BLOCKS
  6
Continuous
100
AcDbPolyline
 90
        8
 70
   128
 43
0.0
 10
0.4348748289751774
 20
0.0295449242314629
 10
0.4390728058628128
 20
0.0299023732103723
 10
0.4431524430210294
 20
0.0309546843821886
 10
0.4469954478915014
 20
0.0326815288811372
 10
0.4504968102024714
 20
0.0350248485280622
 10
0.4535517904515428
 20
0.0379265062661642
 10
0.4560802920306259
 20
0.0412968478072611
 10
0.4582603750177834
 20
0.0456919538937308
  0
LWPOLYLINE
  5
4F
330
45
100
AcDbEntity
  8
BLOCKS
  6
Continuous
100
AcDbPolyline
 90
        8
 70
   128
 43
0.0
 10
0.4348748400360774
 20
0.0185449242314496
 10
0.4409261183432966
 20
0.0190203749989536
 10
0.4468067442017156
 20
0.0205372374178649
 10
0.4523462175154083
 20
0.0230263857122941
 10
0.4573932194298204
 20
0.026404139196149
 10
0.4617967402393743
 20
0.0305866573108949
 10
0.4654856622010346
 20
0.0355037698933433
 10
0.4685466198717013
 20
0.041794110641136
  0
LWPOLYLINE
  5
50
330
45
100
AcDbEntity
  8
BLOCKS
  6
Continuous
100
AcDbPolyline
 90
        5
 70
   128
 43
0.0
 10
0.5616997662124152
 20
0.0702203971967697
 10
0.56199901555373
 20
0.0526368757861815
 10
0.5622887572119498
 20
0.0350694293082546
 10
0.5625687236752191
 20
0.017534277384674
 10
0.5628386564569076
 20
0.0000476098203097
  0
LINE
  5
51
330
45
100
AcDbEntity
  8
BLOCKS
  6
Continuous
100
AcDbLine
 10
0.4676090917908704
 20
0.0703628269149948
 30
0.0
 11
0.4582603754798629
 21
0.0456919531612152
 31
0.0
  0
LINE
  5
52
330
45
100
AcDbEntity
  8
BLOCKS
  6
Continuous
100
AcDbLine
 10
0.4777037328322621
 20
0.0659593511173131
 30
0.0
 11
0.4685466198717013
 21
0.041794110641136
 31
0.0
  0
LWPOLYLINE
  5
53
330
45
100
AcDbEntity
  8
BLOCKS
  6
Continuous
100
AcDbPolyline
 90
        5
 70
   128
 43
0.0
 10
0.5507181326827493
 20
0.0690476098203078
 10
0.5510005590332811
 20
0.0524525865541716
 10
0.5512902052356702
 20
0.0348909276982329
 10
0.5515700789502797
 20
0.0173615849055546
 10
0.5518373459661189
 20
0.0000476098203075
  0
LINE
  5
54
330
45
100
AcDbEntity
  8
BLOCKS
  6
Continuous
100
AcDbLine
 10
0.3141237708495754
 20
0.031545521431421
 30
0.0
 11
0.3082872680136706
 21
0.0315455214303052
 31
0.0
  0
LINE
  5
55
330
45
100
AcDbEntity
  8
BLOCKS
  6
Continuous
100
AcDbLine
 10
0.2816872680129154
 20
0.0295449242314175
 30
0.0
 11
0.2682872680136205
 21
0.029544924231414
 31
0.0
  0
LINE
  5
56
330
45
100
AcDbEntity
  8
BLOCKS
  6
Continuous
100
AcDbLine
 10
0.3074872680139879
 20
0.0306739217113994
 30
0.0
 11
0.3074872680139896
 21
0.0303451631111699
 31
0.0
  0
LINE
  5
57
330
45
100
AcDbEntity
  8
BLOCKS
  6
Continuous
100
AcDbLine
 10
0.3074872680132
 20
0.0307452825509694
 30
0.0
 11
0.3074872680131028
 21
0.0306739217121071
 31
0.0
  0
LWPOLYLINE
  5
58
330
45
100
AcDbEntity
  8
BLOCKS
  6
Continuous
100
AcDbPolyline
 90
       10
 70
   128
 43
0.0
 10
0.3074872680134621
 20
0.0307452825509677
 10
0.307499421811076
 20
0.030884242574079
 10
0.3075355139168852
 20
0.0310189803671978
 10
0.3075944476905198
 20
0.0311454019906586
 10
0.3076744324590845
 20
0.0312596661874062
 10
0.3077730379258599
 20
0.0313583010976385
 10
0.3078872680136402
 20
0.0314383097495153
 10
0.3080136518990031
 20
0.0314972611206389
 10
0.3081483494715383
 20
0.0315333640034254
 10
0.3082872680136706
 20
0.0315455214300488
  0
LINE
  5
59
330
45
100
AcDbEntity
  8
BLOCKS
  6
Continuous
100
AcDbLine
 10
0.3074872680132
 20
0.0307452825509694
 30
0.0
 11
0.3074872680132
 21
0.0303451631110289
 31
0.0
  0
LWPOLYLINE
  5
5A
330
45
100
AcDbEntity
  8
BLOCKS
  6
Continuous
100
AcDbPolyline
 90
       10
 70
   128
 43
0.0
 10
0.3074872680134621
 20
0.0303451631110261
 10
0.3074751142158448
 20
0.0302062030879165
 10
0.3074390221100356
 20
0.030071465294796
 10
0.30738008833641
 20
0.0299450436713318
 10
0.3073001035678527
 20
0.0298307794745773
 10
0.3072014981010824
 20
0.0297321445643371
 10
0.3070872680133169
 20
0.0296521359124432
 10
0.3069608841279631
 20
0.0295931845412992
 10
0.3068261865554314
 20
0.0295570816584876
 10
0.3066872680132991
 20
0.0295449242318341
  0
LINE
  5
5B
330
45
100
AcDbEntity
  8
BLOCKS
  6
Continuous
100
AcDbLine
 10
0.3066872680132991
 20
0.0295449242314231
 30
0.0
 11
0.2932872680141361
 21
0.0295449242314197
 31
0.0
  0
LWPOLYLINE
  5
5C
330
45
100
AcDbEntity
  8
BLOCKS
  6
Continuous
100
AcDbPolyline
 90
       10
 70
   128
 43
0.0
 10
0.2932872680141361
 20
0.0295449242317926
 10
0.293148349471964
 20
0.0295570816584103
 10
0.2930136518993851
 20
0.0295931845411923
 10
0.2928872680139818
 20
0.0296521359123148
 10
0.2927730379261601
 20
0.0297321445641978
 10
0.2926744324593375
 20
0.0298307794744386
 10
0.2925944476907234
 20
0.0299450436711982
 10
0.2925355139170415
 20
0.0300714652946812
 10
0.2924994218111852
 20
0.0302062030878273
 10
0.2924872680135258
 20
0.0303451631109715
  0
LINE
  5
5D
330
45
100
AcDbEntity
  8
BLOCKS
  6
Continuous
100
AcDbLine
 10
0.292487268013524
 20
0.0303451631109732
 30
0.0
 11
0.292487268013524
 21
0.030745282550663
 31
0.0
  0
LWPOLYLINE
  5
5E
330
45
100
AcDbEntity
  8
BLOCKS
  6
Continuous
100
AcDbPolyline
 90
       10
 70
   128
 43
0.0
 10
0.2916872680132684
 20
0.0315455214292041
 10
0.2918261865553694
 20
0.0315333640026546
 10
0.2919608841278904
 20
0.0314972611199409
 10
0.2920872680132425
 20
0.0314383097488889
 10
0.2922014981010204
 20
0.0313583010970774
 10
0.2923001035678107
 20
0.0312596661869083
 10
0.2923800883363918
 20
0.0311454019902209
 10
0.2924390221100503
 20
0.0310189803668089
 10
0.2924751142158846
 20
0.0308842425737356
 10
0.2924872680135275
 20
0.0307452825506647
  0
LINE
  5
5F
330
45
100
AcDbEntity
  8
BLOCKS
  6
Continuous
100
AcDbLine
 10
0.2916872680132673
 20
0.0315455214291995
 30
0.0
 11
0.2832872680148273
 21
0.0315455214306593
 31
0.0
  0
LWPOLYLINE
  5
60
330
45
100
AcDbEntity
  8
BLOCKS
  6
Continuous
100
AcDbPolyline
 90
       10
 70
   128
 43
0.0
 10
0.2824872680133273
 20
0.0307452825501667
 10
0.2824994218109049
 20
0.030884242573531
 10
0.2825355139167323
 20
0.031018980366905
 10
0.2825944476904397
 20
0.0311454019906091
 10
0.28267443245913
 20
0.0312596661875745
 10
0.2827730379260783
 20
0.0313583010979898
 10
0.282887268014062
 20
0.0314383097500121
 10
0.2830136518996539
 20
0.0314972611212301
 10
0.2831483494724409
 20
0.0315333640040552
 10
0.2832872680148313
 20
0.0315455214306627
  0
LINE
  5
61
330
45
100
AcDbEntity
  8
BLOCKS
  6
Continuous
100
AcDbLine
 10
0.2824872680133347
 20
0.0307452825501656
 30
0.0
 11
0.2824872680133331
 21
0.0303451631108573
 31
0.0
  0
LWPOLYLINE
  5
62
330
45
100
AcDbEntity
  8
BLOCKS
  6
Continuous
100
AcDbPolyline
 90
       10
 70
   128
 43
0.0
 10
0.2824872680133273
 20
0.0303451631108573
 10
0.2824751142156811
 20
0.0302062030877346
 10
0.2824390221098394
 20
0.0300714652946084
 10
0.2823800883361809
 20
0.0299450436711408
 10
0.2823001035675924
 20
0.0298307794743931
 10
0.2822014981007914
 20
0.0297321445641609
 10
0.2820872680129935
 20
0.0296521359122841
 10
0.2819608841276176
 20
0.0295931845411605
 10
0.2818261865550619
 20
0.0295570816583739
 10
0.281687268012912
 20
0.0295449242317477
  0
LWPOLYLINE
  5
63
330
45
100
AcDbEntity
  8
BLOCKS
  6
Continuous
100
AcDbPolyline
 90
       10
 70
   128
 43
0.0
 10
0.2682872680136199
 20
0.0295449242326407
 10
0.2681483494715912
 20
0.0295570816592294
 10
0.268013651899152
 20
0.0295931845419568
 10
0.267887268013871
 20
0.029652135913006
 10
0.2677730379261601
 20
0.0297321445647907
 10
0.2676744324594318
 20
0.0298307794749161
 10
0.2675944476908887
 20
0.0299450436715478
 10
0.2675355139172564
 20
0.0300714652948904
 10
0.2674994218114233
 20
0.0302062030878909
 10
0.2674872680137605
 20
0.030345163110888
  0
LINE
  5
64
330
45
100
AcDbEntity
  8
BLOCKS
  6
Continuous
100
AcDbLine
 10
0.2674872680137531
 20
0.030345163110888
 30
0.0
 11
0.2674872680137548
 21
0.0307452825512763
 31
0.0
  0
LWPOLYLINE
  5
65
330
45
100
AcDbEntity
  8
BLOCKS
  6
Continuous
100
AcDbPolyline
 90
        9
 70
   128
 43
0.0
 10
0.2666872680133991
 20
0.031545521430466
 10
0.2668433402710224
 20
0.0315301450648434
 10
0.2669934147593222
 20
0.0314846068729679
 10
0.2671317241998758
 20
0.0314106568620196
 10
0.2672529534384529
 20
0.0313111368894437
 10
0.2673524437034001
 20
0.0311898714519754
 10
0.2674263716396263
 20
0.0310515207123695
 10
0.2674718962380058
 20
0.0309014014119629
 10
0.2674872680137548
 20
0.0307452825512763
  0
LWPOLYLINE
  5
66
330
45
100
AcDbEntity
  8
BLOCKS
  6
Continuous
100
AcDbPolyline
 90
        9
 70
   128
 43
0.0
 10
0.3163474210640044
 20
0.0295449242329073
 10
0.3161294984238731
 20
0.0295599652705829
 10
0.3159205025454475
 20
0.029604522970381
 10
0.3157282898699952
 20
0.0296769223473535
 10
0.3155600859352154
 20
0.0297744418097705
 10
0.3154222137573589
 20
0.0298934154674959
 10
0.3153198561403872
 20
0.0300293709378099
 10
0.3152568608473092
 20
0.0301771974683987
 10
0.3152355959574482
 20
0.0303313380575423
  0
LINE
  5
67
330
45
100
AcDbEntity
  8
BLOCKS
  6
Continuous
100
AcDbLine
 10
0.3152355959572986
 20
0.0303313380575406
 30
0.0
 11
0.3152355959566711
 21
0.030759107604315
 31
0.0
  0
LWPOLYLINE
  5
68
330
45
100
AcDbEntity
  8
BLOCKS
  6
Continuous
100
AcDbPolyline
 90
        9
 70
   128
 43
0.0
 10
0.3141237708495748
 20
0.0315455214314858
 10
0.3143416934902388
 20
0.0315304803937323
 10
0.3145506893691516
 20
0.0314859226937557
 10
0.3147429020450101
 20
0.0314135233165183
 10
0.3149111059800918
 20
0.0313160038537575
 10
0.3150489781581229
 20
0.0311970301956376
 10
0.3151513357751128
 20
0.0310610747249001
 10
0.3152143310680611
 20
0.0309132481938804
 10
0.3152355959576352
 20
0.0307591076043258
  0
LINE
  5
69
330
45
100
AcDbEntity
  8
BLOCKS
  6
Continuous
100
AcDbLine
 10
0.2166255507477172
 20
0.0315455214304797
 30
0.0
 11
0.2082200595236452
 21
0.0315455214314164
 31
0.0
  0
LINE
  5
6A
330
45
100
AcDbEntity
  8
BLOCKS
  6
Continuous
100
AcDbLine
 10
0.2324337773333508
 20
0.030745271813434
 30
0.0
 11
0.2324337773333508
 21
0.0303451738476628
 31
0.0
  0
LWPOLYLINE
  5
6B
330
45
100
AcDbEntity
  8
BLOCKS
  6
Continuous
100
AcDbPolyline
 90
       10
 70
   128
 43
0.0
 10
0.2324337773333457
 20
0.0303451738476611
 10
0.2324216233268606
 20
0.0302062124866848
 10
0.2323855306069919
 20
0.0300714731420493
 10
0.2323265958514594
 20
0.0299450498703135
 10
0.2322466097934949
 20
0.0298307840440708
 10
0.2321480028104043
 20
0.0297321476317865
 10
0.2320337710765227
 20
0.0296521377019985
 10
0.231907385524425
 20
0.0295931853573626
 10
0.2317726863805791
 20
0.0295570818655568
 10
0.2316337664800551
 20
0.0295449242316016
  0
LINE
  5
6C
330
45
100
AcDbEntity
  8
BLOCKS
  6
Continuous
100
AcDbLine
 10
0.2316337664800557
 20
0.0295449242314049
 30
0.0
 11
0.2182255295221211
 21
0.0295449242314038
 31
0.0
  0
LWPOLYLINE
  5
6D
330
45
100
AcDbEntity
  8
BLOCKS
  6
Continuous
100
AcDbPolyline
 90
        9
 70
   128
 43
0.0
 10
0.2182255295221211
 20
0.0295449242322701
 10
0.2180694587631996
 20
0.0295603003360765
 10
0.2179193860263575
 20
0.02960583776259
 10
0.2177810784245094
 20
0.0296797865638467
 10
0.2176598509507193
 20
0.0297793049772753
 10
0.2175603622294955
 20
0.0299005686311807
 10
0.2174864354915036
 20
0.0300389175106983
 10
0.2174409116514425
 20
0.0301890350365051
 10
0.2174255401351701
 20
0.0303451523745088
  0
LINE
  5
6E
330
45
100
AcDbEntity
  8
BLOCKS
  6
Continuous
100
AcDbLine
 10
0.2174255401352747
 20
0.0303451523745076
 30
0.0
 11
0.2174255401352775
 21
0.0307452932873315
 31
0.0
  0
LWPOLYLINE
  5
6F
330
45
100
AcDbEntity
  8
BLOCKS
  6
Continuous
100
AcDbPolyline
 90
        9
 70
   128
 43
0.0
 10
0.2166255507477138
 20
0.0315455214303688
 10
0.2167816215067717
 20
0.0315301453265482
 10
0.2169316942437427
 20
0.0314846078999853
 10
0.2170700018457018
 20
0.0314106590986489
 10
0.2171912293195828
 20
0.0313111406851135
 10
0.2172907180408646
 20
0.0311898770310853
 10
0.2173646447788877
 20
0.0310515281514267
 10
0.2174101686189414
 20
0.0309014106254739
 10
0.2174255401351701
 20
0.0307452932873315
  0
LWPOLYLINE
  5
70
330
45
100
AcDbEntity
  8
BLOCKS
  6
Continuous
100
AcDbPolyline
 90
       10
 70
   128
 43
0.0
 10
0.2574872680135638
 20
0.0307452825505146
 10
0.2574994218110868
 20
0.0308842425736725
 10
0.2575355139168124
 20
0.0310189803668578
 10
0.2575944476903686
 20
0.0311454019904016
 10
0.2576744324588697
 20
0.0312596661872425
 10
0.2577730379255979
 20
0.0313583010975805
 10
0.2578872680133452
 20
0.0314383097495744
 10
0.2580136518986956
 20
0.0314972611208208
 10
0.2581483494712404
 20
0.0315333640037346
 10
0.2582872680134017
 20
0.0315455214304865
  0
LINE
  5
71
330
45
100
AcDbEntity
  8
BLOCKS
  6
Continuous
100
AcDbLine
 10
0.2574872680135638
 20
0.0307452825505146
 30
0.0
 11
0.2574872680135638
 21
0.0303451631113893
 31
0.0
  0
LWPOLYLINE
  5
72
330
45
100
AcDbEntity
  8
BLOCKS
  6
Continuous
100
AcDbPolyline
 90
       10
 70
   128
 43
0.0
 10
0.2574872680135695
 20
0.0303451631113899
 10
0.257475114216021
 20
0.0302062030883349
 10
0.257439022110292
 20
0.0300714652952564
 10
0.2573800883367466
 20
0.0299450436718195
 10
0.2573001035682762
 20
0.0298307794750798
 10
0.2572014981015957
 20
0.0297321445648373
 10
0.2570872680139155
 20
0.0296521359129264
 10
0.2569608841286453
 20
0.0295931845417505
 10
0.256826186556188
 20
0.0295570816588929
 10
0.256687268014125
 20
0.0295449242321814
  0
LINE
  5
73
330
45
100
AcDbEntity
  8
BLOCKS
  6
Continuous
100
AcDbLine
 10
0.2566872680141267
 20
0.0295449242314106
 30
0.0
 11
0.2433256935256895
 21
0.0295449242314084
 31
0.0
  0
LWPOLYLINE
  5
74
330
45
100
AcDbEntity
  8
BLOCKS
  6
Continuous
100
AcDbPolyline
 90
       10
 70
   128
 43
0.0
 10
0.2433256935256861
 20
0.0295449242317312
 10
0.2431867738995305
 20
0.029557081824168
 10
0.2430520750724435
 20
0.0295931851942982
 10
0.2429256898559351
 20
0.0296521373445302
 10
0.2428114584532369
 20
0.0297321470191804
 10
0.2427128517750396
 20
0.0298307831316191
 10
0.2426328659762282
 20
0.0299450486326094
 10
0.2425739314179691
 20
0.0300714715753765
 10
0.242537838821413
 20
0.0302062106103898
 10
0.2425256848567977
 20
0.0303451717044203
  0
LINE
  5
75
330
45
100
AcDbEntity
  8
BLOCKS
  6
Continuous
100
AcDbLine
 10
0.2425256848567977
 20
0.0303451717044214
 30
0.0
 11
0.2425256848567995
 21
0.030745273956249
 31
0.0
  0
LWPOLYLINE
  5
76
330
45
100
AcDbEntity
  8
BLOCKS
  6
Continuous
100
AcDbPolyline
 90
       10
 70
   128
 43
0.0
 10
0.2417256761890974
 20
0.0315455214294906
 10
0.2418645958152257
 20
0.0315333638370038
 10
0.2419992946422707
 20
0.0314972604668054
 10
0.242125679858712
 20
0.0314383083164927
 10
0.2422399112613192
 20
0.0313582986417527
 10
0.242338517939391
 20
0.0312596625292241
 10
0.2424185037380403
 20
0.0311453970281554
 10
0.2424774382961067
 20
0.0310189740853247
 10
0.2425135308924394
 20
0.0308842350502761
 10
0.2425256848567995
 20
0.030745273956249
  0
LINE
  5
77
330
45
100
AcDbEntity
  8
BLOCKS
  6
Continuous
100
AcDbLine
 10
0.2417256761890957
 20
0.0315455214294815
 30
0.0
 11
0.2332337881880647
 21
0.0315455214305752
 31
0.0
  0
LWPOLYLINE
  5
78
330
45
100
AcDbEntity
  8
BLOCKS
  6
Continuous
100
AcDbPolyline
 90
       10
 70
   128
 43
0.0
 10
0.2324337773333457
 20
0.0307452718134351
 10
0.2324459313397591
 20
0.0308842331746763
 10
0.2324820240596318
 20
0.0310189725195772
 10
0.2325409588152462
 20
0.0311453957915569
 10
0.2326209448733562
 20
0.0312596616180139
 10
0.2327195518566469
 20
0.0313582980304597
 10
0.232833783590774
 20
0.0314383079603437
 10
0.2329601691431447
 20
0.0314972603050041
 10
0.2330948682872685
 20
0.0315333637967575
 10
0.2332337881880659
 20
0.0315455214305797
  0
LINE
  5
79
330
45
100
AcDbEntity
  8
BLOCKS
  6
Continuous
100
AcDbLine
 10
0.1916118220836023
 20
0.0315455214310356
 30
0.0
 11
0.1832063308584372
 21
0.0315455214301704
 31
0.0
  0
LINE
  5
7A
330
45
100
AcDbEntity
  8
BLOCKS
  6
Continuous
100
AcDbLine
 10
0.1824063200042991
 20
0.0303451738477492
 30
0.0
 11
0.1824055121127265
 21
0.0303092190674983
 31
0.0
  0
LINE
  5
7B
330
45
100
AcDbEntity
  8
BLOCKS
  6
Continuous
100
AcDbLine
 10
0.1824063200042991
 20
0.0307452718135227
 30
0.0
 11
0.1823942136001295
 21
0.0302064828021656
 31
0.0
  0
LWPOLYLINE
  5
7C
330
45
100
AcDbEntity
  8
BLOCKS
  6
Continuous
100
AcDbPolyline
 90
       10
 70
   128
 43
0.0
 10
0.1824063200043281
 20
0.0307452718135227
 10
0.1824184740107637
 20
0.0308842331746513
 10
0.1824545667306273
 20
0.031018972519442
 10
0.1825135014862019
 20
0.0311453957913176
 10
0.1825934875442516
 20
0.0312596616176802
 10
0.1826920945274622
 20
0.0313582980300521
 10
0.1828063262614859
 20
0.0314383079598878
 10
0.1829327118137473
 20
0.0314972603045266
 10
0.1830674109577586
 20
0.0315333637962817
 10
0.1832063308584355
 20
0.0315455214301409
  0
LINE
  5
7D
330
45
100
AcDbEntity
  8
BLOCKS
  6
Continuous
100
AcDbLine
 10
0.1824063200042991
 20
0.0307452718135227
 30
0.0
 11
0.1824063200042991
 21
0.0303451738477492
 31
0.0
  0
LWPOLYLINE
  5
7E
330
45
100
AcDbEntity
  8
BLOCKS
  6
Continuous
100
AcDbPolyline
 90
       10
 70
   128
 43
0.0
 10
0.1824063200043628
 20
0.0303451738477475
 10
0.1823941659979181
 20
0.030206212486674
 10
0.1823580732780709
 20
0.0300714731419345
 10
0.1822991385225424
 20
0.0299450498700941
 10
0.1822191524645649
 20
0.0298307840437451
 10
0.1821205454814452
 20
0.029732147631359
 10
0.1820063137475199
 20
0.0296521377014756
 10
0.1818799281953568
 20
0.0295931853567521
 10
0.1817452290514365
 20
0.0295570818648724
 10
0.1816063091508192
 20
0.0295449242308564
  0
LINE
  5
7F
330
45
100
AcDbEntity
  8
BLOCKS
  6
Continuous
100
AcDbLine
 10
0.2074200486688324
 20
0.0303451738475468
 30
0.0
 11
0.2074192407772688
 21
0.0303092190677086
 31
0.0
  0
LINE
  5
80
330
45
100
AcDbEntity
  8
BLOCKS
  6
Continuous
100
AcDbLine
 10
0.2074200486688324
 20
0.0307452718136887
 30
0.0
 11
0.2074079422646736
 21
0.0302064828023163
 31
0.0
  0
LWPOLYLINE
  5
81
330
45
100
AcDbEntity
  8
BLOCKS
  6
Continuous
100
AcDbPolyline
 90
       10
 70
   128
 43
0.0
 10
0.207420048668925
 20
0.0307452718136898
 10
0.2074322026753061
 20
0.0308842331749753
 10
0.2074682953951549
 20
0.0310189725199251
 10
0.207527230150751
 20
0.0311453957919588
 10
0.2076072162088519
 20
0.0312596616184686
 10
0.2077058231921427
 20
0.0313582980309724
 10
0.2078200549262755
 20
0.0314383079609155
 10
0.207946440478666
 20
0.0314972603056361
 10
0.2080811396228154
 20
0.0315333637974453
 10
0.2082200595236492
 20
0.031545521431321
  0
LINE
  5
82
330
45
100
AcDbEntity
  8
BLOCKS
  6
Continuous
100
AcDbLine
 10
0.2074200486688324
 20
0.0307452718136887
 30
0.0
 11
0.2074200486688324
 21
0.0303451738475468
 31
0.0
  0
LWPOLYLINE
  5
83
330
45
100
AcDbEntity
  8
BLOCKS
  6
Continuous
100
AcDbPolyline
 90
       10
 70
   128
 43
0.0
 10
0.2074200486689034
 20
0.0303451738475468
 10
0.2074078946624076
 20
0.0302062124865273
 10
0.207371801942524
 20
0.0300714731418481
 10
0.2073128671869665
 20
0.0299450498700759
 10
0.2072328811289765
 20
0.029830784043798
 10
0.2071342741458545
 20
0.0297321476314841
 10
0.2070200424119401
 20
0.0296521377016728
 10
0.2068936568597991
 20
0.0295931853570204
 10
0.2067589577159117
 20
0.0295570818652027
 10
0.2066200378153434
 20
0.0295449242312446
  0
LINE
  5
84
330
45
100
AcDbEntity
  8
BLOCKS
  6
Continuous
100
AcDbLine
 10
0.2066200378153434
 20
0.0295449242313993
 30
0.0
 11
0.1932118008582864
 21
0.029544924231397
 31
0.0
  0
LWPOLYLINE
  5
85
330
45
100
AcDbEntity
  8
BLOCKS
  6
Continuous
100
AcDbPolyline
 90
        9
 70
   128
 43
0.0
 10
0.1932118008582864
 20
0.0295449242313293
 10
0.1930557300991961
 20
0.0295603003351249
 10
0.1929056573621847
 20
0.0296058377616618
 10
0.1927673497601711
 20
0.0296797865629736
 10
0.1926461222862338
 20
0.0297793049764874
 10
0.1925466335648809
 20
0.0299005686305031
 10
0.1924727068267828
 20
0.0300389175101549
 10
0.1924271829866455
 20
0.0301890350361163
 10
0.1924118114703299
 20
0.030345152374282
  0
LINE
  5
86
330
45
100
AcDbEntity
  8
BLOCKS
  6
Continuous
100
AcDbLine
 10
0.1924118114706425
 20
0.0303451523742814
 30
0.0
 11
0.1924118114706425
 21
0.0307452932869518
 31
0.0
  0
LWPOLYLINE
  5
87
330
45
100
AcDbEntity
  8
BLOCKS
  6
Continuous
100
AcDbPolyline
 90
        9
 70
   128
 43
0.0
 10
0.1916118220836023
 20
0.031545521430732
 10
0.1917678928426511
 20
0.0315301453267802
 10
0.1919179655795881
 20
0.0314846079000859
 10
0.1920562731814891
 20
0.0314106590986245
 10
0.1921775006552809
 20
0.0313111406849771
 10
0.192276989376457
 20
0.0311898770308494
 10
0.1923509161143528
 20
0.0310515281511175
 10
0.1923964399542609
 20
0.0309014106251158
 10
0.192411811470335
 20
0.0307452932869524
  0
LINE
  5
88
330
45
100
AcDbEntity
  8
BLOCKS
  6
Continuous
100
AcDbLine
 10
0.2074202506672998
 20
0.0307632537407011
 30
0.0
 11
0.2074077107939519
 21
0.0302051734185767
 31
0.0
  0
LINE
  5
89
330
45
100
AcDbEntity
  8
BLOCKS
  6
Continuous
100
AcDbLine
 10
0.2666872680133991
 20
0.031545521430466
 30
0.0
 11
0.2582872680134022
 21
0.0315455214304853
 31
0.0
  0
LWPOLYLINE
  5
8A
330
45
100
AcDbEntity
  8
BLOCKS
  6
Continuous
100
AcDbPolyline
 90
       10
 70
   128
 43
0.0
 10
0.1074872680138895
 20
0.0307452825497654
 10
0.1074994218112505
 20
0.030884242573004
 10
0.1075355139168505
 20
0.0310189803662905
 10
0.1075944476903231
 20
0.0311454019899452
 10
0.107674432458777
 20
0.0312596661868997
 10
0.1077730379254962
 20
0.0313583010973412
 10
0.1078872680132633
 20
0.0314383097494209
 10
0.1080136518986575
 20
0.0314972611207276
 10
0.1081483494712637
 20
0.031533364003671
 10
0.1082872680134926
 20
0.0315455214304183
  0
LINE
  5
8B
330
45
100
AcDbEntity
  8
BLOCKS
  6
Continuous
100
AcDbLine
 10
0.1074872680136332
 20
0.0307452825497643
 30
0.0
 11
0.1074872680136303
 21
0.030345163110789
 31
0.0
  0
LWPOLYLINE
  5
8C
330
45
100
AcDbEntity
  8
BLOCKS
  6
Continuous
100
AcDbPolyline
 90
       10
 70
   128
 43
0.0
 10
0.1074872680139259
 20
0.030345163110789
 10
0.1074751142162705
 20
0.0302062030876772
 10
0.1074390221104193
 20
0.0300714652945612
 10
0.1073800883367505
 20
0.0299450436711101
 10
0.1073001035681563
 20
0.0298307794743772
 10
0.1072014981013552
 20
0.0297321445641609
 10
0.1070872680135608
 20
0.0296521359122988
 10
0.1069608841281871
 20
0.0295931845411911
 10
0.1068261865556372
 20
0.0295570816584194
 10
0.1066872680134992
 20
0.0295449242318063
  0
LWPOLYLINE
  5
8D
330
45
100
AcDbEntity
  8
BLOCKS
  6
Continuous
100
AcDbPolyline
 90
       10
 70
   128
 43
0.0
 10
0.1432872680137342
 20
0.029544924231804
 10
0.1431483494715678
 20
0.0295570816584819
 10
0.1430136518990065
 20
0.0295931845413247
 10
0.1428872680136271
 20
0.0296521359125058
 10
0.1427730379258418
 20
0.0297321445644389
 10
0.1426744324590646
 20
0.0298307794747251
 10
0.1425944476905033
 20
0.0299450436715228
 10
0.1425355139168795
 20
0.0300714652950336
 10
0.1424994218110868
 20
0.0302062030881967
 10
0.1424872680134894
 20
0.030345163111349
  0
LINE
  5
8E
330
45
100
AcDbEntity
  8
BLOCKS
  6
Continuous
100
AcDbLine
 10
0.1424872680134985
 20
0.0303451631113484
 30
0.0
 11
0.1424872680134985
 21
0.0307452825533886
 31
0.0
  0
LWPOLYLINE
  5
8F
330
45
100
AcDbEntity
  8
BLOCKS
  6
Continuous
100
AcDbPolyline
 90
        9
 70
   128
 43
0.0
 10
0.1416872680132735
 20
0.0315455214302386
 10
0.1418433402705767
 20
0.0315301450646297
 10
0.1419934147585838
 20
0.0314846068728917
 10
0.1421317241989084
 20
0.0314106568621918
 10
0.1422529534373524
 20
0.0313111368899553
 10
0.1423524437022797
 20
0.031189871452886
 10
0.1424263716386258
 20
0.0310515207137064
 10
0.1424718962372651
 20
0.0309014014137125
 10
0.1424872680134166
 20
0.0307452825533886
  0
LINE
  5
90
330
45
100
AcDbEntity
  8
BLOCKS
  6
Continuous
100
AcDbLine
 10
0.1416872680132735
 20
0.0315455214303205
 30
0.0
 11
0.133287268013978
 21
0.0315455214295321
 31
0.0
  0
LWPOLYLINE
  5
91
330
45
100
AcDbEntity
  8
BLOCKS
  6
Continuous
100
AcDbPolyline
 90
       10
 70
   128
 43
0.0
 10
0.1324872680136531
 20
0.03074528255026
 10
0.1324994218111925
 20
0.0308842425734469
 10
0.1325355139169472
 20
0.0310189803666521
 10
0.1325944476905562
 20
0.0311454019902044
 10
0.1326744324591226
 20
0.0312596661870356
 10
0.1327730379259236
 20
0.0313583010973412
 10
0.1328872680137454
 20
0.03143830974928
 10
0.1330136518991668
 20
0.0314972611204416
 10
0.133148349471773
 20
0.0315333640032446
 10
0.133287268013978
 20
0.0315455214298595
  0
LINE
  5
92
330
45
100
AcDbEntity
  8
BLOCKS
  6
Continuous
100
AcDbLine
 10
0.1324872680139941
 20
0.0307452825502583
 30
0.0
 11
0.1324872680139941
 21
0.0303451631109846
 31
0.0
  0
LWPOLYLINE
  5
93
330
45
100
AcDbEntity
  8
BLOCKS
  6
Continuous
100
AcDbPolyline
 90
       10
 70
   128
 43
0.0
 10
0.1324872680135894
 20
0.0303451631109846
 10
0.1324751142159613
 20
0.0302062030878102
 10
0.1324390221101282
 20
0.0300714652946289
 10
0.1323800883364703
 20
0.0299450436711072
 10
0.1323001035678652
 20
0.0298307794743073
 10
0.132201498101046
 20
0.029732144564025
 10
0.1320872680132226
 20
0.029652135912101
 10
0.1319608841278085
 20
0.0295931845409376
 10
0.1318261865552114
 20
0.0295570816581153
 10
0.1316872680130172
 20
0.0295449242314641
  0
LINE
  5
94
330
45
100
AcDbEntity
  8
BLOCKS
  6
Continuous
100
AcDbLine
 10
0.1316872680130172
 20
0.0295449242313833
 30
0.0
 11
0.1182872680138752
 21
0.0295449242313811
 31
0.0
  0
LWPOLYLINE
  5
95
330
45
100
AcDbEntity
  8
BLOCKS
  6
Continuous
100
AcDbPolyline
 90
       10
 70
   128
 43
0.0
 10
0.1182872680138746
 20
0.0295449242326782
 10
0.1181483494718515
 20
0.0295570816592198
 10
0.1180136518994033
 20
0.0295931845418994
 10
0.1178872680141132
 20
0.0296521359128991
 10
0.1177730379263801
 20
0.0297321445646406
 10
0.1176744324596177
 20
0.0298307794747257
 10
0.1175944476910416
 20
0.0299450436713249
 10
0.1175355139173689
 20
0.0300714652946402
 10
0.117499421811487
 20
0.0302062030876209
 10
0.1174872680137787
 20
0.0303451631106071
  0
LINE
  5
96
330
45
100
AcDbEntity
  8
BLOCKS
  6
Continuous
100
AcDbLine
 10
0.1174872680137275
 20
0.0303451631106077
 30
0.0
 11
0.1174872680137304
 21
0.0307452825487707
 31
0.0
  0
LWPOLYLINE
  5
97
330
45
100
AcDbEntity
  8
BLOCKS
  6
Continuous
100
AcDbPolyline
 90
       10
 70
   128
 43
0.0
 10
0.1166872680141489
 20
0.0315455214309554
 10
0.1168261865565211
 20
0.0315333640041223
 10
0.1169608841292495
 20
0.031497261121055
 10
0.1170872680147357
 20
0.0314383097495892
 10
0.1172014981025558
 20
0.0313583010973258
 10
0.117300103569284
 20
0.0312596661866832
 10
0.1173800883377015
 20
0.0311454019895194
 10
0.1174390221110889
 20
0.0310189803656562
 10
0.1174751142165508
 20
0.0308842425721781
 10
0.1174872680137258
 20
0.0307452825487707
  0
LINE
  5
98
330
45
100
AcDbEntity
  8
BLOCKS
  6
Continuous
100
AcDbLine
 10
0.1166872680141495
 20
0.03154552143096
 30
0.0
 11
0.1082872680134932
 21
0.0315455214306775
 31
0.0
  0
LINE
  5
99
330
45
100
AcDbEntity
  8
BLOCKS
  6
Continuous
100
AcDbLine
 10
0.0816872680130217
 20
0.0295449242313743
 30
0.0
 11
0.0682872680138525
 21
0.029544924231372
 31
0.0
  0
LINE
  5
9A
330
45
100
AcDbEntity
  8
BLOCKS
  6
Continuous
100
AcDbLine
 10
0.0416872680136493
 20
0.0315455214303779
 30
0.0
 11
0.0332872680134705
 21
0.0315455214301636
 31
0.0
  0
LWPOLYLINE
  5
9B
330
45
100
AcDbEntity
  8
BLOCKS
  6
Continuous
100
AcDbPolyline
 90
       10
 70
   128
 43
0.0
 10
0.0682872680138525
 20
0.0295449242321632
 10
0.0681483494717475
 20
0.0295570816588128
 10
0.0680136518992396
 20
0.0295931845416198
 10
0.0678872680139074
 20
0.0296521359127496
 10
0.0677730379261601
 20
0.0297321445646316
 10
0.0676744324594103
 20
0.0298307794748547
 10
0.0675944476908654
 20
0.0299450436715893
 10
0.067535513917249
 20
0.0300714652950325
 10
0.0674994218114472
 20
0.0302062030881302
 10
0.067487268013835
 20
0.0303451631112165
  0
LINE
  5
9C
330
45
100
AcDbEntity
  8
BLOCKS
  6
Continuous
100
AcDbLine
 10
0.067487268013997
 20
0.0303451631112165
 30
0.0
 11
0.0674872680139942
 21
0.0307452825510285
 31
0.0
  0
LWPOLYLINE
  5
9D
330
45
100
AcDbEntity
  8
BLOCKS
  6
Continuous
100
AcDbPolyline
 90
        9
 70
   128
 43
0.0
 10
0.0666872680137811
 20
0.0315455214293269
 10
0.0668433402712901
 20
0.0315301450637634
 10
0.0669934147594933
 20
0.0314846068719697
 10
0.0671317241999685
 20
0.0314106568611254
 10
0.0672529534384893
 20
0.0313111368886706
 10
0.0673524437034092
 20
0.031189871451333
 10
0.0674263716396371
 20
0.031051520711863
 10
0.0674718962380496
 20
0.0309014014115877
 10
0.0674872680138572
 20
0.0307452825510268
  0
LINE
  5
9E
330
45
100
AcDbEntity
  8
BLOCKS
  6
Continuous
100
AcDbLine
 10
0.0666872680137811
 20
0.0315455214294667
 30
0.0
 11
0.0582872680144664
 21
0.0315455214299362
 31
0.0
  0
LWPOLYLINE
  5
9F
330
45
100
AcDbEntity
  8
BLOCKS
  6
Continuous
100
AcDbPolyline
 90
        9
 70
   128
 43
0.0
 10
0.0574872680139822
 20
0.0307452825513082
 10
0.0575026397897989
 20
0.0309014014119447
 10
0.057548164388233
 20
0.0310515207122921
 10
0.0576220923245012
 20
0.031189871451827
 10
0.0577215825894717
 20
0.0313111368892209
 10
0.0578428118280562
 20
0.0314106568617194
 10
0.0579811212686065
 20
0.0314846068725933
 10
0.0581311957568823
 20
0.0315301450643978
 10
0.0582872680144692
 20
0.031545521429959
  0
LINE
  5
A0
330
45
100
AcDbEntity
  8
BLOCKS
  6
Continuous
100
AcDbLine
 10
0.0574872680140032
 20
0.0307452825513082
 30
0.0
 11
0.0574872680140032
 21
0.0303451631108351
 31
0.0
  0
LWPOLYLINE
  5
A1
330
45
100
AcDbEntity
  8
BLOCKS
  6
Continuous
100
AcDbPolyline
 90
       10
 70
   128
 43
0.0
 10
0.0574872680139805
 20
0.0303451631108368
 10
0.0574751142163194
 20
0.0302062030875936
 10
0.0574390221104449
 20
0.0300714652943538
 10
0.0573800883367284
 20
0.0299450436707792
 10
0.057300103568067
 20
0.0298307794739338
 10
0.0572014981011807
 20
0.029732144563622
 10
0.0570872680132823
 20
0.0296521359116781
 10
0.0569608841277943
 20
0.029593184540509
 10
0.0568261865551239
 20
0.0295570816576952
 10
0.0566872680128552
 20
0.0295449242310628
  0
LINE
  5
A2
330
45
100
AcDbEntity
  8
BLOCKS
  6
Continuous
100
AcDbLine
 10
0.0566872680128535
 20
0.0295449242313686
 30
0.0
 11
0.0432872680132903
 21
0.0295449242313652
 31
0.0
  0
LWPOLYLINE
  5
A3
330
45
100
AcDbEntity
  8
BLOCKS
  6
Continuous
100
AcDbPolyline
 90
       10
 70
   128
 43
0.0
 10
0.0432872680132903
 20
0.0295449242326566
 10
0.0431483494712711
 20
0.0295570816592925
 10
0.0430136518988428
 20
0.0295931845420699
 10
0.0428872680135891
 20
0.0296521359131606
 10
0.0427730379259072
 20
0.0297321445649863
 10
0.0426744324592136
 20
0.029830779475144
 10
0.0425944476907142
 20
0.029945043671803
 10
0.0425355139171268
 20
0.0300714652951655
 10
0.0424994218113415
 20
0.0302062030881774
 10
0.0424872680137276
 20
0.030345163111179
  0
LINE
  5
A4
330
45
100
AcDbEntity
  8
BLOCKS
  6
Continuous
100
AcDbLine
 10
0.0424872680137168
 20
0.0303451631111779
 30
0.0
 11
0.0424872680137168
 21
0.0307452825502145
 31
0.0
  0
LWPOLYLINE
  5
A5
330
45
100
AcDbEntity
  8
BLOCKS
  6
Continuous
100
AcDbPolyline
 90
       10
 70
   128
 43
0.0
 10
0.0416872680136504
 20
0.0315455214303825
 10
0.0418261865558623
 20
0.0315333640036619
 10
0.0419608841284617
 20
0.0314972611207628
 10
0.0420872680138609
 20
0.0314383097495141
 10
0.0422014981016503
 20
0.0313583010974998
 10
0.0423001035684166
 20
0.0312596661871311
 10
0.0423800883369393
 20
0.0311454019902493
 10
0.0424390221105051
 20
0.0310189803666577
 10
0.0424751142162194
 20
0.0308842425734241
 10
0.0424872680137185
 20
0.0307452825502145
  0
LINE
  5
A6
330
45
100
AcDbEntity
  8
BLOCKS
  6
Continuous
100
AcDbLine
 10
0.0316872680137703
 20
0.0295449242313629
 30
0.0
 11
0.01828726801443
 21
0.0295449242313606
 31
0.0
  0
LWPOLYLINE
  5
A7
330
45
100
AcDbEntity
  8
BLOCKS
  6
Continuous
100
AcDbPolyline
 90
       10
 70
   128
 43
0.0
 10
0.0182872680144311
 20
0.0295449242316607
 10
0.0181483494722369
 20
0.0295570816583245
 10
0.0180136518996449
 20
0.0295931845411565
 10
0.0178872680142405
 20
0.0296521359123307
 10
0.0177730379264222
 20
0.0297321445642643
 10
0.0176744324596138
 20
0.0298307794745523
 10
0.0175944476910235
 20
0.029945043671359
 10
0.0175355139173723
 20
0.0300714652948835
 10
0.0174994218115506
 20
0.030206203088066
 10
0.017487268013935
 20
0.0303451631112381
  0
LINE
  5
A8
330
45
100
AcDbEntity
  8
BLOCKS
  6
Continuous
100
AcDbLine
 10
0.0174872680139487
 20
0.030345163111237
 30
0.0
 11
0.0174872680139487
 21
0.030745282550626
 31
0.0
  0
LWPOLYLINE
  5
A9
330
45
100
AcDbEntity
  8
BLOCKS
  6
Continuous
100
AcDbPolyline
 90
       10
 70
   128
 43
0.0
 10
0.0166872680130882
 20
0.0315455214299578
 10
0.0168261865553058
 20
0.0315333640033737
 10
0.0169608841279359
 20
0.0314972611206116
 10
0.0170872680133897
 20
0.0314383097494925
 10
0.0172014981012609
 20
0.0313583010975958
 10
0.0173001035681199
 20
0.0312596661873317
 10
0.0173800883367613
 20
0.0311454019905358
 10
0.017439022110454
 20
0.031018980367009
 10
0.0174751142163086
 20
0.0308842425738175
 10
0.0174872680139515
 20
0.030745282550626
  0
LWPOLYLINE
  5
AA
330
45
100
AcDbEntity
  8
BLOCKS
  6
Continuous
100
AcDbPolyline
 90
       10
 70
   128
 43
0.0
 10
0.0324872680138805
 20
0.0307452825505124
 10
0.0324994218114125
 20
0.0308842425736117
 10
0.0325355139171342
 20
0.031018980366735
 10
0.0325944476906835
 20
0.031145401990218
 10
0.032674432459163
 20
0.0312596661870026
 10
0.03277303792586
 20
0.0313583010972883
 10
0.0328872680135675
 20
0.0314383097492367
 10
0.0330136518988684
 20
0.0314972611204445
 10
0.0331483494713638
 20
0.0315333640033254
 10
0.0332872680134705
 20
0.0315455214300545
  0
LINE
  5
AB
330
45
100
AcDbEntity
  8
BLOCKS
  6
Continuous
100
AcDbLine
 10
0.0324872680137668
 20
0.0307452825505124
 30
0.0
 11
0.0324872680137668
 21
0.0303451631110733
 31
0.0
  0
LWPOLYLINE
  5
AC
330
45
100
AcDbEntity
  8
BLOCKS
  6
Continuous
100
AcDbPolyline
 90
       10
 70
   128
 43
0.0
 10
0.0324872680138896
 20
0.0303451631110716
 10
0.032475114216283
 20
0.0302062030879603
 10
0.0324390221104812
 20
0.0300714652948381
 10
0.0323800883368597
 20
0.0299450436713681
 10
0.0323001035683092
 20
0.0298307794746114
 10
0.0322014981015463
 20
0.0297321445643644
 10
0.0320872680137808
 20
0.0296521359124631
 10
0.031960884128431
 20
0.0295931845413139
 10
0.0318261865559026
 20
0.0295570816584956
 10
0.0316872680137703
 20
0.0295449242318358
  0
LWPOLYLINE
  5
AD
330
45
100
AcDbEntity
  8
BLOCKS
  6
Continuous
100
AcDbPolyline
 90
       10
 70
   128
 43
0.0
 10
0.0932872680145948
 20
0.029544924231293
 10
0.0931483494723318
 20
0.0295570816579374
 10
0.0930136518996705
 20
0.0295931845407591
 10
0.0928872680141933
 20
0.0296521359119356
 10
0.0927730379263113
 20
0.0297321445638841
 10
0.0926744324594358
 20
0.029830779474201
 10
0.092594447690787
 20
0.0299450436710453
 10
0.0925355139170853
 20
0.0300714652946158
 10
0.0924994218112232
 20
0.0302062030878545
 10
0.0924872680135769
 20
0.0303451631110892
  0
LINE
  5
AE
330
45
100
AcDbEntity
  8
BLOCKS
  6
Continuous
100
AcDbLine
 10
0.0924872680138185
 20
0.0303451631110892
 30
0.0
 11
0.0924872680138185
 21
0.030745282550883
 31
0.0
  0
LWPOLYLINE
  5
AF
330
45
100
AcDbEntity
  8
BLOCKS
  6
Continuous
100
AcDbPolyline
 90
       10
 70
   128
 43
0.0
 10
0.0916872680125698
 20
0.0315455214307798
 10
0.0918261865548402
 20
0.0315333640041377
 10
0.0919608841275141
 20
0.0314972611213102
 10
0.0920872680129986
 20
0.0314383097501258
 10
0.0922014981008863
 20
0.031358301098166
 10
0.0923001035677618
 20
0.0312596661878348
 10
0.0923800883364049
 20
0.0311454019909746
 10
0.0924390221100993
 20
0.0310189803673865
 10
0.0924751142159465
 20
0.0308842425741318
 10
0.0924872680135769
 20
0.0307452825508841
  0
LINE
  5
B0
330
45
100
AcDbEntity
  8
BLOCKS
  6
Continuous
100
AcDbLine
 10
0.0916872680125698
 20
0.0315455214310231
 30
0.0
 11
0.0832872680134159
 21
0.0315455214297748
 31
0.0
  0
LWPOLYLINE
  5
B1
330
45
100
AcDbEntity
  8
BLOCKS
  6
Continuous
100
AcDbPolyline
 90
        9
 70
   128
 43
0.0
 10
0.0824872680137986
 20
0.0307452825519607
 10
0.0825026397896755
 20
0.0309014014123955
 10
0.0825481643881057
 20
0.0310515207125417
 10
0.0826220923243119
 20
0.0311898714518907
 10
0.0827215825891682
 20
0.0313111368891276
 10
0.082842811827594
 20
0.031410656861512
 10
0.082981121267955
 20
0.0314846068723279
 10
0.0831311957560291
 20
0.0315301450641295
 10
0.0832872680134159
 20
0.0315455214297521
  0
LINE
  5
B2
330
45
100
AcDbEntity
  8
BLOCKS
  6
Continuous
100
AcDbLine
 10
0.0824872680137713
 20
0.0307452825519607
 30
0.0
 11
0.0824872680137713
 21
0.0303451631107868
 31
0.0
  0
LWPOLYLINE
  5
B3
330
45
100
AcDbEntity
  8
BLOCKS
  6
Continuous
100
AcDbPolyline
 90
       10
 70
   128
 43
0.0
 10
0.0824872680137952
 20
0.0303451631107868
 10
0.0824751142161324
 20
0.0302062030876147
 10
0.0824390221102687
 20
0.030071465294443
 10
0.0823800883365738
 20
0.0299450436709361
 10
0.0823001035679454
 20
0.0298307794741544
 10
0.0822014981011006
 20
0.0297321445638971
 10
0.082087268013255
 20
0.029652135912001
 10
0.0819608841278267
 20
0.0295931845408694
 10
0.0818261865552188
 20
0.0295570816580806
 10
0.0816872680130212
 20
0.0295449242314629
  0
LINE
  5
B4
330
45
100
AcDbEntity
  8
BLOCKS
  6
Continuous
100
AcDbLine
 10
0.1066872680134992
 20
0.0295449242313788
 30
0.0
 11
0.0932872680145937
 21
0.0295449242313748
 31
0.0
  0
LINE
  5
B5
330
45
100
AcDbEntity
  8
BLOCKS
  6
Continuous
100
AcDbLine
 10
0.1816063091508221
 20
0.0295449242313947
 30
0.0
 11
0.1432872680137359
 21
0.0295449242313856
 31
0.0
  0
LWPOLYLINE
  5
B6
330
45
100
AcDbEntity
  8
BLOCKS
  6
Continuous
100
AcDbPolyline
 90
       10
 70
   128
 43
0.0
 10
-0.0175127319867141
 20
0.0307452825506249
 10
-0.0175005781891241
 20
0.0308842425738197
 10
-0.0174644860833206
 20
0.0310189803670272
 10
-0.0174055523096729
 20
0.0311454019905728
 10
-0.0173255675410735
 20
0.0312596661873971
 10
-0.0172269620742492
 20
0.0313583010976976
 10
-0.017112731986411
 20
0.0314383097496335
 10
-0.016986348100977
 20
0.0314972611207981
 10
-0.0168516505283634
 20
0.0315333640036118
 10
-0.0167127319861476
 20
0.0315455214302443
  0
LINE
  5
B7
330
45
100
AcDbEntity
  8
BLOCKS
  6
Continuous
100
AcDbLine
 10
-0.0183127319867555
 20
0.0295449242313515
 30
0.0
 11
-0.031712731986616
 21
0.0295449242313492
 31
0.0
  0
LINE
  5
B8
330
45
100
AcDbEntity
  8
BLOCKS
  6
Continuous
100
AcDbLine
 10
-0.0083127319870692
 20
0.0315455214299658
 30
0.0
 11
-0.0167127319861476
 21
0.0315455214302398
 31
0.0
  0
LINE
  5
B9
330
45
100
AcDbEntity
  8
BLOCKS
  6
Continuous
100
AcDbLine
 10
-0.0175127319867198
 20
0.030745282550626
 30
0.0
 11
-0.0175127319867198
 21
0.0303451631112392
 31
0.0
  0
LWPOLYLINE
  5
BA
330
45
100
AcDbEntity
  8
BLOCKS
  6
Continuous
100
AcDbPolyline
 90
       10
 70
   128
 43
0.0
 10
-0.0175127319867289
 20
0.0303451631112381
 10
-0.0175248857843099
 20
0.0302062030881103
 10
-0.0175609778900878
 20
0.0300714652949688
 10
-0.017619911663686
 20
0.029945043671475
 10
-0.0176998964322201
 20
0.0298307794746893
 10
-0.0177985018989722
 20
0.0297321445644133
 10
-0.0179127319867303
 20
0.0296521359124813
 10
-0.0180391158720806
 20
0.0295931845413003
 10
-0.0181738134446141
 20
0.029557081658449
 10
-0.0183127319867555
 20
0.0295449242317585
  0
LWPOLYLINE
  5
BB
330
45
100
AcDbEntity
  8
BLOCKS
  6
Continuous
100
AcDbPolyline
 90
        9
 70
   128
 43
0.0
 10
0.0074872680137588
 20
0.0307452825517925
 10
0.0075026397896244
 20
0.0309014014123619
 10
0.0075481643880801
 20
0.0310515207126395
 10
0.0076220923243375
 20
0.0311898714521118
 10
0.0077215825892716
 20
0.0313111368894556
 10
0.0078428118277981
 20
0.0314106568619286
 10
0.007981121268275
 20
0.0314846068728053
 10
0.0081311957564787
 20
0.031530145064641
 10
0.008287268013998
 20
0.0315455214302682
  0
LINE
  5
BC
330
45
100
AcDbEntity
  8
BLOCKS
  6
Continuous
100
AcDbLine
 10
0.0074872680137577
 20
0.0307452825517925
 30
0.0
 11
0.0074872680137577
 21
0.0303451631105708
 31
0.0
  0
LWPOLYLINE
  5
BD
330
45
100
AcDbEntity
  8
BLOCKS
  6
Continuous
100
AcDbPolyline
 90
       10
 70
   128
 43
0.0
 10
0.0074872680137662
 20
0.0303451631105713
 10
0.0074751142160665
 20
0.0302062030874066
 10
0.0074390221101646
 20
0.0300714652942469
 10
0.007380088336439
 20
0.0299450436707588
 10
0.0073001035677817
 20
0.0298307794740009
 10
0.0072014981009113
 20
0.0297321445637721
 10
0.0070872680130481
 20
0.0296521359119083
 10
0.0069608841276067
 20
0.0295931845408126
 10
0.0068261865549931
 20
0.0295570816580624
 10
0.0066872680127955
 20
0.0295449242314834
  0
LINE
  5
BE
330
45
100
AcDbEntity
  8
BLOCKS
  6
Continuous
100
AcDbLine
 10
0.0066872680127943
 20
0.0295449242313583
 30
0.0
 11
-0.0067127319855126
 21
0.0295449242313549
 31
0.0
  0
LWPOLYLINE
  5
BF
330
45
100
AcDbEntity
  8
BLOCKS
  6
Continuous
100
AcDbPolyline
 90
       10
 70
   128
 43
0.0
 10
-0.0067127319855109
 20
0.0295449242317915
 10
-0.0068516505276904
 20
0.0295570816583398
 10
-0.0069863481002875
 20
0.0295931845410536
 10
-0.0071127319857214
 20
0.0296521359121147
 10
-0.0072269620735852
 20
0.0297321445639403
 10
-0.007325567540459
 20
0.02983077947413
 10
-0.0074055523091272
 20
0.0299450436708509
 10
-0.0074644860828732
 20
0.0300714652943049
 10
-0.0075005781888001
 20
0.0302062030874339
 10
-0.0075127319865288
 20
0.030345163110573
  0
LINE
  5
C0
330
45
100
AcDbEntity
  8
BLOCKS
  6
Continuous
100
AcDbLine
 10
-0.0075127319865288
 20
0.0303451631105713
 30
0.0
 11
-0.0075127319865288
 21
0.0307452825517925
 31
0.0
  0
LWPOLYLINE
  5
C1
330
45
100
AcDbEntity
  8
BLOCKS
  6
Continuous
100
AcDbPolyline
 90
        9
 70
   128
 43
0.0
 10
-0.0083127319870664
 20
0.0315455214299715
 10
-0.0081566597295432
 20
0.0315301450644023
 10
-0.0080065852413219
 20
0.0314846068726206
 10
-0.0078682758008188
 20
0.0314106568617967
 10
-0.0077470465622508
 20
0.0313111368893692
 10
-0.0076475562972729
 20
0.0311898714520618
 10
-0.0075736283609649
 20
0.0310515207126179
 10
-0.007528103762449
 20
0.0309014014123545
 10
-0.0075127319865248
 20
0.0307452825517908
  0
LINE
  5
C2
330
45
100
AcDbEntity
  8
BLOCKS
  6
Continuous
100
AcDbLine
 10
-0.043312731986137
 20
0.029544924231347
 30
0.0
 11
-0.056712731985179
 21
0.029544924231343
 31
0.0
  0
LWPOLYLINE
  5
C3
330
45
100
AcDbEntity
  8
BLOCKS
  6
Continuous
100
AcDbPolyline
 90
       10
 70
   128
 43
0.0
 10
-0.0567127319851818
 20
0.0295449242309422
 10
-0.0568516505275045
 20
0.0295570816575469
 10
-0.0569863481002329
 20
0.0295931845403442
 10
-0.0571127319857834
 20
0.0296521359115076
 10
-0.0572269620737416
 20
0.029732144563456
 10
-0.0573255675406915
 20
0.0298307794737838
 10
-0.0574055523094074
 20
0.0299450436706525
 10
-0.0574644860831751
 20
0.0300714652942605
 10
-0.0575005781890934
 20
0.0302062030875453
 10
-0.0575127319867909
 20
0.0303451631108368
  0
LINE
  5
C4
330
45
100
AcDbEntity
  8
BLOCKS
  6
Continuous
100
AcDbLine
 10
-0.0575127319867698
 20
0.0303451631108351
 30
0.0
 11
-0.0575127319867727
 21
0.0307452825513082
 31
0.0
  0
LWPOLYLINE
  5
C5
330
45
100
AcDbEntity
  8
BLOCKS
  6
Continuous
100
AcDbPolyline
 90
        9
 70
   128
 43
0.0
 10
-0.0583127319878702
 20
0.0315455214300187
 10
-0.0581566597302145
 20
0.0315301450645035
 10
-0.0580065852418602
 20
0.0314846068727297
 10
-0.057868275801232
 20
0.0314106568618735
 10
-0.0577470465625658
 20
0.0313111368893721
 10
-0.0576475562975145
 20
0.0311898714519629
 10
-0.0575736283611707
 20
0.0310515207123962
 10
-0.0575281037626672
 20
0.0309014014120038
 10
-0.0575127319867926
 20
0.030745282551307
  0
LWPOLYLINE
  5
C6
330
45
100
AcDbEntity
  8
BLOCKS
  6
Continuous
100
AcDbPolyline
 90
       10
 70
   128
 43
0.0
 10
-0.0317127319866165
 20
0.0295449242322997
 10
-0.0318516505286999
 20
0.0295570816589242
 10
-0.0319863481011919
 20
0.0295931845416993
 10
-0.032112731986511
 20
0.0296521359127996
 10
-0.0322269620742509
 20
0.0297321445646452
 10
-0.032325567541003
 20
0.0298307794748365
 10
-0.0324055523095513
 20
0.0299450436715341
 10
-0.0324644860831802
 20
0.0300714652949449
 10
-0.0325005781890002
 20
0.030206203088012
 10
-0.0325127319866363
 20
0.030345163111071
  0
LINE
  5
C7
330
45
100
AcDbEntity
  8
BLOCKS
  6
Continuous
100
AcDbLine
 10
-0.0325127319865379
 20
0.0303451631110716
 30
0.0
 11
-0.0325127319865379
 21
0.0307452825505124
 31
0.0
  0
LWPOLYLINE
  5
C8
330
45
100
AcDbEntity
  8
BLOCKS
  6
Continuous
100
AcDbPolyline
 90
       10
 70
   128
 43
0.0
 10
-0.0333127319862513
 20
0.0315455214300454
 10
-0.0331738134441446
 20
0.0315333640033174
 10
-0.0330391158716475
 20
0.0314972611204365
 10
-0.0329127319863449
 20
0.0314383097492322
 10
-0.0327985018986357
 20
0.0313583010972849
 10
-0.0326998964319364
 20
0.0312596661870015
 10
-0.0326199116634535
 20
0.031145401990218
 10
-0.0325609778899059
 20
0.031018980366735
 10
-0.0325248857841808
 20
0.0308842425736128
 10
-0.0325127319866471
 20
0.0307452825505124
  0
LINE
  5
C9
330
45
100
AcDbEntity
  8
BLOCKS
  6
Continuous
100
AcDbLine
 10
-0.0333127319862507
 20
0.0315455214301534
 30
0.0
 11
-0.0417127319864295
 21
0.0315455214303887
 31
0.0
  0
LWPOLYLINE
  5
CA
330
45
100
AcDbEntity
  8
BLOCKS
  6
Continuous
100
AcDbPolyline
 90
       10
 70
   128
 43
0.0
 10
-0.0425127319864851
 20
0.0307452825502145
 10
-0.0425005781889894
 20
0.0308842425734224
 10
-0.0424644860832751
 20
0.0310189803666589
 10
-0.0424055523097133
 20
0.0311454019902499
 10
-0.0423255675411883
 20
0.0312596661871334
 10
-0.0422269620744271
 20
0.0313583010975032
 10
-0.0421127319866383
 20
0.031438309749517
 10
-0.0419863481012391
 20
0.0314972611207685
 10
-0.0418516505286397
 20
0.0315333640036687
 10
-0.0417127319864295
 20
0.031545521430391
  0
LINE
  5
CB
330
45
100
AcDbEntity
  8
BLOCKS
  6
Continuous
100
AcDbLine
 10
-0.0425127319864879
 20
0.0307452825502156
 30
0.0
 11
-0.0425127319864851
 21
0.0303451631111779
 31
0.0
  0
LWPOLYLINE
  5
CC
330
45
100
AcDbEntity
  8
BLOCKS
  6
Continuous
100
AcDbPolyline
 90
       10
 70
   128
 43
0.0
 10
-0.0425127319864703
 20
0.0303451631111779
 10
-0.0425248857840552
 20
0.0302062030881251
 10
-0.0425609778898223
 20
0.0300714652950552
 10
-0.0426199116634007
 20
0.029945043671633
 10
-0.0426998964319034
 20
0.0298307794749121
 10
-0.0427985018986101
 20
0.0297321445646952
 10
-0.0429127319863153
 20
0.0296521359128133
 10
-0.0430391158716003
 20
0.029593184541672
 10
-0.0431738134440667
 20
0.0295570816588503
 10
-0.043312731986137
 20
0.0295449242321746
  0
LWPOLYLINE
  5
CD
330
45
100
AcDbEntity
  8
BLOCKS
  6
Continuous
100
AcDbPolyline
 90
        9
 70
   128
 43
0.0
 10
-0.0675127319865868
 20
0.0307452825510285
 10
-0.067497360210823
 20
0.0309014014116536
 10
-0.0674518356124401
 20
0.0310515207120039
 10
-0.0673779076762264
 20
0.0311898714515513
 10
-0.0672784174113048
 20
0.0313111368889673
 10
-0.0671571881727658
 20
0.0314106568614994
 10
-0.0670188787322616
 20
0.0314846068724188
 10
-0.0668688042440147
 20
0.0315301450642733
 10
-0.0667127319864477
 20
0.031545521429893
  0
LINE
  5
CE
330
45
100
AcDbEntity
  8
BLOCKS
  6
Continuous
100
AcDbLine
 10
-0.0933127319869175
 20
0.0295449242313356
 30
0.0
 11
-0.1067127319863459
 21
0.0295449242313333
 31
0.0
  0
LWPOLYLINE
  5
CF
330
45
100
AcDbEntity
  8
BLOCKS
  6
Continuous
100
AcDbPolyline
 90
       10
 70
   128
 43
0.0
 10
-0.1333127319866191
 20
0.0315455214297975
 10
-0.1331738134444248
 20
0.0315333640031821
 10
-0.1330391158718311
 20
0.0314972611203808
 10
-0.132912731986421
 20
0.0314383097492231
 10
-0.1327985018986101
 20
0.0313583010972906
 10
-0.1326998964318164
 20
0.0312596661869935
 10
-0.1326199116632551
 20
0.0311454019901697
 10
-0.1325609778896535
 20
0.0310189803666293
 10
-0.1325248857838972
 20
0.0308842425734355
 10
-0.1325127319863611
 20
0.0307452825502583
  0
LWPOLYLINE
  5
D0
330
45
100
AcDbEntity
  8
BLOCKS
  6
Continuous
100
AcDbPolyline
 90
       10
 70
   128
 43
0.0
 10
-0.1067127319863437
 20
0.0295449242323116
 10
-0.1068516505284271
 20
0.0295570816588912
 10
-0.1069863481009281
 20
0.0295931845416198
 10
-0.1071127319862615
 20
0.0296521359126763
 10
-0.1072269620740269
 20
0.0297321445644792
 10
-0.107325567540808
 20
0.029830779474633
 10
-0.1074055523093949
 20
0.0299450436712999
 10
-0.1074644860830659
 20
0.0300714652946869
 10
-0.1075005781889314
 20
0.0302062030877374
 10
-0.1075127319866158
 20
0.030345163110789
  0
LINE
  5
D1
330
45
100
AcDbEntity
  8
BLOCKS
  6
Continuous
100
AcDbLine
 10
-0.1075127319864015
 20
0.030345163110789
 30
0.0
 11
-0.1075127319864015
 21
0.0307452825497654
 31
0.0
  0
LWPOLYLINE
  5
D2
330
45
100
AcDbEntity
  8
BLOCKS
  6
Continuous
100
AcDbPolyline
 90
       10
 70
   128
 43
0.0
 10
-0.1083127319860444
 20
0.0315455214306366
 10
-0.1081738134438172
 20
0.0315333640038495
 10
-0.10803911587122
 20
0.0314972611208685
 10
-0.1079127319858446
 20
0.0314383097495278
 10
-0.107798501898099
 20
0.0313583010974179
 10
-0.1076998964314072
 20
0.0312596661869498
 10
-0.1076199116629823
 20
0.0311454019899742
 10
-0.1075609778895461
 20
0.031018980366303
 10
-0.1075248857839807
 20
0.0308842425730069
 10
-0.1075127319866596
 20
0.0307452825497643
  0
LINE
  5
D3
330
45
100
AcDbEntity
  8
BLOCKS
  6
Continuous
100
AcDbLine
 10
-0.1083127319860444
 20
0.0315455214308958
 30
0.0
 11
-0.1167127319867097
 21
0.0315455214307525
 31
0.0
  0
LWPOLYLINE
  5
D4
330
45
100
AcDbEntity
  8
BLOCKS
  6
Continuous
100
AcDbPolyline
 90
       10
 70
   128
 43
0.0
 10
-0.1175127319864958
 20
0.0307452825487707
 10
-0.1175005781892861
 20
0.0308842425721758
 10
-0.1174644860837879
 20
0.0310189803656454
 10
-0.1174055523103715
 20
0.0311454019894944
 10
-0.117325567541925
 20
0.0312596661866377
 10
-0.1172269620751695
 20
0.0313583010972565
 10
-0.1171127319873278
 20
0.0314383097494937
 10
-0.1169863481018263
 20
0.0314972611209254
 10
-0.116851650529087
 20
0.0315333640039597
 10
-0.1167127319867097
 20
0.0315455214307571
  0
LINE
  5
D5
330
45
100
AcDbEntity
  8
BLOCKS
  6
Continuous
100
AcDbLine
 10
-0.117512731986497
 20
0.0307452825487695
 30
0.0
 11
-0.1175127319864998
 21
0.0303451631106071
 31
0.0
  0
LWPOLYLINE
  5
D6
330
45
100
AcDbEntity
  8
BLOCKS
  6
Continuous
100
AcDbPolyline
 90
       10
 70
   128
 43
0.0
 10
-0.1175127319864595
 20
0.0303451631106077
 10
-0.1175248857841444
 20
0.030206203087559
 10
-0.1175609778900099
 20
0.0300714652945112
 10
-0.1176199116636792
 20
0.0299450436711283
 10
-0.1176998964322672
 20
0.0298307794744636
 10
-0.1177985018990449
 20
0.0297321445643132
 10
-0.1179127319868104
 20
0.0296521359125114
 10
-0.1180391158721403
 20
0.0295931845414583
 10
-0.1181738134446397
 20
0.0295570816587332
 10
-0.1183127319867191
 20
0.0295449242321564
  0
LINE
  5
D7
330
45
100
AcDbEntity
  8
BLOCKS
  6
Continuous
100
AcDbLine
 10
-0.1183127319867191
 20
0.0295449242313311
 30
0.0
 11
-0.1317127319853427
 21
0.0295449242313276
 31
0.0
  0
LWPOLYLINE
  5
D8
330
45
100
AcDbEntity
  8
BLOCKS
  6
Continuous
100
AcDbPolyline
 90
       10
 70
   128
 43
0.0
 10
-0.1317127319853432
 20
0.0295449242312429
 10
-0.1318516505276085
 20
0.0295570816578714
 10
-0.1319863481002801
 20
0.0295931845406818
 10
-0.1321127319857703
 20
0.0296521359118475
 10
-0.1322269620736671
 20
0.029732144563788
 10
-0.1323255675405573
 20
0.0298307794740953
 10
-0.1324055523092221
 20
0.0299450436709361
 10
-0.1324644860829437
 20
0.0300714652945061
 10
-0.1325005781888223
 20
0.0302062030877431
 10
-0.1325127319864885
 20
0.0303451631109846
  0
LINE
  5
D9
330
45
100
AcDbEntity
  8
BLOCKS
  6
Continuous
100
AcDbLine
 10
-0.1325127319867636
 20
0.0303451631109852
 30
0.0
 11
-0.1325127319867607
 21
0.03074528255026
 31
0.0
  0
LINE
  5
DA
330
45
100
AcDbEntity
  8
BLOCKS
  6
Continuous
100
AcDbLine
 10
-0.1333127319866191
 20
0.0315455214293974
 30
0.0
 11
-0.1417127319861703
 21
0.0315455214302
 31
0.0
  0
LWPOLYLINE
  5
DB
330
45
100
AcDbEntity
  8
BLOCKS
  6
Continuous
100
AcDbPolyline
 90
        9
 70
   128
 43
0.0
 10
-0.1425127319862633
 20
0.0307452825533886
 10
-0.142497360210117
 20
0.0309014014137034
 10
-0.142451835611476
 20
0.0310515207136911
 10
-0.1423779076751373
 20
0.0311898714528633
 10
-0.1422784174102134
 20
0.0313111368899257
 10
-0.1421571881717802
 20
0.0314106568621588
 10
-0.1420188787314629
 20
0.0314846068728588
 10
-0.1418688042434667
 20
0.0315301450645944
 10
-0.1417127319861692
 20
0.0315455214302068
  0
LINE
  5
DC
330
45
100
AcDbEntity
  8
BLOCKS
  6
Continuous
100
AcDbLine
 10
-0.1425127319862668
 20
0.0307452825533886
 30
0.0
 11
-0.1425127319862668
 21
0.0303451631113484
 31
0.0
  0
LWPOLYLINE
  5
DD
330
45
100
AcDbEntity
  8
BLOCKS
  6
Continuous
100
AcDbPolyline
 90
       10
 70
   128
 43
0.0
 10
-0.1425127319862122
 20
0.0303451631113484
 10
-0.1425248857837806
 20
0.0302062030881621
 10
-0.1425609778895495
 20
0.0300714652949597
 10
-0.1426199116631585
 20
0.0299450436714074
 10
-0.1426998964317107
 20
0.0298307794745659
 10
-0.1427985018984901
 20
0.0297321445642342
 10
-0.1429127319862829
 20
0.0296521359122539
 10
-0.1430391158716731
 20
0.0295931845410308
 10
-0.1431738134442594
 20
0.0295570816581471
 10
-0.1433127319864553
 20
0.0295449242314311
  0
LINE
  5
DE
330
45
100
AcDbEntity
  8
BLOCKS
  6
Continuous
100
AcDbLine
 10
-0.0683127319865736
 20
0.0295449242313424
 30
0.0
 11
-0.08171273198574
 21
0.0295449242313379
 31
0.0
  0
LINE
  5
DF
330
45
100
AcDbEntity
  8
BLOCKS
  6
Continuous
100
AcDbLine
 10
-0.0675127319867653
 20
0.0307452825510268
 30
0.0
 11
-0.0675127319867653
 21
0.0303451631112165
 31
0.0
  0
LWPOLYLINE
  5
E0
330
45
100
AcDbEntity
  8
BLOCKS
  6
Continuous
100
AcDbPolyline
 90
       10
 70
   128
 43
0.0
 10
-0.0675127319865868
 20
0.0303451631112171
 10
-0.06752488578417
 20
0.0302062030881001
 10
-0.0675609778899463
 20
0.0300714652949677
 10
-0.0676199116635445
 20
0.0299450436714864
 10
-0.0676998964320785
 20
0.0298307794747115
 10
-0.067798501898825
 20
0.0297321445644451
 10
-0.067912731986574
 20
0.0296521359125217
 10
-0.0680391158719147
 20
0.0295931845413458
 10
-0.0681738134444413
 20
0.0295570816585013
 10
-0.0683127319865736
 20
0.0295449242318154
  0
LWPOLYLINE
  5
E1
330
45
100
AcDbEntity
  8
BLOCKS
  6
Continuous
100
AcDbPolyline
 90
       10
 70
   128
 43
0.0
 10
-0.08171273198574
 20
0.0295449242317903
 10
-0.0818516505279161
 20
0.0295570816583762
 10
-0.0819863481005024
 20
0.0295931845411286
 10
-0.0821127319859198
 20
0.0296521359122238
 10
-0.0822269620737581
 20
0.029732144564079
 10
-0.0823255675406046
 20
0.0298307794742965
 10
-0.0824055523092437
 20
0.0299450436710384
 10
-0.0824644860829568
 20
0.0300714652945084
 10
-0.0825005781888422
 20
0.0302062030876454
 10
-0.0825127319865362
 20
0.0303451631107868
  0
LINE
  5
E2
330
45
100
AcDbEntity
  8
BLOCKS
  6
Continuous
100
AcDbLine
 10
-0.0825127319865396
 20
0.0303451631107868
 30
0.0
 11
-0.0825127319865396
 21
0.0307452825519607
 31
0.0
  0
LWPOLYLINE
  5
E3
330
45
100
AcDbEntity
  8
BLOCKS
  6
Continuous
100
AcDbPolyline
 90
        9
 70
   128
 43
0.0
 10
-0.0833127319858511
 20
0.0315455214294724
 10
-0.0831566597285172
 20
0.0315301450638549
 10
-0.0830065852404994
 20
0.0314846068720698
 10
-0.0828682758001861
 20
0.0314106568612812
 10
-0.0827470465618001
 20
0.0313111368889298
 10
-0.0826475562969802
 20
0.0311898714517361
 10
-0.0825736283607995
 20
0.031051520712436
 10
-0.0825281037623819
 20
0.0309014014123409
 10
-0.0825127319865107
 20
0.0307452825519607
  0
LINE
  5
E4
330
45
100
AcDbEntity
  8
BLOCKS
  6
Continuous
100
AcDbLine
 10
-0.0833127319858506
 20
0.0315455214294428
 30
0.0
 11
-0.0917127319856582
 21
0.0315455214307048
 31
0.0
  0
LWPOLYLINE
  5
E5
330
45
100
AcDbEntity
  8
BLOCKS
  6
Continuous
100
AcDbPolyline
 90
       10
 70
   128
 43
0.0
 10
-0.0925127319864089
 20
0.030745282550883
 10
-0.0925005781887842
 20
0.0308842425740881
 10
-0.0924644860829477
 20
0.0310189803672978
 10
-0.092405552309275
 20
0.031145401990845
 10
-0.0923255675406552
 20
0.03125966618767
 10
-0.0922269620738126
 20
0.0313583010979681
 10
-0.0921127319859579
 20
0.031438309749903
 10
-0.0919863481005132
 20
0.0314972611210686
 10
-0.0918516505278831
 20
0.031533364003883
 10
-0.0917127319856582
 20
0.0315455214305206
  0
LINE
  5
E6
330
45
100
AcDbEntity
  8
BLOCKS
  6
Continuous
100
AcDbLine
 10
-0.092512731986588
 20
0.030745282550883
 30
0.0
 11
-0.092512731986588
 21
0.0303451631110892
 31
0.0
  0
LWPOLYLINE
  5
E7
330
45
100
AcDbEntity
  8
BLOCKS
  6
Continuous
100
AcDbPolyline
 90
       10
 70
   128
 43
0.0
 10
-0.0925127319864106
 20
0.0303451631110892
 10
-0.0925248857840205
 20
0.0302062030879074
 10
-0.0925609778898388
 20
0.0300714652947158
 10
-0.092619911663486
 20
0.0299450436711817
 10
-0.0926998964320746
 20
0.0298307794743659
 10
-0.0927985018988847
 20
0.0297321445640654
 10
-0.0929127319867047
 20
0.0296521359121238
 10
-0.0930391158721187
 20
0.0295931845409382
 10
-0.0931738134447159
 20
0.0295570816580988
 10
-0.0933127319869175
 20
0.0295449242314288
  0
LINE
  5
E8
330
45
100
AcDbEntity
  8
BLOCKS
  6
Continuous
100
AcDbLine
 10
-0.0583127319878696
 20
0.0315455214300431
 30
0.0
 11
-0.0667127319864477
 21
0.0315455214300727
 31
0.0
  0
LINE
  5
E9
330
45
100
AcDbEntity
  8
BLOCKS
  6
Continuous
100
AcDbLine
 10
-0.1833127319863962
 20
0.03154552143015
 30
0.0
 11
-0.1917127319851761
 21
0.0315455214308571
 31
0.0
  0
LWPOLYLINE
  5
EA
330
45
100
AcDbEntity
  8
BLOCKS
  6
Continuous
100
AcDbPolyline
 90
       10
 70
   128
 43
0.0
 10
-0.181712731986857
 20
0.0295449242325952
 10
-0.1818516505288869
 20
0.0295570816592539
 10
-0.1819863481013192
 20
0.0295931845420518
 10
-0.1821127319865746
 20
0.0296521359131651
 10
-0.1822269620742509
 20
0.0297321445650118
 10
-0.1823255675409393
 20
0.0298307794751935
 10
-0.1824055523094256
 20
0.0299450436718706
 10
-0.1824644860830006
 20
0.0300714652952507
 10
-0.1825005781887677
 20
0.0302062030882775
 10
-0.1825127319863634
 20
0.0303451631112893
  0
LINE
  5
EB
330
45
100
AcDbEntity
  8
BLOCKS
  6
Continuous
100
AcDbLine
 10
-0.1825127319863213
 20
0.0303451631112893
 30
0.0
 11
-0.1825127319863213
 21
0.0307452825503054
 31
0.0
  0
LWPOLYLINE
  5
EC
330
45
100
AcDbEntity
  8
BLOCKS
  6
Continuous
100
AcDbPolyline
 90
       10
 70
   128
 43
0.0
 10
-0.1833127319863968
 20
0.0315455214301454
 10
-0.1831738134442196
 20
0.0315333640034345
 10
-0.1830391158716492
 20
0.0314972611205548
 10
-0.1829127319862755
 20
0.0314383097493368
 10
-0.1827985018985009
 20
0.0313583010973622
 10
-0.182699896431742
 20
0.031259666187039
 10
-0.182619911663208
 20
0.0311454019902044
 10
-0.1825609778896188
 20
0.0310189803666634
 10
-0.1825248857838676
 20
0.0308842425734741
 10
-0.1825127319863197
 20
0.0307452825503054
  0
LWPOLYLINE
  5
ED
330
45
100
AcDbEntity
  8
BLOCKS
  6
Continuous
100
AcDbPolyline
 90
       10
 70
   128
 43
0.0
 10
-0.2175127319862958
 20
0.0303451631108345
 10
-0.2175248857839534
 20
0.0302062030876692
 10
-0.2175609778898081
 20
0.0300714652945021
 10
-0.2176199116634899
 20
0.0299450436710009
 10
-0.2176998964321092
 20
0.0298307794742209
 10
-0.2177985018989432
 20
0.0297321445639642
 10
-0.2179127319867757
 20
0.0296521359120669
 10
-0.2180391158721949
 20
0.0295931845409319
 10
-0.2181738134447886
 20
0.029557081658138
 10
-0.2183127319869828
 20
0.0295449242315158
  0
LWPOLYLINE
  5
EE
330
45
100
AcDbEntity
  8
BLOCKS
  6
Continuous
100
AcDbPolyline
 90
       10
 70
   128
 43
0.0
 10
-0.1925127319864742
 20
0.0307452825496756
 10
-0.1925005781890184
 20
0.0308842425731058
 10
-0.1924644860832825
 20
0.0310189803665611
 10
-0.1924055523096422
 20
0.0311454019903562
 10
-0.1923255675409899
 20
0.0312596661874153
 10
-0.1922269620740582
 20
0.0313583010979215
 10
-0.1921127319860653
 20
0.0314383097500235
 10
-0.1919863481004438
 20
0.0314972611213074
 10
-0.1918516505276136
 20
0.0315333640041826
 10
-0.1917127319851761
 20
0.0315455214308185
  0
LINE
  5
EF
330
45
100
AcDbEntity
  8
BLOCKS
  6
Continuous
100
AcDbLine
 10
-0.1925127319865106
 20
0.0307452825496756
 30
0.0
 11
-0.1925127319865106
 21
0.030345163111021
 31
0.0
  0
LWPOLYLINE
  5
F0
330
45
100
AcDbEntity
  8
BLOCKS
  6
Continuous
100
AcDbPolyline
 90
       10
 70
   128
 43
0.0
 10
-0.192512731986543
 20
0.030345163111021
 10
-0.1925248857841535
 20
0.0302062030879796
 10
-0.1925609778899462
 20
0.030071465294925
 10
-0.1926199116635462
 20
0.0299450436715239
 10
-0.1926998964320672
 20
0.0298307794748274
 10
-0.1927985018987863
 20
0.0297321445646361
 10
-0.1929127319864995
 20
0.0296521359127831
 10
-0.1930391158717896
 20
0.0295931845416698
 10
-0.193173813444256
 20
0.0295570816588793
 10
-0.1933127319863189
 20
0.0295449242322337
  0
LINE
  5
F1
330
45
100
AcDbEntity
  8
BLOCKS
  6
Continuous
100
AcDbLine
 10
-0.1933127319863189
 20
0.0295449242313151
 30
0.0
 11
-0.2067127319856638
 21
0.0295449242313112
 31
0.0
  0
LWPOLYLINE
  5
F2
330
45
100
AcDbEntity
  8
BLOCKS
  6
Continuous
100
AcDbPolyline
 90
       10
 70
   128
 43
0.0
 10
-0.2067127319856638
 20
0.029544924231696
 10
-0.2068516505278501
 20
0.0295570816583694
 10
-0.2069863481004313
 20
0.0295931845412093
 10
-0.2071127319858289
 20
0.0296521359123887
 10
-0.2072269620736341
 20
0.0297321445643269
 10
-0.2073255675404317
 20
0.0298307794746182
 10
-0.2074055523090112
 20
0.029945043671425
 10
-0.2074644860826476
 20
0.0300714652949472
 10
-0.2075005781884585
 20
0.0302062030881251
 10
-0.207512731986065
 20
0.0303451631112938
  0
LINE
  5
F3
330
45
100
AcDbEntity
  8
BLOCKS
  6
Continuous
100
AcDbLine
 10
-0.2075127319860905
 20
0.0303451631112938
 30
0.0
 11
-0.2075127319860905
 21
0.0307452825505487
 31
0.0
  0
LWPOLYLINE
  5
F4
330
45
100
AcDbEntity
  8
BLOCKS
  6
Continuous
100
AcDbPolyline
 90
       10
 70
   128
 43
0.0
 10
-0.2083127319858641
 20
0.0315455214306979
 10
-0.2081738134436898
 20
0.0315333640039324
 10
-0.2080391158711325
 20
0.031497261121001
 10
-0.207912731985781
 20
0.0314383097497347
 10
-0.2077985018980354
 20
0.031358301097718
 10
-0.2076998964313105
 20
0.0312596661873545
 10
-0.2076199116628243
 20
0.0311454019904903
 10
-0.2075609778892823
 20
0.031018980366926
 10
-0.2075248857835823
 20
0.0308842425737225
 10
-0.2075127319860883
 20
0.0307452825505487
  0
LINE
  5
F5
330
45
100
AcDbEntity
  8
BLOCKS
  6
Continuous
100
AcDbLine
 10
-0.2083127319858625
 20
0.0315455214307002
 30
0.0
 11
-0.2167127319861549
 21
0.031545521430499
 31
0.0
  0
LWPOLYLINE
  5
F6
330
45
100
AcDbEntity
  8
BLOCKS
  6
Continuous
100
AcDbPolyline
 90
       10
 70
   128
 43
0.0
 10
-0.217512731986256
 20
0.0307452825498444
 10
-0.2175005781888438
 20
0.0308842425731217
 10
-0.2174644860831876
 20
0.0310189803664338
 10
-0.217405552309657
 20
0.0311454019901061
 10
-0.2173255675411394
 20
0.0312596661870663
 10
-0.2172269620743583
 20
0.0313583010975032
 10
-0.2171127319865343
 20
0.0314383097495699
 10
-0.2169863481010844
 20
0.0314972611208526
 10
-0.2168516505284271
 20
0.0315333640037642
 10
-0.216712731986151
 20
0.0315455214304728
  0
LINE
  5
F7
330
45
100
AcDbEntity
  8
BLOCKS
  6
Continuous
100
AcDbLine
 10
-0.2175127319862787
 20
0.0307452825498462
 30
0.0
 11
-0.2175127319862787
 21
0.0303451631108334
 31
0.0
  0
LINE
  5
F8
330
45
100
AcDbEntity
  8
BLOCKS
  6
Continuous
100
AcDbLine
 10
-0.24331273198666
 20
0.0295449242313038
 30
0.0
 11
-0.2567127319869206
 21
0.0295449242313015
 31
0.0
  0
LWPOLYLINE
  5
F9
330
45
100
AcDbEntity
  8
BLOCKS
  6
Continuous
100
AcDbPolyline
 90
       10
 70
   128
 43
0.0
 10
-0.2317127319860237
 20
0.0295449242317932
 10
-0.2318516505281957
 20
0.0295570816584228
 10
-0.2319863481007713
 20
0.0295931845412173
 10
-0.2321127319861705
 20
0.0296521359123511
 10
-0.2322269620739854
 20
0.029732144564245
 10
-0.2323255675408006
 20
0.0298307794744932
 10
-0.232405552309404
 20
0.0299450436712613
 10
-0.2324644860830733
 20
0.0300714652947494
 10
-0.2325005781889166
 20
0.0302062030878983
 10
-0.2325127319865652
 20
0.030345163111046
  0
LINE
  5
FA
330
45
100
AcDbEntity
  8
BLOCKS
  6
Continuous
100
AcDbLine
 10
-0.2325127319865652
 20
0.0303451631110443
 30
0.0
 11
-0.2325127319865652
 21
0.0307452825507949
 31
0.0
  0
LWPOLYLINE
  5
FB
330
45
100
AcDbEntity
  8
BLOCKS
  6
Continuous
100
AcDbPolyline
 90
       10
 70
   128
 43
0.0
 10
-0.2333127319875012
 20
0.0315455214300477
 10
-0.2331738134452797
 20
0.0315333640034777
 10
-0.2330391158726462
 20
0.0314972611207276
 10
-0.2329127319871884
 20
0.0314383097496187
 10
-0.2327985018993138
 20
0.0313583010977362
 10
-0.232699896432444
 20
0.0312596661874812
 10
-0.2326199116637952
 20
0.0311454019906927
 10
-0.2325609778900901
 20
0.0310189803671733
 10
-0.2325248857842206
 20
0.0308842425739857
 10
-0.2325127319865652
 20
0.0307452825507943
  0
LINE
  5
FC
330
45
100
AcDbEntity
  8
BLOCKS
  6
Continuous
100
AcDbLine
 10
-0.2333127319874995
 20
0.0315455214300454
 30
0.0
 11
-0.2417127319864977
 21
0.0315455214294497
 31
0.0
  0
LWPOLYLINE
  5
FD
330
45
100
AcDbEntity
  8
BLOCKS
  6
Continuous
100
AcDbPolyline
 90
       10
 70
   128
 43
0.0
 10
-0.2425127319860485
 20
0.0307452825501076
 10
-0.2425005781885329
 20
0.0308842425731967
 10
-0.2424644860828204
 20
0.031018980366311
 10
-0.2424055523092784
 20
0.0311454019897832
 10
-0.2423255675408007
 20
0.0312596661865536
 10
-0.2422269620740997
 20
0.0313583010968199
 10
-0.2421127319863911
 20
0.0314383097487433
 10
-0.2419863481010879
 20
0.0314972611199187
 10
-0.2418516505285959
 20
0.0315333640027637
 10
-0.2417127319864966
 20
0.0315455214294497
  0
LINE
  5
FE
330
45
100
AcDbEntity
  8
BLOCKS
  6
Continuous
100
AcDbLine
 10
-0.2425127319860485
 20
0.0307452825501076
 30
0.0
 11
-0.2425127319860485
 21
0.0303451631113711
 31
0.0
  0
LWPOLYLINE
  5
FF
330
45
100
AcDbEntity
  8
BLOCKS
  6
Continuous
100
AcDbPolyline
 90
       10
 70
   128
 43
0.0
 10
-0.2425127319860485
 20
0.0303451631113717
 10
-0.2425248857836169
 20
0.0302062030881183
 10
-0.242560977889404
 20
0.0300714652948494
 10
-0.2426199116630352
 20
0.0299450436712317
 10
-0.2426998964316238
 20
0.02983077947433
 10
-0.2427985018984447
 20
0.0297321445639477
 10
-0.2429127319862937
 20
0.0296521359119265
 10
-0.2430391158717458
 20
0.0295931845406693
 10
-0.2431738134443958
 20
0.0295570816577646
 10
-0.2433127319866589
 20
0.0295449242310377
  0
LINE
  5
100
330
45
100
AcDbEntity
  8
BLOCKS
  6
Continuous
100
AcDbLine
 10
-0.2583127319861234
 20
0.0315455214304842
 30
0.0
 11
-0.2667127319862203
 21
0.0315455214304683
 31
0.0
  0
LWPOLYLINE
  5
101
330
45
100
AcDbEntity
  8
BLOCKS
  6
Continuous
100
AcDbPolyline
 90
       10
 70
   128
 43
0.0
 10
-0.3083127319862826
 20
0.0315455214300408
 10
-0.3081738134441212
 20
0.0315333640033856
 10
-0.3080391158715639
 20
0.0314972611205599
 10
-0.3079127319861937
 20
0.0314383097493914
 10
-0.3077985018984174
 20
0.0313583010974611
 10
-0.3076998964316544
 20
0.0312596661871754
 10
-0.307619911663117
 20
0.0311454019903766
 10
-0.3075609778895262
 20
0.0310189803668624
 10
-0.3075248857837715
 20
0.0308842425736998
 10
-0.307512731986223
 20
0.0307452825505556
  0
LINE
  5
102
330
45
100
AcDbEntity
  8
BLOCKS
  6
Continuous
100
AcDbLine
 10
-0.29331273198683
 20
0.0295449242312924
 30
0.0
 11
-0.3067127319858747
 21
0.0295449242312901
 31
0.0
  0
LINE
  5
103
330
45
100
AcDbEntity
  8
BLOCKS
  6
Continuous
100
AcDbLine
 10
-0.3075127319858723
 20
0.0303451631113507
 30
0.0
 11
-0.3075127319858723
 21
0.0304906256598969
 31
0.0
  0
LINE
  5
104
330
45
100
AcDbEntity
  8
BLOCKS
  6
Continuous
100
AcDbLine
 10
-0.3075127319858723
 20
0.0304906256598969
 30
0.0
 11
-0.3075127319861332
 21
0.0307452825505556
 31
0.0
  0
LWPOLYLINE
  5
105
330
45
100
AcDbEntity
  8
BLOCKS
  6
Continuous
100
AcDbPolyline
 90
       10
 70
   128
 43
0.0
 10
-0.3067127319858747
 20
0.0295449242321462
 10
-0.3068516505279888
 20
0.0295570816587429
 10
-0.3069863481005115
 20
0.029593184541493
 10
-0.3071127319858653
 20
0.0296521359125768
 10
-0.3072269620736449
 20
0.029732144564411
 10
-0.3073255675404391
 20
0.0298307794745966
 10
-0.3074055523090254
 20
0.0299450436712965
 10
-0.3074644860826964
 20
0.0300714652947176
 10
-0.3075005781885528
 20
0.0302062030878011
 10
-0.307512731986223
 20
0.0303451631108823
  0
LINE
  5
106
330
45
100
AcDbEntity
  8
BLOCKS
  6
Continuous
100
AcDbLine
 10
-0.3075127319861332
 20
0.0303451631108834
 30
0.0
 11
-0.3075127319861332
 21
0.0307452825505556
 31
0.0
  0
LWPOLYLINE
  5
107
330
45
100
AcDbEntity
  8
BLOCKS
  6
Continuous
100
AcDbPolyline
 90
       10
 70
   128
 43
0.0
 10
-0.2675127319865249
 20
0.0307452825509569
 10
-0.2675005781889223
 20
0.0308842425741108
 10
-0.2674644860831205
 20
0.0310189803672751
 10
-0.267405552309491
 20
0.0311454019907848
 10
-0.2673255675409228
 20
0.0312596661875813
 10
-0.267226962074136
 20
0.0313583010978636
 10
-0.2671127319863416
 20
0.0314383097497915
 10
-0.2669863481009588
 20
0.0314972611209663
 10
-0.2668516505283924
 20
0.031533364003804
 10
-0.266712731986222
 20
0.0315455214304763
  0
LINE
  5
108
330
45
100
AcDbEntity
  8
BLOCKS
  6
Continuous
100
AcDbLine
 10
-0.2675127319865242
 20
0.030745282550958
 30
0.0
 11
-0.2675127319865242
 21
0.0303451631108368
 31
0.0
  0
LWPOLYLINE
  5
109
330
45
100
AcDbEntity
  8
BLOCKS
  6
Continuous
100
AcDbPolyline
 90
       10
 70
   128
 43
0.0
 10
-0.2675127319865214
 20
0.0303451631108368
 10
-0.2675248857841643
 20
0.0302062030877909
 10
-0.26756097788999
 20
0.0300714652947386
 10
-0.2676199116636206
 20
0.0299450436713437
 10
-0.2676998964321712
 20
0.029830779474662
 10
-0.2677985018989176
 20
0.0297321445644883
 10
-0.2679127319866557
 20
0.0296521359126581
 10
-0.2680391158719641
 20
0.0295931845415703
 10
-0.268173813444443
 20
0.0295570816588082
 10
-0.2683127319865173
 20
0.0295449242321928
  0
LINE
  5
10A
330
45
100
AcDbEntity
  8
BLOCKS
  6
Continuous
100
AcDbLine
 10
-0.2683127319865173
 20
0.0295449242312975
 30
0.0
 11
-0.2817127319852062
 21
0.0295449242312969
 31
0.0
  0
LWPOLYLINE
  5
10B
330
45
100
AcDbEntity
  8
BLOCKS
  6
Continuous
100
AcDbPolyline
 90
       10
 70
   128
 43
0.0
 10
-0.2817127319852034
 20
0.0295449242316653
 10
-0.281851650527401
 20
0.029557081658258
 10
-0.2819863481000113
 20
0.0295931845410195
 10
-0.2821127319854469
 20
0.0296521359121283
 10
-0.2822269620733033
 20
0.0297321445640017
 10
-0.282325567540164
 20
0.0298307794742385
 10
-0.2824055523088129
 20
0.0299450436710021
 10
-0.2824644860825253
 20
0.030071465294493
 10
-0.2825005781884181
 20
0.0302062030876567
 10
-0.2825127319861065
 20
0.0303451631108214
  0
LINE
  5
10C
330
45
100
AcDbEntity
  8
BLOCKS
  6
Continuous
100
AcDbLine
 10
-0.2825127319861014
 20
0.0303451631108214
 30
0.0
 11
-0.2825127319861014
 21
0.0307452825506022
 31
0.0
  0
LWPOLYLINE
  5
10D
330
45
100
AcDbEntity
  8
BLOCKS
  6
Continuous
100
AcDbPolyline
 90
       10
 70
   128
 43
0.0
 10
-0.2833127319876519
 20
0.0315455214306684
 10
-0.2831738134453087
 20
0.0315333640040677
 10
-0.2830391158725587
 20
0.0314972611212664
 10
-0.2829127319869957
 20
0.0314383097500894
 10
-0.2827985018990302
 20
0.0313583010981216
 10
-0.2826998964320893
 20
0.0312596661877677
 10
-0.2826199116633808
 20
0.0311454019908678
 10
-0.2825609778896387
 20
0.0310189803672279
 10
-0.282524885783755
 20
0.0308842425739152
 10
-0.2825127319861065
 20
0.0307452825506033
  0
LINE
  5
10E
330
45
100
AcDbEntity
  8
BLOCKS
  6
Continuous
100
AcDbLine
 10
-0.2833127319876485
 20
0.0315455214306752
 30
0.0
 11
-0.2917127319861277
 21
0.0315455214292621
 31
0.0
  0
LWPOLYLINE
  5
10F
330
45
100
AcDbEntity
  8
BLOCKS
  6
Continuous
100
AcDbPolyline
 90
       10
 70
   128
 43
0.0
 10
-0.2925127319862906
 20
0.0307452825503759
 10
-0.2925005781886966
 20
0.0308842425734764
 10
-0.2924644860829022
 20
0.0310189803665884
 10
-0.2924055523092766
 20
0.0311454019900424
 10
-0.2923255675407137
 20
0.031259666186777
 10
-0.292226962073936
 20
0.031358301096991
 10
-0.2921127319861546
 20
0.0314383097488457
 10
-0.2919863481007917
 20
0.0314972611199386
 10
-0.2918516505282542
 20
0.0315333640026842
 10
-0.2917127319861277
 20
0.0315455214292609
  0
LINE
  5
110
330
45
100
AcDbEntity
  8
BLOCKS
  6
Continuous
100
AcDbLine
 10
-0.2925127319862923
 20
0.0307452825503748
 30
0.0
 11
-0.2925127319862923
 21
0.0303451631108709
 31
0.0
  0
LWPOLYLINE
  5
111
330
45
100
AcDbEntity
  8
BLOCKS
  6
Continuous
100
AcDbPolyline
 90
       10
 70
   128
 43
0.0
 10
-0.2925127319862941
 20
0.0303451631108715
 10
-0.2925248857839404
 20
0.0302062030877249
 10
-0.2925609778897842
 20
0.0300714652945749
 10
-0.2926199116634535
 20
0.0299450436710873
 10
-0.2926998964320546
 20
0.0298307794743204
 10
-0.2927985018988721
 20
0.0297321445640722
 10
-0.2929127319866848
 20
0.0296521359121795
 10
-0.2930391158720824
 20
0.0295931845410456
 10
-0.2931738134446596
 20
0.0295570816582512
 10
-0.29331273198683
 20
0.0295449242316221
  0
LWPOLYLINE
  5
112
330
45
100
AcDbEntity
  8
BLOCKS
  6
Continuous
100
AcDbPolyline
 90
       10
 70
   128
 43
0.0
 10
-0.2567127319869206
 20
0.0295449242326345
 10
-0.2568516505289415
 20
0.0295570816593022
 10
-0.2569863481013607
 20
0.0295931845421069
 10
-0.2571127319866071
 20
0.0296521359132265
 10
-0.2572269620742747
 20
0.0297321445650755
 10
-0.2573255675409501
 20
0.0298307794752572
 10
-0.2574055523094256
 20
0.0299450436719343
 10
-0.2574644860829875
 20
0.030071465295311
 10
-0.2575005781887478
 20
0.030206203088332
 10
-0.2575127319863304
 20
0.030345163111337
  0
LINE
  5
113
330
45
100
AcDbEntity
  8
BLOCKS
  6
Continuous
100
AcDbLine
 10
-0.2575127319863333
 20
0.0303451631113382
 30
0.0
 11
-0.2575127319863333
 21
0.0307452825510433
 31
0.0
  0
LWPOLYLINE
  5
114
330
45
100
AcDbEntity
  8
BLOCKS
  6
Continuous
100
AcDbPolyline
 90
        9
 70
   128
 43
0.0
 10
-0.2583127319861239
 20
0.0315455214304819
 10
-0.2581566597285501
 20
0.0315301450647553
 10
-0.2580065852403174
 20
0.0314846068727974
 10
-0.2578682757998405
 20
0.0314106568617859
 10
-0.257747046561347
 20
0.0313111368891691
 10
-0.2576475562964851
 20
0.0311898714516855
 10
-0.2575736283603356
 20
0.031051520712083
 10
-0.2575281037620272
 20
0.0309014014116946
 10
-0.2575127319863321
 20
0.0307452825510433
  0
LINE
  5
115
330
45
100
AcDbEntity
  8
BLOCKS
  6
Continuous
100
AcDbLine
 10
-0.2183127319869828
 20
0.0295449242313094
 30
0.0
 11
-0.2317127319860248
 21
0.0295449242313066
 31
0.0
  0
LINE
  5
116
330
45
100
AcDbEntity
  8
BLOCKS
  6
Continuous
100
AcDbLine
 10
-0.1433127319864553
 20
0.0295449242313248
 30
0.0
 11
-0.181712731986857
 21
0.0295449242313174
 31
0.0
  0
LINE
  5
117
330
45
100
AcDbEntity
  8
BLOCKS
  6
Continuous
100
AcDbLine
 10
0.0166872680130854
 20
0.0315455214299487
 30
0.0
 11
0.008287268013998
 21
0.0315455214302659
 31
0.0
  0
LINE
  5
118
330
45
100
AcDbEntity
  8
BLOCKS
  6
Continuous
100
AcDbLine
 10
0.4348748400360745
 20
0.0295449242314493
 30
0.0
 11
0.316347421063964
 21
0.0295449242314243
 31
0.0
  0
LINE
  5
119
330
45
100
AcDbEntity
  8
BLOCKS
  6
Continuous
100
AcDbLine
 10
0.4348748400360774
 20
0.0185449242314496
 30
0.0
 11
0.3163474210639668
 21
0.018544924231424
 31
0.0
  0
LINE
  5
11A
330
45
100
AcDbEntity
  8
BLOCKS
  6
Continuous
100
AcDbLine
 10
-0.4600389896750688
 20
0.0800476098203075
 30
0.0
 11
-0.3617048543308675
 21
0.0800476098203075
 31
0.0
  0
LINE
  5
11B
330
45
100
AcDbEntity
  8
BLOCKS
  6
Continuous
100
AcDbLine
 10
-0.4816613136054532
 20
0.0800476098203086
 30
0.0
 11
-0.5517267230700356
 21
0.0800476098203086
 31
0.0
  0
LINE
  5
11C
330
45
100
AcDbEntity
  8
BLOCKS
  6
Continuous
100
AcDbLine
 10
-0.4822020470648778
 20
0.0690476098203084
 30
0.0
 11
-0.5507435966555187
 21
0.0690476098203084
 31
0.0
  0
LWPOLYLINE
  5
11D
330
45
100
AcDbEntity
  8
BLOCKS
  6
Continuous
100
AcDbPolyline
 90
        8
 70
   128
 43
0.0
 10
-0.4777551658246495
 20
0.0660278822821744
 10
-0.4782465151543739
 20
0.0670524814706374
 10
-0.4786312715648899
 20
0.0675975685017619
 10
-0.4791026445638897
 20
0.0680697649831797
 10
-0.4796461428664964
 20
0.0684567718614443
 10
-0.4802472514954616
 20
0.0687463275147656
 10
-0.4808174046254164
 20
0.0689111484497778
 10
-0.4822020470648778
 20
0.0690476098203084
  0
LWPOLYLINE
  5
11E
330
45
100
AcDbEntity
  8
BLOCKS
  6
Continuous
100
AcDbPolyline
 90
        7
 70
   128
 43
0.0
 10
-0.5617252301850887
 20
0.0702203971967669
 10
-0.5616594619026808
 20
0.0712054955183089
 10
-0.5607162747849844
 20
0.0744280161907153
 10
-0.5587595839040978
 20
0.0771566792735826
 10
-0.5560099913138231
 20
0.0790838487033165
 10
-0.552777492720951
 20
0.0799922507457336
 10
-0.5517267230678619
 20
0.0800476098199937
  0
LINE
  5
11F
330
45
100
AcDbEntity
  8
BLOCKS
  6
Continuous
100
AcDbLine
 10
-0.4600389896728951
 20
0.0800476098203086
 30
0.0
 11
-0.4816615209408639
 21
0.0800476098203086
 31
0.0
  0
LWPOLYLINE
  5
120
330
45
100
AcDbEntity
  8
BLOCKS
  6
Continuous
100
AcDbPolyline
 90
        8
 70
   128
 43
0.0
 10
-0.4676345554528809
 20
0.07036282804775
 10
-0.4687273007055746
 20
0.0726415039945238
 10
-0.4701846345869098
 20
0.0747061188444053
 10
-0.4719700346775727
 20
0.0764946380054977
 10
-0.4740286145836138
 20
0.0779604835827019
 10
-0.4763053850680945
 20
0.0790572100865808
 10
-0.4787331300567724
 20
0.0797590271563871
 10
-0.4816613126054518
 20
0.0800476098203075
  0
LWPOLYLINE
  5
121
330
45
100
AcDbEntity
  8
BLOCKS
  6
Continuous
100
AcDbPolyline
 90
        9
 70
   128
 43
0.0
 10
-0.317512731986418
 20
0.0307452825508875
 10
-0.3174973602107247
 20
0.030901401411636
 10
-0.3174518356123872
 20
0.0310515207121176
 10
-0.3173779076761924
 20
0.0311898714518037
 10
-0.3172784174112633
 20
0.0313111368893618
 10
-0.3171571881726857
 20
0.0314106568620281
 10
-0.317018878732116
 20
0.0314846068730691
 10
-0.3168688042437799
 20
0.0315301450650321
 10
-0.3167127319861072
 20
0.0315455214307389
  0
LINE
  5
122
330
45
100
AcDbEntity
  8
BLOCKS
  6
Continuous
100
AcDbLine
 10
-0.3175127319862559
 20
0.0307452825508875
 30
0.0
 11
-0.3175127319862559
 21
0.030345163111403
 31
0.0
  0
LWPOLYLINE
  5
123
330
45
100
AcDbEntity
  8
BLOCKS
  6
Continuous
100
AcDbPolyline
 90
       10
 70
   128
 43
0.0
 10
-0.3175127319864197
 20
0.030345163111403
 10
-0.3175248857839767
 20
0.0302062030882092
 10
-0.3175609778897422
 20
0.0300714652949978
 10
-0.3176199116633404
 20
0.0299450436714363
 10
-0.3176998964318892
 20
0.0298307794745841
 10
-0.3177985018986664
 20
0.0297321445642427
 10
-0.3179127319864574
 20
0.0296521359122511
 10
-0.3180391158718493
 20
0.0295931845410149
 10
-0.3181738134444396
 20
0.0295570816581216
 10
-0.3183127319866407
 20
0.029544924231397
  0
LWPOLYLINE
  5
124
330
45
100
AcDbEntity
  8
BLOCKS
  6
Continuous
100
AcDbPolyline
 90
        8
 70
   128
 43
0.0
 10
-0.4582858389905624
 20
0.045691953893795
 10
-0.456463925890327
 20
0.0418927666956387
 10
-0.4540341421686179
 20
0.0384504791433398
 10
-0.4510573814213723
 20
0.0354685191840378
 10
-0.4476251520598425
 20
0.0330245493025058
 10
-0.4438291474626829
 20
0.0311960210942402
 10
-0.4397814228762883
 20
0.0300259435937227
 10
-0.434900292948093
 20
0.0295449242316221
  0
LWPOLYLINE
  5
125
330
45
100
AcDbEntity
  8
BLOCKS
  6
Continuous
100
AcDbPolyline
 90
        8
 70
   128
 43
0.0
 10
-0.4685720838695988
 20
0.0417941107089689
 10
-0.4659831374178294
 20
0.0363037392399599
 10
-0.462480776591957
 20
0.0313419259860291
 10
-0.4581899864173386
 20
0.0270436415147918
 10
-0.4532426583488279
 20
0.0235208231014821
 10
-0.4477709413199802
 20
0.0208851073959812
 10
-0.4418656033652303
 20
0.0191780487939622
 10
-0.4349002949340946
 20
0.0185449242312632
  0
LINE
  5
126
330
45
100
AcDbEntity
  8
BLOCKS
  6
Continuous
100
AcDbLine
 10
-0.3183127319866418
 20
0.0295449242312878
 30
0.0
 11
-0.4349002949340968
 21
0.0295449242312628
 31
0.0
  0
LINE
  5
127
330
45
100
AcDbEntity
  8
BLOCKS
100
AcDbLine
 10
-0.551862809938889
 20
0.0000476098203097
 30
0.0
 11
-0.5628641204296793
 21
0.0000476098203097
 31
0.0
  0
LWPOLYLINE
  5
128
330
45
100
AcDbEntity
  8
BLOCKS
  6
Continuous
100
AcDbPolyline
 90
        5
 70
   128
 43
0.0
 10
-0.5628641204296793
 20
0.0000476098203097
 10
-0.5625941876479891
 20
0.0175342773846745
 10
-0.5623142211847182
 20
0.0350694293082546
 10
-0.5620244795265018
 20
0.0526368757861815
 10
-0.5617252301851852
 20
0.0702203971967691
  0
LINE
  5
129
330
45
100
AcDbEntity
  8
BLOCKS
  6
Continuous
100
AcDbLine
 10
-0.4582858394777606
 20
0.0456919532290482
 30
0.0
 11
-0.4676345556737534
 21
0.0703628266793118
 31
0.0
  0
LWPOLYLINE
  5
12A
330
45
100
AcDbEntity
  8
BLOCKS
  6
Continuous
100
AcDbPolyline
 90
        5
 70
   128
 43
0.0
 10
-0.551862809938889
 20
0.0000476098203097
 10
-0.5515955429230536
 20
0.0173615849055119
 10
-0.5513156692084386
 20
0.034890927698321
 10
-0.551026023006055
 20
0.0524525865540812
 10
-0.5507435966555176
 20
0.0690476098203084
  0
LINE
  5
12B
330
45
100
AcDbEntity
  8
BLOCKS
  6
Continuous
100
AcDbLine
 10
-0.4685720838695988
 20
0.0417941107089689
 30
0.0
 11
-0.4777551658246478
 21
0.066027882282167
 31
0.0
  0
LINE
  5
12C
330
45
100
AcDbEntity
  8
BLOCKS
  6
Continuous
100
AcDbLine
 10
0.5518373459661189
 20
0.0000476098203075
 30
0.0
 11
-0.551862809938889
 21
0.0000476098203097
 31
0.0
  0
LINE
  5
12D
330
45
100
AcDbEntity
  8
BLOCKS
  6
Continuous
100
AcDbLine
 10
0.3616793903580964
 20
0.0800476098203086
 30
0.0
 11
-0.3617048543308675
 21
0.0800476098203075
 31
0.0
  0
LINE
  5
12E
330
45
100
AcDbEntity
  8
BLOCKS
  6
Continuous
100
AcDbLine
 10
-0.3083127319862826
 20
0.0315455214301278
 30
0.0
 11
-0.3167127319861095
 21
0.0315455214305774
 31
0.0
  0
LINE
  5
12F
330
45
100
AcDbEntity
  8
BLOCKS
  6
Continuous
100
AcDbLine
 10
0.3163474210639668
 20
0.018544924231424
 30
0.0
 11
-0.434900294934094
 21
0.0185449242312632
 31
0.0
  0
ENDBLK
  5
131
330
45
100
AcDbEntity
  8
0
100
AcDbBlockEnd
  0
BLOCK
  5
19F
330
133
100
AcDbEntity
  8
0
100
AcDbBlockBegin
  2
107171PL
 70
     0
 10
0.0
 20
0.0
 30
0.0
  3
107171PL
  1

  0
LWPOLYLINE
  5
134
330
133
100
AcDbEntity
  8
BLOCKS
  6
Continuous
100
AcDbPolyline
 90
        5
 70
   128
 43
0.0
 10
0.74496854533067
 20
0.2564156903441858
 10
0.7315323095547877
 20
0.2758818468318452
 10
0.7171312955556508
 20
0.2946455135041879
 10
0.7018017748765136
 20
0.3126586023005177
 10
0.6855831675323737
 20
0.329875570592169
  0
LWPOLYLINE
  5
135
330
133
100
AcDbEntity
  8
BLOCKS
100
AcDbPolyline
 90
       25
 70
     1
 43
0.0
 10
0.6770968626606883
 20
-0.0093519481334869
 10
0.6769673788006294
 20
-0.0089400533585422
 10
0.6767004921043438
 20
-0.0086006496664362
 10
0.6763307539039687
 20
-0.0083776764876376
 10
0.6759060308107263
 20
-0.008300000091262
 10
0.6315741735680126
 20
-0.0083000000818532
 10
0.631124533156642
 20
-0.0083874249173454
 10
0.6307404089720397
 20
-0.0086369609222913
 10
0.6304777710109877
 20
-0.0090122486890181
 10
0.6303748877397789
 20
-0.0094586057656989
 10
0.6301034474401945
 20
-0.0154324619869368
 10
0.6301015464760309
 20
-0.0155000057360093
 10
0.6301928899126156
 20
-0.015959220199826
 10
0.6304530172143013
 20
-0.0163485282185383
 10
0.6308423252326577
 20
-0.0166086555198763
 10
0.6313015453489771
 20
-0.0167000000810941
 10
0.6768939419120624
 20
-0.0167000000806866
 10
0.6771577833103911
 20
-0.0166705166804832
 10
0.6774087251503559
 20
-0.0165839734277034
 10
0.6776343904945939
 20
-0.0164441648075535
 10
0.6778239607623085
 20
-0.0162583304419116
 10
0.677967830832333
 20
-0.0160352324788295
 10
0.6780593514160626
 20
-0.0157860432317114
 10
0.6780936088554857
 20
-0.0155228171610764
 10
0.6780693777953152
 20
-0.0152584416400225
  0
CIRCLE
  5
136
330
133
100
AcDbEntity
  8
BLOCKS
100
AcDbCircle
 10
0.7522981987768037
 20
-0.0000000000813117
 30
0.0
 40
0.0414538073704193
  0
LWPOLYLINE
  5
137
330
133
100
AcDbEntity
  8
BLOCKS
100
AcDbPolyline
 90
       25
 70
     1
 43
0.0
 10
0.6780693777953141
 20
0.0152584412156767
 10
0.6780936088554857
 20
0.0155228167367324
 10
0.6780593514160626
 20
0.0157860428073701
 10
0.6779678308323335
 20
0.0160352320544831
 10
0.6778239607623085
 20
0.0162583300175658
 10
0.6776343904945939
 20
0.0164441643832095
 10
0.6774087251503566
 20
0.0165839730033559
 10
0.6771577833103874
 20
0.0166705162561385
 10
0.6768939419120646
 20
0.0166999996563442
 10
0.631301545348976
 20
0.0166999996567518
 10
0.6308423252326577
 20
0.0166086550955322
 10
0.6304530172143032
 20
0.0163485277941925
 10
0.6301928899126156
 20
0.0159592197754825
 10
0.6301015464760313
 20
0.0155000053116629
 10
0.6301034474401943
 20
0.015432461562603
 10
0.6303748877397775
 20
0.0094586053413565
 10
0.6304777710109877
 20
0.0090122482646757
 10
0.6307404089720375
 20
0.0086369604979501
 10
0.6311245331566454
 20
0.0083874244929973
 10
0.6315741735680124
 20
0.0082999996575114
 10
0.6759060308107196
 20
0.0082999996669196
 10
0.6763307539039665
 20
0.0083776760632946
 10
0.6767004921043429
 20
0.0086006492420921
 10
0.6769673788006296
 20
0.0089400529341998
 10
0.6770968626606885
 20
0.0093519477091468
  0
CIRCLE
  5
138
330
133
100
AcDbEntity
  8
BLOCKS
  6
Continuous
100
AcDbCircle
 10
0.7522981987768037
 20
-0.0000000000813117
 30
0.0
 40
0.03
  0
LWPOLYLINE
  5
139
330
133
100
AcDbEntity
  8
BLOCKS
  6
Continuous
100
AcDbPolyline
 90
       11
 70
   128
 43
0.0
 10
0.8234729161293238
 20
-0.0000000000813117
 10
0.8228192397408122
 20
0.0246013533977447
 10
0.820860418861371
 20
0.0491409880390626
 10
0.8176026325940245
 20
0.0735329777398556
 10
0.8130525815369185
 20
0.0977269201875083
 10
0.8072269392830369
 20
0.1216376892138919
 10
0.8001398706771126
 20
0.1452050352796243
 10
0.7918094737660237
 20
0.1683706931539132
 10
0.7822644525841609
 20
0.191052808448402
 10
0.7715244458358473
 20
0.2132046717710045
 10
0.7596278522229252
 20
0.2347485727452136
  0
LWPOLYLINE
  5
13A
330
133
100
AcDbEntity
  8
BLOCKS
  6
Continuous
100
AcDbPolyline
 90
        3
 70
   128
 43
0.0
 10
0.7596278522488104
 20
0.2347485728338859
 10
0.7524462307158777
 20
0.2456524919563867
 10
0.744968545373962
 20
0.2564156902905404
  0
LWPOLYLINE
  5
13B
330
133
100
AcDbEntity
  8
BLOCKS
  6
Continuous
100
AcDbPolyline
 90
        3
 70
   128
 43
0.0
 10
0.7449685453739633
 20
-0.2564156904531654
 10
0.7524462307161765
 20
-0.245652492118615
 10
0.7596278522488104
 20
-0.2347485729965092
  0
LWPOLYLINE
  5
13C
330
133
100
AcDbEntity
  8
BLOCKS
  6
Continuous
100
AcDbPolyline
 90
        5
 70
   128
 43
0.0
 10
0.6855831675323792
 20
-0.3298755707547906
 10
0.7018017748764726
 20
-0.3126586024630973
 10
0.7171312955553014
 20
-0.2946455136664599
 10
0.7315323095547467
 20
-0.2758818469944248
 10
0.7449685453306723
 20
-0.2564156905068097
  0
ARC
  5
13D
330
133
100
AcDbEntity
  8
BLOCKS
  6
Continuous
100
AcDbCircle
 10
0.3563184013123367
 20
-0.0000000000813134
 30
0.0
 40
0.5500000000000003
100
AcDbArc
 50
315.0
 51
45.0
  0
ARC
  5
13E
330
133
100
AcDbEntity
  8
BLOCKS
  6
Continuous
100
AcDbCircle
 10
0.3563184013123367
 20
-0.0000000000813134
 30
0.0
 40
0.4970210174257221
100
AcDbArc
 50
315.0
 51
45.00000001174513
  0
LWPOLYLINE
  5
13F
330
133
100
AcDbEntity
  8
BLOCKS
  6
Continuous
100
AcDbPolyline
 90
       11
 70
   128
 43
0.0
 10
0.7596278522229239
 20
-0.2347485729078374
 10
0.7715243566151924
 20
-0.2132048238329747
 10
0.782264231546809
 20
-0.1910532886242572
 10
0.7918092850942128
 20
-0.1683711869064513
 10
0.8001397669842802
 20
-0.1452053721224939
 10
0.8072269392830369
 20
-0.1216376893772224
 10
0.8130525004226376
 20
-0.0977272631789794
 10
0.8176025452791543
 20
-0.0735334990840374
 10
0.8208603663354541
 20
-0.0491415140426079
 10
0.8228192397392707
 20
-0.0246015296918421
 10
0.8234729161293238
 20
-0.0000000000813117
  0
LWPOLYLINE
  5
140
330
133
100
AcDbEntity
  8
BLOCKS
  6
Continuous
100
AcDbPolyline
 90
       10
 70
   128
 43
0.0
 10
0.5741411094979379
 20
0.5599947510383164
 10
0.5728054394060303
 20
0.5611155703133113
 10
0.5712955021565697
 20
0.5619874832444464
 10
0.5696571764288276
 20
0.5625839971985148
 10
0.567940241921018
 20
0.5628869874008638
 10
0.5661968668193653
 20
0.5628872476475181
 10
0.5644800226941528
 20
0.5625847700310067
 10
0.5628418749853735
 20
0.5619887451806586
 10
0.5613321979822297
 20
0.5611172830099464
 10
0.5599968624565407
 20
0.5599968624559541
  0
LINE
  5
141
330
133
100
AcDbEntity
  8
BLOCKS
  6
Continuous
100
AcDbLine
 10
0.5741411094979117
 20
0.5599947510382913
 30
0.0
 11
0.575350801724377
 21
0.5587850588119819
 31
0.0
  0
LWPOLYLINE
  5
142
330
133
100
AcDbEntity
  8
BLOCKS
  6
Continuous
100
AcDbPolyline
 90
       15
 70
   128
 43
0.0
 10
0.6094311977816026
 20
0.4497810670800687
 10
0.6035832225039806
 20
0.4550906043403916
 10
0.5972468830574301
 20
0.4595021374120291
 10
0.5904792419803755
 20
0.463000455174356
 10
0.5850958913099406
 20
0.4650241510920547
 10
0.5795960947951916
 20
0.4664697255302463
 10
0.5740308930228377
 20
0.4673349356561187
 10
0.5684504356750607
 20
0.4676220919726052
 10
0.5628699074086205
 20
0.4673349272196709
 10
0.5573046832378657
 20
0.4664697060452227
 10
0.5518049116081805
 20
0.4650241303747613
 10
0.5464216293688345
 20
0.4630004551790069
 10
0.5396539135638352
 20
0.4595020927039616
 10
0.5333176296303739
 20
0.4550905881337883
 10
0.5274696735729142
 20
0.4497810670957324
  0
LWPOLYLINE
  5
143
330
133
100
AcDbEntity
  8
BLOCKS
  6
Continuous
100
AcDbPolyline
 90
        9
 70
   128
 43
0.0
 10
0.5917450757803124
 20
0.424582699739093
 10
0.5865469395994604
 20
0.4289263526621279
 10
0.5806897682312945
 20
0.4321616957063021
 10
0.5743799025310807
 20
0.4341747517628597
 10
0.5678396312145071
 20
0.4348946033733842
 10
0.561299359897935
 20
0.4342958910621554
 10
0.5549894941977211
 20
0.432399706718187
 10
0.5491323228292016
 20
0.4292728505557557
 10
0.5439341866479984
 20
0.4250254778248518
  0
LWPOLYLINE
  5
144
330
133
100
AcDbEntity
  8
BLOCKS
100
AcDbPolyline
 90
       22
 70
     1
 43
0.0
 10
0.5670632842316252
 20
0.3163485278367091
 10
0.566673976275939
 20
0.3166086550962916
 10
0.5662147561573886
 20
0.3166999996565392
 10
0.5567207823497873
 20
0.3166999996568563
 10
0.5562615622332041
 20
0.3166086550955845
 10
0.5558722542106956
 20
0.3163485277913503
 10
0.5498722542179176
 20
0.3103485277989443
 10
0.5496121269129663
 20
0.3099592197753498
 10
0.5495207823519753
 20
0.3094999996573426
 10
0.5496121269129652
 20
0.3090407795379213
 10
0.5498722542142981
 20
0.3086514715195665
 10
0.5502615622330067
 20
0.3083913442178687
 10
0.5507207823546603
 20
0.3082999996567196
 10
0.5722147559494727
 20
0.3082999996257331
 10
0.5725630977697478
 20
0.3083516712540449
 10
0.5728814404366353
 20
0.308502236122506
 10
0.5731423687008076
 20
0.3087387277160701
 10
0.5733234115961739
 20
0.3090407795379201
 10
0.5734089778293877
 20
0.3093823790886176
 10
0.5733916984936116
 20
0.309734108043308
 10
0.5732730616745599
 20
0.3100656757414095
 10
0.5730632842933742
 20
0.3103485277962648
  0
LWPOLYLINE
  5
145
330
133
100
AcDbEntity
  8
BLOCKS
100
AcDbPolyline
 90
       22
 70
     1
 43
0.0
 10
0.6170536179314433
 20
0.2663485277241966
 10
0.6166643098077394
 20
0.266608655096046
 10
0.6162050896883088
 20
0.2666999996570371
 10
0.5067207823498842
 20
0.2666999996566824
 10
0.506261562233299
 20
0.2666086550956925
 10
0.5058722542111162
 20
0.2663485277918028
 10
0.4998722542166687
 20
0.2603485277971936
 10
0.4996121269130723
 20
0.2599592197754612
 10
0.4995207823517297
 20
0.2594999996571016
 10
0.4996121269127196
 20
0.2590407795376746
 10
0.4998722542140511
 20
0.258651471519322
 10
0.5002615622327619
 20
0.2583913442176265
 10
0.5007207823527199
 20
0.2582999996568139
 10
0.622205089679177
 20
0.2582999996556543
 10
0.6225534313011995
 20
0.2583516712541552
 10
0.6228717739684351
 20
0.2585022361222639
 10
0.6231327022326116
 20
0.2587387277158279
 10
0.6233137451276267
 20
0.2590407795380304
 10
0.6233993113608407
 20
0.2593823790887279
 10
0.6233820320250628
 20
0.2597341080434194
 10
0.6232633952060218
 20
0.2600656757415209
 10
0.6230536178252035
 20
0.2603485277959908
  0
LWPOLYLINE
  5
146
330
133
100
AcDbEntity
  8
BLOCKS
100
AcDbPolyline
 90
       22
 70
     1
 43
0.0
 10
0.592063284230786
 20
0.291348527837979
 10
0.5916739762770078
 20
0.2916086550961677
 10
0.5912147561579629
 20
0.2916999996567995
 10
0.531720782352296
 20
0.291699999656978
 10
0.5312615622334187
 20
0.2916086550958153
 10
0.530872254210959
 20
0.2913485277916141
 10
0.5248722542171059
 20
0.2853485277975938
 10
0.5246121269131847
 20
0.2849592197755783
 10
0.5245207823514886
 20
0.2844999996568652
 10
0.5246121269131863
 20
0.2840407795381532
 10
0.5248722542145328
 20
0.2836514715197984
 10
0.5252615622332529
 20
0.2833913442181017
 10
0.5257207823429849
 20
0.2832999996584738
 10
0.5972147561485471
 20
0.2832999996553917
 10
0.597563097770796
 20
0.2833516712539245
 10
0.5978814404380488
 20
0.2835022361220365
 10
0.5981423687022219
 20
0.283738727715596
 10
0.5983234115968801
 20
0.2840407795381521
 10
0.5984089778301076
 20
0.2843823790888518
 10
0.5983916984946839
 20
0.2847341080431875
 10
0.5982730616756303
 20
0.2850656757412867
 10
0.5980632842948081
 20
0.285348527795751
  0
LWPOLYLINE
  5
147
330
133
100
AcDbEntity
  8
BLOCKS
100
AcDbPolyline
 90
       26
 70
     1
 43
0.0
 10
0.6053907999828869
 20
0.0658065517054092
 10
0.6052301145392435
 20
0.0661640806292843
 10
0.6049627835833232
 20
0.0664507526562608
 10
0.6046173310583298
 20
0.0666359802024852
 10
0.6042306164350247
 20
0.0666999996573077
 10
0.4748408778427461
 20
0.0666999996566875
 10
0.4743816577279964
 20
0.0666086550957795
 10
0.4739923497096527
 20
0.0663485277944375
 10
0.4737322224075991
 20
0.0659592197753733
 10
0.4736408778466114
 20
0.0654999996573679
 10
0.4736790626389897
 20
0.0652002833307296
 10
0.4737906312980361
 20
0.0649194979892701
 10
0.4768862693745481
 20
0.0589726737148021
 10
0.4770731384978047
 20
0.0586962489152563
 10
0.4773288980171614
 20
0.0584819645072565
 10
0.4776337743933184
 20
0.0583463874649306
 10
0.4779641967101322
 20
0.0582999996579974
 10
0.6057387800857932
 20
0.0582999996531504
 10
0.6060072297258582
 20
0.0583305398284534
 10
0.6062620864374983
 20
0.0584201151746436
 10
0.6064903279271287
 20
0.0585646569498857
 10
0.606680630742086
 20
0.0587564154991895
 10
0.6068229930904372
 20
0.0589860226945422
 10
0.6069106235869812
 20
0.0592415758170881
 10
0.6069386118427295
 20
0.0595102621345137
 10
0.606906022123528
 20
0.059778470656882
  0
LWPOLYLINE
  5
148
330
133
100
AcDbEntity
  8
BLOCKS
100
AcDbPolyline
 90
       25
 70
     1
 43
0.0
 10
0.6107041919933031
 20
0.0406895471447189
 10
0.6105655735273653
 20
0.0410875547663943
 10
0.6102978910435781
 20
0.0414130869980505
 10
0.609934163388017
 20
0.0416259891795244
 10
0.6095192566563527
 20
0.0416999996571303
 10
0.4855391258644062
 20
0.0416999996567512
 10
0.4850799057476482
 20
0.0416086550960114
 10
0.484690597728598
 20
0.04134852779396
 10
0.4844304704272529
 20
0.0409592197756047
 10
0.4843391258662794
 20
0.040499999660529
 10
0.4843940647915756
 20
0.0401410634891664
 10
0.4861086227835406
 20
0.0341942392362154
 10
0.4862691773903836
 20
0.0338364302553328
 10
0.4865365237361244
 20
0.0335494964994985
 10
0.4868821068082381
 20
0.0333640850938429
 10
0.4872690152030165
 20
0.0332999996569197
 10
0.610406393589818
 20
0.0332999996554287
 10
0.610660317651649
 20
0.0333272748641065
 10
0.6109027525795244
 20
0.0334074669264226
 10
0.61112263969847
 20
0.033537324082692
 10
0.6113102076484177
 20
0.0337106200441082
 10
0.6114566894067841
 20
0.0339198001595111
 10
0.6115557786723142
 20
0.0341551606143764
 10
0.6116026205674391
 20
0.0344061811215085
 10
0.6115954809050403
 20
0.0346614660345284
  0
LWPOLYLINE
  5
149
330
133
100
AcDbEntity
  8
BLOCKS
100
AcDbPolyline
 90
       22
 70
     1
 43
0.0
 10
0.4302960341066598
 20
0.0914329883231346
 10
0.429941618985198
 20
0.0916312791095948
 10
0.4295413605690828
 20
0.0916999996572452
 10
0.3317207823481305
 20
0.0916999996565039
 10
0.3312615622331378
 20
0.0916086550955493
 10
0.3308722542107306
 20
0.0913485277913822
 10
0.3248722542178621
 20
0.0853485277988853
 10
0.3246121269129006
 20
0.0849592197753157
 10
0.3245207823519077
 20
0.084499999657304
 10
0.3246121269128992
 20
0.084040779537886
 10
0.3248722542142464
 20
0.0836514715195313
 10
0.3252615622329518
 20
0.0833913442178334
 10
0.3257207823530169
 20
0.0832999996570038
 10
0.4363925518014682
 20
0.0832999996488388
 10
0.4367447682548448
 20
0.0833528538034773
 10
0.437065957823796
 20
0.0835067603083314
 10
0.4373278268967289
 20
0.0837481615093873
 10
0.4375073073636563
 20
0.0840557923164067
 10
0.4375885887457853
 20
0.0844025534563446
 10
0.4375645109460118
 20
0.0847578986562269
 10
0.4374371949848384
 20
0.0850905254705356
 10
0.437217856157023
 20
0.0853711327190377
  0
LWPOLYLINE
  5
14A
330
133
100
AcDbEntity
  8
BLOCKS
100
AcDbPolyline
 90
       23
 70
     1
 43
0.0
 10
0.3795058633503598
 20
0.1152955341653399
 10
0.3709347196731784
 20
0.116690720400295
 10
0.3707857756154169
 20
0.1166999996570132
 10
0.3567207823505009
 20
0.1166999996567859
 10
0.3562615622332745
 20
0.1166086550956697
 10
0.3558722542111701
 20
0.1163485277918255
 10
0.3498722542165976
 20
0.1103485277971254
 10
0.3496121269130356
 20
0.1099592197754327
 10
0.3495207823516907
 20
0.1094999996570709
 10
0.3496121269126809
 20
0.1090407795376518
 10
0.3498722542140166
 20
0.1086514715192948
 10
0.3502615622327252
 20
0.1083913442176004
 10
0.3507207823533387
 20
0.1082999996566582
 10
0.3958188252710403
 20
0.1082999996448439
 10
0.3962296749062042
 20
0.1083725234339465
 10
0.3965908638684541
 20
0.1085813286008977
 10
0.3968587342478358
 20
0.1089011762593668
 10
0.3970009077581582
 20
0.1092934054751367
 10
0.3970001994648609
 20
0.1097106063418937
 10
0.3968566949826513
 20
0.1101023505541866
 10
0.3965877401231248
 20
0.1104212868301488
 10
0.3962258442563333
 20
0.1106288643967969
 10
0.3879532906237441
 20
0.1132708561590539
  0
LWPOLYLINE
  5
14B
330
133
100
AcDbEntity
  8
BLOCKS
100
AcDbPolyline
 90
       24
 70
     1
 43
0.0
 10
0.571819657199458
 20
0.1411575656323771
 10
0.5716276432609105
 20
0.1413835036411888
 10
0.5713863522914834
 20
0.1415557172259446
 10
0.5711100755883254
 20
0.1416631882141405
 10
0.5708158609110022
 20
0.1416999996574884
 10
0.3817207823493609
 20
0.1416999996563743
 10
0.3812615622333872
 20
0.1416086550957937
 10
0.3808722542108913
 20
0.1413485277915686
 10
0.3748722541655374
 20
0.1353485277204504
 10
0.3746121269131604
 20
0.1349592197755533
 10
0.3745207823514511
 20
0.1344999996568424
 10
0.3746121269131617
 20
0.1340407795381293
 10
0.3748722542144913
 20
0.1336514715197756
 10
0.3752615622332147
 20
0.1333913442180779
 10
0.3757207823521401
 20
0.1332999996566218
 10
0.5746285229767389
 20
0.1332999996587818
 10
0.5749432322055279
 20
0.1333422450595151
 10
0.5752359411787964
 20
0.1334650875272746
 10
0.5754859299895966
 20
0.13366079712795
 10
0.5756762304258021
 20
0.133914927797814
 10
0.5757927628234031
 20
0.1342102527943245
 10
0.5758282466839867
 20
0.1345257485132902
 10
0.5757792841598848
 20
0.1348393907591787
 10
0.5756501632185687
 20
0.1351294845222708
  0
LWPOLYLINE
  5
14C
330
133
100
AcDbEntity
  8
BLOCKS
100
AcDbPolyline
 90
       24
 70
     1
 43
0.0
 10
0.5531562320277641
 20
0.1661938278737102
 10
0.5529677249975008
 20
0.1663731804464828
 10
0.552745129528935
 20
0.1665078495975126
 10
0.5524986717294635
 20
0.166591174648587
 10
0.5522400361204358
 20
0.1666196332067921
 10
0.4067209864814735
 20
0.1666995445233704
 10
0.4062614116777534
 20
0.1666083261639835
 10
0.4058717992313393
 20
0.1663480728120044
 10
0.3998696044603915
 20
0.1603458780414223
 10
0.3996094771554093
 20
0.1599565700178187
 10
0.3995181325944199
 20
0.159497349899816
 10
0.3996094141207286
 20
0.1590382819883087
 10
0.3998693715057342
 20
0.1586490547767016
 10
0.4002584559036971
 20
0.1583888836884796
 10
0.4007174736181734
 20
0.158297350080062
 10
0.5571581482796408
 20
0.1582114412187263
 10
0.5574901090204202
 20
0.1582583825472193
 10
0.5577962554457643
 20
0.158394750427226
 10
0.5580526281286565
 20
0.15861076367701
 10
0.5582392401546041
 20
0.1588892679471417
 10
0.5583415268861521
 20
0.1592085266213735
 10
0.5583515050791223
 20
0.1595436222981789
 10
0.5582681509284137
 20
0.1598682357273662
 10
0.5580986859819843
 20
0.160157516087653
  0
LWPOLYLINE
  5
14D
330
133
100
AcDbEntity
  8
BLOCKS
100
AcDbPolyline
 90
       22
 70
     1
 43
0.0
 10
0.495949102225471
 20
0.2164868380346593
 10
0.4956379797812784
 20
0.2166291724351902
 10
0.495299398997936
 20
0.2166783592932768
 10
0.4567209863807785
 20
0.2166995445030102
 10
0.4562614116779895
 20
0.2166083261642257
 10
0.4558717992316074
 20
0.2163480728122511
 10
0.4498696044595503
 20
0.2103458780400536
 10
0.4496094771556739
 20
0.2099565700180665
 10
0.4495181325939777
 20
0.2094973498993499
 10
0.4496094141209935
 20
0.2090382819885531
 10
0.4498693715059764
 20
0.2086490547769449
 10
0.450258455903946
 20
0.208388883688724
 10
0.4507174736181
 20
0.2082973500803678
 10
0.5042027380973241
 20
0.208267978830429
 10
0.5045756142976754
 20
0.2083271656333181
 10
0.504911646231003
 20
0.2084992768737811
 10
0.5051775714621693
 20
0.2087672759600491
 10
0.5053470671362118
 20
0.2091046347534371
 10
0.5054033555654258
 20
0.2094779594803708
 10
0.5053408649870292
 20
0.2098502962451358
 10
0.5051657810894642
 20
0.210184788947713
 10
0.5048954346986725
 20
0.2104483275317875
  0
LWPOLYLINE
  5
14E
330
133
100
AcDbEntity
  8
BLOCKS
100
AcDbPolyline
 90
       22
 70
     1
 43
0.0
 10
0.5288128668498248
 20
0.191337993477714
 10
0.5284400742932835
 20
0.1915667261394924
 10
0.5280100716387568
 20
0.1916466676739094
 10
0.4317209862867421
 20
0.1916995444845372
 10
0.43126141167785
 20
0.1916083261641075
 10
0.4308717992311188
 20
0.1913480728117861
 10
0.4248696044609339
 20
0.185345878042408
 10
0.4246094771555196
 20
0.1849565700179448
 10
0.4245181325941767
 20
0.1844973498995796
 10
0.4246094141208386
 20
0.1840382819884303
 10
0.4248693715058426
 20
0.1836490547768256
 10
0.4252584559037937
 20
0.1833888836886024
 10
0.4257174736187591
 20
0.183297350080511
 10
0.5344490008495859
 20
0.1832376405334264
 10
0.5347999534758228
 20
0.1832899059063788
 10
0.5351202798752834
 20
0.1834425178719516
 10
0.5353819738636262
 20
0.1836821335442335
 10
0.5355621554972689
 20
0.1839878032885383
 10
0.5356450714691654
 20
0.1843328023544359
 10
0.5356234724237298
 20
0.184686967422092
 10
0.5354992467688
 20
0.1850193337877602
 10
0.5352832555711903
 20
0.1853008426083443
  0
LWPOLYLINE
  5
14F
330
133
100
AcDbEntity
  8
BLOCKS
100
AcDbPolyline
 90
       26
 70
     1
 43
0.0
 10
0.5863214550711903
 20
0.1160405610101054
 10
0.5861334617986271
 20
0.1163118031422312
 10
0.5858791214950223
 20
0.1165219276442667
 10
0.5855769518125636
 20
0.1166543464843551
 10
0.585250103854132
 20
0.1166999996575259
 10
0.4269987183949823
 20
0.1166999996573077
 10
0.4265394982751309
 20
0.1166086550956697
 10
0.4261501902564232
 20
0.1163485277939776
 10
0.4258900629550875
 20
0.1159592197756183
 10
0.4257987183933913
 20
0.1154999996569052
 10
0.4258378607322161
 20
0.1151968088026592
 10
0.4259519405871638
 20
0.1149132661368935
 10
0.4261342757370139
 20
0.1146679815542359
 10
0.4263724787228134
 20
0.1144763669794986
 10
0.4352747103075888
 20
0.1085295426705829
 10
0.4356094382469247
 20
0.1083588273685052
 10
0.4359805525279567
 20
0.1082999996567457
 10
0.5881800819659374
 20
0.1082999996537285
 10
0.5884787035034888
 20
0.1083379459369201
 10
0.5887585605874209
 20
0.1084486374388314
 10
0.5890018689027452
 20
0.1086258210822166
 10
0.5891937328912136
 20
0.108857728799851
 10
0.5893214897450924
 20
0.109130256167141
 10
0.5893777938261622
 20
0.1094259296868165
 10
0.5893583656264264
 20
0.1097262547146204
 10
0.5892651460697303
 20
0.110012479823497
  0
LWPOLYLINE
  5
150
330
133
100
AcDbEntity
  8
BLOCKS
100
AcDbPolyline
 90
       26
 70
     1
 43
0.0
 10
0.5973581385240321
 20
0.0909235562926892
 10
0.5971809672980699
 20
0.0912388187271813
 10
0.59691791790376
 20
0.0914869819461853
 10
0.5965928802819881
 20
0.0916455080040362
 10
0.5962353741704931
 20
0.0916999996557866
 10
0.457050134034117
 20
0.0916999996564664
 10
0.4565909139157635
 20
0.0916086550962541
 10
0.4562016058967049
 20
0.0913485277942084
 10
0.4559414785953698
 20
0.090959219775848
 10
0.4558501340343787
 20
0.0904999996564288
 10
0.4559296232766568
 20
0.0900705166641433
 10
0.4561575601025175
 20
0.0896979324671566
 10
0.4611970245681173
 20
0.0837511081049479
 10
0.4613870922195699
 20
0.0835614634705655
 10
0.4616144057818591
 20
0.0834186417703609
 10
0.4618678624031555
 20
0.083330158883905
 10
0.4621346606514684
 20
0.0832999996563183
 10
0.5984139176682186
 20
0.0832999996612966
 10
0.598697203321033
 20
0.0833340754204676
 10
0.5989644936922546
 20
0.083433760469942
 10
0.5992005430984467
 20
0.0835940003765279
 10
0.599392327248721
 20
0.0838052229830885
 10
0.5995285446413684
 20
0.0840559039987955
 10
0.5996020393628451
 20
0.084331575316852
 10
0.5996080663509509
 20
0.0846167856171565
 10
0.5995468779306678
 20
0.0848954752791622
  0
LWPOLYLINE
  5
151
330
133
100
AcDbEntity
  8
BLOCKS
100
AcDbPolyline
 90
       26
 70
     1
 43
0.0
 10
0.6069060221235276
 20
-0.0597784710812232
 10
0.6069386118427295
 20
-0.0595102625588544
 10
0.6069106235869797
 20
-0.0592415762414311
 10
0.6068229930904375
 20
-0.0589860231188817
 10
0.606680630742086
 20
-0.0587564159235353
 10
0.60649032792713
 20
-0.058564657374227
 10
0.6062620864374978
 20
-0.0584201155989877
 10
0.6060072297258507
 20
-0.0583305402527952
 10
0.6057387800857777
 20
-0.0583000000774945
 10
0.4779641967101393
 20
-0.0583000000823387
 10
0.4776337743933186
 20
-0.0583463878892747
 10
0.4773288980171612
 20
-0.0584819649315978
 10
0.4770731384978021
 20
-0.0586962493395987
 10
0.4768862693745448
 20
-0.0589726741391508
 10
0.4737906312980357
 20
-0.0649194984136119
 10
0.4736790626389897
 20
-0.0652002837550703
 10
0.4736408778466103
 20
-0.0655000000817091
 10
0.4737322224075994
 20
-0.0659592201997151
 10
0.4739923497096522
 20
-0.066348528218777
 10
0.474381657727991
 20
-0.0666086555201218
 10
0.4748408778427259
 20
-0.0667000000810271
 10
0.6042306164350351
 20
-0.0667000000816501
 10
0.6046173310583263
 20
-0.0666359806268309
 10
0.6049627835833237
 20
-0.0664507530805986
 10
0.6052301145392428
 20
-0.0661640810536295
 10
0.6053907999828894
 20
-0.0658065521297425
  0
LWPOLYLINE
  5
152
330
133
100
AcDbEntity
  8
BLOCKS
100
AcDbPolyline
 90
       25
 70
     1
 43
0.0
 10
0.6137611959826577
 20
-0.0095444618380969
 10
0.6137458539166982
 20
-0.0093041746792744
 10
0.613683009528399
 20
-0.0090717684042505
 10
0.6135748878377908
 20
-0.0088566468553574
 10
0.6134261247221384
 20
-0.0086673399188896
 10
0.6132424596631311
 20
-0.0085116648510603
 10
0.6130314918923756
 20
-0.0083956468329109
 10
0.6128015736719842
 20
-0.0083242346035661
 10
0.6125620199566472
 20
-0.0083000000819811
 10
0.4914043922027168
 20
-0.0083000000817901
 10
0.4909647043247313
 20
-0.0083834542624521
 10
0.4905861727625564
 20
-0.0086222091386452
 10
0.4903214475891832
 20
-0.0089830562221954
 10
0.4902073495100067
 20
-0.0094158051827037
 10
0.4896558525310812
 20
-0.0153626294574406
 10
0.4896479641099134
 20
-0.0155000016121221
 10
0.489739308366425
 20
-0.0159592202001807
 10
0.4899994356684784
 20
-0.0163485282185349
 10
0.4903887436864771
 20
-0.016608655520231
 10
0.490847963804134
 20
-0.0167000000812908
 10
0.6122691400243864
 20
-0.016700000080495
 10
0.6127115428301943
 20
-0.0166154729640414
 10
0.6130916205842139
 20
-0.0163737996690088
 10
0.6133558284870774
 20
-0.016009026773865
 10
0.6134669453103992
 20
-0.0155725429758371
  0
LWPOLYLINE
  5
153
330
133
100
AcDbEntity
  8
BLOCKS
100
AcDbPolyline
 90
       25
 70
     1
 43
0.0
 10
0.6115954809050401
 20
-0.034661466458885
 10
0.6116026205674391
 20
-0.0344061815458503
 10
0.611555778672313
 20
-0.034155161038716
 10
0.6114566894067833
 20
-0.0339198005838546
 10
0.611310207648418
 20
-0.0337106204684506
 10
0.6111226396984705
 20
-0.0335373245070326
 10
0.6109027525795261
 20
-0.0334074673507666
 10
0.6106603176516476
 20
-0.0333272752884489
 10
0.6104063935898101
 20
-0.0333000000797711
 10
0.4872690152029987
 20
-0.0333000000812621
 10
0.486882106808236
 20
-0.0333640855181841
 10
0.4865365237361264
 20
-0.0335494969238425
 10
0.4862691773903831
 20
-0.0338364306796729
 10
0.486108622783539
 20
-0.0341942396605566
 10
0.484394064791575
 20
-0.0401410639135111
 10
0.484339125866278
 20
-0.040500000084873
 10
0.4844304704272526
 20
-0.0409592201999488
 10
0.4846905977285948
 20
-0.0413485282183029
 10
0.4850799057476479
 20
-0.0416086555203521
 10
0.4855391258644
 20
-0.0417000000810913
 10
0.6095192566563549
 20
-0.0417000000814733
 10
0.6099341633880176
 20
-0.0416259896038702
 10
0.6102978910435773
 20
-0.041413087422394
 10
0.6105655735273659
 20
-0.041087555190735
 10
0.6107041919933031
 20
-0.0406895475690607
  0
LWPOLYLINE
  5
154
330
133
100
AcDbEntity
  8
BLOCKS
100
AcDbPolyline
 90
       22
 70
     1
 43
0.0
 10
0.437217856157001
 20
-0.0853711331434016
 10
0.4374371949848382
 20
-0.0850905258948717
 10
0.4375645109460118
 20
-0.0847578990805681
 10
0.4375885887457847
 20
-0.0844025538806864
 10
0.4375073073636569
 20
-0.084055792740752
 10
0.4373278268967269
 20
-0.0837481619337206
 10
0.4370659578237915
 20
-0.083506760732675
 10
0.4367447682548468
 20
-0.0833528542278191
 10
0.4363925518014672
 20
-0.0833000000731818
 10
0.3257207823530332
 20
-0.0833000000813417
 10
0.3252615622329551
 20
-0.083391344642173
 10
0.3248722542142453
 20
-0.0836514719438691
 10
0.3246121269128992
 20
-0.0840407799622244
 10
0.3245207823519092
 20
-0.0845000000816481
 10
0.3246121269128999
 20
-0.0849592201996546
 10
0.3248722542178585
 20
-0.0853485282232208
 10
0.3308722542107176
 20
-0.0913485282157137
 10
0.3312615622331383
 20
-0.0916086555198894
 10
0.3317207823481225
 20
-0.091700000080844
 10
0.4295413605690826
 20
-0.091700000081587
 10
0.4299416189851942
 20
-0.0916312795339337
 10
0.4302960341066561
 20
-0.091432988747477
  0
LWPOLYLINE
  5
155
330
133
100
AcDbEntity
  8
BLOCKS
100
AcDbPolyline
 90
       23
 70
     1
 43
0.0
 10
0.3962258442563302
 20
-0.1106288648211387
 10
0.3965877401231217
 20
-0.1104212872544878
 10
0.3968566949826501
 20
-0.1101023509785239
 10
0.3970001994648604
 20
-0.1097106067662344
 10
0.3970009077581577
 20
-0.1092934058994797
 10
0.3968587342478353
 20
-0.108901176683712
 10
0.3965908638684556
 20
-0.1085813290252429
 10
0.3962296749061994
 20
-0.1083725238582855
 10
0.395818825271021
 20
-0.1083000000691845
 10
0.3507207823533369
 20
-0.1083000000809989
 10
0.3502615622327252
 20
-0.1083913446419405
 10
0.3498722542140124
 20
-0.1086514719436366
 10
0.34961212691268
 20
-0.1090407799619925
 10
0.3495207823516895
 20
-0.1095000000814156
 10
0.3496121269130327
 20
-0.1099592201997729
 10
0.3498722542165933
 20
-0.1103485282214615
 10
0.3558722542111545
 20
-0.1163485282161508
 10
0.3562615622332726
 20
-0.1166086555200121
 10
0.3567207823504816
 20
-0.1167000000811242
 10
0.3707857756154178
 20
-0.1167000000813545
 10
0.3709347196731798
 20
-0.1166907208246397
 10
0.3795058633503603
 20
-0.1152955345896828
 10
0.3879532906237412
 20
-0.1132708565833911
  0
LWPOLYLINE
  5
156
330
133
100
AcDbEntity
  8
BLOCKS
100
AcDbPolyline
 90
       26
 70
     1
 43
0.0
 10
0.599546877930661
 20
-0.0848954757035284
 10
0.5996080663509495
 20
-0.0846167860414983
 10
0.5996020393628453
 20
-0.0843315757411955
 10
0.5995285446413696
 20
-0.0840559044231395
 10
0.599392327248718
 20
-0.083805223407424
 10
0.599200543098443
 20
-0.0835940008008686
 10
0.5989644936922501
 20
-0.0834337608942826
 10
0.5986972033210325
 20
-0.0833340758448094
 10
0.5984139176681866
 20
-0.0833000000856373
 10
0.4621346606514713
 20
-0.083300000080659
 10
0.4618678624031543
 20
-0.0833301593082445
 10
0.4616144057818607
 20
-0.0834186421946964
 10
0.4613870922195745
 20
-0.0835614638949102
 10
0.4611970245681511
 20
-0.0837511085292511
 10
0.4561575601025147
 20
-0.0896979328915035
 10
0.455929623276654
 20
-0.090070517088484
 10
0.4558501340343779
 20
-0.0905000000807695
 10
0.4559414785953692
 20
-0.0909592202001898
 10
0.4562016058967013
 20
-0.0913485282185485
 10
0.4565909139157654
 20
-0.0916086555205948
 10
0.4570501340340988
 20
-0.0917000000808048
 10
0.5962353741704931
 20
-0.0917000000801312
 10
0.5965928802819884
 20
-0.0916455084283797
 10
0.5969179179037578
 20
-0.0914869823705289
 10
0.5971809672980683
 20
-0.091238819151526
 10
0.5973581385240255
 20
-0.0909235567170407
  0
LWPOLYLINE
  5
157
330
133
100
AcDbEntity
  8
BLOCKS
100
AcDbPolyline
 90
       26
 70
     1
 43
0.0
 10
0.5892651460697264
 20
-0.1100124802478439
 10
0.5893583656264252
 20
-0.1097262551389622
 10
0.5893777938261613
 20
-0.1094259301111617
 10
0.5893214897450915
 20
-0.1091302565914833
 10
0.5891937328912129
 20
-0.1088577292241917
 10
0.5890018689027429
 20
-0.1086258215065555
 10
0.5887585605874168
 20
-0.1084486378631749
 10
0.588478703503487
 20
-0.1083379463612601
 10
0.5881800819659313
 20
-0.1083000000780703
 10
0.4359805525279476
 20
-0.108300000081087
 10
0.4356094382469255
 20
-0.1083588277928442
 10
0.4352747103075874
 20
-0.108529543094923
 10
0.4263724787228304
 20
-0.1144763674038216
 10
0.4261342757370105
 20
-0.1146679819785726
 10
0.4259519405871638
 20
-0.1149132665612359
 10
0.4258378607322161
 20
-0.1151968092270016
 10
0.4257987183933913
 20
-0.1155000000812481
 10
0.425890062955088
 20
-0.1159592201999624
 10
0.4261501902564215
 20
-0.1163485282183194
 10
0.4265394982751275
 20
-0.1166086555200121
 10
0.4269987183949778
 20
-0.1167000000816506
 10
0.5852501038541522
 20
-0.1167000000818672
 10
0.5855769518125637
 20
-0.1166543469086946
 10
0.5858791214950214
 20
-0.1165219280686114
 10
0.5861334617986258
 20
-0.1163118035665769
 10
0.586321455071187
 20
-0.1160405614344563
  0
LWPOLYLINE
  5
158
330
133
100
AcDbEntity
  8
BLOCKS
100
AcDbPolyline
 90
       24
 70
     1
 43
0.0
 10
0.5756501632185667
 20
-0.1351294849466143
 10
0.5757792841598837
 20
-0.1348393911835239
 10
0.575828246683984
 20
-0.134525748937628
 10
0.5757927628234016
 20
-0.1342102532186664
 10
0.575676230425805
 20
-0.133914928222157
 10
0.5754859299895975
 20
-0.1336607975522958
 10
0.5752359411787952
 20
-0.1334650879516141
 10
0.5749432322055272
 20
-0.1333422454838592
 10
0.5746285229767461
 20
-0.1333000000831254
 10
0.3757207823521472
 20
-0.1333000000809619
 10
0.3752615622332155
 20
-0.1333913446424179
 10
0.3748722542144907
 20
-0.1336514719441129
 10
0.3746121269131584
 20
-0.1340407799624711
 10
0.3745207823514485
 20
-0.1345000000811842
 10
0.3746121269131592
 20
-0.1349592201998979
 10
0.3748722541655391
 20
-0.1353485281447939
 10
0.3808722542108825
 20
-0.1413485282159047
 10
0.3812615622333851
 20
-0.1416086555201303
 10
0.3817207823493493
 20
-0.1417000000807195
 10
0.5708158609110195
 20
-0.141700000081828
 10
0.571110075588325
 20
-0.1416631886384806
 10
0.5713863522914801
 20
-0.1415557176502853
 10
0.571627643260907
 20
-0.1413835040655323
 10
0.5718196571994583
 20
-0.1411575660567234
  0
LWPOLYLINE
  5
159
330
133
100
AcDbEntity
  8
BLOCKS
100
AcDbPolyline
 90
       24
 70
     1
 43
0.0
 10
0.5580986859819831
 20
-0.1601575165119942
 10
0.5582681509284124
 20
-0.1598682361517069
 10
0.5583515050791209
 20
-0.159543622722523
 10
0.5583415268861507
 20
-0.1592085270457102
 10
0.5582392401546011
 20
-0.1588892683714829
 10
0.5580526281286595
 20
-0.1586107641013524
 10
0.5577962554457634
 20
-0.1583947508515678
 10
0.5574901090204208
 20
-0.1582583829715622
 10
0.5571581482796609
 20
-0.1582114416430699
 10
0.4007174736181773
 20
-0.1582973505044032
 10
0.4002584559036942
 20
-0.1583888841128191
 10
0.399869371505732
 20
-0.1586490552010418
 10
0.3996094141207263
 20
-0.1590382824126522
 10
0.3995181325944171
 20
-0.1594973503241545
 10
0.3996094771554084
 20
-0.1599565704421622
 10
0.3998696044603875
 20
-0.1603458784657607
 10
0.4058717992313232
 20
-0.1663480732363314
 10
0.4062614116777454
 20
-0.1666083265883202
 10
0.4067209864814468
 20
-0.1666995449477116
 10
0.5522400361204354
 20
-0.1666196336311344
 10
0.552498671729468
 20
-0.1665911750729248
 10
0.5527451295289339
 20
-0.166507850021855
 10
0.5529677249974955
 20
-0.1663731808708292
 10
0.5531562320277565
 20
-0.16619382829806
  0
LWPOLYLINE
  5
15A
330
133
100
AcDbEntity
  8
BLOCKS
100
AcDbPolyline
 90
       22
 70
     1
 43
0.0
 10
0.5352832555711919
 20
-0.1853008430326844
 10
0.5354992467687973
 20
-0.1850193342120986
 10
0.5356234724237277
 20
-0.1846869678464344
 10
0.535645071469164
 20
-0.184332802778776
 10
0.5355621554972676
 20
-0.1839878037128773
 10
0.535381973863624
 20
-0.183682133968577
 10
0.5351202798752793
 20
-0.1834425182962923
 10
0.5347999534758228
 20
-0.1832899063307144
 10
0.5344490008495653
 20
-0.1832376409577648
 10
0.4257174736187722
 20
-0.1832973505048505
 10
0.4252584559037914
 20
-0.1833888841129436
 10
0.4248693715058418
 20
-0.1836490552011645
 10
0.4246094141208383
 20
-0.1840382824127704
 10
0.4245181325941747
 20
-0.1844973503239225
 10
0.4246094771555173
 20
-0.1849565704422815
 10
0.4248696044609403
 20
-0.1853458784667617
 10
0.4308717992311271
 20
-0.1913480732361341
 10
0.4312614116778486
 20
-0.1916083265884453
 10
0.4317209862867327
 20
-0.1916995449088756
 10
0.5280100716387576
 20
-0.1916466680982507
 10
0.528440074293282
 20
-0.1915667265638331
 10
0.52881286684982
 20
-0.1913379939020586
  0
LWPOLYLINE
  5
15B
330
133
100
AcDbEntity
  8
BLOCKS
100
AcDbPolyline
 90
       22
 70
     1
 43
0.0
 10
0.5048954346986753
 20
-0.2104483279561282
 10
0.505165781089462
 20
-0.210184789372056
 10
0.5053408649870264
 20
-0.2098502966694781
 10
0.5054033555654243
 20
-0.2094779599047115
 10
0.5053470671362104
 20
-0.2091046351777777
 10
0.5051775714621653
 20
-0.2087672763843892
 10
0.5049116462310011
 20
-0.2084992772981212
 10
0.5045756142976729
 20
-0.2083271660576566
 10
0.5042027380973258
 20
-0.2082679792547696
 10
0.4507174736181133
 20
-0.2082973505047096
 10
0.4502584559039455
 20
-0.2083888841130675
 10
0.4498693715059728
 20
-0.208649055201285
 10
0.4496094141209924
 20
-0.2090382824128966
 10
0.4495181325939763
 20
-0.2094973503236906
 10
0.4496094771556716
 20
-0.2099565704424049
 10
0.4498696044595377
 20
-0.21034587846438
 10
0.4558717992316156
 20
-0.2163480732366025
 10
0.4562614116779875
 20
-0.2166083265885664
 10
0.4567209863807725
 20
-0.2166995449273509
 10
0.4952993989979414
 20
-0.2166783597176175
 10
0.4956379797812813
 20
-0.2166291728595326
 10
0.4959491022254722
 20
-0.2164868384589994
  0
LWPOLYLINE
  5
15C
330
133
100
AcDbEntity
  8
BLOCKS
100
AcDbPolyline
 90
       25
 70
     1
 43
0.0
 10
0.6134669453103992
 20
0.0155725425514936
 10
0.6133558284870763
 20
0.0160090263495209
 10
0.6130916205842162
 20
0.0163737992446619
 10
0.6127115428301943
 20
0.0166154725397001
 10
0.6122691400243864
 20
0.0166999996561526
 10
0.490847963804134
 20
0.0166999996569484
 10
0.4903887436864793
 20
0.016608655095888
 10
0.4899994356684781
 20
0.0163485277941953
 10
0.489739308366425
 20
0.0159592197758366
 10
0.4896479641099134
 20
0.0155000011877775
 10
0.4896558525310809
 20
0.0153626290331022
 10
0.4902073495100081
 20
0.0094158047583568
 10
0.4903214475891841
 20
0.0089830557978564
 10
0.4905861727625584
 20
0.0086222087143057
 10
0.490964704324729
 20
0.0083834538381086
 10
0.4914043922027193
 20
0.0082999996574461
 10
0.6125620199566791
 20
0.0082999996576387
 10
0.6128015736719861
 20
0.0083242341792271
 10
0.6130314918923684
 20
0.0083956464085622
 10
0.613242459663124
 20
0.0085116644267174
 10
0.613426124722138
 20
0.0086673394945473
 10
0.6135748878377894
 20
0.0088566464310094
 10
0.6136830095283986
 20
0.0090717679799042
 10
0.6137458539166985
 20
0.0093041742549309
 10
0.6137611959826575
 20
0.0095444614137551
  0
LWPOLYLINE
  5
15D
330
133
100
AcDbEntity
  8
BLOCKS
  6
Continuous
100
AcDbPolyline
 90
       15
 70
   128
 43
0.0
 10
0.1186693685012926
 20
0.0409807620245601
 10
0.1133598325612141
 20
0.0351327880547348
 10
0.1089483100323457
 20
0.0287964671242907
 10
0.1054499804104736
 20
0.0220288062309544
 10
0.1034336466192565
 20
0.0166694109360424
 10
0.1019940191313242
 20
0.0112118935775203
 10
0.1011195759109171
 20
0.0056224796425619
 10
0.1008283436130344
 20
-0.0000000000746417
 10
0.1011195807034062
 20
-0.0056225259568794
 10
0.1019940191394701
 20
-0.0112118937859441
 10
0.1034336607741491
 20
-0.0166694554482649
 10
0.1054499804058435
 20
-0.0220288063810307
 10
0.1089483315553437
 20
-0.0287965032593394
 10
0.1133598468253879
 20
-0.0351328056775464
 10
0.1186693684924106
 20
-0.0409807621770244
  0
LWPOLYLINE
  5
15E
330
133
100
AcDbEntity
  8
BLOCKS
  6
Continuous
100
AcDbPolyline
 90
        9
 70
   128
 43
0.0
 10
0.1390646442754871
 20
0.0239054444848358
 10
0.1347289787189368
 20
0.0187073083039968
 10
0.1315181434736044
 20
0.0128501369354808
 10
0.1295452522683888
 20
0.0065402712356178
 10
0.1288798076035502
 20
-0.0000000000813117
 10
0.1295452522683902
 20
-0.0065402713982394
 10
0.131518143473603
 20
-0.0128501370981042
 10
0.1347289787189368
 20
-0.0187073084666201
 10
0.1390646442754871
 20
-0.0239054446474558
  0
LWPOLYLINE
  5
15F
330
133
100
AcDbEntity
  8
BLOCKS
100
AcDbPolyline
 90
       24
 70
     1
 43
0.0
 10
0.4574130133680706
 20
-0.0601134014697362
 10
0.4575369479609765
 20
-0.0598235869799163
 10
0.4575815797132021
 20
-0.0595116496975635
 10
0.4575429899901704
 20
-0.0591988648040126
 10
0.4574247282196322
 20
-0.058906738615346
 10
0.4572341029454995
 20
-0.0586557693716867
 10
0.4569849961214766
 20
-0.0584627166679485
 10
0.4566940776169768
 20
-0.0583416245054531
 10
0.4563816362744749
 20
-0.0583000000827923
 10
0.3007207823463176
 20
-0.0583000000821034
 10
0.3002615622331972
 20
-0.0583913446424066
 10
0.2998722542144878
 20
-0.0586514719441004
 10
0.299612126913142
 20
-0.0590407799624575
 10
0.2995207823514578
 20
-0.0595000000811717
 10
0.2996121269131402
 20
-0.0599592201998849
 10
0.2998722542170378
 20
-0.0603485282218839
 10
0.3058722542108978
 20
-0.0663485282159138
 10
0.3062615622333684
 20
-0.066608655520123
 10
0.3067207823506259
 20
-0.0667000000809623
 10
0.4525602924289487
 20
-0.0667000000816745
 10
0.4528493492356964
 20
-0.0666644936716477
 10
0.4531214036571735
 20
-0.0665607329387649
 10
0.453360266522235
 20
-0.0663942263352311
 10
0.453552274286416
 20
-0.0661752570721785
  0
LWPOLYLINE
  5
160
330
133
100
AcDbEntity
  8
BLOCKS
100
AcDbPolyline
 90
       24
 70
     1
 43
0.0
 10
0.4686538958146011
 20
-0.0348556697938022
 10
0.468704986289148
 20
-0.0345802440350173
 10
0.4686911184070145
 20
-0.0343005125008085
 10
0.4686124938896851
 20
-0.0340316749696615
 10
0.4684739431810331
 20
-0.0337882429792325
 10
0.4682825146708618
 20
-0.0335837666766429
 10
0.4680490605696008
 20
-0.0334289938905425
 10
0.4677860086405412
 20
-0.0333328391113554
 10
0.4675078159847769
 20
-0.0333000000853917
 10
0.2757207823510474
 20
-0.03330000008144
 10
0.2752615622327005
 20
-0.0333913446419302
 10
0.2748722542140075
 20
-0.033651471943623
 10
0.2746121269126603
 20
-0.03404077996198
 10
0.2745207823516704
 20
-0.0345000000814025
 10
0.2746121269130124
 20
-0.0349592201997621
 10
0.2748722542165565
 20
-0.0353485282214337
 10
0.2808722542111903
 20
-0.0413485282161838
 10
0.2812615622332501
 20
-0.0416086555199991
 10
0.2817207823532596
 20
-0.0417000000816688
 10
0.4654651194284654
 20
-0.041700000081197
 10
0.4658241620774502
 20
-0.0416450277560364
 10
0.4661503090451126
 20
-0.0414851473744483
 10
0.4664136785682257
 20
-0.0412350072634234
 10
0.4665901405576381
 20
-0.0409175254519181
  0
LWPOLYLINE
  5
161
330
133
100
AcDbEntity
  8
BLOCKS
100
AcDbPolyline
 90
       24
 70
     1
 43
0.0
 10
0.4735457524358928
 20
-0.0095979381177852
 10
0.4735403253732335
 20
-0.0093505584910054
 10
0.4734844533568139
 20
-0.0091095371814811
 10
0.4733801708596946
 20
-0.008885161243893
 10
0.4732322311157896
 20
-0.0086868351667982
 10
0.4730466407755206
 20
-0.0085232025718705
 10
0.4728315243915163
 20
-0.0084009555197991
 10
0.4725958671394045
 20
-0.0083255989347254
 10
0.4723497557122224
 20
-0.0083000000805589
 10
0.250720782347237
 20
-0.0083000000824813
 10
0.2502615622329642
 20
-0.0083913446421576
 10
0.2498722542142421
 20
-0.0086514719438577
 10
0.2496121269128956
 20
-0.0090407799622108
 10
0.2495207823519058
 20
-0.0095000000816339
 10
0.2496121269128979
 20
-0.0099592201996393
 10
0.2498722542178692
 20
-0.0103485282232316
 10
0.2558722542106313
 20
-0.0163485282156461
 10
0.2562615622331333
 20
-0.0166086555198734
 10
0.2567207823494567
 20
-0.016700000081097
 10
0.4717014584011142
 20
-0.0167000000808639
 10
0.4721234119673028
 20
-0.0166233678699456
 10
0.4724914734746541
 20
-0.0164032587281702
 10
0.4727586339786036
 20
-0.0160677850736784
 10
0.4728907716453992
 20
-0.0156597937208511
  0
LWPOLYLINE
  5
162
330
133
100
AcDbEntity
  8
BLOCKS
100
AcDbPolyline
 90
       24
 70
     1
 43
0.0
 10
0.4728907716453989
 20
0.0156597932965087
 10
0.4727586339786041
 20
0.0160677846493371
 10
0.4724914734746532
 20
0.0164032583038312
 10
0.4721234119673037
 20
0.0166233674456004
 10
0.4717014584011153
 20
0.0166999996565238
 10
0.256720782349476
 20
0.0166999996567574
 10
0.2562615622331355
 20
0.0166086550955379
 10
0.2558722542106234
 20
0.0163485277912969
 10
0.2498722542178746
 20
0.0103485277988995
 10
0.2496121269128953
 20
0.0099592197752997
 10
0.2495207823519062
 20
0.009499999657296
 10
0.2496121269128969
 20
0.0090407795378712
 10
0.2498722542142425
 20
0.008651471519517
 10
0.2502615622329673
 20
0.0083913442178198
 10
0.2507207823472318
 20
0.0082999996581435
 10
0.4723497557122107
 20
0.0082999996562148
 10
0.4725958671394082
 20
0.0083255985103813
 10
0.4728315243915106
 20
0.0084009550954534
 10
0.4730466407755277
 20
0.0085232021475309
 10
0.4732322311157913
 20
0.0086868347424632
 10
0.4733801708596966
 20
0.0088851608195546
 10
0.4734844533568151
 20
0.0091095367571376
 10
0.4735403253732341
 20
0.009350558066663
 10
0.4735457524358924
 20
0.0095979376934457
  0
LWPOLYLINE
  5
163
330
133
100
AcDbEntity
  8
BLOCKS
100
AcDbPolyline
 90
       24
 70
     1
 43
0.0
 10
0.4665901405576415
 20
0.0409175250275683
 10
0.4664136785682241
 20
0.0412350068390839
 10
0.4661503090451155
 20
0.0414851469501065
 10
0.465824162077455
 20
0.0416450273316974
 10
0.4654651194284677
 20
0.0416999996568529
 10
0.2817207823532547
 20
0.0416999996573293
 10
0.2812615622332517
 20
0.0416086550956595
 10
0.2808722542111858
 20
0.0413485277918369
 10
0.274872254216558
 20
0.0353485277970901
 10
0.2746121269130128
 20
0.0349592197754237
 10
0.2745207823516704
 20
0.0344999996570624
 10
0.2746121269126607
 20
0.0340407795376393
 10
0.2748722542140069
 20
0.0336514715192851
 10
0.2752615622327028
 20
0.0333913442175918
 10
0.2757207823510447
 20
0.0332999996570987
 10
0.4675078159848212
 20
0.0332999996610533
 10
0.4677860086405392
 20
0.0333328386870125
 10
0.4680490605696022
 20
0.033428993466199
 10
0.4682825146708604
 20
0.0335837662523
 10
0.4684739431810369
 20
0.0337882425548952
 10
0.4686124938896857
 20
0.0340316745453191
 10
0.4686911184070153
 20
0.0343005120764673
 10
0.4687049862891482
 20
0.034580243610676
 10
0.4686538958146017
 20
0.0348556693694656
  0
LWPOLYLINE
  5
164
330
133
100
AcDbEntity
  8
BLOCKS
100
AcDbPolyline
 90
       24
 70
     1
 43
0.0
 10
0.4535522742864191
 20
0.0661752566478316
 10
0.4533602665222344
 20
0.0663942259108944
 10
0.4531214036571775
 20
0.066560732514422
 10
0.4528493492356958
 20
0.0666644932473037
 10
0.4525602924289419
 20
0.0666999996573338
 10
0.3067207823506209
 20
0.066699999656621
 10
0.3062615622333675
 20
0.0666086550957835
 10
0.3058722542108917
 20
0.0663485277915686
 10
0.2998722542170328
 20
0.0603485277975375
 10
0.29961212691314
 20
0.0599592197755465
 10
0.2995207823514579
 20
0.0594999996568305
 10
0.2996121269131424
 20
0.0590407795381168
 10
0.2998722542144878
 20
0.0586514715197615
 10
0.3002615622331956
 20
0.0583913442180654
 10
0.3007207823463381
 20
0.0582999996577627
 10
0.4563816362744749
 20
0.0582999996584505
 10
0.4566940776169799
 20
0.058341624081113
 10
0.456984996121482
 20
0.0584627162436107
 10
0.4572341029455001
 20
0.0586557689473455
 10
0.4574247282196322
 20
0.0589067381910064
 10
0.4575429899901716
 20
0.0591988643796731
 10
0.457581579713203
 20
0.0595116492732228
 10
0.4575369479609774
 20
0.0598235865555745
 10
0.4574130133680664
 20
0.0601134010454058
  0
LINE
  5
165
330
133
100
AcDbEntity
  8
BLOCKS
  6
Continuous
100
AcDbLine
 10
0.5599968624563941
 20
0.559996862456103
 30
0.0
 11
0.0
 21
0.0
 31
0.0
  0
LINE
  5
166
330
133
100
AcDbEntity
  8
BLOCKS
  6
Continuous
100
AcDbLine
 10
0.543934186645347
 20
0.4250254778280123
 30
0.0
 11
0.139064644272288
 21
0.0239054444885324
 31
0.0
  0
LINE
  5
167
330
133
100
AcDbEntity
  8
BLOCKS
  6
Continuous
100
AcDbLine
 10
0.5274696735544911
 20
0.4497810670768627
 30
0.0
 11
0.118669368612151
 21
0.0409807621334829
 31
0.0
  0
LWPOLYLINE
  5
168
330
133
100
AcDbEntity
  8
BLOCKS
100
AcDbPolyline
 90
       22
 70
     1
 43
0.0
 10
0.5733916984936093
 20
-0.3097341084676526
 10
0.5734089778293862
 20
-0.3093823795129611
 10
0.5733234115961715
 20
-0.3090407799622682
 10
0.5731423687008053
 20
-0.3087387281404124
 10
0.5728814404366308
 20
-0.3085022365468495
 10
0.5725630977697458
 20
-0.3083516716783879
 10
0.5722147559494695
 20
-0.308300000050076
 10
0.5507207823546711
 20
-0.308300000081058
 10
0.5502615622330039
 20
-0.308391344642211
 10
0.5498722542142966
 20
-0.3086514719439083
 10
0.5496121269129623
 20
-0.3090407799622625
 10
0.5495207823519716
 20
-0.3095000000816856
 10
0.5496121269129628
 20
-0.3099592201996939
 10
0.5498722542179199
 20
-0.3103485282232969
 10
0.5558722542106782
 20
-0.3163485282156836
 10
0.5562615622331996
 20
-0.3166086555199263
 10
0.5567207823497891
 20
-0.3167000000812004
 10
0.5662147561573998
 20
-0.3167000000808832
 10
0.5666739762759355
 20
-0.3166086555206357
 10
0.5670632842316329
 20
-0.3163485282610447
 10
0.5730632842933766
 20
-0.310348528220602
 10
0.573273061674556
 20
-0.3100656761657518
  0
LINE
  5
169
330
133
100
AcDbEntity
  8
BLOCKS
100
AcDbLine
 10
0.6230536178251951
 20
-0.2603485282203411
 30
0.0
 11
0.6232633952060195
 21
-0.2600656761658632
 31
0.0
  0
LINE
  5
16A
330
133
100
AcDbEntity
  8
BLOCKS
100
AcDbLine
 10
0.6232633952060195
 20
-0.2600656761658632
 30
0.0
 11
0.6233820320250595
 21
-0.2597341084677612
 31
0.0
  0
LINE
  5
16B
330
133
100
AcDbEntity
  8
BLOCKS
100
AcDbLine
 10
0.6233820320250595
 20
-0.2597341084677612
 30
0.0
 11
0.6233993113608378
 21
-0.2593823795130715
 31
0.0
  0
LINE
  5
16C
330
133
100
AcDbEntity
  8
BLOCKS
100
AcDbLine
 10
0.6233993113608378
 20
-0.2593823795130715
 30
0.0
 11
0.6233137451276224
 21
-0.2590407799623716
 31
0.0
  0
LINE
  5
16D
330
133
100
AcDbEntity
  8
BLOCKS
100
AcDbLine
 10
0.6233137451276224
 20
-0.2590407799623716
 30
0.0
 11
0.623132702232608
 21
-0.2587387281401698
 31
0.0
  0
LINE
  5
16E
330
133
100
AcDbEntity
  8
BLOCKS
100
AcDbLine
 10
0.623132702232608
 20
-0.2587387281401698
 30
0.0
 11
0.6228717739684371
 21
-0.2585022365466119
 31
0.0
  0
LINE
  5
16F
330
133
100
AcDbEntity
  8
BLOCKS
100
AcDbLine
 10
0.6228717739684371
 20
-0.2585022365466119
 30
0.0
 11
0.6225534313011957
 21
-0.2583516716784982
 31
0.0
  0
LINE
  5
170
330
133
100
AcDbEntity
  8
BLOCKS
100
AcDbLine
 10
0.6225534313011957
 20
-0.2583516716784982
 30
0.0
 11
0.6222050896791828
 21
-0.2583000000799996
 31
0.0
  0
LINE
  5
171
330
133
100
AcDbEntity
  8
BLOCKS
100
AcDbLine
 10
0.6162050896883164
 20
-0.2667000000813795
 30
0.0
 11
0.6166643098077348
 21
-0.2666086555203901
 31
0.0
  0
LINE
  5
172
330
133
100
AcDbEntity
  8
BLOCKS
100
AcDbLine
 10
0.6166643098077348
 20
-0.2666086555203901
 30
0.0
 11
0.617053617931442
 21
-0.2663485281485419
 31
0.0
  0
LINE
  5
173
330
133
100
AcDbEntity
  8
BLOCKS
100
AcDbLine
 10
0.617053617931442
 20
-0.2663485281485419
 30
0.0
 11
0.6230536178251951
 21
-0.2603485282203411
 31
0.0
  0
LINE
  5
174
330
133
100
AcDbEntity
  8
BLOCKS
100
AcDbLine
 10
0.5007207823527128
 20
-0.2583000000811574
 30
0.0
 11
0.5002615622327602
 21
-0.25839134464197
 31
0.0
  0
LINE
  5
175
330
133
100
AcDbEntity
  8
BLOCKS
100
AcDbLine
 10
0.5002615622327602
 20
-0.25839134464197
 30
0.0
 11
0.4998722542140511
 21
-0.2586514719436639
 31
0.0
  0
LINE
  5
176
330
133
100
AcDbEntity
  8
BLOCKS
100
AcDbLine
 10
0.4998722542140511
 20
-0.2586514719436639
 30
0.0
 11
0.4996121269127173
 21
-0.2590407799620198
 31
0.0
  0
LINE
  5
177
330
133
100
AcDbEntity
  8
BLOCKS
100
AcDbLine
 10
0.4996121269127173
 20
-0.2590407799620198
 30
0.0
 11
0.4995207823517274
 21
-0.2595000000814389
 31
0.0
  0
LINE
  5
178
330
133
100
AcDbEntity
  8
BLOCKS
100
AcDbLine
 10
0.4995207823517274
 20
-0.2595000000814389
 30
0.0
 11
0.4996121269130717
 21
-0.2599592201998013
 31
0.0
  0
LINE
  5
179
330
133
100
AcDbEntity
  8
BLOCKS
100
AcDbLine
 10
0.4996121269130717
 20
-0.2599592201998013
 30
0.0
 11
0.4998722542166647
 21
-0.2603485282215383
 31
0.0
  0
LINE
  5
17A
330
133
100
AcDbEntity
  8
BLOCKS
100
AcDbLine
 10
0.4998722542166647
 20
-0.2603485282215383
 30
0.0
 11
0.5058722542111062
 21
-0.2663485282161446
 31
0.0
  0
LINE
  5
17B
330
133
100
AcDbEntity
  8
BLOCKS
100
AcDbLine
 10
0.5058722542111062
 20
-0.2663485282161446
 30
0.0
 11
0.5062615622332945
 21
-0.2666086555200354
 31
0.0
  0
LINE
  5
17C
330
133
100
AcDbEntity
  8
BLOCKS
100
AcDbLine
 10
0.5062615622332945
 20
-0.2666086555200354
 30
0.0
 11
0.5067207823498771
 21
-0.2667000000810276
 31
0.0
  0
LWPOLYLINE
  5
17D
330
133
100
AcDbEntity
  8
BLOCKS
100
AcDbPolyline
 90
       22
 70
     1
 43
0.0
 10
0.5983916984946811
 20
-0.2847341084675298
 10
0.5984089778301043
 20
-0.2843823795131959
 10
0.5983234115968774
 20
-0.2840407799624955
 10
0.5981423687022178
 20
-0.2837387281399362
 10
0.5978814404380408
 20
-0.2835022365463777
 10
0.5975630977707941
 20
-0.2833516716782662
 10
0.5972147561485639
 20
-0.2833000000797346
 10
0.5257207823429844
 20
-0.2833000000828173
 10
0.5252615622332483
 20
-0.2833913446424452
 10
0.5248722542145263
 20
-0.2836514719441431
 10
0.5246121269131809
 20
-0.2840407799624955
 10
0.524520782351485
 20
-0.2845000000812087
 10
0.5246121269131809
 20
-0.2849592201999195
 10
0.524872254217101
 20
-0.2853485282219356
 10
0.5308722542109638
 20
-0.291348528215961
 10
0.531261562233415
 20
-0.2916086555201565
 10
0.5317207823522822
 20
-0.2917000000813198
 10
0.5912147561579716
 20
-0.291700000081143
 10
0.5916739762770077
 20
-0.2916086555205129
 10
0.592063284230786
 20
-0.2913485282623179
 10
0.5980632842947977
 20
-0.2853485282201013
 10
0.598273061675627
 20
-0.2850656761656336
  0
LINE
  5
17E
330
133
100
AcDbEntity
  8
BLOCKS
100
AcDbLine
 10
0.6222050896791828
 20
-0.2583000000799996
 30
0.0
 11
0.5007207823527128
 21
-0.2583000000811574
 31
0.0
  0
LINE
  5
17F
330
133
100
AcDbEntity
  8
BLOCKS
100
AcDbLine
 10
0.5067207823498771
 20
-0.2667000000810276
 30
0.0
 11
0.6162050896883164
 21
-0.2667000000813795
 31
0.0
  0
LWPOLYLINE
  5
180
330
133
100
AcDbEntity
  8
BLOCKS
  6
Continuous
100
AcDbPolyline
 90
        9
 70
   128
 43
0.0
 10
0.5439341866480016
 20
-0.4250254779874752
 10
0.5491323228292062
 20
-0.4292728507183796
 10
0.5549894941977229
 20
-0.4323997068808103
 10
0.5612993598979404
 20
-0.4342958912247786
 10
0.5678396312145125
 20
-0.4348946035360087
 10
0.5743799025310853
 20
-0.4341747519254819
 10
0.5806897682312991
 20
-0.4321616958689276
 10
0.5865469395994662
 20
-0.4289263528247512
 10
0.5917450757803147
 20
-0.4245826999017164
  0
LINE
  5
181
330
133
100
AcDbEntity
  8
BLOCKS
  6
Continuous
100
AcDbLine
 10
0.5741411094923946
 20
-0.5599947512064728
 30
0.0
 11
0.5753508017174534
 21
-0.5587850589814162
 31
0.0
  0
LWPOLYLINE
  5
182
330
133
100
AcDbEntity
  8
BLOCKS
  6
Continuous
100
AcDbPolyline
 90
        9
 70
   128
 43
0.0
 10
0.5599968624565392
 20
-0.5599968626185797
 10
0.5615122685078712
 20
-0.5612404503590597
 10
0.5632412566653895
 20
-0.5621644294092722
 10
0.5651173828838853
 20
-0.5627332917725153
 10
0.5670685486849755
 20
-0.5629251763872066
 10
0.5690197718612069
 20
-0.5627327092352273
 10
0.570896068000235
 20
-0.5621632867212748
 10
0.5726253320937247
 20
-0.5612387914332153
 10
0.5741411094923991
 20
-0.5599947512064768
  0
LWPOLYLINE
  5
183
330
133
100
AcDbEntity
  8
BLOCKS
  6
Continuous
100
AcDbPolyline
 90
       15
 70
   128
 43
0.0
 10
0.5274696735365727
 20
-0.4497810672272363
 10
0.5333176656170793
 20
-0.4550906176966737
 10
0.5396539883053277
 20
-0.4595021375889713
 10
0.5464216293785834
 20
-0.4630004553456649
 10
0.5518049800575989
 20
-0.4650241512637723
 10
0.5573047765757523
 20
-0.4664697256997727
 10
0.5628699783459036
 20
-0.4673349358222561
 10
0.5684504356857336
 20
-0.4676220921355935
 10
0.5740309640055364
 20
-0.4673349273755548
 10
0.5795961881929064
 20
-0.466469706191133
 10
0.5850959598033862
 20
-0.4650241305172086
 10
0.5904792419905201
 20
-0.4630004553336671
 10
0.5972469576540945
 20
-0.4595020929342764
 10
0.6035832416899451
 20
-0.455090588310145
 10
0.6094311977818873
 20
-0.4497810672431001
  0
LINE
  5
184
330
133
100
AcDbEntity
  8
BLOCKS
  6
Continuous
100
AcDbLine
 10
0.0
 20
0.0
 30
0.0
 11
0.5599968624565065
 21
-0.5599968626186138
 31
0.0
  0
LINE
  5
185
330
133
100
AcDbEntity
  8
BLOCKS
  6
Continuous
100
AcDbLine
 10
0.1186693685101261
 20
-0.0409807621951222
 30
0.0
 11
0.5274696734535064
 21
-0.44978106713746
 31
0.0
  0
LINE
  5
186
330
133
100
AcDbEntity
  8
BLOCKS
  6
Continuous
100
AcDbLine
 10
0.1390646442801153
 20
-0.02390544464296
 30
0.0
 11
0.5439341866447637
 21
-0.4250254779959989
 31
0.0
  0
LWPOLYLINE
  5
187
330
133
100
AcDbEntity
  8
BLOCKS
100
AcDbPolyline
 90
       26
 70
     1
 43
0.0
 10
0.6455108002805284
 20
-0.2351658902605362
 10
0.6456859851250113
 20
-0.2348773145928573
 10
0.6457738617391362
 20
-0.2345513646785258
 10
0.6457674753207405
 20
-0.2342138371104147
 10
0.6456673313083542
 20
-0.2338914447676791
 10
0.6454813553811789
 20
-0.2336097026870658
 10
0.6452242661962931
 20
-0.2333909087267784
 10
0.6449164105144688
 20
-0.2332523788570944
 10
0.6445789312489091
 20
-0.2332046208124331
 10
0.500776468335978
 20
-0.2332835894432395
 10
0.5004498004007454
 20
-0.2333293036531598
 10
0.5001477629822205
 20
-0.2334618747510524
 10
0.4899283660109802
 20
-0.239456280109311
 10
0.4896740273767345
 20
-0.2396465857539346
 10
0.4894782194391173
 20
-0.2398965971141541
 10
0.4893552846822127
 20
-0.2401893999507564
 10
0.4893130065213339
 20
-0.24050422832974
 10
0.4894043006306092
 20
-0.2409633266270322
 10
0.4896642919333943
 20
-0.2413525699748209
 10
0.4900534209727742
 20
-0.2416127323320399
 10
0.4905124791031642
 20
-0.2417042282135861
 10
0.639412987834294
 20
-0.2417696725427578
 10
0.6396732413472714
 20
-0.2417414985941906
 10
0.639918251794969
 20
-0.2416595516811549
 10
0.6401399362468603
 20
-0.2415268812953446
 10
0.6403282480521466
 20
-0.2413499600983954
  0
LWPOLYLINE
  5
188
330
133
100
AcDbEntity
  8
BLOCKS
100
AcDbPolyline
 90
       26
 70
     1
 43
0.0
 10
0.6642289182716104
 20
-0.2100612929482213
 10
0.6643750175316149
 20
-0.2097708417072448
 10
0.6644382696520509
 20
-0.2094520320357014
 10
0.6644131043832054
 20
-0.2091279346346317
 10
0.6643023715047505
 20
-0.208822303082664
 10
0.6641132250313693
 20
-0.2085579245143373
 10
0.6638603914558235
 20
-0.2083536022222518
 10
0.663561831776355
 20
-0.2082251398225748
 10
0.6632370197482519
 20
-0.2081806461217803
 10
0.5351542797228875
 20
-0.2082509823215008
 10
0.5347393995451464
 20
-0.2083252258581189
 10
0.534375780061715
 20
-0.2085383421186538
 10
0.5271190105324303
 20
-0.2145216503745132
 10
0.5269287670195797
 20
-0.2147117895911771
 10
0.5267854668335065
 20
-0.2149393614935479
 10
0.5266966771527325
 20
-0.2151932124738278
 10
0.5266664109677779
 20
-0.2154604754728001
 10
0.5267578185839657
 20
-0.2159198477909467
 10
0.5270181158447711
 20
-0.2163092365616074
 10
0.5274076474976789
 20
-0.216569319952323
 10
0.5278670699389534
 20
-0.2166604752910251
 10
0.6590220210498922
 20
-0.2165884519987543
 10
0.6593005861245201
 20
-0.2165549858110034
 10
0.6595664911906315
 20
-0.2164562730354691
 10
0.6598016303022498
 20
-0.2162976561023345
 10
0.6599932207354166
 20
-0.2160884376082413
  0
LWPOLYLINE
  5
189
330
133
100
AcDbEntity
  8
BLOCKS
100
AcDbPolyline
 90
       26
 70
     1
 43
0.0
 10
0.679931153571574
 20
-0.1849583606200411
 10
0.6800507719313862
 20
-0.1846687708627923
 10
0.680091777326704
 20
-0.1843582296431896
 10
0.6800505512347818
 20
-0.1840476761368973
 10
0.6799307701672693
 20
-0.1837582014974589
 10
0.6797397715604811
 20
-0.1835098819386479
 10
0.6794912861879541
 20
-0.1833190991026544
 10
0.6792017520934222
 20
-0.1831995695033078
 10
0.6788889118167703
 20
-0.1831583222743057
 10
0.5608692873825448
 20
-0.1832231323475037
 10
0.5606201814314691
 20
-0.1832495070646775
 10
0.5603819484517269
 20
-0.1833268393038469
 10
0.5601650507360336
 20
-0.1834521015039144
 10
0.5599787398051385
 20
-0.1836195459073724
 10
0.5544208125770169
 20
-0.1896019211139446
 10
0.554174084404484
 20
-0.1899846200750892
 10
0.5540876955663747
 20
-0.190431688504018
 10
0.5541791031828915
 20
-0.1908910608218093
 10
0.5544394004440733
 20
-0.1912804495921148
 10
0.5548289320969717
 20
-0.1915405329828309
 10
0.5552883545426966
 20
-0.1916316883224164
 10
0.6753529414239451
 20
-0.1915657552652965
 10
0.6756557274158743
 20
-0.1915262448619188
 10
0.6759407031631564
 20
-0.1914106109870392
 10
0.6761866787176119
 20
-0.1912260075739153
 10
0.6763780118918374
 20
-0.1909851302174457
  0
LWPOLYLINE
  5
18A
330
133
100
AcDbEntity
  8
BLOCKS
100
AcDbPolyline
 90
       26
 70
     1
 43
0.0
 10
0.6930392856347262
 20
-0.1598568581135908
 10
0.693134479316773
 20
-0.1595702210913333
 10
0.693155466361119
 20
-0.1592689918536973
 10
0.6931001905012097
 20
-0.1589720997958665
 10
0.6929728999384245
 20
-0.1586982432139814
 10
0.6927809544463975
 20
-0.1584650968158934
 10
0.6925371119549912
 20
-0.1582869363428108
 10
0.692256398202494
 20
-0.158175673959073
 10
0.6919550544719355
 20
-0.1581374183820975
 10
0.5809199739798482
 20
-0.158198392917381
 10
0.5806367984003319
 20
-0.1582326017920286
 10
0.580369638528818
 20
-0.1583323696876818
 10
0.58013373894343
 20
-0.1584926177239635
 10
0.5799420596170329
 20
-0.1587038466852113
 10
0.5755738328859202
 20
-0.1646855684396007
 10
0.5753950124700701
 20
-0.1650263900505735
 10
0.5753332891636786
 20
-0.1654062928936054
 10
0.5754246967798668
 20
-0.1658656652117509
 10
0.5756849940406858
 20
-0.1662550539824088
 10
0.576074525693583
 20
-0.1665151373731254
 10
0.5765339481398312
 20
-0.1666062927128098
 10
0.6890100080564156
 20
-0.1665445268681043
 10
0.6893356465536816
 20
-0.1664988044072333
 10
0.6896380374477298
 20
-0.166365912622976
 10
0.6898923901359996
 20
-0.1661551871627779
 10
0.6900801445156346
 20
-0.1658833013693641
  0
LWPOLYLINE
  5
18B
330
133
100
AcDbEntity
  8
BLOCKS
100
AcDbPolyline
 90
       26
 70
     1
 43
0.0
 10
0.7037750638926821
 20
-0.1349392854040263
 10
0.703847824260238
 20
-0.1346573970252223
 10
0.7038508932477806
 20
-0.1343663447150305
 10
0.703783451939386
 20
-0.1340831675389256
 10
0.7036501114560174
 20
-0.1338244051795931
 10
0.7034581228058567
 20
-0.1336055947568002
 10
0.7032192902376267
 20
-0.1334391716593558
 10
0.7029473173337165
 20
-0.1333354816421007
 10
0.7026583597092893
 20
-0.1333000000812308
 10
0.5966606059686871
 20
-0.1333000000812984
 10
0.5963461687728307
 20
-0.1333421707348509
 10
0.596053674197922
 20
-0.1334648026004425
 10
0.5958038132303816
 20
-0.1336601514532242
 10
0.5956134489157749
 20
-0.133913943687918
 10
0.5921707554916546
 20
-0.1398877999296127
 10
0.5920457593564672
 20
-0.1401826435082057
 10
0.5920028460759034
 20
-0.1405000000810151
 10
0.5920941906365399
 20
-0.1409592202000812
 10
0.5923543179382389
 20
-0.1413485282187895
 10
0.592743625956591
 20
-0.1416086555201303
 10
0.5932028460720594
 20
-0.1417000000803404
 10
0.7002377776658577
 20
-0.1417000000805848
 10
0.700586280896546
 20
-0.1416482794446892
 10
0.7009047427819986
 20
-0.1414975759072814
 10
0.7011657115658617
 20
-0.1412608802755796
 10
0.7013466912185567
 20
-0.1409585963713965
  0
LWPOLYLINE
  5
18C
330
133
100
AcDbEntity
  8
BLOCKS
100
AcDbPolyline
 90
       26
 70
     1
 43
0.0
 10
0.7125014324483602
 20
-0.1098588276301706
 10
0.7125533098471417
 20
-0.109583131082677
 10
0.7125400496946975
 20
-0.1093029592723627
 10
0.7124618196795267
 20
-0.1090335791720435
 10
0.7123234446474411
 20
-0.1087895752292326
 10
0.7121319821923818
 20
-0.1085845686390241
 10
0.7118983199017796
 20
-0.108429367132274
 10
0.711634932167044
 20
-0.108332935882778
 10
0.7113563373150376
 20
-0.1083000000774018
 10
0.6090333771449912
 20
-0.1083000000812757
 10
0.6086896903244582
 20
-0.1083502699524155
 10
0.608374798657553
 20
-0.1084968677983937
 10
0.6081150847506388
 20
-0.1087275111949623
 10
0.6079323082769772
 20
-0.109022876065199
 10
0.605258540242607
 20
-0.1149967319701494
 10
0.6051759760646656
 20
-0.1152423763803819
 10
0.6051479076321075
 20
-0.1155000000812481
 10
0.6052392521938045
 20
-0.1159592201999607
 10
0.6054993794951363
 20
-0.1163485282183149
 10
0.6058886875142035
 20
-0.1166086555203628
 10
0.6063479076346276
 20
-0.1167000000818319
 10
0.7094203175979179
 20
-0.1167000000819911
 10
0.7097893063080491
 20
-0.1166418614276967
 10
0.7101225408364272
 20
-0.1164730789730174
 10
0.710387731509166
 20
-0.1162100073571747
 10
0.710559182072311
 20
-0.1158781373855271
  0
LWPOLYLINE
  5
18D
330
133
100
AcDbEntity
  8
BLOCKS
100
AcDbPolyline
 90
       25
 70
     1
 43
0.0
 10
0.718849276416718
 20
-0.0835646327798514
 10
0.7186210419560882
 20
-0.0834201041913576
 10
0.7183661960391906
 20
-0.0833305373027361
 10
0.7180977591905944
 20
-0.0833000000823671
 10
0.618454296009503
 20
-0.0833000000811438
 10
0.6180828187100417
 20
-0.0833589459117292
 10
0.6177478364756715
 20
-0.0835299923854967
 10
0.6174822589808687
 20
-0.0837963353742953
 10
0.6173121774079684
 20
-0.0841318084554979
 10
0.6153102993927221
 20
-0.0901056647520517
 10
0.6152436570716371
 20
-0.0905000000341664
 10
0.6153350016416849
 20
-0.0909592202005445
 10
0.6155951289433732
 20
-0.0913485282192568
 10
0.6159844369617268
 20
-0.0916086555205948
 10
0.6164436570756587
 20
-0.0917000000804956
 10
0.716614218608116
 20
-0.0917000000800499
 10
0.7170031022994615
 20
-0.0916352399110321
 10
0.7173500123719951
 20
-0.0914479491986862
 10
0.7176175055615616
 20
-0.0911583429090871
 10
0.7177767103602372
 20
-0.0907976792964127
 10
0.7192650254620096
 20
-0.0847783692965032
 10
0.7192975917060879
 20
-0.0845101710167137
 10
0.7192695857438923
 20
-0.0842414996031988
 10
0.7191819441599158
 20
-0.0839859640191088
 10
0.7190395773808282
 20
-0.083756374859135
  0
LWPOLYLINE
  5
18E
330
133
100
AcDbEntity
  8
BLOCKS
100
AcDbPolyline
 90
       26
 70
     1
 43
0.0
 10
0.6403282480521574
 20
0.2413499596740348
 10
0.6401399362468622
 20
0.2415268808710004
 10
0.6399182517949769
 20
0.2416595512568119
 10
0.6396732413472717
 20
0.2417414981698482
 10
0.6394129878343068
 20
0.241769672118412
 10
0.4905124791031731
 20
0.241704227789246
 10
0.4900534209727764
 20
0.2416127319076975
 10
0.4896642919333971
 20
0.2413525695504791
 10
0.4894043006306115
 20
0.2409633262026944
 10
0.4893130065213356
 20
0.2405042279053987
 10
0.4893552846822138
 20
0.2401893995264186
 10
0.4894782194391195
 20
0.239896596689814
 10
0.4896740273767393
 20
0.2396465853295911
 10
0.4899283660109944
 20
0.2394562796849641
 10
0.5001477629822193
 20
0.2334618743267151
 10
0.5004498004007494
 20
0.2333293032288145
 10
0.5007764683359986
 20
0.233283589018896
 10
0.644578931248886
 20
0.2332046203880896
 10
0.6449164105144688
 20
0.2332523784327509
 10
0.6452242661962959
 20
0.2333909083024332
 10
0.6454813553811811
 20
0.2336097022627212
 10
0.6456673313083595
 20
0.2338914443433373
 10
0.6457674753207437
 20
0.2342138366860729
 10
0.6457738617391385
 20
0.2345513642541823
 10
0.6456859851250126
 20
0.2348773141685115
 10
0.6455108002805331
 20
0.2351658898361916
  0
LWPOLYLINE
  5
18F
330
133
100
AcDbEntity
  8
BLOCKS
100
AcDbPolyline
 90
       26
 70
     1
 43
0.0
 10
0.6599932207354098
 20
0.2160884371839063
 10
0.6598016303022551
 20
0.2162976556779915
 10
0.6595664911906326
 20
0.2164562726111262
 10
0.6593005861245155
 20
0.2165549853866594
 10
0.659022021049889
 20
0.2165884515744119
 10
0.5278670699389476
 20
0.2166604748666851
 10
0.5274076474976818
 20
0.2165693195279812
 10
0.5270181158447738
 20
0.2163092361372651
 10
0.5267578185839671
 20
0.2159198473666072
 10
0.5266664109677788
 20
0.21546047504846
 10
0.5266966771527349
 20
0.215193212049486
 10
0.5267854668335098
 20
0.2149393610692095
 10
0.5269287670195806
 20
0.2147117891668347
 10
0.5271190105324094
 20
0.2145216499501953
 10
0.5343757800617143
 20
0.208538341694308
 10
0.5347393995451445
 20
0.208325225433781
 10
0.535154279722882
 20
0.2082509818971562
 10
0.6632370197482527
 20
0.2081806456974357
 10
0.6635618317763566
 20
0.2082251393982324
 10
0.6638603914558264
 20
0.20835360179791
 10
0.6641132250313707
 20
0.208557924089996
 10
0.6643023715047537
 20
0.2088223026583216
 10
0.6644131043832077
 20
0.209127934210286
 10
0.6644382696520527
 20
0.2094520316113585
 10
0.6643750175316172
 20
0.2097708412829013
 10
0.6642289182716167
 20
0.2100612925238727
  0
LWPOLYLINE
  5
190
330
133
100
AcDbEntity
  8
BLOCKS
100
AcDbPolyline
 90
       26
 70
     1
 43
0.0
 10
0.6763780118918419
 20
0.190985129793097
 10
0.676186678717613
 20
0.1912260071495735
 10
0.6759407031631588
 20
0.1914106105626911
 10
0.6756557274158772
 20
0.1915262444375753
 10
0.6753529414239538
 20
0.1915657548409535
 10
0.555288354542708
 20
0.191631687898074
 10
0.5548289320969696
 20
0.1915405325584891
 10
0.5544394004440758
 20
0.1912804491677753
 10
0.5541791031828928
 20
0.1908910603974687
 10
0.554087695566376
 20
0.190431688079675
 10
0.554174084404484
 20
0.1899846196507474
 10
0.5544208125770098
 20
0.1896019206896097
 10
0.5599787398051348
 20
0.1836195454830363
 10
0.5601650507360381
 20
0.1834521010795686
 10
0.5603819484517337
 20
0.1833268388795079
 10
0.5606201814314589
 20
0.1832495066403374
 10
0.5608692873824893
 20
0.1832231319231664
 10
0.6788889118167805
 20
0.1831583218499645
 10
0.6792017520934279
 20
0.1831995690789643
 10
0.6794912861879526
 20
0.1833190986783097
 10
0.6797397715604814
 20
0.1835098815143021
 10
0.6799307701672741
 20
0.1837582010731148
 10
0.6800505512347844
 20
0.1840476757125532
 10
0.6800917773267078
 20
0.1843582292188455
 10
0.6800507719313882
 20
0.1846687704384487
 10
0.6799311535715766
 20
0.1849583601956954
  0
LWPOLYLINE
  5
191
330
133
100
AcDbEntity
  8
BLOCKS
100
AcDbPolyline
 90
       26
 70
     1
 43
0.0
 10
0.6900801445156402
 20
0.1658833009450166
 10
0.6898923901360014
 20
0.166155186738431
 10
0.6896380374477324
 20
0.1663659121986314
 10
0.689335646553685
 20
0.1664988039828904
 10
0.6890100080564232
 20
0.1665445264437608
 10
0.5765339481398126
 20
0.1666062922884646
 10
0.5760745256935832
 20
0.166515136948783
 10
0.5756849940406863
 20
0.1662550535580636
 10
0.5754246967798666
 20
0.165865664787409
 10
0.5753332891636794
 20
0.165406292469263
 10
0.5753950124700715
 20
0.1650263896262322
 10
0.575573832885916
 20
0.1646855680152578
 10
0.5799420596170362
 20
0.1587038462608666
 10
0.5801337389434308
 20
0.1584926172996222
 10
0.580369638528814
 20
0.1583323692633416
 10
0.5806367984003277
 20
0.1582326013676868
 10
0.5809199739798462
 20
0.1581983924930387
 10
0.6919550544719591
 20
0.1581374179577551
 10
0.6922563982024958
 20
0.1581756735347313
 10
0.6925371119549946
 20
0.158286935918469
 10
0.6927809544464023
 20
0.1584650963915533
 10
0.6929728999384258
 20
0.1586982427896328
 10
0.6931001905012111
 20
0.1589720993715218
 10
0.6931554663611212
 20
0.1592689914293555
 10
0.6931344793167739
 20
0.1595702206669921
 10
0.6930392856347311
 20
0.1598568576892398
  0
LWPOLYLINE
  5
192
330
133
100
AcDbEntity
  8
BLOCKS
100
AcDbPolyline
 90
       26
 70
     1
 43
0.0
 10
0.7013466912185537
 20
0.1409585959470587
 10
0.7011657115658645
 20
0.1412608798512372
 10
0.7009047427820008
 20
0.1414975754829356
 10
0.7005862808965498
 20
0.1416482790203486
 10
0.700237777665868
 20
0.1416999996562402
 10
0.5932028460720708
 20
0.141699999655998
 10
0.5927436259565933
 20
0.1416086550957903
 10
0.5923543179382407
 20
0.1413485277944494
 10
0.5920941906365408
 20
0.1409592197757411
 10
0.5920028460759034
 20
0.1404999996566721
 10
0.5920457593564674
 20
0.1401826430838617
 10
0.5921707554916568
 20
0.1398877995052715
 10
0.5956134489157665
 20
0.1339139432635898
 10
0.595803813230385
 20
0.1336601510288813
 10
0.5960536741979227
 20
0.1334648021760995
 10
0.596346168772832
 20
0.1333421703105091
 10
0.5966606059686904
 20
0.1332999996569561
 10
0.7026583597093233
 20
0.1332999996568879
 10
0.7029473173337194
 20
0.1333354812177526
 10
0.7032192902376299
 20
0.1334391712350089
 10
0.7034581228058591
 20
0.1336055943324584
 10
0.7036501114560174
 20
0.1338244047552428
 10
0.7037834519393882
 20
0.1340831671145816
 10
0.7038508932477829
 20
0.1343663442906825
 10
0.7038478242602399
 20
0.134657396600877
 10
0.7037750638926842
 20
0.1349392849796777
  0
LWPOLYLINE
  5
193
330
133
100
AcDbEntity
  8
BLOCKS
100
AcDbPolyline
 90
       26
 70
     1
 43
0.0
 10
0.710559182072311
 20
0.1158781369611881
 10
0.7103877315091688
 20
0.1162100069328278
 10
0.7101225408364299
 20
0.1164730785486745
 10
0.7097893063080474
 20
0.1166418610033543
 10
0.7094203175979417
 20
0.1166999996576453
 10
0.6063479076346087
 20
0.1166999996574884
 10
0.6058886875142031
 20
0.1166086550960222
 10
0.6054993794951375
 20
0.1163485277939731
 10
0.6052392521938042
 20
0.1159592197756172
 10
0.6051479076321087
 20
0.1154999996569052
 10
0.6051759760646673
 20
0.1152423759560406
 10
0.6052585402426142
 20
0.1149967315457866
 10
0.6079323082769723
 20
0.1090228756408726
 10
0.6081150847506376
 20
0.1087275107706216
 10
0.608374798657553
 20
0.1084968673740525
 10
0.6086896903244554
 20
0.108350269528072
 10
0.6090333771449873
 20
0.1082999996569322
 10
0.7113563373150642
 20
0.1082999996530589
 10
0.7116349321670407
 20
0.1083329354584328
 10
0.711898319901782
 20
0.1084293667079305
 10
0.7121319821923863
 20
0.1085845682146817
 10
0.7123234446474439
 20
0.1087895748048936
 10
0.7124618196795285
 20
0.1090335787476954
 10
0.7125400496946989
 20
0.1093029588480192
 10
0.7125533098471431
 20
0.1095831306583352
 10
0.7125014324483628
 20
0.1098588272058248
  0
LWPOLYLINE
  5
194
330
133
100
AcDbEntity
  8
BLOCKS
100
AcDbPolyline
 90
       25
 70
     1
 43
0.0
 10
0.7177767103602366
 20
0.0907976788720703
 10
0.7176175055615622
 20
0.0911583424847436
 10
0.7173500123719951
 20
0.0914479487743449
 10
0.7170031022994638
 20
0.0916352394866863
 10
0.7166142186081305
 20
0.091699999655707
 10
0.6164436570756601
 20
0.0916999996561526
 10
0.6159844369617275
 20
0.0916086550962541
 10
0.6155951289433711
 20
0.091348527794911
 10
0.6153350016416845
 20
0.0909592197761981
 10
0.6152436570716367
 20
0.0904999996098252
 10
0.6153102993927232
 20
0.090105664327707
 10
0.6173121774079617
 20
0.0841318080311771
 10
0.6174822589808695
 20
0.0837963349499523
 10
0.6177478364756722
 20
0.0835299919611532
 10
0.6180828187100449
 20
0.0833589454873846
 10
0.6184542960095154
 20
0.0832999996568003
 10
0.7180977591905901
 20
0.0832999996580225
 10
0.7183661960391876
 20
0.0833305368783874
 10
0.7186210419560896
 20
0.0834201037670141
 10
0.7188492764167198
 20
0.0835646323555079
 10
0.7190395773808271
 20
0.0837563744347881
 10
0.7191819441599173
 20
0.0839859635947653
 10
0.7192695857438932
 20
0.0842414991788576
 10
0.7192975917060892
 20
0.0845101705923662
 10
0.7192650254620104
 20
0.084778368872162
  0
LWPOLYLINE
  5
195
330
133
100
AcDbEntity
  8
BLOCKS
100
AcDbPolyline
 90
       23
 70
     1
 43
0.0
 10
0.7124671474379399
 20
0.0644792204360346
 10
0.712758916698583
 20
0.064732720021978
 10
0.7129549666290107
 20
0.0650658202559413
 10
0.7130349582275267
 20
0.0654439639923055
 10
0.7129905928483059
 20
0.0658279210921756
 10
0.7128264731306928
 20
0.0661778583142922
 10
0.7125596255101869
 20
0.0664574717768699
 10
0.7122177338222185
 20
0.0666377532646027
 10
0.711836267271734
 20
0.0666999996570303
 10
0.6238355739370352
 20
0.0666999996572719
 10
0.6233763538193589
 20
0.0666086550957789
 10
0.6229870458009997
 20
0.0663485277944375
 10
0.6227269184993009
 20
0.0659592197757263
 10
0.6226355739774903
 20
0.0654999998560368
 10
0.6226700074770446
 20
0.0652145967389703
 10
0.624062142270136
 20
0.0592407405182127
 10
0.6242145686445668
 20
0.0588666238175375
 10
0.6244825059954522
 20
0.0585642884391518
 10
0.6248355886286536
 20
0.0583679984509337
 10
0.6252338012180571
 20
0.0582999996580736
 10
0.7034429042889525
 20
0.0582999996439872
 10
0.703847424283442
 20
0.0583702370109939
 10
0.7042045901992044
 20
0.0585727269367482
  0
LWPOLYLINE
  5
196
330
133
100
AcDbEntity
  8
BLOCKS
100
AcDbPolyline
 90
       25
 70
     1
 43
0.0
 10
0.6878497966915309
 20
0.0398688308966513
 10
0.6879794655287345
 20
0.0401589487378357
 10
0.688028886853372
 20
0.0404727669414615
 10
0.6879937330408487
 20
0.040788546189338
 10
0.687877385435759
 20
0.0410842074123428
 10
0.6876871211972353
 20
0.0413386712479388
 10
0.6874370407395555
 20
0.0415346612698369
 10
0.6871441437782387
 20
0.0416576886257769
 10
0.6868291959012885
 20
0.0416999996570547
 10
0.6287438581298423
 20
0.0416999996572759
 10
0.6282846380104389
 20
0.0416086550960091
 10
0.6278953299913621
 20
0.0413485277939589
 10
0.627635202690017
 20
0.0409592197756064
 10
0.6275438581714159
 20
0.040499999870699
 10
0.6275569047925412
 20
0.0403235291246591
 10
0.6283780360632532
 20
0.0343496729294327
 10
0.6285080383121315
 20
0.0339385327530317
 10
0.6287749810515768
 20
0.0335998907542268
 10
0.6291443958877779
 20
0.0333774733359042
 10
0.6295685829429411
 20
0.0332999996569652
 10
0.6834791651390893
 20
0.0332999996455766
 10
0.6838067934005215
 20
0.0333458767316569
 10
0.6841095639802411
 20
0.0334789230669191
 10
0.6843641653753786
 20
0.0336899906187489
 10
0.684551974201265
 20
0.0339623372513648
  0
LWPOLYLINE
  5
197
330
133
100
AcDbEntity
  8
BLOCKS
100
AcDbPolyline
 90
       25
 70
     1
 43
0.0
 10
0.684551974201276
 20
-0.0339623376757237
 10
0.6843641653753759
 20
-0.0336899910430913
 10
0.6841095639802405
 20
-0.0334789234912614
 10
0.6838067934005208
 20
-0.0333458771560027
 10
0.6834791651390725
 20
-0.0333000000699184
 10
0.6295685829429452
 20
-0.0333000000813075
 10
0.6291443958877756
 20
-0.0333774737602465
 10
0.6287749810515755
 20
-0.0335998911785691
 10
0.6285080383121306
 20
-0.0339385331773758
 10
0.6283780360632543
 20
-0.0343496733537762
 10
0.6275569047925402
 20
-0.0403235295490043
 10
0.6275438581714159
 20
-0.040500000295043
 10
0.6276352026900178
 20
-0.0409592201999488
 10
0.6278953299913636
 20
-0.0413485282183047
 10
0.6282846380104377
 20
-0.0416086555203532
 10
0.6287438581298384
 20
-0.0417000000816171
 10
0.6868291959012844
 20
-0.0417000000813977
 10
0.6871441437782372
 20
-0.041657689050121
 10
0.687437040739551
 20
-0.0415346616941827
 10
0.687687121197238
 20
-0.0413386716722783
 10
0.6878773854357622
 20
-0.0410842078366858
 10
0.6879937330408487
 20
-0.0407885466136816
 10
0.6880288868533729
 20
-0.0404727673658044
 10
0.6879794655287356
 20
-0.0401589491621798
 10
0.6878497966915209
 20
-0.039868831320976
  0
LWPOLYLINE
  5
198
330
133
100
AcDbEntity
  8
BLOCKS
100
AcDbPolyline
 90
       23
 70
     1
 43
0.0
 10
0.7042045901992135
 20
-0.0585727273611048
 10
0.7038474242834375
 20
-0.0583702374353408
 10
0.7034429042889582
 20
-0.0583000000683325
 10
0.6252338012180775
 20
-0.0583000000824149
 10
0.6248355886286525
 20
-0.0583679988752755
 10
0.6244825059954529
 20
-0.0585642888634959
 10
0.6242145686445673
 20
-0.0588666242418862
 10
0.6240621422701347
 20
-0.0592407409425533
 10
0.6226700074770454
 20
-0.0652145971633081
 10
0.6226355739774906
 20
-0.0655000002803871
 10
0.6227269184993022
 20
-0.0659592202000715
 10
0.6229870458010015
 20
-0.0663485282187821
 10
0.623376353819358
 20
-0.066608655520119
 10
0.6238355739370455
 20
-0.0667000000816154
 10
0.7118362672717056
 20
-0.0667000000813778
 10
0.7122177338222185
 20
-0.0666377536889513
 10
0.7125596255101857
 20
-0.0664574722012157
 10
0.712826473130691
 20
-0.0661778587386363
 10
0.7129905928483025
 20
-0.0658279215165175
 10
0.7130349582275255
 20
-0.0654439644166507
 10
0.7129549666290097
 20
-0.0650658206802854
 10
0.712758916698582
 20
-0.0647327204463227
 10
0.7124671474379304
 20
-0.0644792208603661
  0
LINE
  5
199
330
133
100
AcDbEntity
  8
BLOCKS
  6
Continuous
100
AcDbLine
 10
0.685583167535948
 20
0.3298755705965914
 30
0.0
 11
0.5917450757724249
 21
0.4245826997470431
 31
0.0
  0
LINE
  5
19A
330
133
100
AcDbEntity
  8
BLOCKS
  6
Continuous
100
AcDbLine
 10
0.5917450757748407
 20
-0.4245826998961957
 30
0.0
 11
0.6855831675262096
 21
-0.3298755707485754
 31
0.0
  0
LINE
  5
19B
330
133
100
AcDbEntity
  8
BLOCKS
  6
Continuous
100
AcDbLine
 10
0.6094311978101689
 20
-0.4497810672103879
 30
0.0
 11
0.7077653331623435
 21
-0.3514469318592336
 31
0.0
  0
LINE
  5
19C
330
133
100
AcDbEntity
  8
BLOCKS
  6
Continuous
100
AcDbLine
 10
0.5753508017216609
 20
0.5587850588145671
 30
0.0
 11
0.7452271309649383
 21
0.3889087295712898
 31
0.0
  0
LINE
  5
19D
330
133
100
AcDbEntity
  8
BLOCKS
  6
Continuous
100
AcDbLine
 10
0.7077653330542182
 20
0.3514469318047349
 30
0.0
 11
0.6094311978101701
 21
0.4497810670477657
 31
0.0
  0
LINE
  5
19E
330
133
100
AcDbEntity
  8
BLOCKS
  6
Continuous
100
AcDbLine
 10
0.7452271309649383
 20
-0.388908729733912
 30
0.0
 11
0.5753508017174534
 21
-0.5587850589814162
 31
0.0
  0
ENDBLK
  5
1A0
330
133
100
AcDbEntity
  8
0
100
AcDbBlockEnd
  0
BLOCK
  5
1AB
330
1AA
100
AcDbEntity
  8
0
100
AcDbBlockBegin
  2
_DotSmall
 70
     0
 10
0.0
 20
0.0
 30
0.0
  3
_DotSmall
  1

  0
LWPOLYLINE
  5
1AC
330
1AA
100
AcDbEntity
  8
0
  6
ByBlock
 62
     0
100
AcDbPolyline
 90
        2
 70
     1
 43
0.5
 10
-0.0625
 20
0.0
 42
1.0
 10
0.0625
 20
0.0
 42
1.0
  0
ENDBLK
  5
1AD
330
1AA
100
AcDbEntity
  8
0
100
AcDbBlockEnd
  0
ENDSEC
  0
SECTION
  2
ENTITIES
  0
ARC
  5
26
330
2
100
AcDbEntity
  8
BLOCKS
  6
Continuous
100
AcDbCircle
 10
0.4376559165539457
 20
0.0699999999999949
 30
0.0
 40
0.0100000000000004
100
AcDbArc
 50
0.0
 51
90.0
  0
LINE
  5
27
330
2
100
AcDbEntity
  8
BLOCKS
100
AcDbLine
 10
0.4366559165539457
 20
-0.0000000000000028
 30
0.0
 11
0.4476559165539456
 21
-0.0000000000000028
 31
0.0
  0
LINE
  5
28
330
2
100
AcDbEntity
  8
BLOCKS
  6
Continuous
100
AcDbLine
 10
0.4476559165539456
 20
0.0699999999999972
 30
0.0
 11
0.4476559165539456
 21
-0.0000000000000028
 31
0.0
  0
LWPOLYLINE
  5
29
330
2
100
AcDbEntity
  8
BLOCKS
  6
Continuous
100
AcDbPolyline
 90
       10
 70
   128
 43
0.0
 10
-0.4562346559844003
 20
0.0702443217798111
 10
-0.4559674078406346
 20
0.0719499522132532
 10
-0.4552916844038959
 20
0.0735981587777235
 10
-0.454227384958804
 20
0.0751404036695107
 10
-0.4528058519102974
 20
0.0765312695353123
 10
-0.4510689477855456
 20
0.0777297969615148
 10
-0.4490678224302715
 20
0.0787006906822126
 10
-0.4468614067041157
 20
0.0794153589845291
 10
-0.444514677034032
 20
0.0798527557019674
 10
-0.4420967419326079
 20
0.0800000000000012
  0
LINE
  5
2A
330
2
100
AcDbEntity
  8
BLOCKS
100
AcDbLine
 10
-0.4586624847583918
 20
0.0000000000000017
 30
0.0
 11
-0.4476559165539456
 21
0.0000000000000017
 31
0.0
  0
LINE
  5
2B
330
2
100
AcDbEntity
  8
BLOCKS
  6
Continuous
100
AcDbLine
 10
-0.4586624847583918
 20
0.0000000000000017
 30
0.0
 11
-0.456234656115328
 21
0.0702443217820758
 31
0.0
  0
LINE
  5
2C
330
2
100
AcDbEntity
  8
BLOCKS
  6
Continuous
100
AcDbLine
 10
0.4476559165539456
 20
-0.0000000000000017
 30
0.0
 11
-0.4476559165539456
 21
0.0000000000000017
 31
0.0
  0
LINE
  5
2D
330
2
100
AcDbEntity
  8
BLOCKS
  6
Continuous
100
AcDbLine
 10
0.4376559165539457
 20
0.0800000000000017
 30
0.0
 11
-0.4420967418017441
 21
0.0800000000000017
 31
0.0
  0
INSERT
  5
44
330
2
100
AcDbEntity
  8
BLOCKS
100
AcDbBlockReference
  2
107171AL
 10
1.089542138286433
 20
-0.0000000000000028
 30
0.0
  0
INSERT
  5
1A1
330
2
100
AcDbEntity
  8
BLOCKS
100
AcDbBlockReference
  2
107171PL
 10
-1.439802967997126
 20
0.5572438172072289
 30
0.0
 50
270.0
  0
LINE
  5
3B6
330
2
100
AcDbEntity
  8
INDUSA
  6
Continuous
100
AcDbLine
 10
2.39128959533492
 20
0.0799999999999898
 30
0.0
 11
2.489623730679122
 21
0.0799999999999898
 31
0.0
  0
LINE
  5
3BD
330
2
100
AcDbEntity
  8
INDUSA
  6
Continuous
100
AcDbLine
 10
2.482911405799106
 20
-0.0000000000000091
 30
0.0
 11
1.782619775226748
 21
-0.0000000000000057
 31
0.0
  0
LINE
  5
3BE
330
2
100
AcDbEntity
  8
INDUSA
  6
Continuous
100
AcDbLine
 10
2.482109632680199
 20
0.0260216133299502
 30
0.0
 11
1.900493014625851
 21
0.0402360173031502
 31
0.0
  0
LINE
  5
3BF
330
2
100
AcDbEntity
  8
INDUSA
  6
Continuous
100
AcDbLine
 10
1.880037385001921
 20
0.0799999999999943
 30
0.0
 11
2.288837690046283
 21
0.0799999999999898
 31
0.0
  0
LINE
  5
3C2
330
2
100
AcDbEntity
  8
sanindusa
  6
Continuous
100
AcDbLine
 10
2.022333989374409
 20
0.0392588852181041
 30
0.0
 11
2.499760238482825
 21
0.0275908390139875
 31
0.0
  0
LWPOLYLINE
  5
3C7
330
2
100
AcDbEntity
  8
INDUSA
  6
Continuous
100
AcDbPolyline
 90
        8
 70
   128
 43
0.0
 10
1.877725990916972
 20
0.0563698215479935
 10
1.879547230861367
 20
0.0525720305183613
 10
1.881976117462537
 20
0.049131007194047
 10
1.88495178197693
 20
0.0461501428332204
 10
1.888382747267431
 20
0.0437070691922445
 10
1.892177352750423
 20
0.0418792013448738
 10
1.896223581420126
 20
0.0407095154077642
 10
1.900493014625876
 20
0.0402360173039952
  0
LINE
  5
3C8
330
2
100
AcDbEntity
  8
INDUSA
  6
Continuous
100
AcDbLine
 10
1.771613207022302
 20
-0.0000000000000057
 30
0.0
 11
1.774041035665366
 21
0.0702443217820678
 31
0.0
  0
LINE
  5
3C9
330
2
100
AcDbEntity
  8
INDUSA
  6
Continuous
100
AcDbLine
 10
1.858414853736127
 20
0.0799999999999943
 30
0.0
 11
1.78817894997895
 21
0.0799999999999943
 31
0.0
  0
LWPOLYLINE
  5
3CA
330
2
100
AcDbEntity
  8
INDUSA
  6
Continuous
100
AcDbPolyline
 90
       10
 70
   128
 43
0.0
 10
1.774041035796294
 20
0.0702443217798036
 10
1.774308283940059
 20
0.0719499522132456
 10
1.774984007376798
 20
0.073598158777716
 10
1.77604830682189
 20
0.075140403669503
 10
1.777469839870397
 20
0.076531269535305
 10
1.779206743995148
 20
0.0777297969615074
 10
1.781207869350423
 20
0.0787006906822053
 10
1.783414285076578
 20
0.0794153589845219
 10
1.785761014746662
 20
0.0798527557019597
 10
1.788178949848086
 20
0.0799999999999936
  0
LINE
  5
3CB
330
2
100
AcDbEntity
  8
INDUSA
  6
Continuous
100
AcDbLine
 10
1.880037385004095
 20
0.0799999999999932
 30
0.0
 11
1.858414853736126
 21
0.0799999999999932
 31
0.0
  0
LWPOLYLINE
  5
3CC
330
2
100
AcDbEntity
  8
INDUSA
  6
Continuous
100
AcDbPolyline
 90
        8
 70
   128
 43
0.0
 10
1.872441550634516
 20
0.0703152397999939
 10
1.871348806667654
 20
0.0725939144179656
 10
1.869891474706696
 20
0.0746585284127077
 10
1.868106075997787
 20
0.0764470470293136
 10
1.866047496823199
 20
0.0779128912139632
 10
1.863770733533098
 20
0.0790096119223954
 10
1.86134299633097
 20
0.0797114234846113
 10
1.858414853736125
 20
0.0799999999999936
  0
LINE
  5
3CF
330
2
100
AcDbEntity
  8
INDUSA
  6
Continuous
100
AcDbLine
 10
1.87772599091646
 20
0.0563698215478007
 30
0.0
 11
1.872441550635336
 21
0.0703152397953773
 31
0.0
  0
LINE
  5
3D1
330
2
100
AcDbEntity
  8
sanindusa
  6
Continuous
100
AcDbLine
 10
2.022333989374333
 20
0.0392588852188283
 30
0.0
 11
2.021133989365656
 21
0.0392882125873382
 31
0.0
  0
ARC
  5
3D2
330
2
100
AcDbEntity
  8
sanindusa
  6
Continuous
100
AcDbCircle
 10
2.021114443632191
 20
0.0384884513949931
 30
0.0
 40
0.0008000000002988
100
AcDbArc
 50
88.60000064937226
 51
180.0
  0
ARC
  5
3D5
330
2
100
AcDbEntity
  8
sanindusa
  6
Continuous
100
AcDbCircle
 10
2.01951444363126
 20
0.0381274351129935
 30
0.0
 40
0.0008000000002988
100
AcDbArc
 50
268.6000000366909
 51
0.0000000000130276
  0
LINE
  5
3DB
330
2
100
AcDbEntity
  8
sanindusa
  6
Continuous
100
AcDbLine
 10
2.020314443631893
 20
0.0384884513949931
 30
0.0
 11
2.020314443631558
 21
0.0381274351129935
 31
0.0
  0
LINE
  5
3DC
330
2
100
AcDbEntity
  8
9
  6
Continuous
100
AcDbLine
 10
2.16861411478046
 20
0.0356838759577886
 30
0.0
 11
2.167432032362007
 21
0.0357127654297961
 31
0.0
  0
LINE
  5
3DD
330
2
100
AcDbEntity
  8
9
  6
Continuous
100
AcDbLine
 10
2.208005758879467
 20
0.0347211649120175
 30
0.0
 11
2.209201795768087
 21
0.0346919344000628
 31
0.0
  0
LINE
  5
3DF
330
2
100
AcDbEntity
  8
sanindusa
  6
Continuous
100
AcDbLine
 10
2.381044404790273
 20
0.0474458949233588
 30
0.0
 11
2.381044404796022
 21
0.0688822856830927
 31
0.0
  0
LINE
  5
3E3
330
2
100
AcDbEntity
  8
INDUSA
  6
Continuous
100
AcDbLine
 10
2.391289595332744
 20
0.0799999999999886
 30
0.0
 11
2.288837690046283
 21
0.0799999999999898
 31
0.0
  0
LINE
  5
3E6
330
2
100
AcDbEntity
  8
sanindusa
  6
Continuous
100
AcDbLine
 10
2.299082880577368
 20
0.0486143678865813
 30
0.0
 11
2.299082880576791
 21
0.0688822856767922
 31
0.0
  0
LWPOLYLINE
  5
433
330
2
100
AcDbEntity
  8
sanindusa
  6
Continuous
100
AcDbPolyline
 90
        9
 70
   128
 43
0.0
 10
2.288837690046284
 20
0.07999999999999
 10
2.290565457454485
 20
0.0797996499817064
 10
2.29224707043172
 20
0.0792039519431792
 10
2.293837607485779
 20
0.0782288189661713
 10
2.295294580066173
 20
0.076900300105378
 10
2.296579067575054
 20
0.0752538845313002
 10
2.297656757066221
 20
0.0733335534960943
 10
2.298498859858366
 20
0.0711906054476249
 10
2.299082880576791
 20
0.068882285676792
  0
LWPOLYLINE
  5
435
330
2
100
AcDbEntity
  8
sanindusa
  6
Continuous
100
AcDbPolyline
 90
        8
 70
   128
 43
0.0
 10
2.308703457050874
 20
0.0322601661763465
 10
2.306938685863627
 20
0.033567369635327
 10
2.305084582912909
 20
0.0353852567675376
 10
2.303415002398106
 20
0.0375314030776217
 10
2.301957764959326
 20
0.0399700467897319
 10
2.300737152910588
 20
0.0426605521702395
 10
2.299773505617517
 20
0.0455580866511709
 10
2.299082880577367
 20
0.048614367886582
  0
LWPOLYLINE
  5
438
330
2
100
AcDbEntity
  8
sanindusa
  6
Continuous
100
AcDbPolyline
 90
        9
 70
   128
 43
0.0
 10
2.381044404816811
 20
0.0688822856759189
 10
2.381594939867971
 20
0.0710850070126044
 10
2.38241784806327
 20
0.0732209610331966
 10
2.383507038380413
 20
0.0751913499669236
 10
2.384832705327827
 20
0.0769003001041502
 10
2.386343047832274
 20
0.0782688859880864
 10
2.387970751699934
 20
0.0792467734481243
 10
2.38964261974046
 20
0.0798180613675932
 10
2.391289595348895
 20
0.07999999999999
  0
LWPOLYLINE
  5
445
330
2
100
AcDbEntity
  8
sanindusa
  6
Continuous
100
AcDbPolyline
 90
        9
 70
   128
 43
0.0
 10
2.381044404790273
 20
0.0474458949233586
 10
2.380332332341786
 20
0.0445887444008959
 10
2.379382657718997
 20
0.041867035495362
 10
2.37820917065334
 20
0.0393202887266825
 10
2.37682891074037
 20
0.0369854840805629
 10
2.37526192001665
 20
0.0348965240413427
 10
2.373530951939755
 20
0.0330837413116397
 10
2.371661140997153
 20
0.0315734583669591
 10
2.37036410290744
 20
0.0307532124519867
  0
LINE
  5
4D9
330
2
100
AcDbEntity
  8
sanindusa
  6
Continuous
100
AcDbLine
 10
2.482109632680199
 20
0.0260216133299502
 30
0.0
 11
2.516581752344695
 21
0.0251791328721925
 31
0.0
  0
LINE
  5
4DB
330
2
100
AcDbEntity
  8
INDUSA
  6
Continuous
100
AcDbLine
 10
2.639441513154447
 20
0.0799999999999886
 30
0.0
 11
2.489623730679122
 21
0.0799999999999898
 31
0.0
  0
LINE
  5
4DF
330
2
100
AcDbEntity
  8
INDUSA
  6
Continuous
100
AcDbLine
 10
2.493911405799106
 20
-0.0000000000000091
 30
0.0
 11
2.493911405799106
 21
0.0149999999999898
 31
0.0
  0
LINE
  5
4FE
330
2
100
AcDbEntity
  8
INDUSA
  6
Continuous
100
AcDbLine
 10
2.493911405799106
 20
0.0149999999999898
 30
0.0
 11
2.483474981885876
 21
0.02543642391302
 31
0.0
  0
ARC
  5
4FF
330
2
100
AcDbEntity
  8
INDUSA
  6
Continuous
100
AcDbCircle
 10
2.482060768324233
 20
0.0240222103514998
 30
0.0
 40
0.0019999999988801
100
AcDbArc
 50
44.99999999751852
 51
88.60000000893544
  0
LINE
  5
500
330
2
100
AcDbEntity
  8
sanindusa
  6
Continuous
100
AcDbLine
 10
2.501740692741001
 20
0.0263112218483514
 30
0.0
 11
2.501740692741001
 21
0.0267929554869409
 31
0.0
  0
LWPOLYLINE
  5
501
330
2
100
AcDbEntity
  8
sanindusa
  6
Continuous
100
AcDbPolyline
 90
       10
 70
   128
 43
0.0
 10
2.501740483903341
 20
0.0267617535162526
 10
2.50172421338842
 20
0.0269185532387755
 10
2.501677446146533
 20
0.0270713105748264
 10
2.501605597149656
 20
0.0272063350391936
 10
2.501516240610271
 20
0.0273151443536981
 10
2.501302900553647
 20
0.0274571361729095
 10
2.501051407480072
 20
0.0275266434397117
 10
2.500433358505306
 20
0.0275730134647429
 10
2.500089548380366
 20
0.0275827205699525
 10
2.499760238482825
 20
0.0275908390139875
  0
LWPOLYLINE
  5
502
330
2
100
AcDbEntity
  8
sanindusa
  6
Continuous
100
AcDbPolyline
 90
       11
 70
   128
 43
0.0
 10
2.50246086628164
 20
0.0255243731827877
 10
2.502461058500196
 20
0.0255243696952248
 10
2.502442218555416
 20
0.0255266262316336
 10
2.502392355370804
 20
0.0255346731767431
 10
2.502320311764013
 20
0.0255523018550803
 10
2.502235236228615
 20
0.0255825150648898
 10
2.502146561622072
 20
0.0256260787484107
 10
2.501989824902638
 20
0.0257421248317833
 10
2.501874722730047
 20
0.0258785863560343
 10
2.501798062141888
 20
0.026024107281989
 10
2.501740483915281
 20
0.0263225350019775
  0
LINE
  5
506
330
2
100
AcDbEntity
  8
INDUSA
  6
Continuous
100
AcDbLine
 10
2.66793160833464
 20
0.0799999999999898
 30
0.0
 11
2.639441513154447
 21
0.0799999999999886
 31
0.0
  0
LINE
  5
507
330
2
100
AcDbEntity
  8
INDUSA
  6
Continuous
100
AcDbLine
 10
2.67793160833464
 20
0.0699999999999898
 30
0.0
 11
2.67793160833464
 21
-0.0000000000000102
 31
0.0
  0
LINE
  5
508
330
2
100
AcDbEntity
  8
INDUSA
  6
Continuous
100
AcDbLine
 10
2.666931608334639
 20
-0.0000000000000102
 30
0.0
 11
2.564911405799106
 21
-0.0000000000000102
 31
0.0
  0
LINE
  5
50A
330
2
100
AcDbEntity
  8
INDUSA
  6
Continuous
100
AcDbLine
 10
2.595086123151607
 20
0.0267394726256521
 30
0.0
 11
2.565713178918013
 21
0.0260216133299502
 31
0.0
  0
LWPOLYLINE
  5
50C
330
2
100
AcDbEntity
  8
sanindusa
  6
Continuous
100
AcDbPolyline
 90
        3
 70
   128
 43
0.0
 10
2.516581752396264
 20
0.025179132870534
 10
2.523911405683699
 20
0.0250895798059382
 10
2.531241059271111
 20
0.0251791328722238
  0
LINE
  5
50D
330
2
100
AcDbEntity
  8
INDUSA
  6
Continuous
100
AcDbLine
 10
2.493911405799106
 20
-0.0000000000000091
 30
0.0
 11
2.553911405799106
 21
-0.0000000000000102
 31
0.0
  0
LINE
  5
510
330
2
100
AcDbEntity
  8
sanindusa
  6
Continuous
100
AcDbLine
 10
2.531241059245218
 20
0.0251791328723482
 30
0.0
 11
2.565713178918013
 21
0.0260216133299502
 31
0.0
  0
ARC
  5
516
330
2
100
AcDbEntity
  8
INDUSA
  6
Continuous
100
AcDbCircle
 10
2.565762043273979
 20
0.0240222103514987
 30
0.0
 40
0.001999999998881
100
AcDbArc
 50
91.39999999107729
 51
135.000000000001
  0
LINE
  5
517
330
2
100
AcDbEntity
  8
INDUSA
  6
Continuous
100
AcDbLine
 10
2.564347829712338
 20
0.02543642391302
 30
0.0
 11
2.553911405799106
 21
0.0149999999999898
 31
0.0
  0
LINE
  5
518
330
2
100
AcDbEntity
  8
INDUSA
  6
Continuous
100
AcDbLine
 10
2.553911405799106
 20
0.0149999999999898
 30
0.0
 11
2.553911405799106
 21
-0.0000000000000102
 31
0.0
  0
ARC
  5
519
330
2
100
AcDbEntity
  8
INDUSA
  6
Continuous
100
AcDbCircle
 10
2.594475318698405
 20
0.051732009870459
 30
0.0
 40
0.025000000000262
100
AcDbArc
 50
271.3999999985857
 51
344.9999999976212
  0
LINE
  5
51A
330
2
100
AcDbEntity
  8
INDUSA
  6
Continuous
100
AcDbLine
 10
2.624952625759639
 20
0.0688822856769901
 30
0.0
 11
2.618623464355616
 21
0.0452615337418206
 31
0.0
  0
LWPOLYLINE
  5
51B
330
2
100
AcDbEntity
  8
INDUSA
  6
Continuous
100
AcDbPolyline
 90
        8
 70
   128
 43
0.0
 10
2.639441513154639
 20
0.07999999999999
 10
2.636923481526824
 20
0.0797856075742211
 10
2.634476429289843
 20
0.079154431893131
 10
2.632171307236049
 20
0.0781186424801645
 10
2.630071120966872
 20
0.0767130589623094
 10
2.6282387935125
 20
0.0749726499611834
 10
2.626722253281433
 20
0.0729511274857241
 10
2.624952625759602
 20
0.0688822856770139
  0
ARC
  5
51C
330
2
100
AcDbEntity
  8
INDUSA
  6
Continuous
100
AcDbCircle
 10
2.66793160833464
 20
0.0699999999999875
 30
0.0
 40
0.0100000000000004
100
AcDbArc
 50
0.0000000000130276
 51
90.0
  0
LINE
  5
51D
330
2
100
AcDbEntity
  8
INDUSA
  6
Continuous
100
AcDbLine
 10
1.782619775226748
 20
-0.0000000000000057
 30
0.0
 11
1.784980568778378
 21
0.0683047967060748
 31
0.0
  0
LWPOLYLINE
  5
51E
330
2
100
AcDbEntity
  8
INDUSA
  6
Continuous
100
AcDbPolyline
 90
        5
 70
   128
 43
0.0
 10
1.784980568778378
 20
0.0683047967060748
 10
1.785323162680486
 20
0.068471014313297
 10
1.786128108894265
 20
0.0687317401308492
 10
1.787108219405326
 20
0.0689144186582171
 10
1.788513571823539
 20
0.0689999999999937
  0
LINE
  5
51F
330
2
100
AcDbEntity
  8
INDUSA
  6
Continuous
100
AcDbLine
 10
1.857874123399566
 20
0.0689999999999941
 30
0.0
 11
1.788513571823539
 21
0.0689999999999941
 31
0.0
  0
LWPOLYLINE
  5
520
330
2
100
AcDbEntity
  8
INDUSA
  6
Continuous
100
AcDbPolyline
 90
        8
 70
   128
 43
0.0
 10
1.862320943330733
 20
0.0659802878869896
 10
1.861829590460186
 20
0.0670048950672072
 10
1.861444835312718
 20
0.0675499808014747
 10
1.860973466151874
 20
0.0680221736597187
 10
1.860429973690983
 20
0.0684091761481495
 10
1.859828877702782
 20
0.068698725097257
 10
1.859258732579995
 20
0.0688635429527321
 10
1.857874123399566
 20
0.0689999999999937
  0
LINE
  5
521
330
2
100
AcDbEntity
  8
INDUSA
  6
Continuous
100
AcDbLine
 10
1.867439746524621
 20
0.0524719790277198
 30
0.0
 11
1.862320943330733
 21
0.0659802878869937
 31
0.0
  0
LWPOLYLINE
  5
522
330
2
100
AcDbEntity
  8
INDUSA
  6
Continuous
100
AcDbPolyline
 90
        8
 70
   128
 43
0.0
 10
1.867439746524621
 20
0.0524719790277204
 10
1.870028014653633
 20
0.0469830111680558
 10
1.873529478068227
 20
0.0420224595832087
 10
1.877819172130635
 20
0.0377252694639492
 10
1.882765224134767
 20
0.0342033541266965
 10
1.888235496919583
 20
0.0315683145199373
 10
1.894074256788152
 20
0.029880442709934
 10
1.900224260666182
 20
0.0292393009155576
  0
LINE
  5
523
330
2
100
AcDbEntity
  8
INDUSA
  6
Continuous
100
AcDbLine
 10
2.478242210103887
 20
0.0151128465089539
 30
0.0
 11
1.900224260666182
 21
0.0292393009155569
 31
0.0
  0
LINE
  5
524
330
2
100
AcDbEntity
  8
INDUSA
  6
Continuous
100
AcDbLine
 10
2.482911405799106
 20
0.0104436508138235
 30
0.0
 11
2.478242210103884
 21
0.0151128465089551
 31
0.0
  0
LINE
  5
525
330
2
100
AcDbEntity
  8
INDUSA
  6
Continuous
100
AcDbLine
 10
2.482911405799106
 20
-0.0000000000000091
 30
0.0
 11
2.482911405799106
 21
0.0104436508138235
 31
0.0
  0
LINE
  5
526
330
2
100
AcDbEntity
  8
INDUSA
  6
Continuous
100
AcDbLine
 10
2.564911405799106
 20
0.0104436508138247
 30
0.0
 11
2.564911405799106
 21
-0.0000000000000102
 31
0.0
  0
LINE
  5
527
330
2
100
AcDbEntity
  8
INDUSA
  6
Continuous
100
AcDbLine
 10
2.569580601494452
 20
0.015112846509079
 30
0.0
 11
2.564911405799105
 21
0.0104436508138224
 31
0.0
  0
LINE
  5
528
330
2
100
AcDbEntity
  8
INDUSA
  6
Continuous
100
AcDbLine
 10
2.595354877111654
 20
0.0157427562380679
 30
0.0
 11
2.569580601494451
 21
0.0151128465090778
 31
0.0
  0
ARC
  5
529
330
2
100
AcDbEntity
  8
INDUSA
  6
Continuous
100
AcDbCircle
 10
2.594475318698405
 20
0.051732009870459
 30
0.0
 40
0.036000000000262
100
AcDbArc
 50
271.3999999985857
 51
344.9999999976212
  0
LINE
  5
52A
330
2
100
AcDbEntity
  8
INDUSA
  6
Continuous
100
AcDbLine
 10
2.635366108921016
 20
0.065245197562092
 30
0.0
 11
2.629248648444978
 21
0.0424145242463726
 31
0.0
  0
LWPOLYLINE
  5
52B
330
2
100
AcDbEntity
  8
INDUSA
  6
Continuous
100
AcDbPolyline
 90
        8
 70
   128
 43
0.0
 10
2.639908953285023
 20
0.0689999999999882
 10
2.638776719095299
 20
0.0689035983377571
 10
2.638130664545408
 20
0.0687369595082355
 10
2.637522081463896
 20
0.0684634972368103
 10
2.636967604173033
 20
0.0680924043711448
 10
2.636483845195183
 20
0.0676329130954901
 10
2.636295229502278
 20
0.0673814915673165
 10
2.635366108921016
 20
0.0652451975620907
  0
LINE
  5
52C
330
2
100
AcDbEntity
  8
INDUSA
  6
Continuous
100
AcDbLine
 10
2.66693160833464
 20
0.0689999999999907
 30
0.0
 11
2.639908953285023
 21
0.0689999999999884
 31
0.0
  0
LINE
  5
52D
330
2
100
AcDbEntity
  8
INDUSA
  6
Continuous
100
AcDbLine
 10
2.666931608334639
 20
0.0689999999999907
 30
0.0
 11
2.666931608334639
 21
-0.0000000000000102
 31
0.0
  0
LINE
  5
52E
330
2
100
AcDbEntity
  8
INDUSA
100
AcDbLine
 10
1.771613207022302
 20
-0.0000000000000057
 30
0.0
 11
1.782619775226748
 21
-0.0000000000000057
 31
0.0
  0
LINE
  5
52F
330
2
100
AcDbEntity
  8
INDUSA
100
AcDbLine
 10
2.482911405799106
 20
-0.0000000000000091
 30
0.0
 11
2.493911405799106
 21
-0.0000000000000091
 31
0.0
  0
LINE
  5
530
330
2
100
AcDbEntity
  8
INDUSA
100
AcDbLine
 10
2.553911405799106
 20
-0.0000000000000102
 30
0.0
 11
2.564911405799106
 21
-0.0000000000000102
 31
0.0
  0
LINE
  5
531
330
2
100
AcDbEntity
  8
INDUSA
100
AcDbLine
 10
2.666931608334639
 20
-0.0000000000000102
 30
0.0
 11
2.67793160833464
 21
-0.0000000000000102
 31
0.0
  0
ENDSEC
  0
SECTION
  2
OBJECTS
  0
DICTIONARY
  5
7
330
0
100
AcDbDictionary
281
     1
  3
ACAD_COLOR
350
33
  3
ACAD_GROUP
350
1F
  3
ACAD_LAYOUT
350
B
  3
ACAD_MATERIAL
350
32
  3
ACAD_MLEADERSTYLE
350
678
  3
ACAD_MLINESTYLE
350
20
  3
ACAD_PLOTSETTINGS
350
21
  3
ACAD_PLOTSTYLENAME
350
6
  3
ACAD_SCALELIST
350
666
  3
ACAD_TABLESTYLE
350
34
  3
ACAD_VISUALSTYLE
350
652
  3
ACDB_RECOMPOSE_DATA
350
69A
  3
AcDbVariableDictionary
350
2E
  3
ASE_INDEX_DICTIONARY
350
690
  3
DWGPROPS
350
69B
  0
DICTIONARY
  5
67F
330
4
100
AcDbDictionary
280
     1
281
     1
  3
ADSK_XREC_LAYER_RECONCILED
360
680
  0
DICTIONARY
  5
681
330
22
100
AcDbDictionary
280
     1
281
     1
  3
ADSK_XREC_LAYER_RECONCILED
360
682
  0
DICTIONARY
  5
683
330
210
100
AcDbDictionary
280
     1
281
     1
  3
ADSK_XREC_LAYER_RECONCILED
360
684
  0
DICTIONARY
  5
685
330
212
100
AcDbDictionary
280
     1
281
     1
  3
ADSK_XREC_LAYER_RECONCILED
360
686
  0
DICTIONARY
  5
687
330
213
100
AcDbDictionary
280
     1
281
     1
  3
ADSK_XREC_LAYER_RECONCILED
360
688
  0
DICTIONARY
  5
689
330
214
100
AcDbDictionary
280
     1
281
     1
  3
ADSK_XREC_LAYER_RECONCILED
360
68A
  0
DICTIONARY
  5
68B
330
215
100
AcDbDictionary
280
     1
281
     1
  3
ADSK_XREC_LAYER_RECONCILED
360
68C
  0
DICTIONARY
  5
68D
330
61A
100
AcDbDictionary
280
     1
281
     1
  3
ADSK_XREC_LAYER_RECONCILED
360
68E
  0
DICTIONARY
  5
33
102
{ACAD_REACTORS
330
7
102
}
330
7
100
AcDbDictionary
281
     1
  0
DICTIONARY
  5
1F
102
{ACAD_REACTORS
330
7
102
}
330
7
100
AcDbDictionary
281
     1
  0
DICTIONARY
  5
B
102
{ACAD_REACTORS
330
7
102
}
330
7
100
AcDbDictionary
281
     1
  3
Layout1
350
F
  3
Model
350
A
  0
DICTIONARY
  5
32
102
{ACAD_REACTORS
330
7
102
}
330
7
100
AcDbDictionary
281
     1
  3
ByBlock
350
642
  3
ByLayer
350
63A
  3
Global
350
64A
  0
DICTIONARY
  5
678
102
{ACAD_REACTORS
330
7
102
}
330
7
100
AcDbDictionary
281
     1
  3
Standard
350
679
  0
DICTIONARY
  5
20
102
{ACAD_REACTORS
330
7
102
}
330
7
100
AcDbDictionary
281
     1
  3
Standard
350
24
  0
DICTIONARY
  5
21
102
{ACAD_REACTORS
330
7
102
}
330
7
100
AcDbDictionary
281
     1
  0
ACDBDICTIONARYWDFLT
  5
6
102
{ACAD_REACTORS
330
7
102
}
330
7
100
AcDbDictionary
281
     1
  3
Normal
350
5
100
AcDbDictionaryWithDefault
340
5
  0
DICTIONARY
  5
666
102
{ACAD_REACTORS
330
7
102
}
330
7
100
AcDbDictionary
281
     1
  3
A0
350
667
  3
A1
350
668
  3
A2
350
669
  3
A3
350
66A
  3
A4
350
66B
  3
A5
350
66C
  3
A6
350
66D
  3
A7
350
66E
  3
A8
350
66F
  3
A9
350
670
  3
B0
350
671
  3
B1
350
672
  3
B2
350
673
  3
B3
350
674
  3
B4
350
675
  3
B5
350
676
  3
B6
350
677
  0
DICTIONARY
  5
34
102
{ACAD_REACTORS
330
7
102
}
330
7
100
AcDbDictionary
281
     1
  3
Standard
350
35
  0
DICTIONARY
  5
652
102
{ACAD_REACTORS
330
7
102
}
330
7
100
AcDbDictionary
281
     1
  3
2dWireframe
350
658
  3
3D Hidden
350
65A
  3
3dWireframe
350
659
  3
Basic
350
657
  3
Brighten
350
65E
  3
ColorChange
350
662
  3
Conceptual
350
65B
  3
Dim
350
65D
  3
EdgeColorOff
350
665
  3
Facepattern
350
661
  3
Flat
350
653
  3
FlatWithEdges
350
654
  3
Gouraud
350
655
  3
GouraudWithEdges
350
656
  3
JitterOff
350
663
  3
Linepattern
350
660
  3
OverhangOff
350
664
  3
Realistic
350
65C
  3
Thicken
350
65F
  0
XRECORD
  5
69A
102
{ACAD_REACTORS
330
7
102
}
330
7
100
AcDbXrecord
280
     1
 90
        1
330
35
  0
DICTIONARY
  5
2E
102
{ACAD_REACTORS
330
7
102
}
330
7
100
AcDbDictionary
281
     1
  3
CANNOSCALE
350
694
  3
CMLEADERSTYLE
350
693
  3
CTABLESTYLE
350
623
  3
DIMASSOC
350
30
  3
HIDETEXT
350
2F
  3
INDEXCTL
350
696
  3
PROJECTNAME
350
638
  3
SORTENTS
350
695
  3
XCLIPFRAME
350
697
  0
DICTIONARY
  5
690
102
{ACAD_REACTORS
330
7
102
}
330
7
100
AcDbDictionary
281
     1
  3
ASEBlockHierarchyIndexRecord
350
692
1001
DCO15
1040
1757671673.453
  0
XRECORD
  5
69B
102
{ACAD_REACTORS
330
7
102
}
330
7
100
AcDbXrecord
280
     1
  1
DWGPROPS COOKIE
  2

  3

  4

  6

  7

  8
Julio
  9

300
=
301
=
302
=
303
=
304
=
305
=
306
=
307
=
308
=
309
=
 40
0.0123596180555556
 41
2453125.639648206
 42
2456146.633998299
  1

 90
        0
  0
XRECORD
  5
680
102
{ACAD_REACTORS
330
67F
102
}
330
67F
100
AcDbXrecord
280
     1
290
     1
  0
XRECORD
  5
682
102
{ACAD_REACTORS
330
681
102
}
330
681
100
AcDbXrecord
280
     1
290
     1
  0
XRECORD
  5
684
102
{ACAD_REACTORS
330
683
102
}
330
683
100
AcDbXrecord
280
     1
290
     1
  0
XRECORD
  5
686
102
{ACAD_REACTORS
330
685
102
}
330
685
100
AcDbXrecord
280
     1
290
     1
  0
XRECORD
  5
688
102
{ACAD_REACTORS
330
687
102
}
330
687
100
AcDbXrecord
280
     1
290
     1
  0
XRECORD
  5
68A
102
{ACAD_REACTORS
330
689
102
}
330
689
100
AcDbXrecord
280
     1
290
     1
  0
XRECORD
  5
68C
102
{ACAD_REACTORS
330
68B
102
}
330
68B
100
AcDbXrecord
280
     1
290
     1
  0
XRECORD
  5
68E
102
{ACAD_REACTORS
330
68D
102
}
330
68D
100
AcDbXrecord
280
     1
290
     1
  0
LAYOUT
  5
F
102
{ACAD_XDICTIONARY
360
69E
102
}
102
{ACAD_REACTORS
330
B
102
}
330
B
100
AcDbPlotSettings
  1

  2
C:\Programas\Autodesk\MDT6\plotters\LASER_BANHEIRAS.pc3
  4

  6

 40
0.0
 41
0.0
 42
0.0
 43
0.0
 44
0.0
 45
0.0
 46
0.0
 47
0.0
 48
0.0
 49
0.0
140
0.0
141
0.0
142
1.0
143
1.0
 70
   688
 72
     0
 73
     0
 74
     5
  7
BANHEIRAS.ctb
 75
    16
147
1.0
148
0.0
149
0.0
100
AcDbLayout
  1
Layout1
 70
     1
 71
     1
 10
0.0
 20
0.0
 11
420.0
 21
297.0
 12
0.0
 22
0.0
 32
0.0
 14
1.000000000000000E+20
 24
1.000000000000000E+20
 34
1.000000000000000E+20
 15
-1.000000000000000E+20
 25
-1.000000000000000E+20
 35
-1.000000000000000E+20
146
0.0
 13
0.0
 23
0.0
 33
0.0
 16
1.0
 26
0.0
 36
0.0
 17
0.0
 27
1.0
 37
0.0
 76
     0
330
C
  0
LAYOUT
  5
A
102
{ACAD_XDICTIONARY
360
69C
102
}
102
{ACAD_REACTORS
330
B
102
}
330
B
100
AcDbPlotSettings
  1

  2
Laser 4M+
  4
A4
  6

 40
6.805083274841308
 41
5.069413185119628
 42
6.805084228515625
 43
5.027069091796875
 44
209.9733276367187
 45
296.9683227539062
 46
0.0
 47
4.596060203584215
 48
0.0
 49
0.0
140
0.0
141
0.0
142
1.0
143
1.069708136822442
 70
 11956
 72
     1
 73
     0
 74
     1
  7
FINO.CTB
 75
     0
147
0.9348344334095562
148
0.025633200973175
149
0.0181266115766903
100
AcDbLayout
  1
Model
 70
     1
 71
     0
 10
0.0
 20
0.0
 11
12.0
 21
9.0
 12
0.0
 22
0.0
 32
0.0
 14
0.0
 24
0.0
 34
0.0
 15
0.0
 25
0.0
 35
0.0
146
0.0
 13
0.0
 23
0.0
 33
0.0
 16
1.0
 26
0.0
 36
0.0
 17
0.0
 27
1.0
 37
0.0
 76
     0
330
2
331
632
  0
MATERIAL
  5
642
102
{ACAD_XDICTIONARY
360
643
102
}
102
{ACAD_REACTORS
330
32
102
}
330
32
100
AcDbMaterial
  1
ByBlock
 72
     0
 43
0.0008202099737533
 43
0.0
 43
0.0
 43
0.0
 43
0.0
 43
0.0008202099737533
 43
0.0
 43
0.0
 43
0.0
 43
0.0
 43
1.0
 43
0.0
 43
0.0
 43
0.0
 43
0.0
 43
1.0
 77
     0
 47
0.0008202099737533
 47
0.0
 47
0.0
 47
0.0
 47
0.0
 47
0.0008202099737533
 47
0.0
 47
0.0
 47
0.0
 47
0.0
 47
1.0
 47
0.0
 47
0.0
 47
0.0
 47
0.0
 47
1.0
171
     0
 49
0.0008202099737533
 49
0.0
 49
0.0
 49
0.0
 49
0.0
 49
0.0008202099737533
 49
0.0
 49
0.0
 49
0.0
 49
0.0
 49
1.0
 49
0.0
 49
0.0
 49
0.0
 49
0.0
 49
1.0
175
     0
142
0.0008202099737533
142
0.0
142
0.0
142
0.0
142
0.0
142
0.0008202099737533
142
0.0
142
0.0
142
0.0
142
0.0
142
1.0
142
0.0
142
0.0
142
0.0
142
0.0
142
1.0
179
     0
144
0.0008202099737533
144
0.0
144
0.0
144
0.0
144
0.0
144
0.0008202099737533
144
0.0
144
0.0
144
0.0
144
0.0
144
1.0
144
0.0
144
0.0
144
0.0
144
0.0
144
1.0
147
0.0008202099737533
147
0.0
147
0.0
147
0.0
147
0.0
147
0.0008202099737533
147
0.0
147
0.0
147
0.0
147
0.0
147
1.0
147
0.0
147
0.0
147
0.0
147
0.0
147
1.0
  0
MATERIAL
  5
63A
102
{ACAD_XDICTIONARY
360
63B
102
}
102
{ACAD_REACTORS
330
32
102
}
330
32
100
AcDbMaterial
  1
ByLayer
 72
     0
 43
0.0008202099737533
 43
0.0
 43
0.0
 43
0.0
 43
0.0
 43
0.0008202099737533
 43
0.0
 43
0.0
 43
0.0
 43
0.0
 43
1.0
 43
0.0
 43
0.0
 43
0.0
 43
0.0
 43
1.0
 77
     0
 47
0.0008202099737533
 47
0.0
 47
0.0
 47
0.0
 47
0.0
 47
0.0008202099737533
 47
0.0
 47
0.0
 47
0.0
 47
0.0
 47
1.0
 47
0.0
 47
0.0
 47
0.0
 47
0.0
 47
1.0
171
     0
 49
0.0008202099737533
 49
0.0
 49
0.0
 49
0.0
 49
0.0
 49
0.0008202099737533
 49
0.0
 49
0.0
 49
0.0
 49
0.0
 49
1.0
 49
0.0
 49
0.0
 49
0.0
 49
0.0
 49
1.0
175
     0
142
0.0008202099737533
142
0.0
142
0.0
142
0.0
142
0.0
142
0.0008202099737533
142
0.0
142
0.0
142
0.0
142
0.0
142
1.0
142
0.0
142
0.0
142
0.0
142
0.0
142
1.0
179
     0
144
0.0008202099737533
144
0.0
144
0.0
144
0.0
144
0.0
144
0.0008202099737533
144
0.0
144
0.0
144
0.0
144
0.0
144
1.0
144
0.0
144
0.0
144
0.0
144
0.0
144
1.0
147
0.0008202099737533
147
0.0
147
0.0
147
0.0
147
0.0
147
0.0008202099737533
147
0.0
147
0.0
147
0.0
147
0.0
147
1.0
147
0.0
147
0.0
147
0.0
147
0.0
147
1.0
  0
MATERIAL
  5
64A
102
{ACAD_XDICTIONARY
360
64B
102
}
102
{ACAD_REACTORS
330
32
102
}
330
32
100
AcDbMaterial
  1
Global
 72
     0
 43
0.0008202099737533
 43
0.0
 43
0.0
 43
0.0
 43
0.0
 43
0.0008202099737533
 43
0.0
 43
0.0
 43
0.0
 43
0.0
 43
1.0
 43
0.0
 43
0.0
 43
0.0
 43
0.0
 43
1.0
 77
     0
 47
0.0008202099737533
 47
0.0
 47
0.0
 47
0.0
 47
0.0
 47
0.0008202099737533
 47
0.0
 47
0.0
 47
0.0
 47
0.0
 47
1.0
 47
0.0
 47
0.0
 47
0.0
 47
0.0
 47
1.0
171
     0
 49
0.0008202099737533
 49
0.0
 49
0.0
 49
0.0
 49
0.0
 49
0.0008202099737533
 49
0.0
 49
0.0
 49
0.0
 49
0.0
 49
1.0
 49
0.0
 49
0.0
 49
0.0
 49
0.0
 49
1.0
175
     0
142
0.0008202099737533
142
0.0
142
0.0
142
0.0
142
0.0
142
0.0008202099737533
142
0.0
142
0.0
142
0.0
142
0.0
142
1.0
142
0.0
142
0.0
142
0.0
142
0.0
142
1.0
179
     0
144
0.0008202099737533
144
0.0
144
0.0
144
0.0
144
0.0
144
0.0008202099737533
144
0.0
144
0.0
144
0.0
144
0.0
144
1.0
144
0.0
144
0.0
144
0.0
144
0.0
144
1.0
147
0.0008202099737533
147
0.0
147
0.0
147
0.0
147
0.0
147
0.0008202099737533
147
0.0
147
0.0
147
0.0
147
0.0
147
1.0
147
0.0
147
0.0
147
0.0
147
0.0
147
1.0
  0
MLEADERSTYLE
  5
679
102
{ACAD_REACTORS
330
678
102
}
330
678
100
AcDbMLeaderStyle
170
     2
171
     1
172
     0
 90
        2
 40
0.0
 41
0.0
173
     1
 91
-1056964608
340
15
 92
       -2
290
     1
 42
2.0
291
     1
 43
0.36
  3
Standard
 44
4.0
300

342
12
174
     1
178
     6
175
     1
176
     0
 93
-1056964608
 45
4.0
292
     0
297
     0
 46
4.0
 94
-1056964608
 47
1.0
 49
1.0
140
1.0
293
     1
141
0.0
294
     1
177
     0
142
1.0
295
     0
296
     0
143
0.125
1001
ACAD_MLEADERVER
1070
     2
  0
MLINESTYLE
  5
24
102
{ACAD_REACTORS
330
20
102
}
330
20
100
AcDbMlineStyle
  2
STANDARD
 70
     0
  3

 62
   256
 51
90.0
 52
90.0
 71
     2
 49
0.5
 62
   256
  6
BYLAYER
 49
-0.5
 62
   256
  6
BYLAYER
  0
ACDBPLACEHOLDER
  5
5
102
{ACAD_REACTORS
330
6
102
}
330
6
  0
SCALE
  5
667
102
{ACAD_REACTORS
330
666
102
}
330
666
100
AcDbScale
 70
     0
300
1:1
140
1.0
141
1.0
290
     1
  0
SCALE
  5
668
102
{ACAD_REACTORS
330
666
102
}
330
666
100
AcDbScale
 70
     0
300
1:2
140
1.0
141
2.0
290
     0
  0
SCALE
  5
669
102
{ACAD_REACTORS
330
666
102
}
330
666
100
AcDbScale
 70
     0
300
1:4
140
1.0
141
4.0
290
     0
  0
SCALE
  5
66A
102
{ACAD_REACTORS
330
666
102
}
330
666
100
AcDbScale
 70
     0
300
1:5
140
1.0
141
5.0
290
     0
  0
SCALE
  5
66B
102
{ACAD_REACTORS
330
666
102
}
330
666
100
AcDbScale
 70
     0
300
1:8
140
1.0
141
8.0
290
     0
  0
SCALE
  5
66C
102
{ACAD_REACTORS
330
666
102
}
330
666
100
AcDbScale
 70
     0
300
1:10
140
1.0
141
10.0
290
     0
  0
SCALE
  5
66D
102
{ACAD_REACTORS
330
666
102
}
330
666
100
AcDbScale
 70
     0
300
1:16
140
1.0
141
16.0
290
     0
  0
SCALE
  5
66E
102
{ACAD_REACTORS
330
666
102
}
330
666
100
AcDbScale
 70
     0
300
1:20
140
1.0
141
20.0
290
     0
  0
SCALE
  5
66F
102
{ACAD_REACTORS
330
666
102
}
330
666
100
AcDbScale
 70
     0
300
1:30
140
1.0
141
30.0
290
     0
  0
SCALE
  5
670
102
{ACAD_REACTORS
330
666
102
}
330
666
100
AcDbScale
 70
     0
300
1:40
140
1.0
141
40.0
290
     0
  0
SCALE
  5
671
102
{ACAD_REACTORS
330
666
102
}
330
666
100
AcDbScale
 70
     0
300
1:50
140
1.0
141
50.0
290
     0
  0
SCALE
  5
672
102
{ACAD_REACTORS
330
666
102
}
330
666
100
AcDbScale
 70
     0
300
1:100
140
1.0
141
100.0
290
     0
  0
SCALE
  5
673
102
{ACAD_REACTORS
330
666
102
}
330
666
100
AcDbScale
 70
     0
300
2:1
140
2.0
141
1.0
290
     0
  0
SCALE
  5
674
102
{ACAD_REACTORS
330
666
102
}
330
666
100
AcDbScale
 70
     0
300
4:1
140
4.0
141
1.0
290
     0
  0
SCALE
  5
675
102
{ACAD_REACTORS
330
666
102
}
330
666
100
AcDbScale
 70
     0
300
8:1
140
8.0
141
1.0
290
     0
  0
SCALE
  5
676
102
{ACAD_REACTORS
330
666
102
}
330
666
100
AcDbScale
 70
     0
300
10:1
140
10.0
141
1.0
290
     0
  0
SCALE
  5
677
102
{ACAD_REACTORS
330
666
102
}
330
666
100
AcDbScale
 70
     0
300
100:1
140
100.0
141
1.0
290
     0
  0
TABLESTYLE
  5
35
102
{ACAD_XDICTIONARY
360
698
102
}
102
{ACAD_REACTORS
330
34
102
}
330
34
100
AcDbTableStyle
  3
Standard
 70
     0
 71
     0
 40
1.5
 41
1.5
280
     0
281
     0
  7
Standard
140
4.5
170
     2
 62
     0
 63
     7
283
     0
274
    -2
284
     1
 64
     0
275
    -2
285
     1
 65
     0
276
    -2
286
     1
 66
     0
277
    -2
287
     1
 67
     0
278
    -2
288
     1
 68
     0
279
    -2
289
     1
 69
     0
  7
Standard
140
6.0
170
     5
 62
     0
 63
     7
283
     0
274
    -2
284
     1
 64
     0
275
    -2
285
     1
 65
     0
276
    -2
286
     1
 66
     0
277
    -2
287
     1
 67
     0
278
    -2
288
     1
 68
     0
279
    -2
289
     1
 69
     0
  7
Standard
140
4.5
170
     5
 62
     0
 63
     7
283
     0
274
    -2
284
     1
 64
     0
275
    -2
285
     1
 65
     0
276
    -2
286
     1
 66
     0
277
    -2
287
     1
 67
     0
278
    -2
288
     1
 68
     0
279
    -2
289
     1
 69
     0
  0
VISUALSTYLE
  5
658
102
{ACAD_XDICTIONARY
360
6B2
102
}
102
{ACAD_REACTORS
330
652
102
}
330
652
100
AcDbVisualStyle
  2
2dWireframe
 70
     4
 71
     0
 72
     2
 73
     0
 90
        0
 40
-0.6
 41
-30.0
 62
     5
 63
     7
 74
     1
 91
        4
 64
     7
 65
   257
 75
     1
175
     1
 42
1.0
 92
        0
 66
   257
 43
1.0
 76
     1
 77
     6
 78
     2
 67
     7
 79
     5
170
     0
171
     0
290
     0
174
     0
 93
        1
 44
0.0
173
     0
291
     0
 45
0.0
1001
ACAD
1000
AcDbSavedByObjectVersion
1070
     0
  0
VISUALSTYLE
  5
65A
102
{ACAD_XDICTIONARY
360
6B6
102
}
102
{ACAD_REACTORS
330
652
102
}
330
652
100
AcDbVisualStyle
  2
3D Hidden
 70
     6
 71
     1
 72
     2
 73
     2
 90
        0
 40
-0.6
 41
-30.0
 62
     5
 63
     7
 74
     2
 91
        2
 64
     7
 65
   257
 75
     2
175
     1
 42
179.0
 92
        0
 66
   257
 43
1.0
 76
     1
 77
     6
 78
     2
 67
     7
 79
     3
170
     0
171
     0
290
     0
174
     0
 93
        1
 44
0.0
173
     0
291
     0
 45
0.0
1001
ACAD
1000
AcDbSavedByObjectVersion
1070
     0
  0
VISUALSTYLE
  5
659
102
{ACAD_XDICTIONARY
360
6B4
102
}
102
{ACAD_REACTORS
330
652
102
}
330
652
100
AcDbVisualStyle
  2
3dWireframe
 70
     5
 71
     0
 72
     2
 73
     0
 90
        0
 40
-0.6
 41
-30.0
 62
     5
 63
     7
 74
     1
 91
        4
 64
     7
 65
   257
 75
     1
175
     1
 42
1.0
 92
        0
 66
   257
 43
1.0
 76
     1
 77
     6
 78
     2
 67
     7
 79
     5
170
     0
171
     0
290
     0
174
     0
 93
        1
 44
0.0
173
     0
291
     0
 45
0.0
1001
ACAD
1000
AcDbSavedByObjectVersion
1070
     0
  0
VISUALSTYLE
  5
657
102
{ACAD_XDICTIONARY
360
6B0
102
}
102
{ACAD_REACTORS
330
652
102
}
330
652
100
AcDbVisualStyle
  2
Basic
 70
     7
 71
     1
 72
     0
 73
     1
 90
        0
 40
-0.6
 41
-30.0
 62
     5
 63
     7
 74
     0
 91
        4
 64
     7
 65
   257
 75
     1
175
     1
 42
1.0
 92
        8
 66
     7
 43
1.0
 76
     1
 77
     6
 78
     2
 67
     7
 79
     5
170
     0
171
     0
290
     0
174
     0
 93
        1
 44
0.0
173
     0
291
     1
 45
0.0
1001
ACAD
1000
AcDbSavedByObjectVersion
1070
     0
  0
VISUALSTYLE
  5
65E
102
{ACAD_XDICTIONARY
360
6BE
102
}
102
{ACAD_REACTORS
330
652
102
}
330
652
100
AcDbVisualStyle
  2
Brighten
 70
    12
 71
     2
 72
     2
 73
     0
 90
        0
 40
-0.6
 41
-30.0
 62
     5
 63
     7
 74
     1
 91
        4
 64
     7
 65
   257
 75
     1
175
     1
 42
1.0
 92
        8
 66
     7
 43
1.0
 76
     1
 77
     6
 78
     2
 67
     7
 79
     5
170
     0
171
     0
290
     0
174
     0
 93
        1
 44
50.0
173
     0
291
     1
 45
0.0
1001
ACAD
1000
AcDbSavedByObjectVersion
1070
     0
  0
VISUALSTYLE
  5
662
102
{ACAD_XDICTIONARY
360
6C6
102
}
102
{ACAD_REACTORS
330
652
102
}
330
652
100
AcDbVisualStyle
  2
ColorChange
 70
    16
 71
     2
 72
     2
 73
     3
 90
        0
 40
-0.6
 41
-30.0
 62
     5
 63
     8
 74
     1
 91
        4
 64
     7
 65
   257
 75
     1
175
     1
 42
1.0
 92
        8
 66
     8
 43
1.0
 76
     1
 77
     6
 78
     2
 67
     7
 79
     5
170
     0
171
     0
290
     0
174
     0
 93
        1
 44
0.0
173
     0
291
     1
 45
0.0
1001
ACAD
1000
AcDbSavedByObjectVersion
1070
     0
  0
VISUALSTYLE
  5
65B
102
{ACAD_XDICTIONARY
360
6B8
102
}
102
{ACAD_REACTORS
330
652
102
}
330
652
100
AcDbVisualStyle
  2
Conceptual
 70
     9
 71
     3
 72
     2
 73
     0
 90
        0
 40
-0.6
 41
-30.0
 62
     5
 63
     7
 74
     2
 91
        2
 64
     7
 65
   257
 75
     1
175
     1
 42
179.0
 92
        8
 66
     7
 43
1.0
 76
     1
 77
     6
 78
     2
 67
     7
 79
     3
170
     0
171
     0
290
     0
174
     0
 93
        1
 44
0.0
173
     0
291
     0
 45
0.0
1001
ACAD
1000
AcDbSavedByObjectVersion
1070
     0
  0
VISUALSTYLE
  5
65D
102
{ACAD_XDICTIONARY
360
6BC
102
}
102
{ACAD_REACTORS
330
652
102
}
330
652
100
AcDbVisualStyle
  2
Dim
 70
    11
 71
     2
 72
     2
 73
     0
 90
        0
 40
-0.6
 41
-30.0
 62
     5
 63
     7
 74
     1
 91
        4
 64
     7
 65
   257
 75
     1
175
     1
 42
1.0
 92
        8
 66
     7
 43
1.0
 76
     1
 77
     6
 78
     2
 67
     7
 79
     5
170
     0
171
     0
290
     0
174
     0
 93
        1
 44
-50.0
173
     0
291
     1
 45
0.0
1001
ACAD
1000
AcDbSavedByObjectVersion
1070
     0
  0
VISUALSTYLE
  5
665
102
{ACAD_XDICTIONARY
360
6CC
102
}
102
{ACAD_REACTORS
330
652
102
}
330
652
100
AcDbVisualStyle
  2
EdgeColorOff
 70
    22
 71
     2
 72
     2
 73
     0
 90
        0
 40
-0.6
 41
-30.0
 62
     5
 63
     7
 74
     1
 91
        4
 64
     7
 65
   257
 75
     1
175
     1
 42
1.0
 92
        8
 66
     7
 43
1.0
 76
     1
 77
     6
 78
     2
 67
     7
 79
     5
170
     0
171
     0
290
     0
174
     0
 93
        1
 44
0.0
173
     0
291
     1
 45
0.0
1001
ACAD
1000
AcDbSavedByObjectVersion
1070
     0
  0
VISUALSTYLE
  5
661
102
{ACAD_XDICTIONARY
360
6C4
102
}
102
{ACAD_REACTORS
330
652
102
}
330
652
100
AcDbVisualStyle
  2
Facepattern
 70
    15
 71
     2
 72
     2
 73
     0
 90
        0
 40
-0.6
 41
-30.0
 62
     5
 63
     7
 74
     1
 91
        4
 64
     7
 65
   257
 75
     1
175
     1
 42
1.0
 92
        8
 66
     7
 43
1.0
 76
     1
 77
     6
 78
     2
 67
     7
 79
     5
170
     0
171
     0
290
     0
174
     0
 93
        1
 44
0.0
173
     0
291
     1
 45
0.0
1001
ACAD
1000
AcDbSavedByObjectVersion
1070
     0
  0
VISUALSTYLE
  5
653
102
{ACAD_XDICTIONARY
360
6A8
102
}
102
{ACAD_REACTORS
330
652
102
}
330
652
100
AcDbVisualStyle
  2
Flat
 70
     0
 71
     2
 72
     1
 73
     1
 90
        2
 40
-0.6
 41
30.0
 62
     5
 63
     7
 74
     0
 91
        4
 64
     7
 65
   257
 75
     1
175
     1
 42
1.0
 92
        8
 66
     7
 43
1.0
 76
     1
 77
     6
 78
     2
 67
     7
 79
     5
170
     0
171
     0
290
     0
174
     0
 93
       13
 44
0.0
173
     0
291
     1
 45
0.0
1001
ACAD
1000
AcDbSavedByObjectVersion
1070
     0
  0
VISUALSTYLE
  5
654
102
{ACAD_XDICTIONARY
360
6AA
102
}
102
{ACAD_REACTORS
330
652
102
}
330
652
100
AcDbVisualStyle
  2
FlatWithEdges
 70
     1
 71
     2
 72
     1
 73
     1
 90
        2
 40
-0.6
 41
30.0
 62
     5
 63
     7
 74
     1
 91
        4
 64
     7
 65
   257
 75
     1
175
     1
 42
1.0
 92
        0
 66
   257
 43
1.0
 76
     1
 77
     6
 78
     2
 67
     7
 79
     5
170
     0
171
     0
290
     0
174
     0
 93
       13
 44
0.0
173
     0
291
     1
 45
0.0
1001
ACAD
1000
AcDbSavedByObjectVersion
1070
     0
  0
VISUALSTYLE
  5
655
102
{ACAD_XDICTIONARY
360
6AC
102
}
102
{ACAD_REACTORS
330
652
102
}
330
652
100
AcDbVisualStyle
  2
Gouraud
 70
     2
 71
     2
 72
     2
 73
     1
 90
        2
 40
-0.6
 41
30.0
 62
     5
 63
     7
 74
     0
 91
        4
 64
     7
 65
   257
 75
     1
175
     1
 42
1.0
 92
        0
 66
     7
 43
1.0
 76
     1
 77
     6
 78
     2
 67
     7
 79
     5
170
     0
171
     0
290
     0
174
     0
 93
       13
 44
0.0
173
     0
291
     1
 45
0.0
1001
ACAD
1000
AcDbSavedByObjectVersion
1070
     0
  0
VISUALSTYLE
  5
656
102
{ACAD_XDICTIONARY
360
6AE
102
}
102
{ACAD_REACTORS
330
652
102
}
330
652
100
AcDbVisualStyle
  2
GouraudWithEdges
 70
     3
 71
     2
 72
     2
 73
     1
 90
        2
 40
-0.6
 41
30.0
 62
     5
 63
     7
 74
     1
 91
        4
 64
     7
 65
   257
 75
     1
175
     1
 42
1.0
 92
        0
 66
   257
 43
1.0
 76
     1
 77
     6
 78
     2
 67
     7
 79
     5
170
     0
171
     0
290
     0
174
     0
 93
       13
 44
0.0
173
     0
291
     1
 45
0.0
1001
ACAD
1000
AcDbSavedByObjectVersion
1070
     0
  0
VISUALSTYLE
  5
663
102
{ACAD_XDICTIONARY
360
6C8
102
}
102
{ACAD_REACTORS
330
652
102
}
330
652
100
AcDbVisualStyle
  2
JitterOff
 70
    20
 71
     2
 72
     2
 73
     0
 90
        0
 40
-0.6
 41
-30.0
 62
     5
 63
     7
 74
     1
 91
        4
 64
     7
 65
   257
 75
     1
175
     1
 42
1.0
 92
       10
 66
     7
 43
1.0
 76
     1
 77
     6
 78
     2
 67
     7
 79
     5
170
     0
171
     0
290
     0
174
     0
 93
        1
 44
0.0
173
     0
291
     1
 45
0.0
1001
ACAD
1000
AcDbSavedByObjectVersion
1070
     0
  0
VISUALSTYLE
  5
660
102
{ACAD_XDICTIONARY
360
6C2
102
}
102
{ACAD_REACTORS
330
652
102
}
330
652
100
AcDbVisualStyle
  2
Linepattern
 70
    14
 71
     2
 72
     2
 73
     0
 90
        0
 40
-0.6
 41
-30.0
 62
     5
 63
     7
 74
     1
 91
        4
 64
     7
 65
   257
 75
     7
175
     7
 42
1.0
 92
        8
 66
     7
 43
1.0
 76
     1
 77
     6
 78
     2
 67
     7
 79
     5
170
     0
171
     0
290
     0
174
     0
 93
        1
 44
0.0
173
     0
291
     1
 45
0.0
1001
ACAD
1000
AcDbSavedByObjectVersion
1070
     0
  0
VISUALSTYLE
  5
664
102
{ACAD_XDICTIONARY
360
6CA
102
}
102
{ACAD_REACTORS
330
652
102
}
330
652
100
AcDbVisualStyle
  2
OverhangOff
 70
    21
 71
     2
 72
     2
 73
     0
 90
        0
 40
-0.6
 41
-30.0
 62
     5
 63
     7
 74
     1
 91
        4
 64
     7
 65
   257
 75
     1
175
     1
 42
1.0
 92
        9
 66
     7
 43
1.0
 76
     1
 77
     6
 78
     2
 67
     7
 79
     5
170
     0
171
     0
290
     0
174
     0
 93
        1
 44
0.0
173
     0
291
     1
 45
0.0
1001
ACAD
1000
AcDbSavedByObjectVersion
1070
     0
  0
VISUALSTYLE
  5
65C
102
{ACAD_XDICTIONARY
360
6BA
102
}
102
{ACAD_REACTORS
330
652
102
}
330
652
100
AcDbVisualStyle
  2
Realistic
 70
     8
 71
     2
 72
     2
 73
     0
 90
        0
 40
-0.6
 41
-30.0
 62
     5
 63
     7
 74
     1
 91
        0
 64
     7
 65
   257
 75
     1
175
     1
 42
1.0
 92
        8
 66
     8
 43
1.0
 76
     1
 77
     6
 78
     2
 67
     7
 79
     5
170
     0
171
     0
290
     0
174
     0
 93
       13
 44
0.0
173
     0
291
     0
 45
0.0
1001
ACAD
1000
AcDbSavedByObjectVersion
1070
     0
  0
VISUALSTYLE
  5
65F
102
{ACAD_XDICTIONARY
360
6C0
102
}
102
{ACAD_REACTORS
330
652
102
}
330
652
100
AcDbVisualStyle
  2
Thicken
 70
    13
 71
     2
 72
     2
 73
     0
 90
        0
 40
-0.6
 41
-30.0
 62
     5
 63
     7
 74
     1
 91
        4
 64
     7
 65
   257
 75
     1
175
     1
 42
1.0
 92
       12
 66
     7
 43
1.0
 76
     1
 77
     6
 78
     2
 67
     7
 79
     5
170
     0
171
     0
290
     0
174
     0
 93
        1
 44
0.0
173
     0
291
     1
 45
0.0
1001
ACAD
1000
AcDbSavedByObjectVersion
1070
     0
  0
DICTIONARYVAR
  5
694
102
{ACAD_REACTORS
330
2E
102
}
330
2E
100
DictionaryVariables
280
     0
  1
1:1
  0
DICTIONARYVAR
  5
693
102
{ACAD_REACTORS
330
2E
102
}
330
2E
100
DictionaryVariables
280
     0
  1
STANDARD
  0
DICTIONARYVAR
  5
623
102
{ACAD_REACTORS
330
2E
102
}
330
2E
100
DictionaryVariables
280
     0
  1
STANDARD
  0
DICTIONARYVAR
  5
30
102
{ACAD_REACTORS
330
2E
102
}
330
2E
100
DictionaryVariables
280
     0
  1
1
  0
DICTIONARYVAR
  5
2F
102
{ACAD_REACTORS
330
2E
102
}
330
2E
100
DictionaryVariables
280
     0
  1
1
  0
DICTIONARYVAR
  5
696
102
{ACAD_REACTORS
330
2E
102
}
330
2E
100
DictionaryVariables
280
     0
  1
0
  0
DICTIONARYVAR
  5
638
102
{ACAD_REACTORS
330
2E
102
}
330
2E
100
DictionaryVariables
280
     0
  1

  0
DICTIONARYVAR
  5
695
102
{ACAD_REACTORS
330
2E
102
}
330
2E
100
DictionaryVariables
280
     0
  1
127
  0
DICTIONARYVAR
  5
697
102
{ACAD_REACTORS
330
2E
102
}
330
2E
100
DictionaryVariables
280
     0
  1
2
  0
XRECORD
  5
692
102
{ACAD_REACTORS
330
690
102
}
330
690
100
AcDbXrecord
280
     1
330
44
330
1A1
  0
DICTIONARY
  5
69E
330
F
100
AcDbDictionary
280
     1
281
     1
  3
ACAD_XREC_ROUNDTRIP
360
69F
  0
DICTIONARY
  5
69C
330
A
100
AcDbDictionary
280
     1
281
     1
  3
ACAD_XREC_ROUNDTRIP
360
69D
  0
DICTIONARY
  5
643
330
642
100
AcDbDictionary
280
     1
281
     1
  3
ACAD_XREC_ROUNDTRIP
360
6A6
  3
BUMPTILE
360
645
  3
DIFFUSETILE
360
644
  3
OPACITYTILE
360
648
  3
REFLECTIONTILE
360
647
  3
REFRACTIONTILE
360
649
  3
SPECULARTILE
360
646
  0
DICTIONARY
  5
63B
330
63A
100
AcDbDictionary
280
     1
281
     1
  3
ACAD_XREC_ROUNDTRIP
360
6A5
  3
BUMPTILE
360
63D
  3
DIFFUSETILE
360
63C
  3
OPACITYTILE
360
640
  3
REFLECTIONTILE
360
63F
  3
REFRACTIONTILE
360
641
  3
SPECULARTILE
360
63E
  0
DICTIONARY
  5
64B
330
64A
100
AcDbDictionary
280
     1
281
     1
  3
ACAD_XREC_ROUNDTRIP
360
6A7
  3
BUMPTILE
360
64D
  3
DIFFUSETILE
360
64C
  3
OPACITYTILE
360
650
  3
REFLECTIONTILE
360
64F
  3
REFRACTIONTILE
360
651
  3
SPECULARTILE
360
64E
  0
DICTIONARY
  5
698
330
35
100
AcDbDictionary
280
     1
281
     1
  3
ACAD_ROUNDTRIP_2008_TABLESTYLE_CELLSTYLEMAP
360
699
  3
ACAD_XREC_ROUNDTRIP
360
6A0
  0
DICTIONARY
  5
6B2
330
658
100
AcDbDictionary
280
     1
281
     1
  3
ACAD_XREC_ROUNDTRIP
360
6B3
  0
DICTIONARY
  5
6B6
330
65A
100
AcDbDictionary
280
     1
281
     1
  3
ACAD_XREC_ROUNDTRIP
360
6B7
  0
DICTIONARY
  5
6B4
330
659
100
AcDbDictionary
280
     1
281
     1
  3
ACAD_XREC_ROUNDTRIP
360
6B5
  0
DICTIONARY
  5
6B0
330
657
100
AcDbDictionary
280
     1
281
     1
  3
ACAD_XREC_ROUNDTRIP
360
6B1
  0
DICTIONARY
  5
6BE
330
65E
100
AcDbDictionary
280
     1
281
     1
  3
ACAD_XREC_ROUNDTRIP
360
6BF
  0
DICTIONARY
  5
6C6
330
662
100
AcDbDictionary
280
     1
281
     1
  3
ACAD_XREC_ROUNDTRIP
360
6C7
  0
DICTIONARY
  5
6B8
330
65B
100
AcDbDictionary
280
     1
281
     1
  3
ACAD_XREC_ROUNDTRIP
360
6B9
  0
DICTIONARY
  5
6BC
330
65D
100
AcDbDictionary
280
     1
281
     1
  3
ACAD_XREC_ROUNDTRIP
360
6BD
  0
DICTIONARY
  5
6CC
330
665
100
AcDbDictionary
280
     1
281
     1
  3
ACAD_XREC_ROUNDTRIP
360
6CD
  0
DICTIONARY
  5
6C4
330
661
100
AcDbDictionary
280
     1
281
     1
  3
ACAD_XREC_ROUNDTRIP
360
6C5
  0
DICTIONARY
  5
6A8
330
653
100
AcDbDictionary
280
     1
281
     1
  3
ACAD_XREC_ROUNDTRIP
360
6A9
  0
DICTIONARY
  5
6AA
330
654
100
AcDbDictionary
280
     1
281
     1
  3
ACAD_XREC_ROUNDTRIP
360
6AB
  0
DICTIONARY
  5
6AC
330
655
100
AcDbDictionary
280
     1
281
     1
  3
ACAD_XREC_ROUNDTRIP
360
6AD
  0
DICTIONARY
  5
6AE
330
656
100
AcDbDictionary
280
     1
281
     1
  3
ACAD_XREC_ROUNDTRIP
360
6AF
  0
DICTIONARY
  5
6C8
330
663
100
AcDbDictionary
280
     1
281
     1
  3
ACAD_XREC_ROUNDTRIP
360
6C9
  0
DICTIONARY
  5
6C2
330
660
100
AcDbDictionary
280
     1
281
     1
  3
ACAD_XREC_ROUNDTRIP
360
6C3
  0
DICTIONARY
  5
6CA
330
664
100
AcDbDictionary
280
     1
281
     1
  3
ACAD_XREC_ROUNDTRIP
360
6CB
  0
DICTIONARY
  5
6BA
330
65C
100
AcDbDictionary
280
     1
281
     1
  3
ACAD_XREC_ROUNDTRIP
360
6BB
  0
DICTIONARY
  5
6C0
330
65F
100
AcDbDictionary
280
     1
281
     1
  3
ACAD_XREC_ROUNDTRIP
360
6C1
  0
XRECORD
  5
69F
102
{ACAD_REACTORS
330
69E
102
}
330
69E
100
AcDbXrecord
280
     1
102
SHADEPLOT
 70
     0
102
SHADEPLOTRESLEVEL
 70
     2
102
SHADEPLOTCUSTOMDPI
 70
   300
  0
XRECORD
  5
69D
102
{ACAD_REACTORS
330
69C
102
}
330
69C
100
AcDbXrecord
280
     1
102
SHADEPLOT
 70
     0
102
SHADEPLOTRESLEVEL
 70
     2
102
SHADEPLOTCUSTOMDPI
 70
   300
  0
XRECORD
  5
6A6
102
{ACAD_REACTORS
330
643
102
}
330
643
100
AcDbXrecord
280
     1
102
MATERIAL
148
0.0
149
0.0
149
0.0
 93
        0
 94
      127
282
     0
 72
     0
 77
     0
171
     0
175
     0
179
     0
273
     0
  0
XRECORD
  5
645
102
{ACAD_REACTORS
330
643
102
}
330
643
100
AcDbXrecord
280
     1
270
     1
271
     1
  0
XRECORD
  5
644
102
{ACAD_REACTORS
330
643
102
}
330
643
100
AcDbXrecord
280
     1
270
     1
271
     1
  0
XRECORD
  5
648
102
{ACAD_REACTORS
330
643
102
}
330
643
100
AcDbXrecord
280
     1
270
     1
271
     1
  0
XRECORD
  5
647
102
{ACAD_REACTORS
330
643
102
}
330
643
100
AcDbXrecord
280
     1
270
     1
271
     1
  0
XRECORD
  5
649
102
{ACAD_REACTORS
330
643
102
}
330
643
100
AcDbXrecord
280
     1
270
     1
271
     1
  0
XRECORD
  5
646
102
{ACAD_REACTORS
330
643
102
}
330
643
100
AcDbXrecord
280
     1
270
     1
271
     1
  0
XRECORD
  5
6A5
102
{ACAD_REACTORS
330
63B
102
}
330
63B
100
AcDbXrecord
280
     1
102
MATERIAL
148
0.0
149
0.0
149
0.0
 93
        0
 94
      127
282
     0
 72
     0
 77
     0
171
     0
175
     0
179
     0
273
     0
  0
XRECORD
  5
63D
102
{ACAD_REACTORS
330
63B
102
}
330
63B
100
AcDbXrecord
280
     1
270
     1
271
     1
  0
XRECORD
  5
63C
102
{ACAD_REACTORS
330
63B
102
}
330
63B
100
AcDbXrecord
280
     1
270
     1
271
     1
  0
XRECORD
  5
640
102
{ACAD_REACTORS
330
63B
102
}
330
63B
100
AcDbXrecord
280
     1
270
     1
271
     1
  0
XRECORD
  5
63F
102
{ACAD_REACTORS
330
63B
102
}
330
63B
100
AcDbXrecord
280
     1
270
     1
271
     1
  0
XRECORD
  5
641
102
{ACAD_REACTORS
330
63B
102
}
330
63B
100
AcDbXrecord
280
     1
270
     1
271
     1
  0
XRECORD
  5
63E
102
{ACAD_REACTORS
330
63B
102
}
330
63B
100
AcDbXrecord
280
     1
270
     1
271
     1
  0
XRECORD
  5
6A7
102
{ACAD_REACTORS
330
64B
102
}
330
64B
100
AcDbXrecord
280
     1
102
MATERIAL
148
0.0
149
0.0
149
0.0
 93
        0
 94
      127
282
     0
 72
     0
 77
     0
171
     0
175
     0
179
     0
273
     0
  0
XRECORD
  5
64D
102
{ACAD_REACTORS
330
64B
102
}
330
64B
100
AcDbXrecord
280
     1
270
     1
271
     1
  0
XRECORD
  5
64C
102
{ACAD_REACTORS
330
64B
102
}
330
64B
100
AcDbXrecord
280
     1
270
     1
271
     1
  0
XRECORD
  5
650
102
{ACAD_REACTORS
330
64B
102
}
330
64B
100
AcDbXrecord
280
     1
270
     1
271
     1
  0
XRECORD
  5
64F
102
{ACAD_REACTORS
330
64B
102
}
330
64B
100
AcDbXrecord
280
     1
270
     1
271
     1
  0
XRECORD
  5
651
102
{ACAD_REACTORS
330
64B
102
}
330
64B
100
AcDbXrecord
280
     1
270
     1
271
     1
  0
XRECORD
  5
64E
102
{ACAD_REACTORS
330
64B
102
}
330
64B
100
AcDbXrecord
280
     1
270
     1
271
     1
  0
CELLSTYLEMAP
  5
699
102
{ACAD_REACTORS
330
698
102
}
330
698
100
AcDbCellStyleMap
 90
        3
300
CELLSTYLE
  1
TABLEFORMAT_BEGIN
 90
        5
170
     1
 91
        0
 92
    32768
 62
   257
 93
        1
300
CONTENTFORMAT
  1
CONTENTFORMAT_BEGIN
 90
        0
 91
        0
 92
        4
 93
        0
300

 40
0.0
140
1.0
 94
        5
 62
     0
340
12
144
6.0
309
CONTENTFORMAT_END
171
     1
301
MARGIN
  1
CELLMARGIN_BEGIN
 40
1.5
 40
1.5
 40
1.5
 40
1.5
 40
0.18
 40
0.18
309
CELLMARGIN_END
 94
        6
 95
        1
302
GRIDFORMAT
  1
GRIDFORMAT_BEGIN
 90
        0
 91
        1
 62
     0
 92
       -2
340
0
 93
        0
 40
0.045
309
GRIDFORMAT_END
 95
        2
302
GRIDFORMAT
  1
GRIDFORMAT_BEGIN
 90
        0
 91
        1
 62
     0
 92
       -2
340
0
 93
        0
 40
0.045
309
GRIDFORMAT_END
 95
        4
302
GRIDFORMAT
  1
GRIDFORMAT_BEGIN
 90
        0
 91
        1
 62
     0
 92
       -2
340
0
 93
        0
 40
0.045
309
GRIDFORMAT_END
 95
        8
302
GRIDFORMAT
  1
GRIDFORMAT_BEGIN
 90
        0
 91
        1
 62
     0
 92
       -2
340
0
 93
        0
 40
0.045
309
GRIDFORMAT_END
 95
       16
302
GRIDFORMAT
  1
GRIDFORMAT_BEGIN
 90
        0
 91
        1
 62
     0
 92
       -2
340
0
 93
        0
 40
0.045
309
GRIDFORMAT_END
 95
       32
302
GRIDFORMAT
  1
GRIDFORMAT_BEGIN
 90
        0
 91
        1
 62
     0
 92
       -2
340
0
 93
        0
 40
0.045
309
GRIDFORMAT_END
309
TABLEFORMAT_END
  1
CELLSTYLE_BEGIN
 90
        1
 91
        1
300
_TITLE
309
CELLSTYLE_END
300
CELLSTYLE
  1
TABLEFORMAT_BEGIN
 90
        5
170
     1
 91
        0
 92
        0
 62
   257
 93
        1
300
CONTENTFORMAT
  1
CONTENTFORMAT_BEGIN
 90
        0
 91
        0
 92
        4
 93
        0
300

 40
0.0
140
1.0
 94
        5
 62
     0
340
12
144
4.5
309
CONTENTFORMAT_END
171
     1
301
MARGIN
  1
CELLMARGIN_BEGIN
 40
1.5
 40
1.5
 40
1.5
 40
1.5
 40
0.18
 40
0.18
309
CELLMARGIN_END
 94
        6
 95
        1
302
GRIDFORMAT
  1
GRIDFORMAT_BEGIN
 90
        0
 91
        1
 62
     0
 92
       -2
340
0
 93
        0
 40
0.045
309
GRIDFORMAT_END
 95
        2
302
GRIDFORMAT
  1
GRIDFORMAT_BEGIN
 90
        0
 91
        1
 62
     0
 92
       -2
340
0
 93
        0
 40
0.045
309
GRIDFORMAT_END
 95
        4
302
GRIDFORMAT
  1
GRIDFORMAT_BEGIN
 90
        0
 91
        1
 62
     0
 92
       -2
340
0
 93
        0
 40
0.045
309
GRIDFORMAT_END
 95
        8
302
GRIDFORMAT
  1
GRIDFORMAT_BEGIN
 90
        0
 91
        1
 62
     0
 92
       -2
340
0
 93
        0
 40
0.045
309
GRIDFORMAT_END
 95
       16
302
GRIDFORMAT
  1
GRIDFORMAT_BEGIN
 90
        0
 91
        1
 62
     0
 92
       -2
340
0
 93
        0
 40
0.045
309
GRIDFORMAT_END
 95
       32
302
GRIDFORMAT
  1
GRIDFORMAT_BEGIN
 90
        0
 91
        1
 62
     0
 92
       -2
340
0
 93
        0
 40
0.045
309
GRIDFORMAT_END
309
TABLEFORMAT_END
  1
CELLSTYLE_BEGIN
 90
        2
 91
        1
300
_HEADER
309
CELLSTYLE_END
300
CELLSTYLE
  1
TABLEFORMAT_BEGIN
 90
        5
170
     1
 91
        0
 92
        0
 62
   257
 93
        1
300
CONTENTFORMAT
  1
CONTENTFORMAT_BEGIN
 90
        0
 91
        0
 92
        4
 93
        0
300

 40
0.0
140
1.0
 94
        2
 62
     0
340
12
144
4.5
309
CONTENTFORMAT_END
171
     1
301
MARGIN
  1
CELLMARGIN_BEGIN
 40
1.5
 40
1.5
 40
1.5
 40
1.5
 40
0.18
 40
0.18
309
CELLMARGIN_END
 94
        6
 95
        1
302
GRIDFORMAT
  1
GRIDFORMAT_BEGIN
 90
        0
 91
        1
 62
     0
 92
       -2
340
0
 93
        0
 40
0.045
309
GRIDFORMAT_END
 95
        2
302
GRIDFORMAT
  1
GRIDFORMAT_BEGIN
 90
        0
 91
        1
 62
     0
 92
       -2
340
0
 93
        0
 40
0.045
309
GRIDFORMAT_END
 95
        4
302
GRIDFORMAT
  1
GRIDFORMAT_BEGIN
 90
        0
 91
        1
 62
     0
 92
       -2
340
0
 93
        0
 40
0.045
309
GRIDFORMAT_END
 95
        8
302
GRIDFORMAT
  1
GRIDFORMAT_BEGIN
 90
        0
 91
        1
 62
     0
 92
       -2
340
0
 93
        0
 40
0.045
309
GRIDFORMAT_END
 95
       16
302
GRIDFORMAT
  1
GRIDFORMAT_BEGIN
 90
        0
 91
        1
 62
     0
 92
       -2
340
0
 93
        0
 40
0.045
309
GRIDFORMAT_END
 95
       32
302
GRIDFORMAT
  1
GRIDFORMAT_BEGIN
 90
        0
 91
        1
 62
     0
 92
       -2
340
0
 93
        0
 40
0.045
309
GRIDFORMAT_END
309
TABLEFORMAT_END
  1
CELLSTYLE_BEGIN
 90
        3
 91
        2
300
_DATA
309
CELLSTYLE_END
  0
XRECORD
  5
6A0
102
{ACAD_REACTORS
330
698
102
}
330
698
100
AcDbXrecord
280
     1
102
ACAD_ROUNDTRIP_PRE2007_TABLESTYLE
 90
        4
 91
        0
  1

 92
        4
 93
        0
  2

 94
        4
 95
        0
  3

  0
XRECORD
  5
6B3
102
{ACAD_REACTORS
330
6B2
102
}
330
6B2
100
AcDbXrecord
280
     1
102
RTVSPropertyOp0
 70
     1
102
RTVSPropertyOp1
 70
     1
102
RTVSPropertyOp2
 70
     1
102
RTVSPropertyOp3
 70
     1
102
RTVSPropertyOp4
 70
     1
102
RTVSPropertyOp5
 70
     1
102
RTVSPropertyOp6
 70
     1
102
RTVSPropertyOp7
 70
     1
102
RTVSPropertyOp8
 70
     1
102
RTVSPropertyOp9
 70
     1
102
RTVSPropertyOp10
 70
     1
102
RTVSPropertyOp11
 70
     1
102
RTVSPropertyOp12
 70
     1
102
RTVSPropertyOp13
 70
     1
102
RTVSPropertyOp14
 70
     1
102
RTVSPropertyOp15
 70
     1
102
RTVSPropertyOp16
 70
     1
102
RTVSPropertyOp17
 70
     1
102
RTVSPropertyOp18
 70
     1
102
RTVSPropertyOp19
 70
     1
102
RTVSPropertyOp20
 70
     1
102
RTVSPropertyOp21
 70
     1
102
RTVSPropertyOp22
 70
     1
102
RTVSPropertyOp23
 70
     1
102
RTVSPropertyOp24
 70
     1
102
RTVSPropertyOp25
 70
     1
102
RTVSPropertyOp26
 70
     1
102
RTVSPropertyOp27
 70
     1
  0
XRECORD
  5
6B7
102
{ACAD_REACTORS
330
6B6
102
}
330
6B6
100
AcDbXrecord
280
     1
102
RTVSPropertyOp0
 70
     1
102
RTVSPropertyOp1
 70
     1
102
RTVSPropertyOp2
 70
     1
102
RTVSPropertyOp3
 70
     1
102
RTVSPropertyOp4
 70
     1
102
RTVSPropertyOp5
 70
     1
102
RTVSPropertyOp6
 70
     1
102
RTVSPropertyOp7
 70
     1
102
RTVSPropertyOp8
 70
     1
102
RTVSPropertyOp9
 70
     1
102
RTVSPropertyOp10
 70
     1
102
RTVSPropertyOp11
 70
     1
102
RTVSPropertyOp12
 70
     1
102
RTVSPropertyOp13
 70
     1
102
RTVSPropertyOp14
 70
     1
102
RTVSPropertyOp15
 70
     1
102
RTVSPropertyOp16
 70
     1
102
RTVSPropertyOp17
 70
     1
102
RTVSPropertyOp18
 70
     1
102
RTVSPropertyOp19
 70
     1
102
RTVSPropertyOp20
 70
     1
102
RTVSPropertyOp21
 70
     1
102
RTVSPropertyOp22
 70
     1
102
RTVSPropertyOp23
 70
     1
102
RTVSPropertyOp24
 70
     1
102
RTVSPropertyOp25
 70
     1
102
RTVSPropertyOp26
 70
     1
102
RTVSPropertyOp27
 70
     1
  0
XRECORD
  5
6B5
102
{ACAD_REACTORS
330
6B4
102
}
330
6B4
100
AcDbXrecord
280
     1
102
RTVSPropertyOp0
 70
     1
102
RTVSPropertyOp1
 70
     1
102
RTVSPropertyOp2
 70
     1
102
RTVSPropertyOp3
 70
     1
102
RTVSPropertyOp4
 70
     1
102
RTVSPropertyOp5
 70
     1
102
RTVSPropertyOp6
 70
     1
102
RTVSPropertyOp7
 70
     1
102
RTVSPropertyOp8
 70
     1
102
RTVSPropertyOp9
 70
     1
102
RTVSPropertyOp10
 70
     1
102
RTVSPropertyOp11
 70
     1
102
RTVSPropertyOp12
 70
     1
102
RTVSPropertyOp13
 70
     1
102
RTVSPropertyOp14
 70
     1
102
RTVSPropertyOp15
 70
     1
102
RTVSPropertyOp16
 70
     1
102
RTVSPropertyOp17
 70
     1
102
RTVSPropertyOp18
 70
     1
102
RTVSPropertyOp19
 70
     1
102
RTVSPropertyOp20
 70
     1
102
RTVSPropertyOp21
 70
     1
102
RTVSPropertyOp22
 70
     1
102
RTVSPropertyOp23
 70
     1
102
RTVSPropertyOp24
 70
     1
102
RTVSPropertyOp25
 70
     1
102
RTVSPropertyOp26
 70
     1
102
RTVSPropertyOp27
 70
     1
  0
XRECORD
  5
6B1
102
{ACAD_REACTORS
330
6B0
102
}
330
6B0
100
AcDbXrecord
280
     1
102
RTVSPropertyOp0
 70
     1
102
RTVSPropertyOp1
 70
     1
102
RTVSPropertyOp2
 70
     1
102
RTVSPropertyOp3
 70
     1
102
RTVSPropertyOp4
 70
     1
102
RTVSPropertyOp5
 70
     1
102
RTVSPropertyOp6
 70
     1
102
RTVSPropertyOp7
 70
     1
102
RTVSPropertyOp8
 70
     1
102
RTVSPropertyOp9
 70
     1
102
RTVSPropertyOp10
 70
     1
102
RTVSPropertyOp11
 70
     1
102
RTVSPropertyOp12
 70
     1
102
RTVSPropertyOp13
 70
     1
102
RTVSPropertyOp14
 70
     1
102
RTVSPropertyOp15
 70
     1
102
RTVSPropertyOp16
 70
     1
102
RTVSPropertyOp17
 70
     1
102
RTVSPropertyOp18
 70
     1
102
RTVSPropertyOp19
 70
     1
102
RTVSPropertyOp20
 70
     1
102
RTVSPropertyOp21
 70
     1
102
RTVSPropertyOp22
 70
     1
102
RTVSPropertyOp23
 70
     1
102
RTVSPropertyOp24
 70
     1
102
RTVSPropertyOp25
 70
     1
102
RTVSPropertyOp26
 70
     1
102
RTVSPropertyOp27
 70
     1
  0
XRECORD
  5
6BF
102
{ACAD_REACTORS
330
6BE
102
}
330
6BE
100
AcDbXrecord
280
     1
102
RTVSPropertyOp0
 70
     1
102
RTVSPropertyOp1
 70
     1
102
RTVSPropertyOp2
 70
     1
102
RTVSPropertyOp3
 70
     1
102
RTVSPropertyOp4
 70
     1
102
RTVSPropertyOp5
 70
     1
102
RTVSPropertyOp6
 70
     1
102
RTVSPropertyOp7
 70
     1
102
RTVSPropertyOp8
 70
     1
102
RTVSPropertyOp9
 70
     1
102
RTVSPropertyOp10
 70
     1
102
RTVSPropertyOp11
 70
     1
102
RTVSPropertyOp12
 70
     1
102
RTVSPropertyOp13
 70
     1
102
RTVSPropertyOp14
 70
     1
102
RTVSPropertyOp15
 70
     1
102
RTVSPropertyOp16
 70
     1
102
RTVSPropertyOp17
 70
     1
102
RTVSPropertyOp18
 70
     1
102
RTVSPropertyOp19
 70
     1
102
RTVSPropertyOp20
 70
     1
102
RTVSPropertyOp21
 70
     1
102
RTVSPropertyOp22
 70
     1
102
RTVSPropertyOp23
 70
     1
102
RTVSPropertyOp24
 70
     1
102
RTVSPropertyOp25
 70
     1
102
RTVSPropertyOp26
 70
     1
102
RTVSPropertyOp27
 70
     1
  0
XRECORD
  5
6C7
102
{ACAD_REACTORS
330
6C6
102
}
330
6C6
100
AcDbXrecord
280
     1
102
RTVSPropertyOp0
 70
     1
102
RTVSPropertyOp1
 70
     1
102
RTVSPropertyOp2
 70
     1
102
RTVSPropertyOp3
 70
     1
102
RTVSPropertyOp4
 70
     1
102
RTVSPropertyOp5
 70
     1
102
RTVSPropertyOp6
 70
     1
102
RTVSPropertyOp7
 70
     1
102
RTVSPropertyOp8
 70
     1
102
RTVSPropertyOp9
 70
     1
102
RTVSPropertyOp10
 70
     1
102
RTVSPropertyOp11
 70
     1
102
RTVSPropertyOp12
 70
     1
102
RTVSPropertyOp13
 70
     1
102
RTVSPropertyOp14
 70
     1
102
RTVSPropertyOp15
 70
     1
102
RTVSPropertyOp16
 70
     1
102
RTVSPropertyOp17
 70
     1
102
RTVSPropertyOp18
 70
     1
102
RTVSPropertyOp19
 70
     1
102
RTVSPropertyOp20
 70
     1
102
RTVSPropertyOp21
 70
     1
102
RTVSPropertyOp22
 70
     1
102
RTVSPropertyOp23
 70
     1
102
RTVSPropertyOp24
 70
     1
102
RTVSPropertyOp25
 70
     1
102
RTVSPropertyOp26
 70
     1
102
RTVSPropertyOp27
 70
     1
  0
XRECORD
  5
6B9
102
{ACAD_REACTORS
330
6B8
102
}
330
6B8
100
AcDbXrecord
280
     1
102
RTVSPropertyOp0
 70
     1
102
RTVSPropertyOp1
 70
     1
102
RTVSPropertyOp2
 70
     1
102
RTVSPropertyOp3
 70
     1
102
RTVSPropertyOp4
 70
     1
102
RTVSPropertyOp5
 70
     1
102
RTVSPropertyOp6
 70
     1
102
RTVSPropertyOp7
 70
     1
102
RTVSPropertyOp8
 70
     1
102
RTVSPropertyOp9
 70
     1
102
RTVSPropertyOp10
 70
     1
102
RTVSPropertyOp11
 70
     1
102
RTVSPropertyOp12
 70
     1
102
RTVSPropertyOp13
 70
     1
102
RTVSPropertyOp14
 70
     1
102
RTVSPropertyOp15
 70
     1
102
RTVSPropertyOp16
 70
     1
102
RTVSPropertyOp17
 70
     1
102
RTVSPropertyOp18
 70
     1
102
RTVSPropertyOp19
 70
     1
102
RTVSPropertyOp20
 70
     1
102
RTVSPropertyOp21
 70
     1
102
RTVSPropertyOp22
 70
     1
102
RTVSPropertyOp23
 70
     1
102
RTVSPropertyOp24
 70
     1
102
RTVSPropertyOp25
 70
     1
102
RTVSPropertyOp26
 70
     1
102
RTVSPropertyOp27
 70
     1
  0
XRECORD
  5
6BD
102
{ACAD_REACTORS
330
6BC
102
}
330
6BC
100
AcDbXrecord
280
     1
102
RTVSPropertyOp0
 70
     1
102
RTVSPropertyOp1
 70
     1
102
RTVSPropertyOp2
 70
     1
102
RTVSPropertyOp3
 70
     1
102
RTVSPropertyOp4
 70
     1
102
RTVSPropertyOp5
 70
     1
102
RTVSPropertyOp6
 70
     1
102
RTVSPropertyOp7
 70
     1
102
RTVSPropertyOp8
 70
     1
102
RTVSPropertyOp9
 70
     1
102
RTVSPropertyOp10
 70
     1
102
RTVSPropertyOp11
 70
     1
102
RTVSPropertyOp12
 70
     1
102
RTVSPropertyOp13
 70
     1
102
RTVSPropertyOp14
 70
     1
102
RTVSPropertyOp15
 70
     1
102
RTVSPropertyOp16
 70
     1
102
RTVSPropertyOp17
 70
     1
102
RTVSPropertyOp18
 70
     1
102
RTVSPropertyOp19
 70
     1
102
RTVSPropertyOp20
 70
     1
102
RTVSPropertyOp21
 70
     1
102
RTVSPropertyOp22
 70
     1
102
RTVSPropertyOp23
 70
     1
102
RTVSPropertyOp24
 70
     1
102
RTVSPropertyOp25
 70
     1
102
RTVSPropertyOp26
 70
     1
102
RTVSPropertyOp27
 70
     1
  0
XRECORD
  5
6CD
102
{ACAD_REACTORS
330
6CC
102
}
330
6CC
100
AcDbXrecord
280
     1
102
RTVSPropertyOp0
 70
     0
102
RTVSPropertyOp1
 70
     0
102
RTVSPropertyOp2
 70
     0
102
RTVSPropertyOp3
 70
     0
102
RTVSPropertyOp4
 70
     0
102
RTVSPropertyOp5
 70
     0
102
RTVSPropertyOp6
 70
     0
102
RTVSPropertyOp7
 70
     0
102
RTVSPropertyOp8
 70
     0
102
RTVSPropertyOp9
 70
     0
102
RTVSPropertyOp10
 70
     0
102
RTVSPropertyOp11
 70
     0
102
RTVSPropertyOp12
 70
     0
102
RTVSPropertyOp13
 70
     0
102
RTVSPropertyOp14
 70
     2
102
RTVSPropertyOp15
 70
     0
102
RTVSPropertyOp16
 70
     0
102
RTVSPropertyOp17
 70
     0
102
RTVSPropertyOp18
 70
     0
102
RTVSPropertyOp19
 70
     0
102
RTVSPropertyOp20
 70
     0
102
RTVSPropertyOp21
 70
     0
102
RTVSPropertyOp22
 70
     0
102
RTVSPropertyOp23
 70
     0
102
RTVSPropertyOp24
 70
     0
102
RTVSPropertyOp25
 70
     0
102
RTVSPropertyOp26
 70
     0
102
RTVSPropertyOp27
 70
     0
  0
XRECORD
  5
6C5
102
{ACAD_REACTORS
330
6C4
102
}
330
6C4
100
AcDbXrecord
280
     1
102
RTVSPropertyOp0
 70
     1
102
RTVSPropertyOp1
 70
     1
102
RTVSPropertyOp2
 70
     1
102
RTVSPropertyOp3
 70
     1
102
RTVSPropertyOp4
 70
     1
102
RTVSPropertyOp5
 70
     1
102
RTVSPropertyOp6
 70
     1
102
RTVSPropertyOp7
 70
     1
102
RTVSPropertyOp8
 70
     1
102
RTVSPropertyOp9
 70
     1
102
RTVSPropertyOp10
 70
     1
102
RTVSPropertyOp11
 70
     1
102
RTVSPropertyOp12
 70
     1
102
RTVSPropertyOp13
 70
     1
102
RTVSPropertyOp14
 70
     1
102
RTVSPropertyOp15
 70
     1
102
RTVSPropertyOp16
 70
     1
102
RTVSPropertyOp17
 70
     1
102
RTVSPropertyOp18
 70
     1
102
RTVSPropertyOp19
 70
     1
102
RTVSPropertyOp20
 70
     1
102
RTVSPropertyOp21
 70
     1
102
RTVSPropertyOp22
 70
     1
102
RTVSPropertyOp23
 70
     1
102
RTVSPropertyOp24
 70
     1
102
RTVSPropertyOp25
 70
     1
102
RTVSPropertyOp26
 70
     1
102
RTVSPropertyOp27
 70
     1
  0
XRECORD
  5
6A9
102
{ACAD_REACTORS
330
6A8
102
}
330
6A8
100
AcDbXrecord
280
     1
102
RTVSPropertyOp0
 70
     1
102
RTVSPropertyOp1
 70
     1
102
RTVSPropertyOp2
 70
     1
102
RTVSPropertyOp3
 70
     1
102
RTVSPropertyOp4
 70
     1
102
RTVSPropertyOp5
 70
     1
102
RTVSPropertyOp6
 70
     1
102
RTVSPropertyOp7
 70
     1
102
RTVSPropertyOp8
 70
     1
102
RTVSPropertyOp9
 70
     1
102
RTVSPropertyOp10
 70
     1
102
RTVSPropertyOp11
 70
     1
102
RTVSPropertyOp12
 70
     1
102
RTVSPropertyOp13
 70
     1
102
RTVSPropertyOp14
 70
     1
102
RTVSPropertyOp15
 70
     1
102
RTVSPropertyOp16
 70
     1
102
RTVSPropertyOp17
 70
     1
102
RTVSPropertyOp18
 70
     1
102
RTVSPropertyOp19
 70
     1
102
RTVSPropertyOp20
 70
     1
102
RTVSPropertyOp21
 70
     1
102
RTVSPropertyOp22
 70
     1
102
RTVSPropertyOp23
 70
     1
102
RTVSPropertyOp24
 70
     1
102
RTVSPropertyOp25
 70
     1
102
RTVSPropertyOp26
 70
     1
102
RTVSPropertyOp27
 70
     1
  0
XRECORD
  5
6AB
102
{ACAD_REACTORS
330
6AA
102
}
330
6AA
100
AcDbXrecord
280
     1
102
RTVSPropertyOp0
 70
     1
102
RTVSPropertyOp1
 70
     1
102
RTVSPropertyOp2
 70
     1
102
RTVSPropertyOp3
 70
     1
102
RTVSPropertyOp4
 70
     1
102
RTVSPropertyOp5
 70
     1
102
RTVSPropertyOp6
 70
     1
102
RTVSPropertyOp7
 70
     1
102
RTVSPropertyOp8
 70
     1
102
RTVSPropertyOp9
 70
     1
102
RTVSPropertyOp10
 70
     1
102
RTVSPropertyOp11
 70
     1
102
RTVSPropertyOp12
 70
     1
102
RTVSPropertyOp13
 70
     1
102
RTVSPropertyOp14
 70
     1
102
RTVSPropertyOp15
 70
     1
102
RTVSPropertyOp16
 70
     1
102
RTVSPropertyOp17
 70
     1
102
RTVSPropertyOp18
 70
     1
102
RTVSPropertyOp19
 70
     1
102
RTVSPropertyOp20
 70
     1
102
RTVSPropertyOp21
 70
     1
102
RTVSPropertyOp22
 70
     1
102
RTVSPropertyOp23
 70
     1
102
RTVSPropertyOp24
 70
     1
102
RTVSPropertyOp25
 70
     1
102
RTVSPropertyOp26
 70
     1
102
RTVSPropertyOp27
 70
     1
  0
XRECORD
  5
6AD
102
{ACAD_REACTORS
330
6AC
102
}
330
6AC
100
AcDbXrecord
280
     1
102
RTVSPropertyOp0
 70
     1
102
RTVSPropertyOp1
 70
     1
102
RTVSPropertyOp2
 70
     1
102
RTVSPropertyOp3
 70
     1
102
RTVSPropertyOp4
 70
     1
102
RTVSPropertyOp5
 70
     1
102
RTVSPropertyOp6
 70
     1
102
RTVSPropertyOp7
 70
     1
102
RTVSPropertyOp8
 70
     1
102
RTVSPropertyOp9
 70
     1
102
RTVSPropertyOp10
 70
     1
102
RTVSPropertyOp11
 70
     1
102
RTVSPropertyOp12
 70
     1
102
RTVSPropertyOp13
 70
     1
102
RTVSPropertyOp14
 70
     1
102
RTVSPropertyOp15
 70
     1
102
RTVSPropertyOp16
 70
     1
102
RTVSPropertyOp17
 70
     1
102
RTVSPropertyOp18
 70
     1
102
RTVSPropertyOp19
 70
     1
102
RTVSPropertyOp20
 70
     1
102
RTVSPropertyOp21
 70
     1
102
RTVSPropertyOp22
 70
     1
102
RTVSPropertyOp23
 70
     1
102
RTVSPropertyOp24
 70
     1
102
RTVSPropertyOp25
 70
     1
102
RTVSPropertyOp26
 70
     1
102
RTVSPropertyOp27
 70
     1
  0
XRECORD
  5
6AF
102
{ACAD_REACTORS
330
6AE
102
}
330
6AE
100
AcDbXrecord
280
     1
102
RTVSPropertyOp0
 70
     1
102
RTVSPropertyOp1
 70
     1
102
RTVSPropertyOp2
 70
     1
102
RTVSPropertyOp3
 70
     1
102
RTVSPropertyOp4
 70
     1
102
RTVSPropertyOp5
 70
     1
102
RTVSPropertyOp6
 70
     1
102
RTVSPropertyOp7
 70
     1
102
RTVSPropertyOp8
 70
     1
102
RTVSPropertyOp9
 70
     1
102
RTVSPropertyOp10
 70
     1
102
RTVSPropertyOp11
 70
     1
102
RTVSPropertyOp12
 70
     1
102
RTVSPropertyOp13
 70
     1
102
RTVSPropertyOp14
 70
     1
102
RTVSPropertyOp15
 70
     1
102
RTVSPropertyOp16
 70
     1
102
RTVSPropertyOp17
 70
     1
102
RTVSPropertyOp18
 70
     1
102
RTVSPropertyOp19
 70
     1
102
RTVSPropertyOp20
 70
     1
102
RTVSPropertyOp21
 70
     1
102
RTVSPropertyOp22
 70
     1
102
RTVSPropertyOp23
 70
     1
102
RTVSPropertyOp24
 70
     1
102
RTVSPropertyOp25
 70
     1
102
RTVSPropertyOp26
 70
     1
102
RTVSPropertyOp27
 70
     1
  0
XRECORD
  5
6C9
102
{ACAD_REACTORS
330
6C8
102
}
330
6C8
100
AcDbXrecord
280
     1
102
RTVSPropertyOp0
 70
     0
102
RTVSPropertyOp1
 70
     0
102
RTVSPropertyOp2
 70
     0
102
RTVSPropertyOp3
 70
     0
102
RTVSPropertyOp4
 70
     0
102
RTVSPropertyOp5
 70
     0
102
RTVSPropertyOp6
 70
     0
102
RTVSPropertyOp7
 70
     0
102
RTVSPropertyOp8
 70
     0
102
RTVSPropertyOp9
 70
     0
102
RTVSPropertyOp10
 70
     0
102
RTVSPropertyOp11
 70
     0
102
RTVSPropertyOp12
 70
     0
102
RTVSPropertyOp13
 70
     0
102
RTVSPropertyOp14
 70
     2
102
RTVSPropertyOp15
 70
     0
102
RTVSPropertyOp16
 70
     0
102
RTVSPropertyOp17
 70
     0
102
RTVSPropertyOp18
 70
     0
102
RTVSPropertyOp19
 70
     0
102
RTVSPropertyOp20
 70
     0
102
RTVSPropertyOp21
 70
     0
102
RTVSPropertyOp22
 70
     0
102
RTVSPropertyOp23
 70
     0
102
RTVSPropertyOp24
 70
     0
102
RTVSPropertyOp25
 70
     0
102
RTVSPropertyOp26
 70
     0
102
RTVSPropertyOp27
 70
     0
  0
XRECORD
  5
6C3
102
{ACAD_REACTORS
330
6C2
102
}
330
6C2
100
AcDbXrecord
280
     1
102
RTVSPropertyOp0
 70
     1
102
RTVSPropertyOp1
 70
     1
102
RTVSPropertyOp2
 70
     1
102
RTVSPropertyOp3
 70
     1
102
RTVSPropertyOp4
 70
     1
102
RTVSPropertyOp5
 70
     1
102
RTVSPropertyOp6
 70
     1
102
RTVSPropertyOp7
 70
     1
102
RTVSPropertyOp8
 70
     1
102
RTVSPropertyOp9
 70
     1
102
RTVSPropertyOp10
 70
     1
102
RTVSPropertyOp11
 70
     1
102
RTVSPropertyOp12
 70
     1
102
RTVSPropertyOp13
 70
     1
102
RTVSPropertyOp14
 70
     1
102
RTVSPropertyOp15
 70
     1
102
RTVSPropertyOp16
 70
     1
102
RTVSPropertyOp17
 70
     1
102
RTVSPropertyOp18
 70
     1
102
RTVSPropertyOp19
 70
     1
102
RTVSPropertyOp20
 70
     1
102
RTVSPropertyOp21
 70
     1
102
RTVSPropertyOp22
 70
     1
102
RTVSPropertyOp23
 70
     1
102
RTVSPropertyOp24
 70
     1
102
RTVSPropertyOp25
 70
     1
102
RTVSPropertyOp26
 70
     1
102
RTVSPropertyOp27
 70
     1
  0
XRECORD
  5
6CB
102
{ACAD_REACTORS
330
6CA
102
}
330
6CA
100
AcDbXrecord
280
     1
102
RTVSPropertyOp0
 70
     0
102
RTVSPropertyOp1
 70
     0
102
RTVSPropertyOp2
 70
     0
102
RTVSPropertyOp3
 70
     0
102
RTVSPropertyOp4
 70
     0
102
RTVSPropertyOp5
 70
     0
102
RTVSPropertyOp6
 70
     0
102
RTVSPropertyOp7
 70
     0
102
RTVSPropertyOp8
 70
     0
102
RTVSPropertyOp9
 70
     0
102
RTVSPropertyOp10
 70
     0
102
RTVSPropertyOp11
 70
     0
102
RTVSPropertyOp12
 70
     0
102
RTVSPropertyOp13
 70
     0
102
RTVSPropertyOp14
 70
     2
102
RTVSPropertyOp15
 70
     0
102
RTVSPropertyOp16
 70
     0
102
RTVSPropertyOp17
 70
     0
102
RTVSPropertyOp18
 70
     0
102
RTVSPropertyOp19
 70
     0
102
RTVSPropertyOp20
 70
     0
102
RTVSPropertyOp21
 70
     0
102
RTVSPropertyOp22
 70
     0
102
RTVSPropertyOp23
 70
     0
102
RTVSPropertyOp24
 70
     0
102
RTVSPropertyOp25
 70
     0
102
RTVSPropertyOp26
 70
     0
102
RTVSPropertyOp27
 70
     0
  0
XRECORD
  5
6BB
102
{ACAD_REACTORS
330
6BA
102
}
330
6BA
100
AcDbXrecord
280
     1
102
RTVSPropertyOp0
 70
     1
102
RTVSPropertyOp1
 70
     1
102
RTVSPropertyOp2
 70
     1
102
RTVSPropertyOp3
 70
     1
102
RTVSPropertyOp4
 70
     1
102
RTVSPropertyOp5
 70
     1
102
RTVSPropertyOp6
 70
     1
102
RTVSPropertyOp7
 70
     1
102
RTVSPropertyOp8
 70
     1
102
RTVSPropertyOp9
 70
     1
102
RTVSPropertyOp10
 70
     1
102
RTVSPropertyOp11
 70
     1
102
RTVSPropertyOp12
 70
     1
102
RTVSPropertyOp13
 70
     1
102
RTVSPropertyOp14
 70
     1
102
RTVSPropertyOp15
 70
     1
102
RTVSPropertyOp16
 70
     1
102
RTVSPropertyOp17
 70
     1
102
RTVSPropertyOp18
 70
     1
102
RTVSPropertyOp19
 70
     1
102
RTVSPropertyOp20
 70
     1
102
RTVSPropertyOp21
 70
     1
102
RTVSPropertyOp22
 70
     1
102
RTVSPropertyOp23
 70
     1
102
RTVSPropertyOp24
 70
     1
102
RTVSPropertyOp25
 70
     1
102
RTVSPropertyOp26
 70
     1
102
RTVSPropertyOp27
 70
     1
  0
XRECORD
  5
6C1
102
{ACAD_REACTORS
330
6C0
102
}
330
6C0
100
AcDbXrecord
280
     1
102
RTVSPropertyOp0
 70
     1
102
RTVSPropertyOp1
 70
     1
102
RTVSPropertyOp2
 70
     1
102
RTVSPropertyOp3
 70
     1
102
RTVSPropertyOp4
 70
     1
102
RTVSPropertyOp5
 70
     1
102
RTVSPropertyOp6
 70
     1
102
RTVSPropertyOp7
 70
     1
102
RTVSPropertyOp8
 70
     1
102
RTVSPropertyOp9
 70
     1
102
RTVSPropertyOp10
 70
     1
102
RTVSPropertyOp11
 70
     1
102
RTVSPropertyOp12
 70
     1
102
RTVSPropertyOp13
 70
     1
102
RTVSPropertyOp14
 70
     1
102
RTVSPropertyOp15
 70
     1
102
RTVSPropertyOp16
 70
     1
102
RTVSPropertyOp17
 70
     1
102
RTVSPropertyOp18
 70
     1
102
RTVSPropertyOp19
 70
     1
102
RTVSPropertyOp20
 70
     1
102
RTVSPropertyOp21
 70
     1
102
RTVSPropertyOp22
 70
     1
102
RTVSPropertyOp23
 70
     1
102
RTVSPropertyOp24
 70
     1
102
RTVSPropertyOp25
 70
     1
102
RTVSPropertyOp26
 70
     1
102
RTVSPropertyOp27
 70
     1
  0
ENDSEC
  0
EOF
