  0
SECTION
  2
HEADER
  9
$ACADVER
  1
AC1015
  9
$ACADMAINTVER
 70
    20
  9
$DWGCODEPAGE
  3
ANSI_1252
  9
$INSBASE
 10
0.0
 20
0.0
 30
0.0
  9
$EXTMIN
 10
3597.549697851454
 20
1108.991900060112
 30
0.0
  9
$EXTMAX
 10
3601.37321911422
 20
1109.742281537937
 30
0.0
  9
$LIMMIN
 10
0.0
 20
0.0
  9
$LIMMAX
 10
420.0
 20
297.0
  9
$ORTHOMODE
 70
     1
  9
$REGENMODE
 70
     1
  9
$FILLMODE
 70
     1
  9
$QTEXTMODE
 70
     0
  9
$MIRRTEXT
 70
     1
  9
$LTSCALE
 40
1.0
  9
$ATTMODE
 70
     1
  9
$TEXTSIZE
 40
2.5
  9
$TRACEWID
 40
1.0
  9
$TEXTSTYLE
  7
SANINDUSA
  9
$CLAYER
  8
cotas
  9
$CELTYPE
  6
ByLayer
  9
$CECOLOR
 62
   256
  9
$CELTSCALE
 40
1.0
  9
$DISPSILH
 70
     0
  9
$DIMSCALE
 40
1.0
  9
$DIMASZ
 40
2.0
  9
$DIMEXO
 40
1.0
  9
$DIMDLI
 40
1.0
  9
$DIMRND
 40
0.0
  9
$DIMDLE
 40
0.0
  9
$DIMEXE
 40
1.0
  9
$DIMTP
 40
0.0
  9
$DIMTM
 40
0.0
  9
$DIMTXT
 40
2.0
  9
$DIMCEN
 40
0.0
  9
$DIMTSZ
 40
0.0
  9
$DIMTOL
 70
     0
  9
$DIMLIM
 70
     0
  9
$DIMTIH
 70
     0
  9
$DIMTOH
 70
     0
  9
$DIMSE1
 70
     0
  9
$DIMSE2
 70
     0
  9
$DIMTAD
 70
     1
  9
$DIMZIN
 70
     8
  9
$DIMBLK
  1

  9
$DIMASO
 70
     1
  9
$DIMSHO
 70
     1
  9
$DIMPOST
  1

  9
$DIMAPOST
  1

  9
$DIMALT
 70
     0
  9
$DIMALTD
 70
     3
  9
$DIMALTF
 40
0.03937007874016
  9
$DIMLFAC
 40
1.0
  9
$DIMTOFL
 70
     1
  9
$DIMTVP
 40
0.0
  9
$DIMTIX
 70
     0
  9
$DIMSOXD
 70
     0
  9
$DIMSAH
 70
     0
  9
$DIMBLK1
  1

  9
$DIMBLK2
  1

  9
$DIMSTYLE
  2
SANINDUSA
  9
$DIMCLRD
 70
   256
  9
$DIMCLRE
 70
   256
  9
$DIMCLRT
 70
   256
  9
$DIMTFAC
 40
1.0
  9
$DIMGAP
 40
1.0
  9
$DIMJUST
 70
     0
  9
$DIMSD1
 70
     0
  9
$DIMSD2
 70
     0
  9
$DIMTOLJ
 70
     0
  9
$DIMTZIN
 70
     8
  9
$DIMALTZ
 70
     0
  9
$DIMALTTZ
 70
     0
  9
$DIMUPT
 70
     0
  9
$DIMDEC
 70
     1
  9
$DIMTDEC
 70
     1
  9
$DIMALTU
 70
     2
  9
$DIMALTTD
 70
     3
  9
$DIMTXSTY
  7
SANINDUSA
  9
$DIMAUNIT
 70
     0
  9
$DIMADEC
 70
     1
  9
$DIMALTRND
 40
0.0
  9
$DIMAZIN
 70
     0
  9
$DIMDSEP
 70
    44
  9
$DIMATFIT
 70
     3
  9
$DIMFRAC
 70
     0
  9
$DIMLDRBLK
  1

  9
$DIMLUNIT
 70
     2
  9
$DIMLWD
 70
    -1
  9
$DIMLWE
 70
    -1
  9
$DIMTMOVE
 70
     0
  9
$LUNITS
 70
     2
  9
$LUPREC
 70
     4
  9
$SKETCHINC
 40
1.0
  9
$FILLETRAD
 40
0.0
  9
$AUNITS
 70
     0
  9
$AUPREC
 70
     0
  9
$MENU
  1
.
  9
$ELEVATION
 40
0.0
  9
$PELEVATION
 40
0.0
  9
$THICKNESS
 40
0.0
  9
$LIMCHECK
 70
     0
  9
$CHAMFERA
 40
10.0
  9
$CHAMFERB
 40
10.0
  9
$CHAMFERC
 40
20.0
  9
$CHAMFERD
 40
0.0
  9
$SKPOLY
 70
     0
  9
$TDCREATE
 40
2453157.767845590
  9
$TDUCREATE
 40
2453157.726178924
  9
$TDUPDATE
 40
2456146.627917025
  9
$TDUUPDATE
 40
2456146.586250359
  9
$TDINDWG
 40
0.0102486690
  9
$TDUSRTIMER
 40
0.0102486690
  9
$USRTIMER
 70
     1
  9
$ANGBASE
 50
0.0
  9
$ANGDIR
 70
     0
  9
$PDMODE
 70
     0
  9
$PDSIZE
 40
0.0
  9
$PLINEWID
 40
0.0
  9
$SPLFRAME
 70
     0
  9
$SPLINETYPE
 70
     6
  9
$SPLINESEGS
 70
     8
  9
$HANDSEED
  5
1B5E
  9
$SURFTAB1
 70
     6
  9
$SURFTAB2
 70
     6
  9
$SURFTYPE
 70
     6
  9
$SURFU
 70
     6
  9
$SURFV
 70
     6
  9
$UCSBASE
  2

  9
$UCSNAME
  2

  9
$UCSORG
 10
0.0
 20
0.0
 30
0.0
  9
$UCSXDIR
 10
1.0
 20
0.0
 30
0.0
  9
$UCSYDIR
 10
0.0
 20
1.0
 30
0.0
  9
$UCSORTHOREF
  2

  9
$UCSORTHOVIEW
 70
     0
  9
$UCSORGTOP
 10
0.0
 20
0.0
 30
0.0
  9
$UCSORGBOTTOM
 10
0.0
 20
0.0
 30
0.0
  9
$UCSORGLEFT
 10
0.0
 20
0.0
 30
0.0
  9
$UCSORGRIGHT
 10
0.0
 20
0.0
 30
0.0
  9
$UCSORGFRONT
 10
0.0
 20
0.0
 30
0.0
  9
$UCSORGBACK
 10
0.0
 20
0.0
 30
0.0
  9
$PUCSBASE
  2

  9
$PUCSNAME
  2

  9
$PUCSORG
 10
0.0
 20
0.0
 30
0.0
  9
$PUCSXDIR
 10
1.0
 20
0.0
 30
0.0
  9
$PUCSYDIR
 10
0.0
 20
1.0
 30
0.0
  9
$PUCSORTHOREF
  2

  9
$PUCSORTHOVIEW
 70
     0
  9
$PUCSORGTOP
 10
0.0
 20
0.0
 30
0.0
  9
$PUCSORGBOTTOM
 10
0.0
 20
0.0
 30
0.0
  9
$PUCSORGLEFT
 10
0.0
 20
0.0
 30
0.0
  9
$PUCSORGRIGHT
 10
0.0
 20
0.0
 30
0.0
  9
$PUCSORGFRONT
 10
0.0
 20
0.0
 30
0.0
  9
$PUCSORGBACK
 10
0.0
 20
0.0
 30
0.0
  9
$USERI1
 70
     0
  9
$USERI2
 70
     0
  9
$USERI3
 70
     0
  9
$USERI4
 70
     0
  9
$USERI5
 70
     0
  9
$USERR1
 40
0.0
  9
$USERR2
 40
0.0
  9
$USERR3
 40
0.0
  9
$USERR4
 40
0.0
  9
$USERR5
 40
0.0
  9
$WORLDVIEW
 70
     1
  9
$SHADEDGE
 70
     3
  9
$SHADEDIF
 70
    70
  9
$TILEMODE
 70
     1
  9
$MAXACTVP
 70
    64
  9
$PINSBASE
 10
0.0
 20
0.0
 30
0.0
  9
$PLIMCHECK
 70
     0
  9
$PEXTMIN
 10
1.000000000000000E+20
 20
1.000000000000000E+20
 30
1.000000000000000E+20
  9
$PEXTMAX
 10
-1.000000000000000E+20
 20
-1.000000000000000E+20
 30
-1.000000000000000E+20
  9
$PLIMMIN
 10
0.0
 20
0.0
  9
$PLIMMAX
 10
420.0
 20
297.0
  9
$UNITMODE
 70
     0
  9
$VISRETAIN
 70
     1
  9
$PLINEGEN
 70
     0
  9
$PSLTSCALE
 70
     1
  9
$TREEDEPTH
 70
  3020
  9
$CMLSTYLE
  2
Standard
  9
$CMLJUST
 70
     0
  9
$CMLSCALE
 40
20.0
  9
$PROXYGRAPHICS
 70
     1
  9
$MEASUREMENT
 70
     1
  9
$CELWEIGHT
370
    -1
  9
$ENDCAPS
280
     0
  9
$JOINSTYLE
280
     0
  9
$LWDISPLAY
290
     0
  9
$INSUNITS
 70
     4
  9
$HYPERLINKBASE
  1

  9
$STYLESHEET
  1
monochrome.ctb
  9
$XEDIT
290
     1
  9
$CEPSNTYPE
380
     0
  9
$PSTYLEMODE
290
     1
  9
$FINGERPRINTGUID
  2
{B98A73AA-52AA-4C10-B469-C0E7150AC31F}
  9
$VERSIONGUID
  2
{37884AE6-0044-46A6-9C00-F4D8AE58C538}
  9
$EXTNAMES
290
     1
  9
$PSVPSCALE
 40
0.0
  9
$OLESTARTUP
290
     0
  0
ENDSEC
  0
SECTION
  2
CLASSES
  0
CLASS
  1
ACDBDICTIONARYWDFLT
  2
AcDbDictionaryWithDefault
  3
ObjectDBX Classes
 90
        0
280
     0
281
     0
  0
CLASS
  1
ACDBPLACEHOLDER
  2
AcDbPlaceHolder
  3
ObjectDBX Classes
 90
        0
280
     0
281
     0
  0
CLASS
  1
LAYOUT
  2
AcDbLayout
  3
ObjectDBX Classes
 90
        0
280
     0
281
     0
  0
CLASS
  1
DICTIONARYVAR
  2
AcDbDictionaryVar
  3
ObjectDBX Classes
 90
        0
280
     0
281
     0
  0
CLASS
  1
DIMASSOC
  2
AcDbDimAssoc
  3
"AcDbDimAssoc|Product Desc:     AcDim ARX App For Dimension|Company:          Autodesk, Inc.|WEB Address:      www.autodesk.com"
 90
    32768
280
     0
281
     0
  0
CLASS
  1
MATERIAL
  2
AcDbMaterial
  3
ObjectDBX Classes
 90
     1153
280
     0
281
     0
  0
CLASS
  1
VISUALSTYLE
  2
AcDbVisualStyle
  3
ObjectDBX Classes
 90
     4095
280
     0
281
     0
  0
CLASS
  1
TABLESTYLE
  2
AcDbTableStyle
  3
ObjectDBX Classes
 90
     4095
280
     0
281
     0
  0
CLASS
  1
SCALE
  2
AcDbScale
  3
ObjectDBX Classes
 90
     1153
280
     0
281
     0
  0
CLASS
  1
MLEADERSTYLE
  2
AcDbMLeaderStyle
  3
ACDB_MLEADERSTYLE_CLASS
 90
     4095
280
     0
281
     0
  0
CLASS
  1
CELLSTYLEMAP
  2
AcDbCellStyleMap
  3
ObjectDBX Classes
 90
     1152
280
     0
281
     0
  0
ENDSEC
  0
SECTION
  2
TABLES
  0
TABLE
  2
VPORT
  5
8
330
0
100
AcDbSymbolTable
 70
     1
  0
VPORT
  5
1AB9
330
8
100
AcDbSymbolTableRecord
100
AcDbViewportTableRecord
  2
*Active
 70
     0
 10
0.0
 20
0.0
 11
1.0
 21
1.0
 12
3599.598181395671
 22
1109.372006101268
 13
0.0
 23
0.0
 14
10.0
 24
10.0
 15
10.0
 25
10.0
 16
0.0
 26
0.0
 36
1.0
 17
0.0
 27
0.0
 37
0.0
 40
2.726011162397526
 41
1.645464025026068
 42
50.0
 43
0.0
 44
0.0
 50
0.0
 51
0.0
 71
     0
 72
   100
 73
     1
 74
     2
 75
     0
 76
     0
 77
     0
 78
     0
281
     0
 65
     1
110
0.0
120
0.0
130
0.0
111
1.0
121
0.0
131
0.0
112
0.0
122
1.0
132
0.0
 79
     0
146
0.0
  0
ENDTAB
  0
TABLE
  2
LTYPE
  5
5
330
0
100
AcDbSymbolTable
 70
     3
  0
LTYPE
  5
14
330
5
100
AcDbSymbolTableRecord
100
AcDbLinetypeTableRecord
  2
ByBlock
 70
     0
  3

 72
    65
 73
     0
 40
0.0
  0
LTYPE
  5
15
330
5
100
AcDbSymbolTableRecord
100
AcDbLinetypeTableRecord
  2
ByLayer
 70
     0
  3

 72
    65
 73
     0
 40
0.0
  0
LTYPE
  5
16
330
5
100
AcDbSymbolTableRecord
100
AcDbLinetypeTableRecord
  2
Continuous
 70
     0
  3
Solid line
 72
    65
 73
     0
 40
0.0
  0
LTYPE
  5
2D
330
5
100
AcDbSymbolTableRecord
100
AcDbLinetypeTableRecord
  2
DASHDOT
 70
     0
  3
Dash dot __ . __ . __ . __ . __ . __ . __ . __
 72
    65
 73
     4
 40
25.4
 49
12.7
 74
     0
 49
-6.349999999999999
 74
     0
 49
0.0
 74
     0
 49
-6.349999999999999
 74
     0
  0
LTYPE
  5
2E
330
5
100
AcDbSymbolTableRecord
100
AcDbLinetypeTableRecord
  2
HIDDEN
 70
     0
  3
Hidden __ __ __ __ __ __ __ __ __ __ __ __ __ _
 72
    65
 73
     2
 40
9.524999999999998
 49
6.349999999999999
 74
     0
 49
-3.174999999999999
 74
     0
  0
ENDTAB
  0
TABLE
  2
LAYER
  5
2
330
0
100
AcDbSymbolTable
 70
    16
  0
LAYER
  5
10
102
{ACAD_XDICTIONARY
360
1B03
102
}
330
2
100
AcDbSymbolTableRecord
100
AcDbLayerTableRecord
  2
0
 70
     0
 62
     7
  6
Continuous
370
    -3
390
F
  0
LAYER
  5
2F
102
{ACAD_XDICTIONARY
360
1B05
102
}
330
2
100
AcDbSymbolTableRecord
100
AcDbLayerTableRecord
  2
1
 70
     0
 62
     1
  6
Continuous
370
    -3
390
F
  0
LAYER
  5
30
102
{ACAD_XDICTIONARY
360
1B07
102
}
330
2
100
AcDbSymbolTableRecord
100
AcDbLayerTableRecord
  2
2
 70
     0
 62
     2
  6
Continuous
370
    -3
390
F
  0
LAYER
  5
31
102
{ACAD_XDICTIONARY
360
1B09
102
}
330
2
100
AcDbSymbolTableRecord
100
AcDbLayerTableRecord
  2
3
 70
     0
 62
     3
  6
Continuous
370
    -3
390
F
  0
LAYER
  5
32
102
{ACAD_XDICTIONARY
360
1B0B
102
}
330
2
100
AcDbSymbolTableRecord
100
AcDbLayerTableRecord
  2
4
 70
     0
 62
     4
  6
Continuous
370
    -3
390
F
  0
LAYER
  5
33
102
{ACAD_XDICTIONARY
360
1B0D
102
}
330
2
100
AcDbSymbolTableRecord
100
AcDbLayerTableRecord
  2
5
 70
     0
 62
     5
  6
Continuous
370
    -3
390
F
  0
LAYER
  5
34
102
{ACAD_XDICTIONARY
360
1B0F
102
}
330
2
100
AcDbSymbolTableRecord
100
AcDbLayerTableRecord
  2
6
 70
     0
 62
     6
  6
Continuous
370
    -3
390
F
  0
LAYER
  5
35
102
{ACAD_XDICTIONARY
360
1B11
102
}
330
2
100
AcDbSymbolTableRecord
100
AcDbLayerTableRecord
  2
7
 70
     0
 62
     7
  6
Continuous
370
    -3
390
F
  0
LAYER
  5
36
102
{ACAD_XDICTIONARY
360
1B13
102
}
330
2
100
AcDbSymbolTableRecord
100
AcDbLayerTableRecord
  2
cen
 70
     0
 62
     7
  6
DASHDOT
370
    -3
390
F
  0
LAYER
  5
37
102
{ACAD_XDICTIONARY
360
1B15
102
}
330
2
100
AcDbSymbolTableRecord
100
AcDbLayerTableRecord
  2
hid
 70
     0
 62
     7
  6
HIDDEN
370
    -3
390
F
  0
LAYER
  5
5D6
102
{ACAD_XDICTIONARY
360
1B17
102
}
330
2
100
AcDbSymbolTableRecord
100
AcDbLayerTableRecord
  2
hatch
 70
     0
 62
     9
  6
Continuous
370
    -3
390
F
  0
LAYER
  5
8AF
102
{ACAD_XDICTIONARY
360
1B19
102
}
330
2
100
AcDbSymbolTableRecord
100
AcDbLayerTableRecord
  2
9
 70
     0
 62
     9
  6
Continuous
370
    -3
390
F
  0
LAYER
  5
8F8
102
{ACAD_XDICTIONARY
360
1B1B
102
}
330
2
100
AcDbSymbolTableRecord
100
AcDbLayerTableRecord
  2
leg fin
 70
     0
 62
     9
  6
Continuous
370
    -3
390
F
  0
LAYER
  5
91D
102
{ACAD_XDICTIONARY
360
1B1D
102
}
330
2
100
AcDbSymbolTableRecord
100
AcDbLayerTableRecord
  2
cotas
 70
     0
 62
     1
  6
Continuous
370
    -3
390
F
  0
LAYER
  5
92F
330
2
100
AcDbSymbolTableRecord
100
AcDbLayerTableRecord
  2
Defpoints
 70
     0
 62
     7
  6
Continuous
290
     0
370
    -3
390
F
  0
LAYER
  5
BA2
102
{ACAD_XDICTIONARY
360
1B1F
102
}
330
2
100
AcDbSymbolTableRecord
100
AcDbLayerTableRecord
  2
Sanindusa
 70
     0
 62
     3
  6
Continuous
370
    -3
390
F
  0
ENDTAB
  0
TABLE
  2
STYLE
  5
3
330
0
100
AcDbSymbolTable
 70
     3
  0
STYLE
  5
11
330
3
100
AcDbSymbolTableRecord
100
AcDbTextStyleTableRecord
  2
Standard
 70
     0
 40
0.0
 41
1.0
 50
0.0
 71
     0
 42
2.5
  3
Avgardn.ttf
  4

1001
ACAD
1000
AvantGarde Bk BT
1071
       34
  0
STYLE
  5
2C
330
3
100
AcDbSymbolTableRecord
100
AcDbTextStyleTableRecord
  2

 70
     1
 40
0.0
 41
1.0
 50
0.0
 71
     0
 42
2.5
  3
ltypeshp.shx
  4

  0
STYLE
  5
91F
330
3
100
AcDbSymbolTableRecord
100
AcDbTextStyleTableRecord
  2
SANINDUSA
 70
     0
 40
0.0
 41
1.0
 50
0.0
 71
     0
 42
2.5
  3
verdana.TTF
  4

1001
ACAD
1000
Verdana
1071
       34
  0
ENDTAB
  0
TABLE
  2
VIEW
  5
6
330
0
100
AcDbSymbolTable
 70
     0
  0
ENDTAB
  0
TABLE
  2
UCS
  5
7
330
0
100
AcDbSymbolTable
 70
     0
  0
ENDTAB
  0
TABLE
  2
APPID
  5
9
330
0
100
AcDbSymbolTable
 70
     3
  0
APPID
  5
12
330
9
100
AcDbSymbolTableRecord
100
AcDbRegAppTableRecord
  2
ACAD
 70
     0
  0
APPID
  5
3A
330
9
100
AcDbSymbolTableRecord
100
AcDbRegAppTableRecord
  2
DCO15
 70
     0
  0
APPID
  5
1B5D
330
9
100
AcDbSymbolTableRecord
100
AcDbRegAppTableRecord
  2
ACAD_MLEADERVER
 70
     0
  0
ENDTAB
  0
TABLE
  2
DIMSTYLE
  5
A
330
0
100
AcDbSymbolTable
 70
     2
100
AcDbDimStyleTable
 71
     1
340
921
  0
DIMSTYLE
105
45
330
A
100
AcDbSymbolTableRecord
100
AcDbDimStyleTableRecord
  2
STANDARD
 70
     0
289
     0
340
11
  0
DIMSTYLE
105
921
330
A
100
AcDbSymbolTableRecord
100
AcDbDimStyleTableRecord
  2
SANINDUSA
 70
     0
 41
2.0
 42
1.0
 43
1.0
 44
1.0
 73
     0
 74
     0
 77
     1
 78
     8
140
2.0
141
0.0
143
0.03937007874016
147
1.0
171
     3
172
     1
176
   256
177
   256
178
   256
179
     1
271
     1
272
     1
274
     3
278
    44
283
     0
284
     8
340
91F
371
    -1
372
    -1
  0
ENDTAB
  0
TABLE
  2
BLOCK_RECORD
  5
1
330
0
100
AcDbSymbolTable
 70
     4
  0
BLOCK_RECORD
  5
1F
330
1
100
AcDbSymbolTableRecord
100
AcDbBlockTableRecord
  2
*Model_Space
340
22
  0
BLOCK_RECORD
  5
1B
330
1
100
AcDbSymbolTableRecord
100
AcDbBlockTableRecord
  2
*Paper_Space
340
1E
  0
BLOCK_RECORD
  5
23
330
1
100
AcDbSymbolTableRecord
100
AcDbBlockTableRecord
  2
*Paper_Space0
340
26
  0
BLOCK_RECORD
  5
919
330
1
100
AcDbSymbolTableRecord
100
AcDbBlockTableRecord
  2
_DotSmall
340
0
  0
BLOCK_RECORD
  5
922
330
1
100
AcDbSymbolTableRecord
100
AcDbBlockTableRecord
  2
base para cotas
340
0
310
2800000020000000200000000100080000000000000400000000000000000000000000000000000000000000000080000080000000808000800000008000800080800000C0C0C000C0DCC000F0CAA6000020400000206000002080000020A0000020C0000020E00000400000004020000040400000406000004080000040A0
310
000040C0000040E00000600000006020000060400000606000006080000060A0000060C0000060E00000800000008020000080400000806000008080000080A0000080C0000080E00000A0000000A0200000A0400000A0600000A0800000A0A00000A0C00000A0E00000C0000000C0200000C0400000C0600000C0800000C0
310
A00000C0C00000C0E00000E0000000E0200000E0400000E0600000E0800000E0A00000E0C00000E0E00040000000400020004000400040006000400080004000A0004000C0004000E00040200000402020004020400040206000402080004020A0004020C0004020E000404000004040200040404000404060004040800040
310
40A0004040C0004040E00040600000406020004060400040606000406080004060A0004060C0004060E00040800000408020004080400040806000408080004080A0004080C0004080E00040A0000040A0200040A0400040A0600040A0800040A0A00040A0C00040A0E00040C0000040C0200040C0400040C0600040C08000
310
40C0A00040C0C00040C0E00040E0000040E0200040E0400040E0600040E0800040E0A00040E0C00040E0E00080000000800020008000400080006000800080008000A0008000C0008000E00080200000802020008020400080206000802080008020A0008020C0008020E00080400000804020008040400080406000804080
310
008040A0008040C0008040E00080600000806020008060400080606000806080008060A0008060C0008060E00080800000808020008080400080806000808080008080A0008080C0008080E00080A0000080A0200080A0400080A0600080A0800080A0A00080A0C00080A0E00080C0000080C0200080C0400080C0600080C0
310
800080C0A00080C0C00080C0E00080E0000080E0200080E0400080E0600080E0800080E0A00080E0C00080E0E000C0000000C0002000C0004000C0006000C0008000C000A000C000C000C000E000C0200000C0202000C0204000C0206000C0208000C020A000C020C000C020E000C0400000C0402000C0404000C0406000C0
310
408000C040A000C040C000C040E000C0600000C0602000C0604000C0606000C0608000C060A000C060C000C060E000C0800000C0802000C0804000C0806000C0808000C080A000C080C000C080E000C0A00000C0A02000C0A04000C0A06000C0A08000C0A0A000C0A0C000C0A0E000C0C00000C0C02000C0C04000C0C06000
310
C0C08000C0C0A000F0FBFF00A4A0A000808080000000FF0000FF000000FFFF00FF000000FF00FF00FFFF0000FFFFFF00A4A4A4A4A4A4A4A4A4A4A4A4A4A4A4A4A4A4A4A4A4A4A4A4A4A4A4A4A4A4A4A4A4A4A4A4A4A4A4A4A4A4A4A4A4A4A4A4A4A4A4A4A4A4A4A4A4A4A4A4A4A4A4A4A4A4A4A4A4A4A4A4A4A4A4A4A4A4A4
310
A4A4A4A4A4A4A4A4A4A4A4A4A4A4A4A4A4A4A4A4A4A4A4A4A4A4A4A4A4A4A4A4A4A4A4A4A4A4A4A4A4A4A4A4A4A4A4A4A4A4A4A4A4A4A4A4A4A4A4A4A4A4A4A4A4A4A4A4A4A4A4A4A4A4A4A4A4A4A4A4A4A4A4A4A4A4A4A4A4A4A4A4A4A4A4A4A4A4A4A4A4A4A4A4A4A4A4A4A4A4A4A4A4A4A4A4A4A4A4A4A4A4A4A4A4A4A4
310
A4A4A4A4A4A4A4A4A4A4A4A4A4A4A4A4A4A4A4A4A4A4A4A4A4A4A4A4A4A4A4A4A4A4A4A4A4A4A4A4A4A4A4A4A4A4A4A4A4A4A4A4A4A4A4A4A4A4A4A4A4A4A4A4A4A4A4A4A4A4A4A4A4A4A4A4A4A4A4A4A4A4A4A4A4A4A4A4A4A4A4A4A4A4A4A4A4A4A4A4A4A4A4A4A4A4A4A4A4A4A4A4A4A4A4A4A4A4A4A4A4A4A4A4A4A4A4
310
A4A4A4A4A4A4A4A4A4A4A4A4A4A4A4A4A4A4A4A4A4A4A4A4A4A4A4A4A4A4A4A4A4A4A4A4A4A4A4A4A4A4A4A4A4A4A4A4A4A4A4A4A4A4A4A4A4A4A4A4A4A4A4A4A4A4A4A4A4A4A4A4A4A4A4A4A4A4A4A4A4A4A4A4A4A4A4A4A4A4A4A4A4A4A4A4A4A4A4A4A4A4A4A4A4A4A4A4A4A4A4A4A4A4A4A4F9F9F9F9F9F9F9F9F9F9F9
310
F9F9F9F9F9F9F9F9F9F9F9F9F9F9F9F9F9F9F9A4A4F9F9F9F9F9F9F9F9F9F9F9F9F9F9F9F9F9F9F9F9F9F9F9F9F9F9F9F9F9F9A4A4F9F9F9F9F9F9F9F9F9F9F9F9F9F9F9F9F9F9F9F9F9F9F9F9F9F9F9F9F9F9A4A4F9A4A4A4A4A4A4A4A4A4A4A4A4A4A4A4A4A4A4A4A4A4A4A4A4A4A4A4A4F9A4A4A4A4A4A4A4A4A4A4A4A4
310
A4A4A4A4A4A4A4A4A4A4A4A4A4A4A4A4A4A4A4A4A4A4A4A4A4A4A4A4A4A4A4A4A4A4A4A4A4A4A4A4A4A4A4A4A4A4A4A4A4A4A4A4A4A4A4A4A4A4A4A4A4A4A4A4A4A4A4A4A4A4A4A4A4A4A4A4A4A4A4A4A4A4A4A4A4A4A4A4A4A4A4A4A4A4A4A4A4A4A4A4A4A4A4A4A4A4A4A4A4A4A4A4A4A4A4A4A4A4A4A4A4A4A4A4A4A4A4
310
A4A4A4A4A4A4A4A4A4A4A4A4A4A4A4A4A4A4A4A4A4A4A4A4A4A4A4A4A4A4A4A4A4A4A4A4A4A4A4A4A4A4A4A4A4A4A4A4A4A4A4A4A4A4A4A4A4A4A4A4A4A4A4A4A4A4A4A4A4A4A4A4A4A4A4A4A4A4A4A4A4A4A4A4A4A4A4A4A4A4A4A4A4A4A4A4A4A4A4A4A4A4A4A4A4A4A4A4A4A4A4A4A4A4A4A4A4A4A4A4A4A4A4A4A4A4A4
310
A4A4A4A4A4A4A4A4A4A4A4A4A4A4A4A4A4A4A4A4A4A4A4A4A4A4A4A4A4A4A4A4A4A4A4A4A4A4A4A4A4A4A4A4A4A4A4A4A4A4A4A4A4A4A4A4A4A4A4A4A4A4A4A4A4A4A4A4A4A4A4A4A4A4A4A4A4A4A4A4A4A4A4A4A4A4A4A4A4A4A4A4A4A4A4A4A4A4A4A4A4A4A4A4A4A4A4A4A4A4A4A4A4A4A4A4A4A4A4A4A4A4A4A4A4A4A4
310
A4A4A4A4A4A4A4A4A4A4A4A4A4A4A4A4A4A4A4A4A4A4A4A4A4A4A4A4A4A4A4A4A4A4A4A4A4A4A4A4A4A4A4A4A4A4A4A4A4A4A4A4A4A4A4A4
1001
ACAD
1000
DesignCenter Data
1002
{
1070
     1
1070
     4
1002
}
  0
BLOCK_RECORD
  5
AA8
330
1
100
AcDbSymbolTableRecord
100
AcDbBlockTableRecord
  2
_CLOSED
340
0
  0
ENDTAB
  0
ENDSEC
  0
SECTION
  2
BLOCKS
  0
BLOCK
  5
20
330
1F
100
AcDbEntity
  8
0
100
AcDbBlockBegin
  2
*Model_Space
 70
     0
 10
0.0
 20
0.0
 30
0.0
  3
*Model_Space
  1

  0
ENDBLK
  5
21
330
1F
100
AcDbEntity
  8
0
100
AcDbBlockEnd
  0
BLOCK
  5
1C
330
1B
100
AcDbEntity
 67
     1
  8
0
100
AcDbBlockBegin
  2
*Paper_Space
 70
     0
 10
0.0
 20
0.0
 30
0.0
  3
*Paper_Space
  1

  0
ENDBLK
  5
1D
330
1B
100
AcDbEntity
 67
     1
  8
0
100
AcDbBlockEnd
  0
BLOCK
  5
24
330
23
100
AcDbEntity
 67
     1
  8
0
100
AcDbBlockBegin
  2
*Paper_Space0
 70
     0
 10
0.0
 20
0.0
 30
0.0
  3
*Paper_Space0
  1

  0
ENDBLK
  5
25
330
23
100
AcDbEntity
 67
     1
  8
0
100
AcDbBlockEnd
  0
BLOCK
  5
91B
330
919
100
AcDbEntity
  8
0
100
AcDbBlockBegin
  2
_DotSmall
 70
     0
 10
0.0
 20
0.0
 30
0.0
  3
_DotSmall
  1

  0
LWPOLYLINE
  5
91A
330
919
100
AcDbEntity
  8
0
  6
ByBlock
 62
     0
100
AcDbPolyline
 90
        2
 70
     1
 43
0.5
 10
-0.0625
 20
0.0
 42
1.0
 10
0.0625
 20
0.0
 42
1.0
  0
ENDBLK
  5
91C
330
919
100
AcDbEntity
  8
0
100
AcDbBlockEnd
  0
BLOCK
  5
92A
330
922
100
AcDbEntity
  8
0
100
AcDbBlockBegin
  2
base para cotas
 70
     0
 10
0.0
 20
0.0
 30
0.0
  3
base para cotas
  1

  0
LINE
  5
B36
330
922
100
AcDbEntity
  8
cotas
100
AcDbLine
 10
0.0
 20
-30.0
 30
0.0
 11
327.1260136525398
 21
-30.0
 31
0.0
  0
LINE
  5
B37
330
922
100
AcDbEntity
  8
cotas
100
AcDbLine
 10
0.0
 20
-25.0
 30
0.0
 11
327.1260136525398
 21
-25.0
 31
0.0
  0
LINE
  5
B38
330
922
100
AcDbEntity
  8
cotas
100
AcDbLine
 10
0.0
 20
-20.0
 30
0.0
 11
327.1260136525398
 21
-20.0
 31
0.0
  0
LINE
  5
B39
330
922
100
AcDbEntity
  8
cotas
100
AcDbLine
 10
0.0
 20
-15.0
 30
0.0
 11
327.1260136525398
 21
-15.0
 31
0.0
  0
LINE
  5
B3A
330
922
100
AcDbEntity
  8
cotas
100
AcDbLine
 10
0.0
 20
-10.0
 30
0.0
 11
327.1260136525398
 21
-10.0
 31
0.0
  0
LINE
  5
B3B
330
922
100
AcDbEntity
  8
cotas
100
AcDbLine
 10
0.0
 20
0.0
 30
0.0
 11
0.0
 21
-30.0
 31
0.0
  0
LINE
  5
B3C
330
922
100
AcDbEntity
  8
cotas
100
AcDbLine
 10
327.1260136525398
 20
-30.0
 30
0.0
 11
327.1260136525398
 21
0.0
 31
0.0
  0
ENDBLK
  5
92B
330
922
100
AcDbEntity
  8
0
100
AcDbBlockEnd
  0
BLOCK
  5
AAD
330
AA8
100
AcDbEntity
  8
0
100
AcDbBlockBegin
  2
_CLOSED
 70
     0
 10
0.0
 20
0.0
 30
0.0
  3
_CLOSED
  1

  0
LINE
  5
AA9
330
AA8
100
AcDbEntity
  8
0
100
AcDbLine
 10
-1.0
 20
0.166667
 30
0.0
 11
0.0
 21
0.0
 31
0.0
  0
LINE
  5
AAA
330
AA8
100
AcDbEntity
  8
0
100
AcDbLine
 10
0.0
 20
0.0
 30
0.0
 11
-1.0
 21
-0.166667
 31
0.0
  0
LINE
  5
AAB
330
AA8
100
AcDbEntity
  8
0
100
AcDbLine
 10
-1.0
 20
0.166667
 30
0.0
 11
-1.0
 21
-0.166667
 31
0.0
  0
LINE
  5
AAC
330
AA8
100
AcDbEntity
  8
0
100
AcDbLine
 10
0.0
 20
0.0
 30
0.0
 11
-1.0
 21
0.0
 31
0.0
  0
ENDBLK
  5
AAE
330
AA8
100
AcDbEntity
  8
0
100
AcDbBlockEnd
  0
ENDSEC
  0
SECTION
  2
ENTITIES
  0
LINE
  5
12C1
330
1F
100
AcDbEntity
  8
Sanindusa
100
AcDbLine
 10
3597.559694866351
 20
1109.742281537936
 30
0.0
 11
3598.290082314383
 21
1109.742281537937
 31
0.0
  0
LINE
  5
12C2
330
1F
100
AcDbEntity
  8
Sanindusa
100
AcDbLine
 10
3598.290082314381
 20
1108.991900060113
 30
0.0
 11
3597.559694866352
 21
1108.991900060112
 31
0.0
  0
CIRCLE
  5
12C7
330
1F
100
AcDbEntity
  8
Sanindusa
100
AcDbCircle
 10
3598.154888590367
 20
1109.137090799025
 30
0.0
 40
0.03
  0
LINE
  5
12C9
330
1F
100
AcDbEntity
  8
Sanindusa
100
AcDbLine
 10
3597.615625526723
 20
1109.03367958973
 30
0.0
 11
3598.234151654003
 21
1109.03367958973
 31
0.0
  0
LWPOLYLINE
  5
12CA
330
1F
100
AcDbEntity
  8
Sanindusa
100
AcDbPolyline
 90
        9
 70
   128
 43
0.0
 10
3598.184446907604
 20
1109.107532481786
 10
3598.178919249904
 20
1109.102904893193
 10
3598.17266375604
 20
1109.099321561941
 10
3598.165875337161
 20
1109.096894138879
 10
3598.158765509505
 20
1109.095698258617
 10
3598.151555803891
 20
1109.095771182862
 10
3598.144470863175
 20
1109.097110639412
 10
3598.13773144274
 20
1109.099674892953
 10
3598.131547532109
 20
1109.103384045457
  0
LINE
  5
12CC
330
1F
100
AcDbEntity
  8
Sanindusa
100
AcDbLine
 10
3598.221577856332
 20
1109.046253387402
 30
0.0
 11
3598.087150095059
 21
1109.046878752936
 31
0.0
  0
LINE
  5
12CF
330
1F
100
AcDbEntity
  8
Sanindusa
100
AcDbLine
 10
3598.223090281963
 20
1109.689440636278
 30
0.0
 11
3597.62389942908
 21
1109.692228105973
 31
0.0
  0
LINE
  5
12D0
330
1F
100
AcDbEntity
  8
Sanindusa
100
AcDbLine
 10
3598.234151654003
 20
1109.700502008318
 30
0.0
 11
3597.615625526883
 21
1109.700502008318
 31
0.0
  0
LWPOLYLINE
  5
12D2
330
1F
100
AcDbEntity
  8
Sanindusa
100
AcDbPolyline
 90
        9
 70
   128
 43
0.0
 10
3598.125330273128
 20
1109.166649116263
 10
3598.130857930828
 20
1109.171276704856
 10
3598.137113424692
 20
1109.174860036108
 10
3598.143901843571
 20
1109.17728745917
 10
3598.151011671227
 20
1109.178483339432
 10
3598.158221376841
 20
1109.178410415187
 10
3598.165306317557
 20
1109.177070958637
 10
3598.172045737993
 20
1109.174506705096
 10
3598.178229648623
 20
1109.170797552591
  0
LINE
  5
12D5
330
1F
100
AcDbEntity
  8
Sanindusa
100
AcDbLine
 10
3598.556247680547
 20
1109.307517461748
 30
0.0
 11
3599.174773807819
 21
1109.307517461748
 31
0.0
  0
LINE
  5
12D6
330
1F
100
AcDbEntity
  8
Sanindusa
100
AcDbLine
 10
3598.509555885875
 20
1109.22751746175
 30
0.0
 11
3599.221465602579
 21
1109.22751746175
 31
0.0
  0
LINE
  5
12D8
330
1F
100
AcDbEntity
  8
Sanindusa
100
AcDbLine
 10
3597.549697851455
 20
1109.001897075009
 30
0.0
 11
3597.549697851454
 21
1109.732284523038
 31
0.0
  0
LINE
  5
12DB
330
1F
100
AcDbEntity
  8
Sanindusa
100
AcDbLine
 10
3597.626794244376
 20
1109.04484830739
 30
0.0
 11
3598.067317064841
 21
1109.046878752938
 31
0.0
  0
LWPOLYLINE
  5
12DD
330
1F
100
AcDbEntity
  8
Sanindusa
100
AcDbPolyline
 90
       10
 70
   128
 43
0.0
 10
3597.591477381075
 20
1109.057827735387
 10
3597.591863050527
 20
1109.052850819689
 10
3597.593133163822
 20
1109.048315971085
 10
3597.595308768853
 20
1109.044078686927
 10
3597.598250196327
 20
1109.040452404989
 10
3597.601876430434
 20
1109.037511008696
 10
3597.603926357781
 20
1109.036320146608
 10
3597.606113762421
 20
1109.035335372483
 10
3597.610648579356
 20
1109.03406526414
 10
3597.615625526722
 20
1109.033679589734
  0
LWPOLYLINE
  5
12DE
330
1F
100
AcDbEntity
  8
Sanindusa
100
AcDbPolyline
 90
        9
 70
   128
 43
0.0
 10
3597.626794244388
 20
1109.044848307389
 10
3597.622129213777
 20
1109.045434187269
 10
3597.617655953082
 20
1109.046877563135
 10
3597.613499990742
 20
1109.049149344966
 10
3597.609902783635
 20
1109.052104992293
 10
3597.606906078433
 20
1109.055690387674
 10
3597.604617651893
 20
1109.059800459156
 10
3597.603165908702
 20
1109.064170001298
 10
3597.602538753112
 20
1109.068889107429
  0
LWPOLYLINE
  5
12E9
330
1F
100
AcDbEntity
  8
Sanindusa
100
AcDbPolyline
 90
        9
 70
   128
 43
0.0
 10
3597.549697851454
 20
1109.00189707501
 10
3597.549906822778
 20
1108.999868303236
 10
3597.550501861328
 20
1108.99797334846
 10
3597.551429320965
 20
1108.996277601177
 10
3597.552627524065
 20
1108.994829732724
 10
3597.554075415291
 20
1108.993631514139
 10
3597.555771173566
 20
1108.992704055564
 10
3597.557666121537
 20
1108.992109025836
 10
3597.559694866352
 20
1108.991900060112
  0
LINE
  5
12F0
330
1F
100
AcDbEntity
  8
Sanindusa
100
AcDbLine
 10
3597.599751283419
 20
1109.668079960314
 30
0.0
 11
3597.602538753112
 21
1109.068889107426
 31
0.0
  0
LINE
  5
12F1
330
1F
100
AcDbEntity
  8
Sanindusa
100
AcDbLine
 10
3597.591477381072
 20
1109.67635386266
 30
0.0
 11
3597.591477381072
 21
1109.057827735542
 31
0.0
  0
LINE
  5
12F3
330
1F
100
AcDbEntity
  8
Sanindusa
100
AcDbLine
 10
3597.702864453301
 20
1109.458325157474
 30
0.0
 11
3598.015631768833
 21
1109.1447282354
 31
0.0
  0
LINE
  5
12F4
330
1F
100
AcDbEntity
  8
Sanindusa
100
AcDbLine
 10
3597.705696624136
 20
1109.469627610009
 30
0.0
 11
3598.026919286179
 21
1109.147552913852
 31
0.0
  0
LINE
  5
12F5
330
1F
100
AcDbEntity
  8
Sanindusa
100
AcDbLine
 10
3597.822351779381
 20
1109.586282765255
 30
0.0
 11
3598.144426475538
 21
1109.265060103211
 31
0.0
  0
LINE
  5
12F9
330
1F
100
AcDbEntity
  8
Sanindusa
100
AcDbLine
 10
3597.702864453301
 20
1109.493680496532
 30
0.0
 11
3598.050893576934
 21
1109.144728235399
 31
0.0
  0
LINE
  5
12FA
330
1F
100
AcDbEntity
  8
Sanindusa
100
AcDbLine
 10
3597.798298892858
 20
1109.589114936089
 30
0.0
 11
3598.147251153991
 21
1109.241085812457
 31
0.0
  0
LINE
  5
12FB
330
1F
100
AcDbEntity
  8
Sanindusa
100
AcDbLine
 10
3597.705696624136
 20
1109.504982949068
 30
0.0
 11
3598.055524023084
 21
1109.154227642743
 31
0.0
  0
LINE
  5
12FC
330
1F
100
AcDbEntity
  8
Sanindusa
100
AcDbLine
 10
3597.787022656137
 20
1109.586282818036
 30
0.0
 11
3598.137751740443
 21
1109.236455426375
 31
0.0
  0
LINE
  5
1301
330
1F
100
AcDbEntity
  8
Sanindusa
100
AcDbLine
 10
3597.762970401556
 20
1109.589113064235
 30
0.0
 11
3598.118744896077
 21
1109.233338569715
 31
0.0
  0
LINE
  5
1302
330
1F
100
AcDbEntity
  8
Sanindusa
100
AcDbLine
 10
3597.702866325156
 20
1109.529008987834
 30
0.0
 11
3598.058640819676
 21
1109.173234493314
 31
0.0
  0
LINE
  5
1303
330
1F
100
AcDbEntity
  8
Sanindusa
100
AcDbLine
 10
3597.70569475228
 20
1109.540322696333
 30
0.0
 11
3598.064033655898
 21
1109.181983792716
 31
0.0
  0
LINE
  5
1304
330
1F
100
AcDbEntity
  8
Sanindusa
100
AcDbLine
 10
3597.751656693057
 20
1109.586284637111
 30
0.0
 11
3598.109995596674
 21
1109.227945733493
 31
0.0
  0
LINE
  5
1309
330
1F
100
AcDbEntity
  8
Sanindusa
100
AcDbLine
 10
3597.727615062498
 20
1109.589113064235
 30
0.0
 11
3598.095975688084
 21
1109.220752438648
 31
0.0
  0
LINE
  5
130A
330
1F
100
AcDbEntity
  8
Sanindusa
100
AcDbLine
 10
3597.702866325156
 20
1109.564364326893
 30
0.0
 11
3598.071226950742
 21
1109.196003701307
 31
0.0
  0
LINE
  5
130B
330
1F
100
AcDbEntity
  8
Sanindusa
100
AcDbLine
 10
3597.70569475228
 20
1109.575678035392
 30
0.0
 11
3598.077773904617
 21
1109.203598883056
 31
0.0
  0
LINE
  5
130C
330
1F
100
AcDbEntity
  8
Sanindusa
100
AcDbLine
 10
3597.716301353998
 20
1109.586284637111
 30
0.0
 11
3598.088380506335
 21
1109.214205484774
 31
0.0
  0
LINE
  5
1320
330
1F
100
AcDbEntity
  8
Sanindusa
100
AcDbLine
 10
3597.999144066473
 20
1109.586284637111
 30
0.0
 11
3598.144424601203
 21
1109.441004102381
 31
0.0
  0
LINE
  5
1322
330
1F
100
AcDbEntity
  8
Sanindusa
100
AcDbLine
 10
3597.975102435913
 20
1109.589113064235
 30
0.0
 11
3598.147253028328
 21
1109.41696247182
 31
0.0
  0
LINE
  5
1323
330
1F
100
AcDbEntity
  8
Sanindusa
100
AcDbLine
 10
3597.963788727412
 20
1109.586284637111
 30
0.0
 11
3598.144424601202
 21
1109.405648763321
 31
0.0
  0
LINE
  5
1326
330
1F
100
AcDbEntity
  8
Sanindusa
100
AcDbLine
 10
3597.939747096853
 20
1109.589113064235
 30
0.0
 11
3598.147253028328
 21
1109.381607132761
 31
0.0
  0
LINE
  5
1327
330
1F
100
AcDbEntity
  8
Sanindusa
100
AcDbLine
 10
3597.928433388354
 20
1109.586284637111
 30
0.0
 11
3598.144424601202
 21
1109.370293424262
 31
0.0
  0
LINE
  5
132A
330
1F
100
AcDbEntity
  8
Sanindusa
100
AcDbLine
 10
3597.904391757794
 20
1109.589113064235
 30
0.0
 11
3598.147253028328
 21
1109.346251793701
 31
0.0
  0
LINE
  5
132B
330
1F
100
AcDbEntity
  8
Sanindusa
100
AcDbLine
 10
3597.893078049295
 20
1109.586284637111
 30
0.0
 11
3598.144424601203
 21
1109.334938085203
 31
0.0
  0
LINE
  5
132E
330
1F
100
AcDbEntity
  8
Sanindusa
100
AcDbLine
 10
3597.869036418734
 20
1109.589113064235
 30
0.0
 11
3598.147281180672
 21
1109.310868302297
 31
0.0
  0
LINE
  5
132F
330
1F
100
AcDbEntity
  8
Sanindusa
100
AcDbLine
 10
3597.85775086258
 20
1109.586284637111
 30
0.0
 11
3598.144452753547
 21
1109.299582746143
 31
0.0
  0
LINE
  5
1332
330
1F
100
AcDbEntity
  8
Sanindusa
100
AcDbLine
 10
3597.833654231917
 20
1109.589114936089
 30
0.0
 11
3598.147251153991
 21
1109.276347620558
 31
0.0
  0
LINE
  5
133E
330
1F
100
AcDbEntity
  8
Sanindusa
100
AcDbLine
 10
3598.147838814765
 20
1109.450903597317
 30
0.0
 11
3598.147838814764
 21
1109.442418315943
 31
0.0
  0
LWPOLYLINE
  5
1370
330
1F
100
AcDbEntity
  8
Sanindusa
100
AcDbPolyline
 90
        9
 70
   128
 43
0.0
 10
3598.121181836799
 20
1109.113749740767
 10
3598.117472684295
 20
1109.119933651398
 10
3598.114908430754
 20
1109.126673071833
 10
3598.113568974204
 20
1109.133758012549
 10
3598.113496049959
 20
1109.140967718164
 10
3598.114691930221
 20
1109.148077545819
 10
3598.117119353282
 20
1109.154865964699
 10
3598.120702684536
 20
1109.161121458562
 10
3598.125330273128
 20
1109.166649116263
  0
LINE
  5
137C
330
1F
100
AcDbEntity
  8
Sanindusa
100
AcDbLine
 10
3598.087150095059
 20
1109.046878752936
 30
0.0
 11
3598.067317064841
 21
1109.046878752938
 31
0.0
  0
LWPOLYLINE
  5
137E
330
1F
100
AcDbEntity
  8
Sanindusa
100
AcDbPolyline
 90
        3
 70
   128
 43
0.0
 10
3598.131547532115
 20
1109.103384045425
 10
3598.125955190127
 20
1109.108157398949
 10
3598.121181836816
 20
1109.113749740724
  0
LINE
  5
1380
330
1F
100
AcDbEntity
  8
Sanindusa
100
AcDbLine
 10
3597.702866325156
 20
1109.281521614419
 30
0.0
 11
3597.839661578511
 21
1109.144726361063
 31
0.0
  0
LINE
  5
1381
330
1F
100
AcDbEntity
  8
Sanindusa
100
AcDbLine
 10
3597.70569475228
 20
1109.292835322917
 30
0.0
 11
3597.85097528701
 21
1109.147554788188
 31
0.0
  0
LINE
  5
1384
330
1F
100
AcDbEntity
  8
Sanindusa
100
AcDbLine
 10
3597.702866325156
 20
1109.316876953478
 30
0.0
 11
3597.875016917571
 21
1109.144726361063
 31
0.0
  0
LINE
  5
1385
330
1F
100
AcDbEntity
  8
Sanindusa
100
AcDbLine
 10
3597.70569475228
 20
1109.328190661978
 30
0.0
 11
3597.886330626069
 21
1109.147554788188
 31
0.0
  0
LINE
  5
1388
330
1F
100
AcDbEntity
  8
Sanindusa
100
AcDbLine
 10
3597.702866325156
 20
1109.352232292537
 30
0.0
 11
3597.91037225663
 21
1109.144726361063
 31
0.0
  0
LINE
  5
1389
330
1F
100
AcDbEntity
  8
Sanindusa
100
AcDbLine
 10
3597.70569475228
 20
1109.363546001036
 30
0.0
 11
3597.921685965128
 21
1109.147554788188
 31
0.0
  0
LINE
  5
138C
330
1F
100
AcDbEntity
  8
Sanindusa
100
AcDbLine
 10
3597.702866325156
 20
1109.387587631597
 30
0.0
 11
3597.94572759569
 21
1109.144726361063
 31
0.0
  0
LINE
  5
138D
330
1F
100
AcDbEntity
  8
Sanindusa
100
AcDbLine
 10
3597.70569475228
 20
1109.398901340095
 30
0.0
 11
3597.957041304188
 21
1109.147554788188
 31
0.0
  0
LINE
  5
1390
330
1F
100
AcDbEntity
  8
Sanindusa
100
AcDbLine
 10
3597.702866325156
 20
1109.422942970656
 30
0.0
 11
3597.981111087094
 21
1109.144698208718
 31
0.0
  0
LINE
  5
1391
330
1F
100
AcDbEntity
  8
Sanindusa
100
AcDbLine
 10
3597.70569475228
 20
1109.43422852681
 30
0.0
 11
3597.992396643248
 21
1109.147526635843
 31
0.0
  0
LINE
  5
139E
330
1F
100
AcDbEntity
  8
Sanindusa
100
AcDbLine
 10
3597.702866325156
 20
1109.175455597241
 30
0.0
 11
3597.733595561333
 21
1109.144726361063
 31
0.0
  0
LINE
  5
139F
330
1F
100
AcDbEntity
  8
Sanindusa
100
AcDbLine
 10
3597.70569475228
 20
1109.186769305739
 30
0.0
 11
3597.744909269832
 21
1109.147554788188
 31
0.0
  0
LINE
  5
13A2
330
1F
100
AcDbEntity
  8
Sanindusa
100
AcDbLine
 10
3597.702866325156
 20
1109.2108109363
 30
0.0
 11
3597.768950900392
 21
1109.144726361063
 31
0.0
  0
LINE
  5
13A3
330
1F
100
AcDbEntity
  8
Sanindusa
100
AcDbLine
 10
3597.70569475228
 20
1109.222124644799
 30
0.0
 11
3597.780264608891
 21
1109.147554788188
 31
0.0
  0
LINE
  5
13A6
330
1F
100
AcDbEntity
  8
Sanindusa
100
AcDbLine
 10
3597.702866325156
 20
1109.246166275359
 30
0.0
 11
3597.804306239452
 21
1109.144726361063
 31
0.0
  0
LINE
  5
13A7
330
1F
100
AcDbEntity
  8
Sanindusa
100
AcDbLine
 10
3597.70569475228
 20
1109.257479983859
 30
0.0
 11
3597.81561994795
 21
1109.147554788188
 31
0.0
  0
LINE
  5
13B0
330
1F
100
AcDbEntity
  8
Sanindusa
100
AcDbLine
 10
3597.702280538719
 20
1109.185355092177
 30
0.0
 11
3597.702280538719
 21
1109.176869810803
 31
0.0
  0
LWPOLYLINE
  5
13BA
330
1F
100
AcDbEntity
  8
Sanindusa
100
AcDbPolyline
 90
        4
 70
   128
 43
0.0
 10
3597.702280538718
 20
1109.176869810803
 10
3597.702388452775
 20
1109.176221728414
 10
3597.702567204912
 20
1109.175838070881
 10
3597.702866325156
 20
1109.175455597241
  0
LWPOLYLINE
  5
13C8
330
1F
100
AcDbEntity
  8
Sanindusa
100
AcDbPolyline
 90
        4
 70
   128
 43
0.0
 10
3597.70569475228
 20
1109.186769305741
 10
3597.705312278645
 20
1109.187068425982
 10
3597.704928621114
 20
1109.187247178119
 10
3597.704280538719
 20
1109.187355092178
  0
LWPOLYLINE
  5
13C9
330
1F
100
AcDbEntity
  8
Sanindusa
100
AcDbPolyline
 90
        5
 70
   128
 43
0.0
 10
3597.704280538719
 20
1109.187355092178
 10
3597.703515199065
 20
1109.187202862514
 10
3597.702866352925
 20
1109.186769333509
 10
3597.702432790924
 20
1109.186120486253
 10
3597.702280538718
 20
1109.185355092177
  0
LINE
  5
13CA
330
1F
100
AcDbEntity
  8
Sanindusa
100
AcDbLine
 10
3597.702280538718
 20
1109.220710431237
 30
0.0
 11
3597.702280538719
 21
1109.212225149862
 31
0.0
  0
LWPOLYLINE
  5
13CF
330
1F
100
AcDbEntity
  8
Sanindusa
100
AcDbPolyline
 90
        4
 70
   128
 43
0.0
 10
3597.70569475228
 20
1109.222124644799
 10
3597.705312286681
 20
1109.222423760201
 10
3597.704928632947
 20
1109.222602513124
 10
3597.704280538719
 20
1109.222710431237
  0
LWPOLYLINE
  5
13D0
330
1F
100
AcDbEntity
  8
Sanindusa
100
AcDbPolyline
 90
        5
 70
   128
 43
0.0
 10
3597.704280538718
 20
1109.222710431237
 10
3597.703515171853
 20
1109.222558190301
 10
3597.702866325156
 20
1109.222124644799
 10
3597.702432779653
 20
1109.221475798101
 10
3597.702280538718
 20
1109.220710431236
  0
LWPOLYLINE
  5
13D5
330
1F
100
AcDbEntity
  8
Sanindusa
100
AcDbPolyline
 90
        4
 70
   128
 43
0.0
 10
3597.702280538718
 20
1109.212225149863
 10
3597.702388456829
 20
1109.211577055637
 10
3597.702567209752
 20
1109.211193401902
 10
3597.702866325156
 20
1109.2108109363
  0
LINE
  5
13E0
330
1F
100
AcDbEntity
  8
Sanindusa
100
AcDbLine
 10
3597.702280538718
 20
1109.256065770297
 30
0.0
 11
3597.702280538718
 21
1109.247580488923
 31
0.0
  0
LWPOLYLINE
  5
13E5
330
1F
100
AcDbEntity
  8
Sanindusa
100
AcDbPolyline
 90
        4
 70
   128
 43
0.0
 10
3597.70569475228
 20
1109.257479983859
 10
3597.70531227865
 20
1109.257779104098
 10
3597.704928621122
 20
1109.257957856235
 10
3597.704280538719
 20
1109.258065770297
  0
LWPOLYLINE
  5
13E6
330
1F
100
AcDbEntity
  8
Sanindusa
100
AcDbPolyline
 90
        5
 70
   128
 43
0.0
 10
3597.704280538719
 20
1109.258065770297
 10
3597.703515199065
 20
1109.257913540633
 10
3597.702866352925
 20
1109.257480011627
 10
3597.702432790924
 20
1109.256831164372
 10
3597.702280538718
 20
1109.256065770296
  0
LWPOLYLINE
  5
13EB
330
1F
100
AcDbEntity
  8
Sanindusa
100
AcDbPolyline
 90
        4
 70
   128
 43
0.0
 10
3597.702280538718
 20
1109.247580488923
 10
3597.702388452777
 20
1109.246932406525
 10
3597.702567204915
 20
1109.246548748994
 10
3597.702866325156
 20
1109.24616627536
  0
LINE
  5
13F5
330
1F
100
AcDbEntity
  8
Sanindusa
100
AcDbLine
 10
3597.702280538718
 20
1109.291421109355
 30
0.0
 11
3597.702280538718
 21
1109.282935827981
 31
0.0
  0
LWPOLYLINE
  5
13FA
330
1F
100
AcDbEntity
  8
Sanindusa
100
AcDbPolyline
 90
        4
 70
   128
 43
0.0
 10
3597.70569475228
 20
1109.292835322918
 10
3597.705312286675
 20
1109.293134438323
 10
3597.704928632939
 20
1109.293313191246
 10
3597.704280538719
 20
1109.293421109355
  0
LWPOLYLINE
  5
13FB
330
1F
100
AcDbEntity
  8
Sanindusa
100
AcDbPolyline
 90
        5
 70
   128
 43
0.0
 10
3597.704280538719
 20
1109.293421109355
 10
3597.703515199065
 20
1109.293268879692
 10
3597.702866352925
 20
1109.292835350686
 10
3597.702432790924
 20
1109.292186503431
 10
3597.702280538718
 20
1109.291421109355
  0
LWPOLYLINE
  5
1400
330
1F
100
AcDbEntity
  8
Sanindusa
100
AcDbPolyline
 90
        4
 70
   128
 43
0.0
 10
3597.702280538718
 20
1109.282935827981
 10
3597.702388452778
 20
1109.282287745583
 10
3597.702567204915
 20
1109.281904088053
 10
3597.702866325156
 20
1109.281521614419
  0
LINE
  5
1404
330
1F
100
AcDbEntity
  8
Sanindusa
100
AcDbLine
 10
3597.735009774896
 20
1109.144140574626
 30
0.0
 11
3597.74349505627
 21
1109.144140574626
 31
0.0
  0
LWPOLYLINE
  5
1407
330
1F
100
AcDbEntity
  8
Sanindusa
100
AcDbPolyline
 90
        4
 70
   128
 43
0.0
 10
3597.733595561333
 20
1109.144726361064
 10
3597.733978026945
 20
1109.144427245654
 10
3597.734361680686
 20
1109.144248492732
 10
3597.735009774895
 20
1109.144140574626
  0
LWPOLYLINE
  5
140C
330
1F
100
AcDbEntity
  8
Sanindusa
100
AcDbPolyline
 90
        4
 70
   128
 43
0.0
 10
3597.743495056268
 20
1109.144140574626
 10
3597.743901048906
 20
1109.144182215625
 10
3597.744280254066
 20
1109.144301155039
 10
3597.744909269831
 20
1109.144726361064
  0
LWPOLYLINE
  5
140E
330
1F
100
AcDbEntity
  8
Sanindusa
100
AcDbPolyline
 90
        7
 70
   128
 43
0.0
 10
3597.744909269831
 20
1109.144726361064
 10
3597.745334482425
 20
1109.145355392217
 10
3597.745453417817
 20
1109.145734594275
 10
3597.745495056269
 20
1109.146140574626
 10
3597.745387138156
 20
1109.146788668857
 10
3597.745208385233
 20
1109.147172322591
 10
3597.744909269831
 20
1109.147554788189
  0
LWPOLYLINE
  5
1416
330
1F
100
AcDbEntity
  8
Sanindusa
100
AcDbPolyline
 90
        4
 70
   128
 43
0.0
 10
3597.778850395328
 20
1109.144140574626
 10
3597.779256387962
 20
1109.144182215624
 10
3597.77963559312
 20
1109.144301155036
 10
3597.780264608892
 20
1109.144726361064
  0
LWPOLYLINE
  5
1418
330
1F
100
AcDbEntity
  8
Sanindusa
100
AcDbPolyline
 90
        7
 70
   128
 43
0.0
 10
3597.780264608892
 20
1109.144726361064
 10
3597.780689821487
 20
1109.14535539222
 10
3597.780808756879
 20
1109.145734594277
 10
3597.780850395329
 20
1109.146140574626
 10
3597.780742477217
 20
1109.146788668857
 10
3597.780563724293
 20
1109.147172322591
 10
3597.780264608891
 20
1109.147554788189
  0
LINE
  5
1419
330
1F
100
AcDbEntity
  8
Sanindusa
100
AcDbLine
 10
3597.770365113954
 20
1109.144140574626
 30
0.0
 11
3597.778850395329
 21
1109.144140574626
 31
0.0
  0
LWPOLYLINE
  5
141B
330
1F
100
AcDbEntity
  8
Sanindusa
100
AcDbPolyline
 90
        4
 70
   128
 43
0.0
 10
3597.768950900392
 20
1109.144726361064
 10
3597.769333374026
 20
1109.144427240823
 10
3597.769717031555
 20
1109.144248488686
 10
3597.770365113954
 20
1109.144140574626
  0
LWPOLYLINE
  5
1427
330
1F
100
AcDbEntity
  8
Sanindusa
100
AcDbPolyline
 90
        4
 70
   128
 43
0.0
 10
3597.814205734387
 20
1109.144140574626
 10
3597.814611727022
 20
1109.144182215624
 10
3597.81499093218
 20
1109.144301155037
 10
3597.815619947951
 20
1109.144726361064
  0
LWPOLYLINE
  5
1429
330
1F
100
AcDbEntity
  8
Sanindusa
100
AcDbPolyline
 90
        7
 70
   128
 43
0.0
 10
3597.815619947951
 20
1109.144726361064
 10
3597.816045160544
 20
1109.145355392216
 10
3597.816164095937
 20
1109.145734594274
 10
3597.816205734388
 20
1109.146140574626
 10
3597.816097816277
 20
1109.146788668852
 10
3597.815919063354
 20
1109.147172322588
 10
3597.81561994795
 20
1109.147554788189
  0
LINE
  5
142A
330
1F
100
AcDbEntity
  8
Sanindusa
100
AcDbLine
 10
3597.805720453014
 20
1109.144140574626
 30
0.0
 11
3597.814205734388
 21
1109.144140574626
 31
0.0
  0
LWPOLYLINE
  5
142C
330
1F
100
AcDbEntity
  8
Sanindusa
100
AcDbPolyline
 90
        4
 70
   128
 43
0.0
 10
3597.804306239452
 20
1109.144726361064
 10
3597.804688705059
 20
1109.144427245657
 10
3597.805072358797
 20
1109.144248492734
 10
3597.805720453014
 20
1109.144140574626
  0
LINE
  5
1437
330
1F
100
AcDbEntity
  8
Sanindusa
100
AcDbLine
 10
3597.702280538718
 20
1109.397487126533
 30
0.0
 11
3597.702280538718
 21
1109.389001845159
 31
0.0
  0
LINE
  5
1440
330
1F
100
AcDbEntity
  8
Sanindusa
100
AcDbLine
 10
3597.702280538718
 20
1109.326776448414
 30
0.0
 11
3597.702280538719
 21
1109.31829116704
 31
0.0
  0
LWPOLYLINE
  5
1445
330
1F
100
AcDbEntity
  8
Sanindusa
100
AcDbPolyline
 90
        4
 70
   128
 43
0.0
 10
3597.70569475228
 20
1109.328190661977
 10
3597.70531227865
 20
1109.328489782215
 10
3597.704928621122
 20
1109.328668534353
 10
3597.704280538719
 20
1109.328776448414
  0
LWPOLYLINE
  5
1446
330
1F
100
AcDbEntity
  8
Sanindusa
100
AcDbPolyline
 90
        5
 70
   128
 43
0.0
 10
3597.704280538718
 20
1109.328776448414
 10
3597.703515171853
 20
1109.32862420748
 10
3597.702866325156
 20
1109.328190661977
 10
3597.702432779653
 20
1109.327541815279
 10
3597.702280538718
 20
1109.326776448414
  0
LWPOLYLINE
  5
144B
330
1F
100
AcDbEntity
  8
Sanindusa
100
AcDbPolyline
 90
        4
 70
   128
 43
0.0
 10
3597.702280538718
 20
1109.318291167041
 10
3597.702388456829
 20
1109.317643072815
 10
3597.702567209752
 20
1109.31725941908
 10
3597.702866325156
 20
1109.316876953478
  0
LINE
  5
1458
330
1F
100
AcDbEntity
  8
Sanindusa
100
AcDbLine
 10
3597.702280538719
 20
1109.362131787474
 30
0.0
 11
3597.702280538719
 21
1109.3536465061
 31
0.0
  0
LWPOLYLINE
  5
145D
330
1F
100
AcDbEntity
  8
Sanindusa
100
AcDbPolyline
 90
        4
 70
   128
 43
0.0
 10
3597.70569475228
 20
1109.363546001037
 10
3597.705312278645
 20
1109.363845121279
 10
3597.704928621114
 20
1109.364023873416
 10
3597.704280538719
 20
1109.364131787474
  0
LWPOLYLINE
  5
145E
330
1F
100
AcDbEntity
  8
Sanindusa
100
AcDbPolyline
 90
        5
 70
   128
 43
0.0
 10
3597.704280538719
 20
1109.364131787474
 10
3597.703515199066
 20
1109.363979557811
 10
3597.702866352925
 20
1109.363546028806
 10
3597.702432790925
 20
1109.362897181551
 10
3597.702280538718
 20
1109.362131787474
  0
LWPOLYLINE
  5
1463
330
1F
100
AcDbEntity
  8
Sanindusa
100
AcDbPolyline
 90
        4
 70
   128
 43
0.0
 10
3597.702280538718
 20
1109.353646506101
 10
3597.702388456829
 20
1109.352998411875
 10
3597.702567209752
 20
1109.35261475814
 10
3597.702866325156
 20
1109.352232292538
  0
LWPOLYLINE
  5
1468
330
1F
100
AcDbEntity
  8
Sanindusa
100
AcDbPolyline
 90
        4
 70
   128
 43
0.0
 10
3597.702280538718
 20
1109.38900184516
 10
3597.702388456826
 20
1109.388353750945
 10
3597.702567209748
 20
1109.387970097206
 10
3597.702866325156
 20
1109.387587631597
  0
LINE
  5
146D
330
1F
100
AcDbEntity
  8
Sanindusa
100
AcDbLine
 10
3597.702280538719
 20
1109.432814313247
 30
0.0
 11
3597.702280538719
 21
1109.424357184218
 31
0.0
  0
LWPOLYLINE
  5
1479
330
1F
100
AcDbEntity
  8
Sanindusa
100
AcDbPolyline
 90
        4
 70
   128
 43
0.0
 10
3597.70569475228
 20
1109.398901340097
 10
3597.70531227865
 20
1109.399200460335
 10
3597.704928621122
 20
1109.399379212472
 10
3597.704280538719
 20
1109.399487126533
  0
LWPOLYLINE
  5
147A
330
1F
100
AcDbEntity
  8
Sanindusa
100
AcDbPolyline
 90
        5
 70
   128
 43
0.0
 10
3597.704280538719
 20
1109.399487126533
 10
3597.703515199065
 20
1109.39933489687
 10
3597.702866352925
 20
1109.398901367864
 10
3597.702432790924
 20
1109.398252520609
 10
3597.702280538718
 20
1109.397487126533
  0
LWPOLYLINE
  5
147F
330
1F
100
AcDbEntity
  8
Sanindusa
100
AcDbPolyline
 90
        4
 70
   128
 43
0.0
 10
3597.702280538718
 20
1109.424357184218
 10
3597.702388452777
 20
1109.423709101821
 10
3597.702567204915
 20
1109.42332544429
 10
3597.702866325156
 20
1109.422942970656
  0
LWPOLYLINE
  5
1485
330
1F
100
AcDbEntity
  8
Sanindusa
100
AcDbPolyline
 90
        4
 70
   128
 43
0.0
 10
3597.70569475228
 20
1109.43422852681
 10
3597.70531227865
 20
1109.434527647048
 10
3597.704928621122
 20
1109.434706399186
 10
3597.704280538719
 20
1109.434814313247
  0
LWPOLYLINE
  5
1486
330
1F
100
AcDbEntity
  8
Sanindusa
100
AcDbPolyline
 90
        5
 70
   128
 43
0.0
 10
3597.704280538718
 20
1109.434814313247
 10
3597.703515171853
 20
1109.434662072313
 10
3597.702866325156
 20
1109.43422852681
 10
3597.702432779653
 20
1109.433579680112
 10
3597.702280538718
 20
1109.432814313247
  0
LINE
  5
148F
330
1F
100
AcDbEntity
  8
Sanindusa
100
AcDbLine
 10
3597.876431131132
 20
1109.144140574626
 30
0.0
 11
3597.884916412507
 21
1109.144140574626
 31
0.0
  0
LWPOLYLINE
  5
1492
330
1F
100
AcDbEntity
  8
Sanindusa
100
AcDbPolyline
 90
        4
 70
   128
 43
0.0
 10
3597.849561073446
 20
1109.144140574626
 10
3597.849967066082
 20
1109.144182215625
 10
3597.850346271241
 20
1109.144301155038
 10
3597.85097528701
 20
1109.144726361064
  0
LWPOLYLINE
  5
1494
330
1F
100
AcDbEntity
  8
Sanindusa
100
AcDbPolyline
 90
        7
 70
   128
 43
0.0
 10
3597.85097528701
 20
1109.144726361064
 10
3597.851400496453
 20
1109.145355384836
 10
3597.851519433774
 20
1109.145734588382
 10
3597.851561073447
 20
1109.146140574627
 10
3597.851453159386
 20
1109.146788657029
 10
3597.851274407248
 20
1109.147172314558
 10
3597.850975287009
 20
1109.147554788189
  0
LINE
  5
1495
330
1F
100
AcDbEntity
  8
Sanindusa
100
AcDbLine
 10
3597.841075792073
 20
1109.144140574626
 30
0.0
 11
3597.849561073447
 21
1109.144140574626
 31
0.0
  0
LWPOLYLINE
  5
1497
330
1F
100
AcDbEntity
  8
Sanindusa
100
AcDbPolyline
 90
        4
 70
   128
 43
0.0
 10
3597.839661578511
 20
1109.144726361064
 10
3597.840044052143
 20
1109.144427240825
 10
3597.840427709671
 20
1109.144248488688
 10
3597.841075792073
 20
1109.144140574626
  0
LWPOLYLINE
  5
14A2
330
1F
100
AcDbEntity
  8
Sanindusa
100
AcDbPolyline
 90
        4
 70
   128
 43
0.0
 10
3597.875016917571
 20
1109.144726361064
 10
3597.875399391204
 20
1109.144427240823
 10
3597.875783048734
 20
1109.144248488686
 10
3597.876431131132
 20
1109.144140574626
  0
LWPOLYLINE
  5
14A7
330
1F
100
AcDbEntity
  8
Sanindusa
100
AcDbPolyline
 90
        4
 70
   128
 43
0.0
 10
3597.91037225663
 20
1109.144726361064
 10
3597.910754730264
 20
1109.144427240823
 10
3597.911138387793
 20
1109.144248488686
 10
3597.911786470192
 20
1109.144140574626
  0
LWPOLYLINE
  5
14AA
330
1F
100
AcDbEntity
  8
Sanindusa
100
AcDbPolyline
 90
        4
 70
   128
 43
0.0
 10
3597.884916412507
 20
1109.144140574626
 10
3597.885322405145
 20
1109.144182215625
 10
3597.885701610304
 20
1109.144301155039
 10
3597.88633062607
 20
1109.144726361064
  0
LWPOLYLINE
  5
14AC
330
1F
100
AcDbEntity
  8
Sanindusa
100
AcDbPolyline
 90
        7
 70
   128
 43
0.0
 10
3597.88633062607
 20
1109.144726361064
 10
3597.886755838664
 20
1109.14535539222
 10
3597.886874774056
 20
1109.145734594277
 10
3597.886916412508
 20
1109.146140574626
 10
3597.886808494394
 20
1109.146788668857
 10
3597.88662974147
 20
1109.147172322591
 10
3597.886330626069
 20
1109.147554788189
  0
LWPOLYLINE
  5
14B6
330
1F
100
AcDbEntity
  8
Sanindusa
100
AcDbPolyline
 90
        4
 70
   128
 43
0.0
 10
3597.920271751565
 20
1109.144140574626
 10
3597.920677744202
 20
1109.144182215625
 10
3597.921056949361
 20
1109.144301155038
 10
3597.921685965129
 20
1109.144726361064
  0
LWPOLYLINE
  5
14B8
330
1F
100
AcDbEntity
  8
Sanindusa
100
AcDbPolyline
 90
        7
 70
   128
 43
0.0
 10
3597.921685965129
 20
1109.144726361064
 10
3597.922111174572
 20
1109.145355384836
 10
3597.922230111893
 20
1109.145734588382
 10
3597.922271751566
 20
1109.146140574627
 10
3597.922163837506
 20
1109.146788657025
 10
3597.921985085369
 20
1109.147172314555
 10
3597.921685965128
 20
1109.147554788189
  0
LINE
  5
14B9
330
1F
100
AcDbEntity
  8
Sanindusa
100
AcDbLine
 10
3597.911786470192
 20
1109.144140574626
 30
0.0
 11
3597.920271751566
 21
1109.144140574626
 31
0.0
  0
LWPOLYLINE
  5
14C3
330
1F
100
AcDbEntity
  8
Sanindusa
100
AcDbPolyline
 90
        4
 70
   128
 43
0.0
 10
3597.955627090624
 20
1109.144140574626
 10
3597.956033083259
 20
1109.144182215624
 10
3597.956412288417
 20
1109.144301155036
 10
3597.957041304188
 20
1109.144726361064
  0
LWPOLYLINE
  5
14C5
330
1F
100
AcDbEntity
  8
Sanindusa
100
AcDbPolyline
 90
        7
 70
   128
 43
0.0
 10
3597.957041304188
 20
1109.144726361064
 10
3597.957466516779
 20
1109.145355392212
 10
3597.957585452173
 20
1109.145734594271
 10
3597.957627090625
 20
1109.146140574626
 10
3597.957519172515
 20
1109.146788668849
 10
3597.957340419593
 20
1109.147172322585
 10
3597.957041304187
 20
1109.147554788189
  0
LINE
  5
14C6
330
1F
100
AcDbEntity
  8
Sanindusa
100
AcDbLine
 10
3597.947141809251
 20
1109.144140574626
 30
0.0
 11
3597.955627090625
 21
1109.144140574626
 31
0.0
  0
LWPOLYLINE
  5
14C8
330
1F
100
AcDbEntity
  8
Sanindusa
100
AcDbPolyline
 90
        4
 70
   128
 43
0.0
 10
3597.945727595689
 20
1109.144726361064
 10
3597.9461100613
 20
1109.144427245655
 10
3597.946493715039
 20
1109.144248492733
 10
3597.947141809251
 20
1109.144140574626
  0
LWPOLYLINE
  5
14D4
330
1F
100
AcDbEntity
  8
Sanindusa
100
AcDbPolyline
 90
        4
 70
   128
 43
0.0
 10
3597.990982429684
 20
1109.14411242228
 10
3597.991388422322
 20
1109.144154063279
 10
3597.991767627482
 20
1109.144273002693
 10
3597.992396643248
 20
1109.144698208718
  0
LWPOLYLINE
  5
14D6
330
1F
100
AcDbEntity
  8
Sanindusa
100
AcDbPolyline
 90
        7
 70
   128
 43
0.0
 10
3597.992396643248
 20
1109.144698208718
 10
3597.992821852694
 20
1109.145327232497
 10
3597.992940790013
 20
1109.145706436041
 10
3597.992982429686
 20
1109.14611242228
 10
3597.992874515627
 20
1109.146760504675
 10
3597.99269576349
 20
1109.147144162206
 10
3597.992396643247
 20
1109.147526635843
  0
LINE
  5
14D7
330
1F
100
AcDbEntity
  8
Sanindusa
100
AcDbLine
 10
3597.982525300654
 20
1109.144112422281
 30
0.0
 11
3597.990982429685
 21
1109.144112422281
 31
0.0
  0
LWPOLYLINE
  5
14DA
330
1F
100
AcDbEntity
  8
Sanindusa
100
AcDbPolyline
 90
        4
 70
   128
 43
0.0
 10
3597.981111087093
 20
1109.144698208718
 10
3597.9814935527
 20
1109.144399093311
 10
3597.981877206438
 20
1109.144220340389
 10
3597.982525300654
 20
1109.14411242228
  0
LWPOLYLINE
  5
14E6
330
1F
100
AcDbEntity
  8
Sanindusa
100
AcDbPolyline
 90
        4
 70
   128
 43
0.0
 10
3598.025503200761
 20
1109.144140574626
 10
3598.025909193393
 20
1109.144182215624
 10
3598.026288398551
 20
1109.144301155035
 10
3598.026917414325
 20
1109.144726361064
  0
LWPOLYLINE
  5
14E8
330
1F
100
AcDbEntity
  8
Sanindusa
100
AcDbPolyline
 90
        7
 70
   128
 43
0.0
 10
3598.026917414325
 20
1109.144726361064
 10
3598.027342389133
 20
1109.145354835395
 10
3598.027461369091
 20
1109.145733663334
 10
3598.027503200324
 20
1109.146139250148
 10
3598.02739574306
 20
1109.14678732315
 10
3598.027217506289
 20
1109.147170699164
 10
3598.026919286179
 20
1109.147552913853
  0
LINE
  5
14E9
330
1F
100
AcDbEntity
  8
Sanindusa
100
AcDbLine
 10
3598.017047854249
 20
1109.144140574626
 30
0.0
 11
3598.025503200762
 21
1109.144140574626
 31
0.0
  0
LWPOLYLINE
  5
14EB
330
1F
100
AcDbEntity
  8
Sanindusa
100
AcDbPolyline
 90
        4
 70
   128
 43
0.0
 10
3598.015631768832
 20
1109.1447282354
 10
3598.016014831108
 20
1109.144428014207
 10
3598.01639913502
 20
1109.144248706935
 10
3598.017047854249
 20
1109.144140574626
  0
LWPOLYLINE
  5
14F6
330
1F
100
AcDbEntity
  8
Sanindusa
100
AcDbPolyline
 90
        5
 70
   128
 43
0.0
 10
3598.053290846486
 20
1109.144140574626
 10
3598.054020883741
 20
1109.144278574195
 10
3598.0546470789
 20
1109.144670665227
 10
3598.055086343019
 20
1109.145259556919
 10
3598.055282959111
 20
1109.145963128046
  0
LINE
  5
14F7
330
1F
100
AcDbEntity
  8
Sanindusa
100
AcDbLine
 10
3598.052309662351
 20
1109.144140574626
 30
0.0
 11
3598.053290846486
 21
1109.144140574626
 31
0.0
  0
LWPOLYLINE
  5
14F9
330
1F
100
AcDbEntity
  8
Sanindusa
100
AcDbPolyline
 90
        4
 70
   128
 43
0.0
 10
3598.050893576934
 20
1109.1447282354
 10
3598.051276647226
 20
1109.144428009372
 10
3598.05166095493
 20
1109.144248702886
 10
3598.052309662352
 20
1109.144140574626
  0
LINE
  5
14FC
330
1F
100
AcDbEntity
  8
Sanindusa
100
AcDbLine
 10
3598.056084028894
 20
1109.152506979884
 30
0.0
 11
3598.055282959111
 21
1109.145963128045
 31
0.0
  0
LWPOLYLINE
  5
14FE
330
1F
100
AcDbEntity
  8
Sanindusa
100
AcDbPolyline
 90
        4
 70
   128
 43
0.0
 10
3598.056084028897
 20
1109.152506979899
 10
3598.056049946251
 20
1109.153293427623
 10
3598.055868421224
 20
1109.153764354435
 10
3598.055524023084
 20
1109.154227642745
  0
LINE
  5
1508
330
1F
100
AcDbEntity
  8
Sanindusa
100
AcDbLine
 10
3598.14786696711
 20
1109.309454088735
 30
0.0
 11
3598.14786696711
 21
1109.300996959705
 31
0.0
  0
LWPOLYLINE
  5
150D
330
1F
100
AcDbEntity
  8
Sanindusa
100
AcDbPolyline
 90
        4
 70
   128
 43
0.0
 10
3598.058640819675
 20
1109.173234493315
 10
3598.059023293307
 20
1109.172935373076
 10
3598.059406950835
 20
1109.172756620939
 10
3598.060055033237
 20
1109.172648706878
  0
LWPOLYLINE
  5
150E
330
1F
100
AcDbEntity
  8
Sanindusa
100
AcDbPolyline
 90
        5
 70
   128
 43
0.0
 10
3598.060055033237
 20
1109.172648706878
 10
3598.060659677619
 20
1109.172742295282
 10
3598.061198234465
 20
1109.173007642908
 10
3598.061626625109
 20
1109.173411735176
 10
3598.06191451475
 20
1109.173912277311
  0
LINE
  5
1510
330
1F
100
AcDbEntity
  8
Sanindusa
100
AcDbLine
 10
3598.064428641321
 20
1109.179717054064
 30
0.0
 11
3598.061914514751
 21
1109.173912277317
 31
0.0
  0
LWPOLYLINE
  5
1512
330
1F
100
AcDbEntity
  8
Sanindusa
100
AcDbPolyline
 90
        5
 70
   128
 43
0.0
 10
3598.064428641316
 20
1109.179717054055
 10
3598.064578608664
 20
1109.180167500434
 10
3598.06461285471
 20
1109.180731773813
 10
3598.06445331801
 20
1109.181367639308
 10
3598.064033655898
 20
1109.181983792717
  0
LINE
  5
151F
330
1F
100
AcDbEntity
  8
Sanindusa
100
AcDbLine
 10
3598.077899473405
 20
1109.200908319107
 30
0.0
 11
3598.074253858934
 21
1109.196235030246
 31
0.0
  0
LWPOLYLINE
  5
1520
330
1F
100
AcDbEntity
  8
Sanindusa
100
AcDbPolyline
 90
        4
 70
   128
 43
0.0
 10
3598.071226950742
 20
1109.196003701307
 10
3598.07160941635
 20
1109.1957045859
 10
3598.071993070087
 20
1109.195525832977
 10
3598.072641164304
 20
1109.195417914869
  0
LWPOLYLINE
  5
1521
330
1F
100
AcDbEntity
  8
Sanindusa
100
AcDbPolyline
 90
        5
 70
   128
 43
0.0
 10
3598.072641164304
 20
1109.195417914869
 10
3598.073123605619
 20
1109.195476974278
 10
3598.073566773241
 20
1109.195644994088
 10
3598.073948768546
 20
1109.195904583728
 10
3598.074253858932
 20
1109.196235030244
  0
LWPOLYLINE
  5
1524
330
1F
100
AcDbEntity
  8
Sanindusa
100
AcDbPolyline
 90
        6
 70
   128
 43
0.0
 10
3598.077899473393
 20
1109.200908319094
 10
3598.078201409134
 20
1109.201404878169
 10
3598.078356435884
 20
1109.202070607768
 10
3598.07824636891
 20
1109.202848331054
 10
3598.078059133743
 20
1109.203239133598
 10
3598.077773904616
 20
1109.203598883056
  0
LINE
  5
1531
330
1F
100
AcDbEntity
  8
Sanindusa
100
AcDbLine
 10
3598.095744359142
 20
1109.217725530455
 30
0.0
 11
3598.091071070296
 21
1109.214079915997
 31
0.0
  0
LWPOLYLINE
  5
1533
330
1F
100
AcDbEntity
  8
Sanindusa
100
AcDbPolyline
 90
        8
 70
   128
 43
0.0
 10
3598.095744359145
 20
1109.217725530457
 10
3598.096052840408
 20
1109.218005623199
 10
3598.096301020935
 20
1109.218351321711
 10
3598.09647309068
 20
1109.218750242381
 10
3598.096555659329
 20
1109.219185821173
 10
3598.096480003662
 20
1109.219903243616
 10
3598.096298239191
 20
1109.22033001563
 10
3598.095975688084
 20
1109.220752438649
  0
LWPOLYLINE
  5
1534
330
1F
100
AcDbEntity
  8
Sanindusa
100
AcDbPolyline
 90
        4
 70
   128
 43
0.0
 10
3598.088380506335
 20
1109.214205484775
 10
3598.088762971941
 20
1109.213906369368
 10
3598.089146625679
 20
1109.213727616445
 10
3598.089794719895
 20
1109.213619698337
  0
LWPOLYLINE
  5
1535
330
1F
100
AcDbEntity
  8
Sanindusa
100
AcDbPolyline
 90
        3
 70
   128
 43
0.0
 10
3598.089794719893
 20
1109.213619698337
 10
3598.09049102094
 20
1109.213744821047
 10
3598.091071070297
 20
1109.214079915998
  0
LINE
  5
1542
330
1F
100
AcDbEntity
  8
Sanindusa
100
AcDbLine
 10
3598.118067112071
 20
1109.230064874638
 30
0.0
 11
3598.112262335336
 21
1109.227550748073
 31
0.0
  0
LWPOLYLINE
  5
1546
330
1F
100
AcDbEntity
  8
Sanindusa
100
AcDbPolyline
 90
        4
 70
   128
 43
0.0
 10
3598.109995596674
 20
1109.227945733493
 10
3598.11037806228
 20
1109.227646618087
 10
3598.110761716017
 20
1109.227467865165
 10
3598.111409810236
 20
1109.227359947055
  0
LWPOLYLINE
  5
1547
330
1F
100
AcDbEntity
  8
Sanindusa
100
AcDbPolyline
 90
        3
 70
   128
 43
0.0
 10
3598.111409810236
 20
1109.227359947055
 10
3598.111846617996
 20
1109.227408230124
 10
3598.112262335336
 20
1109.227550748074
  0
LINE
  5
154D
330
1F
100
AcDbEntity
  8
Sanindusa
100
AcDbLine
 10
3598.147838814764
 20
1109.274931535141
 30
0.0
 11
3598.147838814764
 21
1109.266476188628
 31
0.0
  0
LINE
  5
1550
330
1F
100
AcDbEntity
  8
Sanindusa
100
AcDbLine
 10
3598.146016261305
 20
1109.236696430276
 30
0.0
 11
3598.139472455289
 21
1109.235895367639
 31
0.0
  0
LWPOLYLINE
  5
1556
330
1F
100
AcDbEntity
  8
Sanindusa
100
AcDbPolyline
 90
        4
 70
   128
 43
0.0
 10
3598.137751740441
 20
1109.236455426376
 10
3598.138133626298
 20
1109.236157382938
 10
3598.138516648628
 20
1109.235979168199
 10
3598.139164132587
 20
1109.235871459013
  0
LWPOLYLINE
  5
1558
330
1F
100
AcDbEntity
  8
Sanindusa
100
AcDbPolyline
 90
        9
 70
   128
 43
0.0
 10
3598.118067112078
 20
1109.230064874641
 10
3598.118495658991
 20
1109.230298677893
 10
3598.118857117546
 20
1109.230632072867
 10
3598.119127877975
 20
1109.231046809304
 10
3598.119289147812
 20
1109.231518876594
 10
3598.119330474345
 20
1109.231895500834
 10
3598.119285171537
 20
1109.232348588
 10
3598.119104350465
 20
1109.232848532543
 10
3598.118744896075
 20
1109.233338569715
  0
LWPOLYLINE
  5
1567
330
1F
100
AcDbEntity
  8
Sanindusa
100
AcDbPolyline
 90
        5
 70
   128
 43
0.0
 10
3598.146016261345
 20
1109.236696430279
 10
3598.146719824244
 20
1109.236893042335
 10
3598.147308715877
 20
1109.237332301511
 10
3598.14770081185
 20
1109.237958497117
 10
3598.147838814764
 20
1109.238688542905
  0
LINE
  5
1569
330
1F
100
AcDbEntity
  8
Sanindusa
100
AcDbLine
 10
3598.147838814764
 20
1109.238688542904
 30
0.0
 11
3598.147838814764
 21
1109.239669727039
 31
0.0
  0
LWPOLYLINE
  5
156B
330
1F
100
AcDbEntity
  8
Sanindusa
100
AcDbPolyline
 90
        4
 70
   128
 43
0.0
 10
3598.147838814764
 20
1109.239669727039
 10
3598.147730686508
 20
1109.240318434451
 10
3598.147551380023
 20
1109.240702742158
 10
3598.147251153991
 20
1109.241085812456
  0
LWPOLYLINE
  5
156D
330
1F
100
AcDbEntity
  8
Sanindusa
100
AcDbPolyline
 90
        4
 70
   128
 43
0.0
 10
3598.147253028327
 20
1109.265061975066
 10
3598.147678234355
 20
1109.265690990839
 10
3598.147797173766
 20
1109.266070195996
 10
3598.147838814764
 20
1109.266476188628
  0
LWPOLYLINE
  5
156E
330
1F
100
AcDbEntity
  8
Sanindusa
100
AcDbPolyline
 90
        7
 70
   128
 43
0.0
 10
3598.144426475538
 20
1109.265060103211
 10
3598.144808707242
 20
1109.264761872878
 10
3598.145192091285
 20
1109.264583637773
 10
3598.145840139243
 20
1109.264476189067
 10
3598.146245738536
 20
1109.264518022894
 10
3598.146624569625
 20
1109.264637006936
 10
3598.147253028327
 20
1109.265061975066
  0
LWPOLYLINE
  5
1583
330
1F
100
AcDbEntity
  8
Sanindusa
100
AcDbPolyline
 90
        4
 70
   128
 43
0.0
 10
3598.147838814764
 20
1109.274931535142
 10
3598.147730682456
 20
1109.27558025437
 10
3598.147551375183
 20
1109.275964558283
 10
3598.147251153991
 20
1109.276347620559
  0
LWPOLYLINE
  5
1584
330
1F
100
AcDbEntity
  8
Sanindusa
100
AcDbPolyline
 90
        4
 70
   128
 43
0.0
 10
3598.147281180672
 20
1109.299582746143
 10
3598.147706391097
 20
1109.300211772213
 10
3598.147825327817
 20
1109.300590975295
 10
3598.14786696711
 20
1109.300996959705
  0
LWPOLYLINE
  5
1585
330
1F
100
AcDbEntity
  8
Sanindusa
100
AcDbPolyline
 90
        7
 70
   128
 43
0.0
 10
3598.144452753548
 20
1109.299582746143
 10
3598.144835236158
 20
1109.299283620497
 10
3598.145218897928
 20
1109.299104869238
 10
3598.145866967109
 20
1109.298996959705
 10
3598.146272959934
 20
1109.299038600743
 10
3598.146652165141
 20
1109.299157540218
 10
3598.147281180672
 20
1109.299582746143
  0
LWPOLYLINE
  5
1597
330
1F
100
AcDbEntity
  8
Sanindusa
100
AcDbPolyline
 90
        4
 70
   128
 43
0.0
 10
3598.14786696711
 20
1109.309454088736
 10
3598.147759049002
 20
1109.310102182953
 10
3598.14758029608
 20
1109.31048583669
 10
3598.147281180672
 20
1109.310868302298
  0
LWPOLYLINE
  5
1598
330
1F
100
AcDbEntity
  8
Sanindusa
100
AcDbPolyline
 90
        4
 70
   128
 43
0.0
 10
3598.147253028327
 20
1109.334938085203
 10
3598.147678234354
 20
1109.335567100973
 10
3598.147797173766
 20
1109.335946306131
 10
3598.147838814764
 20
1109.336352298765
  0
LWPOLYLINE
  5
1599
330
1F
100
AcDbEntity
  8
Sanindusa
100
AcDbPolyline
 90
        7
 70
   128
 43
0.0
 10
3598.144424601202
 20
1109.334938085203
 10
3598.144807083807
 20
1109.33463895956
 10
3598.145190745575
 20
1109.334460208301
 10
3598.145838814763
 20
1109.334352298765
 10
3598.146244807591
 20
1109.334393939803
 10
3598.146624012798
 20
1109.334512879279
 10
3598.147253028327
 20
1109.334938085203
  0
LINE
  5
159C
330
1F
100
AcDbEntity
  8
Sanindusa
100
AcDbLine
 10
3598.147838814764
 20
1109.344837580139
 30
0.0
 11
3598.147838814764
 21
1109.336352298765
 31
0.0
  0
LWPOLYLINE
  5
159E
330
1F
100
AcDbEntity
  8
Sanindusa
100
AcDbPolyline
 90
        4
 70
   128
 43
0.0
 10
3598.147838814764
 20
1109.34483758014
 10
3598.147730896658
 20
1109.345485674352
 10
3598.147552143736
 20
1109.345869328091
 10
3598.147253028327
 20
1109.346251793702
  0
LWPOLYLINE
  5
15B2
330
1F
100
AcDbEntity
  8
Sanindusa
100
AcDbPolyline
 90
        4
 70
   128
 43
0.0
 10
3598.147253028327
 20
1109.370293424262
 10
3598.14767823875
 20
1109.370922450332
 10
3598.147797175471
 20
1109.371301653414
 10
3598.147838814764
 20
1109.371707637824
  0
LWPOLYLINE
  5
15B3
330
1F
100
AcDbEntity
  8
Sanindusa
100
AcDbPolyline
 90
        7
 70
   128
 43
0.0
 10
3598.144424601202
 20
1109.370293424262
 10
3598.144807083805
 20
1109.369994298621
 10
3598.145190745571
 20
1109.369815547361
 10
3598.145838814763
 20
1109.369707637824
 10
3598.146244807589
 20
1109.369749278862
 10
3598.146624012796
 20
1109.369868218337
 10
3598.147253028327
 20
1109.370293424262
  0
LINE
  5
15B6
330
1F
100
AcDbEntity
  8
Sanindusa
100
AcDbLine
 10
3598.147838814764
 20
1109.380192919198
 30
0.0
 11
3598.147838814764
 21
1109.371707637824
 31
0.0
  0
LWPOLYLINE
  5
15B8
330
1F
100
AcDbEntity
  8
Sanindusa
100
AcDbPolyline
 90
        4
 70
   128
 43
0.0
 10
3598.147838814764
 20
1109.380192919199
 10
3598.147730896653
 20
1109.380841013424
 10
3598.147552143731
 20
1109.381224667159
 10
3598.147253028327
 20
1109.38160713276
  0
LWPOLYLINE
  5
15C8
330
1F
100
AcDbEntity
  8
Sanindusa
100
AcDbPolyline
 90
        4
 70
   128
 43
0.0
 10
3598.147253028327
 20
1109.405648763321
 10
3598.147678234351
 20
1109.406277779086
 10
3598.147797173766
 20
1109.406656984245
 10
3598.147838814764
 20
1109.407062976883
  0
LWPOLYLINE
  5
15C9
330
1F
100
AcDbEntity
  8
Sanindusa
100
AcDbPolyline
 90
        7
 70
   128
 43
0.0
 10
3598.144424601202
 20
1109.405648763321
 10
3598.144807083807
 20
1109.405349637678
 10
3598.145190745575
 20
1109.405170886419
 10
3598.145838814763
 20
1109.405062976883
 10
3598.146244807589
 20
1109.405104617921
 10
3598.146624012795
 20
1109.405223557395
 10
3598.147253028327
 20
1109.405648763321
  0
LINE
  5
15CC
330
1F
100
AcDbEntity
  8
Sanindusa
100
AcDbLine
 10
3598.147838814764
 20
1109.415548258259
 30
0.0
 11
3598.147838814764
 21
1109.407062976883
 31
0.0
  0
LWPOLYLINE
  5
15CE
330
1F
100
AcDbEntity
  8
Sanindusa
100
AcDbPolyline
 90
        4
 70
   128
 43
0.0
 10
3598.147838814764
 20
1109.415548258259
 10
3598.147730896653
 20
1109.416196352484
 10
3598.147552143731
 20
1109.416580006219
 10
3598.147253028327
 20
1109.416962471821
  0
LWPOLYLINE
  5
15DD
330
1F
100
AcDbEntity
  8
Sanindusa
100
AcDbPolyline
 90
        4
 70
   128
 43
0.0
 10
3598.147253028327
 20
1109.441004102381
 10
3598.14767823875
 20
1109.441633128451
 10
3598.147797175471
 20
1109.442012331533
 10
3598.147838814764
 20
1109.442418315944
  0
LWPOLYLINE
  5
15DE
330
1F
100
AcDbEntity
  8
Sanindusa
100
AcDbPolyline
 90
        7
 70
   128
 43
0.0
 10
3598.144424601202
 20
1109.441004102381
 10
3598.144807083802
 20
1109.440704976742
 10
3598.145190745567
 20
1109.440526225482
 10
3598.145838814763
 20
1109.440418315943
 10
3598.146244807591
 20
1109.440459956982
 10
3598.146624012798
 20
1109.440578896457
 10
3598.147253028327
 20
1109.441004102381
  0
LWPOLYLINE
  5
15E9
330
1F
100
AcDbEntity
  8
Sanindusa
100
AcDbPolyline
 90
       10
 70
   128
 43
0.0
 10
3597.615625526728
 20
1109.700502008315
 10
3597.610648611022
 20
1109.700116338867
 10
3597.606113762419
 20
1109.698846225576
 10
3597.60187647834
 20
1109.696670620591
 10
3597.59825019633
 20
1109.693729193065
 10
3597.595308800034
 20
1109.690102958955
 10
3597.594117937944
 20
1109.688053031611
 10
3597.593133163818
 20
1109.685865626977
 10
3597.591863055497
 20
1109.681330810156
 10
3597.591477381076
 20
1109.676353862669
  0
LWPOLYLINE
  5
15F0
330
1F
100
AcDbEntity
  8
Sanindusa
100
AcDbPolyline
 90
        9
 70
   128
 43
0.0
 10
3597.559694866352
 20
1109.742281537936
 10
3597.557666094501
 20
1109.742072566597
 10
3597.555771139705
 20
1109.741477528022
 10
3597.554075392454
 20
1109.740550068381
 10
3597.552627524065
 20
1109.739351865326
 10
3597.551429305436
 20
1109.737903974036
 10
3597.550501846864
 20
1109.736208215728
 10
3597.549906817162
 20
1109.734313267777
 10
3597.549697851454
 20
1109.732284523038
  0
LWPOLYLINE
  5
15F5
330
1F
100
AcDbEntity
  8
Sanindusa
100
AcDbPolyline
 90
        9
 70
   128
 43
0.0
 10
3597.599751283419
 20
1109.668079960314
 10
3597.600339099729
 20
1109.672743054495
 10
3597.601788417182
 20
1109.677210373603
 10
3597.604064017028
 20
1109.681347667855
 10
3597.607038774008
 20
1109.684940615384
 10
3597.610631680942
 20
1109.687915344734
 10
3597.614769015788
 20
1109.690190972208
 10
3597.619236334895
 20
1109.691640289662
 10
3597.623899429076
 20
1109.692228105972
  0
LINE
  5
15FA
330
1F
100
AcDbEntity
  8
Sanindusa
100
AcDbLine
 10
3597.823764118608
 20
1109.589698850673
 30
0.0
 11
3597.832241892691
 21
1109.589698850672
 31
0.0
  0
LINE
  5
1603
330
1F
100
AcDbEntity
  8
Sanindusa
100
AcDbLine
 10
3597.702280538719
 20
1109.468215270783
 30
0.0
 11
3597.702280538719
 21
1109.459737496699
 31
0.0
  0
LWPOLYLINE
  5
1609
330
1F
100
AcDbEntity
  8
Sanindusa
100
AcDbPolyline
 90
        4
 70
   128
 43
0.0
 10
3597.702280538718
 20
1109.4597374967
 10
3597.702388237781
 20
1109.459090042327
 10
3597.702566436119
 20
1109.458707034532
 10
3597.702864453301
 20
1109.458325157473
  0
LWPOLYLINE
  5
160D
330
1F
100
AcDbEntity
  8
Sanindusa
100
AcDbPolyline
 90
        4
 70
   128
 43
0.0
 10
3597.705696624135
 20
1109.46962761001
 10
3597.705313553838
 20
1109.46992783604
 10
3597.704929246131
 20
1109.470107142525
 10
3597.704280538719
 20
1109.470215270783
  0
LWPOLYLINE
  5
160E
330
1F
100
AcDbEntity
  8
Sanindusa
100
AcDbPolyline
 90
        5
 70
   128
 43
0.0
 10
3597.704280538719
 20
1109.470215270783
 10
3597.703515199065
 20
1109.470063041118
 10
3597.702866352925
 20
1109.469629512113
 10
3597.702432790924
 20
1109.468980664858
 10
3597.702280538718
 20
1109.468215270782
  0
LINE
  5
1618
330
1F
100
AcDbEntity
  8
Sanindusa
100
AcDbLine
 10
3597.702280538718
 20
1109.503570609842
 30
0.0
 11
3597.702280538718
 21
1109.495092835759
 31
0.0
  0
LWPOLYLINE
  5
161E
330
1F
100
AcDbEntity
  8
Sanindusa
100
AcDbPolyline
 90
        4
 70
   128
 43
0.0
 10
3597.702280538718
 20
1109.495092835759
 10
3597.70238823778
 20
1109.494445381391
 10
3597.702566436117
 20
1109.494062373595
 10
3597.702864453301
 20
1109.493680496533
  0
LWPOLYLINE
  5
1622
330
1F
100
AcDbEntity
  8
Sanindusa
100
AcDbPolyline
 90
        4
 70
   128
 43
0.0
 10
3597.705696624135
 20
1109.504982949068
 10
3597.705313553835
 20
1109.505283175101
 10
3597.704929246127
 20
1109.505462481586
 10
3597.704280538719
 20
1109.505570609842
  0
LWPOLYLINE
  5
1623
330
1F
100
AcDbEntity
  8
Sanindusa
100
AcDbPolyline
 90
        5
 70
   128
 43
0.0
 10
3597.704280538719
 20
1109.505570609842
 10
3597.703515199065
 20
1109.505418380178
 10
3597.702866352925
 20
1109.504984851172
 10
3597.702432790924
 20
1109.504336003917
 10
3597.702280538718
 20
1109.503570609841
  0
LINE
  5
162D
330
1F
100
AcDbEntity
  8
Sanindusa
100
AcDbLine
 10
3597.702280538717
 20
1109.53890848277
 30
0.0
 11
3597.702280538718
 21
1109.530423201396
 31
0.0
  0
LWPOLYLINE
  5
1632
330
1F
100
AcDbEntity
  8
Sanindusa
100
AcDbPolyline
 90
        4
 70
   128
 43
0.0
 10
3597.70569475228
 20
1109.540322696333
 10
3597.705312286681
 20
1109.540621811735
 10
3597.704928632947
 20
1109.540800564658
 10
3597.704280538719
 20
1109.54090848277
  0
LWPOLYLINE
  5
1633
330
1F
100
AcDbEntity
  8
Sanindusa
100
AcDbPolyline
 90
        5
 70
   128
 43
0.0
 10
3597.704280538718
 20
1109.54090848277
 10
3597.703515171853
 20
1109.540756241836
 10
3597.702866325156
 20
1109.540322696333
 10
3597.702432779653
 20
1109.539673849635
 10
3597.702280538718
 20
1109.53890848277
  0
LWPOLYLINE
  5
1638
330
1F
100
AcDbEntity
  8
Sanindusa
100
AcDbPolyline
 90
        4
 70
   128
 43
0.0
 10
3597.702280538718
 20
1109.530423201397
 10
3597.702388456829
 20
1109.529775107171
 10
3597.702567209752
 20
1109.529391453436
 10
3597.702866325156
 20
1109.529008987834
  0
LINE
  5
1642
330
1F
100
AcDbEntity
  8
Sanindusa
100
AcDbLine
 10
3597.702280538718
 20
1109.57426382183
 30
0.0
 11
3597.702280538718
 21
1109.565778540455
 31
0.0
  0
LWPOLYLINE
  5
1647
330
1F
100
AcDbEntity
  8
Sanindusa
100
AcDbPolyline
 90
        4
 70
   128
 43
0.0
 10
3597.70569475228
 20
1109.575678035393
 10
3597.705312286675
 20
1109.575977150798
 10
3597.704928632939
 20
1109.576155903721
 10
3597.704280538719
 20
1109.57626382183
  0
LWPOLYLINE
  5
1648
330
1F
100
AcDbEntity
  8
Sanindusa
100
AcDbPolyline
 90
        5
 70
   128
 43
0.0
 10
3597.704280538719
 20
1109.57626382183
 10
3597.703515199066
 20
1109.576111592167
 10
3597.702866352925
 20
1109.575678063162
 10
3597.702432790925
 20
1109.575029215907
 10
3597.702280538718
 20
1109.57426382183
  0
LWPOLYLINE
  5
164D
330
1F
100
AcDbEntity
  8
Sanindusa
100
AcDbPolyline
 90
        4
 70
   128
 43
0.0
 10
3597.702280538718
 20
1109.565778540456
 10
3597.702388452777
 20
1109.565130458057
 10
3597.702567204915
 20
1109.564746800527
 10
3597.702866325156
 20
1109.564364326893
  0
LWPOLYLINE
  5
1658
330
1F
100
AcDbEntity
  8
Sanindusa
100
AcDbPolyline
 90
        4
 70
   128
 43
0.0
 10
3597.727615062498
 20
1109.589113064235
 10
3597.727232596895
 20
1109.589412179639
 10
3597.726848943159
 20
1109.589590932562
 10
3597.726200848934
 20
1109.589698850673
  0
LINE
  5
165A
330
1F
100
AcDbEntity
  8
Sanindusa
100
AcDbLine
 10
3597.71771556756
 20
1109.589698850673
 30
0.0
 11
3597.726200848935
 21
1109.589698850673
 31
0.0
  0
LWPOLYLINE
  5
1661
330
1F
100
AcDbEntity
  8
Sanindusa
100
AcDbPolyline
 90
        5
 70
   128
 43
0.0
 10
3597.71771556756
 20
1109.589698850673
 10
3597.717118115449
 20
1109.589607528481
 10
3597.716584919274
 20
1109.589348588365
 10
3597.716158399761
 20
1109.588953931723
 10
3597.715867808557
 20
1109.588464217685
  0
LWPOLYLINE
  5
1662
330
1F
100
AcDbEntity
  8
Sanindusa
100
AcDbPolyline
 90
        5
 70
   128
 43
0.0
 10
3597.715867808495
 20
1109.588464217537
 10
3597.715742611646
 20
1109.588026638654
 10
3597.715727162864
 20
1109.587483800064
 10
3597.715893005426
 20
1109.586875280841
 10
3597.716301353998
 20
1109.58628463711
  0
LWPOLYLINE
  5
166D
330
1F
100
AcDbEntity
  8
Sanindusa
100
AcDbPolyline
 90
        4
 70
   128
 43
0.0
 10
3597.762970401557
 20
1109.589113064235
 10
3597.762587935954
 20
1109.589412179639
 10
3597.762204282219
 20
1109.589590932562
 10
3597.761556187993
 20
1109.589698850673
  0
LINE
  5
166F
330
1F
100
AcDbEntity
  8
Sanindusa
100
AcDbLine
 10
3597.75307090662
 20
1109.589698850673
 30
0.0
 11
3597.761556187994
 21
1109.589698850672
 31
0.0
  0
LWPOLYLINE
  5
1676
330
1F
100
AcDbEntity
  8
Sanindusa
100
AcDbPolyline
 90
        5
 70
   128
 43
0.0
 10
3597.75307090662
 20
1109.589698850673
 10
3597.752473454506
 20
1109.589607528479
 10
3597.75194025833
 20
1109.589348588362
 10
3597.751513738818
 20
1109.588953931721
 10
3597.751223147616
 20
1109.588464217685
  0
LWPOLYLINE
  5
1677
330
1F
100
AcDbEntity
  8
Sanindusa
100
AcDbPolyline
 90
        5
 70
   128
 43
0.0
 10
3597.751223147555
 20
1109.588464217537
 10
3597.751097950705
 20
1109.588026638649
 10
3597.751082501924
 20
1109.587483800058
 10
3597.751248344488
 20
1109.586875280837
 10
3597.751656693058
 20
1109.58628463711
  0
LINE
  5
167B
330
1F
100
AcDbEntity
  8
Sanindusa
100
AcDbLine
 10
3597.788435048283
 20
1109.589698850673
 30
0.0
 11
3597.796886553631
 21
1109.589698850673
 31
0.0
  0
LWPOLYLINE
  5
1685
330
1F
100
AcDbEntity
  8
Sanindusa
100
AcDbPolyline
 90
        5
 70
   128
 43
0.0
 10
3597.788435048283
 20
1109.589698850673
 10
3597.787837298609
 20
1109.589607435312
 10
3597.78730388017
 20
1109.58934823198
 10
3597.786877281133
 20
1109.588953187751
 10
3597.786586797106
 20
1109.588463028393
  0
LWPOLYLINE
  5
1686
330
1F
100
AcDbEntity
  8
Sanindusa
100
AcDbPolyline
 90
        5
 70
   128
 43
0.0
 10
3597.786586797046
 20
1109.588463028246
 10
3597.786461899053
 20
1109.588025472955
 10
3597.786446790387
 20
1109.58748244703
 10
3597.786613238486
 20
1109.586873617939
 10
3597.787022656137
 20
1109.586282818036
  0
LWPOLYLINE
  5
1692
330
1F
100
AcDbEntity
  8
Sanindusa
100
AcDbPolyline
 90
        5
 70
   128
 43
0.0
 10
3597.823764118608
 20
1109.589698850673
 10
3597.823166371646
 20
1109.589607436161
 10
3597.822632948483
 20
1109.589348230601
 10
3597.822206341522
 20
1109.58895317541
 10
3597.821915853154
 20
1109.588462993858
  0
LWPOLYLINE
  5
1693
330
1F
100
AcDbEntity
  8
Sanindusa
100
AcDbPolyline
 90
        5
 70
   128
 43
0.0
 10
3597.821915853093
 20
1109.588462993711
 10
3597.82179096378
 20
1109.588025439135
 10
3597.821775864983
 20
1109.587482407782
 10
3597.821942330667
 20
1109.586873569692
 10
3597.822351779381
 20
1109.586282765255
  0
LWPOLYLINE
  5
1695
330
1F
100
AcDbEntity
  8
Sanindusa
100
AcDbPolyline
 90
        4
 70
   128
 43
0.0
 10
3597.798298892858
 20
1109.58911493609
 10
3597.797917023829
 20
1109.589412948444
 10
3597.797534019823
 20
1109.589591147565
 10
3597.79688655363
 20
1109.589698850673
  0
LINE
  5
169A
330
1F
100
AcDbEntity
  8
Sanindusa
100
AcDbLine
 10
3598.010457774972
 20
1109.589113064235
 30
0.0
 11
3598.147253028328
 21
1109.452317810879
 31
0.0
  0
LWPOLYLINE
  5
169F
330
1F
100
AcDbEntity
  8
Sanindusa
100
AcDbPolyline
 90
        4
 70
   128
 43
0.0
 10
3598.147838814764
 20
1109.450903597318
 10
3598.147730896655
 20
1109.451551691538
 10
3598.147552143732
 20
1109.451935345274
 10
3598.147253028327
 20
1109.452317810879
  0
LINE
  5
16A4
330
1F
100
AcDbEntity
  8
Sanindusa
100
AcDbLine
 10
3598.045813114032
 20
1109.589113064235
 30
0.0
 11
3598.147253028328
 21
1109.487673149939
 31
0.0
  0
LINE
  5
16A5
330
1F
100
AcDbEntity
  8
Sanindusa
100
AcDbLine
 10
3598.034499405532
 20
1109.586284637111
 30
0.0
 11
3598.144424601202
 21
1109.47635944144
 31
0.0
  0
LWPOLYLINE
  5
16AE
330
1F
100
AcDbEntity
  8
Sanindusa
100
AcDbPolyline
 90
        4
 70
   128
 43
0.0
 10
3597.833654231918
 20
1109.58911493609
 10
3597.833272362896
 20
1109.58941294844
 10
3597.832889358894
 20
1109.589591147562
 10
3597.83224189269
 20
1109.589698850673
  0
LWPOLYLINE
  5
16B9
330
1F
100
AcDbEntity
  8
Sanindusa
100
AcDbPolyline
 90
        4
 70
   128
 43
0.0
 10
3597.869036418734
 20
1109.589113064235
 10
3597.868653953133
 20
1109.589412179639
 10
3597.868270299397
 20
1109.589590932562
 10
3597.867622205171
 20
1109.589698850673
  0
LINE
  5
16BB
330
1F
100
AcDbEntity
  8
Sanindusa
100
AcDbLine
 10
3597.859165076143
 20
1109.589698850673
 30
0.0
 11
3597.867622205173
 21
1109.589698850673
 31
0.0
  0
LWPOLYLINE
  5
16C1
330
1F
100
AcDbEntity
  8
Sanindusa
100
AcDbPolyline
 90
        5
 70
   128
 43
0.0
 10
3597.859165076143
 20
1109.589698850673
 10
3597.858567635339
 20
1109.58960753202
 10
3597.858034440888
 20
1109.589348597295
 10
3597.857607915779
 20
1109.588953940948
 10
3597.857317317139
 20
1109.588464217685
  0
LWPOLYLINE
  5
16C2
330
1F
100
AcDbEntity
  8
Sanindusa
100
AcDbPolyline
 90
        5
 70
   128
 43
0.0
 10
3597.857317317078
 20
1109.588464217537
 10
3597.857192120228
 20
1109.588026638649
 10
3597.857176671447
 20
1109.587483800058
 10
3597.857342514011
 20
1109.586875280837
 10
3597.85775086258
 20
1109.58628463711
  0
LWPOLYLINE
  5
16CE
330
1F
100
AcDbEntity
  8
Sanindusa
100
AcDbPolyline
 90
        4
 70
   128
 43
0.0
 10
3597.904391757794
 20
1109.589113064235
 10
3597.904009292185
 20
1109.589412179643
 10
3597.903625638446
 20
1109.589590932565
 10
3597.90297754423
 20
1109.589698850673
  0
LINE
  5
16D0
330
1F
100
AcDbEntity
  8
Sanindusa
100
AcDbLine
 10
3597.894492262857
 20
1109.589698850673
 30
0.0
 11
3597.902977544231
 21
1109.589698850673
 31
0.0
  0
LWPOLYLINE
  5
16D7
330
1F
100
AcDbEntity
  8
Sanindusa
100
AcDbPolyline
 90
        5
 70
   128
 43
0.0
 10
3597.894492262856
 20
1109.589698850673
 10
3597.893894810749
 20
1109.589607528481
 10
3597.893361614574
 20
1109.589348588366
 10
3597.892935095059
 20
1109.588953931725
 10
3597.892644503853
 20
1109.588464217685
  0
LWPOLYLINE
  5
16D8
330
1F
100
AcDbEntity
  8
Sanindusa
100
AcDbPolyline
 90
        5
 70
   128
 43
0.0
 10
3597.892644503792
 20
1109.588464217537
 10
3597.892519306943
 20
1109.588026638654
 10
3597.892503858162
 20
1109.587483800063
 10
3597.892669700723
 20
1109.586875280841
 10
3597.893078049295
 20
1109.58628463711
  0
LWPOLYLINE
  5
16E3
330
1F
100
AcDbEntity
  8
Sanindusa
100
AcDbPolyline
 90
        4
 70
   128
 43
0.0
 10
3597.939747096853
 20
1109.589113064235
 10
3597.939364631251
 20
1109.589412179639
 10
3597.938980977515
 20
1109.589590932562
 10
3597.93833288329
 20
1109.589698850673
  0
LINE
  5
16E5
330
1F
100
AcDbEntity
  8
Sanindusa
100
AcDbLine
 10
3597.929847601916
 20
1109.589698850673
 30
0.0
 11
3597.93833288329
 21
1109.589698850673
 31
0.0
  0
LWPOLYLINE
  5
16EC
330
1F
100
AcDbEntity
  8
Sanindusa
100
AcDbPolyline
 90
        5
 70
   128
 43
0.0
 10
3597.929847601916
 20
1109.589698850673
 10
3597.929250149806
 20
1109.589607528481
 10
3597.928716953632
 20
1109.589348588365
 10
3597.928290434117
 20
1109.588953931724
 10
3597.927999842912
 20
1109.588464217685
  0
LWPOLYLINE
  5
16ED
330
1F
100
AcDbEntity
  8
Sanindusa
100
AcDbPolyline
 90
        5
 70
   128
 43
0.0
 10
3597.927999842851
 20
1109.588464217537
 10
3597.927874646003
 20
1109.588026638655
 10
3597.92785919722
 20
1109.587483800066
 10
3597.928025039781
 20
1109.586875280843
 10
3597.928433388354
 20
1109.58628463711
  0
LWPOLYLINE
  5
16F2
330
1F
100
AcDbEntity
  8
Sanindusa
100
AcDbPolyline
 90
        5
 70
   128
 43
0.0
 10
3597.99871052097
 20
1109.588464217537
 10
3597.998585324122
 20
1109.588026638658
 10
3597.998569875338
 20
1109.587483800069
 10
3597.998735717899
 20
1109.586875280845
 10
3597.999144066473
 20
1109.58628463711
  0
LINE
  5
16F4
330
1F
100
AcDbEntity
  8
Sanindusa
100
AcDbLine
 10
3597.965202940976
 20
1109.589698850673
 30
0.0
 11
3597.97368822235
 21
1109.589698850672
 31
0.0
  0
LWPOLYLINE
  5
16FE
330
1F
100
AcDbEntity
  8
Sanindusa
100
AcDbPolyline
 90
        5
 70
   128
 43
0.0
 10
3597.965202940976
 20
1109.589698850673
 10
3597.964605500173
 20
1109.58960753202
 10
3597.964072305722
 20
1109.589348597296
 10
3597.963645780612
 20
1109.588953940948
 10
3597.963355181973
 20
1109.588464217685
  0
LWPOLYLINE
  5
16FF
330
1F
100
AcDbEntity
  8
Sanindusa
100
AcDbPolyline
 90
        5
 70
   128
 43
0.0
 10
3597.963355181911
 20
1109.588464217537
 10
3597.963229985061
 20
1109.588026638649
 10
3597.963214536281
 20
1109.587483800058
 10
3597.963380378843
 20
1109.586875280837
 10
3597.963788727414
 20
1109.58628463711
  0
LWPOLYLINE
  5
1705
330
1F
100
AcDbEntity
  8
Sanindusa
100
AcDbPolyline
 90
        4
 70
   128
 43
0.0
 10
3597.975102435913
 20
1109.589113064235
 10
3597.974719970311
 20
1109.589412179639
 10
3597.974336316575
 20
1109.589590932562
 10
3597.973688222349
 20
1109.589698850673
  0
LWPOLYLINE
  5
170F
330
1F
100
AcDbEntity
  8
Sanindusa
100
AcDbPolyline
 90
        4
 70
   128
 43
0.0
 10
3598.010457774972
 20
1109.589113064235
 10
3598.01007530937
 20
1109.589412179639
 10
3598.009691655634
 20
1109.589590932562
 10
3598.009043561409
 20
1109.589698850673
  0
LINE
  5
1711
330
1F
100
AcDbEntity
  8
Sanindusa
100
AcDbLine
 10
3598.000558280035
 20
1109.589698850673
 30
0.0
 11
3598.00904356141
 21
1109.589698850673
 31
0.0
  0
LWPOLYLINE
  5
1718
330
1F
100
AcDbEntity
  8
Sanindusa
100
AcDbPolyline
 90
        5
 70
   128
 43
0.0
 10
3598.000558280035
 20
1109.589698850673
 10
3597.999960839234
 20
1109.589607532021
 10
3597.999427644783
 20
1109.589348597297
 10
3597.999001119673
 20
1109.58895394095
 10
3597.998710521031
 20
1109.588464217685
  0
LWPOLYLINE
  5
1722
330
1F
100
AcDbEntity
  8
Sanindusa
100
AcDbPolyline
 90
        4
 70
   128
 43
0.0
 10
3598.045813114031
 20
1109.589113064235
 10
3598.045430648428
 20
1109.589412179639
 10
3598.045046994693
 20
1109.589590932562
 10
3598.044398900467
 20
1109.589698850673
  0
LINE
  5
1724
330
1F
100
AcDbEntity
  8
Sanindusa
100
AcDbLine
 10
3598.035913619094
 20
1109.589698850673
 30
0.0
 11
3598.044398900468
 21
1109.589698850672
 31
0.0
  0
LWPOLYLINE
  5
172B
330
1F
100
AcDbEntity
  8
Sanindusa
100
AcDbPolyline
 90
        5
 70
   128
 43
0.0
 10
3598.035913619094
 20
1109.589698850673
 10
3598.035316166979
 20
1109.589607528479
 10
3598.034782970803
 20
1109.589348588361
 10
3598.034356451292
 20
1109.58895393172
 10
3598.03406586009
 20
1109.588464217685
  0
LWPOLYLINE
  5
172C
330
1F
100
AcDbEntity
  8
Sanindusa
100
AcDbPolyline
 90
        5
 70
   128
 43
0.0
 10
3598.034065860029
 20
1109.588464217537
 10
3598.03394066318
 20
1109.588026638654
 10
3598.033925214398
 20
1109.587483800064
 10
3598.03409105696
 20
1109.586875280841
 10
3598.034499405532
 20
1109.58628463711
  0
LINE
  5
1730
330
1F
100
AcDbEntity
  8
Sanindusa
100
AcDbLine
 10
3598.147838814764
 20
1109.556969614495
 30
0.0
 11
3598.147838814764
 21
1109.548484333121
 31
0.0
  0
LINE
  5
1731
330
1F
100
AcDbEntity
  8
Sanindusa
100
AcDbLine
 10
3598.10521008365
 20
1109.586284637111
 30
0.0
 11
3598.144424601203
 21
1109.547070119559
 31
0.0
  0
LINE
  5
1734
330
1F
100
AcDbEntity
  8
Sanindusa
100
AcDbLine
 10
3598.08116845309
 20
1109.589113064235
 30
0.0
 11
3598.147253028327
 21
1109.523028488998
 31
0.0
  0
LINE
  5
1735
330
1F
100
AcDbEntity
  8
Sanindusa
100
AcDbLine
 10
3598.144424601202
 20
1109.5117147805
 30
0.0
 11
3598.069854744591
 21
1109.58628463711
 31
0.0
  0
LWPOLYLINE
  5
173C
330
1F
100
AcDbEntity
  8
Sanindusa
100
AcDbPolyline
 90
        4
 70
   128
 43
0.0
 10
3598.147253028327
 20
1109.5117147805
 10
3598.147678234962
 20
1109.512343797694
 10
3598.147797174002
 20
1109.512723002565
 10
3598.147838814764
 20
1109.513128994061
  0
LWPOLYLINE
  5
1743
330
1F
100
AcDbEntity
  8
Sanindusa
100
AcDbPolyline
 90
        4
 70
   128
 43
0.0
 10
3598.147253028327
 20
1109.47635944144
 10
3598.147678234353
 20
1109.476988457207
 10
3598.147797173766
 20
1109.477367662365
 10
3598.147838814764
 20
1109.477773655002
  0
LWPOLYLINE
  5
1744
330
1F
100
AcDbEntity
  8
Sanindusa
100
AcDbPolyline
 90
        7
 70
   128
 43
0.0
 10
3598.144424601202
 20
1109.47635944144
 10
3598.14480708381
 20
1109.476060315795
 10
3598.145190745579
 20
1109.475881564536
 10
3598.145838814763
 20
1109.475773655002
 10
3598.146244807589
 20
1109.47581529604
 10
3598.146624012796
 20
1109.475934235515
 10
3598.147253028327
 20
1109.47635944144
  0
LINE
  5
1747
330
1F
100
AcDbEntity
  8
Sanindusa
100
AcDbLine
 10
3598.147838814764
 20
1109.486258936376
 30
0.0
 11
3598.147838814764
 21
1109.477773655002
 31
0.0
  0
LWPOLYLINE
  5
1749
330
1F
100
AcDbEntity
  8
Sanindusa
100
AcDbPolyline
 90
        4
 70
   128
 43
0.0
 10
3598.147838814764
 20
1109.486258936377
 10
3598.147730896656
 20
1109.486907030594
 10
3598.147552143733
 20
1109.487290684331
 10
3598.147253028327
 20
1109.487673149939
  0
LWPOLYLINE
  5
174A
330
1F
100
AcDbEntity
  8
Sanindusa
100
AcDbPolyline
 90
        7
 70
   128
 43
0.0
 10
3598.144424601202
 20
1109.511714780499
 10
3598.144807081054
 20
1109.511415656514
 10
3598.145190741521
 20
1109.511236904985
 10
3598.145838814764
 20
1109.511128994062
 10
3598.146244806325
 20
1109.511170634837
 10
3598.146624011212
 20
1109.511289573898
 10
3598.147253028327
 20
1109.5117147805
  0
LINE
  5
1760
330
1F
100
AcDbEntity
  8
Sanindusa
100
AcDbLine
 10
3598.147838814764
 20
1109.521614275436
 30
0.0
 11
3598.147838814765
 21
1109.513128994061
 31
0.0
  0
LWPOLYLINE
  5
1763
330
1F
100
AcDbEntity
  8
Sanindusa
100
AcDbPolyline
 90
        4
 70
   128
 43
0.0
 10
3598.147838814764
 20
1109.521614275436
 10
3598.147730893366
 20
1109.522262379257
 10
3598.147552139806
 20
1109.522646029913
 10
3598.147253028327
 20
1109.523028488998
  0
LWPOLYLINE
  5
1764
330
1F
100
AcDbEntity
  8
Sanindusa
100
AcDbPolyline
 90
        4
 70
   128
 43
0.0
 10
3598.147253028327
 20
1109.547070119559
 10
3598.147678234353
 20
1109.547699135327
 10
3598.147797173766
 20
1109.548078340485
 10
3598.147838814764
 20
1109.548484333121
  0
LWPOLYLINE
  5
1765
330
1F
100
AcDbEntity
  8
Sanindusa
100
AcDbPolyline
 90
        7
 70
   128
 43
0.0
 10
3598.144424601202
 20
1109.547070119559
 10
3598.144807083807
 20
1109.546770993916
 10
3598.145190745575
 20
1109.546592242657
 10
3598.145838814763
 20
1109.546484333121
 10
3598.146244807591
 20
1109.546525974159
 10
3598.146624012798
 20
1109.546644913635
 10
3598.147253028327
 20
1109.547070119559
  0
LINE
  5
1774
330
1F
100
AcDbEntity
  8
Sanindusa
100
AcDbLine
 10
3598.106624297213
 20
1109.589698850673
 30
0.0
 11
3598.115109578588
 21
1109.589698850673
 31
0.0
  0
LINE
  5
177D
330
1F
100
AcDbEntity
  8
Sanindusa
100
AcDbLine
 10
3598.071268958154
 20
1109.589698850673
 30
0.0
 11
3598.079754239528
 21
1109.589698850672
 31
0.0
  0
LWPOLYLINE
  5
1780
330
1F
100
AcDbEntity
  8
Sanindusa
100
AcDbPolyline
 90
        4
 70
   128
 43
0.0
 10
3598.08116845309
 20
1109.589113064235
 10
3598.080785994294
 20
1109.58941217554
 10
3598.080402343774
 20
1109.589590929129
 10
3598.079754239528
 20
1109.589698850673
  0
LWPOLYLINE
  5
1787
330
1F
100
AcDbEntity
  8
Sanindusa
100
AcDbPolyline
 90
        5
 70
   128
 43
0.0
 10
3598.071268958154
 20
1109.589698850673
 10
3598.070671516819
 20
1109.589607531853
 10
3598.070138322287
 20
1109.589348596876
 10
3598.069711797441
 20
1109.588953940515
 10
3598.06942119915
 20
1109.588464217685
  0
LWPOLYLINE
  5
1788
330
1F
100
AcDbEntity
  8
Sanindusa
100
AcDbPolyline
 90
        5
 70
   128
 43
0.0
 10
3598.06942119915
 20
1109.588464217685
 10
3598.069296001075
 20
1109.588026631642
 10
3598.069280554486
 20
1109.587483790561
 10
3598.069446398979
 20
1109.586875274291
 10
3598.069854744591
 20
1109.586284637111
  0
LWPOLYLINE
  5
1794
330
1F
100
AcDbEntity
  8
Sanindusa
100
AcDbPolyline
 90
        5
 70
   128
 43
0.0
 10
3598.106624297213
 20
1109.589698850673
 10
3598.106026845103
 20
1109.589607528481
 10
3598.105493648928
 20
1109.589348588365
 10
3598.105067129414
 20
1109.588953931724
 10
3598.104776538209
 20
1109.588464217685
  0
LWPOLYLINE
  5
1795
330
1F
100
AcDbEntity
  8
Sanindusa
100
AcDbPolyline
 90
        5
 70
   128
 43
0.0
 10
3598.104776538148
 20
1109.588464217537
 10
3598.104651341299
 20
1109.588026638654
 10
3598.104635892517
 20
1109.587483800064
 10
3598.104801735079
 20
1109.586875280842
 10
3598.105210083651
 20
1109.58628463711
  0
LINE
  5
1797
330
1F
100
AcDbEntity
  8
Sanindusa
100
AcDbLine
 10
3598.11652379215
 20
1109.589113064235
 30
0.0
 11
3598.147253028328
 21
1109.558383828057
 31
0.0
  0
LWPOLYLINE
  5
179E
330
1F
100
AcDbEntity
  8
Sanindusa
100
AcDbPolyline
 90
        4
 70
   128
 43
0.0
 10
3598.11652379215
 20
1109.589113064235
 10
3598.116141326542
 20
1109.589412179642
 10
3598.115757672804
 20
1109.589590932565
 10
3598.115109578586
 20
1109.589698850673
  0
LWPOLYLINE
  5
17A5
330
1F
100
AcDbEntity
  8
Sanindusa
100
AcDbPolyline
 90
        4
 70
   128
 43
0.0
 10
3598.147838814764
 20
1109.556969614496
 10
3598.147730896659
 20
1109.557617708705
 10
3598.147552143737
 20
1109.558001362445
 10
3598.147253028327
 20
1109.558383828058
  0
ARC
  5
17AA
330
1F
100
AcDbEntity
  8
Sanindusa
100
AcDbCircle
 10
3598.498317617189
 20
1109.299517461748
 30
0.0
 40
0.0080000000000004
100
AcDbArc
 50
90.0
 51
178.5999999963372
  0
LINE
  5
17AB
330
1F
100
AcDbEntity
  8
Sanindusa
100
AcDbLine
 10
3598.524372128277
 20
1109.307517461748
 30
0.0
 11
3598.498317617189
 21
1109.307517461748
 31
0.0
  0
LINE
  5
17AC
330
1F
100
AcDbEntity
  8
Sanindusa
100
AcDbLine
 10
3598.556247680547
 20
1109.307517461748
 30
0.0
 11
3598.524372128277
 21
1109.307517461748
 31
0.0
  0
LINE
  5
17AD
330
1F
100
AcDbEntity
  8
Sanindusa
100
AcDbLine
 10
3598.499558871105
 20
1109.227517461748
 30
0.0
 11
3598.490605062442
 21
1109.227517461748
 31
0.0
  0
ARC
  5
17AE
330
1F
100
AcDbEntity
  8
Sanindusa
100
AcDbCircle
 10
3598.490605062442
 20
1109.229517461748
 30
0.0
 40
0.0020000000004302
100
AcDbArc
 50
178.6000000088997
 51
270.0
  0
LINE
  5
17AF
330
1F
100
AcDbEntity
  8
Sanindusa
100
AcDbLine
 10
3598.499558870889
 20
1109.227517461748
 30
0.0
 11
3598.509555885875
 21
1109.227517461748
 31
0.0
  0
LINE
  5
17B0
330
1F
100
AcDbEntity
  8
Sanindusa
100
AcDbLine
 10
3598.490320005271
 20
1109.299712919174
 30
0.0
 11
3598.488605659462
 21
1109.229566326104
 31
0.0
  0
LWPOLYLINE
  5
17B1
330
1F
100
AcDbEntity
  8
Sanindusa
100
AcDbPolyline
 90
        9
 70
   128
 43
0.0
 10
3598.24572600199
 20
1109.070401533058
 10
3598.24513818568
 20
1109.065738438878
 10
3598.243688868226
 20
1109.061271119769
 10
3598.241413268374
 20
1109.057133825507
 10
3598.238438511402
 20
1109.053540877989
 10
3598.234845604449
 20
1109.050566148628
 10
3598.230708269621
 20
1109.048290521164
 10
3598.226240950513
 20
1109.046841203711
 10
3598.221577856333
 20
1109.046253387401
  0
LWPOLYLINE
  5
17B4
330
1F
100
AcDbEntity
  8
Sanindusa
100
AcDbPolyline
 90
       10
 70
   128
 43
0.0
 10
3598.234151653999
 20
1109.033679589725
 10
3598.239128569709
 20
1109.034065259179
 10
3598.243663418325
 20
1109.035335372476
 10
3598.247900702352
 20
1109.03751097743
 10
3598.251526984409
 20
1109.040452404993
 10
3598.254468380702
 20
1109.0440786391
 10
3598.255659242793
 20
1109.046128566444
 10
3598.256644016922
 20
1109.04831597108
 10
3598.257914125222
 20
1109.05285078779
 10
3598.258299799666
 20
1109.057827735382
  0
LINE
  5
17B6
330
1F
100
AcDbEntity
  8
Sanindusa
100
AcDbLine
 10
3598.300079329277
 20
1109.73228452304
 30
0.0
 11
3598.300079329279
 21
1109.00189707501
 31
0.0
  0
LWPOLYLINE
  5
17C7
330
1F
100
AcDbEntity
  8
Sanindusa
100
AcDbPolyline
 90
        9
 70
   128
 43
0.0
 10
3598.29008231438
 20
1108.991900060113
 10
3598.292111078464
 20
1108.992109029838
 10
3598.294006031299
 20
1108.992704065871
 10
3598.295701781718
 20
1108.993631525206
 10
3598.297149656667
 20
1108.994829732724
 10
3598.298347870858
 20
1108.996277617489
 10
3598.299275329734
 20
1108.997973372646
 10
3598.299870361965
 20
1108.999868322547
 10
3598.300079329277
 20
1109.00189707501
  0
LINE
  5
17CC
330
1F
100
AcDbEntity
  8
Sanindusa
100
AcDbLine
 10
3598.25829979966
 20
1109.057827735388
 30
0.0
 11
3598.25829979966
 21
1109.676353862507
 31
0.0
  0
LINE
  5
17CE
330
1F
100
AcDbEntity
  8
Sanindusa
100
AcDbLine
 10
3598.245100636453
 20
1109.22466232455
 30
0.0
 11
3598.247131082001
 21
1109.66518514501
 31
0.0
  0
LWPOLYLINE
  5
17D0
330
1F
100
AcDbEntity
  8
Sanindusa
100
AcDbPolyline
 90
        9
 70
   128
 43
0.0
 10
3598.188595343933
 20
1109.160431857282
 10
3598.192304496438
 20
1109.154247946651
 10
3598.194868749978
 20
1109.147508526215
 10
3598.196208206529
 20
1109.1404235855
 10
3598.196281130774
 20
1109.133213879886
 10
3598.195085250512
 20
1109.12610405223
 10
3598.19265782745
 20
1109.11931563335
 10
3598.189074496197
 20
1109.113060139486
 10
3598.184446907604
 20
1109.107532481786
  0
LINE
  5
17D2
330
1F
100
AcDbEntity
  8
Sanindusa
100
AcDbLine
 10
3598.245100636452
 20
1109.204829294239
 30
0.0
 11
3598.245726001989
 21
1109.070401533058
 31
0.0
  0
LWPOLYLINE
  5
17DA
330
1F
100
AcDbEntity
  8
Sanindusa
100
AcDbPolyline
 90
        3
 70
   128
 43
0.0
 10
3598.178229648667
 20
1109.170797552575
 10
3598.183821990442
 20
1109.166024199263
 10
3598.188595343966
 20
1109.160431857276
  0
LINE
  5
17DD
330
1F
100
AcDbEntity
  8
Sanindusa
100
AcDbLine
 10
3598.245100636453
 20
1109.22466232455
 30
0.0
 11
3598.245100636452
 21
1109.204829294239
 31
0.0
  0
LWPOLYLINE
  5
17E1
330
1F
100
AcDbEntity
  8
Sanindusa
100
AcDbPolyline
 90
        9
 70
   128
 43
0.0
 10
3598.223090281962
 20
1109.689440636278
 10
3598.227731970729
 20
1109.688831414555
 10
3598.232178930234
 20
1109.687361737497
 10
3598.236288961265
 20
1109.685073338775
 10
3598.239874397097
 20
1109.682076605755
 10
3598.242830016888
 20
1109.678479439371
 10
3598.245101826256
 20
1109.674323436309
 10
3598.246545202122
 20
1109.669850175613
 10
3598.247131082001
 20
1109.665185145003
  0
LWPOLYLINE
  5
17E4
330
1F
100
AcDbEntity
  8
Sanindusa
100
AcDbPolyline
 90
       10
 70
   128
 43
0.0
 10
3598.258299799657
 20
1109.676353862649
 10
3598.257914130208
 20
1109.681330778351
 10
3598.256644016906
 20
1109.685865626974
 10
3598.254468411862
 20
1109.690102911146
 10
3598.251526984398
 20
1109.693729193067
 10
3598.247900750288
 20
1109.696670589359
 10
3598.245850822941
 20
1109.697861451446
 10
3598.243663418302
 20
1109.698846225571
 10
3598.239128587635
 20
1109.70011633669
 10
3598.234151654
 20
1109.700502008315
  0
LWPOLYLINE
  5
17EE
330
1F
100
AcDbEntity
  8
Sanindusa
100
AcDbPolyline
 90
        9
 70
   128
 43
0.0
 10
3598.300079329277
 20
1109.732284523039
 10
3598.299870357955
 20
1109.734313294804
 10
3598.299275319408
 20
1109.736208249577
 10
3598.298347859772
 20
1109.737903996864
 10
3598.297149656667
 20
1109.739351865325
 10
3598.2957017718
 20
1109.740550079585
 10
3598.294006016593
 20
1109.741477538456
 10
3598.292111066723
 20
1109.742072570648
 10
3598.29008231438
 20
1109.742281537935
  0
LINE
  5
17FA
330
1F
100
AcDbEntity
  8
Sanindusa
100
AcDbLine
 10
3599.232703871177
 20
1109.307517461748
 30
0.0
 11
3599.206649359721
 21
1109.307517461748
 31
0.0
  0
ARC
  5
17FB
330
1F
100
AcDbEntity
  8
Sanindusa
100
AcDbCircle
 10
3599.232703871177
 20
1109.299517461748
 30
0.0
 40
0.0080000000000004
100
AcDbArc
 50
1.400000003636705
 51
90.0
  0
LINE
  5
17FC
330
1F
100
AcDbEntity
  8
Sanindusa
100
AcDbLine
 10
3599.206649359721
 20
1109.307517461748
 30
0.0
 11
3599.174773807819
 21
1109.307517461748
 31
0.0
  0
LINE
  5
17FD
330
1F
100
AcDbEntity
  8
Sanindusa
100
AcDbLine
 10
3599.240416425924
 20
1109.227517461748
 30
0.0
 11
3599.231462617261
 21
1109.227517461748
 31
0.0
  0
LINE
  5
17FE
330
1F
100
AcDbEntity
  8
Sanindusa
100
AcDbLine
 10
3599.221465602579
 20
1109.227517461748
 30
0.0
 11
3599.231462617477
 21
1109.227517461748
 31
0.0
  0
ARC
  5
17FF
330
1F
100
AcDbEntity
  8
Sanindusa
100
AcDbCircle
 10
3599.240416425924
 20
1109.229517461748
 30
0.0
 40
0.0020000000004302
100
AcDbArc
 50
270.0
 51
1.399999991100302
  0
LINE
  5
1800
330
1F
100
AcDbEntity
  8
Sanindusa
100
AcDbLine
 10
3599.242415828904
 20
1109.229566326104
 30
0.0
 11
3599.240701483096
 21
1109.299712919174
 31
0.0
  0
LWPOLYLINE
  5
1801
330
1F
100
AcDbEntity
  8
Sanindusa
100
AcDbPolyline
 90
        6
 70
   128
 43
0.0
 10
3600.890251461502
 20
1109.227517461748
 10
3600.89088691943
 20
1109.227558006807
 10
3600.892492705419
 20
1109.228047917423
 10
3600.893845808133
 20
1109.229041735328
 10
3600.894793675458
 20
1109.230427415032
 10
3600.894949924935
 20
1109.230807361031
  0
LINE
  5
1802
330
1F
100
AcDbEntity
  8
Sanindusa
100
AcDbLine
 10
3601.131985166412
 20
1109.256277764385
 30
0.0
 11
3600.407863400528
 21
1109.270863366799
 31
0.0
  0
LINE
  5
1803
330
1F
100
AcDbEntity
  8
Sanindusa
100
AcDbLine
 10
3600.869569622981
 20
1109.307517461748
 30
0.0
 11
3601.304812321573
 21
1109.307517461748
 31
0.0
  0
LINE
  5
1804
330
1F
100
AcDbEntity
  8
Sanindusa
100
AcDbLine
 10
3601.299348219849
 20
1109.301588014109
 30
0.0
 11
3600.864105521472
 21
1109.301588014109
 31
0.0
  0
LINE
  5
1805
330
1F
100
AcDbEntity
  8
Sanindusa
100
AcDbLine
 10
3601.180369867696
 20
1109.265120014547
 30
0.0
 11
3600.864105521365
 21
1109.271490360296
 31
0.0
  0
LINE
  5
1806
330
1F
100
AcDbEntity
  8
Sanindusa
100
AcDbLine
 10
3600.992787804095
 20
1109.227517461748
 30
0.0
 11
3600.890251461502
 21
1109.227517461748
 31
0.0
  0
LINE
  5
1807
330
1F
100
AcDbEntity
  8
Sanindusa
100
AcDbLine
 10
3600.544741690008
 20
1109.271106908198
 30
0.0
 11
3601.074777894485
 21
1109.260430668776
 31
0.0
  0
LINE
  5
1808
330
1F
100
AcDbEntity
  8
Sanindusa
100
AcDbLine
 10
3600.544721348778
 20
1109.27010711508
 30
0.0
 11
3601.074757553279
 21
1109.259430873616
 31
0.0
  0
LWPOLYLINE
  5
180A
330
1F
100
AcDbEntity
  8
Sanindusa
100
AcDbPolyline
 90
        6
 70
   128
 43
0.0
 10
3600.428411739356
 20
1109.260447444069
 10
3600.426750534534
 20
1109.260198879125
 10
3600.4252652721
 20
1109.259414340611
 10
3600.424123966307
 20
1109.258182764949
 10
3600.423454855014
 20
1109.256643219977
 10
3600.423347824542
 20
1109.256062382237
  0
LINE
  5
180B
330
1F
100
AcDbEntity
  8
Sanindusa
100
AcDbLine
 10
3600.389248086062
 20
1109.307517461748
 30
0.0
 11
3600.824490784654
 21
1109.307517461748
 31
0.0
  0
LINE
  5
180C
330
1F
100
AcDbEntity
  8
Sanindusa
100
AcDbLine
 10
3600.829954886163
 20
1109.301588014109
 30
0.0
 11
3600.394712187787
 21
1109.301588014109
 31
0.0
  0
LINE
  5
180D
330
1F
100
AcDbEntity
  8
Sanindusa
100
AcDbLine
 10
3600.829954886271
 20
1109.271820541841
 30
0.0
 11
3600.402731311089
 21
1109.280425880754
 31
0.0
  0
LINE
  5
180E
330
1F
100
AcDbEntity
  8
Sanindusa
100
AcDbLine
 10
3600.571825819498
 20
1109.227517461748
 30
0.0
 11
3600.419781868147
 21
1109.227517461748
 31
0.0
  0
LINE
  5
1814
330
1F
100
AcDbEntity
  8
Sanindusa
100
AcDbLine
 10
3600.386617080163
 20
1109.275710786736
 30
0.0
 11
3600.378353715824
 21
1109.297517461748
 31
0.0
  0
ARC
  5
1815
330
1F
100
AcDbEntity
  8
Sanindusa
100
AcDbCircle
 10
3600.408129519202
 20
1109.283867552241
 30
0.0
 40
0.0230069080923827
100
AcDbArc
 50
200.7737440399762
 51
268.8276760159926
  0
LWPOLYLINE
  5
1816
330
1F
100
AcDbEntity
  8
Sanindusa
100
AcDbPolyline
 90
        6
 70
   128
 43
0.0
 10
3600.407662016657
 20
1109.260865394778
 10
3600.414327896899
 20
1109.260731127472
 10
3600.41382769612
 20
1109.259580225368
 10
3600.413459800249
 20
1109.257583711637
 10
3600.410977050215
 20
1109.237517461748
 10
3600.393121365532
 20
1109.237517461748
  0
ARC
  5
1817
330
1F
100
AcDbEntity
  8
Sanindusa
100
AcDbCircle
 10
3600.383120640438
 20
1109.230016011715
 30
0.0
 40
0.0125014501168045
100
AcDbArc
 50
36.87322027874083
 51
90.01477997309502
  0
ARC
  5
1818
330
1F
100
AcDbEntity
  8
Sanindusa
100
AcDbCircle
 10
3600.338667199954
 20
1109.229926536716
 30
0.0
 40
0.0125969353340541
100
AcDbArc
 50
91.76998912856484
 51
125.7009974548295
  0
LINE
  5
1819
330
1F
100
AcDbEntity
  8
Sanindusa
100
AcDbLine
 10
3600.338278115581
 20
1109.242517461748
 30
0.0
 11
3600.383119995166
 21
1109.242517461748
 31
0.0
  0
LINE
  5
181A
330
1F
100
AcDbEntity
  8
Sanindusa
100
AcDbLine
 10
3600.33131619096
 20
1109.240156172423
 30
0.0
 11
3600.33344042207
 21
1109.297517461748
 31
0.0
  0
LINE
  5
181B
330
1F
100
AcDbEntity
  8
Sanindusa
100
AcDbLine
 10
3600.33344042207
 20
1109.297517461748
 30
0.0
 11
3600.378353715824
 21
1109.297517461748
 31
0.0
  0
LINE
  5
181C
330
1F
100
AcDbEntity
  8
Sanindusa
100
AcDbLine
 10
3600.389248086063
 20
1109.307517461748
 30
0.0
 11
3600.379734512956
 21
1109.307517461748
 31
0.0
  0
LWPOLYLINE
  5
181D
330
1F
100
AcDbEntity
  8
Sanindusa
100
AcDbPolyline
 90
        5
 70
   128
 43
0.0
 10
3600.394712187677
 20
1109.301588014111
 10
3600.393951588472
 20
1109.303962023614
 10
3600.392691760738
 20
1109.305864288472
 10
3600.391066422267
 20
1109.307092902785
 10
3600.389248086062
 20
1109.307517461748
  0
LWPOLYLINE
  5
181E
330
1F
100
AcDbEntity
  8
Sanindusa
100
AcDbPolyline
 90
        5
 70
   128
 43
0.0
 10
3600.394712187684
 20
1109.301588014097
 10
3600.391520682087
 20
1109.301913350545
 10
3600.389157169845
 20
1109.302154282824
 10
3600.38770491454
 20
1109.302302323157
 10
3600.387215542966
 20
1109.302352208192
  0
ARC
  5
181F
330
1F
100
AcDbEntity
  8
Sanindusa
100
AcDbCircle
 10
3600.379734490719
 20
1109.299517274492
 30
0.0
 40
0.0080001872565791
100
AcDbArc
 50
20.75413336942419
 51
89.9998513012289
  0
ARC
  5
1820
330
1F
100
AcDbEntity
  8
Sanindusa
100
AcDbCircle
 10
3600.331513896625
 20
1109.299516655497
 30
0.0
 40
0.0080008069825626
100
AcDbArc
 50
89.9755108781817
 51
177.8738228364579
  0
LINE
  5
1821
330
1F
100
AcDbEntity
  8
Sanindusa
100
AcDbLine
 10
3600.331517296134
 20
1109.307517461748
 30
0.0
 11
3600.379734512956
 21
1109.307517461748
 31
0.0
  0
LWPOLYLINE
  5
1822
330
1F
100
AcDbEntity
  8
Sanindusa
100
AcDbPolyline
 90
        5
 70
   128
 43
0.0
 10
3600.402731311089
 20
1109.280425880754
 10
3600.403905829967
 20
1109.276607006264
 10
3600.405880610118
 20
1109.273534265255
 10
3600.408450536339
 20
1109.271526815225
 10
3600.411348677175
 20
1109.270793164712
  0
LINE
  5
1824
330
1F
100
AcDbEntity
  8
Sanindusa
100
AcDbLine
 10
3600.419781867823
 20
1109.227517461748
 30
0.0
 11
3600.415396190636
 21
1109.227517461748
 31
0.0
  0
LWPOLYLINE
  5
1828
330
1F
100
AcDbEntity
  8
Sanindusa
100
AcDbPolyline
 90
        6
 70
   128
 43
0.0
 10
3600.415396188581
 20
1109.227517461748
 10
3600.417051506374
 20
1109.227799391749
 10
3600.418520181231
 20
1109.228613392976
 10
3600.419636517827
 20
1109.229867582697
 10
3600.420274676429
 20
1109.231420388691
 10
3600.420358711295
 20
1109.23190356941
  0
LINE
  5
1829
330
1F
100
AcDbEntity
  8
Sanindusa
100
AcDbLine
 10
3600.420358708716
 20
1109.23190357174
 30
0.0
 11
3600.423347821779
 21
1109.25606238308
 31
0.0
  0
ARC
  5
182A
330
1F
100
AcDbEntity
  8
Sanindusa
100
AcDbCircle
 10
3600.383120640438
 20
1109.230016011715
 30
0.0
 40
0.0025014501168044
100
AcDbArc
 50
0.0332130318935758
 51
90.01477997309502
  0
LWPOLYLINE
  5
182B
330
1F
100
AcDbEntity
  8
Sanindusa
100
AcDbPolyline
 90
        6
 70
   128
 43
0.0
 10
3600.387973268833
 20
1109.227525843397
 10
3600.38715668242
 20
1109.227714173592
 10
3600.386448466318
 20
1109.228162182054
 10
3600.385928466518
 20
1109.228819359229
 10
3600.385655309052
 20
1109.229611613373
 10
3600.385622090134
 20
1109.230017461747
  0
LWPOLYLINE
  5
182C
330
1F
100
AcDbEntity
  8
Sanindusa
100
AcDbPolyline
 90
        4
 70
   128
 43
0.0
 10
3600.388262536841
 20
1109.227517461748
 10
3600.388166018261
 20
1109.227518393506
 10
3600.388069571629
 20
1109.227521188083
 10
3600.387973268833
 20
1109.227525843397
  0
LINE
  5
182E
330
1F
100
AcDbEntity
  8
Sanindusa
100
AcDbLine
 10
3600.335084894327
 20
1109.227517461748
 30
0.0
 11
3600.333622419766
 21
1109.227517461748
 31
0.0
  0
LINE
  5
1831
330
1F
100
AcDbEntity
  8
Sanindusa
100
AcDbLine
 10
3600.320841293415
 20
1109.227517461748
 30
0.0
 11
3600.333622419766
 21
1109.227517461748
 31
0.0
  0
LWPOLYLINE
  5
1832
330
1F
100
AcDbEntity
  8
Sanindusa
100
AcDbPolyline
 90
        7
 70
   128
 43
0.0
 10
3600.333622419766
 20
1109.227517461748
 10
3600.333948147336
 20
1109.227538739889
 10
3600.334750924483
 20
1109.227786300572
 10
3600.335426813517
 20
1109.228285761024
 10
3600.335899245129
 20
1109.228980888371
 10
3600.33611447229
 20
1109.229792675936
 10
3600.336124615451
 20
1109.230017461747
  0
ARC
  5
1833
330
1F
100
AcDbEntity
  8
Sanindusa
100
AcDbCircle
 10
3600.338620428144
 20
1109.230017461748
 30
0.0
 40
0.0024958126939548
100
AcDbArc
 50
93.32218953078672
 51
180.0000000271103
  0
LINE
  5
1835
330
1F
100
AcDbEntity
  8
Sanindusa
100
AcDbLine
 10
3600.388166018261
 20
1109.227518393505
 30
0.0
 11
3600.335084894327
 21
1109.227517461748
 31
0.0
  0
LINE
  5
1837
330
1F
100
AcDbEntity
  8
Sanindusa
100
AcDbLine
 10
3600.338765062157
 20
1109.232517461748
 30
0.0
 11
3600.383119995166
 21
1109.232517461748
 31
0.0
  0
ARC
  5
1838
330
1F
100
AcDbEntity
  8
Sanindusa
100
AcDbCircle
 10
3600.408129519202
 20
1109.283867552241
 30
0.0
 40
0.0130069080923827
100
AcDbArc
 50
200.7737440399762
 51
268.8276760159926
  0
LWPOLYLINE
  5
1839
330
1F
100
AcDbEntity
  8
Sanindusa
100
AcDbPolyline
 90
        5
 70
   128
 43
0.0
 10
3600.395968211428
 20
1109.279254279936
 10
3600.396418295097
 20
1109.279331990922
 10
3600.397719850443
 20
1109.279557724641
 10
3600.399852093571
 20
1109.279927101961
 10
3600.402731311089
 20
1109.280425880753
  0
LINE
  5
183A
330
1F
100
AcDbEntity
  8
Sanindusa
100
AcDbLine
 10
3600.388262536841
 20
1109.227517461748
 30
0.0
 11
3600.415396190636
 21
1109.227517461748
 31
0.0
  0
LINE
  5
183B
330
1F
100
AcDbEntity
  8
Sanindusa
100
AcDbLine
 10
3600.320841293415
 20
1109.227517461748
 30
0.0
 11
3600.32351859496
 21
1109.299813488166
 31
0.0
  0
LINE
  5
183C
330
1F
100
AcDbEntity
  8
Sanindusa
100
AcDbLine
 10
3600.402731311087
 20
1109.280425880759
 30
0.0
 11
3600.394712187684
 21
1109.301588014097
 31
0.0
  0
LINE
  5
183D
330
1F
100
AcDbEntity
  8
Sanindusa
100
AcDbLine
 10
3600.395968211428
 20
1109.279254279936
 30
0.0
 11
3600.387215542966
 21
1109.302352208192
 31
0.0
  0
LINE
  5
183E
330
1F
100
AcDbEntity
  8
Sanindusa
100
AcDbLine
 10
3600.578363510589
 20
1109.257427044711
 30
0.0
 11
3600.568928224286
 21
1109.257617094701
 31
0.0
  0
LINE
  5
183F
330
1F
100
AcDbEntity
  8
Sanindusa
100
AcDbLine
 10
3600.693909625937
 20
1109.255099660315
 30
0.0
 11
3600.682863821273
 21
1109.255322150126
 31
0.0
  0
LINE
  5
1840
330
1F
100
AcDbEntity
  8
Sanindusa
100
AcDbLine
 10
3600.789365889845
 20
1109.253176935189
 30
0.0
 11
3600.779809715067
 21
1109.253369420172
 31
0.0
  0
LINE
  5
1841
330
1F
100
AcDbEntity
  8
Sanindusa
100
AcDbLine
 10
3600.891699770448
 20
1109.251115677862
 30
0.0
 11
3600.881304200763
 21
1109.251325070333
 31
0.0
  0
LINE
  5
1842
330
1F
100
AcDbEntity
  8
Sanindusa
100
AcDbLine
 10
3600.886540091915
 20
1109.236939578529
 30
0.0
 11
3600.891699770448
 21
1109.251115677862
 31
0.0
  0
LINE
  5
1843
330
1F
100
AcDbEntity
  8
Sanindusa
100
AcDbLine
 10
3600.886540091915
 20
1109.236939578529
 30
0.0
 11
3600.881304200763
 21
1109.251325070333
 31
0.0
  0
LINE
  5
1844
330
1F
100
AcDbEntity
  8
Sanindusa
100
AcDbLine
 10
3600.784620004742
 20
1109.238992980272
 30
0.0
 11
3600.789365889845
 21
1109.253176935189
 31
0.0
  0
LINE
  5
1845
330
1F
100
AcDbEntity
  8
Sanindusa
100
AcDbLine
 10
3600.784620004742
 20
1109.238992980272
 30
0.0
 11
3600.779809715067
 21
1109.253369420172
 31
0.0
  0
LINE
  5
1846
330
1F
100
AcDbEntity
  8
Sanindusa
100
AcDbLine
 10
3600.688422869199
 20
1109.238213160249
 30
0.0
 11
3600.693909625937
 21
1109.255099660315
 31
0.0
  0
LINE
  5
1847
330
1F
100
AcDbEntity
  8
Sanindusa
100
AcDbLine
 10
3600.688422869199
 20
1109.238213160249
 30
0.0
 11
3600.682863821273
 21
1109.255322150126
 31
0.0
  0
LINE
  5
1848
330
1F
100
AcDbEntity
  8
Sanindusa
100
AcDbLine
 10
3600.573676742926
 20
1109.243002657728
 30
0.0
 11
3600.578363510589
 21
1109.257427044711
 31
0.0
  0
LINE
  5
1849
330
1F
100
AcDbEntity
  8
Sanindusa
100
AcDbLine
 10
3600.573676742926
 20
1109.243002657728
 30
0.0
 11
3600.568928224286
 21
1109.257617094701
 31
0.0
  0
LWPOLYLINE
  5
184A
330
1F
100
AcDbEntity
  8
Sanindusa
100
AcDbPolyline
 90
        3
 70
   128
 43
0.0
 10
3600.544014654153
 20
1109.270121349659
 10
3600.543991691115
 20
1109.269925959396
 10
3600.543981631918
 20
1109.26989575505
  0
LINE
  5
184B
330
1F
100
AcDbEntity
  8
Sanindusa
100
AcDbLine
 10
3600.544428229486
 20
1109.270113019228
 30
0.0
 11
3600.544721348778
 21
1109.27010711508
 31
0.0
  0
LWPOLYLINE
  5
184C
330
1F
100
AcDbEntity
  8
Sanindusa
100
AcDbPolyline
 90
        9
 70
   128
 43
0.0
 10
3600.543701622957
 20
1109.26912751091
 10
3600.543719134489
 20
1109.26932228809
 10
3600.543763138517
 20
1109.269509032912
 10
3600.54383194399
 20
1109.269680568876
 10
3600.543922906752
 20
1109.26983030395
 10
3600.544032531156
 20
1109.2699524839
 10
3600.544156604396
 20
1109.270042413417
 10
3600.544290358406
 20
1109.270096636561
 10
3600.544428653095
 20
1109.270113069564
  0
LINE
  5
184D
330
1F
100
AcDbEntity
  8
Sanindusa
100
AcDbLine
 10
3600.86956962298
 20
1109.307517461748
 30
0.0
 11
3600.847030203818
 21
1109.307517461748
 31
0.0
  0
LWPOLYLINE
  5
184E
330
1F
100
AcDbEntity
  8
Sanindusa
100
AcDbPolyline
 90
        5
 70
   128
 43
0.0
 10
3600.864105521357
 20
1109.301588014112
 10
3600.860392566954
 20
1109.301913350567
 10
3600.856208873109
 20
1109.302154282816
 10
3600.851701826195
 20
1109.302302323153
 10
3600.847030203815
 20
1109.3023522563
  0
LWPOLYLINE
  5
184F
330
1F
100
AcDbEntity
  8
Sanindusa
100
AcDbPolyline
 90
        5
 70
   128
 43
0.0
 10
3600.864105521365
 20
1109.301588014111
 10
3600.86486612057
 20
1109.303962023614
 10
3600.866125948304
 20
1109.305864288472
 10
3600.867751286776
 20
1109.307092902785
 10
3600.869569622981
 20
1109.307517461748
  0
LWPOLYLINE
  5
1850
330
1F
100
AcDbEntity
  8
Sanindusa
100
AcDbPolyline
 90
        5
 70
   128
 43
0.0
 10
3600.824490784654
 20
1109.307517461748
 10
3600.826309120859
 20
1109.307092902785
 10
3600.827934459331
 20
1109.305864288471
 10
3600.829194287064
 20
1109.303962023613
 10
3600.829954886271
 20
1109.301588014109
  0
LINE
  5
1851
330
1F
100
AcDbEntity
  8
Sanindusa
100
AcDbLine
 10
3600.847030203818
 20
1109.307517461748
 30
0.0
 11
3600.824490784655
 21
1109.307517461748
 31
0.0
  0
LWPOLYLINE
  5
1852
330
1F
100
AcDbEntity
  8
Sanindusa
100
AcDbPolyline
 90
        5
 70
   128
 43
0.0
 10
3600.847030203815
 20
1109.3023522563
 10
3600.84235858146
 20
1109.302302323152
 10
3600.837851534521
 20
1109.302154282817
 10
3600.833667840677
 20
1109.301913350568
 10
3600.829954886271
 20
1109.301588014114
  0
LWPOLYLINE
  5
1853
330
1F
100
AcDbEntity
  8
Sanindusa
100
AcDbPolyline
 90
        5
 70
   128
 43
0.0
 10
3600.845611405511
 20
1109.2704346993
 10
3600.850651989384
 20
1109.270427137427
 10
3600.855545051186
 20
1109.270606655416
 10
3600.860091287403
 20
1109.270965941166
 10
3600.864105521367
 20
1109.271490360298
  0
LWPOLYLINE
  5
1854
330
1F
100
AcDbEntity
  8
Sanindusa
100
AcDbPolyline
 90
        5
 70
   128
 43
0.0
 10
3600.864105521365
 20
1109.271490360296
 10
3600.863570402229
 20
1109.269468929912
 10
3600.86280751147
 20
1109.267594526008
 10
3600.861837674103
 20
1109.265918315132
 10
3600.8608904287
 20
1109.264738891073
  0
LINE
  5
1855
330
1F
100
AcDbEntity
  8
Sanindusa
100
AcDbLine
 10
3600.87932768438
 20
1109.227517461748
 30
0.0
 11
3600.890251461502
 21
1109.227517461748
 31
0.0
  0
ARC
  5
1856
330
1F
100
AcDbEntity
  8
Sanindusa
100
AcDbCircle
 10
3600.867057284231
 20
1109.246610992242
 30
0.0
 40
0.005000032007783
100
AcDbArc
 50
20.00025128338772
 51
88.84582936894473
  0
LINE
  5
1857
330
1F
100
AcDbEntity
  8
Sanindusa
100
AcDbLine
 10
3600.878174810809
 20
1109.230684955653
 30
0.0
 11
3600.871755769897
 21
1109.248321124503
 31
0.0
  0
ARC
  5
1858
330
1F
100
AcDbEntity
  8
Sanindusa
100
AcDbCircle
 10
3600.787725787917
 20
1109.232517461908
 30
0.0
 40
0.0050000001602231
100
AcDbArc
 50
269.9999993456
 51
341.4999986785619
  0
LINE
  5
1859
330
1F
100
AcDbEntity
  8
Sanindusa
100
AcDbLine
 10
3600.792467406308
 20
1109.230930938466
 30
0.0
 11
3600.798673653351
 21
1109.249479454988
 31
0.0
  0
ARC
  5
185A
330
1F
100
AcDbEntity
  8
Sanindusa
100
AcDbCircle
 10
3600.80341528599
 20
1109.247892911355
 30
0.0
 40
0.0050000200664214
100
AcDbArc
 50
88.84624443276537
 51
161.499830885544
  0
LWPOLYLINE
  5
185B
330
1F
100
AcDbEntity
  8
Sanindusa
100
AcDbPolyline
 90
        3
 70
   128
 43
0.0
 10
3600.832863505149
 20
1109.265303422596
 10
3600.831129405149
 20
1109.268001667352
 10
3600.829954886271
 20
1109.271820541841
  0
ARC
  5
185C
330
1F
100
AcDbEntity
  8
Sanindusa
100
AcDbCircle
 10
3600.765569652747
 20
1109.24865520594
 30
0.0
 40
0.0050000300884413
100
AcDbArc
 50
18.50024292988134
 51
88.84583635182664
  0
LINE
  5
185D
330
1F
100
AcDbEntity
  8
Sanindusa
100
AcDbLine
 10
3600.776772603174
 20
1109.230930938466
 30
0.0
 11
3600.770311292821
 21
1109.250241758864
 31
0.0
  0
ARC
  5
185E
330
1F
100
AcDbEntity
  8
Sanindusa
100
AcDbCircle
 10
3600.781514221574
 20
1109.232517461922
 30
0.0
 40
0.0050000001739146
100
AcDbArc
 50
198.5000014343914
 51
270.0000005566934
  0
LINE
  5
185F
330
1F
100
AcDbEntity
  8
Sanindusa
100
AcDbLine
 10
3600.781514221478
 20
1109.227517461748
 30
0.0
 11
3600.787725787981
 21
1109.227517461748
 31
0.0
  0
LINE
  5
1861
330
1F
100
AcDbEntity
  8
Sanindusa
100
AcDbLine
 10
3600.87932768438
 20
1109.227517461748
 30
0.0
 11
3600.787725787981
 21
1109.227517461748
 31
0.0
  0
LINE
  5
1863
330
1F
100
AcDbEntity
  8
Sanindusa
100
AcDbLine
 10
3600.867157998623
 20
1109.251610009814
 30
0.0
 11
3600.803515963595
 21
1109.252891917725
 31
0.0
  0
LWPOLYLINE
  5
1864
330
1F
100
AcDbEntity
  8
Sanindusa
100
AcDbPolyline
 90
        5
 70
   128
 43
0.0
 10
3600.829954886271
 20
1109.271820541839
 10
3600.833429964084
 20
1109.271286122337
 10
3600.837195110659
 20
1109.270880091655
 10
3600.841338764271
 20
1109.270589378582
 10
3600.845611405511
 20
1109.2704346993
  0
LINE
  5
1865
330
1F
100
AcDbEntity
  8
Sanindusa
100
AcDbLine
 10
3600.864105521472
 20
1109.301588014109
 30
0.0
 11
3600.864105521316
 21
1109.271490360298
 31
0.0
  0
LINE
  5
1866
330
1F
100
AcDbEntity
  8
Sanindusa
100
AcDbLine
 10
3600.829954886144
 20
1109.271820541883
 30
0.0
 11
3600.829954886163
 21
1109.301588014109
 31
0.0
  0
LINE
  5
1868
330
1F
100
AcDbEntity
  8
Sanindusa
100
AcDbLine
 10
3600.685016202982
 20
1109.227517461748
 30
0.0
 11
3600.691829535437
 21
1109.227517461748
 31
0.0
  0
ARC
  5
1869
330
1F
100
AcDbEntity
  8
Sanindusa
100
AcDbCircle
 10
3600.685016202819
 20
1109.232517461861
 30
0.0
 40
0.0050000001128524
100
AcDbArc
 50
198.0000009410713
 51
270.0000003706599
  0
ARC
  5
186A
330
1F
100
AcDbEntity
  8
Sanindusa
100
AcDbCircle
 10
3600.691829535475
 20
1109.232517461957
 30
0.0
 40
0.0050000002092121
100
AcDbArc
 50
269.9999991354395
 51
341.9999982566836
  0
LINE
  5
186B
330
1F
100
AcDbEntity
  8
Sanindusa
100
AcDbLine
 10
3600.696584818209
 20
1109.230972376776
 30
0.0
 11
3600.703209363008
 21
1109.251360628255
 31
0.0
  0
ARC
  5
186C
330
1F
100
AcDbEntity
  8
Sanindusa
100
AcDbCircle
 10
3600.707964658053
 20
1109.249815525756
 30
0.0
 40
0.005000017268866
100
AcDbArc
 50
88.84622157030019
 51
161.9998530956877
  0
ARC
  5
1872
330
1F
100
AcDbEntity
  8
Sanindusa
100
AcDbCircle
 10
3600.668623597444
 20
1109.250607940751
 30
0.0
 40
0.0050000284845011
100
AcDbArc
 50
18.00023213148884
 51
88.84584651475362
  0
LINE
  5
1873
330
1F
100
AcDbEntity
  8
Sanindusa
100
AcDbLine
 10
3600.685014973664
 20
1109.227517461748
 30
0.0
 11
3600.654663977411
 21
1109.227517461748
 31
0.0
  0
LINE
  5
1875
330
1F
100
AcDbEntity
  8
Sanindusa
100
AcDbLine
 10
3600.680260920154
 20
1109.230972376776
 30
0.0
 11
3600.673378900853
 21
1109.252153053781
 31
0.0
  0
ARC
  5
1878
330
1F
100
AcDbEntity
  8
Sanindusa
100
AcDbCircle
 10
3600.592418542742
 20
1109.252142910153
 30
0.0
 40
0.0050000172668927
100
AcDbArc
 50
88.84622155909417
 51
161.9998531131329
  0
LINE
  5
1879
330
1F
100
AcDbEntity
  8
Sanindusa
100
AcDbLine
 10
3600.61467683719
 20
1109.227517461748
 30
0.0
 11
3600.575527202319
 21
1109.227517461748
 31
0.0
  0
LINE
  5
187A
330
1F
100
AcDbEntity
  8
Sanindusa
100
AcDbLine
 10
3600.571826278405
 20
1109.227517461748
 30
0.0
 11
3600.575527202319
 21
1109.227517461748
 31
0.0
  0
ARC
  5
187B
330
1F
100
AcDbEntity
  8
Sanindusa
100
AcDbCircle
 10
3600.57182627879
 20
1109.232517461967
 30
0.0
 40
0.0050000002184032
100
AcDbArc
 50
198.0000018172255
 51
269.9999955857443
  0
ARC
  5
187C
330
1F
100
AcDbEntity
  8
Sanindusa
100
AcDbCircle
 10
3600.575527207067
 20
1109.232517461952
 30
0.0
 40
0.005000000203834
100
AcDbArc
 50
269.9999991487276
 51
341.9999983010374
  0
LINE
  5
187D
330
1F
100
AcDbEntity
  8
Sanindusa
100
AcDbLine
 10
3600.580282489797
 20
1109.230972376776
 30
0.0
 11
3600.587663247655
 21
1109.253688012636
 31
0.0
  0
LWPOLYLINE
  5
187E
330
1F
100
AcDbEntity
  8
Sanindusa
100
AcDbPolyline
 90
        9
 70
   128
 43
0.0
 10
3600.54401465987
 20
1109.270121349544
 10
3600.544032171401
 20
1109.270316126724
 10
3600.54407617543
 20
1109.270502871546
 10
3600.544144980903
 20
1109.27067440751
 10
3600.544235943665
 20
1109.270824142585
 10
3600.544345568069
 20
1109.270946322534
 10
3600.544469641309
 20
1109.271036252052
 10
3600.544603395319
 20
1109.271090475195
 10
3600.544741690008
 20
1109.271106908198
  0
LWPOLYLINE
  5
1880
330
1F
100
AcDbEntity
  8
Sanindusa
100
AcDbPolyline
 90
       10
 70
   128
 43
0.0
 10
3600.543701616055
 20
1109.269127452181
 10
3600.543678653016
 20
1109.268932061919
 10
3600.543612285605
 20
1109.26873278315
 10
3600.5434876687
 20
1109.268529147517
 10
3600.543300675657
 20
1109.268344620029
 10
3600.543197335374
 20
1109.268273199834
 10
3600.543101074123
 20
1109.268219380879
 10
3600.543024269237
 20
1109.268182591239
 10
3600.542979281146
 20
1109.268160119126
 10
3600.542977929715
 20
1109.268153089741
  0
ARC
  5
1881
330
1F
100
AcDbEntity
  8
Sanindusa
100
AcDbCircle
 10
3600.554688000384
 20
1109.25290288522
 30
0.0
 40
0.0050000285922844
100
AcDbArc
 50
18.00023298469994
 51
88.84584683102252
  0
LINE
  5
1882
330
1F
100
AcDbEntity
  8
Sanindusa
100
AcDbLine
 10
3600.56707099605
 20
1109.230972376777
 30
0.0
 11
3600.559443303867
 21
1109.254447998356
 31
0.0
  0
LINE
  5
1883
330
1F
100
AcDbEntity
  8
Sanindusa
100
AcDbLine
 10
3600.654663977355
 20
1109.227517461748
 30
0.0
 11
3600.61467683719
 21
1109.227517461748
 31
0.0
  0
LINE
  5
1885
330
1F
100
AcDbEntity
  8
Sanindusa
100
AcDbLine
 10
3600.668724310194
 20
1109.255606954833
 30
0.0
 11
3600.592519221869
 21
1109.257141913693
 31
0.0
  0
LINE
  5
1889
330
1F
100
AcDbEntity
  8
Sanindusa
100
AcDbLine
 10
3600.781339201478
 20
1109.227517461748
 30
0.0
 11
3600.691829535437
 21
1109.227517461748
 31
0.0
  0
LINE
  5
188B
330
1F
100
AcDbEntity
  8
Sanindusa
100
AcDbLine
 10
3600.765670366451
 20
1109.253654221606
 30
0.0
 11
3600.708065337721
 21
1109.254814529286
 31
0.0
  0
LINE
  5
188C
330
1F
100
AcDbEntity
  8
Sanindusa
100
AcDbLine
 10
3600.554788713162
 20
1109.257901899409
 30
0.0
 11
3600.428411710294
 21
1109.260447444654
 31
0.0
  0
ARC
  5
1890
330
1F
100
AcDbEntity
  8
Sanindusa
100
AcDbCircle
 10
3601.362546736469
 20
1109.299516889581
 30
0.0
 40
0.0080005729979353
100
AcDbArc
 50
2.124561835742861
 51
90.02610444920806
  0
LINE
  5
1891
330
1F
100
AcDbEntity
  8
Sanindusa
100
AcDbLine
 10
3601.360437887154
 20
1109.227517461748
 30
0.0
 11
3601.37321911422
 21
1109.227517461748
 31
0.0
  0
LINE
  5
1896
330
1F
100
AcDbEntity
  8
Sanindusa
100
AcDbLine
 10
3601.00462451603
 20
1109.248841094333
 30
0.0
 11
3600.995908321058
 21
1109.249016660046
 31
0.0
  0
ARC
  5
1897
330
1F
100
AcDbEntity
  8
Sanindusa
100
AcDbCircle
 10
3601.27985011393
 20
1109.267819902173
 30
0.0
 40
0.0230066462463572
100
AcDbArc
 50
275.7777830897958
 51
339.2264324734699
  0
LINE
  5
1898
330
1F
100
AcDbEntity
  8
Sanindusa
100
AcDbLine
 10
3601.282166204889
 20
1109.244930133847
 30
0.0
 11
3601.283083357421
 21
1109.237517461748
 31
0.0
  0
LWPOLYLINE
  5
1899
330
1F
100
AcDbEntity
  8
Sanindusa
100
AcDbPolyline
 90
       12
 70
   128
 43
0.0
 10
3601.30136232238
 20
1109.25966326706
 10
3601.315706691812
 20
1109.297517461748
 10
3601.360619985564
 20
1109.297517461748
 10
3601.362744788156
 20
1109.240140740548
 10
3601.360307983334
 20
1109.241682232183
 10
3601.356686487099
 20
1109.242517461748
 10
3601.310612463127
 20
1109.242517461748
 10
3601.308783967344
 20
1109.24239738775
 10
3601.305230763639
 20
1109.241299086429
 10
3601.301817230382
 20
1109.238773115593
 10
3601.300965056134
 20
1109.237517461748
 10
3601.283083357421
 20
1109.237517461748
  0
LINE
  5
189C
330
1F
100
AcDbEntity
  8
Sanindusa
100
AcDbLine
 10
3601.000300997121
 20
1109.23786520343
 30
0.0
 11
3601.00462451603
 21
1109.248841094333
 31
0.0
  0
LINE
  5
189D
330
1F
100
AcDbEntity
  8
Sanindusa
100
AcDbLine
 10
3601.000300997121
 20
1109.23786520343
 30
0.0
 11
3600.995908321058
 21
1109.249016660046
 31
0.0
  0
LWPOLYLINE
  5
189F
330
1F
100
AcDbEntity
  8
Sanindusa
100
AcDbPolyline
 90
        5
 70
   128
 43
0.0
 10
3601.097379234456
 20
1109.257990771282
 10
3601.097325871633
 20
1109.258362962054
 10
3601.097159963078
 20
1109.258692231601
 10
3601.096912085708
 20
1109.258909992893
 10
3601.096617192685
 20
1109.258990568484
  0
LINE
  5
18A0
330
1F
100
AcDbEntity
  8
Sanindusa
100
AcDbLine
 10
3601.314325894901
 20
1109.307517461748
 30
0.0
 11
3601.304812321572
 21
1109.307517461748
 31
0.0
  0
LWPOLYLINE
  5
18A1
330
1F
100
AcDbEntity
  8
Sanindusa
100
AcDbPolyline
 90
        5
 70
   128
 43
0.0
 10
3601.304812321573
 20
1109.307517461748
 10
3601.302993985368
 20
1109.307092902785
 10
3601.301368646896
 20
1109.305864288471
 10
3601.300108819162
 20
1109.303962023613
 10
3601.299348219957
 20
1109.301588014109
  0
LWPOLYLINE
  5
18A2
330
1F
100
AcDbEntity
  8
Sanindusa
100
AcDbPolyline
 90
        5
 70
   128
 43
0.0
 10
3601.306844864672
 20
1109.302352208196
 10
3601.306355493101
 20
1109.30230232317
 10
3601.304903237784
 20
1109.302154282805
 10
3601.302539725542
 20
1109.30191335056
 10
3601.29934821996
 20
1109.30158801411
  0
ARC
  5
18A3
330
1F
100
AcDbEntity
  8
Sanindusa
100
AcDbCircle
 10
3601.314325909924
 20
1109.29951728462
 30
0.0
 40
0.008000177128335
100
AcDbArc
 50
90.00009861554607
 51
159.2459167129742
  0
LINE
  5
18A4
330
1F
100
AcDbEntity
  8
Sanindusa
100
AcDbLine
 10
3601.314325894901
 20
1109.307517461748
 30
0.0
 11
3601.362543092808
 21
1109.307517461748
 31
0.0
  0
LINE
  5
18A5
330
1F
100
AcDbEntity
  8
Sanindusa
100
AcDbLine
 10
3601.358975513397
 20
1109.227517461748
 30
0.0
 11
3601.360437887154
 21
1109.227517461748
 31
0.0
  0
ARC
  5
18A6
330
1F
100
AcDbEntity
  8
Sanindusa
100
AcDbCircle
 10
3601.360437241882
 20
1109.230018911782
 30
0.0
 40
0.0025014501175665
100
AcDbArc
 50
180.0332130722008
 51
270.0147799649137
  0
LWPOLYLINE
  5
18AB
330
1F
100
AcDbEntity
  8
Sanindusa
100
AcDbPolyline
 90
        6
 70
   128
 43
0.0
 10
3601.355584613503
 20
1109.232509080099
 10
3601.356401199913
 20
1109.232320749898
 10
3601.357109416013
 20
1109.231872741431
 10
3601.357629415808
 20
1109.231215564253
 10
3601.357902573268
 20
1109.230423310106
 10
3601.357935792184
 20
1109.230017461748
  0
LINE
  5
18AC
330
1F
100
AcDbEntity
  8
Sanindusa
100
AcDbLine
 10
3601.278664224731
 20
1109.227517461748
 30
0.0
 11
3601.305797870796
 21
1109.227517461748
 31
0.0
  0
LWPOLYLINE
  5
18AD
330
1F
100
AcDbEntity
  8
Sanindusa
100
AcDbPolyline
 90
        5
 70
   128
 43
0.0
 10
3601.276319611588
 20
1109.25483590771
 10
3601.279292462054
 20
1109.255511334177
 10
3601.281956598167
 20
1109.257503974274
 10
3601.28402727868
 20
1109.260600855839
 10
3601.285283190519
 20
1109.264470986054
  0
LWPOLYLINE
  5
18AE
330
1F
100
AcDbEntity
  8
Sanindusa
100
AcDbPolyline
 90
        5
 70
   128
 43
0.0
 10
3601.28528319052
 20
1109.264470986056
 10
3601.288147465494
 20
1109.263932774509
 10
3601.290268642719
 20
1109.263534194733
 10
3601.291563453905
 20
1109.263290651097
 10
3601.292011191115
 20
1109.26320676026
  0
ARC
  5
18AF
330
1F
100
AcDbEntity
  8
Sanindusa
100
AcDbCircle
 10
3601.27985011393
 20
1109.267819902173
 30
0.0
 40
0.0130066462463572
100
AcDbArc
 50
269.6461722599265
 51
339.2264324734699
  0
LWPOLYLINE
  5
18B1
330
1F
100
AcDbEntity
  8
Sanindusa
100
AcDbPolyline
 90
        6
 70
   128
 43
0.0
 10
3601.308438317501
 20
1109.230017461748
 10
3601.308297625527
 20
1109.229191333793
 10
3601.307891411557
 20
1109.228458345497
 10
3601.307265473135
 20
1109.227901135732
 10
3601.306490380069
 20
1109.227582525671
 10
3601.306087138819
 20
1109.227525843397
  0
LWPOLYLINE
  5
18B2
330
1F
100
AcDbEntity
  8
Sanindusa
100
AcDbPolyline
 90
        7
 70
   128
 43
0.0
 10
3601.310940450832
 20
1109.232517461748
 10
3601.31061315163
 20
1109.232495968604
 10
3601.309810537044
 20
1109.232247879067
 10
3601.309134976793
 20
1109.231747973145
 10
3601.308663003849
 20
1109.231052534807
 10
3601.308448312891
 20
1109.230240607429
 10
3601.308438317501
 20
1109.230017461748
  0
LINE
  5
18B3
330
1F
100
AcDbEntity
  8
Sanindusa
100
AcDbLine
 10
3601.358975513397
 20
1109.227517461748
 30
0.0
 11
3601.306288759445
 21
1109.227517461748
 31
0.0
  0
LINE
  5
18B5
330
1F
100
AcDbEntity
  8
Sanindusa
100
AcDbLine
 10
3601.310940450832
 20
1109.232517461748
 30
0.0
 11
3601.355295345495
 21
1109.232517461748
 31
0.0
  0
LWPOLYLINE
  5
18BB
330
1F
100
AcDbEntity
  8
Sanindusa
100
AcDbPolyline
 90
        6
 70
   128
 43
0.0
 10
3601.272637385685
 20
1109.240505612822
 10
3601.27215442082
 20
1109.242113478614
 10
3601.271166435276
 20
1109.243470830831
 10
3601.269784883257
 20
1109.244424645698
 10
3601.268165437317
 20
1109.244867539434
 10
3601.267706624441
 20
1109.244891625372
  0
LINE
  5
18BC
330
1F
100
AcDbEntity
  8
Sanindusa
100
AcDbLine
 10
3601.272637388424
 20
1109.240505613867
 30
0.0
 11
3601.273701698949
 21
1109.23190357151
 31
0.0
  0
LINE
  5
18BF
330
1F
100
AcDbEntity
  8
Sanindusa
100
AcDbLine
 10
3601.210305178546
 20
1109.255264572859
 30
0.0
 11
3601.181281276356
 21
1109.255453039756
 31
0.0
  0
LINE
  5
18C3
330
1F
100
AcDbEntity
  8
Sanindusa
100
AcDbLine
 10
3601.201359941056
 20
1109.244517461748
 30
0.0
 11
3601.201359941056
 21
1109.237860928621
 31
0.0
  0
LINE
  5
18C4
330
1F
100
AcDbEntity
  8
Sanindusa
100
AcDbLine
 10
3601.212027370162
 20
1109.237860928621
 30
0.0
 11
3601.201359941056
 21
1109.237860928621
 31
0.0
  0
LWPOLYLINE
  5
18C5
330
1F
100
AcDbEntity
  8
Sanindusa
100
AcDbPolyline
 90
        3
 70
   128
 43
0.0
 10
3601.181281276466
 20
1109.255453039756
 10
3601.176348670603
 20
1109.255476959103
 10
3601.171360289858
 20
1109.255484652065
  0
LINE
  5
18C9
330
1F
100
AcDbEntity
  8
Sanindusa
100
AcDbLine
 10
3601.180369867301
 20
1109.265120014548
 30
0.0
 11
3601.190244855738
 21
1109.2650881181
 31
0.0
  0
LWPOLYLINE
  5
18CB
330
1F
100
AcDbEntity
  8
Sanindusa
100
AcDbPolyline
 90
        5
 70
   128
 43
0.0
 10
3601.210305179773
 20
1109.255264572852
 10
3601.208648120446
 20
1109.25499335061
 10
3601.207174317101
 20
1109.254188888419
 10
3601.206049533327
 20
1109.252941378833
 10
3601.205901892726
 20
1109.252692893387
  0
LWPOLYLINE
  5
18CC
330
1F
100
AcDbEntity
  8
Sanindusa
100
AcDbPolyline
 90
        3
 70
   128
 43
0.0
 10
3601.205901920226
 20
1109.252692941734
 10
3601.203847900901
 20
1109.248995741411
 10
3601.201359941055
 20
1109.244517461748
  0
ARC
  5
18CD
330
1F
100
AcDbEntity
  8
Sanindusa
100
AcDbCircle
 10
3601.212027374057
 20
1109.239860937481
 30
0.0
 40
0.0020000088596695
100
AcDbArc
 50
269.9998884529411
 51
354.9997674168107
  0
LINE
  5
18CE
330
1F
100
AcDbEntity
  8
Sanindusa
100
AcDbLine
 10
3601.21434461072
 20
1109.243399524416
 30
0.0
 11
3601.21401977157
 21
1109.239686617135
 31
0.0
  0
LWPOLYLINE
  5
18CF
330
1F
100
AcDbEntity
  8
Sanindusa
100
AcDbPolyline
 90
        6
 70
   128
 43
0.0
 10
3601.216349991787
 20
1109.24522511
 10
3601.215687197566
 20
1109.245116645086
 10
3601.215097674011
 20
1109.244794882425
 10
3601.214647965708
 20
1109.244296204379
 10
3601.214388673378
 20
1109.243676850255
 10
3601.214344604863
 20
1109.243399463793
  0
LINE
  5
18D3
330
1F
100
AcDbEntity
  8
Sanindusa
100
AcDbLine
 10
3601.267706634259
 20
1109.244891625308
 30
0.0
 11
3601.216349993872
 21
1109.245225109986
 31
0.0
  0
LINE
  5
18D4
330
1F
100
AcDbEntity
  8
Sanindusa
100
AcDbLine
 10
3601.285283190519
 20
1109.264470986054
 30
0.0
 11
3601.190244855181
 21
1109.265088118101
 31
0.0
  0
LINE
  5
18D5
330
1F
100
AcDbEntity
  8
Sanindusa
100
AcDbLine
 10
3601.279769795559
 20
1109.254813503918
 30
0.0
 11
3601.210305178546
 21
1109.255264572859
 31
0.0
  0
LINE
  5
18D6
330
1F
100
AcDbEntity
  8
Sanindusa
100
AcDbLine
 10
3601.27427853981
 20
1109.227517461748
 30
0.0
 11
3601.27866422473
 21
1109.227517461748
 31
0.0
  0
LWPOLYLINE
  5
18D7
330
1F
100
AcDbEntity
  8
Sanindusa
100
AcDbPolyline
 90
        6
 70
   128
 43
0.0
 10
3601.27370169634
 20
1109.23190356941
 10
3601.274184687317
 20
1109.230295642068
 10
3601.275172715566
 20
1109.228938240494
 10
3601.27655434033
 20
1109.227984386291
 10
3601.278173787697
 20
1109.227541583621
 10
3601.278664219054
 20
1109.227517461748
  0
LINE
  5
18D8
330
1F
100
AcDbEntity
  8
Sanindusa
100
AcDbLine
 10
3601.285283190666
 20
1109.264470986066
 30
0.0
 11
3601.299348219849
 21
1109.301588014109
 31
0.0
  0
LINE
  5
18D9
330
1F
100
AcDbEntity
  8
Sanindusa
100
AcDbLine
 10
3601.306844864672
 20
1109.302352208196
 30
0.0
 11
3601.292011191115
 21
1109.26320676026
 31
0.0
  0
LINE
  5
18DA
330
1F
100
AcDbEntity
  8
Sanindusa
100
AcDbLine
 10
3601.141360638359
 20
1109.237860928621
 30
0.0
 11
3601.130693209253
 21
1109.237860928621
 31
0.0
  0
LINE
  5
18DB
330
1F
100
AcDbEntity
  8
Sanindusa
100
AcDbLine
 10
3601.141360638359
 20
1109.237860928621
 30
0.0
 11
3601.141360638359
 21
1109.244517461748
 31
0.0
  0
LWPOLYLINE
  5
18DC
330
1F
100
AcDbEntity
  8
Sanindusa
100
AcDbPolyline
 90
        6
 70
   128
 43
0.0
 10
3601.128274044012
 20
1109.244564524402
 10
3601.128104123724
 20
1109.245213967877
 10
3601.127728848391
 20
1109.245770618167
 10
3601.127190097796
 20
1109.246171934121
 10
3601.12654907122
 20
1109.246372184467
 10
3601.126321920614
 20
1109.246389807765
  0
LINE
  5
18DD
330
1F
100
AcDbEntity
  8
Sanindusa
100
AcDbLine
 10
3601.128700807845
 20
1109.239686617135
 30
0.0
 11
3601.128274043834
 21
1109.244564524334
 31
0.0
  0
LWPOLYLINE
  5
18DE
330
1F
100
AcDbEntity
  8
Sanindusa
100
AcDbPolyline
 90
        6
 70
   128
 43
0.0
 10
3601.128700807845
 20
1109.239686617135
 10
3601.128870693854
 20
1109.239037230962
 10
3601.129246078776
 20
1109.238480407357
 10
3601.129784615544
 20
1109.23807922503
 10
3601.13042559123
 20
1109.237878914117
 10
3601.130693209253
 20
1109.237860928621
  0
LWPOLYLINE
  5
18DF
330
1F
100
AcDbEntity
  8
Sanindusa
100
AcDbPolyline
 90
        3
 70
   128
 43
0.0
 10
3601.141360638359
 20
1109.244517461748
 10
3601.138807469457
 20
1109.249113116551
 10
3601.136255293333
 20
1109.253706991529
  0
ARC
  5
18E0
330
1F
100
AcDbEntity
  8
Sanindusa
100
AcDbCircle
 10
3601.131884462226
 20
1109.251278703845
 30
0.0
 40
0.0050000747614025
100
AcDbArc
 50
29.05508671696134
 51
88.84596753039875
  0
LINE
  5
18E1
330
1F
100
AcDbEntity
  8
Sanindusa
100
AcDbLine
 10
3601.134586089851
 20
1109.227517461748
 30
0.0
 11
3601.155228645566
 21
1109.227517461748
 31
0.0
  0
LINE
  5
18E7
330
1F
100
AcDbEntity
  8
Sanindusa
100
AcDbLine
 10
3601.079753786937
 20
1109.230684955614
 30
0.0
 11
3601.084983071078
 21
1109.243960261794
 31
0.0
  0
LINE
  5
18E8
330
1F
100
AcDbEntity
  8
Sanindusa
100
AcDbLine
 10
3601.067494973885
 20
1109.230684955614
 30
0.0
 11
3601.062009588443
 21
1109.244610413554
 31
0.0
  0
LWPOLYLINE
  5
18E9
330
1F
100
AcDbEntity
  8
Sanindusa
100
AcDbPolyline
 90
        5
 70
   128
 43
0.0
 10
3601.062009588485
 20
1109.244610413575
 10
3601.061140356891
 20
1109.246047425689
 10
3601.059844368455
 20
1109.247115511637
 10
3601.058268402154
 20
1109.247694232044
 10
3601.057458191207
 20
1109.247776893508
  0
LINE
  5
18EA
330
1F
100
AcDbEntity
  8
Sanindusa
100
AcDbLine
 10
3601.071972053518
 20
1109.227517461748
 30
0.0
 11
3601.070553793737
 21
1109.227517461748
 31
0.0
  0
LINE
  5
18EC
330
1F
100
AcDbEntity
  8
Sanindusa
100
AcDbLine
 10
3601.072147063518
 20
1109.227517461748
 30
0.0
 11
3601.075101697836
 21
1109.227517461748
 31
0.0
  0
ARC
  5
18ED
330
1F
100
AcDbEntity
  8
Sanindusa
100
AcDbCircle
 10
3601.072147062862
 20
1109.232517463416
 30
0.0
 40
0.0050000016680279
100
AcDbArc
 50
201.5000130160087
 51
270.0000075205973
  0
ARC
  5
18EE
330
1F
100
AcDbEntity
  8
Sanindusa
100
AcDbCircle
 10
3601.075101697957
 20
1109.232517463423
 30
0.0
 40
0.0050000016748831
100
AcDbArc
 50
269.9999941302541
 51
338.4999869289003
  0
LINE
  5
18EF
330
1F
100
AcDbEntity
  8
Sanindusa
100
AcDbLine
 10
3601.084233971321
 20
1109.259239997174
 30
0.0
 11
3601.08106274588
 21
1109.259303873494
 31
0.0
  0
LWPOLYLINE
  5
18F0
330
1F
100
AcDbEntity
  8
Sanindusa
100
AcDbPolyline
 90
        5
 70
   128
 43
0.0
 10
3601.08423418743
 20
1109.259258355696
 10
3601.0841676721
 20
1109.259636781497
 10
3601.083975445307
 20
1109.259958917465
 10
3601.083686100274
 20
1109.260176846732
 10
3601.083342676308
 20
1109.260258152898
  0
LINE
  5
18F1
330
1F
100
AcDbEntity
  8
Sanindusa
100
AcDbLine
 10
3601.08334267631
 20
1109.260258152898
 30
0.0
 11
3601.093087372755
 21
1109.260061870622
 31
0.0
  0
LINE
  5
18F2
330
1F
100
AcDbEntity
  8
Sanindusa
100
AcDbLine
 10
3601.083342676302
 20
1109.260258152898
 30
0.0
 11
3601.080139738626
 21
1109.260322667981
 31
0.0
  0
LWPOLYLINE
  5
18F4
330
1F
100
AcDbEntity
  8
Sanindusa
100
AcDbPolyline
 90
        5
 70
   128
 43
0.0
 10
3601.080139738634
 20
1109.260322667982
 10
3601.080495025569
 20
1109.26024118329
 10
3601.080794514345
 20
1109.260023213008
 10
3601.080993692988
 20
1109.2597011533
 10
3601.081062958272
 20
1109.259322870779
  0
LWPOLYLINE
  5
18F5
330
1F
100
AcDbEntity
  8
Sanindusa
100
AcDbPolyline
 90
        9
 70
   128
 43
0.0
 10
3601.08011939742
 20
1109.259322872821
 10
3601.080272853291
 20
1109.259319781865
 10
3601.080422677384
 20
1109.259316764109
 10
3601.080565319178
 20
1109.259313891069
 10
3601.080697398361
 20
1109.259311230829
 10
3601.080815784931
 20
1109.259308846432
 10
3601.080917673372
 20
1109.259306794383
 10
3601.08100064914
 20
1109.259305123311
 10
3601.081062745897
 20
1109.259303873494
  0
LINE
  5
18F7
330
1F
100
AcDbEntity
  8
Sanindusa
100
AcDbLine
 10
3601.075777892177
 20
1109.260410526351
 30
0.0
 11
3601.074777894485
 21
1109.260430668776
 31
0.0
  0
LINE
  5
18F8
330
1F
100
AcDbEntity
  8
Sanindusa
100
AcDbLine
 10
3601.076744086052
 20
1109.259390861979
 30
0.0
 11
3601.075753989321
 21
1109.259410804975
 31
0.0
  0
ARC
  5
18FA
330
1F
100
AcDbEntity
  8
Sanindusa
100
AcDbCircle
 10
3601.075749211736
 20
1109.25941575404
 30
0.0
 40
0.0009951856704479
100
AcDbArc
 50
358.5667410137338
 51
88.34855312698358
  0
ARC
  5
18FC
330
1F
100
AcDbEntity
  8
Sanindusa
100
AcDbCircle
 10
3601.074756059006
 20
1109.259432772006
 30
0.0
 40
0.0009981356378964
100
AcDbArc
 50
359.8909097963644
 51
88.74648196951405
  0
LWPOLYLINE
  5
18FD
330
1F
100
AcDbEntity
  8
Sanindusa
100
AcDbPolyline
 90
        9
 70
   128
 43
0.0
 10
3601.074757553279
 20
1109.259430873616
 10
3601.074942269106
 20
1109.259427153018
 10
3601.075120632368
 20
1109.259423560446
 10
3601.075286502226
 20
1109.259420219586
 10
3601.075434167974
 20
1109.259417245463
 10
3601.075558545654
 20
1109.25941474047
 10
3601.075655353089
 20
1109.259412790852
 10
3601.075721257313
 20
1109.259411463733
 10
3601.075753989322
 20
1109.259410804975
  0
LINE
  5
18FE
330
1F
100
AcDbEntity
  8
Sanindusa
100
AcDbLine
 10
3601.075758514169
 20
1109.260410916673
 30
0.0
 11
3601.080139738626
 21
1109.260322667981
 31
0.0
  0
LINE
  5
18FF
330
1F
100
AcDbEntity
  8
Sanindusa
100
AcDbLine
 10
3601.076757550992
 20
1109.259390590762
 30
0.0
 11
3601.08011939742
 21
1109.259322872821
 31
0.0
  0
LINE
  5
1900
330
1F
100
AcDbEntity
  8
Sanindusa
100
AcDbLine
 10
3601.097174936759
 20
1109.258662514164
 30
0.0
 11
3601.097181315703
 21
1109.258979205652
 31
0.0
  0
LINE
  5
1901
330
1F
100
AcDbEntity
  8
Sanindusa
100
AcDbLine
 10
3601.096419494159
 20
1109.25999475346
 30
0.0
 11
3601.093087372755
 21
1109.260061870622
 31
0.0
  0
LINE
  5
1902
330
1F
100
AcDbEntity
  8
Sanindusa
100
AcDbLine
 10
3601.096617192683
 20
1109.258990568484
 30
0.0
 11
3601.093882185627
 21
1109.259045658288
 31
0.0
  0
LWPOLYLINE
  5
1904
330
1F
100
AcDbEntity
  8
Sanindusa
100
AcDbPolyline
 90
        5
 70
   128
 43
0.0
 10
3601.097181535938
 20
1109.258994956258
 10
3601.097128173117
 20
1109.259367147029
 10
3601.096962264561
 20
1109.259696416577
 10
3601.096714387191
 20
1109.259914177869
 10
3601.096419494168
 20
1109.25999475346
  0
LWPOLYLINE
  5
1907
330
1F
100
AcDbEntity
  8
Sanindusa
100
AcDbPolyline
 90
        9
 70
   128
 43
0.0
 10
3601.093067031548
 20
1109.259062075462
 10
3601.093185868866
 20
1109.259059681799
 10
3601.093303024188
 20
1109.259057322045
 10
3601.093416836496
 20
1109.259055029655
 10
3601.093525692161
 20
1109.259052837131
 10
3601.093628047834
 20
1109.259050775559
 10
3601.093722452322
 20
1109.259048874168
 10
3601.093807567164
 20
1109.259047159915
 10
3601.093882185628
 20
1109.259045658287
  0
LINE
  5
190A
330
1F
100
AcDbEntity
  8
Sanindusa
100
AcDbLine
 10
3601.084322335117
 20
1109.259238217309
 30
0.0
 11
3601.093067031548
 21
1109.259062075462
 31
0.0
  0
ARC
  5
190B
330
1F
100
AcDbEntity
  8
Sanindusa
100
AcDbCircle
 10
3601.089635181289
 20
1109.242127722137
 30
0.0
 40
0.0050000330472166
100
AcDbArc
 50
88.84631968473902
 51
158.4997360940819
  0
ARC
  5
190C
330
1F
100
AcDbEntity
  8
Sanindusa
100
AcDbCircle
 10
3601.098377956481
 20
1109.257954058896
 30
0.0
 40
0.0009991622689885
100
AcDbArc
 50
178.7978831921243
 51
268.7125815713383
  0
LINE
  5
190D
330
1F
100
AcDbEntity
  8
Sanindusa
100
AcDbLine
 10
3601.075101697836
 20
1109.227517461748
 30
0.0
 11
3601.134586089851
 21
1109.227517461748
 31
0.0
  0
LINE
  5
1910
330
1F
100
AcDbEntity
  8
Sanindusa
100
AcDbLine
 10
3601.126321921517
 20
1109.246389807747
 30
0.0
 11
3601.089735852224
 21
1109.247126741625
 31
0.0
  0
LWPOLYLINE
  5
1911
330
1F
100
AcDbEntity
  8
Sanindusa
100
AcDbPolyline
 90
        5
 70
   128
 43
0.0
 10
3601.003568396271
 20
1109.227517461748
 10
3601.0043334445
 20
1109.227576338275
 10
3601.005925857658
 20
1109.228108110711
 10
3601.007252484857
 20
1109.229137004149
 10
3601.008220484533
 20
1109.230684955614
  0
LINE
  5
1912
330
1F
100
AcDbEntity
  8
Sanindusa
100
AcDbLine
 10
3601.008220484533
 20
1109.230684955614
 30
0.0
 11
3601.014012868433
 21
1109.245389777101
 31
0.0
  0
ARC
  5
1913
330
1F
100
AcDbEntity
  8
Sanindusa
100
AcDbCircle
 10
3601.018664977789
 20
1109.243557238696
 30
0.0
 40
0.0050000318274689
100
AcDbArc
 50
88.84632474952315
 51
158.4997461275115
  0
LINE
  5
1914
330
1F
100
AcDbEntity
  8
Sanindusa
100
AcDbLine
 10
3600.992381509701
 20
1109.230684955614
 30
0.0
 11
3600.986295383716
 21
1109.246135484837
 31
0.0
  0
LWPOLYLINE
  5
1915
330
1F
100
AcDbEntity
  8
Sanindusa
100
AcDbPolyline
 90
        5
 70
   128
 43
0.0
 10
3600.986295383734
 20
1109.246135484845
 10
3600.985426152274
 20
1109.247572496991
 10
3600.984130163928
 20
1109.248640582997
 10
3600.982554197874
 20
1109.249219303328
 10
3600.981743987327
 20
1109.249301964742
  0
LINE
  5
1916
330
1F
100
AcDbEntity
  8
Sanindusa
100
AcDbLine
 10
3600.997033598073
 20
1109.227517461748
 30
0.0
 11
3600.992787804234
 21
1109.227517461748
 31
0.0
  0
ARC
  5
1918
330
1F
100
AcDbEntity
  8
Sanindusa
100
AcDbCircle
 10
3600.997033597943
 20
1109.232517462339
 30
0.0
 40
0.0050000005910601
100
AcDbArc
 50
201.5000046162731
 51
270.0000014788877
  0
LINE
  5
1919
330
1F
100
AcDbEntity
  8
Sanindusa
100
AcDbLine
 10
3600.997033597737
 20
1109.227517461748
 30
0.0
 11
3601.003568396271
 21
1109.227517461748
 31
0.0
  0
LINE
  5
191A
330
1F
100
AcDbEntity
  8
Sanindusa
100
AcDbLine
 10
3601.070553793994
 20
1109.227517461748
 30
0.0
 11
3601.003568396271
 21
1109.227517461748
 31
0.0
  0
LINE
  5
191D
330
1F
100
AcDbEntity
  8
Sanindusa
100
AcDbLine
 10
3601.057458191558
 20
1109.247776893501
 30
0.0
 11
3601.018765648439
 21
1109.248556256968
 31
0.0
  0
LINE
  5
191E
330
1F
100
AcDbEntity
  8
Sanindusa
100
AcDbLine
 10
3601.171360289705
 20
1109.255484652066
 30
0.0
 11
3601.131985166411
 21
1109.256277764385
 31
0.0
  0
LINE
  5
1921
330
1F
100
AcDbEntity
  8
Sanindusa
100
AcDbLine
 10
3601.274278539814
 20
1109.227517461748
 30
0.0
 11
3601.155228645565
 21
1109.227517461748
 31
0.0
  0
LINE
  5
1923
330
1F
100
AcDbEntity
  8
Sanindusa
100
AcDbLine
 10
3601.141360638359
 20
1109.237860928621
 30
0.0
 11
3601.201359941056
 21
1109.237860928621
 31
0.0
  0
LINE
  5
1924
330
1F
100
AcDbEntity
  8
Sanindusa
100
AcDbLine
 10
3600.894949924935
 20
1109.230807361031
 30
0.0
 11
3600.901040826258
 21
1109.247541973781
 31
0.0
  0
ARC
  5
1925
330
1F
100
AcDbEntity
  8
Sanindusa
100
AcDbCircle
 10
3600.905739308494
 20
1109.245831845148
 30
0.0
 40
0.0050000275109384
100
AcDbArc
 50
88.84629930066928
 51
159.9997744191972
  0
LINE
  5
1928
330
1F
100
AcDbEntity
  8
Sanindusa
100
AcDbLine
 10
3600.981743987551
 20
1109.249301964737
 30
0.0
 11
3600.90583998141
 21
1109.250830859058
 31
0.0
  0
LINE
  5
1929
330
1F
100
AcDbEntity
  8
Sanindusa
100
AcDbLine
 10
3601.370541812675
 20
1109.299813488166
 30
0.0
 11
3601.37321911422
 21
1109.227517461748
 31
0.0
  0
LINE
  5
1A99
330
1F
100
AcDbEntity
  8
Sanindusa
100
AcDbLine
 10
3599.446186642513
 20
1109.307517461748
 30
0.0
 11
3600.064712769785
 21
1109.307517461748
 31
0.0
  0
LINE
  5
1A9B
330
1F
100
AcDbEntity
  8
Sanindusa
100
AcDbLine
 10
3599.399494847841
 20
1109.22751746175
 30
0.0
 11
3600.111404564545
 21
1109.22751746175
 31
0.0
  0
ARC
  5
1A9D
330
1F
100
AcDbEntity
  8
Sanindusa
100
AcDbCircle
 10
3599.388256579155
 20
1109.299517461748
 30
0.0
 40
0.0080000000000004
100
AcDbArc
 50
90.0
 51
178.5999999963372
  0
LINE
  5
1A9E
330
1F
100
AcDbEntity
  8
Sanindusa
100
AcDbLine
 10
3599.414311090244
 20
1109.307517461748
 30
0.0
 11
3599.388256579155
 21
1109.307517461748
 31
0.0
  0
LINE
  5
1A9F
330
1F
100
AcDbEntity
  8
Sanindusa
100
AcDbLine
 10
3599.389497833071
 20
1109.227517461748
 30
0.0
 11
3599.380544024408
 21
1109.227517461748
 31
0.0
  0
ARC
  5
1AA0
330
1F
100
AcDbEntity
  8
Sanindusa
100
AcDbCircle
 10
3599.380544024408
 20
1109.229517461748
 30
0.0
 40
0.0020000000004302
100
AcDbArc
 50
178.6000000088997
 51
270.0
  0
LINE
  5
1AA1
330
1F
100
AcDbEntity
  8
Sanindusa
100
AcDbLine
 10
3599.389497832855
 20
1109.227517461748
 30
0.0
 11
3599.399494847841
 21
1109.227517461748
 31
0.0
  0
LINE
  5
1AA2
330
1F
100
AcDbEntity
  8
Sanindusa
100
AcDbLine
 10
3599.380258967237
 20
1109.299712919174
 30
0.0
 11
3599.378544621429
 21
1109.229566326104
 31
0.0
  0
LINE
  5
1AA3
330
1F
100
AcDbEntity
  8
Sanindusa
100
AcDbLine
 10
3599.446186642513
 20
1109.307517461748
 30
0.0
 11
3599.414311090244
 21
1109.307517461748
 31
0.0
  0
LINE
  5
1AA5
330
1F
100
AcDbEntity
  8
Sanindusa
100
AcDbLine
 10
3600.122642833143
 20
1109.307517461748
 30
0.0
 11
3600.096588321687
 21
1109.307517461748
 31
0.0
  0
ARC
  5
1AA6
330
1F
100
AcDbEntity
  8
Sanindusa
100
AcDbCircle
 10
3600.122642833143
 20
1109.299517461748
 30
0.0
 40
0.0080000000000004
100
AcDbArc
 50
1.400000003636705
 51
90.0
  0
LINE
  5
1AA7
330
1F
100
AcDbEntity
  8
Sanindusa
100
AcDbLine
 10
3600.096588321687
 20
1109.307517461748
 30
0.0
 11
3600.064712769785
 21
1109.307517461748
 31
0.0
  0
LINE
  5
1AA8
330
1F
100
AcDbEntity
  8
Sanindusa
100
AcDbLine
 10
3600.13035538789
 20
1109.227517461748
 30
0.0
 11
3600.121401579226
 21
1109.227517461748
 31
0.0
  0
LINE
  5
1AA9
330
1F
100
AcDbEntity
  8
Sanindusa
100
AcDbLine
 10
3600.111404564545
 20
1109.227517461748
 30
0.0
 11
3600.121401579443
 21
1109.227517461748
 31
0.0
  0
ARC
  5
1AAA
330
1F
100
AcDbEntity
  8
Sanindusa
100
AcDbCircle
 10
3600.13035538789
 20
1109.229517461748
 30
0.0
 40
0.0020000000004302
100
AcDbArc
 50
270.0
 51
1.399999991100302
  0
LINE
  5
1AAB
330
1F
100
AcDbEntity
  8
Sanindusa
100
AcDbLine
 10
3600.13235479087
 20
1109.229566326104
 30
0.0
 11
3600.130640445061
 21
1109.299712919174
 31
0.0
  0
ARC
  5
1AB5
330
1F
100
AcDbEntity
  8
Sanindusa
100
AcDbCircle
 10
3600.882826898782
 20
1109.232517461922
 30
0.0
 40
0.0050000001739146
100
AcDbArc
 50
198.5000014343914
 51
270.0000005566934
  0
ENDSEC
  0
SECTION
  2
OBJECTS
  0
DICTIONARY
  5
C
330
0
100
AcDbDictionary
281
     1
  3
ACAD_COLOR
350
1AE8
  3
ACAD_GROUP
350
D
  3
ACAD_LAYOUT
350
1A
  3
ACAD_MATERIAL
350
1ABB
  3
ACAD_MLEADERSTYLE
350
1AFD
  3
ACAD_MLINESTYLE
350
17
  3
ACAD_PLOTSETTINGS
350
19
  3
ACAD_PLOTSTYLENAME
350
E
  3
ACAD_SCALELIST
350
1AEB
  3
ACAD_TABLESTYLE
350
1AE9
  3
ACAD_VISUALSTYLE
350
1AD4
  3
ACDB_RECOMPOSE_DATA
350
1B2B
  3
AcDbVariableDictionary
350
3D
  3
ASE_INDEX_DICTIONARY
350
1B21
  3
DWGPROPS
350
1B2C
  0
DICTIONARY
  5
1B03
330
10
100
AcDbDictionary
280
     1
281
     1
  3
ADSK_XREC_LAYER_RECONCILED
360
1B04
  0
DICTIONARY
  5
1B05
330
2F
100
AcDbDictionary
280
     1
281
     1
  3
ADSK_XREC_LAYER_RECONCILED
360
1B06
  0
DICTIONARY
  5
1B07
330
30
100
AcDbDictionary
280
     1
281
     1
  3
ADSK_XREC_LAYER_RECONCILED
360
1B08
  0
DICTIONARY
  5
1B09
330
31
100
AcDbDictionary
280
     1
281
     1
  3
ADSK_XREC_LAYER_RECONCILED
360
1B0A
  0
DICTIONARY
  5
1B0B
330
32
100
AcDbDictionary
280
     1
281
     1
  3
ADSK_XREC_LAYER_RECONCILED
360
1B0C
  0
DICTIONARY
  5
1B0D
330
33
100
AcDbDictionary
280
     1
281
     1
  3
ADSK_XREC_LAYER_RECONCILED
360
1B0E
  0
DICTIONARY
  5
1B0F
330
34
100
AcDbDictionary
280
     1
281
     1
  3
ADSK_XREC_LAYER_RECONCILED
360
1B10
  0
DICTIONARY
  5
1B11
330
35
100
AcDbDictionary
280
     1
281
     1
  3
ADSK_XREC_LAYER_RECONCILED
360
1B12
  0
DICTIONARY
  5
1B13
330
36
100
AcDbDictionary
280
     1
281
     1
  3
ADSK_XREC_LAYER_RECONCILED
360
1B14
  0
DICTIONARY
  5
1B15
330
37
100
AcDbDictionary
280
     1
281
     1
  3
ADSK_XREC_LAYER_RECONCILED
360
1B16
  0
DICTIONARY
  5
1B17
330
5D6
100
AcDbDictionary
280
     1
281
     1
  3
ADSK_XREC_LAYER_RECONCILED
360
1B18
  0
DICTIONARY
  5
1B19
330
8AF
100
AcDbDictionary
280
     1
281
     1
  3
ADSK_XREC_LAYER_RECONCILED
360
1B1A
  0
DICTIONARY
  5
1B1B
330
8F8
100
AcDbDictionary
280
     1
281
     1
  3
ADSK_XREC_LAYER_RECONCILED
360
1B1C
  0
DICTIONARY
  5
1B1D
330
91D
100
AcDbDictionary
280
     1
281
     1
  3
ADSK_XREC_LAYER_RECONCILED
360
1B1E
  0
DICTIONARY
  5
1B1F
330
BA2
100
AcDbDictionary
280
     1
281
     1
  3
ADSK_XREC_LAYER_RECONCILED
360
1B20
  0
DICTIONARY
  5
1AE8
102
{ACAD_REACTORS
330
C
102
}
330
C
100
AcDbDictionary
281
     1
  0
DICTIONARY
  5
D
102
{ACAD_REACTORS
330
C
102
}
330
C
100
AcDbDictionary
281
     1
  0
DICTIONARY
  5
1A
102
{ACAD_REACTORS
330
C
102
}
330
C
100
AcDbDictionary
281
     1
  3
Layout1
350
1E
  3
Layout2
350
26
  3
Model
350
22
  0
DICTIONARY
  5
1ABB
102
{ACAD_REACTORS
330
C
102
}
330
C
100
AcDbDictionary
281
     1
  3
ByBlock
350
1AC4
  3
ByLayer
350
1ABC
  3
Global
350
1ACC
  0
DICTIONARY
  5
1AFD
102
{ACAD_REACTORS
330
C
102
}
330
C
100
AcDbDictionary
281
     1
  3
Standard
350
1AFE
  0
DICTIONARY
  5
17
102
{ACAD_REACTORS
330
C
102
}
330
C
100
AcDbDictionary
281
     1
  3
Standard
350
18
  0
DICTIONARY
  5
19
102
{ACAD_REACTORS
330
C
102
}
330
C
100
AcDbDictionary
281
     1
  0
ACDBDICTIONARYWDFLT
  5
E
102
{ACAD_REACTORS
330
C
102
}
330
C
100
AcDbDictionary
281
     1
  3
Normal
350
F
100
AcDbDictionaryWithDefault
340
F
  0
DICTIONARY
  5
1AEB
102
{ACAD_REACTORS
330
C
102
}
330
C
100
AcDbDictionary
281
     1
  3
A0
350
1AEC
  3
A1
350
1AED
  3
A2
350
1AEE
  3
A3
350
1AEF
  3
A4
350
1AF0
  3
A5
350
1AF1
  3
A6
350
1AF2
  3
A7
350
1AF3
  3
A8
350
1AF4
  3
A9
350
1AF5
  3
B0
350
1AF6
  3
B1
350
1AF7
  3
B2
350
1AF8
  3
B3
350
1AF9
  3
B4
350
1AFA
  3
B5
350
1AFB
  3
B6
350
1AFC
  0
DICTIONARY
  5
1AE9
102
{ACAD_REACTORS
330
C
102
}
330
C
100
AcDbDictionary
281
     1
  3
Standard
350
1AEA
  0
DICTIONARY
  5
1AD4
102
{ACAD_REACTORS
330
C
102
}
330
C
100
AcDbDictionary
281
     1
  3
2dWireframe
350
1ADA
  3
3D Hidden
350
1ADC
  3
3dWireframe
350
1ADB
  3
Basic
350
1AD9
  3
Brighten
350
1AE0
  3
ColorChange
350
1AE4
  3
Conceptual
350
1ADD
  3
Dim
350
1ADF
  3
EdgeColorOff
350
1AE7
  3
Facepattern
350
1AE3
  3
Flat
350
1AD5
  3
FlatWithEdges
350
1AD6
  3
Gouraud
350
1AD7
  3
GouraudWithEdges
350
1AD8
  3
JitterOff
350
1AE5
  3
Linepattern
350
1AE2
  3
OverhangOff
350
1AE6
  3
Realistic
350
1ADE
  3
Thicken
350
1AE1
  0
XRECORD
  5
1B2B
102
{ACAD_REACTORS
330
C
102
}
330
C
100
AcDbXrecord
280
     1
 90
        1
330
1AEA
  0
DICTIONARY
  5
3D
102
{ACAD_REACTORS
330
C
102
}
330
C
100
AcDbDictionary
281
     1
  3
CANNOSCALE
350
1B25
  3
CMLEADERSTYLE
350
1B24
  3
CTABLESTYLE
350
1B23
  3
DIMASSOC
350
3F
  3
HIDETEXT
350
3E
  3
INDEXCTL
350
1B27
  3
SORTENTS
350
1B26
  3
XCLIPFRAME
350
1B28
  0
DICTIONARY
  5
1B21
102
{ACAD_REACTORS
330
C
102
}
330
C
100
AcDbDictionary
281
     1
  3
ASEBlockHierarchyIndexRecord
350
1B22
1001
DCO15
1040
1757671148.031
  0
XRECORD
  5
1B2C
102
{ACAD_REACTORS
330
C
102
}
330
C
100
AcDbXrecord
280
     1
  1
DWGPROPS COOKIE
  2

  3

  4

  6

  7

  8
Julio
  9

300
=
301
=
302
=
303
=
304
=
305
=
306
=
307
=
308
=
309
=
 40
0.0102484837962963
 41
2453157.76784559
 42
2456146.627917025
  1

 90
        0
  0
XRECORD
  5
1B04
102
{ACAD_REACTORS
330
1B03
102
}
330
1B03
100
AcDbXrecord
280
     1
290
     1
  0
XRECORD
  5
1B06
102
{ACAD_REACTORS
330
1B05
102
}
330
1B05
100
AcDbXrecord
280
     1
290
     1
  0
XRECORD
  5
1B08
102
{ACAD_REACTORS
330
1B07
102
}
330
1B07
100
AcDbXrecord
280
     1
290
     1
  0
XRECORD
  5
1B0A
102
{ACAD_REACTORS
330
1B09
102
}
330
1B09
100
AcDbXrecord
280
     1
290
     1
  0
XRECORD
  5
1B0C
102
{ACAD_REACTORS
330
1B0B
102
}
330
1B0B
100
AcDbXrecord
280
     1
290
     1
  0
XRECORD
  5
1B0E
102
{ACAD_REACTORS
330
1B0D
102
}
330
1B0D
100
AcDbXrecord
280
     1
290
     1
  0
XRECORD
  5
1B10
102
{ACAD_REACTORS
330
1B0F
102
}
330
1B0F
100
AcDbXrecord
280
     1
290
     1
  0
XRECORD
  5
1B12
102
{ACAD_REACTORS
330
1B11
102
}
330
1B11
100
AcDbXrecord
280
     1
290
     1
  0
XRECORD
  5
1B14
102
{ACAD_REACTORS
330
1B13
102
}
330
1B13
100
AcDbXrecord
280
     1
290
     1
  0
XRECORD
  5
1B16
102
{ACAD_REACTORS
330
1B15
102
}
330
1B15
100
AcDbXrecord
280
     1
290
     1
  0
XRECORD
  5
1B18
102
{ACAD_REACTORS
330
1B17
102
}
330
1B17
100
AcDbXrecord
280
     1
290
     1
  0
XRECORD
  5
1B1A
102
{ACAD_REACTORS
330
1B19
102
}
330
1B19
100
AcDbXrecord
280
     1
290
     1
  0
XRECORD
  5
1B1C
102
{ACAD_REACTORS
330
1B1B
102
}
330
1B1B
100
AcDbXrecord
280
     1
290
     1
  0
XRECORD
  5
1B1E
102
{ACAD_REACTORS
330
1B1D
102
}
330
1B1D
100
AcDbXrecord
280
     1
290
     1
  0
XRECORD
  5
1B20
102
{ACAD_REACTORS
330
1B1F
102
}
330
1B1F
100
AcDbXrecord
280
     1
290
     1
  0
LAYOUT
  5
1E
102
{ACAD_XDICTIONARY
360
1B2D
102
}
102
{ACAD_REACTORS
330
1A
102
}
330
1A
100
AcDbPlotSettings
  1

  2
Ploter HP500
  4

  6

 40
0.0
 41
0.0
 42
0.0
 43
0.0
 44
0.0
 45
0.0
 46
0.0
 47
0.0
 48
0.0
 49
0.0
140
0.0
141
0.0
142
1.0
143
1.0
 70
   688
 72
     0
 73
     0
 74
     5
  7
monochrome.ctb
 75
    16
147
1.0
148
0.0
149
0.0
100
AcDbLayout
  1
Layout1
 70
     1
 71
     1
 10
0.0
 20
0.0
 11
420.0
 21
297.0
 12
0.0
 22
0.0
 32
0.0
 14
1.000000000000000E+20
 24
1.000000000000000E+20
 34
1.000000000000000E+20
 15
-1.000000000000000E+20
 25
-1.000000000000000E+20
 35
-1.000000000000000E+20
146
0.0
 13
0.0
 23
0.0
 33
0.0
 16
1.0
 26
0.0
 36
0.0
 17
0.0
 27
1.0
 37
0.0
 76
     0
330
1B
  0
LAYOUT
  5
26
102
{ACAD_XDICTIONARY
360
1B31
102
}
102
{ACAD_REACTORS
330
1A
102
}
330
1A
100
AcDbPlotSettings
  1

  2
Ploter HP500
  4

  6

 40
0.0
 41
0.0
 42
0.0
 43
0.0
 44
0.0
 45
0.0
 46
0.0
 47
0.0
 48
0.0
 49
0.0
140
0.0
141
0.0
142
1.0
143
1.0
 70
   688
 72
     0
 73
     0
 74
     5
  7
monochrome.ctb
 75
    16
147
1.0
148
0.0
149
0.0
100
AcDbLayout
  1
Layout2
 70
     1
 71
     2
 10
0.0
 20
0.0
 11
12.0
 21
9.0
 12
0.0
 22
0.0
 32
0.0
 14
0.0
 24
0.0
 34
0.0
 15
0.0
 25
0.0
 35
0.0
146
0.0
 13
0.0
 23
0.0
 33
0.0
 16
1.0
 26
0.0
 36
0.0
 17
0.0
 27
1.0
 37
0.0
 76
     0
330
23
  0
LAYOUT
  5
22
102
{ACAD_XDICTIONARY
360
1B2F
102
}
102
{ACAD_REACTORS
330
1A
102
}
330
1A
100
AcDbPlotSettings
  1

  2
Ploter HP500
  4
User268
  6

 40
4.995333194732666
 41
16.97565841674804
 42
4.995330810546875
 43
16.97567749023437
 44
209.9733276367187
 45
296.9259948730469
 46
0.0
 47
0.0
 48
0.0
 49
0.0
140
0.0
141
0.0
142
1.0
143
1.0
 70
 11952
 72
     1
 73
     1
 74
     0
  7

 75
     0
147
1.0
148
-427.5957866592534
149
7.362384574453926
100
AcDbLayout
  1
Model
 70
     1
 71
     0
 10
0.0
 20
0.0
 11
12.0
 21
9.0
 12
0.0
 22
0.0
 32
0.0
 14
0.0
 24
0.0
 34
0.0
 15
0.0
 25
0.0
 35
0.0
146
0.0
 13
0.0
 23
0.0
 33
0.0
 16
1.0
 26
0.0
 36
0.0
 17
0.0
 27
1.0
 37
0.0
 76
     0
330
1F
331
1AB9
  0
MATERIAL
  5
1AC4
102
{ACAD_XDICTIONARY
360
1AC5
102
}
102
{ACAD_REACTORS
330
1ABB
102
}
330
1ABB
100
AcDbMaterial
  1
ByBlock
 72
     0
 43
0.0008202099737533
 43
0.0
 43
0.0
 43
0.0
 43
0.0
 43
0.0008202099737533
 43
0.0
 43
0.0
 43
0.0
 43
0.0
 43
1.0
 43
0.0
 43
0.0
 43
0.0
 43
0.0
 43
1.0
 77
     0
 47
0.0008202099737533
 47
0.0
 47
0.0
 47
0.0
 47
0.0
 47
0.0008202099737533
 47
0.0
 47
0.0
 47
0.0
 47
0.0
 47
1.0
 47
0.0
 47
0.0
 47
0.0
 47
0.0
 47
1.0
171
     0
 49
0.0008202099737533
 49
0.0
 49
0.0
 49
0.0
 49
0.0
 49
0.0008202099737533
 49
0.0
 49
0.0
 49
0.0
 49
0.0
 49
1.0
 49
0.0
 49
0.0
 49
0.0
 49
0.0
 49
1.0
175
     0
142
0.0008202099737533
142
0.0
142
0.0
142
0.0
142
0.0
142
0.0008202099737533
142
0.0
142
0.0
142
0.0
142
0.0
142
1.0
142
0.0
142
0.0
142
0.0
142
0.0
142
1.0
179
     0
144
0.0008202099737533
144
0.0
144
0.0
144
0.0
144
0.0
144
0.0008202099737533
144
0.0
144
0.0
144
0.0
144
0.0
144
1.0
144
0.0
144
0.0
144
0.0
144
0.0
144
1.0
147
0.0008202099737533
147
0.0
147
0.0
147
0.0
147
0.0
147
0.0008202099737533
147
0.0
147
0.0
147
0.0
147
0.0
147
1.0
147
0.0
147
0.0
147
0.0
147
0.0
147
1.0
  0
MATERIAL
  5
1ABC
102
{ACAD_XDICTIONARY
360
1ABD
102
}
102
{ACAD_REACTORS
330
1ABB
102
}
330
1ABB
100
AcDbMaterial
  1
ByLayer
 72
     0
 43
0.0008202099737533
 43
0.0
 43
0.0
 43
0.0
 43
0.0
 43
0.0008202099737533
 43
0.0
 43
0.0
 43
0.0
 43
0.0
 43
1.0
 43
0.0
 43
0.0
 43
0.0
 43
0.0
 43
1.0
 77
     0
 47
0.0008202099737533
 47
0.0
 47
0.0
 47
0.0
 47
0.0
 47
0.0008202099737533
 47
0.0
 47
0.0
 47
0.0
 47
0.0
 47
1.0
 47
0.0
 47
0.0
 47
0.0
 47
0.0
 47
1.0
171
     0
 49
0.0008202099737533
 49
0.0
 49
0.0
 49
0.0
 49
0.0
 49
0.0008202099737533
 49
0.0
 49
0.0
 49
0.0
 49
0.0
 49
1.0
 49
0.0
 49
0.0
 49
0.0
 49
0.0
 49
1.0
175
     0
142
0.0008202099737533
142
0.0
142
0.0
142
0.0
142
0.0
142
0.0008202099737533
142
0.0
142
0.0
142
0.0
142
0.0
142
1.0
142
0.0
142
0.0
142
0.0
142
0.0
142
1.0
179
     0
144
0.0008202099737533
144
0.0
144
0.0
144
0.0
144
0.0
144
0.0008202099737533
144
0.0
144
0.0
144
0.0
144
0.0
144
1.0
144
0.0
144
0.0
144
0.0
144
0.0
144
1.0
147
0.0008202099737533
147
0.0
147
0.0
147
0.0
147
0.0
147
0.0008202099737533
147
0.0
147
0.0
147
0.0
147
0.0
147
1.0
147
0.0
147
0.0
147
0.0
147
0.0
147
1.0
  0
MATERIAL
  5
1ACC
102
{ACAD_XDICTIONARY
360
1ACD
102
}
102
{ACAD_REACTORS
330
1ABB
102
}
330
1ABB
100
AcDbMaterial
  1
Global
 72
     0
 43
0.0008202099737533
 43
0.0
 43
0.0
 43
0.0
 43
0.0
 43
0.0008202099737533
 43
0.0
 43
0.0
 43
0.0
 43
0.0
 43
1.0
 43
0.0
 43
0.0
 43
0.0
 43
0.0
 43
1.0
 77
     0
 47
0.0008202099737533
 47
0.0
 47
0.0
 47
0.0
 47
0.0
 47
0.0008202099737533
 47
0.0
 47
0.0
 47
0.0
 47
0.0
 47
1.0
 47
0.0
 47
0.0
 47
0.0
 47
0.0
 47
1.0
171
     0
 49
0.0008202099737533
 49
0.0
 49
0.0
 49
0.0
 49
0.0
 49
0.0008202099737533
 49
0.0
 49
0.0
 49
0.0
 49
0.0
 49
1.0
 49
0.0
 49
0.0
 49
0.0
 49
0.0
 49
1.0
175
     0
142
0.0008202099737533
142
0.0
142
0.0
142
0.0
142
0.0
142
0.0008202099737533
142
0.0
142
0.0
142
0.0
142
0.0
142
1.0
142
0.0
142
0.0
142
0.0
142
0.0
142
1.0
179
     0
144
0.0008202099737533
144
0.0
144
0.0
144
0.0
144
0.0
144
0.0008202099737533
144
0.0
144
0.0
144
0.0
144
0.0
144
1.0
144
0.0
144
0.0
144
0.0
144
0.0
144
1.0
147
0.0008202099737533
147
0.0
147
0.0
147
0.0
147
0.0
147
0.0008202099737533
147
0.0
147
0.0
147
0.0
147
0.0
147
1.0
147
0.0
147
0.0
147
0.0
147
0.0
147
1.0
  0
MLEADERSTYLE
  5
1AFE
102
{ACAD_REACTORS
330
1AFD
102
}
330
1AFD
100
AcDbMLeaderStyle
170
     2
171
     1
172
     0
 90
        2
 40
0.0
 41
0.0
173
     1
 91
-1056964608
340
14
 92
       -2
290
     1
 42
2.0
291
     1
 43
0.36
  3
Standard
 44
4.0
300

342
11
174
     1
178
     6
175
     1
176
     0
 93
-1056964608
 45
4.0
292
     0
297
     0
 46
4.0
 94
-1056964608
 47
1.0
 49
1.0
140
1.0
293
     1
141
0.0
294
     1
177
     0
142
1.0
295
     0
296
     0
143
0.125
1001
ACAD_MLEADERVER
1070
     2
  0
MLINESTYLE
  5
18
102
{ACAD_REACTORS
330
17
102
}
330
17
100
AcDbMlineStyle
  2
STANDARD
 70
     0
  3

 62
   256
 51
90.0
 52
90.0
 71
     2
 49
0.5
 62
   256
  6
BYLAYER
 49
-0.5
 62
   256
  6
BYLAYER
  0
ACDBPLACEHOLDER
  5
F
102
{ACAD_REACTORS
330
E
102
}
330
E
  0
SCALE
  5
1AEC
102
{ACAD_REACTORS
330
1AEB
102
}
330
1AEB
100
AcDbScale
 70
     0
300
1:1
140
1.0
141
1.0
290
     1
  0
SCALE
  5
1AED
102
{ACAD_REACTORS
330
1AEB
102
}
330
1AEB
100
AcDbScale
 70
     0
300
1:2
140
1.0
141
2.0
290
     0
  0
SCALE
  5
1AEE
102
{ACAD_REACTORS
330
1AEB
102
}
330
1AEB
100
AcDbScale
 70
     0
300
1:4
140
1.0
141
4.0
290
     0
  0
SCALE
  5
1AEF
102
{ACAD_REACTORS
330
1AEB
102
}
330
1AEB
100
AcDbScale
 70
     0
300
1:5
140
1.0
141
5.0
290
     0
  0
SCALE
  5
1AF0
102
{ACAD_REACTORS
330
1AEB
102
}
330
1AEB
100
AcDbScale
 70
     0
300
1:8
140
1.0
141
8.0
290
     0
  0
SCALE
  5
1AF1
102
{ACAD_REACTORS
330
1AEB
102
}
330
1AEB
100
AcDbScale
 70
     0
300
1:10
140
1.0
141
10.0
290
     0
  0
SCALE
  5
1AF2
102
{ACAD_REACTORS
330
1AEB
102
}
330
1AEB
100
AcDbScale
 70
     0
300
1:16
140
1.0
141
16.0
290
     0
  0
SCALE
  5
1AF3
102
{ACAD_REACTORS
330
1AEB
102
}
330
1AEB
100
AcDbScale
 70
     0
300
1:20
140
1.0
141
20.0
290
     0
  0
SCALE
  5
1AF4
102
{ACAD_REACTORS
330
1AEB
102
}
330
1AEB
100
AcDbScale
 70
     0
300
1:30
140
1.0
141
30.0
290
     0
  0
SCALE
  5
1AF5
102
{ACAD_REACTORS
330
1AEB
102
}
330
1AEB
100
AcDbScale
 70
     0
300
1:40
140
1.0
141
40.0
290
     0
  0
SCALE
  5
1AF6
102
{ACAD_REACTORS
330
1AEB
102
}
330
1AEB
100
AcDbScale
 70
     0
300
1:50
140
1.0
141
50.0
290
     0
  0
SCALE
  5
1AF7
102
{ACAD_REACTORS
330
1AEB
102
}
330
1AEB
100
AcDbScale
 70
     0
300
1:100
140
1.0
141
100.0
290
     0
  0
SCALE
  5
1AF8
102
{ACAD_REACTORS
330
1AEB
102
}
330
1AEB
100
AcDbScale
 70
     0
300
2:1
140
2.0
141
1.0
290
     0
  0
SCALE
  5
1AF9
102
{ACAD_REACTORS
330
1AEB
102
}
330
1AEB
100
AcDbScale
 70
     0
300
4:1
140
4.0
141
1.0
290
     0
  0
SCALE
  5
1AFA
102
{ACAD_REACTORS
330
1AEB
102
}
330
1AEB
100
AcDbScale
 70
     0
300
8:1
140
8.0
141
1.0
290
     0
  0
SCALE
  5
1AFB
102
{ACAD_REACTORS
330
1AEB
102
}
330
1AEB
100
AcDbScale
 70
     0
300
10:1
140
10.0
141
1.0
290
     0
  0
SCALE
  5
1AFC
102
{ACAD_REACTORS
330
1AEB
102
}
330
1AEB
100
AcDbScale
 70
     0
300
100:1
140
100.0
141
1.0
290
     0
  0
TABLESTYLE
  5
1AEA
102
{ACAD_XDICTIONARY
360
1B29
102
}
102
{ACAD_REACTORS
330
1AE9
102
}
330
1AE9
100
AcDbTableStyle
  3
Standard
 70
     0
 71
     0
 40
1.5
 41
1.5
280
     0
281
     0
  7
Standard
140
4.5
170
     2
 62
     0
 63
     7
283
     0
274
    -2
284
     1
 64
     0
275
    -2
285
     1
 65
     0
276
    -2
286
     1
 66
     0
277
    -2
287
     1
 67
     0
278
    -2
288
     1
 68
     0
279
    -2
289
     1
 69
     0
  7
Standard
140
6.0
170
     5
 62
     0
 63
     7
283
     0
274
    -2
284
     1
 64
     0
275
    -2
285
     1
 65
     0
276
    -2
286
     1
 66
     0
277
    -2
287
     1
 67
     0
278
    -2
288
     1
 68
     0
279
    -2
289
     1
 69
     0
  7
Standard
140
4.5
170
     5
 62
     0
 63
     7
283
     0
274
    -2
284
     1
 64
     0
275
    -2
285
     1
 65
     0
276
    -2
286
     1
 66
     0
277
    -2
287
     1
 67
     0
278
    -2
288
     1
 68
     0
279
    -2
289
     1
 69
     0
  0
VISUALSTYLE
  5
1ADA
102
{ACAD_XDICTIONARY
360
1B40
102
}
102
{ACAD_REACTORS
330
1AD4
102
}
330
1AD4
100
AcDbVisualStyle
  2
2dWireframe
 70
     4
 71
     0
 72
     2
 73
     0
 90
        0
 40
-0.6
 41
-30.0
 62
     5
 63
     7
 74
     1
 91
        4
 64
     7
 65
   257
 75
     1
175
     1
 42
1.0
 92
        0
 66
   257
 43
1.0
 76
     1
 77
     6
 78
     2
 67
     7
 79
     5
170
     0
171
     0
290
     0
174
     0
 93
        1
 44
0.0
173
     0
291
     0
 45
0.0
1001
ACAD
1000
AcDbSavedByObjectVersion
1070
     0
  0
VISUALSTYLE
  5
1ADC
102
{ACAD_XDICTIONARY
360
1B44
102
}
102
{ACAD_REACTORS
330
1AD4
102
}
330
1AD4
100
AcDbVisualStyle
  2
3D Hidden
 70
     6
 71
     1
 72
     2
 73
     2
 90
        0
 40
-0.6
 41
-30.0
 62
     5
 63
     7
 74
     2
 91
        2
 64
     7
 65
   257
 75
     2
175
     1
 42
179.0
 92
        0
 66
   257
 43
1.0
 76
     1
 77
     6
 78
     2
 67
     7
 79
     3
170
     0
171
     0
290
     0
174
     0
 93
        1
 44
0.0
173
     0
291
     0
 45
0.0
1001
ACAD
1000
AcDbSavedByObjectVersion
1070
     0
  0
VISUALSTYLE
  5
1ADB
102
{ACAD_XDICTIONARY
360
1B42
102
}
102
{ACAD_REACTORS
330
1AD4
102
}
330
1AD4
100
AcDbVisualStyle
  2
3dWireframe
 70
     5
 71
     0
 72
     2
 73
     0
 90
        0
 40
-0.6
 41
-30.0
 62
     5
 63
     7
 74
     1
 91
        4
 64
     7
 65
   257
 75
     1
175
     1
 42
1.0
 92
        0
 66
   257
 43
1.0
 76
     1
 77
     6
 78
     2
 67
     7
 79
     5
170
     0
171
     0
290
     0
174
     0
 93
        1
 44
0.0
173
     0
291
     0
 45
0.0
1001
ACAD
1000
AcDbSavedByObjectVersion
1070
     0
  0
VISUALSTYLE
  5
1AD9
102
{ACAD_XDICTIONARY
360
1B3E
102
}
102
{ACAD_REACTORS
330
1AD4
102
}
330
1AD4
100
AcDbVisualStyle
  2
Basic
 70
     7
 71
     1
 72
     0
 73
     1
 90
        0
 40
-0.6
 41
-30.0
 62
     5
 63
     7
 74
     0
 91
        4
 64
     7
 65
   257
 75
     1
175
     1
 42
1.0
 92
        8
 66
     7
 43
1.0
 76
     1
 77
     6
 78
     2
 67
     7
 79
     5
170
     0
171
     0
290
     0
174
     0
 93
        1
 44
0.0
173
     0
291
     1
 45
0.0
1001
ACAD
1000
AcDbSavedByObjectVersion
1070
     0
  0
VISUALSTYLE
  5
1AE0
102
{ACAD_XDICTIONARY
360
1B4C
102
}
102
{ACAD_REACTORS
330
1AD4
102
}
330
1AD4
100
AcDbVisualStyle
  2
Brighten
 70
    12
 71
     2
 72
     2
 73
     0
 90
        0
 40
-0.6
 41
-30.0
 62
     5
 63
     7
 74
     1
 91
        4
 64
     7
 65
   257
 75
     1
175
     1
 42
1.0
 92
        8
 66
     7
 43
1.0
 76
     1
 77
     6
 78
     2
 67
     7
 79
     5
170
     0
171
     0
290
     0
174
     0
 93
        1
 44
50.0
173
     0
291
     1
 45
0.0
1001
ACAD
1000
AcDbSavedByObjectVersion
1070
     0
  0
VISUALSTYLE
  5
1AE4
102
{ACAD_XDICTIONARY
360
1B54
102
}
102
{ACAD_REACTORS
330
1AD4
102
}
330
1AD4
100
AcDbVisualStyle
  2
ColorChange
 70
    16
 71
     2
 72
     2
 73
     3
 90
        0
 40
-0.6
 41
-30.0
 62
     5
 63
     8
 74
     1
 91
        4
 64
     7
 65
   257
 75
     1
175
     1
 42
1.0
 92
        8
 66
     8
 43
1.0
 76
     1
 77
     6
 78
     2
 67
     7
 79
     5
170
     0
171
     0
290
     0
174
     0
 93
        1
 44
0.0
173
     0
291
     1
 45
0.0
1001
ACAD
1000
AcDbSavedByObjectVersion
1070
     0
  0
VISUALSTYLE
  5
1ADD
102
{ACAD_XDICTIONARY
360
1B46
102
}
102
{ACAD_REACTORS
330
1AD4
102
}
330
1AD4
100
AcDbVisualStyle
  2
Conceptual
 70
     9
 71
     3
 72
     2
 73
     0
 90
        0
 40
-0.6
 41
-30.0
 62
     5
 63
     7
 74
     2
 91
        2
 64
     7
 65
   257
 75
     1
175
     1
 42
179.0
 92
        8
 66
     7
 43
1.0
 76
     1
 77
     6
 78
     2
 67
     7
 79
     3
170
     0
171
     0
290
     0
174
     0
 93
        1
 44
0.0
173
     0
291
     0
 45
0.0
1001
ACAD
1000
AcDbSavedByObjectVersion
1070
     0
  0
VISUALSTYLE
  5
1ADF
102
{ACAD_XDICTIONARY
360
1B4A
102
}
102
{ACAD_REACTORS
330
1AD4
102
}
330
1AD4
100
AcDbVisualStyle
  2
Dim
 70
    11
 71
     2
 72
     2
 73
     0
 90
        0
 40
-0.6
 41
-30.0
 62
     5
 63
     7
 74
     1
 91
        4
 64
     7
 65
   257
 75
     1
175
     1
 42
1.0
 92
        8
 66
     7
 43
1.0
 76
     1
 77
     6
 78
     2
 67
     7
 79
     5
170
     0
171
     0
290
     0
174
     0
 93
        1
 44
-50.0
173
     0
291
     1
 45
0.0
1001
ACAD
1000
AcDbSavedByObjectVersion
1070
     0
  0
VISUALSTYLE
  5
1AE7
102
{ACAD_XDICTIONARY
360
1B5A
102
}
102
{ACAD_REACTORS
330
1AD4
102
}
330
1AD4
100
AcDbVisualStyle
  2
EdgeColorOff
 70
    22
 71
     2
 72
     2
 73
     0
 90
        0
 40
-0.6
 41
-30.0
 62
     5
 63
     7
 74
     1
 91
        4
 64
     7
 65
   257
 75
     1
175
     1
 42
1.0
 92
        8
 66
     7
 43
1.0
 76
     1
 77
     6
 78
     2
 67
     7
 79
     5
170
     0
171
     0
290
     0
174
     0
 93
        1
 44
0.0
173
     0
291
     1
 45
0.0
1001
ACAD
1000
AcDbSavedByObjectVersion
1070
     0
  0
VISUALSTYLE
  5
1AE3
102
{ACAD_XDICTIONARY
360
1B52
102
}
102
{ACAD_REACTORS
330
1AD4
102
}
330
1AD4
100
AcDbVisualStyle
  2
Facepattern
 70
    15
 71
     2
 72
     2
 73
     0
 90
        0
 40
-0.6
 41
-30.0
 62
     5
 63
     7
 74
     1
 91
        4
 64
     7
 65
   257
 75
     1
175
     1
 42
1.0
 92
        8
 66
     7
 43
1.0
 76
     1
 77
     6
 78
     2
 67
     7
 79
     5
170
     0
171
     0
290
     0
174
     0
 93
        1
 44
0.0
173
     0
291
     1
 45
0.0
1001
ACAD
1000
AcDbSavedByObjectVersion
1070
     0
  0
VISUALSTYLE
  5
1AD5
102
{ACAD_XDICTIONARY
360
1B36
102
}
102
{ACAD_REACTORS
330
1AD4
102
}
330
1AD4
100
AcDbVisualStyle
  2
Flat
 70
     0
 71
     2
 72
     1
 73
     1
 90
        2
 40
-0.6
 41
30.0
 62
     5
 63
     7
 74
     0
 91
        4
 64
     7
 65
   257
 75
     1
175
     1
 42
1.0
 92
        8
 66
     7
 43
1.0
 76
     1
 77
     6
 78
     2
 67
     7
 79
     5
170
     0
171
     0
290
     0
174
     0
 93
       13
 44
0.0
173
     0
291
     1
 45
0.0
1001
ACAD
1000
AcDbSavedByObjectVersion
1070
     0
  0
VISUALSTYLE
  5
1AD6
102
{ACAD_XDICTIONARY
360
1B38
102
}
102
{ACAD_REACTORS
330
1AD4
102
}
330
1AD4
100
AcDbVisualStyle
  2
FlatWithEdges
 70
     1
 71
     2
 72
     1
 73
     1
 90
        2
 40
-0.6
 41
30.0
 62
     5
 63
     7
 74
     1
 91
        4
 64
     7
 65
   257
 75
     1
175
     1
 42
1.0
 92
        0
 66
   257
 43
1.0
 76
     1
 77
     6
 78
     2
 67
     7
 79
     5
170
     0
171
     0
290
     0
174
     0
 93
       13
 44
0.0
173
     0
291
     1
 45
0.0
1001
ACAD
1000
AcDbSavedByObjectVersion
1070
     0
  0
VISUALSTYLE
  5
1AD7
102
{ACAD_XDICTIONARY
360
1B3A
102
}
102
{ACAD_REACTORS
330
1AD4
102
}
330
1AD4
100
AcDbVisualStyle
  2
Gouraud
 70
     2
 71
     2
 72
     2
 73
     1
 90
        2
 40
-0.6
 41
30.0
 62
     5
 63
     7
 74
     0
 91
        4
 64
     7
 65
   257
 75
     1
175
     1
 42
1.0
 92
        0
 66
     7
 43
1.0
 76
     1
 77
     6
 78
     2
 67
     7
 79
     5
170
     0
171
     0
290
     0
174
     0
 93
       13
 44
0.0
173
     0
291
     1
 45
0.0
1001
ACAD
1000
AcDbSavedByObjectVersion
1070
     0
  0
VISUALSTYLE
  5
1AD8
102
{ACAD_XDICTIONARY
360
1B3C
102
}
102
{ACAD_REACTORS
330
1AD4
102
}
330
1AD4
100
AcDbVisualStyle
  2
GouraudWithEdges
 70
     3
 71
     2
 72
     2
 73
     1
 90
        2
 40
-0.6
 41
30.0
 62
     5
 63
     7
 74
     1
 91
        4
 64
     7
 65
   257
 75
     1
175
     1
 42
1.0
 92
        0
 66
   257
 43
1.0
 76
     1
 77
     6
 78
     2
 67
     7
 79
     5
170
     0
171
     0
290
     0
174
     0
 93
       13
 44
0.0
173
     0
291
     1
 45
0.0
1001
ACAD
1000
AcDbSavedByObjectVersion
1070
     0
  0
VISUALSTYLE
  5
1AE5
102
{ACAD_XDICTIONARY
360
1B56
102
}
102
{ACAD_REACTORS
330
1AD4
102
}
330
1AD4
100
AcDbVisualStyle
  2
JitterOff
 70
    20
 71
     2
 72
     2
 73
     0
 90
        0
 40
-0.6
 41
-30.0
 62
     5
 63
     7
 74
     1
 91
        4
 64
     7
 65
   257
 75
     1
175
     1
 42
1.0
 92
       10
 66
     7
 43
1.0
 76
     1
 77
     6
 78
     2
 67
     7
 79
     5
170
     0
171
     0
290
     0
174
     0
 93
        1
 44
0.0
173
     0
291
     1
 45
0.0
1001
ACAD
1000
AcDbSavedByObjectVersion
1070
     0
  0
VISUALSTYLE
  5
1AE2
102
{ACAD_XDICTIONARY
360
1B50
102
}
102
{ACAD_REACTORS
330
1AD4
102
}
330
1AD4
100
AcDbVisualStyle
  2
Linepattern
 70
    14
 71
     2
 72
     2
 73
     0
 90
        0
 40
-0.6
 41
-30.0
 62
     5
 63
     7
 74
     1
 91
        4
 64
     7
 65
   257
 75
     7
175
     7
 42
1.0
 92
        8
 66
     7
 43
1.0
 76
     1
 77
     6
 78
     2
 67
     7
 79
     5
170
     0
171
     0
290
     0
174
     0
 93
        1
 44
0.0
173
     0
291
     1
 45
0.0
1001
ACAD
1000
AcDbSavedByObjectVersion
1070
     0
  0
VISUALSTYLE
  5
1AE6
102
{ACAD_XDICTIONARY
360
1B58
102
}
102
{ACAD_REACTORS
330
1AD4
102
}
330
1AD4
100
AcDbVisualStyle
  2
OverhangOff
 70
    21
 71
     2
 72
     2
 73
     0
 90
        0
 40
-0.6
 41
-30.0
 62
     5
 63
     7
 74
     1
 91
        4
 64
     7
 65
   257
 75
     1
175
     1
 42
1.0
 92
        9
 66
     7
 43
1.0
 76
     1
 77
     6
 78
     2
 67
     7
 79
     5
170
     0
171
     0
290
     0
174
     0
 93
        1
 44
0.0
173
     0
291
     1
 45
0.0
1001
ACAD
1000
AcDbSavedByObjectVersion
1070
     0
  0
VISUALSTYLE
  5
1ADE
102
{ACAD_XDICTIONARY
360
1B48
102
}
102
{ACAD_REACTORS
330
1AD4
102
}
330
1AD4
100
AcDbVisualStyle
  2
Realistic
 70
     8
 71
     2
 72
     2
 73
     0
 90
        0
 40
-0.6
 41
-30.0
 62
     5
 63
     7
 74
     1
 91
        0
 64
     7
 65
   257
 75
     1
175
     1
 42
1.0
 92
        8
 66
     8
 43
1.0
 76
     1
 77
     6
 78
     2
 67
     7
 79
     5
170
     0
171
     0
290
     0
174
     0
 93
       13
 44
0.0
173
     0
291
     0
 45
0.0
1001
ACAD
1000
AcDbSavedByObjectVersion
1070
     0
  0
VISUALSTYLE
  5
1AE1
102
{ACAD_XDICTIONARY
360
1B4E
102
}
102
{ACAD_REACTORS
330
1AD4
102
}
330
1AD4
100
AcDbVisualStyle
  2
Thicken
 70
    13
 71
     2
 72
     2
 73
     0
 90
        0
 40
-0.6
 41
-30.0
 62
     5
 63
     7
 74
     1
 91
        4
 64
     7
 65
   257
 75
     1
175
     1
 42
1.0
 92
       12
 66
     7
 43
1.0
 76
     1
 77
     6
 78
     2
 67
     7
 79
     5
170
     0
171
     0
290
     0
174
     0
 93
        1
 44
0.0
173
     0
291
     1
 45
0.0
1001
ACAD
1000
AcDbSavedByObjectVersion
1070
     0
  0
DICTIONARYVAR
  5
1B25
102
{ACAD_REACTORS
330
3D
102
}
330
3D
100
DictionaryVariables
280
     0
  1
1:1
  0
DICTIONARYVAR
  5
1B24
102
{ACAD_REACTORS
330
3D
102
}
330
3D
100
DictionaryVariables
280
     0
  1
STANDARD
  0
DICTIONARYVAR
  5
1B23
102
{ACAD_REACTORS
330
3D
102
}
330
3D
100
DictionaryVariables
280
     0
  1
STANDARD
  0
DICTIONARYVAR
  5
3F
102
{ACAD_REACTORS
330
3D
102
}
330
3D
100
DictionaryVariables
280
     0
  1
2
  0
DICTIONARYVAR
  5
3E
102
{ACAD_REACTORS
330
3D
102
}
330
3D
100
DictionaryVariables
280
     0
  1
1
  0
DICTIONARYVAR
  5
1B27
102
{ACAD_REACTORS
330
3D
102
}
330
3D
100
DictionaryVariables
280
     0
  1
0
  0
DICTIONARYVAR
  5
1B26
102
{ACAD_REACTORS
330
3D
102
}
330
3D
100
DictionaryVariables
280
     0
  1
127
  0
DICTIONARYVAR
  5
1B28
102
{ACAD_REACTORS
330
3D
102
}
330
3D
100
DictionaryVariables
280
     0
  1
2
  0
XRECORD
  5
1B22
102
{ACAD_REACTORS
330
1B21
102
}
330
1B21
100
AcDbXrecord
280
     1
  0
DICTIONARY
  5
1B2D
330
1E
100
AcDbDictionary
280
     1
281
     1
  3
ACAD_XREC_ROUNDTRIP
360
1B2E
  0
DICTIONARY
  5
1B31
330
26
100
AcDbDictionary
280
     1
281
     1
  3
ACAD_XREC_ROUNDTRIP
360
1B32
  0
DICTIONARY
  5
1B2F
330
22
100
AcDbDictionary
280
     1
281
     1
  3
ACAD_XREC_ROUNDTRIP
360
1B30
  0
DICTIONARY
  5
1AC5
330
1AC4
100
AcDbDictionary
280
     1
281
     1
  3
ACAD_XREC_ROUNDTRIP
360
1B34
  3
BUMPTILE
360
1AC7
  3
DIFFUSETILE
360
1AC6
  3
OPACITYTILE
360
1ACA
  3
REFLECTIONTILE
360
1AC9
  3
REFRACTIONTILE
360
1ACB
  3
SPECULARTILE
360
1AC8
  0
DICTIONARY
  5
1ABD
330
1ABC
100
AcDbDictionary
280
     1
281
     1
  3
ACAD_XREC_ROUNDTRIP
360
1B33
  3
BUMPTILE
360
1ABF
  3
DIFFUSETILE
360
1ABE
  3
OPACITYTILE
360
1AC2
  3
REFLECTIONTILE
360
1AC1
  3
REFRACTIONTILE
360
1AC3
  3
SPECULARTILE
360
1AC0
  0
DICTIONARY
  5
1ACD
330
1ACC
100
AcDbDictionary
280
     1
281
     1
  3
ACAD_XREC_ROUNDTRIP
360
1B35
  3
BUMPTILE
360
1ACF
  3
DIFFUSETILE
360
1ACE
  3
OPACITYTILE
360
1AD2
  3
REFLECTIONTILE
360
1AD1
  3
REFRACTIONTILE
360
1AD3
  3
SPECULARTILE
360
1AD0
  0
DICTIONARY
  5
1B29
330
1AEA
100
AcDbDictionary
280
     1
281
     1
  3
ACAD_ROUNDTRIP_2008_TABLESTYLE_CELLSTYLEMAP
360
1B2A
  3
ACAD_XREC_ROUNDTRIP
360
1B5C
  0
DICTIONARY
  5
1B40
330
1ADA
100
AcDbDictionary
280
     1
281
     1
  3
ACAD_XREC_ROUNDTRIP
360
1B41
  0
DICTIONARY
  5
1B44
330
1ADC
100
AcDbDictionary
280
     1
281
     1
  3
ACAD_XREC_ROUNDTRIP
360
1B45
  0
DICTIONARY
  5
1B42
330
1ADB
100
AcDbDictionary
280
     1
281
     1
  3
ACAD_XREC_ROUNDTRIP
360
1B43
  0
DICTIONARY
  5
1B3E
330
1AD9
100
AcDbDictionary
280
     1
281
     1
  3
ACAD_XREC_ROUNDTRIP
360
1B3F
  0
DICTIONARY
  5
1B4C
330
1AE0
100
AcDbDictionary
280
     1
281
     1
  3
ACAD_XREC_ROUNDTRIP
360
1B4D
  0
DICTIONARY
  5
1B54
330
1AE4
100
AcDbDictionary
280
     1
281
     1
  3
ACAD_XREC_ROUNDTRIP
360
1B55
  0
DICTIONARY
  5
1B46
330
1ADD
100
AcDbDictionary
280
     1
281
     1
  3
ACAD_XREC_ROUNDTRIP
360
1B47
  0
DICTIONARY
  5
1B4A
330
1ADF
100
AcDbDictionary
280
     1
281
     1
  3
ACAD_XREC_ROUNDTRIP
360
1B4B
  0
DICTIONARY
  5
1B5A
330
1AE7
100
AcDbDictionary
280
     1
281
     1
  3
ACAD_XREC_ROUNDTRIP
360
1B5B
  0
DICTIONARY
  5
1B52
330
1AE3
100
AcDbDictionary
280
     1
281
     1
  3
ACAD_XREC_ROUNDTRIP
360
1B53
  0
DICTIONARY
  5
1B36
330
1AD5
100
AcDbDictionary
280
     1
281
     1
  3
ACAD_XREC_ROUNDTRIP
360
1B37
  0
DICTIONARY
  5
1B38
330
1AD6
100
AcDbDictionary
280
     1
281
     1
  3
ACAD_XREC_ROUNDTRIP
360
1B39
  0
DICTIONARY
  5
1B3A
330
1AD7
100
AcDbDictionary
280
     1
281
     1
  3
ACAD_XREC_ROUNDTRIP
360
1B3B
  0
DICTIONARY
  5
1B3C
330
1AD8
100
AcDbDictionary
280
     1
281
     1
  3
ACAD_XREC_ROUNDTRIP
360
1B3D
  0
DICTIONARY
  5
1B56
330
1AE5
100
AcDbDictionary
280
     1
281
     1
  3
ACAD_XREC_ROUNDTRIP
360
1B57
  0
DICTIONARY
  5
1B50
330
1AE2
100
AcDbDictionary
280
     1
281
     1
  3
ACAD_XREC_ROUNDTRIP
360
1B51
  0
DICTIONARY
  5
1B58
330
1AE6
100
AcDbDictionary
280
     1
281
     1
  3
ACAD_XREC_ROUNDTRIP
360
1B59
  0
DICTIONARY
  5
1B48
330
1ADE
100
AcDbDictionary
280
     1
281
     1
  3
ACAD_XREC_ROUNDTRIP
360
1B49
  0
DICTIONARY
  5
1B4E
330
1AE1
100
AcDbDictionary
280
     1
281
     1
  3
ACAD_XREC_ROUNDTRIP
360
1B4F
  0
XRECORD
  5
1B2E
102
{ACAD_REACTORS
330
1B2D
102
}
330
1B2D
100
AcDbXrecord
280
     1
102
SHADEPLOT
 70
     0
102
SHADEPLOTRESLEVEL
 70
     2
102
SHADEPLOTCUSTOMDPI
 70
   300
  0
XRECORD
  5
1B32
102
{ACAD_REACTORS
330
1B31
102
}
330
1B31
100
AcDbXrecord
280
     1
102
SHADEPLOT
 70
     0
102
SHADEPLOTRESLEVEL
 70
     2
102
SHADEPLOTCUSTOMDPI
 70
   300
  0
XRECORD
  5
1B30
102
{ACAD_REACTORS
330
1B2F
102
}
330
1B2F
100
AcDbXrecord
280
     1
102
SHADEPLOT
 70
     0
102
SHADEPLOTRESLEVEL
 70
     2
102
SHADEPLOTCUSTOMDPI
 70
   300
  0
XRECORD
  5
1B34
102
{ACAD_REACTORS
330
1AC5
102
}
330
1AC5
100
AcDbXrecord
280
     1
102
MATERIAL
148
0.0
149
0.0
149
0.0
 93
        0
 94
      127
282
     0
 72
     0
 77
     0
171
     0
175
     0
179
     0
273
     0
  0
XRECORD
  5
1AC7
102
{ACAD_REACTORS
330
1AC5
102
}
330
1AC5
100
AcDbXrecord
280
     1
270
     1
271
     1
  0
XRECORD
  5
1AC6
102
{ACAD_REACTORS
330
1AC5
102
}
330
1AC5
100
AcDbXrecord
280
     1
270
     1
271
     1
  0
XRECORD
  5
1ACA
102
{ACAD_REACTORS
330
1AC5
102
}
330
1AC5
100
AcDbXrecord
280
     1
270
     1
271
     1
  0
XRECORD
  5
1AC9
102
{ACAD_REACTORS
330
1AC5
102
}
330
1AC5
100
AcDbXrecord
280
     1
270
     1
271
     1
  0
XRECORD
  5
1ACB
102
{ACAD_REACTORS
330
1AC5
102
}
330
1AC5
100
AcDbXrecord
280
     1
270
     1
271
     1
  0
XRECORD
  5
1AC8
102
{ACAD_REACTORS
330
1AC5
102
}
330
1AC5
100
AcDbXrecord
280
     1
270
     1
271
     1
  0
XRECORD
  5
1B33
102
{ACAD_REACTORS
330
1ABD
102
}
330
1ABD
100
AcDbXrecord
280
     1
102
MATERIAL
148
0.0
149
0.0
149
0.0
 93
        0
 94
      127
282
     0
 72
     0
 77
     0
171
     0
175
     0
179
     0
273
     0
  0
XRECORD
  5
1ABF
102
{ACAD_REACTORS
330
1ABD
102
}
330
1ABD
100
AcDbXrecord
280
     1
270
     1
271
     1
  0
XRECORD
  5
1ABE
102
{ACAD_REACTORS
330
1ABD
102
}
330
1ABD
100
AcDbXrecord
280
     1
270
     1
271
     1
  0
XRECORD
  5
1AC2
102
{ACAD_REACTORS
330
1ABD
102
}
330
1ABD
100
AcDbXrecord
280
     1
270
     1
271
     1
  0
XRECORD
  5
1AC1
102
{ACAD_REACTORS
330
1ABD
102
}
330
1ABD
100
AcDbXrecord
280
     1
270
     1
271
     1
  0
XRECORD
  5
1AC3
102
{ACAD_REACTORS
330
1ABD
102
}
330
1ABD
100
AcDbXrecord
280
     1
270
     1
271
     1
  0
XRECORD
  5
1AC0
102
{ACAD_REACTORS
330
1ABD
102
}
330
1ABD
100
AcDbXrecord
280
     1
270
     1
271
     1
  0
XRECORD
  5
1B35
102
{ACAD_REACTORS
330
1ACD
102
}
330
1ACD
100
AcDbXrecord
280
     1
102
MATERIAL
148
0.0
149
0.0
149
0.0
 93
        0
 94
      127
282
     0
 72
     0
 77
     0
171
     0
175
     0
179
     0
273
     0
  0
XRECORD
  5
1ACF
102
{ACAD_REACTORS
330
1ACD
102
}
330
1ACD
100
AcDbXrecord
280
     1
270
     1
271
     1
  0
XRECORD
  5
1ACE
102
{ACAD_REACTORS
330
1ACD
102
}
330
1ACD
100
AcDbXrecord
280
     1
270
     1
271
     1
  0
XRECORD
  5
1AD2
102
{ACAD_REACTORS
330
1ACD
102
}
330
1ACD
100
AcDbXrecord
280
     1
270
     1
271
     1
  0
XRECORD
  5
1AD1
102
{ACAD_REACTORS
330
1ACD
102
}
330
1ACD
100
AcDbXrecord
280
     1
270
     1
271
     1
  0
XRECORD
  5
1AD3
102
{ACAD_REACTORS
330
1ACD
102
}
330
1ACD
100
AcDbXrecord
280
     1
270
     1
271
     1
  0
XRECORD
  5
1AD0
102
{ACAD_REACTORS
330
1ACD
102
}
330
1ACD
100
AcDbXrecord
280
     1
270
     1
271
     1
  0
CELLSTYLEMAP
  5
1B2A
102
{ACAD_REACTORS
330
1B29
102
}
330
1B29
100
AcDbCellStyleMap
 90
        3
300
CELLSTYLE
  1
TABLEFORMAT_BEGIN
 90
        5
170
     1
 91
        0
 92
    32768
 62
   257
 93
        1
300
CONTENTFORMAT
  1
CONTENTFORMAT_BEGIN
 90
        0
 91
        0
 92
      512
 93
        0
300

 40
0.0
140
1.0
 94
        5
 62
     0
340
11
144
6.0
309
CONTENTFORMAT_END
171
     1
301
MARGIN
  1
CELLMARGIN_BEGIN
 40
1.5
 40
1.5
 40
1.5
 40
1.5
 40
4.5
 40
4.5
309
CELLMARGIN_END
 94
        6
 95
        1
302
GRIDFORMAT
  1
GRIDFORMAT_BEGIN
 90
        0
 91
        1
 62
     0
 92
       -2
340
0
 93
        0
 40
1.125
309
GRIDFORMAT_END
 95
        2
302
GRIDFORMAT
  1
GRIDFORMAT_BEGIN
 90
        0
 91
        1
 62
     0
 92
       -2
340
0
 93
        0
 40
1.125
309
GRIDFORMAT_END
 95
        4
302
GRIDFORMAT
  1
GRIDFORMAT_BEGIN
 90
        0
 91
        1
 62
     0
 92
       -2
340
0
 93
        0
 40
1.125
309
GRIDFORMAT_END
 95
        8
302
GRIDFORMAT
  1
GRIDFORMAT_BEGIN
 90
        0
 91
        1
 62
     0
 92
       -2
340
0
 93
        0
 40
1.125
309
GRIDFORMAT_END
 95
       16
302
GRIDFORMAT
  1
GRIDFORMAT_BEGIN
 90
        0
 91
        1
 62
     0
 92
       -2
340
0
 93
        0
 40
1.125
309
GRIDFORMAT_END
 95
       32
302
GRIDFORMAT
  1
GRIDFORMAT_BEGIN
 90
        0
 91
        1
 62
     0
 92
       -2
340
0
 93
        0
 40
1.125
309
GRIDFORMAT_END
309
TABLEFORMAT_END
  1
CELLSTYLE_BEGIN
 90
        1
 91
        1
300
_TITLE
309
CELLSTYLE_END
300
CELLSTYLE
  1
TABLEFORMAT_BEGIN
 90
        5
170
     1
 91
        0
 92
        0
 62
   257
 93
        1
300
CONTENTFORMAT
  1
CONTENTFORMAT_BEGIN
 90
        0
 91
        0
 92
      512
 93
        0
300

 40
0.0
140
1.0
 94
        5
 62
     0
340
11
144
4.5
309
CONTENTFORMAT_END
171
     1
301
MARGIN
  1
CELLMARGIN_BEGIN
 40
1.5
 40
1.5
 40
1.5
 40
1.5
 40
4.5
 40
4.5
309
CELLMARGIN_END
 94
        6
 95
        1
302
GRIDFORMAT
  1
GRIDFORMAT_BEGIN
 90
        0
 91
        1
 62
     0
 92
       -2
340
0
 93
        0
 40
1.125
309
GRIDFORMAT_END
 95
        2
302
GRIDFORMAT
  1
GRIDFORMAT_BEGIN
 90
        0
 91
        1
 62
     0
 92
       -2
340
0
 93
        0
 40
1.125
309
GRIDFORMAT_END
 95
        4
302
GRIDFORMAT
  1
GRIDFORMAT_BEGIN
 90
        0
 91
        1
 62
     0
 92
       -2
340
0
 93
        0
 40
1.125
309
GRIDFORMAT_END
 95
        8
302
GRIDFORMAT
  1
GRIDFORMAT_BEGIN
 90
        0
 91
        1
 62
     0
 92
       -2
340
0
 93
        0
 40
1.125
309
GRIDFORMAT_END
 95
       16
302
GRIDFORMAT
  1
GRIDFORMAT_BEGIN
 90
        0
 91
        1
 62
     0
 92
       -2
340
0
 93
        0
 40
1.125
309
GRIDFORMAT_END
 95
       32
302
GRIDFORMAT
  1
GRIDFORMAT_BEGIN
 90
        0
 91
        1
 62
     0
 92
       -2
340
0
 93
        0
 40
1.125
309
GRIDFORMAT_END
309
TABLEFORMAT_END
  1
CELLSTYLE_BEGIN
 90
        2
 91
        1
300
_HEADER
309
CELLSTYLE_END
300
CELLSTYLE
  1
TABLEFORMAT_BEGIN
 90
        5
170
     1
 91
        0
 92
        0
 62
   257
 93
        1
300
CONTENTFORMAT
  1
CONTENTFORMAT_BEGIN
 90
        0
 91
        0
 92
      512
 93
        0
300

 40
0.0
140
1.0
 94
        2
 62
     0
340
11
144
4.5
309
CONTENTFORMAT_END
171
     1
301
MARGIN
  1
CELLMARGIN_BEGIN
 40
1.5
 40
1.5
 40
1.5
 40
1.5
 40
4.5
 40
4.5
309
CELLMARGIN_END
 94
        6
 95
        1
302
GRIDFORMAT
  1
GRIDFORMAT_BEGIN
 90
        0
 91
        1
 62
     0
 92
       -2
340
0
 93
        0
 40
1.125
309
GRIDFORMAT_END
 95
        2
302
GRIDFORMAT
  1
GRIDFORMAT_BEGIN
 90
        0
 91
        1
 62
     0
 92
       -2
340
0
 93
        0
 40
1.125
309
GRIDFORMAT_END
 95
        4
302
GRIDFORMAT
  1
GRIDFORMAT_BEGIN
 90
        0
 91
        1
 62
     0
 92
       -2
340
0
 93
        0
 40
1.125
309
GRIDFORMAT_END
 95
        8
302
GRIDFORMAT
  1
GRIDFORMAT_BEGIN
 90
        0
 91
        1
 62
     0
 92
       -2
340
0
 93
        0
 40
1.125
309
GRIDFORMAT_END
 95
       16
302
GRIDFORMAT
  1
GRIDFORMAT_BEGIN
 90
        0
 91
        1
 62
     0
 92
       -2
340
0
 93
        0
 40
1.125
309
GRIDFORMAT_END
 95
       32
302
GRIDFORMAT
  1
GRIDFORMAT_BEGIN
 90
        0
 91
        1
 62
     0
 92
       -2
340
0
 93
        0
 40
1.125
309
GRIDFORMAT_END
309
TABLEFORMAT_END
  1
CELLSTYLE_BEGIN
 90
        3
 91
        2
300
_DATA
309
CELLSTYLE_END
  0
XRECORD
  5
1B5C
102
{ACAD_REACTORS
330
1B29
102
}
330
1B29
100
AcDbXrecord
280
     1
102
ACAD_ROUNDTRIP_PRE2007_TABLESTYLE
 90
      512
 91
        0
  1

 92
      512
 93
        0
  2

 94
      512
 95
        0
  3

  0
XRECORD
  5
1B41
102
{ACAD_REACTORS
330
1B40
102
}
330
1B40
100
AcDbXrecord
280
     1
102
RTVSPropertyOp0
 70
     1
102
RTVSPropertyOp1
 70
     1
102
RTVSPropertyOp2
 70
     1
102
RTVSPropertyOp3
 70
     1
102
RTVSPropertyOp4
 70
     1
102
RTVSPropertyOp5
 70
     1
102
RTVSPropertyOp6
 70
     1
102
RTVSPropertyOp7
 70
     1
102
RTVSPropertyOp8
 70
     1
102
RTVSPropertyOp9
 70
     1
102
RTVSPropertyOp10
 70
     1
102
RTVSPropertyOp11
 70
     1
102
RTVSPropertyOp12
 70
     1
102
RTVSPropertyOp13
 70
     1
102
RTVSPropertyOp14
 70
     1
102
RTVSPropertyOp15
 70
     1
102
RTVSPropertyOp16
 70
     1
102
RTVSPropertyOp17
 70
     1
102
RTVSPropertyOp18
 70
     1
102
RTVSPropertyOp19
 70
     1
102
RTVSPropertyOp20
 70
     1
102
RTVSPropertyOp21
 70
     1
102
RTVSPropertyOp22
 70
     1
102
RTVSPropertyOp23
 70
     1
102
RTVSPropertyOp24
 70
     1
102
RTVSPropertyOp25
 70
     1
102
RTVSPropertyOp26
 70
     1
102
RTVSPropertyOp27
 70
     1
  0
XRECORD
  5
1B45
102
{ACAD_REACTORS
330
1B44
102
}
330
1B44
100
AcDbXrecord
280
     1
102
RTVSPropertyOp0
 70
     1
102
RTVSPropertyOp1
 70
     1
102
RTVSPropertyOp2
 70
     1
102
RTVSPropertyOp3
 70
     1
102
RTVSPropertyOp4
 70
     1
102
RTVSPropertyOp5
 70
     1
102
RTVSPropertyOp6
 70
     1
102
RTVSPropertyOp7
 70
     1
102
RTVSPropertyOp8
 70
     1
102
RTVSPropertyOp9
 70
     1
102
RTVSPropertyOp10
 70
     1
102
RTVSPropertyOp11
 70
     1
102
RTVSPropertyOp12
 70
     1
102
RTVSPropertyOp13
 70
     1
102
RTVSPropertyOp14
 70
     1
102
RTVSPropertyOp15
 70
     1
102
RTVSPropertyOp16
 70
     1
102
RTVSPropertyOp17
 70
     1
102
RTVSPropertyOp18
 70
     1
102
RTVSPropertyOp19
 70
     1
102
RTVSPropertyOp20
 70
     1
102
RTVSPropertyOp21
 70
     1
102
RTVSPropertyOp22
 70
     1
102
RTVSPropertyOp23
 70
     1
102
RTVSPropertyOp24
 70
     1
102
RTVSPropertyOp25
 70
     1
102
RTVSPropertyOp26
 70
     1
102
RTVSPropertyOp27
 70
     1
  0
XRECORD
  5
1B43
102
{ACAD_REACTORS
330
1B42
102
}
330
1B42
100
AcDbXrecord
280
     1
102
RTVSPropertyOp0
 70
     1
102
RTVSPropertyOp1
 70
     1
102
RTVSPropertyOp2
 70
     1
102
RTVSPropertyOp3
 70
     1
102
RTVSPropertyOp4
 70
     1
102
RTVSPropertyOp5
 70
     1
102
RTVSPropertyOp6
 70
     1
102
RTVSPropertyOp7
 70
     1
102
RTVSPropertyOp8
 70
     1
102
RTVSPropertyOp9
 70
     1
102
RTVSPropertyOp10
 70
     1
102
RTVSPropertyOp11
 70
     1
102
RTVSPropertyOp12
 70
     1
102
RTVSPropertyOp13
 70
     1
102
RTVSPropertyOp14
 70
     1
102
RTVSPropertyOp15
 70
     1
102
RTVSPropertyOp16
 70
     1
102
RTVSPropertyOp17
 70
     1
102
RTVSPropertyOp18
 70
     1
102
RTVSPropertyOp19
 70
     1
102
RTVSPropertyOp20
 70
     1
102
RTVSPropertyOp21
 70
     1
102
RTVSPropertyOp22
 70
     1
102
RTVSPropertyOp23
 70
     1
102
RTVSPropertyOp24
 70
     1
102
RTVSPropertyOp25
 70
     1
102
RTVSPropertyOp26
 70
     1
102
RTVSPropertyOp27
 70
     1
  0
XRECORD
  5
1B3F
102
{ACAD_REACTORS
330
1B3E
102
}
330
1B3E
100
AcDbXrecord
280
     1
102
RTVSPropertyOp0
 70
     1
102
RTVSPropertyOp1
 70
     1
102
RTVSPropertyOp2
 70
     1
102
RTVSPropertyOp3
 70
     1
102
RTVSPropertyOp4
 70
     1
102
RTVSPropertyOp5
 70
     1
102
RTVSPropertyOp6
 70
     1
102
RTVSPropertyOp7
 70
     1
102
RTVSPropertyOp8
 70
     1
102
RTVSPropertyOp9
 70
     1
102
RTVSPropertyOp10
 70
     1
102
RTVSPropertyOp11
 70
     1
102
RTVSPropertyOp12
 70
     1
102
RTVSPropertyOp13
 70
     1
102
RTVSPropertyOp14
 70
     1
102
RTVSPropertyOp15
 70
     1
102
RTVSPropertyOp16
 70
     1
102
RTVSPropertyOp17
 70
     1
102
RTVSPropertyOp18
 70
     1
102
RTVSPropertyOp19
 70
     1
102
RTVSPropertyOp20
 70
     1
102
RTVSPropertyOp21
 70
     1
102
RTVSPropertyOp22
 70
     1
102
RTVSPropertyOp23
 70
     1
102
RTVSPropertyOp24
 70
     1
102
RTVSPropertyOp25
 70
     1
102
RTVSPropertyOp26
 70
     1
102
RTVSPropertyOp27
 70
     1
  0
XRECORD
  5
1B4D
102
{ACAD_REACTORS
330
1B4C
102
}
330
1B4C
100
AcDbXrecord
280
     1
102
RTVSPropertyOp0
 70
     1
102
RTVSPropertyOp1
 70
     1
102
RTVSPropertyOp2
 70
     1
102
RTVSPropertyOp3
 70
     1
102
RTVSPropertyOp4
 70
     1
102
RTVSPropertyOp5
 70
     1
102
RTVSPropertyOp6
 70
     1
102
RTVSPropertyOp7
 70
     1
102
RTVSPropertyOp8
 70
     1
102
RTVSPropertyOp9
 70
     1
102
RTVSPropertyOp10
 70
     1
102
RTVSPropertyOp11
 70
     1
102
RTVSPropertyOp12
 70
     1
102
RTVSPropertyOp13
 70
     1
102
RTVSPropertyOp14
 70
     1
102
RTVSPropertyOp15
 70
     1
102
RTVSPropertyOp16
 70
     1
102
RTVSPropertyOp17
 70
     1
102
RTVSPropertyOp18
 70
     1
102
RTVSPropertyOp19
 70
     1
102
RTVSPropertyOp20
 70
     1
102
RTVSPropertyOp21
 70
     1
102
RTVSPropertyOp22
 70
     1
102
RTVSPropertyOp23
 70
     1
102
RTVSPropertyOp24
 70
     1
102
RTVSPropertyOp25
 70
     1
102
RTVSPropertyOp26
 70
     1
102
RTVSPropertyOp27
 70
     1
  0
XRECORD
  5
1B55
102
{ACAD_REACTORS
330
1B54
102
}
330
1B54
100
AcDbXrecord
280
     1
102
RTVSPropertyOp0
 70
     1
102
RTVSPropertyOp1
 70
     1
102
RTVSPropertyOp2
 70
     1
102
RTVSPropertyOp3
 70
     1
102
RTVSPropertyOp4
 70
     1
102
RTVSPropertyOp5
 70
     1
102
RTVSPropertyOp6
 70
     1
102
RTVSPropertyOp7
 70
     1
102
RTVSPropertyOp8
 70
     1
102
RTVSPropertyOp9
 70
     1
102
RTVSPropertyOp10
 70
     1
102
RTVSPropertyOp11
 70
     1
102
RTVSPropertyOp12
 70
     1
102
RTVSPropertyOp13
 70
     1
102
RTVSPropertyOp14
 70
     1
102
RTVSPropertyOp15
 70
     1
102
RTVSPropertyOp16
 70
     1
102
RTVSPropertyOp17
 70
     1
102
RTVSPropertyOp18
 70
     1
102
RTVSPropertyOp19
 70
     1
102
RTVSPropertyOp20
 70
     1
102
RTVSPropertyOp21
 70
     1
102
RTVSPropertyOp22
 70
     1
102
RTVSPropertyOp23
 70
     1
102
RTVSPropertyOp24
 70
     1
102
RTVSPropertyOp25
 70
     1
102
RTVSPropertyOp26
 70
     1
102
RTVSPropertyOp27
 70
     1
  0
XRECORD
  5
1B47
102
{ACAD_REACTORS
330
1B46
102
}
330
1B46
100
AcDbXrecord
280
     1
102
RTVSPropertyOp0
 70
     1
102
RTVSPropertyOp1
 70
     1
102
RTVSPropertyOp2
 70
     1
102
RTVSPropertyOp3
 70
     1
102
RTVSPropertyOp4
 70
     1
102
RTVSPropertyOp5
 70
     1
102
RTVSPropertyOp6
 70
     1
102
RTVSPropertyOp7
 70
     1
102
RTVSPropertyOp8
 70
     1
102
RTVSPropertyOp9
 70
     1
102
RTVSPropertyOp10
 70
     1
102
RTVSPropertyOp11
 70
     1
102
RTVSPropertyOp12
 70
     1
102
RTVSPropertyOp13
 70
     1
102
RTVSPropertyOp14
 70
     1
102
RTVSPropertyOp15
 70
     1
102
RTVSPropertyOp16
 70
     1
102
RTVSPropertyOp17
 70
     1
102
RTVSPropertyOp18
 70
     1
102
RTVSPropertyOp19
 70
     1
102
RTVSPropertyOp20
 70
     1
102
RTVSPropertyOp21
 70
     1
102
RTVSPropertyOp22
 70
     1
102
RTVSPropertyOp23
 70
     1
102
RTVSPropertyOp24
 70
     1
102
RTVSPropertyOp25
 70
     1
102
RTVSPropertyOp26
 70
     1
102
RTVSPropertyOp27
 70
     1
  0
XRECORD
  5
1B4B
102
{ACAD_REACTORS
330
1B4A
102
}
330
1B4A
100
AcDbXrecord
280
     1
102
RTVSPropertyOp0
 70
     1
102
RTVSPropertyOp1
 70
     1
102
RTVSPropertyOp2
 70
     1
102
RTVSPropertyOp3
 70
     1
102
RTVSPropertyOp4
 70
     1
102
RTVSPropertyOp5
 70
     1
102
RTVSPropertyOp6
 70
     1
102
RTVSPropertyOp7
 70
     1
102
RTVSPropertyOp8
 70
     1
102
RTVSPropertyOp9
 70
     1
102
RTVSPropertyOp10
 70
     1
102
RTVSPropertyOp11
 70
     1
102
RTVSPropertyOp12
 70
     1
102
RTVSPropertyOp13
 70
     1
102
RTVSPropertyOp14
 70
     1
102
RTVSPropertyOp15
 70
     1
102
RTVSPropertyOp16
 70
     1
102
RTVSPropertyOp17
 70
     1
102
RTVSPropertyOp18
 70
     1
102
RTVSPropertyOp19
 70
     1
102
RTVSPropertyOp20
 70
     1
102
RTVSPropertyOp21
 70
     1
102
RTVSPropertyOp22
 70
     1
102
RTVSPropertyOp23
 70
     1
102
RTVSPropertyOp24
 70
     1
102
RTVSPropertyOp25
 70
     1
102
RTVSPropertyOp26
 70
     1
102
RTVSPropertyOp27
 70
     1
  0
XRECORD
  5
1B5B
102
{ACAD_REACTORS
330
1B5A
102
}
330
1B5A
100
AcDbXrecord
280
     1
102
RTVSPropertyOp0
 70
     0
102
RTVSPropertyOp1
 70
     0
102
RTVSPropertyOp2
 70
     0
102
RTVSPropertyOp3
 70
     0
102
RTVSPropertyOp4
 70
     0
102
RTVSPropertyOp5
 70
     0
102
RTVSPropertyOp6
 70
     0
102
RTVSPropertyOp7
 70
     0
102
RTVSPropertyOp8
 70
     0
102
RTVSPropertyOp9
 70
     0
102
RTVSPropertyOp10
 70
     0
102
RTVSPropertyOp11
 70
     0
102
RTVSPropertyOp12
 70
     0
102
RTVSPropertyOp13
 70
     0
102
RTVSPropertyOp14
 70
     2
102
RTVSPropertyOp15
 70
     0
102
RTVSPropertyOp16
 70
     0
102
RTVSPropertyOp17
 70
     0
102
RTVSPropertyOp18
 70
     0
102
RTVSPropertyOp19
 70
     0
102
RTVSPropertyOp20
 70
     0
102
RTVSPropertyOp21
 70
     0
102
RTVSPropertyOp22
 70
     0
102
RTVSPropertyOp23
 70
     0
102
RTVSPropertyOp24
 70
     0
102
RTVSPropertyOp25
 70
     0
102
RTVSPropertyOp26
 70
     0
102
RTVSPropertyOp27
 70
     0
  0
XRECORD
  5
1B53
102
{ACAD_REACTORS
330
1B52
102
}
330
1B52
100
AcDbXrecord
280
     1
102
RTVSPropertyOp0
 70
     1
102
RTVSPropertyOp1
 70
     1
102
RTVSPropertyOp2
 70
     1
102
RTVSPropertyOp3
 70
     1
102
RTVSPropertyOp4
 70
     1
102
RTVSPropertyOp5
 70
     1
102
RTVSPropertyOp6
 70
     1
102
RTVSPropertyOp7
 70
     1
102
RTVSPropertyOp8
 70
     1
102
RTVSPropertyOp9
 70
     1
102
RTVSPropertyOp10
 70
     1
102
RTVSPropertyOp11
 70
     1
102
RTVSPropertyOp12
 70
     1
102
RTVSPropertyOp13
 70
     1
102
RTVSPropertyOp14
 70
     1
102
RTVSPropertyOp15
 70
     1
102
RTVSPropertyOp16
 70
     1
102
RTVSPropertyOp17
 70
     1
102
RTVSPropertyOp18
 70
     1
102
RTVSPropertyOp19
 70
     1
102
RTVSPropertyOp20
 70
     1
102
RTVSPropertyOp21
 70
     1
102
RTVSPropertyOp22
 70
     1
102
RTVSPropertyOp23
 70
     1
102
RTVSPropertyOp24
 70
     1
102
RTVSPropertyOp25
 70
     1
102
RTVSPropertyOp26
 70
     1
102
RTVSPropertyOp27
 70
     1
  0
XRECORD
  5
1B37
102
{ACAD_REACTORS
330
1B36
102
}
330
1B36
100
AcDbXrecord
280
     1
102
RTVSPropertyOp0
 70
     1
102
RTVSPropertyOp1
 70
     1
102
RTVSPropertyOp2
 70
     1
102
RTVSPropertyOp3
 70
     1
102
RTVSPropertyOp4
 70
     1
102
RTVSPropertyOp5
 70
     1
102
RTVSPropertyOp6
 70
     1
102
RTVSPropertyOp7
 70
     1
102
RTVSPropertyOp8
 70
     1
102
RTVSPropertyOp9
 70
     1
102
RTVSPropertyOp10
 70
     1
102
RTVSPropertyOp11
 70
     1
102
RTVSPropertyOp12
 70
     1
102
RTVSPropertyOp13
 70
     1
102
RTVSPropertyOp14
 70
     1
102
RTVSPropertyOp15
 70
     1
102
RTVSPropertyOp16
 70
     1
102
RTVSPropertyOp17
 70
     1
102
RTVSPropertyOp18
 70
     1
102
RTVSPropertyOp19
 70
     1
102
RTVSPropertyOp20
 70
     1
102
RTVSPropertyOp21
 70
     1
102
RTVSPropertyOp22
 70
     1
102
RTVSPropertyOp23
 70
     1
102
RTVSPropertyOp24
 70
     1
102
RTVSPropertyOp25
 70
     1
102
RTVSPropertyOp26
 70
     1
102
RTVSPropertyOp27
 70
     1
  0
XRECORD
  5
1B39
102
{ACAD_REACTORS
330
1B38
102
}
330
1B38
100
AcDbXrecord
280
     1
102
RTVSPropertyOp0
 70
     1
102
RTVSPropertyOp1
 70
     1
102
RTVSPropertyOp2
 70
     1
102
RTVSPropertyOp3
 70
     1
102
RTVSPropertyOp4
 70
     1
102
RTVSPropertyOp5
 70
     1
102
RTVSPropertyOp6
 70
     1
102
RTVSPropertyOp7
 70
     1
102
RTVSPropertyOp8
 70
     1
102
RTVSPropertyOp9
 70
     1
102
RTVSPropertyOp10
 70
     1
102
RTVSPropertyOp11
 70
     1
102
RTVSPropertyOp12
 70
     1
102
RTVSPropertyOp13
 70
     1
102
RTVSPropertyOp14
 70
     1
102
RTVSPropertyOp15
 70
     1
102
RTVSPropertyOp16
 70
     1
102
RTVSPropertyOp17
 70
     1
102
RTVSPropertyOp18
 70
     1
102
RTVSPropertyOp19
 70
     1
102
RTVSPropertyOp20
 70
     1
102
RTVSPropertyOp21
 70
     1
102
RTVSPropertyOp22
 70
     1
102
RTVSPropertyOp23
 70
     1
102
RTVSPropertyOp24
 70
     1
102
RTVSPropertyOp25
 70
     1
102
RTVSPropertyOp26
 70
     1
102
RTVSPropertyOp27
 70
     1
  0
XRECORD
  5
1B3B
102
{ACAD_REACTORS
330
1B3A
102
}
330
1B3A
100
AcDbXrecord
280
     1
102
RTVSPropertyOp0
 70
     1
102
RTVSPropertyOp1
 70
     1
102
RTVSPropertyOp2
 70
     1
102
RTVSPropertyOp3
 70
     1
102
RTVSPropertyOp4
 70
     1
102
RTVSPropertyOp5
 70
     1
102
RTVSPropertyOp6
 70
     1
102
RTVSPropertyOp7
 70
     1
102
RTVSPropertyOp8
 70
     1
102
RTVSPropertyOp9
 70
     1
102
RTVSPropertyOp10
 70
     1
102
RTVSPropertyOp11
 70
     1
102
RTVSPropertyOp12
 70
     1
102
RTVSPropertyOp13
 70
     1
102
RTVSPropertyOp14
 70
     1
102
RTVSPropertyOp15
 70
     1
102
RTVSPropertyOp16
 70
     1
102
RTVSPropertyOp17
 70
     1
102
RTVSPropertyOp18
 70
     1
102
RTVSPropertyOp19
 70
     1
102
RTVSPropertyOp20
 70
     1
102
RTVSPropertyOp21
 70
     1
102
RTVSPropertyOp22
 70
     1
102
RTVSPropertyOp23
 70
     1
102
RTVSPropertyOp24
 70
     1
102
RTVSPropertyOp25
 70
     1
102
RTVSPropertyOp26
 70
     1
102
RTVSPropertyOp27
 70
     1
  0
XRECORD
  5
1B3D
102
{ACAD_REACTORS
330
1B3C
102
}
330
1B3C
100
AcDbXrecord
280
     1
102
RTVSPropertyOp0
 70
     1
102
RTVSPropertyOp1
 70
     1
102
RTVSPropertyOp2
 70
     1
102
RTVSPropertyOp3
 70
     1
102
RTVSPropertyOp4
 70
     1
102
RTVSPropertyOp5
 70
     1
102
RTVSPropertyOp6
 70
     1
102
RTVSPropertyOp7
 70
     1
102
RTVSPropertyOp8
 70
     1
102
RTVSPropertyOp9
 70
     1
102
RTVSPropertyOp10
 70
     1
102
RTVSPropertyOp11
 70
     1
102
RTVSPropertyOp12
 70
     1
102
RTVSPropertyOp13
 70
     1
102
RTVSPropertyOp14
 70
     1
102
RTVSPropertyOp15
 70
     1
102
RTVSPropertyOp16
 70
     1
102
RTVSPropertyOp17
 70
     1
102
RTVSPropertyOp18
 70
     1
102
RTVSPropertyOp19
 70
     1
102
RTVSPropertyOp20
 70
     1
102
RTVSPropertyOp21
 70
     1
102
RTVSPropertyOp22
 70
     1
102
RTVSPropertyOp23
 70
     1
102
RTVSPropertyOp24
 70
     1
102
RTVSPropertyOp25
 70
     1
102
RTVSPropertyOp26
 70
     1
102
RTVSPropertyOp27
 70
     1
  0
XRECORD
  5
1B57
102
{ACAD_REACTORS
330
1B56
102
}
330
1B56
100
AcDbXrecord
280
     1
102
RTVSPropertyOp0
 70
     0
102
RTVSPropertyOp1
 70
     0
102
RTVSPropertyOp2
 70
     0
102
RTVSPropertyOp3
 70
     0
102
RTVSPropertyOp4
 70
     0
102
RTVSPropertyOp5
 70
     0
102
RTVSPropertyOp6
 70
     0
102
RTVSPropertyOp7
 70
     0
102
RTVSPropertyOp8
 70
     0
102
RTVSPropertyOp9
 70
     0
102
RTVSPropertyOp10
 70
     0
102
RTVSPropertyOp11
 70
     0
102
RTVSPropertyOp12
 70
     0
102
RTVSPropertyOp13
 70
     0
102
RTVSPropertyOp14
 70
     2
102
RTVSPropertyOp15
 70
     0
102
RTVSPropertyOp16
 70
     0
102
RTVSPropertyOp17
 70
     0
102
RTVSPropertyOp18
 70
     0
102
RTVSPropertyOp19
 70
     0
102
RTVSPropertyOp20
 70
     0
102
RTVSPropertyOp21
 70
     0
102
RTVSPropertyOp22
 70
     0
102
RTVSPropertyOp23
 70
     0
102
RTVSPropertyOp24
 70
     0
102
RTVSPropertyOp25
 70
     0
102
RTVSPropertyOp26
 70
     0
102
RTVSPropertyOp27
 70
     0
  0
XRECORD
  5
1B51
102
{ACAD_REACTORS
330
1B50
102
}
330
1B50
100
AcDbXrecord
280
     1
102
RTVSPropertyOp0
 70
     1
102
RTVSPropertyOp1
 70
     1
102
RTVSPropertyOp2
 70
     1
102
RTVSPropertyOp3
 70
     1
102
RTVSPropertyOp4
 70
     1
102
RTVSPropertyOp5
 70
     1
102
RTVSPropertyOp6
 70
     1
102
RTVSPropertyOp7
 70
     1
102
RTVSPropertyOp8
 70
     1
102
RTVSPropertyOp9
 70
     1
102
RTVSPropertyOp10
 70
     1
102
RTVSPropertyOp11
 70
     1
102
RTVSPropertyOp12
 70
     1
102
RTVSPropertyOp13
 70
     1
102
RTVSPropertyOp14
 70
     1
102
RTVSPropertyOp15
 70
     1
102
RTVSPropertyOp16
 70
     1
102
RTVSPropertyOp17
 70
     1
102
RTVSPropertyOp18
 70
     1
102
RTVSPropertyOp19
 70
     1
102
RTVSPropertyOp20
 70
     1
102
RTVSPropertyOp21
 70
     1
102
RTVSPropertyOp22
 70
     1
102
RTVSPropertyOp23
 70
     1
102
RTVSPropertyOp24
 70
     1
102
RTVSPropertyOp25
 70
     1
102
RTVSPropertyOp26
 70
     1
102
RTVSPropertyOp27
 70
     1
  0
XRECORD
  5
1B59
102
{ACAD_REACTORS
330
1B58
102
}
330
1B58
100
AcDbXrecord
280
     1
102
RTVSPropertyOp0
 70
     0
102
RTVSPropertyOp1
 70
     0
102
RTVSPropertyOp2
 70
     0
102
RTVSPropertyOp3
 70
     0
102
RTVSPropertyOp4
 70
     0
102
RTVSPropertyOp5
 70
     0
102
RTVSPropertyOp6
 70
     0
102
RTVSPropertyOp7
 70
     0
102
RTVSPropertyOp8
 70
     0
102
RTVSPropertyOp9
 70
     0
102
RTVSPropertyOp10
 70
     0
102
RTVSPropertyOp11
 70
     0
102
RTVSPropertyOp12
 70
     0
102
RTVSPropertyOp13
 70
     0
102
RTVSPropertyOp14
 70
     2
102
RTVSPropertyOp15
 70
     0
102
RTVSPropertyOp16
 70
     0
102
RTVSPropertyOp17
 70
     0
102
RTVSPropertyOp18
 70
     0
102
RTVSPropertyOp19
 70
     0
102
RTVSPropertyOp20
 70
     0
102
RTVSPropertyOp21
 70
     0
102
RTVSPropertyOp22
 70
     0
102
RTVSPropertyOp23
 70
     0
102
RTVSPropertyOp24
 70
     0
102
RTVSPropertyOp25
 70
     0
102
RTVSPropertyOp26
 70
     0
102
RTVSPropertyOp27
 70
     0
  0
XRECORD
  5
1B49
102
{ACAD_REACTORS
330
1B48
102
}
330
1B48
100
AcDbXrecord
280
     1
102
RTVSPropertyOp0
 70
     1
102
RTVSPropertyOp1
 70
     1
102
RTVSPropertyOp2
 70
     1
102
RTVSPropertyOp3
 70
     1
102
RTVSPropertyOp4
 70
     1
102
RTVSPropertyOp5
 70
     1
102
RTVSPropertyOp6
 70
     1
102
RTVSPropertyOp7
 70
     1
102
RTVSPropertyOp8
 70
     1
102
RTVSPropertyOp9
 70
     1
102
RTVSPropertyOp10
 70
     1
102
RTVSPropertyOp11
 70
     1
102
RTVSPropertyOp12
 70
     1
102
RTVSPropertyOp13
 70
     1
102
RTVSPropertyOp14
 70
     1
102
RTVSPropertyOp15
 70
     1
102
RTVSPropertyOp16
 70
     1
102
RTVSPropertyOp17
 70
     1
102
RTVSPropertyOp18
 70
     1
102
RTVSPropertyOp19
 70
     1
102
RTVSPropertyOp20
 70
     1
102
RTVSPropertyOp21
 70
     1
102
RTVSPropertyOp22
 70
     1
102
RTVSPropertyOp23
 70
     1
102
RTVSPropertyOp24
 70
     1
102
RTVSPropertyOp25
 70
     1
102
RTVSPropertyOp26
 70
     1
102
RTVSPropertyOp27
 70
     1
  0
XRECORD
  5
1B4F
102
{ACAD_REACTORS
330
1B4E
102
}
330
1B4E
100
AcDbXrecord
280
     1
102
RTVSPropertyOp0
 70
     1
102
RTVSPropertyOp1
 70
     1
102
RTVSPropertyOp2
 70
     1
102
RTVSPropertyOp3
 70
     1
102
RTVSPropertyOp4
 70
     1
102
RTVSPropertyOp5
 70
     1
102
RTVSPropertyOp6
 70
     1
102
RTVSPropertyOp7
 70
     1
102
RTVSPropertyOp8
 70
     1
102
RTVSPropertyOp9
 70
     1
102
RTVSPropertyOp10
 70
     1
102
RTVSPropertyOp11
 70
     1
102
RTVSPropertyOp12
 70
     1
102
RTVSPropertyOp13
 70
     1
102
RTVSPropertyOp14
 70
     1
102
RTVSPropertyOp15
 70
     1
102
RTVSPropertyOp16
 70
     1
102
RTVSPropertyOp17
 70
     1
102
RTVSPropertyOp18
 70
     1
102
RTVSPropertyOp19
 70
     1
102
RTVSPropertyOp20
 70
     1
102
RTVSPropertyOp21
 70
     1
102
RTVSPropertyOp22
 70
     1
102
RTVSPropertyOp23
 70
     1
102
RTVSPropertyOp24
 70
     1
102
RTVSPropertyOp25
 70
     1
102
RTVSPropertyOp26
 70
     1
102
RTVSPropertyOp27
 70
     1
  0
ENDSEC
  0
EOF
