  0
SECTION
  2
HEADER
  9
$ACADVER
  1
AC1015
  9
$ACADMAINTVER
 70
    20
  9
$DWGCODEPAGE
  3
ANSI_1252
  9
$INSBASE
 10
0.0
 20
0.0
 30
0.0
  9
$EXTMIN
 10
3537.30397028852
 20
1201.686667867389
 30
0.0
  9
$EXTMAX
 10
3540.837550978892
 20
1202.387049345214
 30
0.0
  9
$LIMMIN
 10
0.0
 20
0.0
  9
$LIMMAX
 10
420.0
 20
297.0
  9
$ORTHOMODE
 70
     1
  9
$REGENMODE
 70
     1
  9
$FILLMODE
 70
     1
  9
$QTEXTMODE
 70
     0
  9
$MIRRTEXT
 70
     1
  9
$LTSCALE
 40
1.0
  9
$ATTMODE
 70
     1
  9
$TEXTSIZE
 40
2.5
  9
$TRACEWID
 40
1.0
  9
$TEXTSTYLE
  7
SANINDUSA
  9
$CLAYER
  8
cotas
  9
$CELTYPE
  6
ByLayer
  9
$CECOLOR
 62
   256
  9
$CELTSCALE
 40
1.0
  9
$DISPSILH
 70
     0
  9
$DIMSCALE
 40
1.0
  9
$DIMASZ
 40
2.0
  9
$DIMEXO
 40
1.0
  9
$DIMDLI
 40
1.0
  9
$DIMRND
 40
0.0
  9
$DIMDLE
 40
0.0
  9
$DIMEXE
 40
1.0
  9
$DIMTP
 40
0.0
  9
$DIMTM
 40
0.0
  9
$DIMTXT
 40
2.0
  9
$DIMCEN
 40
0.0
  9
$DIMTSZ
 40
0.0
  9
$DIMTOL
 70
     0
  9
$DIMLIM
 70
     0
  9
$DIMTIH
 70
     0
  9
$DIMTOH
 70
     0
  9
$DIMSE1
 70
     0
  9
$DIMSE2
 70
     0
  9
$DIMTAD
 70
     1
  9
$DIMZIN
 70
     8
  9
$DIMBLK
  1

  9
$DIMASO
 70
     1
  9
$DIMSHO
 70
     1
  9
$DIMPOST
  1

  9
$DIMAPOST
  1

  9
$DIMALT
 70
     0
  9
$DIMALTD
 70
     3
  9
$DIMALTF
 40
0.03937007874016
  9
$DIMLFAC
 40
1.0
  9
$DIMTOFL
 70
     1
  9
$DIMTVP
 40
0.0
  9
$DIMTIX
 70
     0
  9
$DIMSOXD
 70
     0
  9
$DIMSAH
 70
     0
  9
$DIMBLK1
  1

  9
$DIMBLK2
  1

  9
$DIMSTYLE
  2
SANINDUSA
  9
$DIMCLRD
 70
   256
  9
$DIMCLRE
 70
   256
  9
$DIMCLRT
 70
   256
  9
$DIMTFAC
 40
1.0
  9
$DIMGAP
 40
1.0
  9
$DIMJUST
 70
     0
  9
$DIMSD1
 70
     0
  9
$DIMSD2
 70
     0
  9
$DIMTOLJ
 70
     0
  9
$DIMTZIN
 70
     8
  9
$DIMALTZ
 70
     0
  9
$DIMALTTZ
 70
     0
  9
$DIMUPT
 70
     0
  9
$DIMDEC
 70
     1
  9
$DIMTDEC
 70
     1
  9
$DIMALTU
 70
     2
  9
$DIMALTTD
 70
     3
  9
$DIMTXSTY
  7
SANINDUSA
  9
$DIMAUNIT
 70
     0
  9
$DIMADEC
 70
     1
  9
$DIMALTRND
 40
0.0
  9
$DIMAZIN
 70
     0
  9
$DIMDSEP
 70
    44
  9
$DIMATFIT
 70
     3
  9
$DIMFRAC
 70
     0
  9
$DIMLDRBLK
  1

  9
$DIMLUNIT
 70
     2
  9
$DIMLWD
 70
    -1
  9
$DIMLWE
 70
    -1
  9
$DIMTMOVE
 70
     0
  9
$LUNITS
 70
     2
  9
$LUPREC
 70
     4
  9
$SKETCHINC
 40
1.0
  9
$FILLETRAD
 40
0.0
  9
$AUNITS
 70
     0
  9
$AUPREC
 70
     0
  9
$MENU
  1
.
  9
$ELEVATION
 40
0.0
  9
$PELEVATION
 40
0.0
  9
$THICKNESS
 40
0.0
  9
$LIMCHECK
 70
     0
  9
$CHAMFERA
 40
10.0
  9
$CHAMFERB
 40
10.0
  9
$CHAMFERC
 40
20.0
  9
$CHAMFERD
 40
0.0
  9
$SKPOLY
 70
     0
  9
$TDCREATE
 40
2453157.650586296
  9
$TDUCREATE
 40
2453157.608919630
  9
$TDUPDATE
 40
2456146.625357165
  9
$TDUUPDATE
 40
2456146.583690498
  9
$TDINDWG
 40
0.0103381713
  9
$TDUSRTIMER
 40
0.0103379861
  9
$USRTIMER
 70
     1
  9
$ANGBASE
 50
0.0
  9
$ANGDIR
 70
     0
  9
$PDMODE
 70
     0
  9
$PDSIZE
 40
0.0
  9
$PLINEWID
 40
0.0
  9
$SPLFRAME
 70
     0
  9
$SPLINETYPE
 70
     6
  9
$SPLINESEGS
 70
     8
  9
$HANDSEED
  5
1B3D
  9
$SURFTAB1
 70
     6
  9
$SURFTAB2
 70
     6
  9
$SURFTYPE
 70
     6
  9
$SURFU
 70
     6
  9
$SURFV
 70
     6
  9
$UCSBASE
  2

  9
$UCSNAME
  2

  9
$UCSORG
 10
0.0
 20
0.0
 30
0.0
  9
$UCSXDIR
 10
1.0
 20
0.0
 30
0.0
  9
$UCSYDIR
 10
0.0
 20
1.0
 30
0.0
  9
$UCSORTHOREF
  2

  9
$UCSORTHOVIEW
 70
     0
  9
$UCSORGTOP
 10
0.0
 20
0.0
 30
0.0
  9
$UCSORGBOTTOM
 10
0.0
 20
0.0
 30
0.0
  9
$UCSORGLEFT
 10
0.0
 20
0.0
 30
0.0
  9
$UCSORGRIGHT
 10
0.0
 20
0.0
 30
0.0
  9
$UCSORGFRONT
 10
0.0
 20
0.0
 30
0.0
  9
$UCSORGBACK
 10
0.0
 20
0.0
 30
0.0
  9
$PUCSBASE
  2

  9
$PUCSNAME
  2

  9
$PUCSORG
 10
0.0
 20
0.0
 30
0.0
  9
$PUCSXDIR
 10
1.0
 20
0.0
 30
0.0
  9
$PUCSYDIR
 10
0.0
 20
1.0
 30
0.0
  9
$PUCSORTHOREF
  2

  9
$PUCSORTHOVIEW
 70
     0
  9
$PUCSORGTOP
 10
0.0
 20
0.0
 30
0.0
  9
$PUCSORGBOTTOM
 10
0.0
 20
0.0
 30
0.0
  9
$PUCSORGLEFT
 10
0.0
 20
0.0
 30
0.0
  9
$PUCSORGRIGHT
 10
0.0
 20
0.0
 30
0.0
  9
$PUCSORGFRONT
 10
0.0
 20
0.0
 30
0.0
  9
$PUCSORGBACK
 10
0.0
 20
0.0
 30
0.0
  9
$USERI1
 70
     0
  9
$USERI2
 70
     0
  9
$USERI3
 70
     0
  9
$USERI4
 70
     0
  9
$USERI5
 70
     0
  9
$USERR1
 40
0.0
  9
$USERR2
 40
0.0
  9
$USERR3
 40
0.0
  9
$USERR4
 40
0.0
  9
$USERR5
 40
0.0
  9
$WORLDVIEW
 70
     1
  9
$SHADEDGE
 70
     3
  9
$SHADEDIF
 70
    70
  9
$TILEMODE
 70
     1
  9
$MAXACTVP
 70
    64
  9
$PINSBASE
 10
0.0
 20
0.0
 30
0.0
  9
$PLIMCHECK
 70
     0
  9
$PEXTMIN
 10
1.000000000000000E+20
 20
1.000000000000000E+20
 30
1.000000000000000E+20
  9
$PEXTMAX
 10
-1.000000000000000E+20
 20
-1.000000000000000E+20
 30
-1.000000000000000E+20
  9
$PLIMMIN
 10
0.0
 20
0.0
  9
$PLIMMAX
 10
420.0
 20
297.0
  9
$UNITMODE
 70
     0
  9
$VISRETAIN
 70
     1
  9
$PLINEGEN
 70
     0
  9
$PSLTSCALE
 70
     1
  9
$TREEDEPTH
 70
  3020
  9
$CMLSTYLE
  2
Standard
  9
$CMLJUST
 70
     0
  9
$CMLSCALE
 40
20.0
  9
$PROXYGRAPHICS
 70
     1
  9
$MEASUREMENT
 70
     1
  9
$CELWEIGHT
370
    -1
  9
$ENDCAPS
280
     0
  9
$JOINSTYLE
280
     0
  9
$LWDISPLAY
290
     0
  9
$INSUNITS
 70
     4
  9
$HYPERLINKBASE
  1

  9
$STYLESHEET
  1
monochrome.ctb
  9
$XEDIT
290
     1
  9
$CEPSNTYPE
380
     0
  9
$PSTYLEMODE
290
     1
  9
$FINGERPRINTGUID
  2
{B98A73AA-52AA-4C10-B469-C0E7150AC31F}
  9
$VERSIONGUID
  2
{DEBAE70A-7F1E-466B-BBFE-4E3656E58A82}
  9
$EXTNAMES
290
     1
  9
$PSVPSCALE
 40
0.0
  9
$OLESTARTUP
290
     0
  0
ENDSEC
  0
SECTION
  2
CLASSES
  0
CLASS
  1
ACDBDICTIONARYWDFLT
  2
AcDbDictionaryWithDefault
  3
ObjectDBX Classes
 90
        0
280
     0
281
     0
  0
CLASS
  1
ACDBPLACEHOLDER
  2
AcDbPlaceHolder
  3
ObjectDBX Classes
 90
        0
280
     0
281
     0
  0
CLASS
  1
LAYOUT
  2
AcDbLayout
  3
ObjectDBX Classes
 90
        0
280
     0
281
     0
  0
CLASS
  1
DICTIONARYVAR
  2
AcDbDictionaryVar
  3
ObjectDBX Classes
 90
        0
280
     0
281
     0
  0
CLASS
  1
DIMASSOC
  2
AcDbDimAssoc
  3
"AcDbDimAssoc|Product Desc:     AcDim ARX App For Dimension|Company:          Autodesk, Inc.|WEB Address:      www.autodesk.com"
 90
    32768
280
     0
281
     0
  0
CLASS
  1
TABLESTYLE
  2
AcDbTableStyle
  3
ObjectDBX Classes
 90
     4095
280
     0
281
     0
  0
CLASS
  1
MATERIAL
  2
AcDbMaterial
  3
ObjectDBX Classes
 90
     1153
280
     0
281
     0
  0
CLASS
  1
VISUALSTYLE
  2
AcDbVisualStyle
  3
ObjectDBX Classes
 90
     4095
280
     0
281
     0
  0
CLASS
  1
SCALE
  2
AcDbScale
  3
ObjectDBX Classes
 90
     1153
280
     0
281
     0
  0
CLASS
  1
MLEADERSTYLE
  2
AcDbMLeaderStyle
  3
ACDB_MLEADERSTYLE_CLASS
 90
     4095
280
     0
281
     0
  0
CLASS
  1
CELLSTYLEMAP
  2
AcDbCellStyleMap
  3
ObjectDBX Classes
 90
     1152
280
     0
281
     0
  0
ENDSEC
  0
SECTION
  2
TABLES
  0
TABLE
  2
VPORT
  5
8
330
0
100
AcDbSymbolTable
 70
     1
  0
VPORT
  5
1A94
330
8
100
AcDbSymbolTableRecord
100
AcDbViewportTableRecord
  2
*Active
 70
     0
 10
0.0
 20
0.0
 11
1.0
 21
1.0
 12
3539.129938991402
 22
1202.036858606301
 13
0.0
 23
0.0
 14
10.0
 24
10.0
 15
10.0
 25
10.0
 16
0.0
 26
0.0
 36
1.0
 17
0.0
 27
0.0
 37
0.0
 40
2.227553731968928
 41
1.645464025026068
 42
50.0
 43
0.0
 44
0.0
 50
0.0
 51
0.0
 71
     0
 72
   100
 73
     1
 74
     2
 75
     0
 76
     0
 77
     0
 78
     0
281
     0
 65
     1
110
0.0
120
0.0
130
0.0
111
1.0
121
0.0
131
0.0
112
0.0
122
1.0
132
0.0
 79
     0
146
0.0
  0
ENDTAB
  0
TABLE
  2
LTYPE
  5
5
330
0
100
AcDbSymbolTable
 70
     3
  0
LTYPE
  5
14
330
5
100
AcDbSymbolTableRecord
100
AcDbLinetypeTableRecord
  2
ByBlock
 70
     0
  3

 72
    65
 73
     0
 40
0.0
  0
LTYPE
  5
15
330
5
100
AcDbSymbolTableRecord
100
AcDbLinetypeTableRecord
  2
ByLayer
 70
     0
  3

 72
    65
 73
     0
 40
0.0
  0
LTYPE
  5
16
330
5
100
AcDbSymbolTableRecord
100
AcDbLinetypeTableRecord
  2
Continuous
 70
     0
  3
Solid line
 72
    65
 73
     0
 40
0.0
  0
LTYPE
  5
2D
330
5
100
AcDbSymbolTableRecord
100
AcDbLinetypeTableRecord
  2
DASHDOT
 70
     0
  3
Dash dot __ . __ . __ . __ . __ . __ . __ . __
 72
    65
 73
     4
 40
25.4
 49
12.7
 74
     0
 49
-6.349999999999999
 74
     0
 49
0.0
 74
     0
 49
-6.349999999999999
 74
     0
  0
LTYPE
  5
2E
330
5
100
AcDbSymbolTableRecord
100
AcDbLinetypeTableRecord
  2
HIDDEN
 70
     0
  3
Hidden __ __ __ __ __ __ __ __ __ __ __ __ __ _
 72
    65
 73
     2
 40
9.524999999999998
 49
6.349999999999999
 74
     0
 49
-3.174999999999999
 74
     0
  0
ENDTAB
  0
TABLE
  2
LAYER
  5
2
330
0
100
AcDbSymbolTable
 70
    16
  0
LAYER
  5
10
102
{ACAD_XDICTIONARY
360
1AE3
102
}
330
2
100
AcDbSymbolTableRecord
100
AcDbLayerTableRecord
  2
0
 70
     0
 62
     7
  6
Continuous
370
    -3
390
F
  0
LAYER
  5
2F
102
{ACAD_XDICTIONARY
360
1AE5
102
}
330
2
100
AcDbSymbolTableRecord
100
AcDbLayerTableRecord
  2
1
 70
     0
 62
     1
  6
Continuous
370
    -3
390
F
  0
LAYER
  5
30
102
{ACAD_XDICTIONARY
360
1AE7
102
}
330
2
100
AcDbSymbolTableRecord
100
AcDbLayerTableRecord
  2
2
 70
     0
 62
     2
  6
Continuous
370
    -3
390
F
  0
LAYER
  5
31
102
{ACAD_XDICTIONARY
360
1AE9
102
}
330
2
100
AcDbSymbolTableRecord
100
AcDbLayerTableRecord
  2
3
 70
     0
 62
     3
  6
Continuous
370
    -3
390
F
  0
LAYER
  5
32
102
{ACAD_XDICTIONARY
360
1AEB
102
}
330
2
100
AcDbSymbolTableRecord
100
AcDbLayerTableRecord
  2
4
 70
     0
 62
     4
  6
Continuous
370
    -3
390
F
  0
LAYER
  5
33
102
{ACAD_XDICTIONARY
360
1AED
102
}
330
2
100
AcDbSymbolTableRecord
100
AcDbLayerTableRecord
  2
5
 70
     0
 62
     5
  6
Continuous
370
    -3
390
F
  0
LAYER
  5
34
102
{ACAD_XDICTIONARY
360
1AEF
102
}
330
2
100
AcDbSymbolTableRecord
100
AcDbLayerTableRecord
  2
6
 70
     0
 62
     6
  6
Continuous
370
    -3
390
F
  0
LAYER
  5
35
102
{ACAD_XDICTIONARY
360
1AF1
102
}
330
2
100
AcDbSymbolTableRecord
100
AcDbLayerTableRecord
  2
7
 70
     0
 62
     7
  6
Continuous
370
    -3
390
F
  0
LAYER
  5
36
102
{ACAD_XDICTIONARY
360
1AF3
102
}
330
2
100
AcDbSymbolTableRecord
100
AcDbLayerTableRecord
  2
cen
 70
     0
 62
     7
  6
DASHDOT
370
    -3
390
F
  0
LAYER
  5
37
102
{ACAD_XDICTIONARY
360
1AF5
102
}
330
2
100
AcDbSymbolTableRecord
100
AcDbLayerTableRecord
  2
hid
 70
     0
 62
     7
  6
HIDDEN
370
    -3
390
F
  0
LAYER
  5
5D6
102
{ACAD_XDICTIONARY
360
1AF7
102
}
330
2
100
AcDbSymbolTableRecord
100
AcDbLayerTableRecord
  2
hatch
 70
     0
 62
     9
  6
Continuous
370
    -3
390
F
  0
LAYER
  5
8AF
102
{ACAD_XDICTIONARY
360
1AF9
102
}
330
2
100
AcDbSymbolTableRecord
100
AcDbLayerTableRecord
  2
9
 70
     0
 62
     9
  6
Continuous
370
    -3
390
F
  0
LAYER
  5
8F8
102
{ACAD_XDICTIONARY
360
1AFB
102
}
330
2
100
AcDbSymbolTableRecord
100
AcDbLayerTableRecord
  2
leg fin
 70
     0
 62
     9
  6
Continuous
370
    -3
390
F
  0
LAYER
  5
91D
102
{ACAD_XDICTIONARY
360
1AFD
102
}
330
2
100
AcDbSymbolTableRecord
100
AcDbLayerTableRecord
  2
cotas
 70
     0
 62
     1
  6
Continuous
370
    -3
390
F
  0
LAYER
  5
92F
330
2
100
AcDbSymbolTableRecord
100
AcDbLayerTableRecord
  2
Defpoints
 70
     0
 62
     7
  6
Continuous
290
     0
370
    -3
390
F
  0
LAYER
  5
BA2
102
{ACAD_XDICTIONARY
360
1AFF
102
}
330
2
100
AcDbSymbolTableRecord
100
AcDbLayerTableRecord
  2
Sanindusa
 70
     0
 62
     3
  6
Continuous
370
    -3
390
F
  0
ENDTAB
  0
TABLE
  2
STYLE
  5
3
330
0
100
AcDbSymbolTable
 70
     3
  0
STYLE
  5
11
330
3
100
AcDbSymbolTableRecord
100
AcDbTextStyleTableRecord
  2
Standard
 70
     0
 40
0.0
 41
1.0
 50
0.0
 71
     0
 42
2.5
  3
Avgardn.ttf
  4

1001
ACAD
1000
AvantGarde Bk BT
1071
       34
  0
STYLE
  5
2C
330
3
100
AcDbSymbolTableRecord
100
AcDbTextStyleTableRecord
  2

 70
     1
 40
0.0
 41
1.0
 50
0.0
 71
     0
 42
2.5
  3
ltypeshp.shx
  4

  0
STYLE
  5
91F
330
3
100
AcDbSymbolTableRecord
100
AcDbTextStyleTableRecord
  2
SANINDUSA
 70
     0
 40
0.0
 41
1.0
 50
0.0
 71
     0
 42
2.5
  3
verdana.TTF
  4

1001
ACAD
1000
Verdana
1071
       34
  0
ENDTAB
  0
TABLE
  2
VIEW
  5
6
330
0
100
AcDbSymbolTable
 70
     0
  0
ENDTAB
  0
TABLE
  2
UCS
  5
7
330
0
100
AcDbSymbolTable
 70
     0
  0
ENDTAB
  0
TABLE
  2
APPID
  5
9
330
0
100
AcDbSymbolTable
 70
     4
  0
APPID
  5
12
330
9
100
AcDbSymbolTableRecord
100
AcDbRegAppTableRecord
  2
ACAD
 70
     0
  0
APPID
  5
3A
330
9
100
AcDbSymbolTableRecord
100
AcDbRegAppTableRecord
  2
DCO15
 70
     0
  0
APPID
  5
1A84
330
9
100
AcDbSymbolTableRecord
100
AcDbRegAppTableRecord
  2
ACAD_EXEMPT_FROM_CAD_STANDARDS
 70
     0
  0
APPID
  5
1B3C
330
9
100
AcDbSymbolTableRecord
100
AcDbRegAppTableRecord
  2
ACAD_MLEADERVER
 70
     0
  0
ENDTAB
  0
TABLE
  2
DIMSTYLE
  5
A
330
0
100
AcDbSymbolTable
 70
     2
100
AcDbDimStyleTable
 71
     1
340
921
  0
DIMSTYLE
105
45
330
A
100
AcDbSymbolTableRecord
100
AcDbDimStyleTableRecord
  2
STANDARD
 70
     0
289
     0
340
11
  0
DIMSTYLE
105
921
330
A
100
AcDbSymbolTableRecord
100
AcDbDimStyleTableRecord
  2
SANINDUSA
 70
     0
 41
2.0
 42
1.0
 43
1.0
 44
1.0
 73
     0
 74
     0
 77
     1
 78
     8
140
2.0
141
0.0
143
0.03937007874016
147
1.0
171
     3
172
     1
176
   256
177
   256
178
   256
179
     1
271
     1
272
     1
274
     3
278
    44
283
     0
284
     8
340
91F
371
    -1
372
    -1
  0
ENDTAB
  0
TABLE
  2
BLOCK_RECORD
  5
1
330
0
100
AcDbSymbolTable
 70
     4
  0
BLOCK_RECORD
  5
1F
330
1
100
AcDbSymbolTableRecord
100
AcDbBlockTableRecord
  2
*Model_Space
340
22
  0
BLOCK_RECORD
  5
1B
330
1
100
AcDbSymbolTableRecord
100
AcDbBlockTableRecord
  2
*Paper_Space
340
1E
  0
BLOCK_RECORD
  5
23
330
1
100
AcDbSymbolTableRecord
100
AcDbBlockTableRecord
  2
*Paper_Space0
340
26
  0
BLOCK_RECORD
  5
919
330
1
100
AcDbSymbolTableRecord
100
AcDbBlockTableRecord
  2
_DotSmall
340
0
  0
BLOCK_RECORD
  5
922
330
1
100
AcDbSymbolTableRecord
100
AcDbBlockTableRecord
  2
base para cotas
340
0
310
2800000020000000200000000100080000000000000400000000000000000000000000000000000000000000000080000080000000808000800000008000800080800000C0C0C000C0DCC000F0CAA6000020400000206000002080000020A0000020C0000020E00000400000004020000040400000406000004080000040A0
310
000040C0000040E00000600000006020000060400000606000006080000060A0000060C0000060E00000800000008020000080400000806000008080000080A0000080C0000080E00000A0000000A0200000A0400000A0600000A0800000A0A00000A0C00000A0E00000C0000000C0200000C0400000C0600000C0800000C0
310
A00000C0C00000C0E00000E0000000E0200000E0400000E0600000E0800000E0A00000E0C00000E0E00040000000400020004000400040006000400080004000A0004000C0004000E00040200000402020004020400040206000402080004020A0004020C0004020E000404000004040200040404000404060004040800040
310
40A0004040C0004040E00040600000406020004060400040606000406080004060A0004060C0004060E00040800000408020004080400040806000408080004080A0004080C0004080E00040A0000040A0200040A0400040A0600040A0800040A0A00040A0C00040A0E00040C0000040C0200040C0400040C0600040C08000
310
40C0A00040C0C00040C0E00040E0000040E0200040E0400040E0600040E0800040E0A00040E0C00040E0E00080000000800020008000400080006000800080008000A0008000C0008000E00080200000802020008020400080206000802080008020A0008020C0008020E00080400000804020008040400080406000804080
310
008040A0008040C0008040E00080600000806020008060400080606000806080008060A0008060C0008060E00080800000808020008080400080806000808080008080A0008080C0008080E00080A0000080A0200080A0400080A0600080A0800080A0A00080A0C00080A0E00080C0000080C0200080C0400080C0600080C0
310
800080C0A00080C0C00080C0E00080E0000080E0200080E0400080E0600080E0800080E0A00080E0C00080E0E000C0000000C0002000C0004000C0006000C0008000C000A000C000C000C000E000C0200000C0202000C0204000C0206000C0208000C020A000C020C000C020E000C0400000C0402000C0404000C0406000C0
310
408000C040A000C040C000C040E000C0600000C0602000C0604000C0606000C0608000C060A000C060C000C060E000C0800000C0802000C0804000C0806000C0808000C080A000C080C000C080E000C0A00000C0A02000C0A04000C0A06000C0A08000C0A0A000C0A0C000C0A0E000C0C00000C0C02000C0C04000C0C06000
310
C0C08000C0C0A000F0FBFF00A4A0A000808080000000FF0000FF000000FFFF00FF000000FF00FF00FFFF0000FFFFFF00A4A4A4A4A4A4A4A4A4A4A4A4A4A4A4A4A4A4A4A4A4A4A4A4A4A4A4A4A4A4A4A4A4A4A4A4A4A4A4A4A4A4A4A4A4A4A4A4A4A4A4A4A4A4A4A4A4A4A4A4A4A4A4A4A4A4A4A4A4A4A4A4A4A4A4A4A4A4A4
310
A4A4A4A4A4A4A4A4A4A4A4A4A4A4A4A4A4A4A4A4A4A4A4A4A4A4A4A4A4A4A4A4A4A4A4A4A4A4A4A4A4A4A4A4A4A4A4A4A4A4A4A4A4A4A4A4A4A4A4A4A4A4A4A4A4A4A4A4A4A4A4A4A4A4A4A4A4A4A4A4A4A4A4A4A4A4A4A4A4A4A4A4A4A4A4A4A4A4A4A4A4A4A4A4A4A4A4A4A4A4A4A4A4A4A4A4A4A4A4A4A4A4A4A4A4A4A4
310
A4A4A4A4A4A4A4A4A4A4A4A4A4A4A4A4A4A4A4A4A4A4A4A4A4A4A4A4A4A4A4A4A4A4A4A4A4A4A4A4A4A4A4A4A4A4A4A4A4A4A4A4A4A4A4A4A4A4A4A4A4A4A4A4A4A4A4A4A4A4A4A4A4A4A4A4A4A4A4A4A4A4A4A4A4A4A4A4A4A4A4A4A4A4A4A4A4A4A4A4A4A4A4A4A4A4A4A4A4A4A4A4A4A4A4A4A4A4A4A4A4A4A4A4A4A4A4
310
A4A4A4A4A4A4A4A4A4A4A4A4A4A4A4A4A4A4A4A4A4A4A4A4A4A4A4A4A4A4A4A4A4A4A4A4A4A4A4A4A4A4A4A4A4A4A4A4A4A4A4A4A4A4A4A4A4A4A4A4A4A4A4A4A4A4A4A4A4A4A4A4A4A4A4A4A4A4A4A4A4A4A4A4A4A4A4A4A4A4A4A4A4A4A4A4A4A4A4A4A4A4A4A4A4A4A4A4A4A4A4A4A4A4A4A4F9F9F9F9F9F9F9F9F9F9F9
310
F9F9F9F9F9F9F9F9F9F9F9F9F9F9F9F9F9F9F9A4A4F9F9F9F9F9F9F9F9F9F9F9F9F9F9F9F9F9F9F9F9F9F9F9F9F9F9F9F9F9F9A4A4F9F9F9F9F9F9F9F9F9F9F9F9F9F9F9F9F9F9F9F9F9F9F9F9F9F9F9F9F9F9A4A4F9A4A4A4A4A4A4A4A4A4A4A4A4A4A4A4A4A4A4A4A4A4A4A4A4A4A4A4A4F9A4A4A4A4A4A4A4A4A4A4A4A4
310
A4A4A4A4A4A4A4A4A4A4A4A4A4A4A4A4A4A4A4A4A4A4A4A4A4A4A4A4A4A4A4A4A4A4A4A4A4A4A4A4A4A4A4A4A4A4A4A4A4A4A4A4A4A4A4A4A4A4A4A4A4A4A4A4A4A4A4A4A4A4A4A4A4A4A4A4A4A4A4A4A4A4A4A4A4A4A4A4A4A4A4A4A4A4A4A4A4A4A4A4A4A4A4A4A4A4A4A4A4A4A4A4A4A4A4A4A4A4A4A4A4A4A4A4A4A4A4
310
A4A4A4A4A4A4A4A4A4A4A4A4A4A4A4A4A4A4A4A4A4A4A4A4A4A4A4A4A4A4A4A4A4A4A4A4A4A4A4A4A4A4A4A4A4A4A4A4A4A4A4A4A4A4A4A4A4A4A4A4A4A4A4A4A4A4A4A4A4A4A4A4A4A4A4A4A4A4A4A4A4A4A4A4A4A4A4A4A4A4A4A4A4A4A4A4A4A4A4A4A4A4A4A4A4A4A4A4A4A4A4A4A4A4A4A4A4A4A4A4A4A4A4A4A4A4A4
310
A4A4A4A4A4A4A4A4A4A4A4A4A4A4A4A4A4A4A4A4A4A4A4A4A4A4A4A4A4A4A4A4A4A4A4A4A4A4A4A4A4A4A4A4A4A4A4A4A4A4A4A4A4A4A4A4A4A4A4A4A4A4A4A4A4A4A4A4A4A4A4A4A4A4A4A4A4A4A4A4A4A4A4A4A4A4A4A4A4A4A4A4A4A4A4A4A4A4A4A4A4A4A4A4A4A4A4A4A4A4A4A4A4A4A4A4A4A4A4A4A4A4A4A4A4A4A4
310
A4A4A4A4A4A4A4A4A4A4A4A4A4A4A4A4A4A4A4A4A4A4A4A4A4A4A4A4A4A4A4A4A4A4A4A4A4A4A4A4A4A4A4A4A4A4A4A4A4A4A4A4A4A4A4A4
1001
ACAD
1000
DesignCenter Data
1002
{
1070
     1
1070
     4
1002
}
  0
BLOCK_RECORD
  5
AA8
330
1
100
AcDbSymbolTableRecord
100
AcDbBlockTableRecord
  2
_CLOSED
340
0
  0
ENDTAB
  0
ENDSEC
  0
SECTION
  2
BLOCKS
  0
BLOCK
  5
20
330
1F
100
AcDbEntity
  8
0
100
AcDbBlockBegin
  2
*Model_Space
 70
     0
 10
0.0
 20
0.0
 30
0.0
  3
*Model_Space
  1

  0
ENDBLK
  5
21
330
1F
100
AcDbEntity
  8
0
100
AcDbBlockEnd
  0
BLOCK
  5
1C
330
1B
100
AcDbEntity
 67
     1
  8
0
100
AcDbBlockBegin
  2
*Paper_Space
 70
     0
 10
0.0
 20
0.0
 30
0.0
  3
*Paper_Space
  1

  0
ENDBLK
  5
1D
330
1B
100
AcDbEntity
 67
     1
  8
0
100
AcDbBlockEnd
  0
BLOCK
  5
24
330
23
100
AcDbEntity
 67
     1
  8
0
100
AcDbBlockBegin
  2
*Paper_Space0
 70
     0
 10
0.0
 20
0.0
 30
0.0
  3
*Paper_Space0
  1

  0
ENDBLK
  5
25
330
23
100
AcDbEntity
 67
     1
  8
0
100
AcDbBlockEnd
  0
BLOCK
  5
91B
330
919
100
AcDbEntity
  8
0
100
AcDbBlockBegin
  2
_DotSmall
 70
     0
 10
0.0
 20
0.0
 30
0.0
  3
_DotSmall
  1

  0
LWPOLYLINE
  5
91A
330
919
100
AcDbEntity
  8
0
  6
ByBlock
 62
     0
100
AcDbPolyline
 90
        2
 70
     1
 43
0.5
 10
-0.0625
 20
0.0
 42
1.0
 10
0.0625
 20
0.0
 42
1.0
  0
ENDBLK
  5
91C
330
919
100
AcDbEntity
  8
0
100
AcDbBlockEnd
  0
BLOCK
  5
92A
330
922
100
AcDbEntity
  8
0
100
AcDbBlockBegin
  2
base para cotas
 70
     0
 10
0.0
 20
0.0
 30
0.0
  3
base para cotas
  1

  0
LINE
  5
B36
330
922
100
AcDbEntity
  8
cotas
100
AcDbLine
 10
0.0
 20
-30.0
 30
0.0
 11
327.1260136525398
 21
-30.0
 31
0.0
  0
LINE
  5
B37
330
922
100
AcDbEntity
  8
cotas
100
AcDbLine
 10
0.0
 20
-25.0
 30
0.0
 11
327.1260136525398
 21
-25.0
 31
0.0
  0
LINE
  5
B38
330
922
100
AcDbEntity
  8
cotas
100
AcDbLine
 10
0.0
 20
-20.0
 30
0.0
 11
327.1260136525398
 21
-20.0
 31
0.0
  0
LINE
  5
B39
330
922
100
AcDbEntity
  8
cotas
100
AcDbLine
 10
0.0
 20
-15.0
 30
0.0
 11
327.1260136525398
 21
-15.0
 31
0.0
  0
LINE
  5
B3A
330
922
100
AcDbEntity
  8
cotas
100
AcDbLine
 10
0.0
 20
-10.0
 30
0.0
 11
327.1260136525398
 21
-10.0
 31
0.0
  0
LINE
  5
B3B
330
922
100
AcDbEntity
  8
cotas
100
AcDbLine
 10
0.0
 20
0.0
 30
0.0
 11
0.0
 21
-30.0
 31
0.0
  0
LINE
  5
B3C
330
922
100
AcDbEntity
  8
cotas
100
AcDbLine
 10
327.1260136525398
 20
-30.0
 30
0.0
 11
327.1260136525398
 21
0.0
 31
0.0
  0
ENDBLK
  5
92B
330
922
100
AcDbEntity
  8
0
100
AcDbBlockEnd
  0
BLOCK
  5
AAD
330
AA8
100
AcDbEntity
  8
0
100
AcDbBlockBegin
  2
_CLOSED
 70
     0
 10
0.0
 20
0.0
 30
0.0
  3
_CLOSED
  1

  0
LINE
  5
AA9
330
AA8
100
AcDbEntity
  8
0
100
AcDbLine
 10
-1.0
 20
0.166667
 30
0.0
 11
0.0
 21
0.0
 31
0.0
  0
LINE
  5
AAA
330
AA8
100
AcDbEntity
  8
0
100
AcDbLine
 10
0.0
 20
0.0
 30
0.0
 11
-1.0
 21
-0.166667
 31
0.0
  0
LINE
  5
AAB
330
AA8
100
AcDbEntity
  8
0
100
AcDbLine
 10
-1.0
 20
0.166667
 30
0.0
 11
-1.0
 21
-0.166667
 31
0.0
  0
LINE
  5
AAC
330
AA8
100
AcDbEntity
  8
0
100
AcDbLine
 10
0.0
 20
0.0
 30
0.0
 11
-1.0
 21
0.0
 31
0.0
  0
ENDBLK
  5
AAE
330
AA8
100
AcDbEntity
  8
0
100
AcDbBlockEnd
  0
ENDSEC
  0
SECTION
  2
ENTITIES
  0
ARC
  5
12E8
330
1F
100
AcDbEntity
  8
Sanindusa
100
AcDbCircle
 10
3539.684486056233
 20
1201.95688100648
 30
0.0
 40
0.008
100
AcDbArc
 50
1.400000073172349
 51
89.99999998822309
  0
LINE
  5
12E9
330
1F
100
AcDbEntity
  8
Sanindusa
100
AcDbLine
 10
3539.684099403736
 20
1201.884881006481
 30
0.0
 11
3539.694370284494
 21
1201.884881006481
 31
0.0
  0
LWPOLYLINE
  5
12EE
330
1F
100
AcDbEntity
  8
Sanindusa
100
AcDbPolyline
 90
        9
 70
   128
 43
0.0
 10
3538.004351766344
 20
1202.377052330314
 10
3538.004142795063
 20
1202.379081101884
 10
3538.003547756581
 20
1202.380976056609
 10
3538.002620296951
 20
1202.382671803976
 10
3538.001422093733
 20
1202.384119672603
 10
3537.999974209642
 20
1202.385317886334
 10
3537.998278454811
 20
1202.386245345242
 10
3537.996383504707
 20
1202.386840377734
 10
3537.994354751443
 20
1202.387049345212
  0
LWPOLYLINE
  5
12F0
330
1F
100
AcDbEntity
  8
Sanindusa
100
AcDbPolyline
 90
        9
 70
   128
 43
0.0
 10
3537.994354751447
 20
1201.686667867389
 10
3537.996383514806
 20
1201.686876836963
 10
3537.998278467457
 20
1201.687471872759
 10
3537.999974218172
 20
1201.688399332065
 10
3538.001422093735
 20
1201.68959754
 10
3538.002620307565
 20
1201.691045424236
 10
3538.003547766467
 20
1201.692741179138
 10
3538.004142798902
 20
1201.694636129198
 10
3538.004351766345
 20
1201.69666488229
  0
LWPOLYLINE
  5
1301
330
1F
100
AcDbEntity
  8
Sanindusa
100
AcDbPolyline
 90
        9
 70
   128
 43
0.0
 10
3537.30397028852
 20
1201.696664882284
 10
3537.304179259793
 20
1201.694636110758
 10
3537.304774298261
 20
1201.692741156046
 10
3537.305701757887
 20
1201.691045408664
 10
3537.306899961128
 20
1201.689597540002
 10
3537.308347852226
 20
1201.688399321503
 10
3537.310043610441
 20
1201.687471862921
 10
3537.31193855845
 20
1201.686876833144
 10
3537.313967303418
 20
1201.686667867389
  0
LINE
  5
1303
330
1F
100
AcDbEntity
  8
Sanindusa
100
AcDbLine
 10
3537.994354751448
 20
1201.68666786739
 30
0.0
 11
3537.313967303419
 21
1201.686667867389
 31
0.0
  0
LINE
  5
1307
330
1F
100
AcDbEntity
  8
Sanindusa
100
AcDbLine
 10
3537.951125688163
 20
1202.309675121383
 30
0.0
 11
3537.949373073522
 21
1201.929430131715
 31
0.0
  0
LINE
  5
1311
330
1F
100
AcDbEntity
  8
Sanindusa
100
AcDbLine
 10
3537.572953516742
 20
1202.248880871512
 30
0.0
 11
3537.866525465395
 21
1201.95530892286
 31
0.0
  0
LINE
  5
1314
330
1F
100
AcDbEntity
  8
Sanindusa
100
AcDbLine
 10
3537.596995147301
 20
1202.246052444388
 30
0.0
 11
3537.863697038269
 21
1201.97935055342
 31
0.0
  0
LINE
  5
1315
330
1F
100
AcDbEntity
  8
Sanindusa
100
AcDbLine
 10
3537.608308855801
 20
1202.248880871512
 30
0.0
 11
3537.866525465395
 21
1201.990664261919
 31
0.0
  0
LINE
  5
1318
330
1F
100
AcDbEntity
  8
Sanindusa
100
AcDbLine
 10
3537.632350486362
 20
1202.246052444388
 30
0.0
 11
3537.863697038269
 21
1202.014705892479
 31
0.0
  0
LINE
  5
1319
330
1F
100
AcDbEntity
  8
Sanindusa
100
AcDbLine
 10
3537.643664194861
 20
1202.248880871512
 30
0.0
 11
3537.866525465395
 21
1202.026019600978
 31
0.0
  0
LINE
  5
131C
330
1F
100
AcDbEntity
  8
Sanindusa
100
AcDbLine
 10
3537.66770582542
 20
1202.246052444388
 30
0.0
 11
3537.863697038269
 21
1202.050061231539
 31
0.0
  0
LINE
  5
131D
330
1F
100
AcDbEntity
  8
Sanindusa
100
AcDbLine
 10
3537.67901953392
 20
1202.248880871512
 30
0.0
 11
3537.866525465395
 21
1202.061374940038
 31
0.0
  0
LINE
  5
132F
330
1F
100
AcDbEntity
  8
Sanindusa
100
AcDbLine
 10
3537.455573791064
 20
1202.246052444388
 30
0.0
 11
3537.805433087329
 21
1201.896193148123
 31
0.0
  0
LINE
  5
1330
330
1F
100
AcDbEntity
  8
Sanindusa
100
AcDbLine
 10
3537.444967189347
 20
1202.235445842669
 30
0.0
 11
3537.794826485612
 21
1201.885586546405
 31
0.0
  0
LINE
  5
1331
330
1F
100
AcDbEntity
  8
Sanindusa
100
AcDbLine
 10
3537.442138762222
 20
1202.22413213417
 30
0.0
 11
3537.788453976475
 21
1201.877816919918
 31
0.0
  0
LINE
  5
1332
330
1F
100
AcDbEntity
  8
Sanindusa
100
AcDbLine
 10
3537.466887499564
 20
1202.248880871512
 30
0.0
 11
3537.813202713817
 21
1201.902565657259
 31
0.0
  0
LINE
  5
1337
330
1F
100
AcDbEntity
  8
Sanindusa
100
AcDbLine
 10
3537.490929130124
 20
1202.246052444388
 30
0.0
 11
3537.828465771593
 21
1201.90851580292
 31
0.0
  0
LINE
  5
1338
330
1F
100
AcDbEntity
  8
Sanindusa
100
AcDbLine
 10
3537.444967189347
 20
1202.20009050361
 30
0.0
 11
3537.782503830815
 21
1201.862553862142
 31
0.0
  0
LINE
  5
1339
330
1F
100
AcDbEntity
  8
Sanindusa
100
AcDbLine
 10
3537.442138762222
 20
1202.188776795111
 30
0.0
 11
3537.777801592415
 21
1201.853113964918
 31
0.0
  0
LINE
  5
133A
330
1F
100
AcDbEntity
  8
Sanindusa
100
AcDbLine
 10
3537.502242838623
 20
1202.248880871512
 30
0.0
 11
3537.837905668817
 21
1201.913218041319
 31
0.0
  0
LINE
  5
133D
330
1F
100
AcDbEntity
  8
Sanindusa
100
AcDbLine
 10
3537.526284469183
 20
1202.246052444388
 30
0.0
 11
3537.860259936449
 21
1201.912076977121
 31
0.0
  0
LINE
  5
133E
330
1F
100
AcDbEntity
  8
Sanindusa
100
AcDbLine
 10
3537.537598177683
 20
1202.248880871512
 30
0.0
 11
3537.866525465395
 21
1201.9199535838
 31
0.0
  0
LINE
  5
1340
330
1F
100
AcDbEntity
  8
Sanindusa
100
AcDbLine
 10
3537.561639808242
 20
1202.246052444388
 30
0.0
 11
3537.863697038269
 21
1201.943995214361
 31
0.0
  0
LINE
  5
1344
330
1F
100
AcDbEntity
  8
Sanindusa
100
AcDbLine
 10
3537.444967189347
 20
1202.094024486432
 30
0.0
 11
3537.711669080314
 21
1201.827322595465
 31
0.0
  0
LINE
  5
1345
330
1F
100
AcDbEntity
  8
Sanindusa
100
AcDbLine
 10
3537.442138762222
 20
1202.082710777933
 30
0.0
 11
3537.700355371816
 21
1201.82449416834
 31
0.0
  0
LINE
  5
1346
330
1F
100
AcDbEntity
  8
Sanindusa
100
AcDbLine
 10
3537.962572236728
 20
1201.752595542806
 30
0.0
 11
3537.962572236728
 21
1202.321121669937
 31
0.0
  0
LINE
  5
1349
330
1F
100
AcDbEntity
  8
Sanindusa
100
AcDbLine
 10
3537.345749818139
 20
1202.321121669797
 30
0.0
 11
3537.345749818139
 21
1201.752595542665
 31
0.0
  0
LINE
  5
134C
330
1F
100
AcDbEntity
  8
Sanindusa
100
AcDbLine
 10
3537.303970288521
 20
1201.696664882287
 30
0.0
 11
3537.303970288521
 21
1202.377052330315
 31
0.0
  0
LINE
  5
134D
330
1F
100
AcDbEntity
  8
Sanindusa
100
AcDbLine
 10
3537.354537838405
 20
1202.312333649672
 30
0.0
 11
3537.357089021084
 21
1201.763934745607
 31
0.0
  0
LINE
  5
1354
330
1F
100
AcDbEntity
  8
Sanindusa
100
AcDbLine
 10
3537.444967189347
 20
1202.16473516455
 30
0.0
 11
3537.778942656613
 21
1201.830759697285
 31
0.0
  0
LINE
  5
1355
330
1F
100
AcDbEntity
  8
Sanindusa
100
AcDbLine
 10
3537.442138762223
 20
1202.153421456052
 30
0.0
 11
3537.771066049935
 21
1201.82449416834
 31
0.0
  0
LINE
  5
135A
330
1F
100
AcDbEntity
  8
Sanindusa
100
AcDbLine
 10
3537.444967189347
 20
1202.129379825491
 30
0.0
 11
3537.747024419373
 21
1201.827322595465
 31
0.0
  0
LINE
  5
135B
330
1F
100
AcDbEntity
  8
Sanindusa
100
AcDbLine
 10
3537.442138762222
 20
1202.118066116992
 30
0.0
 11
3537.735710710875
 21
1201.82449416834
 31
0.0
  0
LINE
  5
135E
330
1F
100
AcDbEntity
  8
Sanindusa
100
AcDbLine
 10
3537.369897963938
 20
1201.728447397007
 30
0.0
 11
3537.938424091069
 21
1201.728447397007
 31
0.0
  0
LINE
  5
1361
330
1F
100
AcDbEntity
  8
Sanindusa
100
AcDbLine
 10
3537.761589502019
 20
1201.741646560213
 30
0.0
 11
3537.381344512347
 21
1201.739893945571
 31
0.0
  0
LINE
  5
1364
330
1F
100
AcDbEntity
  8
Sanindusa
100
AcDbLine
 10
3537.442138762222
 20
1201.905934082636
 30
0.0
 11
3537.523578676518
 21
1201.82449416834
 31
0.0
  0
LINE
  5
1367
330
1F
100
AcDbEntity
  8
Sanindusa
100
AcDbLine
 10
3537.444967189347
 20
1201.917247791135
 30
0.0
 11
3537.534892385017
 21
1201.827322595465
 31
0.0
  0
LINE
  5
136E
330
1F
100
AcDbEntity
  8
Sanindusa
100
AcDbLine
 10
3537.442138762222
 20
1202.012000099814
 30
0.0
 11
3537.629644693697
 21
1201.82449416834
 31
0.0
  0
LINE
  5
1371
330
1F
100
AcDbEntity
  8
Sanindusa
100
AcDbLine
 10
3537.444967189347
 20
1201.987958469254
 30
0.0
 11
3537.605603063136
 21
1201.827322595465
 31
0.0
  0
LINE
  5
1372
330
1F
100
AcDbEntity
  8
Sanindusa
100
AcDbLine
 10
3537.442138762222
 20
1201.976644760755
 30
0.0
 11
3537.594289354637
 21
1201.82449416834
 31
0.0
  0
LINE
  5
1375
330
1F
100
AcDbEntity
  8
Sanindusa
100
AcDbLine
 10
3537.444967189347
 20
1201.952603130194
 30
0.0
 11
3537.570247724076
 21
1201.827322595465
 31
0.0
  0
LINE
  5
1376
330
1F
100
AcDbEntity
  8
Sanindusa
100
AcDbLine
 10
3537.442138762222
 20
1201.941289421696
 30
0.0
 11
3537.558934015578
 21
1201.82449416834
 31
0.0
  0
LINE
  5
137D
330
1F
100
AcDbEntity
  8
Sanindusa
100
AcDbLine
 10
3537.444967189347
 20
1202.058669147372
 30
0.0
 11
3537.676313741255
 21
1201.827322595465
 31
0.0
  0
LINE
  5
137E
330
1F
100
AcDbEntity
  8
Sanindusa
100
AcDbLine
 10
3537.442138762222
 20
1202.047355438873
 30
0.0
 11
3537.665000032756
 21
1201.82449416834
 31
0.0
  0
LINE
  5
1380
330
1F
100
AcDbEntity
  8
Sanindusa
100
AcDbLine
 10
3537.444967189347
 20
1202.023313808313
 30
0.0
 11
3537.640958402195
 21
1201.827322595465
 31
0.0
  0
LWPOLYLINE
  5
1381
330
1F
100
AcDbEntity
  8
Sanindusa
100
AcDbPolyline
 90
        4
 70
   128
 43
0.0
 10
3537.444967189347
 20
1202.058669147373
 10
3537.444584723748
 20
1202.058968262775
 10
3537.444201070015
 20
1202.059147015698
 10
3537.443552975785
 20
1202.05925493381
  0
LWPOLYLINE
  5
1386
330
1F
100
AcDbEntity
  8
Sanindusa
100
AcDbPolyline
 90
        4
 70
   128
 43
0.0
 10
3537.441552975785
 20
1202.048769652437
 10
3537.441660893896
 20
1202.048121558211
 10
3537.441839646819
 20
1202.047737904475
 10
3537.442138762223
 20
1202.047355438873
  0
LINE
  5
138D
330
1F
100
AcDbEntity
  8
Sanindusa
100
AcDbLine
 10
3537.441552975785
 20
1202.05725493381
 30
0.0
 11
3537.441552975785
 21
1202.048769652436
 31
0.0
  0
LWPOLYLINE
  5
1394
330
1F
100
AcDbEntity
  8
Sanindusa
100
AcDbPolyline
 90
        5
 70
   128
 43
0.0
 10
3537.443552975785
 20
1202.05925493381
 10
3537.442787636132
 20
1202.059102704147
 10
3537.442138789992
 20
1202.058669175142
 10
3537.441705227992
 20
1202.058020327887
 10
3537.441552975785
 20
1202.057254933809
  0
LWPOLYLINE
  5
1397
330
1F
100
AcDbEntity
  8
Sanindusa
100
AcDbPolyline
 90
        5
 70
   128
 43
0.0
 10
3537.443552975785
 20
1202.023899594751
 10
3537.442787636132
 20
1202.023747365087
 10
3537.442138789991
 20
1202.023313836082
 10
3537.441705227991
 20
1202.022664988827
 10
3537.441552975785
 20
1202.02189959475
  0
LWPOLYLINE
  5
1398
330
1F
100
AcDbEntity
  8
Sanindusa
100
AcDbPolyline
 90
        4
 70
   128
 43
0.0
 10
3537.444967189347
 20
1202.023313808314
 10
3537.444584723754
 20
1202.023612923712
 10
3537.444201070023
 20
1202.023791676636
 10
3537.443552975785
 20
1202.023899594751
  0
LWPOLYLINE
  5
13A1
330
1F
100
AcDbEntity
  8
Sanindusa
100
AcDbPolyline
 90
        4
 70
   128
 43
0.0
 10
3537.441552975785
 20
1202.013414313377
 10
3537.441660889845
 20
1202.012766230979
 10
3537.441839641981
 20
1202.012382573449
 10
3537.442138762223
 20
1202.012000099815
  0
LWPOLYLINE
  5
13A6
330
1F
100
AcDbEntity
  8
Sanindusa
100
AcDbPolyline
 90
        5
 70
   128
 43
0.0
 10
3537.443552975785
 20
1201.988544255691
 10
3537.44278760892
 20
1201.988392014756
 10
3537.442138762223
 20
1201.987958469254
 10
3537.44170521672
 20
1201.987309622556
 10
3537.441552975785
 20
1201.98654425569
  0
LWPOLYLINE
  5
13A7
330
1F
100
AcDbEntity
  8
Sanindusa
100
AcDbPolyline
 90
        4
 70
   128
 43
0.0
 10
3537.444967189347
 20
1201.987958469254
 10
3537.444584715712
 20
1201.988257589495
 10
3537.444201058182
 20
1201.988436341632
 10
3537.443552975785
 20
1201.988544255691
  0
LWPOLYLINE
  5
13B2
330
1F
100
AcDbEntity
  8
Sanindusa
100
AcDbPolyline
 90
        4
 70
   128
 43
0.0
 10
3537.441552975785
 20
1201.978058974317
 10
3537.441660889844
 20
1201.977410891919
 10
3537.441839641981
 20
1201.977027234389
 10
3537.442138762223
 20
1201.976644760754
  0
LINE
  5
13BC
330
1F
100
AcDbEntity
  8
Sanindusa
100
AcDbLine
 10
3537.441552975785
 20
1201.986544255692
 30
0.0
 11
3537.441552975785
 21
1201.978058974317
 31
0.0
  0
LINE
  5
13BF
330
1F
100
AcDbEntity
  8
Sanindusa
100
AcDbLine
 10
3537.441552975785
 20
1202.021899594751
 30
0.0
 11
3537.441552975785
 21
1202.013414313377
 31
0.0
  0
LWPOLYLINE
  5
13C3
330
1F
100
AcDbEntity
  8
Sanindusa
100
AcDbPolyline
 90
        4
 70
   128
 43
0.0
 10
3537.441552975785
 20
1201.942703635259
 10
3537.441660893896
 20
1201.942055541033
 10
3537.441839646819
 20
1201.941671887298
 10
3537.442138762223
 20
1201.941289421696
  0
LWPOLYLINE
  5
13C8
330
1F
100
AcDbEntity
  8
Sanindusa
100
AcDbPolyline
 90
        5
 70
   128
 43
0.0
 10
3537.443552975785
 20
1201.953188916632
 10
3537.442787636132
 20
1201.953036686969
 10
3537.442138789992
 20
1201.952603157964
 10
3537.441705227992
 20
1201.951954310709
 10
3537.441552975785
 20
1201.951188916631
  0
LWPOLYLINE
  5
13C9
330
1F
100
AcDbEntity
  8
Sanindusa
100
AcDbPolyline
 90
        4
 70
   128
 43
0.0
 10
3537.444967189347
 20
1201.952603130195
 10
3537.444584723754
 20
1201.952902245593
 10
3537.444201070023
 20
1201.953080998517
 10
3537.443552975785
 20
1201.953188916632
  0
LINE
  5
13CE
330
1F
100
AcDbEntity
  8
Sanindusa
100
AcDbLine
 10
3537.441552975785
 20
1201.951188916632
 30
0.0
 11
3537.441552975785
 21
1201.942703635258
 31
0.0
  0
LWPOLYLINE
  5
13D8
330
1F
100
AcDbEntity
  8
Sanindusa
100
AcDbPolyline
 90
        4
 70
   128
 43
0.0
 10
3537.441552975785
 20
1201.907348296199
 10
3537.441660889844
 20
1201.906700213801
 10
3537.441839641981
 20
1201.906316556271
 10
3537.442138762223
 20
1201.905934082637
  0
LWPOLYLINE
  5
13DD
330
1F
100
AcDbEntity
  8
Sanindusa
100
AcDbPolyline
 90
        5
 70
   128
 43
0.0
 10
3537.443552975785
 20
1201.917833577573
 10
3537.44278760892
 20
1201.917681336638
 10
3537.442138762223
 20
1201.917247791135
 10
3537.44170521672
 20
1201.916598944438
 10
3537.441552975785
 20
1201.915833577573
  0
LWPOLYLINE
  5
13DE
330
1F
100
AcDbEntity
  8
Sanindusa
100
AcDbPolyline
 90
        4
 70
   128
 43
0.0
 10
3537.444967189347
 20
1201.917247791136
 10
3537.444584715717
 20
1201.917546911374
 10
3537.444201058189
 20
1201.917725663511
 10
3537.443552975785
 20
1201.917833577573
  0
LINE
  5
13E3
330
1F
100
AcDbEntity
  8
Sanindusa
100
AcDbLine
 10
3537.441552975785
 20
1201.915833577573
 30
0.0
 11
3537.441552975785
 21
1201.907348296199
 31
0.0
  0
LWPOLYLINE
  5
13ED
330
1F
100
AcDbEntity
  8
Sanindusa
100
AcDbPolyline
 90
        4
 70
   128
 43
0.0
 10
3537.441552975785
 20
1201.871992957139
 10
3537.441660889844
 20
1201.871344874741
 10
3537.441839641981
 20
1201.870961217211
 10
3537.442138762223
 20
1201.870578743577
  0
LWPOLYLINE
  5
13F2
330
1F
100
AcDbEntity
  8
Sanindusa
100
AcDbPolyline
 90
        5
 70
   128
 43
0.0
 10
3537.443552975785
 20
1201.882478238513
 10
3537.442787636132
 20
1201.88232600885
 10
3537.442138789992
 20
1201.881892479845
 10
3537.441705227992
 20
1201.88124363259
 10
3537.441552975785
 20
1201.880478238512
  0
LWPOLYLINE
  5
13F3
330
1F
100
AcDbEntity
  8
Sanindusa
100
AcDbPolyline
 90
        4
 70
   128
 43
0.0
 10
3537.444967189347
 20
1201.881892452076
 10
3537.444584723743
 20
1201.882191567481
 10
3537.444201070008
 20
1201.882370320403
 10
3537.443552975785
 20
1201.882478238513
  0
LINE
  5
13F8
330
1F
100
AcDbEntity
  8
Sanindusa
100
AcDbLine
 10
3537.441552975785
 20
1201.880478238513
 30
0.0
 11
3537.441552975785
 21
1201.871992957139
 31
0.0
  0
LWPOLYLINE
  5
1400
330
1F
100
AcDbEntity
  8
Sanindusa
100
AcDbPolyline
 90
        5
 70
   128
 43
0.0
 10
3537.443552975785
 20
1201.847122899454
 10
3537.442787636132
 20
1201.84697066979
 10
3537.442138789991
 20
1201.846537140785
 10
3537.441705227991
 20
1201.84588829353
 10
3537.441552975785
 20
1201.845122899453
  0
LWPOLYLINE
  5
1401
330
1F
100
AcDbEntity
  8
Sanindusa
100
AcDbPolyline
 90
        4
 70
   128
 43
0.0
 10
3537.444967189347
 20
1201.846537113017
 10
3537.444584715711
 20
1201.846836233258
 10
3537.444201058182
 20
1201.847014985395
 10
3537.443552975785
 20
1201.847122899454
  0
LWPOLYLINE
  5
140A
330
1F
100
AcDbEntity
  8
Sanindusa
100
AcDbPolyline
 90
        4
 70
   128
 43
0.0
 10
3537.488223337458
 20
1201.82449416834
 10
3537.488605803061
 20
1201.824195052937
 10
3537.488989456796
 20
1201.824016300014
 10
3537.489637551021
 20
1201.823908381903
  0
LINE
  5
1416
330
1F
100
AcDbEntity
  8
Sanindusa
100
AcDbLine
 10
3537.489637551021
 20
1201.823908381903
 30
0.0
 11
3537.498122832396
 21
1201.823908381904
 31
0.0
  0
LWPOLYLINE
  5
1417
330
1F
100
AcDbEntity
  8
Sanindusa
100
AcDbPolyline
 90
        7
 70
   128
 43
0.0
 10
3537.499537045959
 20
1201.824494168341
 10
3537.499962255405
 20
1201.82512319212
 10
3537.500081192724
 20
1201.825502395664
 10
3537.500122832395
 20
1201.825908381903
 10
3537.500014918334
 20
1201.826556464307
 10
3537.499836166197
 20
1201.826940121835
 10
3537.499537045957
 20
1201.827322595466
  0
LWPOLYLINE
  5
1419
330
1F
100
AcDbEntity
  8
Sanindusa
100
AcDbPolyline
 90
        4
 70
   128
 43
0.0
 10
3537.498122832396
 20
1201.823908381903
 10
3537.498528825034
 20
1201.823950022902
 10
3537.498908030193
 20
1201.824068962315
 10
3537.499537045959
 20
1201.824494168341
  0
LINE
  5
141F
330
1F
100
AcDbEntity
  8
Sanindusa
100
AcDbLine
 10
3537.454282211962
 20
1201.823908381903
 30
0.0
 11
3537.462767493336
 21
1201.823908381903
 31
0.0
  0
LWPOLYLINE
  5
1424
330
1F
100
AcDbEntity
  8
Sanindusa
100
AcDbPolyline
 90
        4
 70
   128
 43
0.0
 10
3537.4528679984
 20
1201.82449416834
 10
3537.453250472033
 20
1201.8241950481
 10
3537.453634129563
 20
1201.824016295963
 10
3537.454282211962
 20
1201.823908381903
  0
LWPOLYLINE
  5
142D
330
1F
100
AcDbEntity
  8
Sanindusa
100
AcDbPolyline
 90
        7
 70
   128
 43
0.0
 10
3537.464181706898
 20
1201.824494168341
 10
3537.464606919493
 20
1201.825123199496
 10
3537.464725854885
 20
1201.825502401554
 10
3537.464767493336
 20
1201.825908381903
 10
3537.464659575225
 20
1201.826556476127
 10
3537.464480822302
 20
1201.826940129863
 10
3537.464181706898
 20
1201.827322595466
  0
LWPOLYLINE
  5
142F
330
1F
100
AcDbEntity
  8
Sanindusa
100
AcDbPolyline
 90
        4
 70
   128
 43
0.0
 10
3537.462767493335
 20
1201.823908381903
 10
3537.463173485969
 20
1201.823950022901
 10
3537.463552691127
 20
1201.824068962313
 10
3537.464181706898
 20
1201.824494168341
  0
LWPOLYLINE
  5
1434
330
1F
100
AcDbEntity
  8
Sanindusa
100
AcDbPolyline
 90
        4
 70
   128
 43
0.0
 10
3537.441552975785
 20
1201.83663761808
 10
3537.441660889842
 20
1201.83598953569
 10
3537.441839641978
 20
1201.835605878157
 10
3537.442138762223
 20
1201.835223404517
  0
LINE
  5
143E
330
1F
100
AcDbEntity
  8
Sanindusa
100
AcDbLine
 10
3537.442138762222
 20
1201.835223404517
 30
0.0
 11
3537.4528679984
 21
1201.82449416834
 31
0.0
  0
LWPOLYLINE
  5
1446
330
1F
100
AcDbEntity
  8
Sanindusa
100
AcDbPolyline
 90
       10
 70
   128
 43
0.0
 10
3537.345749818137
 20
1201.752595542658
 10
3537.346135487591
 20
1201.74761862695
 10
3537.347405600886
 20
1201.743083778358
 10
3537.34958120592
 20
1201.738846494202
 10
3537.352522633393
 20
1201.735220212265
 10
3537.3561488675
 20
1201.732278815973
 10
3537.358198794845
 20
1201.731087953884
 10
3537.360386199485
 20
1201.730103179756
 10
3537.364921016411
 20
1201.728833071414
 10
3537.369897963785
 20
1201.728447397006
  0
LWPOLYLINE
  5
144A
330
1F
100
AcDbEntity
  8
Sanindusa
100
AcDbPolyline
 90
        9
 70
   128
 43
0.0
 10
3537.381344512359
 20
1201.73989394557
 10
3537.376679481748
 20
1201.74047982545
 10
3537.372206221053
 20
1201.741923201316
 10
3537.368050258703
 20
1201.744194983153
 10
3537.364453051605
 20
1201.747150630474
 10
3537.361456346394
 20
1201.75073602587
 10
3537.359167919864
 20
1201.754846097338
 10
3537.357716176674
 20
1201.759215639477
 10
3537.357089021083
 20
1201.763934745609
  0
LINE
  5
1450
330
1F
100
AcDbEntity
  8
Sanindusa
100
AcDbLine
 10
3537.441552975785
 20
1201.845122899454
 30
0.0
 11
3537.441552975785
 21
1201.83663761808
 31
0.0
  0
LINE
  5
1453
330
1F
100
AcDbEntity
  8
Sanindusa
100
AcDbLine
 10
3537.444967189347
 20
1201.846537113016
 30
0.0
 11
3537.464181706899
 21
1201.827322595465
 31
0.0
  0
LINE
  5
1459
330
1F
100
AcDbEntity
  8
Sanindusa
100
AcDbLine
 10
3537.444967189347
 20
1201.881892452076
 30
0.0
 11
3537.499537045958
 21
1201.827322595465
 31
0.0
  0
LINE
  5
145A
330
1F
100
AcDbEntity
  8
Sanindusa
100
AcDbLine
 10
3537.442138762222
 20
1201.870578743577
 30
0.0
 11
3537.488223337459
 21
1201.82449416834
 31
0.0
  0
LWPOLYLINE
  5
145F
330
1F
100
AcDbEntity
  8
Sanindusa
100
AcDbPolyline
 90
        4
 70
   128
 43
0.0
 10
3537.867111251831
 20
1202.059960726476
 10
3537.86700333372
 20
1202.060608820701
 10
3537.866824580797
 20
1202.060992474435
 10
3537.866525465393
 20
1202.061374940037
  0
LWPOLYLINE
  5
1464
330
1F
100
AcDbEntity
  8
Sanindusa
100
AcDbPolyline
 90
        7
 70
   128
 43
0.0
 10
3537.863697038268
 20
1202.050061231539
 10
3537.864079520876
 20
1202.049762105894
 10
3537.864463182646
 20
1202.049583354635
 10
3537.86511125183
 20
1202.049475445101
 10
3537.865517244656
 20
1202.049517086139
 10
3537.865896449863
 20
1202.049636025614
 10
3537.866525465393
 20
1202.050061231539
  0
LWPOLYLINE
  5
146B
330
1F
100
AcDbEntity
  8
Sanindusa
100
AcDbPolyline
 90
        4
 70
   128
 43
0.0
 10
3537.866525465393
 20
1202.050061231539
 10
3537.866950671419
 20
1202.050690247306
 10
3537.867069610832
 20
1202.051069452464
 10
3537.867111251831
 20
1202.051475445101
  0
LINE
  5
1470
330
1F
100
AcDbEntity
  8
Sanindusa
100
AcDbLine
 10
3537.867111251831
 20
1202.059960726475
 30
0.0
 11
3537.867111251831
 21
1202.0514754451
 31
0.0
  0
LWPOLYLINE
  5
1473
330
1F
100
AcDbEntity
  8
Sanindusa
100
AcDbPolyline
 90
        4
 70
   128
 43
0.0
 10
3537.867111251831
 20
1202.024605387417
 10
3537.867003333719
 20
1202.025253481644
 10
3537.866824580796
 20
1202.025637135379
 10
3537.866525465393
 20
1202.026019600978
  0
LWPOLYLINE
  5
1478
330
1F
100
AcDbEntity
  8
Sanindusa
100
AcDbPolyline
 90
        7
 70
   128
 43
0.0
 10
3537.863697038268
 20
1202.01470589248
 10
3537.864079520874
 20
1202.014406766837
 10
3537.864463182642
 20
1202.014228015578
 10
3537.86511125183
 20
1202.014120106042
 10
3537.865517244655
 20
1202.01416174708
 10
3537.865896449861
 20
1202.014280686554
 10
3537.866525465393
 20
1202.01470589248
  0
LWPOLYLINE
  5
1486
330
1F
100
AcDbEntity
  8
Sanindusa
100
AcDbPolyline
 90
        4
 70
   128
 43
0.0
 10
3537.866525465393
 20
1202.01470589248
 10
3537.866950675817
 20
1202.01533491855
 10
3537.867069612538
 20
1202.015714121632
 10
3537.867111251831
 20
1202.016120106042
  0
LWPOLYLINE
  5
1487
330
1F
100
AcDbEntity
  8
Sanindusa
100
AcDbPolyline
 90
        4
 70
   128
 43
0.0
 10
3537.867111251831
 20
1201.989250048357
 10
3537.86700333372
 20
1201.989898142582
 10
3537.866824580797
 20
1201.990281796318
 10
3537.866525465393
 20
1201.990664261919
  0
LINE
  5
1489
330
1F
100
AcDbEntity
  8
Sanindusa
100
AcDbLine
 10
3537.867111251831
 20
1201.989250048357
 30
0.0
 11
3537.867111251831
 21
1201.980764766982
 31
0.0
  0
LWPOLYLINE
  5
1490
330
1F
100
AcDbEntity
  8
Sanindusa
100
AcDbPolyline
 90
        7
 70
   128
 43
0.0
 10
3537.863697038268
 20
1201.97935055342
 10
3537.864079520877
 20
1201.979051427775
 10
3537.864463182647
 20
1201.978872676516
 10
3537.86511125183
 20
1201.978764766982
 10
3537.865517244656
 20
1201.97880640802
 10
3537.865896449863
 20
1201.978925347495
 10
3537.866525465393
 20
1201.97935055342
  0
LWPOLYLINE
  5
1496
330
1F
100
AcDbEntity
  8
Sanindusa
100
AcDbPolyline
 90
        4
 70
   128
 43
0.0
 10
3537.866525465393
 20
1201.97935055342
 10
3537.866950675817
 20
1201.97997957949
 10
3537.867069612538
 20
1201.980358782572
 10
3537.867111251831
 20
1201.980764766982
  0
LINE
  5
149A
330
1F
100
AcDbEntity
  8
Sanindusa
100
AcDbLine
 10
3537.867111251831
 20
1202.024605387416
 30
0.0
 11
3537.867111251831
 21
1202.016120106041
 31
0.0
  0
LINE
  5
149D
330
1F
100
AcDbEntity
  8
Sanindusa
100
AcDbLine
 10
3537.949373073518
 20
1201.929430131826
 30
0.0
 11
3537.949373073517
 21
1201.909597101464
 31
0.0
  0
LWPOLYLINE
  5
14A4
330
1F
100
AcDbEntity
  8
Sanindusa
100
AcDbPolyline
 90
        7
 70
   128
 43
0.0
 10
3537.863697038268
 20
1201.943995214361
 10
3537.864079520879
 20
1201.943696088715
 10
3537.86446318265
 20
1201.943517337456
 10
3537.86511125183
 20
1201.943409427923
 10
3537.865517244655
 20
1201.943451068961
 10
3537.865896449861
 20
1201.943570008435
 10
3537.866525465393
 20
1201.943995214361
  0
LWPOLYLINE
  5
14AF
330
1F
100
AcDbEntity
  8
Sanindusa
100
AcDbPolyline
 90
        4
 70
   128
 43
0.0
 10
3537.867111251831
 20
1201.953894709298
 10
3537.867003333723
 20
1201.954542803514
 10
3537.8668245808
 20
1201.954926457252
 10
3537.866525465393
 20
1201.955308922859
  0
LINE
  5
14B1
330
1F
100
AcDbEntity
  8
Sanindusa
100
AcDbLine
 10
3537.867111251831
 20
1201.953894709297
 30
0.0
 11
3537.867111251831
 21
1201.945409427922
 31
0.0
  0
LWPOLYLINE
  5
14B4
330
1F
100
AcDbEntity
  8
Sanindusa
100
AcDbPolyline
 90
        4
 70
   128
 43
0.0
 10
3537.866525465393
 20
1201.943995214361
 10
3537.866950675818
 20
1201.944624240433
 10
3537.867069612538
 20
1201.945003443515
 10
3537.867111251831
 20
1201.945409427923
  0
LWPOLYLINE
  5
14BA
330
1F
100
AcDbEntity
  8
Sanindusa
100
AcDbPolyline
 90
        5
 70
   128
 43
0.0
 10
3537.865111251831
 20
1201.911076009731
 10
3537.865876610034
 20
1201.911228247079
 10
3537.866525456554
 20
1201.91166178733
 10
3537.866959007308
 20
1201.912310634205
 10
3537.867111251831
 20
1201.913076009732
  0
LWPOLYLINE
  5
14C2
330
1F
100
AcDbEntity
  8
Sanindusa
100
AcDbPolyline
 90
        3
 70
   128
 43
0.0
 10
3537.86025993645
 20
1201.91207697712
 10
3537.86081944326
 20
1201.911683021341
 10
3537.861479003971
 20
1201.911500733946
  0
LINE
  5
14C4
330
1F
100
AcDbEntity
  8
Sanindusa
100
AcDbLine
 10
3537.864826830383
 20
1201.91109633692
 30
0.0
 11
3537.861479003979
 21
1201.911500733946
 31
0.0
  0
LINE
  5
14C5
330
1F
100
AcDbEntity
  8
Sanindusa
100
AcDbLine
 10
3537.864826830383
 20
1201.91109633692
 30
0.0
 11
3537.865111251831
 21
1201.911076009731
 31
0.0
  0
LWPOLYLINE
  5
14CE
330
1F
100
AcDbEntity
  8
Sanindusa
100
AcDbPolyline
 90
        4
 70
   128
 43
0.0
 10
3537.867111251831
 20
1201.918539370238
 10
3537.867003333724
 20
1201.919187464451
 10
3537.866824580802
 20
1201.91957111819
 10
3537.866525465393
 20
1201.9199535838
  0
LINE
  5
14D1
330
1F
100
AcDbEntity
  8
Sanindusa
100
AcDbLine
 10
3537.867111251831
 20
1201.918539370238
 30
0.0
 11
3537.867111251831
 21
1201.913076009731
 31
0.0
  0
LINE
  5
14D6
330
1F
100
AcDbEntity
  8
Sanindusa
100
AcDbLine
 10
3537.836950405159
 20
1201.909857198623
 30
0.0
 11
3537.830510661577
 21
1201.908032057776
 31
0.0
  0
LINE
  5
14D9
330
1F
100
AcDbEntity
  8
Sanindusa
100
AcDbLine
 10
3537.829879985153
 20
1201.907930016482
 30
0.0
 11
3537.830510661577
 21
1201.908032057776
 31
0.0
  0
LWPOLYLINE
  5
14E0
330
1F
100
AcDbEntity
  8
Sanindusa
100
AcDbPolyline
 90
        9
 70
   128
 43
0.0
 10
3537.836950405181
 20
1201.909857198627
 10
3537.83744669439
 20
1201.91004669424
 10
3537.837874796406
 20
1201.910359401484
 10
3537.838205133423
 20
1201.910772659907
 10
3537.838415253908
 20
1201.911257019987
 10
3537.838486195985
 20
1201.911658881512
 10
3537.838461721524
 20
1201.912147413008
 10
3537.838284777328
 20
1201.912689263207
 10
3537.837905668817
 20
1201.913218041318
  0
LWPOLYLINE
  5
14E5
330
1F
100
AcDbEntity
  8
Sanindusa
100
AcDbPolyline
 90
        4
 70
   128
 43
0.0
 10
3537.828465771592
 20
1201.90851580292
 10
3537.828848245226
 20
1201.908216682679
 10
3537.829231902755
 20
1201.908037930542
 10
3537.829879985153
 20
1201.907930016482
  0
LWPOLYLINE
  5
14EA
330
1F
100
AcDbEntity
  8
Sanindusa
100
AcDbPolyline
 90
        9
 70
   128
 43
0.0
 10
3537.87750208569
 20
1201.870565359868
 10
3537.871318175059
 20
1201.874274512373
 10
3537.864578754624
 20
1201.876838765913
 10
3537.857493813908
 20
1201.878178222464
 10
3537.850284108293
 20
1201.878251146709
 10
3537.843174280638
 20
1201.877055266446
 10
3537.836385861759
 20
1201.874627843385
 10
3537.830130367895
 20
1201.871044512132
 10
3537.824602710195
 20
1201.866416923539
  0
LWPOLYLINE
  5
14ED
330
1F
100
AcDbEntity
  8
Sanindusa
100
AcDbPolyline
 90
        3
 70
   128
 43
0.0
 10
3537.887867780999
 20
1201.860199664558
 10
3537.883094427606
 20
1201.865792006475
 10
3537.87750208569
 20
1201.870565359868
  0
LWPOLYLINE
  5
14F3
330
1F
100
AcDbEntity
  8
Sanindusa
100
AcDbPolyline
 90
        3
 70
   128
 43
0.0
 10
3537.806847300891
 20
1201.895607361685
 10
3537.80751411222
 20
1201.895721794754
 10
3537.808076228853
 20
1201.896029471935
  0
LWPOLYLINE
  5
14F6
330
1F
100
AcDbEntity
  8
Sanindusa
100
AcDbPolyline
 90
        4
 70
   128
 43
0.0
 10
3537.805433087328
 20
1201.896193148123
 10
3537.805815552936
 20
1201.895894032716
 10
3537.806199206674
 20
1201.895715279793
 10
3537.806847300891
 20
1201.895607361685
  0
LINE
  5
14F9
330
1F
100
AcDbEntity
  8
Sanindusa
100
AcDbLine
 10
3537.812889085375
 20
1201.899481499868
 30
0.0
 11
3537.808076228853
 21
1201.896029471934
 31
0.0
  0
LWPOLYLINE
  5
14FF
330
1F
100
AcDbEntity
  8
Sanindusa
100
AcDbPolyline
 90
        8
 70
   128
 43
0.0
 10
3537.812889085375
 20
1201.899481499868
 10
3537.813220834259
 20
1201.89975558579
 10
3537.813490561481
 20
1201.900101211544
 10
3537.813681147038
 20
1201.900505001008
 10
3537.813778238882
 20
1201.90094910687
 10
3537.813714905966
 20
1201.901688994652
 10
3537.813532735011
 20
1201.902130037132
 10
3537.813202713817
 20
1201.902565657259
  0
LWPOLYLINE
  5
150C
330
1F
100
AcDbEntity
  8
Sanindusa
100
AcDbPolyline
 90
        6
 70
   128
 43
0.0
 10
3537.794990161799
 20
1201.882943404882
 10
3537.795272016752
 20
1201.883436568182
 10
3537.795410627598
 20
1201.884091245862
 10
3537.795293187678
 20
1201.8848521537
 10
3537.795107090418
 20
1201.885234213578
 10
3537.794826485612
 20
1201.885586546405
  0
LWPOLYLINE
  5
150F
330
1F
100
AcDbEntity
  8
Sanindusa
100
AcDbPolyline
 90
        5
 70
   128
 43
0.0
 10
3537.789868190037
 20
1201.87723113348
 10
3537.790375238859
 20
1201.877296475502
 10
3537.790838329522
 20
1201.877482182543
 10
3537.791231998445
 20
1201.877768250496
 10
3537.791538133865
 20
1201.878130548358
  0
LWPOLYLINE
  5
1510
330
1F
100
AcDbEntity
  8
Sanindusa
100
AcDbPolyline
 90
        4
 70
   128
 43
0.0
 10
3537.788453976475
 20
1201.877816919918
 10
3537.788836442086
 20
1201.877517804509
 10
3537.789220095824
 20
1201.877339051586
 10
3537.789868190036
 20
1201.87723113348
  0
LINE
  5
1511
330
1F
100
AcDbEntity
  8
Sanindusa
100
AcDbLine
 10
3537.794990161808
 20
1201.882943404893
 30
0.0
 11
3537.791538133865
 21
1201.878130548358
 31
0.0
  0
LINE
  5
1516
330
1F
100
AcDbEntity
  8
Sanindusa
100
AcDbLine
 10
3537.782987575947
 20
1201.860508972123
 30
0.0
 11
3537.781162435106
 21
1201.854069228554
 31
0.0
  0
LWPOLYLINE
  5
1519
330
1F
100
AcDbEntity
  8
Sanindusa
100
AcDbPolyline
 90
        4
 70
   128
 43
0.0
 10
3537.777801592416
 20
1201.853113964918
 10
3537.778184066049
 20
1201.852814844677
 10
3537.77856772358
 20
1201.85263609254
 10
3537.779215805978
 20
1201.85252817848
  0
LWPOLYLINE
  5
151D
330
1F
100
AcDbEntity
  8
Sanindusa
100
AcDbPolyline
 90
        5
 70
   128
 43
0.0
 10
3537.779215805978
 20
1201.85252817848
 10
3537.779885666938
 20
1201.852643692796
 10
3537.780471190157
 20
1201.852971255052
 10
3537.780910702978
 20
1201.853466423255
 10
3537.781162435107
 20
1201.854069228554
  0
LWPOLYLINE
  5
1523
330
1F
100
AcDbEntity
  8
Sanindusa
100
AcDbPolyline
 90
        5
 70
   128
 43
0.0
 10
3537.782987575957
 20
1201.860508972157
 10
3537.783078072348
 20
1201.860925064494
 10
3537.783067760797
 20
1201.861434518232
 10
3537.782894315995
 20
1201.862001659281
 10
3537.782503830815
 20
1201.862553862142
  0
LWPOLYLINE
  5
152A
330
1F
100
AcDbEntity
  8
Sanindusa
100
AcDbPolyline
 90
        9
 70
   128
 43
0.0
 10
3537.830819969176
 20
1201.803151852734
 10
3537.837003879806
 20
1201.79944270023
 10
3537.843743300242
 20
1201.796878446689
 10
3537.850828240958
 20
1201.795538990139
 10
3537.858037946572
 20
1201.795466065894
 10
3537.865147774227
 20
1201.796661946156
 10
3537.871936193107
 20
1201.799089369217
 10
3537.878191686971
 20
1201.80267270047
 10
3537.883719344671
 20
1201.807300289063
  0
LWPOLYLINE
  5
1530
330
1F
100
AcDbEntity
  8
Sanindusa
100
AcDbPolyline
 90
        9
 70
   128
 43
0.0
 10
3537.950045177049
 20
1201.765122602342
 10
3537.949457360741
 20
1201.760459508161
 10
3537.948008043287
 20
1201.755992189053
 10
3537.945732443434
 20
1201.751854894792
 10
3537.942757686462
 20
1201.748261947273
 10
3537.939164779533
 20
1201.745287217927
 10
3537.935027444681
 20
1201.743011590448
 10
3537.930560125573
 20
1201.741562272994
 10
3537.925897031392
 20
1201.740974456684
  0
LWPOLYLINE
  5
1533
330
1F
100
AcDbEntity
  8
Sanindusa
100
AcDbPolyline
 90
       10
 70
   128
 43
0.0
 10
3537.938424091055
 20
1201.728447397012
 10
3537.943401006771
 20
1201.728833066461
 10
3537.947935855382
 20
1201.730103179762
 10
3537.952173139596
 20
1201.732278784835
 10
3537.955799421475
 20
1201.735220212269
 10
3537.958740817765
 20
1201.738846446376
 10
3537.959931679853
 20
1201.740896373724
 10
3537.960916453978
 20
1201.743083778366
 10
3537.96218656511
 20
1201.747618609097
 10
3537.962572236722
 20
1201.752595542669
  0
LWPOLYLINE
  5
1539
330
1F
100
AcDbEntity
  8
Sanindusa
100
AcDbPolyline
 90
        9
 70
   128
 43
0.0
 10
3537.777943624003
 20
1201.823908381903
 10
3537.778360856844
 20
1201.823952386823
 10
3537.778761829335
 20
1201.824083405182
 10
3537.779128257499
 20
1201.824296971502
 10
3537.779442936333
 20
1201.824584726912
 10
3537.779690582997
 20
1201.824934660038
 10
3537.779858629587
 20
1201.825331533908
 10
3537.779937923716
 20
1201.825757489034
 10
3537.779923296819
 20
1201.826192803316
  0
LWPOLYLINE
  5
1542
330
1F
100
AcDbEntity
  8
Sanindusa
100
AcDbPolyline
 90
        3
 70
   128
 43
0.0
 10
3537.779518899788
 20
1201.829540629762
 10
3537.779336612393
 20
1201.830200190474
 10
3537.778942656613
 20
1201.830759697285
  0
LINE
  5
1544
330
1F
100
AcDbEntity
  8
Sanindusa
100
AcDbLine
 10
3537.779518899789
 20
1201.829540629755
 30
0.0
 11
3537.779923296819
 21
1201.826192803316
 31
0.0
  0
LWPOLYLINE
  5
154D
330
1F
100
AcDbEntity
  8
Sanindusa
100
AcDbPolyline
 90
        4
 70
   128
 43
0.0
 10
3537.771066049933
 20
1201.82449416834
 10
3537.771448523576
 20
1201.824195048095
 10
3537.771832181109
 20
1201.824016295959
 10
3537.772480263496
 20
1201.823908381903
  0
LINE
  5
1551
330
1F
100
AcDbEntity
  8
Sanindusa
100
AcDbLine
 10
3537.772480263495
 20
1201.823908381903
 30
0.0
 11
3537.777943624003
 21
1201.823908381904
 31
0.0
  0
LWPOLYLINE
  5
155E
330
1F
100
AcDbEntity
  8
Sanindusa
100
AcDbPolyline
 90
        4
 70
   128
 43
0.0
 10
3537.735710710875
 20
1201.82449416834
 10
3537.736093184508
 20
1201.8241950481
 10
3537.736476842038
 20
1201.824016295963
 10
3537.737124924437
 20
1201.823908381903
  0
LINE
  5
1560
330
1F
100
AcDbEntity
  8
Sanindusa
100
AcDbLine
 10
3537.737124924437
 20
1201.823908381903
 30
0.0
 11
3537.745610205811
 21
1201.823908381903
 31
0.0
  0
LWPOLYLINE
  5
1561
330
1F
100
AcDbEntity
  8
Sanindusa
100
AcDbPolyline
 90
        7
 70
   128
 43
0.0
 10
3537.747024419373
 20
1201.824494168341
 10
3537.747449628818
 20
1201.825123192116
 10
3537.747568566138
 20
1201.825502395661
 10
3537.747610205811
 20
1201.825908381903
 10
3537.747502291753
 20
1201.826556464298
 10
3537.747323539615
 20
1201.826940121829
 10
3537.747024419373
 20
1201.827322595466
  0
LWPOLYLINE
  5
1563
330
1F
100
AcDbEntity
  8
Sanindusa
100
AcDbPolyline
 90
        4
 70
   128
 43
0.0
 10
3537.74561020581
 20
1201.823908381903
 10
3537.746016198445
 20
1201.823950022901
 10
3537.746395403603
 20
1201.824068962313
 10
3537.747024419373
 20
1201.824494168341
  0
LWPOLYLINE
  5
1574
330
1F
100
AcDbEntity
  8
Sanindusa
100
AcDbPolyline
 90
        4
 70
   128
 43
0.0
 10
3537.700355371815
 20
1201.82449416834
 10
3537.700737837417
 20
1201.824195052937
 10
3537.701121491152
 20
1201.824016300014
 10
3537.701769585376
 20
1201.823908381903
  0
LINE
  5
1576
330
1F
100
AcDbEntity
  8
Sanindusa
100
AcDbLine
 10
3537.701769585377
 20
1201.823908381903
 30
0.0
 11
3537.710254866752
 21
1201.823908381903
 31
0.0
  0
LWPOLYLINE
  5
1577
330
1F
100
AcDbEntity
  8
Sanindusa
100
AcDbPolyline
 90
        7
 70
   128
 43
0.0
 10
3537.711669080314
 20
1201.824494168341
 10
3537.712094289759
 20
1201.825123192116
 10
3537.712213227079
 20
1201.825502395661
 10
3537.712254866752
 20
1201.825908381903
 10
3537.712146952691
 20
1201.826556464303
 10
3537.711968200554
 20
1201.826940121832
 10
3537.711669080314
 20
1201.827322595466
  0
LWPOLYLINE
  5
1579
330
1F
100
AcDbEntity
  8
Sanindusa
100
AcDbPolyline
 90
        4
 70
   128
 43
0.0
 10
3537.710254866751
 20
1201.823908381903
 10
3537.710660859388
 20
1201.823950022901
 10
3537.711040064547
 20
1201.824068962314
 10
3537.711669080314
 20
1201.824494168341
  0
LINE
  5
1580
330
1F
100
AcDbEntity
  8
Sanindusa
100
AcDbLine
 10
3537.781422532269
 20
1201.741646560218
 30
0.0
 11
3537.761589501908
 21
1201.741646560215
 31
0.0
  0
LINE
  5
158E
330
1F
100
AcDbEntity
  8
Sanindusa
100
AcDbLine
 10
3537.666414246318
 20
1201.823908381903
 30
0.0
 11
3537.674899527692
 21
1201.823908381904
 31
0.0
  0
LWPOLYLINE
  5
158F
330
1F
100
AcDbEntity
  8
Sanindusa
100
AcDbPolyline
 90
        7
 70
   128
 43
0.0
 10
3537.676313741254
 20
1201.824494168341
 10
3537.676738950699
 20
1201.825123192116
 10
3537.676857888019
 20
1201.825502395661
 10
3537.676899527692
 20
1201.825908381903
 10
3537.676791613633
 20
1201.826556464298
 10
3537.676612861496
 20
1201.826940121829
 10
3537.676313741254
 20
1201.827322595466
  0
LWPOLYLINE
  5
1591
330
1F
100
AcDbEntity
  8
Sanindusa
100
AcDbPolyline
 90
        4
 70
   128
 43
0.0
 10
3537.67489952769
 20
1201.823908381903
 10
3537.675305520329
 20
1201.823950022902
 10
3537.675684725488
 20
1201.824068962315
 10
3537.676313741254
 20
1201.824494168341
  0
LWPOLYLINE
  5
159C
330
1F
100
AcDbEntity
  8
Sanindusa
100
AcDbPolyline
 90
        7
 70
   128
 43
0.0
 10
3537.640958402196
 20
1201.824494168341
 10
3537.641383614789
 20
1201.825123199492
 10
3537.641502550181
 20
1201.825502401551
 10
3537.641544188633
 20
1201.825908381903
 10
3537.641436270521
 20
1201.826556476129
 10
3537.641257517599
 20
1201.826940129864
 10
3537.640958402195
 20
1201.827322595466
  0
LWPOLYLINE
  5
159E
330
1F
100
AcDbEntity
  8
Sanindusa
100
AcDbPolyline
 90
        4
 70
   128
 43
0.0
 10
3537.639544188632
 20
1201.823908381903
 10
3537.639950181266
 20
1201.823950022901
 10
3537.640329386425
 20
1201.824068962314
 10
3537.640958402196
 20
1201.824494168341
  0
LWPOLYLINE
  5
15A5
330
1F
100
AcDbEntity
  8
Sanindusa
100
AcDbPolyline
 90
        4
 70
   128
 43
0.0
 10
3537.665000032756
 20
1201.82449416834
 10
3537.665382498351
 20
1201.824195052941
 10
3537.665766152083
 20
1201.824016300018
 10
3537.666414246318
 20
1201.823908381903
  0
LWPOLYLINE
  5
15A9
330
1F
100
AcDbEntity
  8
Sanindusa
100
AcDbPolyline
 90
        4
 70
   128
 43
0.0
 10
3537.629644693697
 20
1201.82449416834
 10
3537.630027159299
 20
1201.824195052937
 10
3537.630410813033
 20
1201.824016300014
 10
3537.631058907258
 20
1201.823908381903
  0
LINE
  5
15AD
330
1F
100
AcDbEntity
  8
Sanindusa
100
AcDbLine
 10
3537.631058907258
 20
1201.823908381903
 30
0.0
 11
3537.639544188633
 21
1201.823908381904
 31
0.0
  0
LWPOLYLINE
  5
15B0
330
1F
100
AcDbEntity
  8
Sanindusa
100
AcDbPolyline
 90
        4
 70
   128
 43
0.0
 10
3537.604188849573
 20
1201.823908381903
 10
3537.604594842209
 20
1201.823950022901
 10
3537.604974047368
 20
1201.824068962314
 10
3537.605603063136
 20
1201.824494168341
  0
LWPOLYLINE
  5
15B8
330
1F
100
AcDbEntity
  8
Sanindusa
100
AcDbPolyline
 90
        4
 70
   128
 43
0.0
 10
3537.594289354637
 20
1201.82449416834
 10
3537.594671828271
 20
1201.8241950481
 10
3537.5950554858
 20
1201.824016295963
 10
3537.595703568199
 20
1201.823908381903
  0
LINE
  5
15BA
330
1F
100
AcDbEntity
  8
Sanindusa
100
AcDbLine
 10
3537.595703568199
 20
1201.823908381903
 30
0.0
 11
3537.604188849574
 21
1201.823908381903
 31
0.0
  0
LWPOLYLINE
  5
15C1
330
1F
100
AcDbEntity
  8
Sanindusa
100
AcDbPolyline
 90
        7
 70
   128
 43
0.0
 10
3537.605603063136
 20
1201.824494168341
 10
3537.606028272581
 20
1201.825123192116
 10
3537.606147209901
 20
1201.825502395661
 10
3537.606188849574
 20
1201.825908381903
 10
3537.606080935513
 20
1201.826556464306
 10
3537.605902183375
 20
1201.826940121835
 10
3537.605603063135
 20
1201.827322595466
  0
LWPOLYLINE
  5
15CB
330
1F
100
AcDbEntity
  8
Sanindusa
100
AcDbPolyline
 90
        7
 70
   128
 43
0.0
 10
3537.570247724076
 20
1201.824494168341
 10
3537.57067293667
 20
1201.825123199496
 10
3537.570791872062
 20
1201.825502401554
 10
3537.570833510514
 20
1201.825908381903
 10
3537.570725592404
 20
1201.826556476127
 10
3537.570546839481
 20
1201.826940129863
 10
3537.570247724075
 20
1201.827322595466
  0
LWPOLYLINE
  5
15CD
330
1F
100
AcDbEntity
  8
Sanindusa
100
AcDbPolyline
 90
        4
 70
   128
 43
0.0
 10
3537.568833510513
 20
1201.823908381903
 10
3537.569239503149
 20
1201.823950022901
 10
3537.569618708308
 20
1201.824068962314
 10
3537.570247724076
 20
1201.824494168341
  0
LWPOLYLINE
  5
15D3
330
1F
100
AcDbEntity
  8
Sanindusa
100
AcDbPolyline
 90
        3
 70
   128
 43
0.0
 10
3537.820454273866
 20
1201.813517548044
 10
3537.825227627259
 20
1201.807925206128
 10
3537.830819969176
 20
1201.803151852734
  0
LINE
  5
15D5
330
1F
100
AcDbEntity
  8
Sanindusa
100
AcDbLine
 10
3537.781422532269
 20
1201.741646560218
 30
0.0
 11
3537.925897031389
 21
1201.740974456686
 31
0.0
  0
LWPOLYLINE
  5
15DD
330
1F
100
AcDbEntity
  8
Sanindusa
100
AcDbPolyline
 90
        4
 70
   128
 43
0.0
 10
3537.558934015578
 20
1201.82449416834
 10
3537.559316489209
 20
1201.824195048102
 10
3537.559700146738
 20
1201.824016295965
 10
3537.56034822914
 20
1201.823908381903
  0
LWPOLYLINE
  5
15E6
330
1F
100
AcDbEntity
  8
Sanindusa
100
AcDbPolyline
 90
        7
 70
   128
 43
0.0
 10
3537.534892385018
 20
1201.824494168341
 10
3537.535317594461
 20
1201.825123192113
 10
3537.535436531781
 20
1201.825502395658
 10
3537.535478171455
 20
1201.825908381903
 10
3537.535370257395
 20
1201.826556464302
 10
3537.535191505257
 20
1201.826940121832
 10
3537.534892385017
 20
1201.827322595466
  0
LWPOLYLINE
  5
15E8
330
1F
100
AcDbEntity
  8
Sanindusa
100
AcDbPolyline
 90
        4
 70
   128
 43
0.0
 10
3537.533478171454
 20
1201.823908381903
 10
3537.533884164091
 20
1201.823950022901
 10
3537.53426336925
 20
1201.824068962314
 10
3537.534892385018
 20
1201.824494168341
  0
LWPOLYLINE
  5
15EE
330
1F
100
AcDbEntity
  8
Sanindusa
100
AcDbPolyline
 90
        4
 70
   128
 43
0.0
 10
3537.523578676518
 20
1201.82449416834
 10
3537.523961150153
 20
1201.8241950481
 10
3537.524344807682
 20
1201.824016295963
 10
3537.524992890081
 20
1201.823908381903
  0
LINE
  5
15F2
330
1F
100
AcDbEntity
  8
Sanindusa
100
AcDbLine
 10
3537.524992890081
 20
1201.823908381903
 30
0.0
 11
3537.533478171455
 21
1201.823908381904
 31
0.0
  0
LINE
  5
15F5
330
1F
100
AcDbEntity
  8
Sanindusa
100
AcDbLine
 10
3537.56034822914
 20
1201.823908381903
 30
0.0
 11
3537.568833510514
 21
1201.823908381904
 31
0.0
  0
LWPOLYLINE
  5
15F6
330
1F
100
AcDbEntity
  8
Sanindusa
100
AcDbPolyline
 90
        9
 70
   128
 43
0.0
 10
3537.883719344671
 20
1201.807300289063
 10
3537.888346933264
 20
1201.812827946764
 10
3537.891930264517
 20
1201.819083440627
 10
3537.894357687578
 20
1201.825871859507
 10
3537.89555356784
 20
1201.832981687162
 10
3537.895480643595
 20
1201.840191392776
 10
3537.894141187045
 20
1201.847276333492
 10
3537.891576933504
 20
1201.854015753928
 10
3537.887867780999
 20
1201.860199664558
  0
LINE
  5
15F8
330
1F
100
AcDbEntity
  8
Sanindusa
100
AcDbLine
 10
3537.950045177048
 20
1201.765122602341
 30
0.0
 11
3537.949373073517
 21
1201.909597101464
 31
0.0
  0
LWPOLYLINE
  5
15FA
330
1F
100
AcDbEntity
  8
Sanindusa
100
AcDbPolyline
 90
        9
 70
   128
 43
0.0
 10
3537.824602710195
 20
1201.866416923539
 10
3537.819975121602
 20
1201.860889265839
 10
3537.816391790349
 20
1201.854633771975
 10
3537.813964367288
 20
1201.847845353096
 10
3537.812768487025
 20
1201.84073552544
 10
3537.81284141127
 20
1201.833525819826
 10
3537.814180867821
 20
1201.82644087911
 10
3537.816745121361
 20
1201.819701458675
 10
3537.820454273866
 20
1201.813517548044
  0
CIRCLE
  5
15FC
330
1F
100
AcDbEntity
  8
Sanindusa
100
AcDbCircle
 10
3537.854161027433
 20
1201.836858606301
 30
0.0
 40
0.03
  0
LINE
  5
15FF
330
1F
100
AcDbEntity
  8
Sanindusa
100
AcDbLine
 10
3537.938424090928
 20
1202.345269815595
 30
0.0
 11
3537.369897963938
 21
1202.345269815595
 31
0.0
  0
LINE
  5
1601
330
1F
100
AcDbEntity
  8
Sanindusa
100
AcDbLine
 10
3537.313967303417
 20
1202.387049345213
 30
0.0
 11
3537.994354751447
 21
1202.387049345214
 31
0.0
  0
LINE
  5
1602
330
1F
100
AcDbEntity
  8
Sanindusa
100
AcDbLine
 10
3537.927084888125
 20
1202.333930612651
 30
0.0
 11
3537.378685984066
 21
1202.336481795329
 31
0.0
  0
LWPOLYLINE
  5
160C
330
1F
100
AcDbEntity
  8
Sanindusa
100
AcDbPolyline
 90
        9
 70
   128
 43
0.0
 10
3537.313967303416
 20
1202.387049345214
 10
3537.311938531978
 20
1202.38684037396
 10
3537.310043577288
 20
1202.38624533552
 10
3537.308347829869
 20
1202.385317875897
 10
3537.306899961134
 20
1202.384119672606
 10
3537.30570174266
 20
1202.382671781545
 10
3537.304774284076
 20
1202.380976023347
 10
3537.304179254284
 20
1202.379081075326
 10
3537.30397028852
 20
1202.377052330315
  0
LWPOLYLINE
  5
1611
330
1F
100
AcDbEntity
  8
Sanindusa
100
AcDbPolyline
 90
        4
 70
   128
 43
0.0
 10
3537.502242838623
 20
1202.248880871511
 10
3537.501860373021
 20
1202.249179986915
 10
3537.501476719285
 20
1202.249358739839
 10
3537.50082862506
 20
1202.249466657949
  0
LWPOLYLINE
  5
1617
330
1F
100
AcDbEntity
  8
Sanindusa
100
AcDbPolyline
 90
        5
 70
   128
 43
0.0
 10
3537.490495584621
 20
1202.248232024814
 10
3537.490370387772
 20
1202.247794445928
 10
3537.490354938991
 20
1202.247251607337
 10
3537.490520781553
 20
1202.246643088116
 10
3537.490929130124
 20
1202.246052444387
  0
LWPOLYLINE
  5
1618
330
1F
100
AcDbEntity
  8
Sanindusa
100
AcDbPolyline
 90
        5
 70
   128
 43
0.0
 10
3537.492343343687
 20
1202.249466657949
 10
3537.491745902883
 20
1202.249375339297
 10
3537.491212708431
 20
1202.249116404572
 10
3537.490786183322
 20
1202.248721748225
 10
3537.490495584683
 20
1202.248232024962
  0
LINE
  5
1622
330
1F
100
AcDbEntity
  8
Sanindusa
100
AcDbLine
 10
3537.456988004628
 20
1202.249466657949
 30
0.0
 11
3537.465473286002
 21
1202.24946665795
 31
0.0
  0
LWPOLYLINE
  5
1624
330
1F
100
AcDbEntity
  8
Sanindusa
100
AcDbPolyline
 90
        5
 70
   128
 43
0.0
 10
3537.455140245562
 20
1202.248232024814
 10
3537.455015048712
 20
1202.247794445926
 10
3537.454999599931
 20
1202.247251607334
 10
3537.455165442494
 20
1202.246643088114
 10
3537.455573791064
 20
1202.246052444387
  0
LWPOLYLINE
  5
1625
330
1F
100
AcDbEntity
  8
Sanindusa
100
AcDbPolyline
 90
        5
 70
   128
 43
0.0
 10
3537.456988004627
 20
1202.249466657949
 10
3537.456390563822
 20
1202.249375339296
 10
3537.455857369371
 20
1202.249116404572
 10
3537.455430844262
 20
1202.248721748224
 10
3537.455140245623
 20
1202.248232024962
  0
LWPOLYLINE
  5
1630
330
1F
100
AcDbEntity
  8
Sanindusa
100
AcDbPolyline
 90
        4
 70
   128
 43
0.0
 10
3537.466887499564
 20
1202.248880871511
 10
3537.466505033961
 20
1202.249179986915
 10
3537.466121380226
 20
1202.249358739839
 10
3537.465473286001
 20
1202.249466657949
  0
LWPOLYLINE
  5
1636
330
1F
100
AcDbEntity
  8
Sanindusa
100
AcDbPolyline
 90
        4
 70
   128
 43
0.0
 10
3537.441552975785
 20
1202.225546347733
 10
3537.441660893896
 20
1202.224898253507
 10
3537.441839646819
 20
1202.224514599772
 10
3537.442138762223
 20
1202.224132134169
  0
LWPOLYLINE
  5
163E
330
1F
100
AcDbEntity
  8
Sanindusa
100
AcDbPolyline
 90
        5
 70
   128
 43
0.0
 10
3537.443552975785
 20
1202.236031629107
 10
3537.44278760892
 20
1202.235879388172
 10
3537.442138762223
 20
1202.23544584267
 10
3537.44170521672
 20
1202.234796995972
 10
3537.441552975785
 20
1202.234031629106
  0
LWPOLYLINE
  5
163F
330
1F
100
AcDbEntity
  8
Sanindusa
100
AcDbPolyline
 90
        4
 70
   128
 43
0.0
 10
3537.444967189347
 20
1202.23544584267
 10
3537.444584715717
 20
1202.235744962908
 10
3537.444201058189
 20
1202.235923715045
 10
3537.443552975785
 20
1202.236031629107
  0
LINE
  5
1644
330
1F
100
AcDbEntity
  8
Sanindusa
100
AcDbLine
 10
3537.441552975785
 20
1202.234031629107
 30
0.0
 11
3537.441552975785
 21
1202.225546347732
 31
0.0
  0
LINE
  5
164C
330
1F
100
AcDbEntity
  8
Sanindusa
100
AcDbLine
 10
3537.492343343687
 20
1202.249466657949
 30
0.0
 11
3537.500828625061
 21
1202.249466657949
 31
0.0
  0
LWPOLYLINE
  5
1654
330
1F
100
AcDbEntity
  8
Sanindusa
100
AcDbPolyline
 90
        4
 70
   128
 43
0.0
 10
3537.441552975785
 20
1202.190191008674
 10
3537.441660893896
 20
1202.189542914448
 10
3537.441839646819
 20
1202.189159260713
 10
3537.442138762223
 20
1202.18877679511
  0
LWPOLYLINE
  5
1659
330
1F
100
AcDbEntity
  8
Sanindusa
100
AcDbPolyline
 90
        5
 70
   128
 43
0.0
 10
3537.443552975785
 20
1202.200676290047
 10
3537.44278760892
 20
1202.200524049112
 10
3537.442138762223
 20
1202.20009050361
 10
3537.44170521672
 20
1202.199441656912
 10
3537.441552975785
 20
1202.198676290047
  0
LWPOLYLINE
  5
165A
330
1F
100
AcDbEntity
  8
Sanindusa
100
AcDbPolyline
 90
        4
 70
   128
 43
0.0
 10
3537.444967189347
 20
1202.20009050361
 10
3537.444584723743
 20
1202.200389619014
 10
3537.444201070008
 20
1202.200568371937
 10
3537.443552975785
 20
1202.200676290047
  0
LINE
  5
165F
330
1F
100
AcDbEntity
  8
Sanindusa
100
AcDbLine
 10
3537.441552975785
 20
1202.198676290047
 30
0.0
 11
3537.441552975785
 21
1202.190191008673
 31
0.0
  0
LWPOLYLINE
  5
1669
330
1F
100
AcDbEntity
  8
Sanindusa
100
AcDbPolyline
 90
        4
 70
   128
 43
0.0
 10
3537.441552975785
 20
1202.154835669614
 10
3537.441660889845
 20
1202.154187587216
 10
3537.441839641981
 20
1202.153803929686
 10
3537.442138762223
 20
1202.153421456052
  0
LWPOLYLINE
  5
166E
330
1F
100
AcDbEntity
  8
Sanindusa
100
AcDbPolyline
 90
        5
 70
   128
 43
0.0
 10
3537.443552975785
 20
1202.165320950988
 10
3537.44278760892
 20
1202.165168710053
 10
3537.442138762223
 20
1202.164735164551
 10
3537.44170521672
 20
1202.164086317853
 10
3537.441552975785
 20
1202.163320950987
  0
LWPOLYLINE
  5
166F
330
1F
100
AcDbEntity
  8
Sanindusa
100
AcDbPolyline
 90
        4
 70
   128
 43
0.0
 10
3537.444967189347
 20
1202.164735164551
 10
3537.444584723754
 20
1202.165034279949
 10
3537.444201070023
 20
1202.165213032873
 10
3537.443552975785
 20
1202.165320950988
  0
LINE
  5
1674
330
1F
100
AcDbEntity
  8
Sanindusa
100
AcDbLine
 10
3537.441552975785
 20
1202.163320950988
 30
0.0
 11
3537.441552975785
 21
1202.154835669614
 31
0.0
  0
LWPOLYLINE
  5
167E
330
1F
100
AcDbEntity
  8
Sanindusa
100
AcDbPolyline
 90
        4
 70
   128
 43
0.0
 10
3537.441552975785
 20
1202.119480330555
 10
3537.441660893893
 20
1202.118832236336
 10
3537.441839646816
 20
1202.118448582599
 10
3537.442138762223
 20
1202.118066116992
  0
LWPOLYLINE
  5
1683
330
1F
100
AcDbEntity
  8
Sanindusa
100
AcDbPolyline
 90
        5
 70
   128
 43
0.0
 10
3537.443552975785
 20
1202.129965611929
 10
3537.44278760892
 20
1202.129813370994
 10
3537.442138762223
 20
1202.129379825491
 10
3537.44170521672
 20
1202.128730978794
 10
3537.441552975785
 20
1202.127965611929
  0
LWPOLYLINE
  5
1684
330
1F
100
AcDbEntity
  8
Sanindusa
100
AcDbPolyline
 90
        4
 70
   128
 43
0.0
 10
3537.444967189347
 20
1202.129379825492
 10
3537.444584715717
 20
1202.12967894573
 10
3537.444201058189
 20
1202.129857697867
 10
3537.443552975785
 20
1202.129965611929
  0
LINE
  5
1689
330
1F
100
AcDbEntity
  8
Sanindusa
100
AcDbLine
 10
3537.441552975785
 20
1202.127965611929
 30
0.0
 11
3537.441552975785
 21
1202.119480330554
 31
0.0
  0
LWPOLYLINE
  5
1691
330
1F
100
AcDbEntity
  8
Sanindusa
100
AcDbPolyline
 90
        5
 70
   128
 43
0.0
 10
3537.443552975785
 20
1202.094610272869
 10
3537.44278760892
 20
1202.094458031934
 10
3537.442138762223
 20
1202.094024486431
 10
3537.44170521672
 20
1202.093375639734
 10
3537.441552975785
 20
1202.092610272868
  0
LWPOLYLINE
  5
1692
330
1F
100
AcDbEntity
  8
Sanindusa
100
AcDbPolyline
 90
        4
 70
   128
 43
0.0
 10
3537.444967189347
 20
1202.094024486432
 10
3537.444584723743
 20
1202.094323601837
 10
3537.444201070008
 20
1202.094502354759
 10
3537.443552975785
 20
1202.094610272869
  0
LWPOLYLINE
  5
1699
330
1F
100
AcDbEntity
  8
Sanindusa
100
AcDbPolyline
 90
        4
 70
   128
 43
0.0
 10
3537.441552975785
 20
1202.084124991495
 10
3537.441660889845
 20
1202.083476909097
 10
3537.441839641982
 20
1202.083093251567
 10
3537.442138762223
 20
1202.082710777933
  0
LINE
  5
16A2
330
1F
100
AcDbEntity
  8
Sanindusa
100
AcDbLine
 10
3537.441552975785
 20
1202.092610272869
 30
0.0
 11
3537.441552975785
 21
1202.084124991495
 31
0.0
  0
LWPOLYLINE
  5
16A4
330
1F
100
AcDbEntity
  8
Sanindusa
100
AcDbPolyline
 90
        9
 70
   128
 43
0.0
 10
3537.354537838405
 20
1202.312333649672
 10
3537.355125654715
 20
1202.316996743852
 10
3537.356574972168
 20
1202.32146406296
 10
3537.358850572021
 20
1202.325601357222
 10
3537.361825328993
 20
1202.329194304741
 10
3537.365418235913
 20
1202.33216903408
 10
3537.369555570773
 20
1202.334444661566
 10
3537.374022889882
 20
1202.335893979019
 10
3537.378685984061
 20
1202.336481795329
  0
LWPOLYLINE
  5
16A5
330
1F
100
AcDbEntity
  8
Sanindusa
100
AcDbPolyline
 90
       10
 70
   128
 43
0.0
 10
3537.369897963787
 20
1202.345269815598
 10
3537.364921048089
 20
1202.344884146143
 10
3537.360386199485
 20
1202.343614032852
 10
3537.356148915448
 20
1202.341438427896
 10
3537.352522633397
 20
1202.338497000341
 10
3537.349581237102
 20
1202.334870766233
 10
3537.348390375012
 20
1202.332820838889
 10
3537.347405600884
 20
1202.330633434253
 10
3537.346135492572
 20
1202.326098617481
 10
3537.345749818136
 20
1202.321121669952
  0
LWPOLYLINE
  5
16B2
330
1F
100
AcDbEntity
  8
Sanindusa
100
AcDbPolyline
 90
        7
 70
   128
 43
0.0
 10
3537.863697038268
 20
1202.226837926836
 10
3537.864079520879
 20
1202.22653880119
 10
3537.86446318265
 20
1202.226360049931
 10
3537.86511125183
 20
1202.226252140398
 10
3537.865517244655
 20
1202.226293781436
 10
3537.865896449861
 20
1202.22641272091
 10
3537.866525465393
 20
1202.226837926836
  0
LWPOLYLINE
  5
16BC
330
1F
100
AcDbEntity
  8
Sanindusa
100
AcDbPolyline
 90
        4
 70
   128
 43
0.0
 10
3537.867111251831
 20
1202.236737421773
 10
3537.867003333723
 20
1202.237385515989
 10
3537.8668245808
 20
1202.237769169727
 10
3537.866525465393
 20
1202.238151635334
  0
LINE
  5
16BE
330
1F
100
AcDbEntity
  8
Sanindusa
100
AcDbLine
 10
3537.867111251831
 20
1202.236737421772
 30
0.0
 11
3537.867111251831
 21
1202.228252140397
 31
0.0
  0
LWPOLYLINE
  5
16C1
330
1F
100
AcDbEntity
  8
Sanindusa
100
AcDbPolyline
 90
        4
 70
   128
 43
0.0
 10
3537.866525465393
 20
1202.226837926836
 10
3537.866950671419
 20
1202.227466942604
 10
3537.867069610832
 20
1202.227846147762
 10
3537.867111251831
 20
1202.228252140398
  0
LWPOLYLINE
  5
16C8
330
1F
100
AcDbEntity
  8
Sanindusa
100
AcDbPolyline
 90
        5
 70
   128
 43
0.0
 10
3537.844048975215
 20
1202.248232024814
 10
3537.843923778365
 20
1202.247794445931
 10
3537.843908329584
 20
1202.247251607341
 10
3537.844074172145
 20
1202.246643088118
 10
3537.844482520717
 20
1202.246052444387
  0
LWPOLYLINE
  5
16C9
330
1F
100
AcDbEntity
  8
Sanindusa
100
AcDbPolyline
 90
        5
 70
   128
 43
0.0
 10
3537.84589673428
 20
1202.249466657949
 10
3537.845299282166
 20
1202.249375335757
 10
3537.844766085991
 20
1202.249116395639
 10
3537.844339566478
 20
1202.248721738998
 10
3537.844048975276
 20
1202.248232024962
  0
LINE
  5
16D0
330
1F
100
AcDbEntity
  8
Sanindusa
100
AcDbLine
 10
3537.84589673428
 20
1202.249466657949
 30
0.0
 11
3537.854382015654
 21
1202.249466657949
 31
0.0
  0
LWPOLYLINE
  5
16D2
330
1F
100
AcDbEntity
  8
Sanindusa
100
AcDbPolyline
 90
        4
 70
   128
 43
0.0
 10
3537.855796229216
 20
1202.248880871511
 10
3537.855413763609
 20
1202.249179986919
 10
3537.855030109871
 20
1202.249358739841
 10
3537.854382015653
 20
1202.249466657949
  0
LINE
  5
16DA
330
1F
100
AcDbEntity
  8
Sanindusa
100
AcDbLine
 10
3537.855796229217
 20
1202.248880871512
 30
0.0
 11
3537.866525465395
 21
1202.238151635334
 31
0.0
  0
LINE
  5
16DE
330
1F
100
AcDbEntity
  8
Sanindusa
100
AcDbLine
 10
3537.844482520717
 20
1202.246052444388
 30
0.0
 11
3537.863697038269
 21
1202.226837926836
 31
0.0
  0
LWPOLYLINE
  5
16E3
330
1F
100
AcDbEntity
  8
Sanindusa
100
AcDbPolyline
 90
        7
 70
   128
 43
0.0
 10
3537.863697038268
 20
1202.191482587776
 10
3537.864079520874
 20
1202.191183462133
 10
3537.864463182642
 20
1202.191004710874
 10
3537.86511125183
 20
1202.190896801338
 10
3537.865517244655
 20
1202.190938442376
 10
3537.865896449861
 20
1202.19105738185
 10
3537.866525465393
 20
1202.191482587776
  0
LWPOLYLINE
  5
16EE
330
1F
100
AcDbEntity
  8
Sanindusa
100
AcDbPolyline
 90
        4
 70
   128
 43
0.0
 10
3537.867111251831
 20
1202.201382082713
 10
3537.86700333372
 20
1202.202030176938
 10
3537.866824580798
 20
1202.202413830673
 10
3537.866525465393
 20
1202.202796296275
  0
LINE
  5
16F1
330
1F
100
AcDbEntity
  8
Sanindusa
100
AcDbLine
 10
3537.867111251831
 20
1202.201382082713
 30
0.0
 11
3537.867111251831
 21
1202.192896801338
 31
0.0
  0
LWPOLYLINE
  5
16F3
330
1F
100
AcDbEntity
  8
Sanindusa
100
AcDbPolyline
 90
        4
 70
   128
 43
0.0
 10
3537.866525465393
 20
1202.191482587776
 10
3537.866950675817
 20
1202.192111613846
 10
3537.867069612538
 20
1202.192490816928
 10
3537.867111251831
 20
1202.192896801338
  0
LWPOLYLINE
  5
16F9
330
1F
100
AcDbEntity
  8
Sanindusa
100
AcDbPolyline
 90
        7
 70
   128
 43
0.0
 10
3537.863697038268
 20
1202.156127248717
 10
3537.864079520874
 20
1202.155828123074
 10
3537.864463182641
 20
1202.155649371815
 10
3537.86511125183
 20
1202.155541462279
 10
3537.865517244654
 20
1202.155583103316
 10
3537.865896449859
 20
1202.15570204279
 10
3537.866525465393
 20
1202.156127248717
  0
LWPOLYLINE
  5
1704
330
1F
100
AcDbEntity
  8
Sanindusa
100
AcDbPolyline
 90
        4
 70
   128
 43
0.0
 10
3537.867111251831
 20
1202.166026743654
 10
3537.86700333372
 20
1202.166674837878
 10
3537.866824580798
 20
1202.167058491613
 10
3537.866525465393
 20
1202.167440957215
  0
LINE
  5
1706
330
1F
100
AcDbEntity
  8
Sanindusa
100
AcDbLine
 10
3537.867111251831
 20
1202.166026743653
 30
0.0
 11
3537.867111251831
 21
1202.157541462279
 31
0.0
  0
LWPOLYLINE
  5
1709
330
1F
100
AcDbEntity
  8
Sanindusa
100
AcDbPolyline
 90
        4
 70
   128
 43
0.0
 10
3537.866525465393
 20
1202.156127248717
 10
3537.866950675817
 20
1202.156756274787
 10
3537.867069612538
 20
1202.157135477869
 10
3537.867111251831
 20
1202.157541462279
  0
LWPOLYLINE
  5
170F
330
1F
100
AcDbEntity
  8
Sanindusa
100
AcDbPolyline
 90
        7
 70
   128
 43
0.0
 10
3537.863697038268
 20
1202.120771909658
 10
3537.864079520879
 20
1202.120472784012
 10
3537.86446318265
 20
1202.120294032753
 10
3537.86511125183
 20
1202.12018612322
 10
3537.865517244658
 20
1202.120227764258
 10
3537.865896449865
 20
1202.120346703734
 10
3537.866525465393
 20
1202.120771909658
  0
LWPOLYLINE
  5
171A
330
1F
100
AcDbEntity
  8
Sanindusa
100
AcDbPolyline
 90
        4
 70
   128
 43
0.0
 10
3537.867111251831
 20
1202.130671404595
 10
3537.867003333719
 20
1202.131319498822
 10
3537.866824580796
 20
1202.131703152556
 10
3537.866525465393
 20
1202.132085618156
  0
LINE
  5
171C
330
1F
100
AcDbEntity
  8
Sanindusa
100
AcDbLine
 10
3537.867111251831
 20
1202.130671404594
 30
0.0
 11
3537.867111251831
 21
1202.122186123219
 31
0.0
  0
LWPOLYLINE
  5
171F
330
1F
100
AcDbEntity
  8
Sanindusa
100
AcDbPolyline
 90
        4
 70
   128
 43
0.0
 10
3537.866525465393
 20
1202.120771909658
 10
3537.866950671418
 20
1202.121400925423
 10
3537.867069610832
 20
1202.121780130582
 10
3537.867111251831
 20
1202.12218612322
  0
LWPOLYLINE
  5
1725
330
1F
100
AcDbEntity
  8
Sanindusa
100
AcDbPolyline
 90
        4
 70
   128
 43
0.0
 10
3537.867111251831
 20
1202.095316065536
 10
3537.86700333372
 20
1202.095964159761
 10
3537.866824580797
 20
1202.096347813496
 10
3537.866525465393
 20
1202.096730279097
  0
LWPOLYLINE
  5
172E
330
1F
100
AcDbEntity
  8
Sanindusa
100
AcDbPolyline
 90
        5
 70
   128
 43
0.0
 10
3537.808693636156
 20
1202.248232024814
 10
3537.808568439306
 20
1202.247794445931
 10
3537.808552990524
 20
1202.247251607341
 10
3537.808718833087
 20
1202.246643088118
 10
3537.809127181659
 20
1202.246052444387
  0
LWPOLYLINE
  5
172F
330
1F
100
AcDbEntity
  8
Sanindusa
100
AcDbPolyline
 90
        5
 70
   128
 43
0.0
 10
3537.81054139522
 20
1202.249466657949
 10
3537.809943954415
 20
1202.249375339296
 10
3537.809410759964
 20
1202.249116404571
 10
3537.808984234856
 20
1202.248721748224
 10
3537.808693636217
 20
1202.248232024962
  0
LINE
  5
1735
330
1F
100
AcDbEntity
  8
Sanindusa
100
AcDbLine
 10
3537.81054139522
 20
1202.249466657949
 30
0.0
 11
3537.819026676595
 21
1202.249466657949
 31
0.0
  0
LWPOLYLINE
  5
1737
330
1F
100
AcDbEntity
  8
Sanindusa
100
AcDbPolyline
 90
        4
 70
   128
 43
0.0
 10
3537.820440890158
 20
1202.248880871511
 10
3537.820058424555
 20
1202.249179986915
 10
3537.819674770819
 20
1202.249358739839
 10
3537.819026676594
 20
1202.249466657949
  0
LINE
  5
1741
330
1F
100
AcDbEntity
  8
Sanindusa
100
AcDbLine
 10
3537.775186056161
 20
1202.249466657949
 30
0.0
 11
3537.783671337535
 21
1202.249466657949
 31
0.0
  0
LWPOLYLINE
  5
1749
330
1F
100
AcDbEntity
  8
Sanindusa
100
AcDbPolyline
 90
        4
 70
   128
 43
0.0
 10
3537.785085551098
 20
1202.248880871511
 10
3537.784703085494
 20
1202.249179986915
 10
3537.784319431759
 20
1202.249358739839
 10
3537.783671337534
 20
1202.249466657949
  0
LWPOLYLINE
  5
174E
330
1F
100
AcDbEntity
  8
Sanindusa
100
AcDbPolyline
 90
        5
 70
   128
 43
0.0
 10
3537.773338297096
 20
1202.248232024814
 10
3537.773213100245
 20
1202.247794445924
 10
3537.773197651466
 20
1202.247251607331
 10
3537.773363494029
 20
1202.246643088112
 10
3537.773771842598
 20
1202.246052444387
  0
LWPOLYLINE
  5
1752
330
1F
100
AcDbEntity
  8
Sanindusa
100
AcDbPolyline
 90
        5
 70
   128
 43
0.0
 10
3537.775186056161
 20
1202.249466657949
 10
3537.774588615358
 20
1202.249375339297
 10
3537.774055420906
 20
1202.249116404573
 10
3537.773628895797
 20
1202.248721748225
 10
3537.773338297157
 20
1202.248232024962
  0
LWPOLYLINE
  5
1755
330
1F
100
AcDbEntity
  8
Sanindusa
100
AcDbPolyline
 90
        4
 70
   128
 43
0.0
 10
3537.749730212038
 20
1202.248880871511
 10
3537.749347746436
 20
1202.249179986915
 10
3537.748964092701
 20
1202.249358739838
 10
3537.748315998475
 20
1202.249466657949
  0
LWPOLYLINE
  5
175D
330
1F
100
AcDbEntity
  8
Sanindusa
100
AcDbPolyline
 90
        5
 70
   128
 43
0.0
 10
3537.737982958037
 20
1202.248232024814
 10
3537.737857761188
 20
1202.247794445935
 10
3537.737842312405
 20
1202.247251607346
 10
3537.738008154966
 20
1202.246643088122
 10
3537.73841650354
 20
1202.246052444387
  0
LWPOLYLINE
  5
175E
330
1F
100
AcDbEntity
  8
Sanindusa
100
AcDbPolyline
 90
        5
 70
   128
 43
0.0
 10
3537.739830717101
 20
1202.249466657949
 10
3537.73923326499
 20
1202.249375335757
 10
3537.738700068814
 20
1202.249116395641
 10
3537.738273549301
 20
1202.248721738999
 10
3537.737982958098
 20
1202.248232024962
  0
LWPOLYLINE
  5
1769
330
1F
100
AcDbEntity
  8
Sanindusa
100
AcDbPolyline
 90
        5
 70
   128
 43
0.0
 10
3537.702627618978
 20
1202.248232024814
 10
3537.702502422128
 20
1202.247794445926
 10
3537.702486973348
 20
1202.247251607334
 10
3537.702652815911
 20
1202.246643088114
 10
3537.70306116448
 20
1202.246052444387
  0
LWPOLYLINE
  5
176A
330
1F
100
AcDbEntity
  8
Sanindusa
100
AcDbPolyline
 90
        5
 70
   128
 43
0.0
 10
3537.704475378042
 20
1202.249466657949
 10
3537.703877937239
 20
1202.249375339297
 10
3537.703344742789
 20
1202.249116404572
 10
3537.702918217679
 20
1202.248721748225
 10
3537.702627619039
 20
1202.248232024962
  0
LINE
  5
1771
330
1F
100
AcDbEntity
  8
Sanindusa
100
AcDbLine
 10
3537.704475378043
 20
1202.249466657949
 30
0.0
 11
3537.712960659417
 21
1202.249466657949
 31
0.0
  0
LWPOLYLINE
  5
1773
330
1F
100
AcDbEntity
  8
Sanindusa
100
AcDbPolyline
 90
        4
 70
   128
 43
0.0
 10
3537.71437487298
 20
1202.248880871511
 10
3537.713992407378
 20
1202.249179986915
 10
3537.713608753641
 20
1202.249358739838
 10
3537.712960659416
 20
1202.249466657949
  0
LINE
  5
177D
330
1F
100
AcDbEntity
  8
Sanindusa
100
AcDbLine
 10
3537.739830717102
 20
1202.249466657949
 30
0.0
 11
3537.748315998476
 21
1202.24946665795
 31
0.0
  0
LWPOLYLINE
  5
1780
330
1F
100
AcDbEntity
  8
Sanindusa
100
AcDbPolyline
 90
        5
 70
   128
 43
0.0
 10
3537.667272279918
 20
1202.248232024814
 10
3537.667147083069
 20
1202.247794445932
 10
3537.667131634286
 20
1202.247251607343
 10
3537.667297476847
 20
1202.24664308812
 10
3537.66770582542
 20
1202.246052444387
  0
LWPOLYLINE
  5
1781
330
1F
100
AcDbEntity
  8
Sanindusa
100
AcDbPolyline
 90
        5
 70
   128
 43
0.0
 10
3537.669120038982
 20
1202.249466657949
 10
3537.668522586873
 20
1202.249375335757
 10
3537.667989390698
 20
1202.249116395642
 10
3537.667562871184
 20
1202.248721739001
 10
3537.667272279979
 20
1202.248232024962
  0
LINE
  5
1788
330
1F
100
AcDbEntity
  8
Sanindusa
100
AcDbLine
 10
3537.669120038983
 20
1202.249466657949
 30
0.0
 11
3537.677605320357
 21
1202.249466657949
 31
0.0
  0
LWPOLYLINE
  5
178A
330
1F
100
AcDbEntity
  8
Sanindusa
100
AcDbPolyline
 90
        4
 70
   128
 43
0.0
 10
3537.679019533919
 20
1202.248880871511
 10
3537.678637068317
 20
1202.249179986915
 10
3537.678253414582
 20
1202.249358739838
 10
3537.677605320356
 20
1202.249466657949
  0
LWPOLYLINE
  5
1795
330
1F
100
AcDbEntity
  8
Sanindusa
100
AcDbPolyline
 90
        4
 70
   128
 43
0.0
 10
3537.64366419486
 20
1202.248880871511
 10
3537.643281729258
 20
1202.249179986915
 10
3537.642898075523
 20
1202.249358739838
 10
3537.642249981297
 20
1202.249466657949
  0
LWPOLYLINE
  5
179C
330
1F
100
AcDbEntity
  8
Sanindusa
100
AcDbPolyline
 90
        5
 70
   128
 43
0.0
 10
3537.633764699923
 20
1202.249466657949
 10
3537.63316724781
 20
1202.249375335757
 10
3537.632634051635
 20
1202.249116395639
 10
3537.632207532123
 20
1202.248721738998
 10
3537.63191694092
 20
1202.248232024962
  0
LWPOLYLINE
  5
179E
330
1F
100
AcDbEntity
  8
Sanindusa
100
AcDbPolyline
 90
        5
 70
   128
 43
0.0
 10
3537.631916940858
 20
1202.248232024814
 10
3537.63179174401
 20
1202.247794445935
 10
3537.631776295227
 20
1202.247251607346
 10
3537.631942137788
 20
1202.246643088122
 10
3537.632350486362
 20
1202.246052444387
  0
LINE
  5
17A7
330
1F
100
AcDbEntity
  8
Sanindusa
100
AcDbLine
 10
3537.633764699924
 20
1202.249466657949
 30
0.0
 11
3537.642249981298
 21
1202.249466657949
 31
0.0
  0
LINE
  5
17AA
330
1F
100
AcDbEntity
  8
Sanindusa
100
AcDbLine
 10
3537.598409360865
 20
1202.249466657949
 30
0.0
 11
3537.606894642239
 21
1202.249466657949
 31
0.0
  0
LWPOLYLINE
  5
17AC
330
1F
100
AcDbEntity
  8
Sanindusa
100
AcDbPolyline
 90
        5
 70
   128
 43
0.0
 10
3537.596561601799
 20
1202.248232024814
 10
3537.596436404951
 20
1202.247794445935
 10
3537.596420956168
 20
1202.247251607346
 10
3537.596586798728
 20
1202.246643088122
 10
3537.596995147302
 20
1202.246052444387
  0
LWPOLYLINE
  5
17AD
330
1F
100
AcDbEntity
  8
Sanindusa
100
AcDbPolyline
 90
        5
 70
   128
 43
0.0
 10
3537.598409360864
 20
1202.249466657949
 10
3537.597811908752
 20
1202.249375335757
 10
3537.597278712577
 20
1202.24911639564
 10
3537.596852193064
 20
1202.248721738999
 10
3537.596561601861
 20
1202.248232024962
  0
LWPOLYLINE
  5
17B8
330
1F
100
AcDbEntity
  8
Sanindusa
100
AcDbPolyline
 90
        4
 70
   128
 43
0.0
 10
3537.608308855801
 20
1202.248880871511
 10
3537.6079263902
 20
1202.249179986915
 10
3537.607542736463
 20
1202.249358739838
 10
3537.606894642238
 20
1202.249466657949
  0
LWPOLYLINE
  5
17C0
330
1F
100
AcDbEntity
  8
Sanindusa
100
AcDbPolyline
 90
        4
 70
   128
 43
0.0
 10
3537.572953516742
 20
1202.248880871511
 10
3537.572571051135
 20
1202.249179986919
 10
3537.572187397397
 20
1202.249358739841
 10
3537.571539303179
 20
1202.249466657949
  0
LINE
  5
17CA
330
1F
100
AcDbEntity
  8
Sanindusa
100
AcDbLine
 10
3537.73841650354
 20
1202.246052444388
 30
0.0
 11
3537.863697038269
 21
1202.120771909658
 31
0.0
  0
LINE
  5
17CB
330
1F
100
AcDbEntity
  8
Sanindusa
100
AcDbLine
 10
3537.749730212039
 20
1202.248880871512
 30
0.0
 11
3537.866525465395
 21
1202.132085618156
 31
0.0
  0
LINE
  5
17D0
330
1F
100
AcDbEntity
  8
Sanindusa
100
AcDbLine
 10
3537.773771842598
 20
1202.246052444388
 30
0.0
 11
3537.863697038269
 21
1202.156127248717
 31
0.0
  0
LINE
  5
17D1
330
1F
100
AcDbEntity
  8
Sanindusa
100
AcDbLine
 10
3537.785085551098
 20
1202.248880871512
 30
0.0
 11
3537.866525465395
 21
1202.167440957216
 31
0.0
  0
LINE
  5
17D6
330
1F
100
AcDbEntity
  8
Sanindusa
100
AcDbLine
 10
3537.809127181657
 20
1202.246052444388
 30
0.0
 11
3537.863697038269
 21
1202.191482587776
 31
0.0
  0
LINE
  5
17D7
330
1F
100
AcDbEntity
  8
Sanindusa
100
AcDbLine
 10
3537.820440890158
 20
1202.248880871512
 30
0.0
 11
3537.866525465395
 21
1202.202796296275
 31
0.0
  0
LINE
  5
17D9
330
1F
100
AcDbEntity
  8
Sanindusa
100
AcDbLine
 10
3537.714374872979
 20
1202.248880871512
 30
0.0
 11
3537.866525465395
 21
1202.096730279097
 31
0.0
  0
LWPOLYLINE
  5
17DC
330
1F
100
AcDbEntity
  8
Sanindusa
100
AcDbPolyline
 90
        7
 70
   128
 43
0.0
 10
3537.863697038268
 20
1202.085416570598
 10
3537.864079520872
 20
1202.085117444956
 10
3537.864463182639
 20
1202.084938693697
 10
3537.86511125183
 20
1202.08483078416
 10
3537.865517244658
 20
1202.084872425198
 10
3537.865896449865
 20
1202.084991364674
 10
3537.866525465393
 20
1202.085416570598
  0
LWPOLYLINE
  5
17E3
330
1F
100
AcDbEntity
  8
Sanindusa
100
AcDbPolyline
 90
        4
 70
   128
 43
0.0
 10
3537.866525465393
 20
1202.085416570598
 10
3537.866950675817
 20
1202.086045596667
 10
3537.867069612538
 20
1202.08642479975
 10
3537.867111251831
 20
1202.08683078416
  0
LINE
  5
17E8
330
1F
100
AcDbEntity
  8
Sanindusa
100
AcDbLine
 10
3537.867111251831
 20
1202.095316065535
 30
0.0
 11
3537.867111251831
 21
1202.08683078416
 31
0.0
  0
LINE
  5
17EB
330
1F
100
AcDbEntity
  8
Sanindusa
100
AcDbLine
 10
3537.703061164479
 20
1202.246052444388
 30
0.0
 11
3537.863697038269
 21
1202.085416570598
 31
0.0
  0
LWPOLYLINE
  5
17EC
330
1F
100
AcDbEntity
  8
Sanindusa
100
AcDbPolyline
 90
       10
 70
   128
 43
0.0
 10
3537.962572236728
 20
1202.321121669939
 10
3537.962186570061
 20
1202.326098571886
 10
3537.960916453975
 20
1202.330633434253
 10
3537.958740848933
 20
1202.334870718418
 10
3537.955799421465
 20
1202.338497000344
 10
3537.952173187356
 20
1202.341438396636
 10
3537.95012326001
 20
1202.342629258724
 10
3537.947935855372
 20
1202.34361403285
 10
3537.943401038472
 20
1202.344884141185
 10
3537.938424091072
 20
1202.345269815596
  0
LWPOLYLINE
  5
17ED
330
1F
100
AcDbEntity
  8
Sanindusa
100
AcDbPolyline
 90
        9
 70
   128
 43
0.0
 10
3537.927084888125
 20
1202.333930612651
 10
3537.931726576892
 20
1202.333321390927
 10
3537.936173536396
 20
1202.33185171387
 10
3537.940283567432
 20
1202.329563315144
 10
3537.943869003259
 20
1202.326566582128
 10
3537.946824623049
 20
1202.322969415745
 10
3537.949096432419
 20
1202.318813412682
 10
3537.950539808284
 20
1202.314340151986
 10
3537.951125688163
 20
1202.309675121375
  0
LWPOLYLINE
  5
17F1
330
1F
100
AcDbEntity
  8
Sanindusa
100
AcDbPolyline
 90
        5
 70
   128
 43
0.0
 10
3537.56120626274
 20
1202.248232024814
 10
3537.561081065891
 20
1202.24779444593
 10
3537.561065617108
 20
1202.247251607341
 10
3537.56123145967
 20
1202.246643088118
 10
3537.561639808242
 20
1202.246052444387
  0
LWPOLYLINE
  5
17F2
330
1F
100
AcDbEntity
  8
Sanindusa
100
AcDbPolyline
 90
        5
 70
   128
 43
0.0
 10
3537.563054021805
 20
1202.249466657949
 10
3537.562456569694
 20
1202.249375335757
 10
3537.561923373519
 20
1202.249116395641
 10
3537.561496854006
 20
1202.248721739
 10
3537.561206262801
 20
1202.248232024962
  0
LWPOLYLINE
  5
17FD
330
1F
100
AcDbEntity
  8
Sanindusa
100
AcDbPolyline
 90
        4
 70
   128
 43
0.0
 10
3537.537598177683
 20
1202.248880871511
 10
3537.53721571208
 20
1202.249179986915
 10
3537.536832058345
 20
1202.249358739838
 10
3537.536183964119
 20
1202.249466657949
  0
LWPOLYLINE
  5
1803
330
1F
100
AcDbEntity
  8
Sanindusa
100
AcDbPolyline
 90
        5
 70
   128
 43
0.0
 10
3537.525850923681
 20
1202.248232024814
 10
3537.525725726831
 20
1202.247794445926
 10
3537.52571027805
 20
1202.247251607335
 10
3537.525876120613
 20
1202.246643088114
 10
3537.526284469183
 20
1202.246052444387
  0
LWPOLYLINE
  5
1804
330
1F
100
AcDbEntity
  8
Sanindusa
100
AcDbPolyline
 90
        5
 70
   128
 43
0.0
 10
3537.527698682746
 20
1202.249466657949
 10
3537.527101241941
 20
1202.249375339296
 10
3537.52656804749
 20
1202.249116404572
 10
3537.526141522381
 20
1202.248721748224
 10
3537.525850923742
 20
1202.248232024962
  0
LINE
  5
180E
330
1F
100
AcDbEntity
  8
Sanindusa
100
AcDbLine
 10
3537.527698682746
 20
1202.249466657949
 30
0.0
 11
3537.53618396412
 21
1202.249466657949
 31
0.0
  0
LINE
  5
1811
330
1F
100
AcDbEntity
  8
Sanindusa
100
AcDbLine
 10
3537.563054021805
 20
1202.249466657949
 30
0.0
 11
3537.57153930318
 21
1202.249466657949
 31
0.0
  0
LINE
  5
1812
330
1F
100
AcDbEntity
  8
Sanindusa
100
AcDbLine
 10
3539.000486454741
 20
1201.884881006481
 30
0.0
 11
3539.684099403736
 21
1201.884881006481
 31
0.0
  0
LINE
  5
1813
330
1F
100
AcDbEntity
  8
Sanindusa
100
AcDbLine
 10
3539.058029865603
 20
1201.96488100648
 30
0.0
 11
3539.626555992874
 21
1201.96488100648
 31
0.0
  0
LINE
  5
1815
330
1F
100
AcDbEntity
  8
Sanindusa
100
AcDbLine
 10
3538.999977604877
 20
1201.96488100648
 30
0.0
 11
3539.027494058983
 21
1201.964881006474
 31
0.0
  0
LINE
  5
1816
330
1F
100
AcDbEntity
  8
Sanindusa
100
AcDbLine
 10
3539.027494059298
 20
1201.964881006474
 30
0.0
 11
3539.058029865603
 21
1201.96488100648
 31
0.0
  0
LINE
  5
1817
330
1F
100
AcDbEntity
  8
Sanindusa
100
AcDbLine
 10
3538.990215573984
 20
1201.88488100648
 30
0.0
 11
3538.991979992959
 21
1201.957076463905
 31
0.0
  0
LINE
  5
1818
330
1F
100
AcDbEntity
  8
Sanindusa
100
AcDbLine
 10
3538.990215573984
 20
1201.884881006481
 30
0.0
 11
3539.000486454741
 21
1201.884881006481
 31
0.0
  0
ARC
  5
1819
330
1F
100
AcDbEntity
  8
Sanindusa
100
AcDbCircle
 10
3538.999977604877
 20
1201.95688100648
 30
0.0
 40
0.008
100
AcDbArc
 50
90.00000001177689
 51
178.5999999268537
  0
LINE
  5
181B
330
1F
100
AcDbEntity
  8
Sanindusa
100
AcDbLine
 10
3539.657091799176
 20
1201.964881006464
 30
0.0
 11
3539.684486056234
 21
1201.96488100648
 31
0.0
  0
LINE
  5
181C
330
1F
100
AcDbEntity
  8
Sanindusa
100
AcDbLine
 10
3539.626555992875
 20
1201.96488100648
 30
0.0
 11
3539.657091799176
 21
1201.964881006464
 31
0.0
  0
LINE
  5
181D
330
1F
100
AcDbEntity
  8
Sanindusa
100
AcDbLine
 10
3538.004351766345
 20
1202.377052330316
 30
0.0
 11
3538.004351766345
 21
1201.696664882287
 31
0.0
  0
LINE
  5
1821
330
1F
100
AcDbEntity
  8
Sanindusa
100
AcDbLine
 10
3539.692483668151
 20
1201.957076463916
 30
0.0
 11
3539.694370284494
 21
1201.884881006481
 31
0.0
  0
LINE
  5
1824
330
1F
100
AcDbEntity
  8
Sanindusa
100
AcDbLine
 10
3540.528131811047
 20
1201.884881006481
 30
0.0
 11
3540.549452732406
 21
1201.884881006481
 31
0.0
  0
LINE
  5
1827
330
1F
100
AcDbEntity
  8
Sanindusa
100
AcDbLine
 10
3540.537238825443
 20
1201.904783479362
 30
0.0
 11
3540.461486954838
 21
1201.906229895899
 31
0.0
  0
LINE
  5
182B
330
1F
100
AcDbEntity
  8
Sanindusa
100
AcDbLine
 10
3540.369257151505
 20
1201.96488100648
 30
0.0
 11
3540.769144511037
 21
1201.96488100648
 31
0.0
  0
LINE
  5
182C
330
1F
100
AcDbEntity
  8
Sanindusa
100
AcDbLine
 10
3540.58817459495
 20
1201.913812727605
 30
0.0
 11
3539.943718972177
 21
1201.926118051054
 31
0.0
  0
LWPOLYLINE
  5
182E
330
1F
100
AcDbEntity
  8
Sanindusa
100
AcDbPolyline
 90
        6
 70
   128
 43
0.0
 10
3540.050974970505
 20
1201.884881006481
 10
3540.051392920125
 20
1201.884898500757
 10
3540.053018600598
 20
1201.885317696506
 10
3540.05441388332
 20
1201.886251371023
 10
3540.055421460612
 20
1201.88759425946
 10
3540.055743609984
 20
1201.888377477482
  0
LINE
  5
182F
330
1F
100
AcDbEntity
  8
Sanindusa
100
AcDbLine
 10
3540.050974970505
 20
1201.88488100648
 30
0.0
 11
3540.080350676959
 21
1201.88488100648
 31
0.0
  0
LINE
  5
1832
330
1F
100
AcDbEntity
  8
Sanindusa
100
AcDbLine
 10
3539.924290953649
 20
1201.96488100648
 30
0.0
 11
3540.324178313181
 21
1201.96488100648
 31
0.0
  0
LWPOLYLINE
  5
1833
330
1F
100
AcDbEntity
  8
Sanindusa
100
AcDbPolyline
 90
        6
 70
   128
 43
0.0
 10
3539.868457872248
 20
1201.95488100648
 10
3539.866480467128
 20
1201.897668797441
 10
3539.866963396819
 20
1201.898098700975
 10
3539.870473136749
 20
1201.899541416055
 10
3539.872873188753
 20
1201.89988100648
 10
3539.918163176898
 20
1201.89988100648
  0
LINE
  5
1834
330
1F
100
AcDbEntity
  8
Sanindusa
100
AcDbLine
 10
3539.948128403493
 20
1201.89488100648
 30
0.0
 11
3539.928164452611
 21
1201.89488100648
 31
0.0
  0
ARC
  5
1835
330
1F
100
AcDbEntity
  8
Sanindusa
100
AcDbCircle
 10
3539.918163681574
 20
1201.887379464477
 30
0.0
 40
0.0125015420547595
100
AcDbArc
 50
36.87343112537083
 51
90.01155917847375
  0
LINE
  5
1836
330
1F
100
AcDbEntity
  8
Sanindusa
100
AcDbLine
 10
3539.948128403493
 20
1201.89488100648
 30
0.0
 11
3539.957480022575
 21
1201.915853472919
 31
0.0
  0
LINE
  5
1837
330
1F
100
AcDbEntity
  8
Sanindusa
100
AcDbLine
 10
3539.957480022575
 20
1201.915853472919
 30
0.0
 11
3539.943528065612
 21
1201.916119873486
 31
0.0
  0
LINE
  5
1838
330
1F
100
AcDbEntity
  8
Sanindusa
100
AcDbLine
 10
3540.049973740718
 20
1201.903332883346
 30
0.0
 11
3540.053344330555
 21
1201.914023026764
 31
0.0
  0
LINE
  5
1839
330
1F
100
AcDbEntity
  8
Sanindusa
100
AcDbLine
 10
3540.049973740718
 20
1201.903332883346
 30
0.0
 11
3540.046562320821
 21
1201.914152523382
 31
0.0
  0
LINE
  5
183A
330
1F
100
AcDbEntity
  8
Sanindusa
100
AcDbLine
 10
3540.053344330555
 20
1201.914023026764
 30
0.0
 11
3540.046562320821
 21
1201.914152523382
 31
0.0
  0
ARC
  5
183B
330
1F
100
AcDbEntity
  8
Sanindusa
100
AcDbCircle
 10
3540.052137507354
 20
1201.926048257325
 30
0.0
 40
0.0009999999973928
100
AcDbArc
 50
346.0646460712989
 51
358.9061196331184
  0
ARC
  5
1841
330
1F
100
AcDbEntity
  8
Sanindusa
100
AcDbCircle
 10
3540.051110503062
 20
1201.925930696944
 30
0.0
 40
0.0020013720211029
100
AcDbArc
 50
290.3479942543567
 51
356.4688582950325
  0
LWPOLYLINE
  5
1842
330
1F
100
AcDbEntity
  8
Sanindusa
100
AcDbPolyline
 90
        4
 70
   128
 43
0.0
 10
3540.044212084702
 20
1201.88489374659
 10
3540.046501157983
 20
1201.884900003324
 10
3540.048898718845
 20
1201.884910688126
 10
3540.049114099325
 20
1201.884912295106
  0
ARC
  5
1843
330
1F
100
AcDbEntity
  8
Sanindusa
100
AcDbCircle
 10
3540.048972456638
 20
1201.889881007178
 30
0.0
 40
0.005000000697986
100
AcDbArc
 50
197.5000058703586
 51
270.0000024661156
  0
LINE
  5
1844
330
1F
100
AcDbEntity
  8
Sanindusa
100
AcDbLine
 10
3540.044203871372
 20
1201.888377477482
 30
0.0
 11
3540.037094038983
 21
1201.910926981643
 31
0.0
  0
ARC
  5
1845
330
1F
100
AcDbEntity
  8
Sanindusa
100
AcDbCircle
 10
3540.032325434424
 20
1201.909423426188
 30
0.0
 40
0.0050000268555224
100
AcDbArc
 50
17.50022099601935
 51
88.90590604406579
  0
LINE
  5
1846
330
1F
100
AcDbEntity
  8
Sanindusa
100
AcDbLine
 10
3540.050974970505
 20
1201.884881006481
 30
0.0
 11
3540.048972456521
 21
1201.884881006481
 31
0.0
  0
LWPOLYLINE
  5
1849
330
1F
100
AcDbEntity
  8
Sanindusa
100
AcDbPolyline
 90
        9
 70
   128
 43
0.0
 10
3540.053863329936
 20
1201.927015486512
 10
3540.053725051135
 20
1201.926998908604
 10
3540.053591352668
 20
1201.926944545341
 10
3540.05346737249
 20
1201.926854485871
 10
3540.053357875093
 20
1201.92673219113
 10
3540.053267068399
 20
1201.926582360835
 10
3540.053198442058
 20
1201.926410752882
 10
3540.053154633341
 20
1201.926223962068
 10
3540.053137325795
 20
1201.926029166658
  0
LINE
  5
184D
330
1F
100
AcDbEntity
  8
Sanindusa
100
AcDbLine
 10
3540.024837800728
 20
1201.884881006481
 30
0.0
 11
3540.044353091813
 21
1201.884881006481
 31
0.0
  0
LWPOLYLINE
  5
184E
330
1F
100
AcDbEntity
  8
Sanindusa
100
AcDbPolyline
 90
        5
 70
   128
 43
0.0
 10
3539.971650598258
 20
1201.915582898017
 10
3539.969989626047
 20
1201.915332622671
 10
3539.968505148053
 20
1201.914546583952
 10
3539.967364934727
 20
1201.913313640157
 10
3539.966987251246
 20
1201.912619857545
  0
LINE
  5
184F
330
1F
100
AcDbEntity
  8
Sanindusa
100
AcDbLine
 10
3539.955940141151
 20
1201.887844994258
 30
0.0
 11
3539.966987249571
 21
1201.912619860358
 31
0.0
  0
LWPOLYLINE
  5
1850
330
1F
100
AcDbEntity
  8
Sanindusa
100
AcDbPolyline
 90
        5
 70
   128
 43
0.0
 10
3539.951373047611
 20
1201.884881006481
 10
3539.953028348481
 20
1201.885162923761
 10
3539.954497012234
 20
1201.885976866582
 10
3539.955613531421
 20
1201.887231215663
 10
3539.955940143442
 20
1201.887844992825
  0
LWPOLYLINE
  5
1851
330
1F
100
AcDbEntity
  8
Sanindusa
100
AcDbPolyline
 90
        4
 70
   128
 43
0.0
 10
3539.92330991424
 20
1201.884881006481
 10
3539.923210379838
 20
1201.884881997387
 10
3539.923110924338
 20
1201.884884969319
 10
3539.923011626584
 20
1201.884889919923
  0
ARC
  5
1852
330
1F
100
AcDbEntity
  8
Sanindusa
100
AcDbCircle
 10
3539.923160770412
 20
1201.88738100648
 30
0.0
 40
0.0024955472582869
100
AcDbArc
 50
180.0000000093538
 51
266.5737346725193
  0
ARC
  5
1853
330
1F
100
AcDbEntity
  8
Sanindusa
100
AcDbCircle
 10
3539.918163681574
 20
1201.887379464477
 30
0.0
 40
0.0025015420547595
100
AcDbArc
 50
0.0353183229443348
 51
90.01155917847375
  0
LINE
  5
1854
330
1F
100
AcDbEntity
  8
Sanindusa
100
AcDbLine
 10
3539.951373049804
 20
1201.884881006481
 30
0.0
 11
3539.923309914241
 21
1201.884881006481
 31
0.0
  0
LINE
  5
185A
330
1F
100
AcDbEntity
  8
Sanindusa
100
AcDbLine
 10
3539.951373049804
 20
1201.884881006481
 30
0.0
 11
3539.955668909295
 21
1201.884881006481
 31
0.0
  0
LINE
  5
185B
330
1F
100
AcDbEntity
  8
Sanindusa
100
AcDbLine
 10
3539.922458865118
 20
1201.930965737796
 30
0.0
 11
3539.913396475814
 21
1201.95488100648
 31
0.0
  0
ARC
  5
185C
330
1F
100
AcDbEntity
  8
Sanindusa
100
AcDbCircle
 10
3539.914777380683
 20
1201.956880810571
 30
0.0
 40
0.0080001959090484
100
AcDbArc
 50
20.75415312836867
 51
89.99985774465612
  0
LINE
  5
185D
330
1F
100
AcDbEntity
  8
Sanindusa
100
AcDbLine
 10
3539.931810130291
 20
1201.934509236337
 30
0.0
 11
3539.922258440039
 21
1201.959715749882
 31
0.0
  0
ARC
  5
185E
330
1F
100
AcDbEntity
  8
Sanindusa
100
AcDbCircle
 10
3539.94397144078
 20
1201.939122512503
 30
0.0
 40
0.0130069119294236
100
AcDbArc
 50
200.7737555024486
 51
268.887819114543
  0
LWPOLYLINE
  5
185F
330
1F
100
AcDbEntity
  8
Sanindusa
100
AcDbPolyline
 90
        5
 70
   128
 43
0.0
 10
3539.938571808428
 20
1201.935684513713
 10
3539.939749510633
 20
1201.931863595628
 10
3539.941728047824
 20
1201.928789867063
 10
3539.944301682227
 20
1201.926782949027
 10
3539.94720279502
 20
1201.926051530466
  0
LINE
  5
1862
330
1F
100
AcDbEntity
  8
Sanindusa
100
AcDbLine
 10
3539.938571808419
 20
1201.935684513723
 30
0.0
 11
3539.929755055255
 21
1201.958951558842
 31
0.0
  0
LWPOLYLINE
  5
1863
330
1F
100
AcDbEntity
  8
Sanindusa
100
AcDbPolyline
 90
        5
 70
   128
 43
0.0
 10
3539.929755055263
 20
1201.958951558839
 10
3539.928994456058
 20
1201.961325568343
 10
3539.927734628326
 20
1201.963227833201
 10
3539.926109289853
 20
1201.964456447516
 10
3539.924290953649
 20
1201.96488100648
  0
LINE
  5
1864
330
1F
100
AcDbEntity
  8
Sanindusa
100
AcDbLine
 10
3539.924290953648
 20
1201.96488100648
 30
0.0
 11
3539.914777402038
 21
1201.96488100648
 31
0.0
  0
LWPOLYLINE
  5
1865
330
1F
100
AcDbEntity
  8
Sanindusa
100
AcDbPolyline
 90
        8
 70
   128
 43
0.0
 10
3539.922458865131
 20
1201.930965738363
 10
3539.924134394683
 20
1201.927471765716
 10
3539.926368997575
 20
1201.924306051892
 10
3539.929106619828
 20
1201.921563701573
 10
3539.932263070882
 20
1201.919316072338
 10
3539.935754446055
 20
1201.917634308565
 10
3539.93947734018
 20
1201.916558128255
 10
3539.943528068059
 20
1201.916119873439
  0
LINE
  5
1866
330
1F
100
AcDbEntity
  8
Sanindusa
100
AcDbLine
 10
3540.032420907082
 20
1201.914422541462
 30
0.0
 11
3539.971650569061
 21
1201.915582898575
 31
0.0
  0
LINE
  5
1869
330
1F
100
AcDbEntity
  8
Sanindusa
100
AcDbLine
 10
3539.955668909295
 20
1201.884881006481
 30
0.0
 11
3540.024837800728
 21
1201.884881006481
 31
0.0
  0
ARC
  5
186A
330
1F
100
AcDbEntity
  8
Sanindusa
100
AcDbCircle
 10
3539.866378597461
 20
1201.956880156366
 30
0.0
 40
0.0080008509427782
100
AcDbArc
 50
89.97392644052785
 51
178.0148348204513
  0
LINE
  5
186B
330
1F
100
AcDbEntity
  8
Sanindusa
100
AcDbLine
 10
3539.913396475814
 20
1201.95488100648
 30
0.0
 11
3539.868457872248
 21
1201.95488100648
 31
0.0
  0
LINE
  5
186C
330
1F
100
AcDbEntity
  8
Sanindusa
100
AcDbLine
 10
3539.914777402038
 20
1201.96488100648
 30
0.0
 11
3539.866382217053
 21
1201.96488100648
 31
0.0
  0
LWPOLYLINE
  5
186E
330
1F
100
AcDbEntity
  8
Sanindusa
100
AcDbPolyline
 90
        6
 70
   128
 43
0.0
 10
3539.871167748471
 20
1201.88738100648
 10
3539.871308425482
 20
1201.888207046575
 10
3539.87171459625
 20
1201.888939956915
 10
3539.872340468102
 20
1201.88949710742
 10
3539.873115478734
 20
1201.889815683596
 10
3539.873514151917
 20
1201.889872093039
  0
LWPOLYLINE
  5
186F
330
1F
100
AcDbEntity
  8
Sanindusa
100
AcDbPolyline
 90
        7
 70
   128
 43
0.0
 10
3539.868665395395
 20
1201.884881006481
 10
3539.868996957316
 20
1201.884903052811
 10
3539.869799197365
 20
1201.885152496745
 10
3539.870473974602
 20
1201.885653565734
 10
3539.870944818978
 20
1201.886349847209
 10
3539.871158134039
 20
1201.887162157772
 10
3539.871167748471
 20
1201.88738100648
  0
LINE
  5
1870
330
1F
100
AcDbEntity
  8
Sanindusa
100
AcDbLine
 10
3539.868665395395
 20
1201.884881006481
 30
0.0
 11
3539.855884485792
 21
1201.884881006481
 31
0.0
  0
LINE
  5
1873
330
1F
100
AcDbEntity
  8
Sanindusa
100
AcDbLine
 10
3539.868665395395
 20
1201.884881006483
 30
0.0
 11
3539.870127761788
 21
1201.884881006481
 31
0.0
  0
LINE
  5
1875
330
1F
100
AcDbEntity
  8
Sanindusa
100
AcDbLine
 10
3539.855884485792
 20
1201.884881006481
 30
0.0
 11
3539.858382545369
 21
1201.957157312302
 31
0.0
  0
LINE
  5
1876
330
1F
100
AcDbEntity
  8
Sanindusa
100
AcDbLine
 10
3539.918163176899
 20
1201.88988100648
 30
0.0
 11
3539.873812439558
 21
1201.88988100648
 31
0.0
  0
LINE
  5
1878
330
1F
100
AcDbEntity
  8
Sanindusa
100
AcDbLine
 10
3539.923309914241
 20
1201.884881006481
 30
0.0
 11
3539.870127761788
 21
1201.884881006481
 31
0.0
  0
LINE
  5
1879
330
1F
100
AcDbEntity
  8
Sanindusa
100
AcDbLine
 10
3540.139013212144
 20
1201.900137116738
 30
0.0
 11
3540.142968981172
 21
1201.912311721477
 31
0.0
  0
LINE
  5
187A
330
1F
100
AcDbEntity
  8
Sanindusa
100
AcDbLine
 10
3540.139013212144
 20
1201.900137116738
 30
0.0
 11
3540.135008053031
 21
1201.912463728523
 31
0.0
  0
LINE
  5
187B
330
1F
100
AcDbEntity
  8
Sanindusa
100
AcDbLine
 10
3540.142968981172
 20
1201.912311721477
 30
0.0
 11
3540.135008053031
 21
1201.912463728523
 31
0.0
  0
LINE
  5
187C
330
1F
100
AcDbEntity
  8
Sanindusa
100
AcDbLine
 10
3540.236216812296
 20
1201.910531234687
 30
0.0
 11
3540.223573009984
 21
1201.910772657171
 31
0.0
  0
LINE
  5
187D
330
1F
100
AcDbEntity
  8
Sanindusa
100
AcDbLine
 10
3540.22889028214
 20
1201.89488100648
 30
0.0
 11
3540.223573009984
 21
1201.910772657171
 31
0.0
  0
LINE
  5
187E
330
1F
100
AcDbEntity
  8
Sanindusa
100
AcDbLine
 10
3540.230980318973
 20
1201.89488100648
 30
0.0
 11
3540.22889028214
 21
1201.89488100648
 31
0.0
  0
LINE
  5
187F
330
1F
100
AcDbEntity
  8
Sanindusa
100
AcDbLine
 10
3540.230980318973
 20
1201.89488100648
 30
0.0
 11
3540.236216812296
 21
1201.910531234687
 31
0.0
  0
LINE
  5
1880
330
1F
100
AcDbEntity
  8
Sanindusa
100
AcDbLine
 10
3540.345477579497
 20
1201.908444994714
 30
0.0
 11
3540.332120668079
 21
1201.908700033401
 31
0.0
  0
LINE
  5
1881
330
1F
100
AcDbEntity
  8
Sanindusa
100
AcDbLine
 10
3540.340540691192
 20
1201.89488100648
 30
0.0
 11
3540.345477579497
 21
1201.908444994714
 31
0.0
  0
LINE
  5
1882
330
1F
100
AcDbEntity
  8
Sanindusa
100
AcDbLine
 10
3540.33715038288
 20
1201.89488100648
 30
0.0
 11
3540.332120668079
 21
1201.908700033401
 31
0.0
  0
LINE
  5
1883
330
1F
100
AcDbEntity
  8
Sanindusa
100
AcDbLine
 10
3540.340540691192
 20
1201.89488100648
 30
0.0
 11
3540.33715038288
 21
1201.89488100648
 31
0.0
  0
LINE
  5
1884
330
1F
100
AcDbEntity
  8
Sanindusa
100
AcDbLine
 10
3540.447346939559
 20
1201.906499887277
 30
0.0
 11
3540.442202409745
 21
1201.90659811763
 31
0.0
  0
LINE
  5
1885
330
1F
100
AcDbEntity
  8
Sanindusa
100
AcDbLine
 10
3540.444793528183
 20
1201.899848024171
 30
0.0
 11
3540.442202409745
 21
1201.90659811763
 31
0.0
  0
LINE
  5
1886
330
1F
100
AcDbEntity
  8
Sanindusa
100
AcDbLine
 10
3540.444793528183
 20
1201.899848024171
 30
0.0
 11
3540.447346939559
 21
1201.906499887277
 31
0.0
  0
LINE
  5
1888
330
1F
100
AcDbEntity
  8
Sanindusa
100
AcDbLine
 10
3540.525432825296
 20
1201.884881006481
 30
0.0
 11
3540.528131811047
 21
1201.884881006481
 31
0.0
  0
ARC
  5
188A
330
1F
100
AcDbEntity
  8
Sanindusa
100
AcDbCircle
 10
3540.461391525351
 20
1201.901230775482
 30
0.0
 40
0.0050000311722888
100
AcDbArc
 50
88.90636217290518
 51
158.9997492834658
  0
ARC
  5
188B
330
1F
100
AcDbEntity
  8
Sanindusa
100
AcDbCircle
 10
3540.443263783692
 20
1201.889881007144
 30
0.0
 40
0.0050000006638382
100
AcDbArc
 50
201.0000052315393
 51
270.0000017375107
  0
LINE
  5
188C
330
1F
100
AcDbEntity
  8
Sanindusa
100
AcDbLine
 10
3540.438595881104
 20
1201.888089166733
 30
0.0
 11
3540.432618346447
 21
1201.903661174945
 31
0.0
  0
ARC
  5
188D
330
1F
100
AcDbEntity
  8
Sanindusa
100
AcDbCircle
 10
3540.427950422844
 20
1201.901869304577
 30
0.0
 40
0.0050000310442131
100
AcDbArc
 50
21.00023938041668
 51
88.90588652413965
  0
LINE
  5
188E
330
1F
100
AcDbEntity
  8
Sanindusa
100
AcDbLine
 10
3540.446323270801
 20
1201.884881006481
 30
0.0
 11
3540.44326377762
 21
1201.884881006481
 31
0.0
  0
LWPOLYLINE
  5
188F
330
1F
100
AcDbEntity
  8
Sanindusa
100
AcDbPolyline
 90
        5
 70
   128
 43
0.0
 10
3540.36379304989
 20
1201.927904361386
 10
3540.363259444842
 20
1201.925884008236
 10
3540.362498282245
 20
1201.924010487361
 10
3540.361530316644
 20
1201.922334883867
 10
3540.360587215942
 20
1201.921158858851
  0
LWPOLYLINE
  5
1891
330
1F
100
AcDbEntity
  8
Sanindusa
100
AcDbPolyline
 90
        5
 70
   128
 43
0.0
 10
3540.324178313181
 20
1201.96488100648
 10
3540.325996649386
 20
1201.964456447516
 10
3540.327621987857
 20
1201.963227833202
 10
3540.32888181559
 20
1201.961325568344
 10
3540.329642414795
 20
1201.958951558842
  0
LWPOLYLINE
  5
1892
330
1F
100
AcDbEntity
  8
Sanindusa
100
AcDbPolyline
 90
        5
 70
   128
 43
0.0
 10
3540.36379304989
 20
1201.958951558839
 10
3540.364553649095
 20
1201.961325568343
 10
3540.365813476828
 20
1201.963227833201
 10
3540.367438815299
 20
1201.964456447516
 10
3540.369257151504
 20
1201.96488100648
  0
LINE
  5
1896
330
1F
100
AcDbEntity
  8
Sanindusa
100
AcDbLine
 10
3540.369257151505
 20
1201.96488100648
 30
0.0
 11
3540.346717732343
 21
1201.96488100648
 31
0.0
  0
LINE
  5
1897
330
1F
100
AcDbEntity
  8
Sanindusa
100
AcDbLine
 10
3540.346717732343
 20
1201.96488100648
 30
0.0
 11
3540.32417831318
 21
1201.96488100648
 31
0.0
  0
LINE
  5
1898
330
1F
100
AcDbEntity
  8
Sanindusa
100
AcDbLine
 10
3540.363793049988
 20
1201.958951558842
 30
0.0
 11
3540.363793049827
 21
1201.927904361384
 31
0.0
  0
LINE
  5
1899
330
1F
100
AcDbEntity
  8
Sanindusa
100
AcDbLine
 10
3540.450991175208
 20
1201.888089166732
 30
0.0
 11
3540.456723601861
 21
1201.903022646591
 31
0.0
  0
ARC
  5
189A
330
1F
100
AcDbEntity
  8
Sanindusa
100
AcDbCircle
 10
3540.446323272636
 20
1201.889881007118
 30
0.0
 40
0.0050000006380059
100
AcDbArc
 50
269.9999976599911
 51
338.9999949719246
  0
LINE
  5
189B
330
1F
100
AcDbEntity
  8
Sanindusa
100
AcDbLine
 10
3540.446323270801
 20
1201.884881006481
 30
0.0
 11
3540.525432825529
 21
1201.884881006481
 31
0.0
  0
ARC
  5
189C
330
1F
100
AcDbEntity
  8
Sanindusa
100
AcDbCircle
 10
3540.359522474871
 20
1201.903175880431
 30
0.0
 40
0.0050000277514324
100
AcDbArc
 50
88.90634305972421
 51
159.999772696397
  0
LINE
  5
189D
330
1F
100
AcDbEntity
  8
Sanindusa
100
AcDbLine
 10
3540.348740191907
 20
1201.888170905763
 30
0.0
 11
3540.354823992455
 21
1201.904886009278
 31
0.0
  0
ARC
  5
189E
330
1F
100
AcDbEntity
  8
Sanindusa
100
AcDbCircle
 10
3540.344041728597
 20
1201.889881006776
 30
0.0
 40
0.0050000002957456
100
AcDbArc
 50
269.9999988723351
 51
339.9999976219111
  0
ARC
  5
189F
330
1F
100
AcDbEntity
  8
Sanindusa
100
AcDbCircle
 10
3540.333649345507
 20
1201.889881006821
 30
0.0
 40
0.0050000003406338
100
AcDbArc
 50
200.000002737693
 51
270.0000009609123
  0
LINE
  5
18A0
330
1F
100
AcDbEntity
  8
Sanindusa
100
AcDbLine
 10
3540.328950882165
 20
1201.888170905763
 30
0.0
 11
3540.322577673661
 21
1201.905681151051
 31
0.0
  0
ARC
  5
18A1
330
1F
100
AcDbEntity
  8
Sanindusa
100
AcDbCircle
 10
3540.317879187979
 20
1201.903971018728
 30
0.0
 40
0.0050000320463009
100
AcDbArc
 50
20.00025186176245
 51
88.90587108904389
  0
LINE
  5
18A2
330
1F
100
AcDbEntity
  8
Sanindusa
100
AcDbLine
 10
3540.344041728675
 20
1201.884881006481
 30
0.0
 11
3540.333649342277
 21
1201.884881006481
 31
0.0
  0
ARC
  5
18A3
330
1F
100
AcDbEntity
  8
Sanindusa
100
AcDbCircle
 10
3540.250271126718
 20
1201.905261966006
 30
0.0
 40
0.0050000023049297
100
AcDbArc
 50
88.90613663082719
 51
161.4999805544908
  0
LWPOLYLINE
  5
18A5
330
1F
100
AcDbEntity
  8
Sanindusa
100
AcDbPolyline
 90
        6
 70
   128
 43
0.0
 10
3540.234579801193
 20
1201.88488100648
 10
3540.235085234182
 20
1201.884906618073
 10
3540.236703292958
 20
1201.885354330698
 10
3540.238081944411
 20
1201.886312391725
 10
3540.239065756015
 20
1201.887672787007
 10
3540.239321422144
 20
1201.888294483198
  0
ARC
  5
18A6
330
1F
100
AcDbEntity
  8
Sanindusa
100
AcDbCircle
 10
3540.225290797387
 20
1201.889881006678
 30
0.0
 40
0.0050000001982381
100
AcDbArc
 50
198.5000016350238
 51
270.0000006293871
  0
LINE
  5
18A7
330
1F
100
AcDbEntity
  8
Sanindusa
100
AcDbLine
 10
3540.234579801193
 20
1201.884881006481
 30
0.0
 11
3540.225290797272
 21
1201.884881006481
 31
0.0
  0
ARC
  5
18A8
330
1F
100
AcDbEntity
  8
Sanindusa
100
AcDbCircle
 10
3540.209337940214
 20
1201.906043522196
 30
0.0
 40
0.0050000299484765
100
AcDbArc
 50
18.50024207165182
 51
88.90587958262821
  0
LINE
  5
18AE
330
1F
100
AcDbEntity
  8
Sanindusa
100
AcDbLine
 10
3540.220549178968
 20
1201.888294483198
 30
0.0
 11
3540.214079580185
 21
1201.907630075009
 31
0.0
  0
LINE
  5
18B0
330
1F
100
AcDbEntity
  8
Sanindusa
100
AcDbLine
 10
3540.193928898326
 20
1201.884881006481
 30
0.0
 11
3540.225115787272
 21
1201.884881006481
 31
0.0
  0
LINE
  5
18B1
330
1F
100
AcDbEntity
  8
Sanindusa
100
AcDbLine
 10
3540.239321422145
 20
1201.888294483198
 30
0.0
 11
3540.245529506775
 21
1201.906848491613
 31
0.0
  0
LINE
  5
18B2
330
1F
100
AcDbEntity
  8
Sanindusa
100
AcDbLine
 10
3540.317974663721
 20
1201.908970139135
 30
0.0
 11
3540.250366578379
 21
1201.910261057126
 31
0.0
  0
LINE
  5
18B5
330
1F
100
AcDbEntity
  8
Sanindusa
100
AcDbLine
 10
3540.234579801193
 20
1201.884881006481
 30
0.0
 11
3540.333649345526
 21
1201.884881006487
 31
0.0
  0
LWPOLYLINE
  5
18B6
330
1F
100
AcDbEntity
  8
Sanindusa
100
AcDbPolyline
 90
        3
 70
   128
 43
0.0
 10
3540.332559644924
 20
1201.92169402111
 10
3540.330820117002
 20
1201.924396440199
 10
3540.329642414796
 20
1201.928217358283
  0
ARC
  5
18B7
330
1F
100
AcDbEntity
  8
Sanindusa
100
AcDbCircle
 10
3540.140938110805
 20
1201.889881006647
 30
0.0
 40
0.0050000001666206
100
AcDbArc
 50
269.9999993118326
 51
341.9999986112679
  0
LINE
  5
18B8
330
1F
100
AcDbEntity
  8
Sanindusa
100
AcDbLine
 10
3540.140938110877
 20
1201.884881006481
 30
0.0
 11
3540.193928898425
 21
1201.884881006481
 31
0.0
  0
LINE
  5
18B9
330
1F
100
AcDbEntity
  8
Sanindusa
100
AcDbLine
 10
3540.428045897281
 20
1201.906868424007
 30
0.0
 11
3540.35961790896
 21
1201.908174997337
 31
0.0
  0
LINE
  5
18BB
330
1F
100
AcDbEntity
  8
Sanindusa
100
AcDbLine
 10
3540.344041728675
 20
1201.884881006481
 30
0.0
 11
3540.443088767621
 21
1201.884881006481
 31
0.0
  0
LINE
  5
18BD
330
1F
100
AcDbEntity
  8
Sanindusa
100
AcDbLine
 10
3540.329642414835
 20
1201.928217358297
 30
0.0
 11
3540.329642414696
 21
1201.958951558841
 31
0.0
  0
ARC
  5
18C0
330
1F
100
AcDbEntity
  8
Sanindusa
100
AcDbCircle
 10
3540.120772676554
 20
1201.907734601007
 30
0.0
 40
0.0050000283457892
100
AcDbArc
 50
18.00023124804886
 51
88.90589031673464
  0
ARC
  5
18C1
330
1F
100
AcDbEntity
  8
Sanindusa
100
AcDbCircle
 10
3540.157028804693
 20
1201.907042332331
 30
0.0
 40
0.0050000175750164
100
AcDbArc
 50
88.9062666312351
 51
161.9998506876981
  0
ARC
  5
18C5
330
1F
100
AcDbEntity
  8
Sanindusa
100
AcDbCircle
 10
3540.137088313498
 20
1201.889881006668
 30
0.0
 40
0.0050000001872731
100
AcDbArc
 50
198.0000015608651
 51
270.0000006193298
  0
LINE
  5
18CB
330
1F
100
AcDbEntity
  8
Sanindusa
100
AcDbLine
 10
3540.080350676732
 20
1201.884881006481
 30
0.0
 11
3540.11602927966
 21
1201.884881006481
 31
0.0
  0
LINE
  5
18CD
330
1F
100
AcDbEntity
  8
Sanindusa
100
AcDbLine
 10
3540.116029279736
 20
1201.884881006481
 30
0.0
 11
3540.137087177272
 21
1201.884881006481
 31
0.0
  0
ARC
  5
18CE
330
1F
100
AcDbEntity
  8
Sanindusa
100
AcDbCircle
 10
3540.067410812009
 20
1201.908753512843
 30
0.0
 40
0.0050000152240056
100
AcDbArc
 50
88.90624048741841
 51
162.4998693250931
  0
LINE
  5
18CF
330
1F
100
AcDbEntity
  8
Sanindusa
100
AcDbLine
 10
3540.055743609983
 20
1201.888377477482
 30
0.0
 11
3540.062642216151
 21
1201.910257057288
 31
0.0
  0
LINE
  5
18D2
330
1F
100
AcDbEntity
  8
Sanindusa
100
AcDbLine
 10
3540.080175666733
 20
1201.884881006481
 30
0.0
 11
3540.056869451785
 21
1201.884881006481
 31
0.0
  0
LINE
  5
18D3
330
1F
100
AcDbEntity
  8
Sanindusa
100
AcDbLine
 10
3540.132333030781
 20
1201.888335921508
 30
0.0
 11
3540.125527979841
 21
1201.909279713939
 31
0.0
  0
LINE
  5
18D4
330
1F
100
AcDbEntity
  8
Sanindusa
100
AcDbLine
 10
3540.12086815051
 20
1201.912733717748
 30
0.0
 11
3540.067506254663
 21
1201.913752617056
 31
0.0
  0
LINE
  5
18D7
330
1F
100
AcDbEntity
  8
Sanindusa
100
AcDbLine
 10
3540.209433415138
 20
1201.911042640521
 30
0.0
 11
3540.157124245297
 21
1201.912041438935
 31
0.0
  0
LINE
  5
18D8
330
1F
100
AcDbEntity
  8
Sanindusa
100
AcDbLine
 10
3540.145693393507
 20
1201.888335921508
 30
0.0
 11
3540.152273509417
 21
1201.908587435126
 31
0.0
  0
LINE
  5
18D9
330
1F
100
AcDbEntity
  8
Sanindusa
100
AcDbLine
 10
3540.140938110877
 20
1201.884881006481
 30
0.0
 11
3540.137088313399
 21
1201.884881006481
 31
0.0
  0
LINE
  5
18DC
330
1F
100
AcDbEntity
  8
Sanindusa
100
AcDbLine
 10
3540.55646224114
 20
1201.904416424844
 30
0.0
 11
3540.551420731469
 21
1201.904512688117
 31
0.0
  0
LINE
  5
18DD
330
1F
100
AcDbEntity
  8
Sanindusa
100
AcDbLine
 10
3540.553961422997
 20
1201.89837891816
 30
0.0
 11
3540.55646224114
 21
1201.904416424844
 31
0.0
  0
LINE
  5
18DE
330
1F
100
AcDbEntity
  8
Sanindusa
100
AcDbLine
 10
3540.736144002793
 20
1201.904541137825
 30
0.0
 11
3540.669075205702
 21
1201.903253351132
 31
0.0
  0
LWPOLYLINE
  5
18DF
330
1F
100
AcDbEntity
  8
Sanindusa
100
AcDbPolyline
 90
       19
 70
   128
 43
0.0
 10
3540.824977592438
 20
1201.95488100648
 10
3540.826958140858
 20
1201.897577838433
 10
3540.824661250655
 20
1201.899036670375
 10
3540.821206100894
 20
1201.89984014802
 10
3540.819921697433
 20
1201.899878528613
 10
3540.819672800993
 20
1201.89988100648
 10
3540.773485752339
 20
1201.89988100648
 10
3540.769531653464
 20
1201.898646822225
 10
3540.766125024865
 20
1201.896111407277
 10
3540.765294946216
 20
1201.89488100648
 10
3540.747415480131
 20
1201.89488100648
 10
3540.746190065063
 20
1201.904785138849
 10
3540.749445162504
 20
1201.905125314251
 10
3540.753178266672
 20
1201.906165033459
 10
3540.756681848184
 20
1201.907820925704
 10
3540.759860354664
 20
1201.910037705603
 10
3540.762618404823
 20
1201.912760124185
 10
3540.764883981118
 20
1201.915904266968
 10
3540.766657701743
 20
1201.919568346561
  0
LINE
  5
18E1
330
1F
100
AcDbEntity
  8
Sanindusa
100
AcDbLine
 10
3540.736144002793
 20
1201.904541137825
 30
0.0
 11
3540.738033821137
 21
1201.889267120452
 31
0.0
  0
ARC
  5
18EC
330
1F
100
AcDbEntity
  8
Sanindusa
100
AcDbCircle
 10
3540.827057109709
 20
1201.956880407515
 30
0.0
 40
0.0080005999078898
100
AcDbArc
 50
1.983427826968335
 51
90.02781091462104
  0
LWPOLYLINE
  5
18ED
330
1F
100
AcDbEntity
  8
Sanindusa
100
AcDbPolyline
 90
        7
 70
   128
 43
0.0
 10
3540.77527246939
 20
1201.88988100648
 10
3540.774938334208
 20
1201.889858598079
 10
3540.774136364865
 20
1201.889608281138
 10
3540.773462132638
 20
1201.889106477545
 10
3540.772992047407
 20
1201.888409684244
 10
3540.772779618885
 20
1201.887597145202
 10
3540.772770241531
 20
1201.88738100648
  0
LWPOLYLINE
  5
18EE
330
1F
100
AcDbEntity
  8
Sanindusa
100
AcDbPolyline
 90
        6
 70
   128
 43
0.0
 10
3540.772770241531
 20
1201.88738100648
 10
3540.77262956452
 20
1201.886554966385
 10
3540.772223393752
 20
1201.885822056045
 10
3540.771597521899
 20
1201.88526490554
 10
3540.770822511267
 20
1201.884946329364
 10
3540.770423838093
 20
1201.884889919922
  0
ARC
  5
18F0
330
1F
100
AcDbEntity
  8
Sanindusa
100
AcDbCircle
 10
3540.824769257861
 20
1201.887382548507
 30
0.0
 40
0.0025015421213078
100
AcDbArc
 50
180.0353188741141
 51
270.015717137229
  0
LWPOLYLINE
  5
18F1
330
1F
100
AcDbEntity
  8
Sanindusa
100
AcDbPolyline
 90
        6
 70
   128
 43
0.0
 10
3540.819921312785
 20
1201.889872093038
 10
3540.820737468945
 20
1201.88968230004
 10
3540.821444794854
 20
1201.889233053651
 10
3540.821963544882
 20
1201.888575002993
 10
3540.822235233897
 20
1201.887782338285
 10
3540.822267716214
 20
1201.88738100648
  0
LINE
  5
18F3
330
1F
100
AcDbEntity
  8
Sanindusa
100
AcDbLine
 10
3540.819623025146
 20
1201.88988100648
 30
0.0
 11
3540.77527246939
 21
1201.88988100648
 31
0.0
  0
LINE
  5
18F9
330
1F
100
AcDbEntity
  8
Sanindusa
100
AcDbLine
 10
3540.823307702862
 20
1201.884881006481
 30
0.0
 11
3540.77062317468
 21
1201.884881006481
 31
0.0
  0
LINE
  5
18FA
330
1F
100
AcDbEntity
  8
Sanindusa
100
AcDbLine
 10
3540.837550978892
 20
1201.884881006481
 30
0.0
 11
3540.824769944073
 21
1201.884881006481
 31
0.0
  0
LINE
  5
18FB
330
1F
100
AcDbEntity
  8
Sanindusa
100
AcDbLine
 10
3540.780038988871
 20
1201.95488100648
 30
0.0
 11
3540.766657701757
 21
1201.919568345994
 31
0.0
  0
ARC
  5
18FC
330
1F
100
AcDbEntity
  8
Sanindusa
100
AcDbCircle
 10
3540.745145066568
 20
1201.927725204342
 30
0.0
 40
0.0130069972531224
100
AcDbArc
 50
271.1185519614582
 51
339.2259929600317
  0
LINE
  5
18FD
330
1F
100
AcDbEntity
  8
Sanindusa
100
AcDbLine
 10
3540.771177024649
 20
1201.959715749888
 30
0.0
 11
3540.757306436579
 21
1201.923111844521
 31
0.0
  0
ARC
  5
18FE
330
1F
100
AcDbEntity
  8
Sanindusa
100
AcDbCircle
 10
3540.778658076567
 20
1201.956880821339
 30
0.0
 40
0.0080001851414881
100
AcDbArc
 50
90.00008901085308
 51
159.2459001152414
  0
LINE
  5
18FF
330
1F
100
AcDbEntity
  8
Sanindusa
100
AcDbLine
 10
3540.745398982004
 20
1201.914720685723
 30
0.0
 11
3540.741915017984
 21
1201.914653790276
 31
0.0
  0
LINE
  5
1901
330
1F
100
AcDbEntity
  8
Sanindusa
100
AcDbLine
 10
3540.750544616306
 20
1201.924286746946
 30
0.0
 11
3540.763680409323
 21
1201.958951558842
 31
0.0
  0
LWPOLYLINE
  5
1903
330
1F
100
AcDbEntity
  8
Sanindusa
100
AcDbPolyline
 90
        5
 70
   128
 43
0.0
 10
3540.741915017985
 20
1201.914653790277
 10
3540.744815827983
 20
1201.915385436564
 10
3540.747389084446
 20
1201.917392409017
 10
3540.749367238657
 20
1201.920466037062
 10
3540.750544616356
 20
1201.924286746943
  0
LWPOLYLINE
  5
1904
330
1F
100
AcDbEntity
  8
Sanindusa
100
AcDbPolyline
 90
        5
 70
   128
 43
0.0
 10
3540.769144511037
 20
1201.96488100648
 10
3540.767326174832
 20
1201.964456447516
 10
3540.765700836361
 20
1201.963227833202
 10
3540.764441008628
 20
1201.961325568344
 10
3540.763680409423
 20
1201.958951558841
  0
LINE
  5
1905
330
1F
100
AcDbEntity
  8
Sanindusa
100
AcDbLine
 10
3540.778658062883
 20
1201.96488100648
 30
0.0
 11
3540.769144511038
 21
1201.96488100648
 31
0.0
  0
ARC
  5
1908
330
1F
100
AcDbEntity
  8
Sanindusa
100
AcDbCircle
 10
3540.669113605606
 20
1201.901253692606
 30
0.0
 40
0.0020000271939043
100
AcDbArc
 50
91.10012146215042
 51
150.9449550111552
  0
LINE
  5
1909
330
1F
100
AcDbEntity
  8
Sanindusa
100
AcDbLine
 10
3540.667365275093
 20
1201.902225004968
 30
0.0
 11
3540.666943888311
 21
1201.901466513912
 31
0.0
  0
LWPOLYLINE
  5
190A
330
1F
100
AcDbEntity
  8
Sanindusa
100
AcDbPolyline
 90
        4
 70
   128
 43
0.0
 10
3540.666943888311
 20
1201.901466513912
 10
3540.666798491938
 20
1201.901138549688
 10
3540.666719677938
 20
1201.900825608935
 10
3540.666692201124
 20
1201.90049522805
  0
LINE
  5
190B
330
1F
100
AcDbEntity
  8
Sanindusa
100
AcDbLine
 10
3540.666692201124
 20
1201.90049522805
 30
0.0
 11
3540.666692201124
 21
1201.898993717718
 31
0.0
  0
LWPOLYLINE
  5
190C
330
1F
100
AcDbEntity
  8
Sanindusa
100
AcDbPolyline
 90
        7
 70
   128
 43
0.0
 10
3540.66469218649
 20
1201.896993717717
 10
3540.664923554306
 20
1201.897007145354
 10
3540.665568088453
 20
1201.897195716799
 10
3540.666113869423
 20
1201.89758700252
 10
3540.666499362725
 20
1201.898136885132
 10
3540.666681108376
 20
1201.898783366496
 10
3540.666692201124
 20
1201.898993717718
  0
LINE
  5
190D
330
1F
100
AcDbEntity
  8
Sanindusa
100
AcDbLine
 10
3540.66469218649
 20
1201.896993717717
 30
0.0
 11
3540.65669210844
 21
1201.896993717717
 31
0.0
  0
LINE
  5
190E
330
1F
100
AcDbEntity
  8
Sanindusa
100
AcDbLine
 10
3540.65669210844
 20
1201.903604740389
 30
0.0
 11
3540.65669210844
 21
1201.896993717717
 31
0.0
  0
LWPOLYLINE
  5
190F
330
1F
100
AcDbEntity
  8
Sanindusa
100
AcDbPolyline
 90
        3
 70
   128
 43
0.0
 10
3540.660580238639
 20
1201.910603298183
 10
3540.658753607965
 20
1201.907315396627
 10
3540.65669210844
 20
1201.903604740388
  0
ARC
  5
1910
330
1F
100
AcDbEntity
  8
Sanindusa
100
AcDbCircle
 10
3540.664951075088
 20
1201.908175001683
 30
0.0
 40
0.0050000836899302
100
AcDbArc
 50
91.10011732930988
 51
150.9448547078815
  0
LINE
  5
191C
330
1F
100
AcDbEntity
  8
Sanindusa
100
AcDbLine
 10
3540.627273760011
 20
1201.884881006481
 30
0.0
 11
3540.738610729145
 21
1201.884881006481
 31
0.0
  0
LWPOLYLINE
  5
191D
330
1F
100
AcDbEntity
  8
Sanindusa
100
AcDbPolyline
 90
        6
 70
   128
 43
0.0
 10
3540.738033818378
 20
1201.88926711822
 10
3540.738516808693
 20
1201.887659195387
 10
3540.739504834024
 20
1201.886301797621
 10
3540.740886459146
 20
1201.885347939704
 10
3540.742505914959
 20
1201.884905129936
 10
3540.742996363897
 20
1201.884881006481
  0
LINE
  5
191E
330
1F
100
AcDbEntity
  8
Sanindusa
100
AcDbLine
 10
3540.741915017918
 20
1201.914653790275
 30
0.0
 11
3540.662440625393
 21
1201.913127804771
 31
0.0
  0
LINE
  5
191F
330
1F
100
AcDbEntity
  8
Sanindusa
100
AcDbLine
 10
3540.738610729278
 20
1201.884881006481
 30
0.0
 11
3540.742996369751
 21
1201.884881006481
 31
0.0
  0
LWPOLYLINE
  5
1925
330
1F
100
AcDbEntity
  8
Sanindusa
100
AcDbPolyline
 90
        9
 70
   128
 43
0.0
 10
3540.662440644608
 20
1201.913127804402
 10
3540.659858044762
 20
1201.913081552599
 10
3540.656402929048
 20
1201.913030109567
 10
3540.652218226901
 20
1201.912983792979
 10
3540.64735597477
 20
1201.912951974122
 10
3540.642001847554
 20
1201.912944287105
 10
3540.636235259156
 20
1201.912968072533
 10
3540.630245907106
 20
1201.91302798497
 10
3540.624152539277
 20
1201.913125759836
  0
ARC
  5
1928
330
1F
100
AcDbEntity
  8
Sanindusa
100
AcDbCircle
 10
3540.588079129029
 20
1201.90881355738
 30
0.0
 40
0.0050000816670404
100
AcDbArc
 50
29.05513228826916
 51
88.90600699400065
  0
LWPOLYLINE
  5
1929
330
1F
100
AcDbEntity
  8
Sanindusa
100
AcDbPolyline
 90
        3
 70
   128
 43
0.0
 10
3540.596692849907
 20
1201.903604740388
 10
3540.594570910979
 20
1201.907424186375
 10
3540.592449964242
 20
1201.9112418519
  0
LINE
  5
192A
330
1F
100
AcDbEntity
  8
Sanindusa
100
AcDbLine
 10
3540.596692849907
 20
1201.896993717717
 30
0.0
 11
3540.596692849907
 21
1201.903604740389
 31
0.0
  0
LINE
  5
192B
330
1F
100
AcDbEntity
  8
Sanindusa
100
AcDbLine
 10
3540.596692849907
 20
1201.896993717717
 30
0.0
 11
3540.588692771857
 21
1201.896993717717
 31
0.0
  0
ARC
  5
192C
330
1F
100
AcDbEntity
  8
Sanindusa
100
AcDbCircle
 10
3540.588692763152
 20
1201.898993723647
 30
0.0
 40
0.0020000059296197
100
AcDbArc
 50
180.0001698700803
 51
270.0002493700127
  0
LINE
  5
192D
330
1F
100
AcDbEntity
  8
Sanindusa
100
AcDbLine
 10
3540.586692757223
 20
1201.898993717718
 30
0.0
 11
3540.586692757223
 21
1201.90049522805
 31
0.0
  0
LWPOLYLINE
  5
192E
330
1F
100
AcDbEntity
  8
Sanindusa
100
AcDbPolyline
 90
        4
 70
   128
 43
0.0
 10
3540.586692757223
 20
1201.90049522805
 10
3540.586660581841
 20
1201.90085253099
 10
3540.586577499097
 20
1201.901164365598
 10
3540.586441070036
 20
1201.901466513912
  0
LINE
  5
192F
330
1F
100
AcDbEntity
  8
Sanindusa
100
AcDbLine
 10
3540.586441070037
 20
1201.901466513912
 30
0.0
 11
3540.585665170482
 21
1201.902863123707
 31
0.0
  0
ARC
  5
1930
330
1F
100
AcDbEntity
  8
Sanindusa
100
AcDbCircle
 10
3540.583916840127
 20
1201.901891811815
 30
0.0
 40
0.002000026619067
100
AcDbArc
 50
29.05503575157243
 51
88.90600165272083
  0
LINE
  5
1931
330
1F
100
AcDbEntity
  8
Sanindusa
100
AcDbLine
 10
3540.583955027061
 20
1201.903891473845
 30
0.0
 11
3540.570610984012
 21
1201.90414626682
 31
0.0
  0
LINE
  5
1932
330
1F
100
AcDbEntity
  8
Sanindusa
100
AcDbLine
 10
3540.560472830311
 20
1201.887967589319
 30
0.0
 11
3540.565896133336
 21
1201.901060595846
 31
0.0
  0
LWPOLYLINE
  5
1933
330
1F
100
AcDbEntity
  8
Sanindusa
100
AcDbPolyline
 90
        5
 70
   128
 43
0.0
 10
3540.555853430935
 20
1201.884881006481
 10
3540.557508459958
 20
1201.885162862679
 10
3540.558976897014
 20
1201.885976654188
 10
3540.560093186679
 20
1201.887230632066
 10
3540.560472830311
 20
1201.887967589318
  0
LWPOLYLINE
  5
1934
330
1F
100
AcDbEntity
  8
Sanindusa
100
AcDbPolyline
 90
        5
 70
   128
 43
0.0
 10
3540.547450015486
 20
1201.887967589318
 10
3540.548343768521
 20
1201.886546404574
 10
3540.549657559676
 20
1201.885501170955
 10
3540.551243269334
 20
1201.884949730351
 10
3540.552069414732
 20
1201.884881006481
  0
LINE
  5
1935
330
1F
100
AcDbEntity
  8
Sanindusa
100
AcDbLine
 10
3540.547450015486
 20
1201.887967589319
 30
0.0
 11
3540.541762770988
 21
1201.901697807669
 31
0.0
  0
LINE
  5
1936
330
1F
100
AcDbEntity
  8
Sanindusa
100
AcDbLine
 10
3540.555853431188
 20
1201.884881006481
 30
0.0
 11
3540.55206941412
 21
1201.884881006481
 31
0.0
  0
LWPOLYLINE
  5
1941
330
1F
100
AcDbEntity
  8
Sanindusa
100
AcDbPolyline
 90
        5
 70
   128
 43
0.0
 10
3540.585413282493
 20
1201.914865634757
 10
3540.585455075491
 20
1201.914452579738
 10
3540.585603251056
 20
1201.914088123942
 10
3540.58577307547
 20
1201.913912401277
 10
3540.585952827442
 20
1201.913855150336
  0
LINE
  5
1943
330
1F
100
AcDbEntity
  8
Sanindusa
100
AcDbLine
 10
3540.585413282478
 20
1201.914865634758
 30
0.0
 11
3540.58543237312
 21
1201.915865452514
 31
0.0
  0
LWPOLYLINE
  5
1945
330
1F
100
AcDbEntity
  8
Sanindusa
100
AcDbPolyline
 90
        6
 70
   128
 43
0.0
 10
3540.585432545027
 20
1201.915876119178
 10
3540.585395569122
 20
1201.916256289561
 10
3540.585280210862
 20
1201.91657935598
 10
3540.585103797774
 20
1201.916796791845
 10
3540.58502831026
 20
1201.916843289576
 10
3540.584892828207
 20
1201.916875936934
  0
LINE
  5
1947
330
1F
100
AcDbEntity
  8
Sanindusa
100
AcDbLine
 10
3540.5848928282
 20
1201.916875936935
 30
0.0
 11
3540.053794190536
 21
1201.927007197558
 31
0.0
  0
LINE
  5
194C
330
1F
100
AcDbEntity
  8
Sanindusa
100
AcDbLine
 10
3540.549452732559
 20
1201.884881006481
 30
0.0
 11
3540.552069163308
 21
1201.884881006481
 31
0.0
  0
LWPOLYLINE
  5
1958
330
1F
100
AcDbEntity
  8
Sanindusa
100
AcDbPolyline
 90
        5
 70
   128
 43
0.0
 10
3540.541762771026
 20
1201.90169780769
 10
3540.540868601794
 20
1201.903119415908
 10
3540.539554188576
 20
1201.904164716062
 10
3540.537968189009
 20
1201.904715796151
 10
3540.537238825205
 20
1201.904783479367
  0
LINE
  5
195F
330
1F
100
AcDbEntity
  8
Sanindusa
100
AcDbLine
 10
3540.555853431188
 20
1201.884881006481
 30
0.0
 11
3540.605761938215
 21
1201.884881006481
 31
0.0
  0
LINE
  5
1961
330
1F
100
AcDbEntity
  8
Sanindusa
100
AcDbLine
 10
3540.596692849907
 20
1201.896993717717
 30
0.0
 11
3540.65669210844
 21
1201.896993717717
 31
0.0
  0
LINE
  5
1963
330
1F
100
AcDbEntity
  8
Sanindusa
100
AcDbLine
 10
3540.624152539277
 20
1201.913125759835
 30
0.0
 11
3540.58817459495
 21
1201.913812727605
 31
0.0
  0
LINE
  5
1965
330
1F
100
AcDbEntity
  8
Sanindusa
100
AcDbLine
 10
3540.605761938025
 20
1201.884881006481
 30
0.0
 11
3540.627273759934
 21
1201.884881006481
 31
0.0
  0
LINE
  5
1966
330
1F
100
AcDbEntity
  8
Sanindusa
100
AcDbLine
 10
3540.770125550445
 20
1201.884881006481
 30
0.0
 11
3540.742996369751
 21
1201.884881006481
 31
0.0
  0
LINE
  5
1967
330
1F
100
AcDbEntity
  8
Sanindusa
100
AcDbLine
 10
3540.835052919316
 20
1201.957157312302
 30
0.0
 11
3540.837550978892
 21
1201.884881006481
 31
0.0
  0
LINE
  5
1968
330
1F
100
AcDbEntity
  8
Sanindusa
100
AcDbLine
 10
3540.824977592438
 20
1201.95488100648
 30
0.0
 11
3540.780038988871
 21
1201.95488100648
 31
0.0
  0
LINE
  5
1969
330
1F
100
AcDbEntity
  8
Sanindusa
100
AcDbLine
 10
3540.827053228108
 20
1201.96488100648
 30
0.0
 11
3540.778658062883
 21
1201.96488100648
 31
0.0
  0
LINE
  5
1A48
330
1F
100
AcDbEntity
  8
Sanindusa
100
AcDbLine
 10
3538.203605520435
 20
1201.96488100648
 30
0.0
 11
3538.772131647706
 21
1201.96488100648
 31
0.0
  0
LINE
  5
1A49
330
1F
100
AcDbEntity
  8
Sanindusa
100
AcDbLine
 10
3538.146062109574
 20
1201.884881006481
 30
0.0
 11
3538.82967505857
 21
1201.884881006481
 31
0.0
  0
ARC
  5
1A4A
330
1F
100
AcDbEntity
  8
Sanindusa
100
AcDbCircle
 10
3538.14555325971
 20
1201.95688100648
 30
0.0
 40
0.008
100
AcDbArc
 50
90.00000001177689
 51
178.5999999268537
  0
LINE
  5
1A4B
330
1F
100
AcDbEntity
  8
Sanindusa
100
AcDbLine
 10
3538.135791228817
 20
1201.884881006481
 30
0.0
 11
3538.146062109574
 21
1201.884881006481
 31
0.0
  0
LINE
  5
1A4C
330
1F
100
AcDbEntity
  8
Sanindusa
100
AcDbLine
 10
3538.135791228817
 20
1201.88488100648
 30
0.0
 11
3538.137555647792
 21
1201.957076463905
 31
0.0
  0
LINE
  5
1A4D
330
1F
100
AcDbEntity
  8
Sanindusa
100
AcDbLine
 10
3538.173069714132
 20
1201.964881006474
 30
0.0
 11
3538.203605520435
 21
1201.96488100648
 31
0.0
  0
LINE
  5
1A4E
330
1F
100
AcDbEntity
  8
Sanindusa
100
AcDbLine
 10
3538.14555325971
 20
1201.96488100648
 30
0.0
 11
3538.173069713817
 21
1201.964881006474
 31
0.0
  0
LINE
  5
1A53
330
1F
100
AcDbEntity
  8
Sanindusa
100
AcDbLine
 10
3538.82967505857
 20
1201.884881006481
 30
0.0
 11
3538.839945939327
 21
1201.884881006481
 31
0.0
  0
ARC
  5
1A54
330
1F
100
AcDbEntity
  8
Sanindusa
100
AcDbCircle
 10
3538.830061711065
 20
1201.95688100648
 30
0.0
 40
0.008
100
AcDbArc
 50
1.400000073172349
 51
89.99999998822309
  0
LINE
  5
1A55
330
1F
100
AcDbEntity
  8
Sanindusa
100
AcDbLine
 10
3538.838059322984
 20
1201.957076463916
 30
0.0
 11
3538.839945939327
 21
1201.884881006481
 31
0.0
  0
LINE
  5
1A56
330
1F
100
AcDbEntity
  8
Sanindusa
100
AcDbLine
 10
3538.772131647708
 20
1201.96488100648
 30
0.0
 11
3538.802667454009
 21
1201.964881006464
 31
0.0
  0
LINE
  5
1A57
330
1F
100
AcDbEntity
  8
Sanindusa
100
AcDbLine
 10
3538.802667454009
 20
1201.964881006464
 30
0.0
 11
3538.830061711067
 21
1201.96488100648
 31
0.0
  0
ARC
  5
1A74
330
1F
100
AcDbEntity
  8
Sanindusa
100
AcDbCircle
 10
3540.57051553073
 20
1201.899147178037
 30
0.0
 40
0.005
100
AcDbArc
 50
88.90611950609802
 51
157.4999919702807
  0
LINE
  5
1A82
330
1F
100
AcDbEntity
  8
cotas
100
AcDbLine
 10
3540.553961422997
 20
1201.89837891816
 30
0.0
 11
3540.551420731469
 21
1201.904512688117
 31
0.0
  0
ENDSEC
  0
SECTION
  2
OBJECTS
  0
DICTIONARY
  5
C
330
0
100
AcDbDictionary
281
     1
  3
ACAD_COLOR
350
1A7B
  3
ACAD_GROUP
350
D
  3
ACAD_LAYOUT
350
1A
  3
ACAD_MATERIAL
350
1A7A
  3
ACAD_MLEADERSTYLE
350
1ADD
  3
ACAD_MLINESTYLE
350
17
  3
ACAD_PLOTSETTINGS
350
19
  3
ACAD_PLOTSTYLENAME
350
E
  3
ACAD_SCALELIST
350
1ACB
  3
ACAD_TABLESTYLE
350
1A7C
  3
ACAD_VISUALSTYLE
350
1AB7
  3
ACDB_RECOMPOSE_DATA
350
1B0A
  3
AcDbVariableDictionary
350
3D
  3
ASE_INDEX_DICTIONARY
350
1B01
  3
DWGPROPS
350
1B0B
  0
DICTIONARY
  5
1AE3
330
10
100
AcDbDictionary
280
     1
281
     1
  3
ADSK_XREC_LAYER_RECONCILED
360
1AE4
  0
DICTIONARY
  5
1AE5
330
2F
100
AcDbDictionary
280
     1
281
     1
  3
ADSK_XREC_LAYER_RECONCILED
360
1AE6
  0
DICTIONARY
  5
1AE7
330
30
100
AcDbDictionary
280
     1
281
     1
  3
ADSK_XREC_LAYER_RECONCILED
360
1AE8
  0
DICTIONARY
  5
1AE9
330
31
100
AcDbDictionary
280
     1
281
     1
  3
ADSK_XREC_LAYER_RECONCILED
360
1AEA
  0
DICTIONARY
  5
1AEB
330
32
100
AcDbDictionary
280
     1
281
     1
  3
ADSK_XREC_LAYER_RECONCILED
360
1AEC
  0
DICTIONARY
  5
1AED
330
33
100
AcDbDictionary
280
     1
281
     1
  3
ADSK_XREC_LAYER_RECONCILED
360
1AEE
  0
DICTIONARY
  5
1AEF
330
34
100
AcDbDictionary
280
     1
281
     1
  3
ADSK_XREC_LAYER_RECONCILED
360
1AF0
  0
DICTIONARY
  5
1AF1
330
35
100
AcDbDictionary
280
     1
281
     1
  3
ADSK_XREC_LAYER_RECONCILED
360
1AF2
  0
DICTIONARY
  5
1AF3
330
36
100
AcDbDictionary
280
     1
281
     1
  3
ADSK_XREC_LAYER_RECONCILED
360
1AF4
  0
DICTIONARY
  5
1AF5
330
37
100
AcDbDictionary
280
     1
281
     1
  3
ADSK_XREC_LAYER_RECONCILED
360
1AF6
  0
DICTIONARY
  5
1AF7
330
5D6
100
AcDbDictionary
280
     1
281
     1
  3
ADSK_XREC_LAYER_RECONCILED
360
1AF8
  0
DICTIONARY
  5
1AF9
330
8AF
100
AcDbDictionary
280
     1
281
     1
  3
ADSK_XREC_LAYER_RECONCILED
360
1AFA
  0
DICTIONARY
  5
1AFB
330
8F8
100
AcDbDictionary
280
     1
281
     1
  3
ADSK_XREC_LAYER_RECONCILED
360
1AFC
  0
DICTIONARY
  5
1AFD
330
91D
100
AcDbDictionary
280
     1
281
     1
  3
ADSK_XREC_LAYER_RECONCILED
360
1AFE
  0
DICTIONARY
  5
1AFF
330
BA2
100
AcDbDictionary
280
     1
281
     1
  3
ADSK_XREC_LAYER_RECONCILED
360
1B00
  0
DICTIONARY
  5
1A7B
102
{ACAD_REACTORS
330
C
102
}
330
C
100
AcDbDictionary
281
     1
  0
DICTIONARY
  5
D
102
{ACAD_REACTORS
330
C
102
}
330
C
100
AcDbDictionary
281
     1
  0
DICTIONARY
  5
1A
102
{ACAD_REACTORS
330
C
102
}
330
C
100
AcDbDictionary
281
     1
  3
Layout1
350
1E
  3
Layout2
350
26
  3
Model
350
22
  0
DICTIONARY
  5
1A7A
102
{ACAD_REACTORS
330
C
102
}
330
C
100
AcDbDictionary
281
     1
  3
ByBlock
350
1AA7
  3
ByLayer
350
1A9F
  3
Global
350
1AAF
  0
DICTIONARY
  5
1ADD
102
{ACAD_REACTORS
330
C
102
}
330
C
100
AcDbDictionary
281
     1
  3
Standard
350
1ADE
  0
DICTIONARY
  5
17
102
{ACAD_REACTORS
330
C
102
}
330
C
100
AcDbDictionary
281
     1
  3
Standard
350
18
  0
DICTIONARY
  5
19
102
{ACAD_REACTORS
330
C
102
}
330
C
100
AcDbDictionary
281
     1
  0
ACDBDICTIONARYWDFLT
  5
E
102
{ACAD_REACTORS
330
C
102
}
330
C
100
AcDbDictionary
281
     1
  3
Normal
350
F
100
AcDbDictionaryWithDefault
340
F
  0
DICTIONARY
  5
1ACB
102
{ACAD_REACTORS
330
C
102
}
330
C
100
AcDbDictionary
281
     1
  3
A0
350
1ACC
  3
A1
350
1ACD
  3
A2
350
1ACE
  3
A3
350
1ACF
  3
A4
350
1AD0
  3
A5
350
1AD1
  3
A6
350
1AD2
  3
A7
350
1AD3
  3
A8
350
1AD4
  3
A9
350
1AD5
  3
B0
350
1AD6
  3
B1
350
1AD7
  3
B2
350
1AD8
  3
B3
350
1AD9
  3
B4
350
1ADA
  3
B5
350
1ADB
  3
B6
350
1ADC
  0
DICTIONARY
  5
1A7C
102
{ACAD_REACTORS
330
C
102
}
330
C
100
AcDbDictionary
281
     1
  3
Standard
350
1A7D
  0
DICTIONARY
  5
1AB7
102
{ACAD_REACTORS
330
C
102
}
330
C
100
AcDbDictionary
281
     1
  3
2dWireframe
350
1ABD
  3
3D Hidden
350
1ABF
  3
3dWireframe
350
1ABE
  3
Basic
350
1ABC
  3
Brighten
350
1AC3
  3
ColorChange
350
1AC7
  3
Conceptual
350
1AC0
  3
Dim
350
1AC2
  3
EdgeColorOff
350
1ACA
  3
Facepattern
350
1AC6
  3
Flat
350
1AB8
  3
FlatWithEdges
350
1AB9
  3
Gouraud
350
1ABA
  3
GouraudWithEdges
350
1ABB
  3
JitterOff
350
1AC8
  3
Linepattern
350
1AC5
  3
OverhangOff
350
1AC9
  3
Realistic
350
1AC1
  3
Thicken
350
1AC4
  0
XRECORD
  5
1B0A
102
{ACAD_REACTORS
330
C
102
}
330
C
100
AcDbXrecord
280
     1
 90
        1
330
1A7D
  0
DICTIONARY
  5
3D
102
{ACAD_REACTORS
330
C
102
}
330
C
100
AcDbDictionary
281
     1
  3
CANNOSCALE
350
1B04
  3
CMLEADERSTYLE
350
1B03
  3
CTABLESTYLE
350
1A9C
  3
DIMASSOC
350
3F
  3
HIDETEXT
350
3E
  3
INDEXCTL
350
1B06
  3
PROJECTNAME
350
1A9D
  3
SORTENTS
350
1B05
  3
XCLIPFRAME
350
1B07
  0
DICTIONARY
  5
1B01
102
{ACAD_REACTORS
330
C
102
}
330
C
100
AcDbDictionary
281
     1
  3
ASEBlockHierarchyIndexRecord
350
1B02
1001
DCO15
1040
1757670926.859
  0
XRECORD
  5
1B0B
102
{ACAD_REACTORS
330
C
102
}
330
C
100
AcDbXrecord
280
     1
  1
DWGPROPS COOKIE
  2

  3

  4

  6

  7

  8
Julio
  9

300
=
301
=
302
=
303
=
304
=
305
=
306
=
307
=
308
=
309
=
 40
0.0103379976851852
 41
2453157.650586296
 42
2456146.625357165
  1

 90
        0
  0
XRECORD
  5
1AE4
102
{ACAD_REACTORS
330
1AE3
102
}
330
1AE3
100
AcDbXrecord
280
     1
290
     1
  0
XRECORD
  5
1AE6
102
{ACAD_REACTORS
330
1AE5
102
}
330
1AE5
100
AcDbXrecord
280
     1
290
     1
  0
XRECORD
  5
1AE8
102
{ACAD_REACTORS
330
1AE7
102
}
330
1AE7
100
AcDbXrecord
280
     1
290
     1
  0
XRECORD
  5
1AEA
102
{ACAD_REACTORS
330
1AE9
102
}
330
1AE9
100
AcDbXrecord
280
     1
290
     1
  0
XRECORD
  5
1AEC
102
{ACAD_REACTORS
330
1AEB
102
}
330
1AEB
100
AcDbXrecord
280
     1
290
     1
  0
XRECORD
  5
1AEE
102
{ACAD_REACTORS
330
1AED
102
}
330
1AED
100
AcDbXrecord
280
     1
290
     1
  0
XRECORD
  5
1AF0
102
{ACAD_REACTORS
330
1AEF
102
}
330
1AEF
100
AcDbXrecord
280
     1
290
     1
  0
XRECORD
  5
1AF2
102
{ACAD_REACTORS
330
1AF1
102
}
330
1AF1
100
AcDbXrecord
280
     1
290
     1
  0
XRECORD
  5
1AF4
102
{ACAD_REACTORS
330
1AF3
102
}
330
1AF3
100
AcDbXrecord
280
     1
290
     1
  0
XRECORD
  5
1AF6
102
{ACAD_REACTORS
330
1AF5
102
}
330
1AF5
100
AcDbXrecord
280
     1
290
     1
  0
XRECORD
  5
1AF8
102
{ACAD_REACTORS
330
1AF7
102
}
330
1AF7
100
AcDbXrecord
280
     1
290
     1
  0
XRECORD
  5
1AFA
102
{ACAD_REACTORS
330
1AF9
102
}
330
1AF9
100
AcDbXrecord
280
     1
290
     1
  0
XRECORD
  5
1AFC
102
{ACAD_REACTORS
330
1AFB
102
}
330
1AFB
100
AcDbXrecord
280
     1
290
     1
  0
XRECORD
  5
1AFE
102
{ACAD_REACTORS
330
1AFD
102
}
330
1AFD
100
AcDbXrecord
280
     1
290
     1
  0
XRECORD
  5
1B00
102
{ACAD_REACTORS
330
1AFF
102
}
330
1AFF
100
AcDbXrecord
280
     1
290
     1
  0
LAYOUT
  5
1E
102
{ACAD_XDICTIONARY
360
1B0C
102
}
102
{ACAD_REACTORS
330
1A
102
}
330
1A
100
AcDbPlotSettings
  1

  2
Ploter HP500
  4

  6

 40
0.0
 41
0.0
 42
0.0
 43
0.0
 44
0.0
 45
0.0
 46
0.0
 47
0.0
 48
0.0
 49
0.0
140
0.0
141
0.0
142
1.0
143
1.0
 70
   688
 72
     0
 73
     0
 74
     5
  7
monochrome.ctb
 75
    16
147
1.0
148
0.0
149
0.0
100
AcDbLayout
  1
Layout1
 70
     1
 71
     1
 10
0.0
 20
0.0
 11
420.0
 21
297.0
 12
0.0
 22
0.0
 32
0.0
 14
1.000000000000000E+20
 24
1.000000000000000E+20
 34
1.000000000000000E+20
 15
-1.000000000000000E+20
 25
-1.000000000000000E+20
 35
-1.000000000000000E+20
146
0.0
 13
0.0
 23
0.0
 33
0.0
 16
1.0
 26
0.0
 36
0.0
 17
0.0
 27
1.0
 37
0.0
 76
     0
330
1B
  0
LAYOUT
  5
26
102
{ACAD_XDICTIONARY
360
1B10
102
}
102
{ACAD_REACTORS
330
1A
102
}
330
1A
100
AcDbPlotSettings
  1

  2
Ploter HP500
  4

  6

 40
0.0
 41
0.0
 42
0.0
 43
0.0
 44
0.0
 45
0.0
 46
0.0
 47
0.0
 48
0.0
 49
0.0
140
0.0
141
0.0
142
1.0
143
1.0
 70
   688
 72
     0
 73
     0
 74
     5
  7
monochrome.ctb
 75
    16
147
1.0
148
0.0
149
0.0
100
AcDbLayout
  1
Layout2
 70
     1
 71
     2
 10
0.0
 20
0.0
 11
12.0
 21
9.0
 12
0.0
 22
0.0
 32
0.0
 14
0.0
 24
0.0
 34
0.0
 15
0.0
 25
0.0
 35
0.0
146
0.0
 13
0.0
 23
0.0
 33
0.0
 16
1.0
 26
0.0
 36
0.0
 17
0.0
 27
1.0
 37
0.0
 76
     0
330
23
  0
LAYOUT
  5
22
102
{ACAD_XDICTIONARY
360
1B0E
102
}
102
{ACAD_REACTORS
330
1A
102
}
330
1A
100
AcDbPlotSettings
  1

  2
Ploter HP500
  4
User268
  6

 40
4.995333194732666
 41
16.97565841674804
 42
4.995330810546875
 43
16.97567749023437
 44
209.9733276367187
 45
296.9259948730469
 46
0.0
 47
0.0
 48
0.0
 49
0.0
140
0.0
141
0.0
142
1.0
143
1.0
 70
 11952
 72
     1
 73
     1
 74
     0
  7

 75
     0
147
1.0
148
-427.5957866592534
149
7.362384574453926
100
AcDbLayout
  1
Model
 70
     1
 71
     0
 10
0.0
 20
0.0
 11
12.0
 21
9.0
 12
0.0
 22
0.0
 32
0.0
 14
0.0
 24
0.0
 34
0.0
 15
0.0
 25
0.0
 35
0.0
146
0.0
 13
0.0
 23
0.0
 33
0.0
 16
1.0
 26
0.0
 36
0.0
 17
0.0
 27
1.0
 37
0.0
 76
     0
330
1F
331
1A94
  0
MATERIAL
  5
1AA7
102
{ACAD_XDICTIONARY
360
1AA8
102
}
102
{ACAD_REACTORS
330
1A7A
102
}
330
1A7A
100
AcDbMaterial
  1
ByBlock
 72
     0
 43
0.0008202099737533
 43
0.0
 43
0.0
 43
0.0
 43
0.0
 43
0.0008202099737533
 43
0.0
 43
0.0
 43
0.0
 43
0.0
 43
1.0
 43
0.0
 43
0.0
 43
0.0
 43
0.0
 43
1.0
 77
     0
 47
0.0008202099737533
 47
0.0
 47
0.0
 47
0.0
 47
0.0
 47
0.0008202099737533
 47
0.0
 47
0.0
 47
0.0
 47
0.0
 47
1.0
 47
0.0
 47
0.0
 47
0.0
 47
0.0
 47
1.0
171
     0
 49
0.0008202099737533
 49
0.0
 49
0.0
 49
0.0
 49
0.0
 49
0.0008202099737533
 49
0.0
 49
0.0
 49
0.0
 49
0.0
 49
1.0
 49
0.0
 49
0.0
 49
0.0
 49
0.0
 49
1.0
175
     0
142
0.0008202099737533
142
0.0
142
0.0
142
0.0
142
0.0
142
0.0008202099737533
142
0.0
142
0.0
142
0.0
142
0.0
142
1.0
142
0.0
142
0.0
142
0.0
142
0.0
142
1.0
179
     0
144
0.0008202099737533
144
0.0
144
0.0
144
0.0
144
0.0
144
0.0008202099737533
144
0.0
144
0.0
144
0.0
144
0.0
144
1.0
144
0.0
144
0.0
144
0.0
144
0.0
144
1.0
147
0.0008202099737533
147
0.0
147
0.0
147
0.0
147
0.0
147
0.0008202099737533
147
0.0
147
0.0
147
0.0
147
0.0
147
1.0
147
0.0
147
0.0
147
0.0
147
0.0
147
1.0
  0
MATERIAL
  5
1A9F
102
{ACAD_XDICTIONARY
360
1AA0
102
}
102
{ACAD_REACTORS
330
1A7A
102
}
330
1A7A
100
AcDbMaterial
  1
ByLayer
 72
     0
 43
0.0008202099737533
 43
0.0
 43
0.0
 43
0.0
 43
0.0
 43
0.0008202099737533
 43
0.0
 43
0.0
 43
0.0
 43
0.0
 43
1.0
 43
0.0
 43
0.0
 43
0.0
 43
0.0
 43
1.0
 77
     0
 47
0.0008202099737533
 47
0.0
 47
0.0
 47
0.0
 47
0.0
 47
0.0008202099737533
 47
0.0
 47
0.0
 47
0.0
 47
0.0
 47
1.0
 47
0.0
 47
0.0
 47
0.0
 47
0.0
 47
1.0
171
     0
 49
0.0008202099737533
 49
0.0
 49
0.0
 49
0.0
 49
0.0
 49
0.0008202099737533
 49
0.0
 49
0.0
 49
0.0
 49
0.0
 49
1.0
 49
0.0
 49
0.0
 49
0.0
 49
0.0
 49
1.0
175
     0
142
0.0008202099737533
142
0.0
142
0.0
142
0.0
142
0.0
142
0.0008202099737533
142
0.0
142
0.0
142
0.0
142
0.0
142
1.0
142
0.0
142
0.0
142
0.0
142
0.0
142
1.0
179
     0
144
0.0008202099737533
144
0.0
144
0.0
144
0.0
144
0.0
144
0.0008202099737533
144
0.0
144
0.0
144
0.0
144
0.0
144
1.0
144
0.0
144
0.0
144
0.0
144
0.0
144
1.0
147
0.0008202099737533
147
0.0
147
0.0
147
0.0
147
0.0
147
0.0008202099737533
147
0.0
147
0.0
147
0.0
147
0.0
147
1.0
147
0.0
147
0.0
147
0.0
147
0.0
147
1.0
  0
MATERIAL
  5
1AAF
102
{ACAD_XDICTIONARY
360
1AB0
102
}
102
{ACAD_REACTORS
330
1A7A
102
}
330
1A7A
100
AcDbMaterial
  1
Global
 72
     0
 43
0.0008202099737533
 43
0.0
 43
0.0
 43
0.0
 43
0.0
 43
0.0008202099737533
 43
0.0
 43
0.0
 43
0.0
 43
0.0
 43
1.0
 43
0.0
 43
0.0
 43
0.0
 43
0.0
 43
1.0
 77
     0
 47
0.0008202099737533
 47
0.0
 47
0.0
 47
0.0
 47
0.0
 47
0.0008202099737533
 47
0.0
 47
0.0
 47
0.0
 47
0.0
 47
1.0
 47
0.0
 47
0.0
 47
0.0
 47
0.0
 47
1.0
171
     0
 49
0.0008202099737533
 49
0.0
 49
0.0
 49
0.0
 49
0.0
 49
0.0008202099737533
 49
0.0
 49
0.0
 49
0.0
 49
0.0
 49
1.0
 49
0.0
 49
0.0
 49
0.0
 49
0.0
 49
1.0
175
     0
142
0.0008202099737533
142
0.0
142
0.0
142
0.0
142
0.0
142
0.0008202099737533
142
0.0
142
0.0
142
0.0
142
0.0
142
1.0
142
0.0
142
0.0
142
0.0
142
0.0
142
1.0
179
     0
144
0.0008202099737533
144
0.0
144
0.0
144
0.0
144
0.0
144
0.0008202099737533
144
0.0
144
0.0
144
0.0
144
0.0
144
1.0
144
0.0
144
0.0
144
0.0
144
0.0
144
1.0
147
0.0008202099737533
147
0.0
147
0.0
147
0.0
147
0.0
147
0.0008202099737533
147
0.0
147
0.0
147
0.0
147
0.0
147
1.0
147
0.0
147
0.0
147
0.0
147
0.0
147
1.0
  0
MLEADERSTYLE
  5
1ADE
102
{ACAD_REACTORS
330
1ADD
102
}
330
1ADD
100
AcDbMLeaderStyle
170
     2
171
     1
172
     0
 90
        2
 40
0.0
 41
0.0
173
     1
 91
-1056964608
340
14
 92
       -2
290
     1
 42
2.0
291
     1
 43
0.36
  3
Standard
 44
4.0
300

342
11
174
     1
178
     6
175
     1
176
     0
 93
-1056964608
 45
4.0
292
     0
297
     0
 46
4.0
 94
-1056964608
 47
1.0
 49
1.0
140
1.0
293
     1
141
0.0
294
     1
177
     0
142
1.0
295
     0
296
     0
143
0.125
1001
ACAD_MLEADERVER
1070
     2
  0
MLINESTYLE
  5
18
102
{ACAD_REACTORS
330
17
102
}
330
17
100
AcDbMlineStyle
  2
STANDARD
 70
     0
  3

 62
   256
 51
90.0
 52
90.0
 71
     2
 49
0.5
 62
   256
  6
BYLAYER
 49
-0.5
 62
   256
  6
BYLAYER
  0
ACDBPLACEHOLDER
  5
F
102
{ACAD_REACTORS
330
E
102
}
330
E
  0
SCALE
  5
1ACC
102
{ACAD_REACTORS
330
1ACB
102
}
330
1ACB
100
AcDbScale
 70
     0
300
1:1
140
1.0
141
1.0
290
     1
  0
SCALE
  5
1ACD
102
{ACAD_REACTORS
330
1ACB
102
}
330
1ACB
100
AcDbScale
 70
     0
300
1:2
140
1.0
141
2.0
290
     0
  0
SCALE
  5
1ACE
102
{ACAD_REACTORS
330
1ACB
102
}
330
1ACB
100
AcDbScale
 70
     0
300
1:4
140
1.0
141
4.0
290
     0
  0
SCALE
  5
1ACF
102
{ACAD_REACTORS
330
1ACB
102
}
330
1ACB
100
AcDbScale
 70
     0
300
1:5
140
1.0
141
5.0
290
     0
  0
SCALE
  5
1AD0
102
{ACAD_REACTORS
330
1ACB
102
}
330
1ACB
100
AcDbScale
 70
     0
300
1:8
140
1.0
141
8.0
290
     0
  0
SCALE
  5
1AD1
102
{ACAD_REACTORS
330
1ACB
102
}
330
1ACB
100
AcDbScale
 70
     0
300
1:10
140
1.0
141
10.0
290
     0
  0
SCALE
  5
1AD2
102
{ACAD_REACTORS
330
1ACB
102
}
330
1ACB
100
AcDbScale
 70
     0
300
1:16
140
1.0
141
16.0
290
     0
  0
SCALE
  5
1AD3
102
{ACAD_REACTORS
330
1ACB
102
}
330
1ACB
100
AcDbScale
 70
     0
300
1:20
140
1.0
141
20.0
290
     0
  0
SCALE
  5
1AD4
102
{ACAD_REACTORS
330
1ACB
102
}
330
1ACB
100
AcDbScale
 70
     0
300
1:30
140
1.0
141
30.0
290
     0
  0
SCALE
  5
1AD5
102
{ACAD_REACTORS
330
1ACB
102
}
330
1ACB
100
AcDbScale
 70
     0
300
1:40
140
1.0
141
40.0
290
     0
  0
SCALE
  5
1AD6
102
{ACAD_REACTORS
330
1ACB
102
}
330
1ACB
100
AcDbScale
 70
     0
300
1:50
140
1.0
141
50.0
290
     0
  0
SCALE
  5
1AD7
102
{ACAD_REACTORS
330
1ACB
102
}
330
1ACB
100
AcDbScale
 70
     0
300
1:100
140
1.0
141
100.0
290
     0
  0
SCALE
  5
1AD8
102
{ACAD_REACTORS
330
1ACB
102
}
330
1ACB
100
AcDbScale
 70
     0
300
2:1
140
2.0
141
1.0
290
     0
  0
SCALE
  5
1AD9
102
{ACAD_REACTORS
330
1ACB
102
}
330
1ACB
100
AcDbScale
 70
     0
300
4:1
140
4.0
141
1.0
290
     0
  0
SCALE
  5
1ADA
102
{ACAD_REACTORS
330
1ACB
102
}
330
1ACB
100
AcDbScale
 70
     0
300
8:1
140
8.0
141
1.0
290
     0
  0
SCALE
  5
1ADB
102
{ACAD_REACTORS
330
1ACB
102
}
330
1ACB
100
AcDbScale
 70
     0
300
10:1
140
10.0
141
1.0
290
     0
  0
SCALE
  5
1ADC
102
{ACAD_REACTORS
330
1ACB
102
}
330
1ACB
100
AcDbScale
 70
     0
300
100:1
140
100.0
141
1.0
290
     0
  0
TABLESTYLE
  5
1A7D
102
{ACAD_XDICTIONARY
360
1B08
102
}
102
{ACAD_REACTORS
330
1A7C
102
}
330
1A7C
100
AcDbTableStyle
  3
Standard
 70
     0
 71
     0
 40
1.5
 41
1.5
280
     0
281
     0
  7
Standard
140
4.5
170
     2
 62
     0
 63
     7
283
     0
274
    -2
284
     1
 64
     0
275
    -2
285
     1
 65
     0
276
    -2
286
     1
 66
     0
277
    -2
287
     1
 67
     0
278
    -2
288
     1
 68
     0
279
    -2
289
     1
 69
     0
  7
Standard
140
6.0
170
     5
 62
     0
 63
     7
283
     0
274
    -2
284
     1
 64
     0
275
    -2
285
     1
 65
     0
276
    -2
286
     1
 66
     0
277
    -2
287
     1
 67
     0
278
    -2
288
     1
 68
     0
279
    -2
289
     1
 69
     0
  7
Standard
140
4.5
170
     5
 62
     0
 63
     7
283
     0
274
    -2
284
     1
 64
     0
275
    -2
285
     1
 65
     0
276
    -2
286
     1
 66
     0
277
    -2
287
     1
 67
     0
278
    -2
288
     1
 68
     0
279
    -2
289
     1
 69
     0
  0
VISUALSTYLE
  5
1ABD
102
{ACAD_XDICTIONARY
360
1B20
102
}
102
{ACAD_REACTORS
330
1AB7
102
}
330
1AB7
100
AcDbVisualStyle
  2
2dWireframe
 70
     4
 71
     0
 72
     2
 73
     0
 90
        0
 40
-0.6
 41
-30.0
 62
     5
 63
     7
 74
     1
 91
        4
 64
     7
 65
   257
 75
     1
175
     1
 42
1.0
 92
        0
 66
   257
 43
1.0
 76
     1
 77
     6
 78
     2
 67
     7
 79
     5
170
     0
171
     0
290
     0
174
     0
 93
        1
 44
0.0
173
     0
291
     0
 45
0.0
1001
ACAD
1000
AcDbSavedByObjectVersion
1070
     0
  0
VISUALSTYLE
  5
1ABF
102
{ACAD_XDICTIONARY
360
1B24
102
}
102
{ACAD_REACTORS
330
1AB7
102
}
330
1AB7
100
AcDbVisualStyle
  2
3D Hidden
 70
     6
 71
     1
 72
     2
 73
     2
 90
        0
 40
-0.6
 41
-30.0
 62
     5
 63
     7
 74
     2
 91
        2
 64
     7
 65
   257
 75
     2
175
     1
 42
179.0
 92
        0
 66
   257
 43
1.0
 76
     1
 77
     6
 78
     2
 67
     7
 79
     3
170
     0
171
     0
290
     0
174
     0
 93
        1
 44
0.0
173
     0
291
     0
 45
0.0
1001
ACAD
1000
AcDbSavedByObjectVersion
1070
     0
  0
VISUALSTYLE
  5
1ABE
102
{ACAD_XDICTIONARY
360
1B22
102
}
102
{ACAD_REACTORS
330
1AB7
102
}
330
1AB7
100
AcDbVisualStyle
  2
3dWireframe
 70
     5
 71
     0
 72
     2
 73
     0
 90
        0
 40
-0.6
 41
-30.0
 62
     5
 63
     7
 74
     1
 91
        4
 64
     7
 65
   257
 75
     1
175
     1
 42
1.0
 92
        0
 66
   257
 43
1.0
 76
     1
 77
     6
 78
     2
 67
     7
 79
     5
170
     0
171
     0
290
     0
174
     0
 93
        1
 44
0.0
173
     0
291
     0
 45
0.0
1001
ACAD
1000
AcDbSavedByObjectVersion
1070
     0
  0
VISUALSTYLE
  5
1ABC
102
{ACAD_XDICTIONARY
360
1B1E
102
}
102
{ACAD_REACTORS
330
1AB7
102
}
330
1AB7
100
AcDbVisualStyle
  2
Basic
 70
     7
 71
     1
 72
     0
 73
     1
 90
        0
 40
-0.6
 41
-30.0
 62
     5
 63
     7
 74
     0
 91
        4
 64
     7
 65
   257
 75
     1
175
     1
 42
1.0
 92
        8
 66
     7
 43
1.0
 76
     1
 77
     6
 78
     2
 67
     7
 79
     5
170
     0
171
     0
290
     0
174
     0
 93
        1
 44
0.0
173
     0
291
     1
 45
0.0
1001
ACAD
1000
AcDbSavedByObjectVersion
1070
     0
  0
VISUALSTYLE
  5
1AC3
102
{ACAD_XDICTIONARY
360
1B2C
102
}
102
{ACAD_REACTORS
330
1AB7
102
}
330
1AB7
100
AcDbVisualStyle
  2
Brighten
 70
    12
 71
     2
 72
     2
 73
     0
 90
        0
 40
-0.6
 41
-30.0
 62
     5
 63
     7
 74
     1
 91
        4
 64
     7
 65
   257
 75
     1
175
     1
 42
1.0
 92
        8
 66
     7
 43
1.0
 76
     1
 77
     6
 78
     2
 67
     7
 79
     5
170
     0
171
     0
290
     0
174
     0
 93
        1
 44
50.0
173
     0
291
     1
 45
0.0
1001
ACAD
1000
AcDbSavedByObjectVersion
1070
     0
  0
VISUALSTYLE
  5
1AC7
102
{ACAD_XDICTIONARY
360
1B34
102
}
102
{ACAD_REACTORS
330
1AB7
102
}
330
1AB7
100
AcDbVisualStyle
  2
ColorChange
 70
    16
 71
     2
 72
     2
 73
     3
 90
        0
 40
-0.6
 41
-30.0
 62
     5
 63
     8
 74
     1
 91
        4
 64
     7
 65
   257
 75
     1
175
     1
 42
1.0
 92
        8
 66
     8
 43
1.0
 76
     1
 77
     6
 78
     2
 67
     7
 79
     5
170
     0
171
     0
290
     0
174
     0
 93
        1
 44
0.0
173
     0
291
     1
 45
0.0
1001
ACAD
1000
AcDbSavedByObjectVersion
1070
     0
  0
VISUALSTYLE
  5
1AC0
102
{ACAD_XDICTIONARY
360
1B26
102
}
102
{ACAD_REACTORS
330
1AB7
102
}
330
1AB7
100
AcDbVisualStyle
  2
Conceptual
 70
     9
 71
     3
 72
     2
 73
     0
 90
        0
 40
-0.6
 41
-30.0
 62
     5
 63
     7
 74
     2
 91
        2
 64
     7
 65
   257
 75
     1
175
     1
 42
179.0
 92
        8
 66
     7
 43
1.0
 76
     1
 77
     6
 78
     2
 67
     7
 79
     3
170
     0
171
     0
290
     0
174
     0
 93
        1
 44
0.0
173
     0
291
     0
 45
0.0
1001
ACAD
1000
AcDbSavedByObjectVersion
1070
     0
  0
VISUALSTYLE
  5
1AC2
102
{ACAD_XDICTIONARY
360
1B2A
102
}
102
{ACAD_REACTORS
330
1AB7
102
}
330
1AB7
100
AcDbVisualStyle
  2
Dim
 70
    11
 71
     2
 72
     2
 73
     0
 90
        0
 40
-0.6
 41
-30.0
 62
     5
 63
     7
 74
     1
 91
        4
 64
     7
 65
   257
 75
     1
175
     1
 42
1.0
 92
        8
 66
     7
 43
1.0
 76
     1
 77
     6
 78
     2
 67
     7
 79
     5
170
     0
171
     0
290
     0
174
     0
 93
        1
 44
-50.0
173
     0
291
     1
 45
0.0
1001
ACAD
1000
AcDbSavedByObjectVersion
1070
     0
  0
VISUALSTYLE
  5
1ACA
102
{ACAD_XDICTIONARY
360
1B3A
102
}
102
{ACAD_REACTORS
330
1AB7
102
}
330
1AB7
100
AcDbVisualStyle
  2
EdgeColorOff
 70
    22
 71
     2
 72
     2
 73
     0
 90
        0
 40
-0.6
 41
-30.0
 62
     5
 63
     7
 74
     1
 91
        4
 64
     7
 65
   257
 75
     1
175
     1
 42
1.0
 92
        8
 66
     7
 43
1.0
 76
     1
 77
     6
 78
     2
 67
     7
 79
     5
170
     0
171
     0
290
     0
174
     0
 93
        1
 44
0.0
173
     0
291
     1
 45
0.0
1001
ACAD
1000
AcDbSavedByObjectVersion
1070
     0
  0
VISUALSTYLE
  5
1AC6
102
{ACAD_XDICTIONARY
360
1B32
102
}
102
{ACAD_REACTORS
330
1AB7
102
}
330
1AB7
100
AcDbVisualStyle
  2
Facepattern
 70
    15
 71
     2
 72
     2
 73
     0
 90
        0
 40
-0.6
 41
-30.0
 62
     5
 63
     7
 74
     1
 91
        4
 64
     7
 65
   257
 75
     1
175
     1
 42
1.0
 92
        8
 66
     7
 43
1.0
 76
     1
 77
     6
 78
     2
 67
     7
 79
     5
170
     0
171
     0
290
     0
174
     0
 93
        1
 44
0.0
173
     0
291
     1
 45
0.0
1001
ACAD
1000
AcDbSavedByObjectVersion
1070
     0
  0
VISUALSTYLE
  5
1AB8
102
{ACAD_XDICTIONARY
360
1B16
102
}
102
{ACAD_REACTORS
330
1AB7
102
}
330
1AB7
100
AcDbVisualStyle
  2
Flat
 70
     0
 71
     2
 72
     1
 73
     1
 90
        2
 40
-0.6
 41
30.0
 62
     5
 63
     7
 74
     0
 91
        4
 64
     7
 65
   257
 75
     1
175
     1
 42
1.0
 92
        8
 66
     7
 43
1.0
 76
     1
 77
     6
 78
     2
 67
     7
 79
     5
170
     0
171
     0
290
     0
174
     0
 93
       13
 44
0.0
173
     0
291
     1
 45
0.0
1001
ACAD
1000
AcDbSavedByObjectVersion
1070
     0
  0
VISUALSTYLE
  5
1AB9
102
{ACAD_XDICTIONARY
360
1B18
102
}
102
{ACAD_REACTORS
330
1AB7
102
}
330
1AB7
100
AcDbVisualStyle
  2
FlatWithEdges
 70
     1
 71
     2
 72
     1
 73
     1
 90
        2
 40
-0.6
 41
30.0
 62
     5
 63
     7
 74
     1
 91
        4
 64
     7
 65
   257
 75
     1
175
     1
 42
1.0
 92
        0
 66
   257
 43
1.0
 76
     1
 77
     6
 78
     2
 67
     7
 79
     5
170
     0
171
     0
290
     0
174
     0
 93
       13
 44
0.0
173
     0
291
     1
 45
0.0
1001
ACAD
1000
AcDbSavedByObjectVersion
1070
     0
  0
VISUALSTYLE
  5
1ABA
102
{ACAD_XDICTIONARY
360
1B1A
102
}
102
{ACAD_REACTORS
330
1AB7
102
}
330
1AB7
100
AcDbVisualStyle
  2
Gouraud
 70
     2
 71
     2
 72
     2
 73
     1
 90
        2
 40
-0.6
 41
30.0
 62
     5
 63
     7
 74
     0
 91
        4
 64
     7
 65
   257
 75
     1
175
     1
 42
1.0
 92
        0
 66
     7
 43
1.0
 76
     1
 77
     6
 78
     2
 67
     7
 79
     5
170
     0
171
     0
290
     0
174
     0
 93
       13
 44
0.0
173
     0
291
     1
 45
0.0
1001
ACAD
1000
AcDbSavedByObjectVersion
1070
     0
  0
VISUALSTYLE
  5
1ABB
102
{ACAD_XDICTIONARY
360
1B1C
102
}
102
{ACAD_REACTORS
330
1AB7
102
}
330
1AB7
100
AcDbVisualStyle
  2
GouraudWithEdges
 70
     3
 71
     2
 72
     2
 73
     1
 90
        2
 40
-0.6
 41
30.0
 62
     5
 63
     7
 74
     1
 91
        4
 64
     7
 65
   257
 75
     1
175
     1
 42
1.0
 92
        0
 66
   257
 43
1.0
 76
     1
 77
     6
 78
     2
 67
     7
 79
     5
170
     0
171
     0
290
     0
174
     0
 93
       13
 44
0.0
173
     0
291
     1
 45
0.0
1001
ACAD
1000
AcDbSavedByObjectVersion
1070
     0
  0
VISUALSTYLE
  5
1AC8
102
{ACAD_XDICTIONARY
360
1B36
102
}
102
{ACAD_REACTORS
330
1AB7
102
}
330
1AB7
100
AcDbVisualStyle
  2
JitterOff
 70
    20
 71
     2
 72
     2
 73
     0
 90
        0
 40
-0.6
 41
-30.0
 62
     5
 63
     7
 74
     1
 91
        4
 64
     7
 65
   257
 75
     1
175
     1
 42
1.0
 92
       10
 66
     7
 43
1.0
 76
     1
 77
     6
 78
     2
 67
     7
 79
     5
170
     0
171
     0
290
     0
174
     0
 93
        1
 44
0.0
173
     0
291
     1
 45
0.0
1001
ACAD
1000
AcDbSavedByObjectVersion
1070
     0
  0
VISUALSTYLE
  5
1AC5
102
{ACAD_XDICTIONARY
360
1B30
102
}
102
{ACAD_REACTORS
330
1AB7
102
}
330
1AB7
100
AcDbVisualStyle
  2
Linepattern
 70
    14
 71
     2
 72
     2
 73
     0
 90
        0
 40
-0.6
 41
-30.0
 62
     5
 63
     7
 74
     1
 91
        4
 64
     7
 65
   257
 75
     7
175
     7
 42
1.0
 92
        8
 66
     7
 43
1.0
 76
     1
 77
     6
 78
     2
 67
     7
 79
     5
170
     0
171
     0
290
     0
174
     0
 93
        1
 44
0.0
173
     0
291
     1
 45
0.0
1001
ACAD
1000
AcDbSavedByObjectVersion
1070
     0
  0
VISUALSTYLE
  5
1AC9
102
{ACAD_XDICTIONARY
360
1B38
102
}
102
{ACAD_REACTORS
330
1AB7
102
}
330
1AB7
100
AcDbVisualStyle
  2
OverhangOff
 70
    21
 71
     2
 72
     2
 73
     0
 90
        0
 40
-0.6
 41
-30.0
 62
     5
 63
     7
 74
     1
 91
        4
 64
     7
 65
   257
 75
     1
175
     1
 42
1.0
 92
        9
 66
     7
 43
1.0
 76
     1
 77
     6
 78
     2
 67
     7
 79
     5
170
     0
171
     0
290
     0
174
     0
 93
        1
 44
0.0
173
     0
291
     1
 45
0.0
1001
ACAD
1000
AcDbSavedByObjectVersion
1070
     0
  0
VISUALSTYLE
  5
1AC1
102
{ACAD_XDICTIONARY
360
1B28
102
}
102
{ACAD_REACTORS
330
1AB7
102
}
330
1AB7
100
AcDbVisualStyle
  2
Realistic
 70
     8
 71
     2
 72
     2
 73
     0
 90
        0
 40
-0.6
 41
-30.0
 62
     5
 63
     7
 74
     1
 91
        0
 64
     7
 65
   257
 75
     1
175
     1
 42
1.0
 92
        8
 66
     8
 43
1.0
 76
     1
 77
     6
 78
     2
 67
     7
 79
     5
170
     0
171
     0
290
     0
174
     0
 93
       13
 44
0.0
173
     0
291
     0
 45
0.0
1001
ACAD
1000
AcDbSavedByObjectVersion
1070
     0
  0
VISUALSTYLE
  5
1AC4
102
{ACAD_XDICTIONARY
360
1B2E
102
}
102
{ACAD_REACTORS
330
1AB7
102
}
330
1AB7
100
AcDbVisualStyle
  2
Thicken
 70
    13
 71
     2
 72
     2
 73
     0
 90
        0
 40
-0.6
 41
-30.0
 62
     5
 63
     7
 74
     1
 91
        4
 64
     7
 65
   257
 75
     1
175
     1
 42
1.0
 92
       12
 66
     7
 43
1.0
 76
     1
 77
     6
 78
     2
 67
     7
 79
     5
170
     0
171
     0
290
     0
174
     0
 93
        1
 44
0.0
173
     0
291
     1
 45
0.0
1001
ACAD
1000
AcDbSavedByObjectVersion
1070
     0
  0
DICTIONARYVAR
  5
1B04
102
{ACAD_REACTORS
330
3D
102
}
330
3D
100
DictionaryVariables
280
     0
  1
1:1
  0
DICTIONARYVAR
  5
1B03
102
{ACAD_REACTORS
330
3D
102
}
330
3D
100
DictionaryVariables
280
     0
  1
STANDARD
  0
DICTIONARYVAR
  5
1A9C
102
{ACAD_REACTORS
330
3D
102
}
330
3D
100
DictionaryVariables
280
     0
  1
STANDARD
  0
DICTIONARYVAR
  5
3F
102
{ACAD_REACTORS
330
3D
102
}
330
3D
100
DictionaryVariables
280
     0
  1
2
  0
DICTIONARYVAR
  5
3E
102
{ACAD_REACTORS
330
3D
102
}
330
3D
100
DictionaryVariables
280
     0
  1
1
  0
DICTIONARYVAR
  5
1B06
102
{ACAD_REACTORS
330
3D
102
}
330
3D
100
DictionaryVariables
280
     0
  1
0
  0
DICTIONARYVAR
  5
1A9D
102
{ACAD_REACTORS
330
3D
102
}
330
3D
100
DictionaryVariables
280
     0
  1

  0
DICTIONARYVAR
  5
1B05
102
{ACAD_REACTORS
330
3D
102
}
330
3D
100
DictionaryVariables
280
     0
  1
127
  0
DICTIONARYVAR
  5
1B07
102
{ACAD_REACTORS
330
3D
102
}
330
3D
100
DictionaryVariables
280
     0
  1
2
  0
XRECORD
  5
1B02
102
{ACAD_REACTORS
330
1B01
102
}
330
1B01
100
AcDbXrecord
280
     1
  0
DICTIONARY
  5
1B0C
330
1E
100
AcDbDictionary
280
     1
281
     1
  3
ACAD_XREC_ROUNDTRIP
360
1B0D
  0
DICTIONARY
  5
1B10
330
26
100
AcDbDictionary
280
     1
281
     1
  3
ACAD_XREC_ROUNDTRIP
360
1B11
  0
DICTIONARY
  5
1B0E
330
22
100
AcDbDictionary
280
     1
281
     1
  3
ACAD_XREC_ROUNDTRIP
360
1B0F
  0
DICTIONARY
  5
1AA8
330
1AA7
100
AcDbDictionary
280
     1
281
     1
  3
ACAD_XREC_ROUNDTRIP
360
1B14
  3
BUMPTILE
360
1AAA
  3
DIFFUSETILE
360
1AA9
  3
OPACITYTILE
360
1AAD
  3
REFLECTIONTILE
360
1AAC
  3
REFRACTIONTILE
360
1AAE
  3
SPECULARTILE
360
1AAB
  0
DICTIONARY
  5
1AA0
330
1A9F
100
AcDbDictionary
280
     1
281
     1
  3
ACAD_XREC_ROUNDTRIP
360
1B13
  3
BUMPTILE
360
1AA2
  3
DIFFUSETILE
360
1AA1
  3
OPACITYTILE
360
1AA5
  3
REFLECTIONTILE
360
1AA4
  3
REFRACTIONTILE
360
1AA6
  3
SPECULARTILE
360
1AA3
  0
DICTIONARY
  5
1AB0
330
1AAF
100
AcDbDictionary
280
     1
281
     1
  3
ACAD_XREC_ROUNDTRIP
360
1B15
  3
BUMPTILE
360
1AB2
  3
DIFFUSETILE
360
1AB1
  3
OPACITYTILE
360
1AB5
  3
REFLECTIONTILE
360
1AB4
  3
REFRACTIONTILE
360
1AB6
  3
SPECULARTILE
360
1AB3
  0
DICTIONARY
  5
1B08
330
1A7D
100
AcDbDictionary
280
     1
281
     1
  3
ACAD_ROUNDTRIP_2008_TABLESTYLE_CELLSTYLEMAP
360
1B09
  3
ACAD_XREC_ROUNDTRIP
360
1B12
  0
DICTIONARY
  5
1B20
330
1ABD
100
AcDbDictionary
280
     1
281
     1
  3
ACAD_XREC_ROUNDTRIP
360
1B21
  0
DICTIONARY
  5
1B24
330
1ABF
100
AcDbDictionary
280
     1
281
     1
  3
ACAD_XREC_ROUNDTRIP
360
1B25
  0
DICTIONARY
  5
1B22
330
1ABE
100
AcDbDictionary
280
     1
281
     1
  3
ACAD_XREC_ROUNDTRIP
360
1B23
  0
DICTIONARY
  5
1B1E
330
1ABC
100
AcDbDictionary
280
     1
281
     1
  3
ACAD_XREC_ROUNDTRIP
360
1B1F
  0
DICTIONARY
  5
1B2C
330
1AC3
100
AcDbDictionary
280
     1
281
     1
  3
ACAD_XREC_ROUNDTRIP
360
1B2D
  0
DICTIONARY
  5
1B34
330
1AC7
100
AcDbDictionary
280
     1
281
     1
  3
ACAD_XREC_ROUNDTRIP
360
1B35
  0
DICTIONARY
  5
1B26
330
1AC0
100
AcDbDictionary
280
     1
281
     1
  3
ACAD_XREC_ROUNDTRIP
360
1B27
  0
DICTIONARY
  5
1B2A
330
1AC2
100
AcDbDictionary
280
     1
281
     1
  3
ACAD_XREC_ROUNDTRIP
360
1B2B
  0
DICTIONARY
  5
1B3A
330
1ACA
100
AcDbDictionary
280
     1
281
     1
  3
ACAD_XREC_ROUNDTRIP
360
1B3B
  0
DICTIONARY
  5
1B32
330
1AC6
100
AcDbDictionary
280
     1
281
     1
  3
ACAD_XREC_ROUNDTRIP
360
1B33
  0
DICTIONARY
  5
1B16
330
1AB8
100
AcDbDictionary
280
     1
281
     1
  3
ACAD_XREC_ROUNDTRIP
360
1B17
  0
DICTIONARY
  5
1B18
330
1AB9
100
AcDbDictionary
280
     1
281
     1
  3
ACAD_XREC_ROUNDTRIP
360
1B19
  0
DICTIONARY
  5
1B1A
330
1ABA
100
AcDbDictionary
280
     1
281
     1
  3
ACAD_XREC_ROUNDTRIP
360
1B1B
  0
DICTIONARY
  5
1B1C
330
1ABB
100
AcDbDictionary
280
     1
281
     1
  3
ACAD_XREC_ROUNDTRIP
360
1B1D
  0
DICTIONARY
  5
1B36
330
1AC8
100
AcDbDictionary
280
     1
281
     1
  3
ACAD_XREC_ROUNDTRIP
360
1B37
  0
DICTIONARY
  5
1B30
330
1AC5
100
AcDbDictionary
280
     1
281
     1
  3
ACAD_XREC_ROUNDTRIP
360
1B31
  0
DICTIONARY
  5
1B38
330
1AC9
100
AcDbDictionary
280
     1
281
     1
  3
ACAD_XREC_ROUNDTRIP
360
1B39
  0
DICTIONARY
  5
1B28
330
1AC1
100
AcDbDictionary
280
     1
281
     1
  3
ACAD_XREC_ROUNDTRIP
360
1B29
  0
DICTIONARY
  5
1B2E
330
1AC4
100
AcDbDictionary
280
     1
281
     1
  3
ACAD_XREC_ROUNDTRIP
360
1B2F
  0
XRECORD
  5
1B0D
102
{ACAD_REACTORS
330
1B0C
102
}
330
1B0C
100
AcDbXrecord
280
     1
102
SHADEPLOT
 70
     0
102
SHADEPLOTRESLEVEL
 70
     2
102
SHADEPLOTCUSTOMDPI
 70
   300
  0
XRECORD
  5
1B11
102
{ACAD_REACTORS
330
1B10
102
}
330
1B10
100
AcDbXrecord
280
     1
102
SHADEPLOT
 70
     0
102
SHADEPLOTRESLEVEL
 70
     2
102
SHADEPLOTCUSTOMDPI
 70
   300
  0
XRECORD
  5
1B0F
102
{ACAD_REACTORS
330
1B0E
102
}
330
1B0E
100
AcDbXrecord
280
     1
102
SHADEPLOT
 70
     0
102
SHADEPLOTRESLEVEL
 70
     2
102
SHADEPLOTCUSTOMDPI
 70
   300
  0
XRECORD
  5
1B14
102
{ACAD_REACTORS
330
1AA8
102
}
330
1AA8
100
AcDbXrecord
280
     1
102
MATERIAL
148
0.0
149
0.0
149
0.0
 93
        0
 94
      127
282
     0
 72
     0
 77
     0
171
     0
175
     0
179
     0
273
     0
  0
XRECORD
  5
1AAA
102
{ACAD_REACTORS
330
1AA8
102
}
330
1AA8
100
AcDbXrecord
280
     1
270
     1
271
     1
  0
XRECORD
  5
1AA9
102
{ACAD_REACTORS
330
1AA8
102
}
330
1AA8
100
AcDbXrecord
280
     1
270
     1
271
     1
  0
XRECORD
  5
1AAD
102
{ACAD_REACTORS
330
1AA8
102
}
330
1AA8
100
AcDbXrecord
280
     1
270
     1
271
     1
  0
XRECORD
  5
1AAC
102
{ACAD_REACTORS
330
1AA8
102
}
330
1AA8
100
AcDbXrecord
280
     1
270
     1
271
     1
  0
XRECORD
  5
1AAE
102
{ACAD_REACTORS
330
1AA8
102
}
330
1AA8
100
AcDbXrecord
280
     1
270
     1
271
     1
  0
XRECORD
  5
1AAB
102
{ACAD_REACTORS
330
1AA8
102
}
330
1AA8
100
AcDbXrecord
280
     1
270
     1
271
     1
  0
XRECORD
  5
1B13
102
{ACAD_REACTORS
330
1AA0
102
}
330
1AA0
100
AcDbXrecord
280
     1
102
MATERIAL
148
0.0
149
0.0
149
0.0
 93
        0
 94
      127
282
     0
 72
     0
 77
     0
171
     0
175
     0
179
     0
273
     0
  0
XRECORD
  5
1AA2
102
{ACAD_REACTORS
330
1AA0
102
}
330
1AA0
100
AcDbXrecord
280
     1
270
     1
271
     1
  0
XRECORD
  5
1AA1
102
{ACAD_REACTORS
330
1AA0
102
}
330
1AA0
100
AcDbXrecord
280
     1
270
     1
271
     1
  0
XRECORD
  5
1AA5
102
{ACAD_REACTORS
330
1AA0
102
}
330
1AA0
100
AcDbXrecord
280
     1
270
     1
271
     1
  0
XRECORD
  5
1AA4
102
{ACAD_REACTORS
330
1AA0
102
}
330
1AA0
100
AcDbXrecord
280
     1
270
     1
271
     1
  0
XRECORD
  5
1AA6
102
{ACAD_REACTORS
330
1AA0
102
}
330
1AA0
100
AcDbXrecord
280
     1
270
     1
271
     1
  0
XRECORD
  5
1AA3
102
{ACAD_REACTORS
330
1AA0
102
}
330
1AA0
100
AcDbXrecord
280
     1
270
     1
271
     1
  0
XRECORD
  5
1B15
102
{ACAD_REACTORS
330
1AB0
102
}
330
1AB0
100
AcDbXrecord
280
     1
102
MATERIAL
148
0.0
149
0.0
149
0.0
 93
        0
 94
      127
282
     0
 72
     0
 77
     0
171
     0
175
     0
179
     0
273
     0
  0
XRECORD
  5
1AB2
102
{ACAD_REACTORS
330
1AB0
102
}
330
1AB0
100
AcDbXrecord
280
     1
270
     1
271
     1
  0
XRECORD
  5
1AB1
102
{ACAD_REACTORS
330
1AB0
102
}
330
1AB0
100
AcDbXrecord
280
     1
270
     1
271
     1
  0
XRECORD
  5
1AB5
102
{ACAD_REACTORS
330
1AB0
102
}
330
1AB0
100
AcDbXrecord
280
     1
270
     1
271
     1
  0
XRECORD
  5
1AB4
102
{ACAD_REACTORS
330
1AB0
102
}
330
1AB0
100
AcDbXrecord
280
     1
270
     1
271
     1
  0
XRECORD
  5
1AB6
102
{ACAD_REACTORS
330
1AB0
102
}
330
1AB0
100
AcDbXrecord
280
     1
270
     1
271
     1
  0
XRECORD
  5
1AB3
102
{ACAD_REACTORS
330
1AB0
102
}
330
1AB0
100
AcDbXrecord
280
     1
270
     1
271
     1
  0
CELLSTYLEMAP
  5
1B09
102
{ACAD_REACTORS
330
1B08
102
}
330
1B08
100
AcDbCellStyleMap
 90
        3
300
CELLSTYLE
  1
TABLEFORMAT_BEGIN
 90
        5
170
     1
 91
        0
 92
    32768
 62
   257
 93
        1
300
CONTENTFORMAT
  1
CONTENTFORMAT_BEGIN
 90
        0
 91
        0
 92
        4
 93
        0
300

 40
0.0
140
1.0
 94
        5
 62
     0
340
11
144
6.0
309
CONTENTFORMAT_END
171
     1
301
MARGIN
  1
CELLMARGIN_BEGIN
 40
1.5
 40
1.5
 40
1.5
 40
1.5
 40
0.18
 40
0.18
309
CELLMARGIN_END
 94
        6
 95
        1
302
GRIDFORMAT
  1
GRIDFORMAT_BEGIN
 90
        0
 91
        1
 62
     0
 92
       -2
340
0
 93
        0
 40
0.045
309
GRIDFORMAT_END
 95
        2
302
GRIDFORMAT
  1
GRIDFORMAT_BEGIN
 90
        0
 91
        1
 62
     0
 92
       -2
340
0
 93
        0
 40
0.045
309
GRIDFORMAT_END
 95
        4
302
GRIDFORMAT
  1
GRIDFORMAT_BEGIN
 90
        0
 91
        1
 62
     0
 92
       -2
340
0
 93
        0
 40
0.045
309
GRIDFORMAT_END
 95
        8
302
GRIDFORMAT
  1
GRIDFORMAT_BEGIN
 90
        0
 91
        1
 62
     0
 92
       -2
340
0
 93
        0
 40
0.045
309
GRIDFORMAT_END
 95
       16
302
GRIDFORMAT
  1
GRIDFORMAT_BEGIN
 90
        0
 91
        1
 62
     0
 92
       -2
340
0
 93
        0
 40
0.045
309
GRIDFORMAT_END
 95
       32
302
GRIDFORMAT
  1
GRIDFORMAT_BEGIN
 90
        0
 91
        1
 62
     0
 92
       -2
340
0
 93
        0
 40
0.045
309
GRIDFORMAT_END
309
TABLEFORMAT_END
  1
CELLSTYLE_BEGIN
 90
        1
 91
        1
300
_TITLE
309
CELLSTYLE_END
300
CELLSTYLE
  1
TABLEFORMAT_BEGIN
 90
        5
170
     1
 91
        0
 92
        0
 62
   257
 93
        1
300
CONTENTFORMAT
  1
CONTENTFORMAT_BEGIN
 90
        0
 91
        0
 92
        4
 93
        0
300

 40
0.0
140
1.0
 94
        5
 62
     0
340
11
144
4.5
309
CONTENTFORMAT_END
171
     1
301
MARGIN
  1
CELLMARGIN_BEGIN
 40
1.5
 40
1.5
 40
1.5
 40
1.5
 40
0.18
 40
0.18
309
CELLMARGIN_END
 94
        6
 95
        1
302
GRIDFORMAT
  1
GRIDFORMAT_BEGIN
 90
        0
 91
        1
 62
     0
 92
       -2
340
0
 93
        0
 40
0.045
309
GRIDFORMAT_END
 95
        2
302
GRIDFORMAT
  1
GRIDFORMAT_BEGIN
 90
        0
 91
        1
 62
     0
 92
       -2
340
0
 93
        0
 40
0.045
309
GRIDFORMAT_END
 95
        4
302
GRIDFORMAT
  1
GRIDFORMAT_BEGIN
 90
        0
 91
        1
 62
     0
 92
       -2
340
0
 93
        0
 40
0.045
309
GRIDFORMAT_END
 95
        8
302
GRIDFORMAT
  1
GRIDFORMAT_BEGIN
 90
        0
 91
        1
 62
     0
 92
       -2
340
0
 93
        0
 40
0.045
309
GRIDFORMAT_END
 95
       16
302
GRIDFORMAT
  1
GRIDFORMAT_BEGIN
 90
        0
 91
        1
 62
     0
 92
       -2
340
0
 93
        0
 40
0.045
309
GRIDFORMAT_END
 95
       32
302
GRIDFORMAT
  1
GRIDFORMAT_BEGIN
 90
        0
 91
        1
 62
     0
 92
       -2
340
0
 93
        0
 40
0.045
309
GRIDFORMAT_END
309
TABLEFORMAT_END
  1
CELLSTYLE_BEGIN
 90
        2
 91
        1
300
_HEADER
309
CELLSTYLE_END
300
CELLSTYLE
  1
TABLEFORMAT_BEGIN
 90
        5
170
     1
 91
        0
 92
        0
 62
   257
 93
        1
300
CONTENTFORMAT
  1
CONTENTFORMAT_BEGIN
 90
        0
 91
        0
 92
        4
 93
        0
300

 40
0.0
140
1.0
 94
        2
 62
     0
340
11
144
4.5
309
CONTENTFORMAT_END
171
     1
301
MARGIN
  1
CELLMARGIN_BEGIN
 40
1.5
 40
1.5
 40
1.5
 40
1.5
 40
0.18
 40
0.18
309
CELLMARGIN_END
 94
        6
 95
        1
302
GRIDFORMAT
  1
GRIDFORMAT_BEGIN
 90
        0
 91
        1
 62
     0
 92
       -2
340
0
 93
        0
 40
0.045
309
GRIDFORMAT_END
 95
        2
302
GRIDFORMAT
  1
GRIDFORMAT_BEGIN
 90
        0
 91
        1
 62
     0
 92
       -2
340
0
 93
        0
 40
0.045
309
GRIDFORMAT_END
 95
        4
302
GRIDFORMAT
  1
GRIDFORMAT_BEGIN
 90
        0
 91
        1
 62
     0
 92
       -2
340
0
 93
        0
 40
0.045
309
GRIDFORMAT_END
 95
        8
302
GRIDFORMAT
  1
GRIDFORMAT_BEGIN
 90
        0
 91
        1
 62
     0
 92
       -2
340
0
 93
        0
 40
0.045
309
GRIDFORMAT_END
 95
       16
302
GRIDFORMAT
  1
GRIDFORMAT_BEGIN
 90
        0
 91
        1
 62
     0
 92
       -2
340
0
 93
        0
 40
0.045
309
GRIDFORMAT_END
 95
       32
302
GRIDFORMAT
  1
GRIDFORMAT_BEGIN
 90
        0
 91
        1
 62
     0
 92
       -2
340
0
 93
        0
 40
0.045
309
GRIDFORMAT_END
309
TABLEFORMAT_END
  1
CELLSTYLE_BEGIN
 90
        3
 91
        2
300
_DATA
309
CELLSTYLE_END
  0
XRECORD
  5
1B12
102
{ACAD_REACTORS
330
1B08
102
}
330
1B08
100
AcDbXrecord
280
     1
102
ACAD_ROUNDTRIP_PRE2007_TABLESTYLE
 90
        4
 91
        0
  1

 92
        4
 93
        0
  2

 94
        4
 95
        0
  3

  0
XRECORD
  5
1B21
102
{ACAD_REACTORS
330
1B20
102
}
330
1B20
100
AcDbXrecord
280
     1
102
RTVSPropertyOp0
 70
     1
102
RTVSPropertyOp1
 70
     1
102
RTVSPropertyOp2
 70
     1
102
RTVSPropertyOp3
 70
     1
102
RTVSPropertyOp4
 70
     1
102
RTVSPropertyOp5
 70
     1
102
RTVSPropertyOp6
 70
     1
102
RTVSPropertyOp7
 70
     1
102
RTVSPropertyOp8
 70
     1
102
RTVSPropertyOp9
 70
     1
102
RTVSPropertyOp10
 70
     1
102
RTVSPropertyOp11
 70
     1
102
RTVSPropertyOp12
 70
     1
102
RTVSPropertyOp13
 70
     1
102
RTVSPropertyOp14
 70
     1
102
RTVSPropertyOp15
 70
     1
102
RTVSPropertyOp16
 70
     1
102
RTVSPropertyOp17
 70
     1
102
RTVSPropertyOp18
 70
     1
102
RTVSPropertyOp19
 70
     1
102
RTVSPropertyOp20
 70
     1
102
RTVSPropertyOp21
 70
     1
102
RTVSPropertyOp22
 70
     1
102
RTVSPropertyOp23
 70
     1
102
RTVSPropertyOp24
 70
     1
102
RTVSPropertyOp25
 70
     1
102
RTVSPropertyOp26
 70
     1
102
RTVSPropertyOp27
 70
     1
  0
XRECORD
  5
1B25
102
{ACAD_REACTORS
330
1B24
102
}
330
1B24
100
AcDbXrecord
280
     1
102
RTVSPropertyOp0
 70
     1
102
RTVSPropertyOp1
 70
     1
102
RTVSPropertyOp2
 70
     1
102
RTVSPropertyOp3
 70
     1
102
RTVSPropertyOp4
 70
     1
102
RTVSPropertyOp5
 70
     1
102
RTVSPropertyOp6
 70
     1
102
RTVSPropertyOp7
 70
     1
102
RTVSPropertyOp8
 70
     1
102
RTVSPropertyOp9
 70
     1
102
RTVSPropertyOp10
 70
     1
102
RTVSPropertyOp11
 70
     1
102
RTVSPropertyOp12
 70
     1
102
RTVSPropertyOp13
 70
     1
102
RTVSPropertyOp14
 70
     1
102
RTVSPropertyOp15
 70
     1
102
RTVSPropertyOp16
 70
     1
102
RTVSPropertyOp17
 70
     1
102
RTVSPropertyOp18
 70
     1
102
RTVSPropertyOp19
 70
     1
102
RTVSPropertyOp20
 70
     1
102
RTVSPropertyOp21
 70
     1
102
RTVSPropertyOp22
 70
     1
102
RTVSPropertyOp23
 70
     1
102
RTVSPropertyOp24
 70
     1
102
RTVSPropertyOp25
 70
     1
102
RTVSPropertyOp26
 70
     1
102
RTVSPropertyOp27
 70
     1
  0
XRECORD
  5
1B23
102
{ACAD_REACTORS
330
1B22
102
}
330
1B22
100
AcDbXrecord
280
     1
102
RTVSPropertyOp0
 70
     1
102
RTVSPropertyOp1
 70
     1
102
RTVSPropertyOp2
 70
     1
102
RTVSPropertyOp3
 70
     1
102
RTVSPropertyOp4
 70
     1
102
RTVSPropertyOp5
 70
     1
102
RTVSPropertyOp6
 70
     1
102
RTVSPropertyOp7
 70
     1
102
RTVSPropertyOp8
 70
     1
102
RTVSPropertyOp9
 70
     1
102
RTVSPropertyOp10
 70
     1
102
RTVSPropertyOp11
 70
     1
102
RTVSPropertyOp12
 70
     1
102
RTVSPropertyOp13
 70
     1
102
RTVSPropertyOp14
 70
     1
102
RTVSPropertyOp15
 70
     1
102
RTVSPropertyOp16
 70
     1
102
RTVSPropertyOp17
 70
     1
102
RTVSPropertyOp18
 70
     1
102
RTVSPropertyOp19
 70
     1
102
RTVSPropertyOp20
 70
     1
102
RTVSPropertyOp21
 70
     1
102
RTVSPropertyOp22
 70
     1
102
RTVSPropertyOp23
 70
     1
102
RTVSPropertyOp24
 70
     1
102
RTVSPropertyOp25
 70
     1
102
RTVSPropertyOp26
 70
     1
102
RTVSPropertyOp27
 70
     1
  0
XRECORD
  5
1B1F
102
{ACAD_REACTORS
330
1B1E
102
}
330
1B1E
100
AcDbXrecord
280
     1
102
RTVSPropertyOp0
 70
     1
102
RTVSPropertyOp1
 70
     1
102
RTVSPropertyOp2
 70
     1
102
RTVSPropertyOp3
 70
     1
102
RTVSPropertyOp4
 70
     1
102
RTVSPropertyOp5
 70
     1
102
RTVSPropertyOp6
 70
     1
102
RTVSPropertyOp7
 70
     1
102
RTVSPropertyOp8
 70
     1
102
RTVSPropertyOp9
 70
     1
102
RTVSPropertyOp10
 70
     1
102
RTVSPropertyOp11
 70
     1
102
RTVSPropertyOp12
 70
     1
102
RTVSPropertyOp13
 70
     1
102
RTVSPropertyOp14
 70
     1
102
RTVSPropertyOp15
 70
     1
102
RTVSPropertyOp16
 70
     1
102
RTVSPropertyOp17
 70
     1
102
RTVSPropertyOp18
 70
     1
102
RTVSPropertyOp19
 70
     1
102
RTVSPropertyOp20
 70
     1
102
RTVSPropertyOp21
 70
     1
102
RTVSPropertyOp22
 70
     1
102
RTVSPropertyOp23
 70
     1
102
RTVSPropertyOp24
 70
     1
102
RTVSPropertyOp25
 70
     1
102
RTVSPropertyOp26
 70
     1
102
RTVSPropertyOp27
 70
     1
  0
XRECORD
  5
1B2D
102
{ACAD_REACTORS
330
1B2C
102
}
330
1B2C
100
AcDbXrecord
280
     1
102
RTVSPropertyOp0
 70
     1
102
RTVSPropertyOp1
 70
     1
102
RTVSPropertyOp2
 70
     1
102
RTVSPropertyOp3
 70
     1
102
RTVSPropertyOp4
 70
     1
102
RTVSPropertyOp5
 70
     1
102
RTVSPropertyOp6
 70
     1
102
RTVSPropertyOp7
 70
     1
102
RTVSPropertyOp8
 70
     1
102
RTVSPropertyOp9
 70
     1
102
RTVSPropertyOp10
 70
     1
102
RTVSPropertyOp11
 70
     1
102
RTVSPropertyOp12
 70
     1
102
RTVSPropertyOp13
 70
     1
102
RTVSPropertyOp14
 70
     1
102
RTVSPropertyOp15
 70
     1
102
RTVSPropertyOp16
 70
     1
102
RTVSPropertyOp17
 70
     1
102
RTVSPropertyOp18
 70
     1
102
RTVSPropertyOp19
 70
     1
102
RTVSPropertyOp20
 70
     1
102
RTVSPropertyOp21
 70
     1
102
RTVSPropertyOp22
 70
     1
102
RTVSPropertyOp23
 70
     1
102
RTVSPropertyOp24
 70
     1
102
RTVSPropertyOp25
 70
     1
102
RTVSPropertyOp26
 70
     1
102
RTVSPropertyOp27
 70
     1
  0
XRECORD
  5
1B35
102
{ACAD_REACTORS
330
1B34
102
}
330
1B34
100
AcDbXrecord
280
     1
102
RTVSPropertyOp0
 70
     1
102
RTVSPropertyOp1
 70
     1
102
RTVSPropertyOp2
 70
     1
102
RTVSPropertyOp3
 70
     1
102
RTVSPropertyOp4
 70
     1
102
RTVSPropertyOp5
 70
     1
102
RTVSPropertyOp6
 70
     1
102
RTVSPropertyOp7
 70
     1
102
RTVSPropertyOp8
 70
     1
102
RTVSPropertyOp9
 70
     1
102
RTVSPropertyOp10
 70
     1
102
RTVSPropertyOp11
 70
     1
102
RTVSPropertyOp12
 70
     1
102
RTVSPropertyOp13
 70
     1
102
RTVSPropertyOp14
 70
     1
102
RTVSPropertyOp15
 70
     1
102
RTVSPropertyOp16
 70
     1
102
RTVSPropertyOp17
 70
     1
102
RTVSPropertyOp18
 70
     1
102
RTVSPropertyOp19
 70
     1
102
RTVSPropertyOp20
 70
     1
102
RTVSPropertyOp21
 70
     1
102
RTVSPropertyOp22
 70
     1
102
RTVSPropertyOp23
 70
     1
102
RTVSPropertyOp24
 70
     1
102
RTVSPropertyOp25
 70
     1
102
RTVSPropertyOp26
 70
     1
102
RTVSPropertyOp27
 70
     1
  0
XRECORD
  5
1B27
102
{ACAD_REACTORS
330
1B26
102
}
330
1B26
100
AcDbXrecord
280
     1
102
RTVSPropertyOp0
 70
     1
102
RTVSPropertyOp1
 70
     1
102
RTVSPropertyOp2
 70
     1
102
RTVSPropertyOp3
 70
     1
102
RTVSPropertyOp4
 70
     1
102
RTVSPropertyOp5
 70
     1
102
RTVSPropertyOp6
 70
     1
102
RTVSPropertyOp7
 70
     1
102
RTVSPropertyOp8
 70
     1
102
RTVSPropertyOp9
 70
     1
102
RTVSPropertyOp10
 70
     1
102
RTVSPropertyOp11
 70
     1
102
RTVSPropertyOp12
 70
     1
102
RTVSPropertyOp13
 70
     1
102
RTVSPropertyOp14
 70
     1
102
RTVSPropertyOp15
 70
     1
102
RTVSPropertyOp16
 70
     1
102
RTVSPropertyOp17
 70
     1
102
RTVSPropertyOp18
 70
     1
102
RTVSPropertyOp19
 70
     1
102
RTVSPropertyOp20
 70
     1
102
RTVSPropertyOp21
 70
     1
102
RTVSPropertyOp22
 70
     1
102
RTVSPropertyOp23
 70
     1
102
RTVSPropertyOp24
 70
     1
102
RTVSPropertyOp25
 70
     1
102
RTVSPropertyOp26
 70
     1
102
RTVSPropertyOp27
 70
     1
  0
XRECORD
  5
1B2B
102
{ACAD_REACTORS
330
1B2A
102
}
330
1B2A
100
AcDbXrecord
280
     1
102
RTVSPropertyOp0
 70
     1
102
RTVSPropertyOp1
 70
     1
102
RTVSPropertyOp2
 70
     1
102
RTVSPropertyOp3
 70
     1
102
RTVSPropertyOp4
 70
     1
102
RTVSPropertyOp5
 70
     1
102
RTVSPropertyOp6
 70
     1
102
RTVSPropertyOp7
 70
     1
102
RTVSPropertyOp8
 70
     1
102
RTVSPropertyOp9
 70
     1
102
RTVSPropertyOp10
 70
     1
102
RTVSPropertyOp11
 70
     1
102
RTVSPropertyOp12
 70
     1
102
RTVSPropertyOp13
 70
     1
102
RTVSPropertyOp14
 70
     1
102
RTVSPropertyOp15
 70
     1
102
RTVSPropertyOp16
 70
     1
102
RTVSPropertyOp17
 70
     1
102
RTVSPropertyOp18
 70
     1
102
RTVSPropertyOp19
 70
     1
102
RTVSPropertyOp20
 70
     1
102
RTVSPropertyOp21
 70
     1
102
RTVSPropertyOp22
 70
     1
102
RTVSPropertyOp23
 70
     1
102
RTVSPropertyOp24
 70
     1
102
RTVSPropertyOp25
 70
     1
102
RTVSPropertyOp26
 70
     1
102
RTVSPropertyOp27
 70
     1
  0
XRECORD
  5
1B3B
102
{ACAD_REACTORS
330
1B3A
102
}
330
1B3A
100
AcDbXrecord
280
     1
102
RTVSPropertyOp0
 70
     0
102
RTVSPropertyOp1
 70
     0
102
RTVSPropertyOp2
 70
     0
102
RTVSPropertyOp3
 70
     0
102
RTVSPropertyOp4
 70
     0
102
RTVSPropertyOp5
 70
     0
102
RTVSPropertyOp6
 70
     0
102
RTVSPropertyOp7
 70
     0
102
RTVSPropertyOp8
 70
     0
102
RTVSPropertyOp9
 70
     0
102
RTVSPropertyOp10
 70
     0
102
RTVSPropertyOp11
 70
     0
102
RTVSPropertyOp12
 70
     0
102
RTVSPropertyOp13
 70
     0
102
RTVSPropertyOp14
 70
     2
102
RTVSPropertyOp15
 70
     0
102
RTVSPropertyOp16
 70
     0
102
RTVSPropertyOp17
 70
     0
102
RTVSPropertyOp18
 70
     0
102
RTVSPropertyOp19
 70
     0
102
RTVSPropertyOp20
 70
     0
102
RTVSPropertyOp21
 70
     0
102
RTVSPropertyOp22
 70
     0
102
RTVSPropertyOp23
 70
     0
102
RTVSPropertyOp24
 70
     0
102
RTVSPropertyOp25
 70
     0
102
RTVSPropertyOp26
 70
     0
102
RTVSPropertyOp27
 70
     0
  0
XRECORD
  5
1B33
102
{ACAD_REACTORS
330
1B32
102
}
330
1B32
100
AcDbXrecord
280
     1
102
RTVSPropertyOp0
 70
     1
102
RTVSPropertyOp1
 70
     1
102
RTVSPropertyOp2
 70
     1
102
RTVSPropertyOp3
 70
     1
102
RTVSPropertyOp4
 70
     1
102
RTVSPropertyOp5
 70
     1
102
RTVSPropertyOp6
 70
     1
102
RTVSPropertyOp7
 70
     1
102
RTVSPropertyOp8
 70
     1
102
RTVSPropertyOp9
 70
     1
102
RTVSPropertyOp10
 70
     1
102
RTVSPropertyOp11
 70
     1
102
RTVSPropertyOp12
 70
     1
102
RTVSPropertyOp13
 70
     1
102
RTVSPropertyOp14
 70
     1
102
RTVSPropertyOp15
 70
     1
102
RTVSPropertyOp16
 70
     1
102
RTVSPropertyOp17
 70
     1
102
RTVSPropertyOp18
 70
     1
102
RTVSPropertyOp19
 70
     1
102
RTVSPropertyOp20
 70
     1
102
RTVSPropertyOp21
 70
     1
102
RTVSPropertyOp22
 70
     1
102
RTVSPropertyOp23
 70
     1
102
RTVSPropertyOp24
 70
     1
102
RTVSPropertyOp25
 70
     1
102
RTVSPropertyOp26
 70
     1
102
RTVSPropertyOp27
 70
     1
  0
XRECORD
  5
1B17
102
{ACAD_REACTORS
330
1B16
102
}
330
1B16
100
AcDbXrecord
280
     1
102
RTVSPropertyOp0
 70
     1
102
RTVSPropertyOp1
 70
     1
102
RTVSPropertyOp2
 70
     1
102
RTVSPropertyOp3
 70
     1
102
RTVSPropertyOp4
 70
     1
102
RTVSPropertyOp5
 70
     1
102
RTVSPropertyOp6
 70
     1
102
RTVSPropertyOp7
 70
     1
102
RTVSPropertyOp8
 70
     1
102
RTVSPropertyOp9
 70
     1
102
RTVSPropertyOp10
 70
     1
102
RTVSPropertyOp11
 70
     1
102
RTVSPropertyOp12
 70
     1
102
RTVSPropertyOp13
 70
     1
102
RTVSPropertyOp14
 70
     1
102
RTVSPropertyOp15
 70
     1
102
RTVSPropertyOp16
 70
     1
102
RTVSPropertyOp17
 70
     1
102
RTVSPropertyOp18
 70
     1
102
RTVSPropertyOp19
 70
     1
102
RTVSPropertyOp20
 70
     1
102
RTVSPropertyOp21
 70
     1
102
RTVSPropertyOp22
 70
     1
102
RTVSPropertyOp23
 70
     1
102
RTVSPropertyOp24
 70
     1
102
RTVSPropertyOp25
 70
     1
102
RTVSPropertyOp26
 70
     1
102
RTVSPropertyOp27
 70
     1
  0
XRECORD
  5
1B19
102
{ACAD_REACTORS
330
1B18
102
}
330
1B18
100
AcDbXrecord
280
     1
102
RTVSPropertyOp0
 70
     1
102
RTVSPropertyOp1
 70
     1
102
RTVSPropertyOp2
 70
     1
102
RTVSPropertyOp3
 70
     1
102
RTVSPropertyOp4
 70
     1
102
RTVSPropertyOp5
 70
     1
102
RTVSPropertyOp6
 70
     1
102
RTVSPropertyOp7
 70
     1
102
RTVSPropertyOp8
 70
     1
102
RTVSPropertyOp9
 70
     1
102
RTVSPropertyOp10
 70
     1
102
RTVSPropertyOp11
 70
     1
102
RTVSPropertyOp12
 70
     1
102
RTVSPropertyOp13
 70
     1
102
RTVSPropertyOp14
 70
     1
102
RTVSPropertyOp15
 70
     1
102
RTVSPropertyOp16
 70
     1
102
RTVSPropertyOp17
 70
     1
102
RTVSPropertyOp18
 70
     1
102
RTVSPropertyOp19
 70
     1
102
RTVSPropertyOp20
 70
     1
102
RTVSPropertyOp21
 70
     1
102
RTVSPropertyOp22
 70
     1
102
RTVSPropertyOp23
 70
     1
102
RTVSPropertyOp24
 70
     1
102
RTVSPropertyOp25
 70
     1
102
RTVSPropertyOp26
 70
     1
102
RTVSPropertyOp27
 70
     1
  0
XRECORD
  5
1B1B
102
{ACAD_REACTORS
330
1B1A
102
}
330
1B1A
100
AcDbXrecord
280
     1
102
RTVSPropertyOp0
 70
     1
102
RTVSPropertyOp1
 70
     1
102
RTVSPropertyOp2
 70
     1
102
RTVSPropertyOp3
 70
     1
102
RTVSPropertyOp4
 70
     1
102
RTVSPropertyOp5
 70
     1
102
RTVSPropertyOp6
 70
     1
102
RTVSPropertyOp7
 70
     1
102
RTVSPropertyOp8
 70
     1
102
RTVSPropertyOp9
 70
     1
102
RTVSPropertyOp10
 70
     1
102
RTVSPropertyOp11
 70
     1
102
RTVSPropertyOp12
 70
     1
102
RTVSPropertyOp13
 70
     1
102
RTVSPropertyOp14
 70
     1
102
RTVSPropertyOp15
 70
     1
102
RTVSPropertyOp16
 70
     1
102
RTVSPropertyOp17
 70
     1
102
RTVSPropertyOp18
 70
     1
102
RTVSPropertyOp19
 70
     1
102
RTVSPropertyOp20
 70
     1
102
RTVSPropertyOp21
 70
     1
102
RTVSPropertyOp22
 70
     1
102
RTVSPropertyOp23
 70
     1
102
RTVSPropertyOp24
 70
     1
102
RTVSPropertyOp25
 70
     1
102
RTVSPropertyOp26
 70
     1
102
RTVSPropertyOp27
 70
     1
  0
XRECORD
  5
1B1D
102
{ACAD_REACTORS
330
1B1C
102
}
330
1B1C
100
AcDbXrecord
280
     1
102
RTVSPropertyOp0
 70
     1
102
RTVSPropertyOp1
 70
     1
102
RTVSPropertyOp2
 70
     1
102
RTVSPropertyOp3
 70
     1
102
RTVSPropertyOp4
 70
     1
102
RTVSPropertyOp5
 70
     1
102
RTVSPropertyOp6
 70
     1
102
RTVSPropertyOp7
 70
     1
102
RTVSPropertyOp8
 70
     1
102
RTVSPropertyOp9
 70
     1
102
RTVSPropertyOp10
 70
     1
102
RTVSPropertyOp11
 70
     1
102
RTVSPropertyOp12
 70
     1
102
RTVSPropertyOp13
 70
     1
102
RTVSPropertyOp14
 70
     1
102
RTVSPropertyOp15
 70
     1
102
RTVSPropertyOp16
 70
     1
102
RTVSPropertyOp17
 70
     1
102
RTVSPropertyOp18
 70
     1
102
RTVSPropertyOp19
 70
     1
102
RTVSPropertyOp20
 70
     1
102
RTVSPropertyOp21
 70
     1
102
RTVSPropertyOp22
 70
     1
102
RTVSPropertyOp23
 70
     1
102
RTVSPropertyOp24
 70
     1
102
RTVSPropertyOp25
 70
     1
102
RTVSPropertyOp26
 70
     1
102
RTVSPropertyOp27
 70
     1
  0
XRECORD
  5
1B37
102
{ACAD_REACTORS
330
1B36
102
}
330
1B36
100
AcDbXrecord
280
     1
102
RTVSPropertyOp0
 70
     0
102
RTVSPropertyOp1
 70
     0
102
RTVSPropertyOp2
 70
     0
102
RTVSPropertyOp3
 70
     0
102
RTVSPropertyOp4
 70
     0
102
RTVSPropertyOp5
 70
     0
102
RTVSPropertyOp6
 70
     0
102
RTVSPropertyOp7
 70
     0
102
RTVSPropertyOp8
 70
     0
102
RTVSPropertyOp9
 70
     0
102
RTVSPropertyOp10
 70
     0
102
RTVSPropertyOp11
 70
     0
102
RTVSPropertyOp12
 70
     0
102
RTVSPropertyOp13
 70
     0
102
RTVSPropertyOp14
 70
     2
102
RTVSPropertyOp15
 70
     0
102
RTVSPropertyOp16
 70
     0
102
RTVSPropertyOp17
 70
     0
102
RTVSPropertyOp18
 70
     0
102
RTVSPropertyOp19
 70
     0
102
RTVSPropertyOp20
 70
     0
102
RTVSPropertyOp21
 70
     0
102
RTVSPropertyOp22
 70
     0
102
RTVSPropertyOp23
 70
     0
102
RTVSPropertyOp24
 70
     0
102
RTVSPropertyOp25
 70
     0
102
RTVSPropertyOp26
 70
     0
102
RTVSPropertyOp27
 70
     0
  0
XRECORD
  5
1B31
102
{ACAD_REACTORS
330
1B30
102
}
330
1B30
100
AcDbXrecord
280
     1
102
RTVSPropertyOp0
 70
     1
102
RTVSPropertyOp1
 70
     1
102
RTVSPropertyOp2
 70
     1
102
RTVSPropertyOp3
 70
     1
102
RTVSPropertyOp4
 70
     1
102
RTVSPropertyOp5
 70
     1
102
RTVSPropertyOp6
 70
     1
102
RTVSPropertyOp7
 70
     1
102
RTVSPropertyOp8
 70
     1
102
RTVSPropertyOp9
 70
     1
102
RTVSPropertyOp10
 70
     1
102
RTVSPropertyOp11
 70
     1
102
RTVSPropertyOp12
 70
     1
102
RTVSPropertyOp13
 70
     1
102
RTVSPropertyOp14
 70
     1
102
RTVSPropertyOp15
 70
     1
102
RTVSPropertyOp16
 70
     1
102
RTVSPropertyOp17
 70
     1
102
RTVSPropertyOp18
 70
     1
102
RTVSPropertyOp19
 70
     1
102
RTVSPropertyOp20
 70
     1
102
RTVSPropertyOp21
 70
     1
102
RTVSPropertyOp22
 70
     1
102
RTVSPropertyOp23
 70
     1
102
RTVSPropertyOp24
 70
     1
102
RTVSPropertyOp25
 70
     1
102
RTVSPropertyOp26
 70
     1
102
RTVSPropertyOp27
 70
     1
  0
XRECORD
  5
1B39
102
{ACAD_REACTORS
330
1B38
102
}
330
1B38
100
AcDbXrecord
280
     1
102
RTVSPropertyOp0
 70
     0
102
RTVSPropertyOp1
 70
     0
102
RTVSPropertyOp2
 70
     0
102
RTVSPropertyOp3
 70
     0
102
RTVSPropertyOp4
 70
     0
102
RTVSPropertyOp5
 70
     0
102
RTVSPropertyOp6
 70
     0
102
RTVSPropertyOp7
 70
     0
102
RTVSPropertyOp8
 70
     0
102
RTVSPropertyOp9
 70
     0
102
RTVSPropertyOp10
 70
     0
102
RTVSPropertyOp11
 70
     0
102
RTVSPropertyOp12
 70
     0
102
RTVSPropertyOp13
 70
     0
102
RTVSPropertyOp14
 70
     2
102
RTVSPropertyOp15
 70
     0
102
RTVSPropertyOp16
 70
     0
102
RTVSPropertyOp17
 70
     0
102
RTVSPropertyOp18
 70
     0
102
RTVSPropertyOp19
 70
     0
102
RTVSPropertyOp20
 70
     0
102
RTVSPropertyOp21
 70
     0
102
RTVSPropertyOp22
 70
     0
102
RTVSPropertyOp23
 70
     0
102
RTVSPropertyOp24
 70
     0
102
RTVSPropertyOp25
 70
     0
102
RTVSPropertyOp26
 70
     0
102
RTVSPropertyOp27
 70
     0
  0
XRECORD
  5
1B29
102
{ACAD_REACTORS
330
1B28
102
}
330
1B28
100
AcDbXrecord
280
     1
102
RTVSPropertyOp0
 70
     1
102
RTVSPropertyOp1
 70
     1
102
RTVSPropertyOp2
 70
     1
102
RTVSPropertyOp3
 70
     1
102
RTVSPropertyOp4
 70
     1
102
RTVSPropertyOp5
 70
     1
102
RTVSPropertyOp6
 70
     1
102
RTVSPropertyOp7
 70
     1
102
RTVSPropertyOp8
 70
     1
102
RTVSPropertyOp9
 70
     1
102
RTVSPropertyOp10
 70
     1
102
RTVSPropertyOp11
 70
     1
102
RTVSPropertyOp12
 70
     1
102
RTVSPropertyOp13
 70
     1
102
RTVSPropertyOp14
 70
     1
102
RTVSPropertyOp15
 70
     1
102
RTVSPropertyOp16
 70
     1
102
RTVSPropertyOp17
 70
     1
102
RTVSPropertyOp18
 70
     1
102
RTVSPropertyOp19
 70
     1
102
RTVSPropertyOp20
 70
     1
102
RTVSPropertyOp21
 70
     1
102
RTVSPropertyOp22
 70
     1
102
RTVSPropertyOp23
 70
     1
102
RTVSPropertyOp24
 70
     1
102
RTVSPropertyOp25
 70
     1
102
RTVSPropertyOp26
 70
     1
102
RTVSPropertyOp27
 70
     1
  0
XRECORD
  5
1B2F
102
{ACAD_REACTORS
330
1B2E
102
}
330
1B2E
100
AcDbXrecord
280
     1
102
RTVSPropertyOp0
 70
     1
102
RTVSPropertyOp1
 70
     1
102
RTVSPropertyOp2
 70
     1
102
RTVSPropertyOp3
 70
     1
102
RTVSPropertyOp4
 70
     1
102
RTVSPropertyOp5
 70
     1
102
RTVSPropertyOp6
 70
     1
102
RTVSPropertyOp7
 70
     1
102
RTVSPropertyOp8
 70
     1
102
RTVSPropertyOp9
 70
     1
102
RTVSPropertyOp10
 70
     1
102
RTVSPropertyOp11
 70
     1
102
RTVSPropertyOp12
 70
     1
102
RTVSPropertyOp13
 70
     1
102
RTVSPropertyOp14
 70
     1
102
RTVSPropertyOp15
 70
     1
102
RTVSPropertyOp16
 70
     1
102
RTVSPropertyOp17
 70
     1
102
RTVSPropertyOp18
 70
     1
102
RTVSPropertyOp19
 70
     1
102
RTVSPropertyOp20
 70
     1
102
RTVSPropertyOp21
 70
     1
102
RTVSPropertyOp22
 70
     1
102
RTVSPropertyOp23
 70
     1
102
RTVSPropertyOp24
 70
     1
102
RTVSPropertyOp25
 70
     1
102
RTVSPropertyOp26
 70
     1
102
RTVSPropertyOp27
 70
     1
  0
ENDSEC
  0
EOF
