  0
SECTION
  2
HEADER
  9
$ACADVER
  1
AC1015
  9
$ACADMAINTVER
 70
    20
  9
$DWGCODEPAGE
  3
ANSI_1252
  9
$INSBASE
 10
0.0
 20
0.0
 30
0.0
  9
$EXTMIN
 10
97.58694820664779
 20
139.0963906239443
 30
-0.0000000000112498
  9
$EXTMAX
 10
564.2528424452794
 20
230.277420657777
 30
0.0000000000002956
  9
$LIMMIN
 10
0.0
 20
0.0
  9
$LIMMAX
 10
420.0
 20
297.0
  9
$ORTHOMODE
 70
     1
  9
$REGENMODE
 70
     1
  9
$FILLMODE
 70
     1
  9
$QTEXTMODE
 70
     0
  9
$MIRRTEXT
 70
     1
  9
$LTSCALE
 40
1.0
  9
$ATTMODE
 70
     1
  9
$TEXTSIZE
 40
2.5
  9
$TRACEWID
 40
1.0
  9
$TEXTSTYLE
  7
Standard
  9
$CLAYER
  8
0
  9
$CELTYPE
  6
ByLayer
  9
$CECOLOR
 62
   256
  9
$CELTSCALE
 40
1.0
  9
$DISPSILH
 70
     0
  9
$DIMSCALE
 40
1.0
  9
$DIMASZ
 40
2.5
  9
$DIMEXO
 40
0.625
  9
$DIMDLI
 40
3.75
  9
$DIMRND
 40
0.0
  9
$DIMDLE
 40
0.0
  9
$DIMEXE
 40
1.25
  9
$DIMTP
 40
0.0
  9
$DIMTM
 40
0.0
  9
$DIMTXT
 40
2.5
  9
$DIMCEN
 40
2.5
  9
$DIMTSZ
 40
0.0
  9
$DIMTOL
 70
     0
  9
$DIMLIM
 70
     0
  9
$DIMTIH
 70
     0
  9
$DIMTOH
 70
     0
  9
$DIMSE1
 70
     0
  9
$DIMSE2
 70
     0
  9
$DIMTAD
 70
     1
  9
$DIMZIN
 70
     8
  9
$DIMBLK
  1

  9
$DIMASO
 70
     1
  9
$DIMSHO
 70
     1
  9
$DIMPOST
  1

  9
$DIMAPOST
  1

  9
$DIMALT
 70
     0
  9
$DIMALTD
 70
     3
  9
$DIMALTF
 40
0.03937007874016
  9
$DIMLFAC
 40
1.0
  9
$DIMTOFL
 70
     1
  9
$DIMTVP
 40
0.0
  9
$DIMTIX
 70
     0
  9
$DIMSOXD
 70
     0
  9
$DIMSAH
 70
     0
  9
$DIMBLK1
  1

  9
$DIMBLK2
  1

  9
$DIMSTYLE
  2
ISO-25
  9
$DIMCLRD
 70
     0
  9
$DIMCLRE
 70
     0
  9
$DIMCLRT
 70
     0
  9
$DIMTFAC
 40
1.0
  9
$DIMGAP
 40
0.625
  9
$DIMJUST
 70
     0
  9
$DIMSD1
 70
     0
  9
$DIMSD2
 70
     0
  9
$DIMTOLJ
 70
     0
  9
$DIMTZIN
 70
     8
  9
$DIMALTZ
 70
     0
  9
$DIMALTTZ
 70
     0
  9
$DIMUPT
 70
     0
  9
$DIMDEC
 70
     2
  9
$DIMTDEC
 70
     2
  9
$DIMALTU
 70
     2
  9
$DIMALTTD
 70
     3
  9
$DIMTXSTY
  7
Standard
  9
$DIMAUNIT
 70
     0
  9
$DIMADEC
 70
     0
  9
$DIMALTRND
 40
0.0
  9
$DIMAZIN
 70
     0
  9
$DIMDSEP
 70
    44
  9
$DIMATFIT
 70
     3
  9
$DIMFRAC
 70
     0
  9
$DIMLDRBLK
  1

  9
$DIMLUNIT
 70
     2
  9
$DIMLWD
 70
    -2
  9
$DIMLWE
 70
    -2
  9
$DIMTMOVE
 70
     0
  9
$LUNITS
 70
     2
  9
$LUPREC
 70
     4
  9
$SKETCHINC
 40
1.0
  9
$FILLETRAD
 40
0.0
  9
$AUNITS
 70
     0
  9
$AUPREC
 70
     0
  9
$MENU
  1
.
  9
$ELEVATION
 40
0.0
  9
$PELEVATION
 40
0.0
  9
$THICKNESS
 40
0.0
  9
$LIMCHECK
 70
     0
  9
$CHAMFERA
 40
10.0
  9
$CHAMFERB
 40
10.0
  9
$CHAMFERC
 40
20.0
  9
$CHAMFERD
 40
0.0
  9
$SKPOLY
 70
     0
  9
$TDCREATE
 40
2452878.397743773
  9
$TDUCREATE
 40
2452878.356077107
  9
$TDUPDATE
 40
2456149.683071285
  9
$TDUUPDATE
 40
2456149.641404618
  9
$TDINDWG
 40
0.0050819213
  9
$TDUSRTIMER
 40
0.0050819213
  9
$USRTIMER
 70
     1
  9
$ANGBASE
 50
0.0
  9
$ANGDIR
 70
     0
  9
$PDMODE
 70
     0
  9
$PDSIZE
 40
0.0
  9
$PLINEWID
 40
0.0
  9
$SPLFRAME
 70
     0
  9
$SPLINETYPE
 70
     6
  9
$SPLINESEGS
 70
     8
  9
$HANDSEED
  5
4E0
  9
$SURFTAB1
 70
     6
  9
$SURFTAB2
 70
     6
  9
$SURFTYPE
 70
     6
  9
$SURFU
 70
     6
  9
$SURFV
 70
     6
  9
$UCSBASE
  2

  9
$UCSNAME
  2

  9
$UCSORG
 10
0.0
 20
0.0
 30
0.0
  9
$UCSXDIR
 10
1.0
 20
0.0
 30
0.0
  9
$UCSYDIR
 10
0.0
 20
1.0
 30
0.0
  9
$UCSORTHOREF
  2

  9
$UCSORTHOVIEW
 70
     0
  9
$UCSORGTOP
 10
0.0
 20
0.0
 30
0.0
  9
$UCSORGBOTTOM
 10
0.0
 20
0.0
 30
0.0
  9
$UCSORGLEFT
 10
0.0
 20
0.0
 30
0.0
  9
$UCSORGRIGHT
 10
0.0
 20
0.0
 30
0.0
  9
$UCSORGFRONT
 10
0.0
 20
0.0
 30
0.0
  9
$UCSORGBACK
 10
0.0
 20
0.0
 30
0.0
  9
$PUCSBASE
  2

  9
$PUCSNAME
  2

  9
$PUCSORG
 10
0.0
 20
0.0
 30
0.0
  9
$PUCSXDIR
 10
1.0
 20
0.0
 30
0.0
  9
$PUCSYDIR
 10
0.0
 20
1.0
 30
0.0
  9
$PUCSORTHOREF
  2

  9
$PUCSORTHOVIEW
 70
     0
  9
$PUCSORGTOP
 10
0.0
 20
0.0
 30
0.0
  9
$PUCSORGBOTTOM
 10
0.0
 20
0.0
 30
0.0
  9
$PUCSORGLEFT
 10
0.0
 20
0.0
 30
0.0
  9
$PUCSORGRIGHT
 10
0.0
 20
0.0
 30
0.0
  9
$PUCSORGFRONT
 10
0.0
 20
0.0
 30
0.0
  9
$PUCSORGBACK
 10
0.0
 20
0.0
 30
0.0
  9
$USERI1
 70
     0
  9
$USERI2
 70
     0
  9
$USERI3
 70
     0
  9
$USERI4
 70
     0
  9
$USERI5
 70
     0
  9
$USERR1
 40
0.0
  9
$USERR2
 40
0.0
  9
$USERR3
 40
0.0
  9
$USERR4
 40
0.0
  9
$USERR5
 40
0.0
  9
$WORLDVIEW
 70
     1
  9
$SHADEDGE
 70
     3
  9
$SHADEDIF
 70
    70
  9
$TILEMODE
 70
     1
  9
$MAXACTVP
 70
    64
  9
$PINSBASE
 10
0.0
 20
0.0
 30
0.0
  9
$PLIMCHECK
 70
     0
  9
$PEXTMIN
 10
1.000000000000000E+20
 20
1.000000000000000E+20
 30
1.000000000000000E+20
  9
$PEXTMAX
 10
-1.000000000000000E+20
 20
-1.000000000000000E+20
 30
-1.000000000000000E+20
  9
$PLIMMIN
 10
0.0
 20
0.0
  9
$PLIMMAX
 10
420.0
 20
297.0
  9
$UNITMODE
 70
     0
  9
$VISRETAIN
 70
     1
  9
$PLINEGEN
 70
     0
  9
$PSLTSCALE
 70
     1
  9
$TREEDEPTH
 70
  3020
  9
$CMLSTYLE
  2
Standard
  9
$CMLJUST
 70
     0
  9
$CMLSCALE
 40
20.0
  9
$PROXYGRAPHICS
 70
     1
  9
$MEASUREMENT
 70
     1
  9
$CELWEIGHT
370
    -1
  9
$ENDCAPS
280
     0
  9
$JOINSTYLE
280
     0
  9
$LWDISPLAY
290
     0
  9
$INSUNITS
 70
     4
  9
$HYPERLINKBASE
  1

  9
$STYLESHEET
  1

  9
$XEDIT
290
     1
  9
$CEPSNTYPE
380
     0
  9
$PSTYLEMODE
290
     1
  9
$FINGERPRINTGUID
  2
{B0ADB847-410A-48FE-A435-A3690CECA918}
  9
$VERSIONGUID
  2
{788C728F-489A-4E84-8F16-1CEBF36FF8BA}
  9
$EXTNAMES
290
     1
  9
$PSVPSCALE
 40
0.0
  9
$OLESTARTUP
290
     0
  0
ENDSEC
  0
SECTION
  2
CLASSES
  0
CLASS
  1
ACDBDICTIONARYWDFLT
  2
AcDbDictionaryWithDefault
  3
ObjectDBX Classes
 90
        0
280
     0
281
     0
  0
CLASS
  1
ACDBPLACEHOLDER
  2
AcDbPlaceHolder
  3
ObjectDBX Classes
 90
        0
280
     0
281
     0
  0
CLASS
  1
LAYOUT
  2
AcDbLayout
  3
ObjectDBX Classes
 90
        0
280
     0
281
     0
  0
CLASS
  1
DIMASSOC
  2
AcDbDimAssoc
  3
"AcDbDimAssoc|Product Desc:     AcDim ARX App For Dimension|Company:          Autodesk, Inc.|WEB Address:      www.autodesk.com"
 90
    32768
280
     0
281
     0
  0
CLASS
  1
DICTIONARYVAR
  2
AcDbDictionaryVar
  3
ObjectDBX Classes
 90
        0
280
     0
281
     0
  0
CLASS
  1
MATERIAL
  2
AcDbMaterial
  3
ObjectDBX Classes
 90
     1153
280
     0
281
     0
  0
CLASS
  1
VISUALSTYLE
  2
AcDbVisualStyle
  3
ObjectDBX Classes
 90
     4095
280
     0
281
     0
  0
CLASS
  1
TABLESTYLE
  2
AcDbTableStyle
  3
ObjectDBX Classes
 90
     4095
280
     0
281
     0
  0
CLASS
  1
SCALE
  2
AcDbScale
  3
ObjectDBX Classes
 90
     1153
280
     0
281
     0
  0
CLASS
  1
MLEADERSTYLE
  2
AcDbMLeaderStyle
  3
ACDB_MLEADERSTYLE_CLASS
 90
     4095
280
     0
281
     0
  0
CLASS
  1
CELLSTYLEMAP
  2
AcDbCellStyleMap
  3
ObjectDBX Classes
 90
     1152
280
     0
281
     0
  0
ENDSEC
  0
SECTION
  2
TABLES
  0
TABLE
  2
VPORT
  5
8
330
0
100
AcDbSymbolTable
 70
     1
  0
VPORT
  5
44C
330
8
100
AcDbSymbolTableRecord
100
AcDbViewportTableRecord
  2
*Active
 70
     0
 10
0.0
 20
0.0
 11
1.0
 21
1.0
 12
330.9198953259636
 22
184.6869056408607
 13
0.0
 23
0.0
 14
10.0
 24
10.0
 15
10.0
 25
10.0
 16
0.0
 26
0.0
 36
1.0
 17
0.0
 27
0.0
 37
0.0
 40
284.6847052388012
 41
1.645464025026068
 42
50.0
 43
0.0
 44
0.0
 50
0.0
 51
0.0
 71
     0
 72
   100
 73
     1
 74
     3
 75
     0
 76
     0
 77
     0
 78
     0
281
     0
 65
     1
110
0.0
120
0.0
130
0.0
111
1.0
121
0.0
131
0.0
112
0.0
122
1.0
132
0.0
 79
     0
146
0.0
  0
ENDTAB
  0
TABLE
  2
LTYPE
  5
5
330
0
100
AcDbSymbolTable
 70
     2
  0
LTYPE
  5
14
330
5
100
AcDbSymbolTableRecord
100
AcDbLinetypeTableRecord
  2
ByBlock
 70
     0
  3

 72
    65
 73
     0
 40
0.0
  0
LTYPE
  5
15
330
5
100
AcDbSymbolTableRecord
100
AcDbLinetypeTableRecord
  2
ByLayer
 70
     0
  3

 72
    65
 73
     0
 40
0.0
  0
LTYPE
  5
16
330
5
100
AcDbSymbolTableRecord
100
AcDbLinetypeTableRecord
  2
Continuous
 70
     0
  3
Solid line
 72
    65
 73
     0
 40
0.0
  0
LTYPE
  5
9A
330
5
100
AcDbSymbolTableRecord
100
AcDbLinetypeTableRecord
  2
CENTER
 70
     0
  3
Center ____ _ ____ _ ____ _ ____ _ ____ _ ____
 72
    65
 73
     4
 40
10.16
 49
6.349999999999999
 74
     0
 49
-1.27
 74
     0
 49
1.27
 74
     0
 49
-1.27
 74
     0
  0
ENDTAB
  0
TABLE
  2
LAYER
  5
2
330
0
100
AcDbSymbolTable
 70
     9
  0
LAYER
  5
10
102
{ACAD_XDICTIONARY
360
495
102
}
330
2
100
AcDbSymbolTableRecord
100
AcDbLayerTableRecord
  2
0
 70
     0
 62
     7
  6
Continuous
370
    -3
390
F
  0
LAYER
  5
9B
102
{ACAD_XDICTIONARY
360
497
102
}
330
2
100
AcDbSymbolTableRecord
100
AcDbLayerTableRecord
  2
2
 70
     0
 62
     2
  6
Continuous
370
    -3
390
F
  0
LAYER
  5
9C
330
2
100
AcDbSymbolTableRecord
100
AcDbLayerTableRecord
  2
Defpoints
 70
     0
 62
     7
  6
Continuous
290
     0
370
    -3
390
F
  0
LAYER
  5
9D
102
{ACAD_XDICTIONARY
360
499
102
}
330
2
100
AcDbSymbolTableRecord
100
AcDbLayerTableRecord
  2
9
 70
     0
 62
     9
  6
Continuous
370
    -3
390
F
  0
LAYER
  5
9E
102
{ACAD_XDICTIONARY
360
49B
102
}
330
2
100
AcDbSymbolTableRecord
100
AcDbLayerTableRecord
  2
hatch
 70
     0
 62
     9
  6
Continuous
370
    -3
390
F
  0
LAYER
  5
9F
102
{ACAD_XDICTIONARY
360
49D
102
}
330
2
100
AcDbSymbolTableRecord
100
AcDbLayerTableRecord
  2
INDUSA
 70
     0
 62
     3
  6
Continuous
370
    -3
390
F
  0
LAYER
  5
A0
102
{ACAD_XDICTIONARY
360
49F
102
}
330
2
100
AcDbSymbolTableRecord
100
AcDbLayerTableRecord
  2
COTAS
 70
     0
 62
     1
  6
Continuous
370
    -3
390
F
  0
LAYER
  5
A1
102
{ACAD_XDICTIONARY
360
4A1
102
}
330
2
100
AcDbSymbolTableRecord
100
AcDbLayerTableRecord
  2
INDUSA CEN
 70
     0
 62
     9
  6
CENTER
370
    -3
390
F
  0
LAYER
  5
44B
102
{ACAD_XDICTIONARY
360
4A3
102
}
330
2
100
AcDbSymbolTableRecord
100
AcDbLayerTableRecord
  2
SANINDUSA
 70
     0
 62
     3
  6
Continuous
370
    -3
390
F
  0
ENDTAB
  0
TABLE
  2
STYLE
  5
3
330
0
100
AcDbSymbolTable
 70
     2
  0
STYLE
  5
11
330
3
100
AcDbSymbolTableRecord
100
AcDbTextStyleTableRecord
  2
Standard
 70
     0
 40
0.0
 41
1.0
 50
0.0
 71
     0
 42
2.5
  3
txt
  4

  0
STYLE
  5
A2
330
3
100
AcDbSymbolTableRecord
100
AcDbTextStyleTableRecord
  2
SANINDUSA
 70
     0
 40
0.0
 41
1.0
 50
0.0
 71
     0
 42
2.5
  3
zurchn.ttf
  4

1001
ACAD
1000
Zurich BT
1071
       34
  0
ENDTAB
  0
TABLE
  2
VIEW
  5
6
330
0
100
AcDbSymbolTable
 70
     0
  0
ENDTAB
  0
TABLE
  2
UCS
  5
7
330
0
100
AcDbSymbolTable
 70
     0
  0
ENDTAB
  0
TABLE
  2
APPID
  5
9
330
0
100
AcDbSymbolTable
 70
     6
  0
APPID
  5
12
330
9
100
AcDbSymbolTableRecord
100
AcDbRegAppTableRecord
  2
ACAD
 70
     0
  0
APPID
  5
A4
330
9
100
AcDbSymbolTableRecord
100
AcDbRegAppTableRecord
  2
GENIUS_GENODEF_13
 70
     0
  0
APPID
  5
A5
330
9
100
AcDbSymbolTableRecord
100
AcDbRegAppTableRecord
  2
GENIUS_GENOBJ-N-ZOO_13
 70
     0
  0
APPID
  5
A6
330
9
100
AcDbSymbolTableRecord
100
AcDbRegAppTableRecord
  2
GENIUS_GENZOO_16
 70
     0
  0
APPID
  5
440
330
9
100
AcDbSymbolTableRecord
100
AcDbRegAppTableRecord
  2
DCO15
 70
     0
  0
APPID
  5
4DF
330
9
100
AcDbSymbolTableRecord
100
AcDbRegAppTableRecord
  2
ACAD_MLEADERVER
 70
     0
  0
ENDTAB
  0
TABLE
  2
DIMSTYLE
  5
A
330
0
100
AcDbSymbolTable
 70
     2
100
AcDbDimStyleTable
 71
     0
  0
DIMSTYLE
105
27
330
A
100
AcDbSymbolTableRecord
100
AcDbDimStyleTableRecord
  2
ISO-25
 70
     0
 41
2.5
 42
0.625
 43
3.75
 44
1.25
 73
     0
 74
     0
 77
     1
 78
     8
140
2.5
141
2.5
143
0.03937007874016
147
0.625
171
     3
172
     1
271
     2
272
     2
274
     3
278
    44
283
     0
284
     8
340
11
  0
DIMSTYLE
105
A3
330
A
100
AcDbSymbolTableRecord
100
AcDbDimStyleTableRecord
  2
SANINDUSA
 70
     0
 41
3.0
 42
1.0
 43
1.0
 44
1.0
 73
     0
 74
     0
 77
     1
 78
     8
140
2.0
141
0.0
143
0.03937007874016
147
1.0
171
     3
172
     1
176
     1
177
     1
178
     1
179
     1
271
     1
272
     1
274
     3
278
    44
283
     0
284
     8
340
A2
371
    -1
372
    -1
  0
ENDTAB
  0
TABLE
  2
BLOCK_RECORD
  5
1
330
0
100
AcDbSymbolTable
 70
     2
  0
BLOCK_RECORD
  5
1F
330
1
100
AcDbSymbolTableRecord
100
AcDbBlockTableRecord
  2
*Model_Space
340
22
  0
BLOCK_RECORD
  5
1B
330
1
100
AcDbSymbolTableRecord
100
AcDbBlockTableRecord
  2
*Paper_Space
340
1E
  0
BLOCK_RECORD
  5
23
330
1
100
AcDbSymbolTableRecord
100
AcDbBlockTableRecord
  2
*Paper_Space0
340
26
  0
BLOCK_RECORD
  5
2B
330
1
100
AcDbSymbolTableRecord
100
AcDbBlockTableRecord
  2
_DotSmall
340
0
  0
ENDTAB
  0
ENDSEC
  0
SECTION
  2
BLOCKS
  0
BLOCK
  5
20
330
1F
100
AcDbEntity
  8
0
100
AcDbBlockBegin
  2
*Model_Space
 70
     0
 10
0.0
 20
0.0
 30
0.0
  3
*Model_Space
  1

  0
ENDBLK
  5
21
330
1F
100
AcDbEntity
  8
0
100
AcDbBlockEnd
  0
BLOCK
  5
1C
330
1B
100
AcDbEntity
 67
     1
  8
0
100
AcDbBlockBegin
  2
*Paper_Space
 70
     0
 10
0.0
 20
0.0
 30
0.0
  3
*Paper_Space
  1

  0
ENDBLK
  5
1D
330
1B
100
AcDbEntity
 67
     1
  8
0
100
AcDbBlockEnd
  0
BLOCK
  5
24
330
23
100
AcDbEntity
 67
     1
  8
0
100
AcDbBlockBegin
  2
*Paper_Space0
 70
     0
 10
0.0
 20
0.0
 30
0.0
  3
*Paper_Space0
  1

  0
ENDBLK
  5
25
330
23
100
AcDbEntity
 67
     1
  8
0
100
AcDbBlockEnd
  0
BLOCK
  5
2D
330
2B
100
AcDbEntity
  8
0
100
AcDbBlockBegin
  2
_DotSmall
 70
     0
 10
0.0
 20
0.0
 30
0.0
  3
_DotSmall
  1

  0
LWPOLYLINE
  5
2C
330
2B
100
AcDbEntity
  8
0
  6
ByBlock
 62
     0
100
AcDbPolyline
 90
        2
 70
     1
 43
0.5
 10
-0.0625
 20
0.0
 42
1.0
 10
0.0625
 20
0.0
 42
1.0
  0
ENDBLK
  5
2E
330
2B
100
AcDbEntity
  8
0
100
AcDbBlockEnd
  0
ENDSEC
  0
SECTION
  2
ENTITIES
  0
LWPOLYLINE
  5
1C1
330
1F
100
AcDbEntity
  8
INDUSA
  6
Continuous
100
AcDbPolyline
 90
        9
 70
   128
 43
0.0
 10
177.964057708344
 20
229.7761505575576
 10
177.9544506411056
 20
229.8736957185657
 10
177.9259986335981
 20
229.9674922737401
 10
177.8797950805127
 20
230.0539356740674
 10
177.8176155584836
 20
230.1297039481509
 10
177.7418495916721
 20
230.1918853637089
 10
177.6554088236925
 20
230.2380903238133
 10
177.5616151247812
 20
230.2665431977593
 10
177.464072934188
 20
230.2761505575576
  0
LINE
  5
1CC
330
1F
100
AcDbEntity
  8
INDUSA
  6
Continuous
100
AcDbLine
 10
177.964057708344
 20
179.2761505575577
 30
0.0
 11
177.964057708344
 21
229.7761505575576
 31
0.0
  0
LWPOLYLINE
  5
1D1
330
1F
100
AcDbEntity
  8
INDUSA
  6
Continuous
100
AcDbPolyline
 90
        9
 70
   128
 43
0.0
 10
98.12559700262491
 20
230.2761505575577
 10
98.02805481203169
 20
230.2665431977592
 10
97.93426111312047
 20
230.2380903238134
 10
97.84782034514083
 20
230.191885363709
 10
97.77205437832927
 20
230.1297039481509
 10
97.70987485630023
 20
230.0539356740675
 10
97.66367130321478
 20
229.9674922737402
 10
97.63521929570735
 20
229.8736957185657
 10
97.6256122284689
 20
229.7761505575577
  0
LINE
  5
1DC
330
1F
100
AcDbEntity
  8
INDUSA
  6
Continuous
100
AcDbLine
 10
97.6256122284689
 20
229.7761505575577
 30
0.0
 11
97.6256122284689
 21
179.2761505575577
 31
0.0
  0
CIRCLE
  5
1DE
330
1F
100
AcDbEntity
  8
INDUSA
  6
Continuous
100
AcDbCircle
 10
137.7948349684064
 20
179.2761505575577
 30
0.0
 40
40.00857521602035
  0
CIRCLE
  5
1E1
330
1F
100
AcDbEntity
  8
INDUSA
  6
Continuous
100
AcDbCircle
 10
137.7948349684064
 20
179.2761505575577
 30
0.0
 40
34.49142478397965
  0
ARC
  5
1E2
330
1F
100
AcDbEntity
  8
INDUSA
  6
Continuous
100
AcDbCircle
 10
137.7948349684064
 20
179.2761505575577
 30
0.0
 40
40.16922273993746
100
AcDbArc
 50
180.0
 51
0.0
  0
LINE
  5
1E5
330
1F
100
AcDbEntity
  8
INDUSA
  6
Continuous
100
AcDbLine
 10
98.23381840517951
 20
230.2761505575576
 30
0.0
 11
177.3558515316334
 21
230.2761505575575
 31
0.0
  0
CIRCLE
  5
1EA
330
1F
100
AcDbEntity
  8
INDUSA
  6
Continuous
100
AcDbCircle
 10
137.7948349684064
 20
179.2761505575577
 30
0.0
 40
4.5
  0
LINE
  5
354
330
1F
100
AcDbEntity
  8
INDUSA
  6
Continuous
100
AcDbLine
 10
418.7689942221108
 20
194.8070495377529
 30
0.0
 11
379.2603428536688
 21
194.8070495377529
 31
0.0
  0
LINE
  5
355
330
1F
100
AcDbEntity
  8
INDUSA
  6
Continuous
100
AcDbLine
 10
379.2603428536688
 20
184.8070495377529
 30
0.0
 11
419.1296112850591
 21
184.8070495377529
 31
0.0
  0
LINE
  5
358
330
1F
100
AcDbEntity
  8
INDUSA
  6
Continuous
100
AcDbLine
 10
419.268918069689
 20
194.3157757409714
 30
0.0
 11
419.429565593606
 21
185.1122852596842
 31
0.0
  0
ARC
  5
35A
330
1F
100
AcDbEntity
  8
INDUSA
  6
Continuous
100
AcDbCircle
 10
419.1296112850591
 20
185.1070495377531
 30
0.0
 40
0.2999999999999983
100
AcDbArc
 50
270.0
 51
1.000000000001776
  0
ARC
  5
35B
330
1F
100
AcDbEntity
  8
INDUSA
  6
Continuous
100
AcDbCircle
 10
418.7689942221108
 20
194.3070495377529
 30
0.0
 40
0.5000000000000058
100
AcDbArc
 50
1.000000000001776
 51
90.0
  0
LINE
  5
35C
330
1F
100
AcDbEntity
  8
INDUSA
  6
Continuous
100
AcDbLine
 10
379.2603428536688
 20
194.8070495377529
 30
0.0
 11
339.7516914852265
 21
194.8070495377529
 31
0.0
  0
LINE
  5
35D
330
1F
100
AcDbEntity
  8
INDUSA
  6
Continuous
100
AcDbLine
 10
368.2939240989888
 20
189.9915546038925
 30
0.0
 11
340.7638898659966
 21
191.7099321640636
 31
0.0
  0
LINE
  5
35E
330
1F
100
AcDbEntity
  8
INDUSA
  6
Continuous
100
AcDbLine
 10
328.7603428536688
 20
184.8070495377534
 30
0.0
 11
379.2603428536688
 21
184.8070495377529
 31
0.0
  0
LWPOLYLINE
  5
361
330
1F
100
AcDbEntity
  8
INDUSA
  6
Continuous
100
AcDbPolyline
 90
       23
 70
   128
 43
0.0
 10
379.2603428536688
 20
190.2915432588457
 10
377.264479745565
 20
190.4192296473021
 10
375.2624448966299
 20
190.5473112253399
 10
373.2680318300767
 20
190.6749055400274
 10
371.2886842839554
 20
190.8015363633895
 10
369.3318459963162
 20
190.9267274674517
 10
367.1690512399353
 20
191.0650952822035
 10
365.0380444754727
 20
191.2014298168152
 10
362.9485481033555
 20
191.3351090355623
 10
360.9102845240112
 20
191.4655109027195
 10
358.9329761378674
 20
191.5920133825626
 10
357.0263453453513
 20
191.7139944393662
 10
355.191669771553
 20
191.831372304087
 10
353.4279340073235
 20
191.9442118980006
 10
351.7429152615916
 20
192.0520156156473
 10
350.1443907432864
 20
192.1542858515682
 10
348.6401376613369
 20
192.2505250003047
 10
347.2379332246721
 20
192.3402354563974
 10
345.9204900857522
 20
192.4245231981309
 10
344.7088401639326
 20
192.5020426050606
 10
343.6083807154718
 20
192.5724483364985
 10
342.6245089966279
 20
192.6353950517579
 10
341.7626222636593
 20
192.6905374101521
  0
LWPOLYLINE
  5
363
330
1F
100
AcDbEntity
  8
INDUSA
  6
Continuous
100
AcDbPolyline
 90
        7
 70
   128
 43
0.0
 10
379.2603428536688
 20
190.2915432588457
 10
379.2476763633729
 20
190.2907206257211
 10
375.8023181764516
 20
190.0791993623485
 10
373.5258861186898
 20
189.9727937727753
 10
371.2497516033749
 20
189.9209443809192
 10
369.7704774859521
 20
189.9307390851323
 10
368.2939240989888
 20
189.9915546038925
  0
LINE
  5
364
330
1F
100
AcDbEntity
  8
INDUSA
  6
Continuous
100
AcDbLine
 10
328.2603428536688
 20
191.3070495377534
 30
0.0
 11
328.2603428536688
 21
185.1070495377531
 31
0.0
  0
ARC
  5
366
330
1F
100
AcDbEntity
  8
INDUSA
  6
Continuous
100
AcDbCircle
 10
328.5603428536688
 20
185.1070495377531
 30
0.0
 40
0.2999999999999971
100
AcDbArc
 50
180.0
 51
270.0
  0
LINE
  5
369
330
1F
100
AcDbEntity
  8
INDUSA
  6
Continuous
100
AcDbLine
 10
328.5603428536688
 20
184.8070495377534
 30
0.0
 11
328.7603428536688
 21
184.8070495377534
 31
0.0
  0
LINE
  5
36A
330
1F
100
AcDbEntity
  8
INDUSA
  6
Continuous
100
AcDbLine
 10
337.6490374481917
 20
191.8070495377529
 30
0.0
 11
328.7603428536688
 21
191.8070495377534
 31
0.0
  0
LWPOLYLINE
  5
36C
330
1F
100
AcDbEntity
  8
INDUSA
  6
Continuous
100
AcDbPolyline
 90
        2
 70
   128
 43
0.0
 10
340.7638898659966
 20
191.7099321640631
 10
339.7263531720772
 20
191.7638784941961
  0
LWPOLYLINE
  5
36D
330
1F
100
AcDbEntity
  8
INDUSA
  6
Continuous
100
AcDbPolyline
 90
        8
 70
   128
 43
0.0
 10
341.7626222636593
 20
192.6905374101521
 10
341.0444118037983
 20
192.7312688449034
 10
340.4424455715572
 20
192.7570931015526
 10
339.959624474555
 20
192.7722757508305
 10
339.5888701736809
 20
192.78093274077
 10
339.3465157517555
 20
192.7849520309588
 10
339.2337753549383
 20
192.7862406390783
 10
339.2395524406639
 20
192.7862294643847
  0
LINE
  5
371
330
1F
100
AcDbEntity
  8
INDUSA
  6
Continuous
100
AcDbLine
 10
339.2250737194463
 20
192.7864821914037
 30
0.0
 11
339.2517676376483
 21
194.3157757409718
 31
0.0
  0
ARC
  5
372
330
1F
100
AcDbEntity
  8
INDUSA
  6
Continuous
100
AcDbCircle
 10
338.22522358107
 20
192.8037946254572
 30
0.0
 40
0.9999999999999877
100
AcDbArc
 50
270.6531938037735
 51
359.1030934949527
  0
LWPOLYLINE
  5
374
330
1F
100
AcDbEntity
  8
INDUSA
  6
Continuous
100
AcDbPolyline
 90
        2
 70
   128
 43
0.0
 10
338.2365934326241
 20
191.8009448646681
 10
337.6490374481917
 20
191.8070495377529
  0
ARC
  5
375
330
1F
100
AcDbEntity
  8
INDUSA
100
AcDbCircle
 10
337.4499471259842
 20
130.2278000891734
 30
0.0
 40
61.578169589196
100
AcDbArc
 50
87.88142152297558
 51
89.2680402870927
  0
ARC
  5
376
330
1F
100
AcDbEntity
  8
INDUSA
  6
Continuous
100
AcDbCircle
 10
339.7516914852265
 20
194.3070495377529
 30
0.0
 40
0.5000000000000346
100
AcDbArc
 50
90.0
 51
178.9999999999982
  0
ARC
  5
377
330
1F
100
AcDbEntity
  8
INDUSA
  6
Continuous
100
AcDbCircle
 10
328.7603428536688
 20
191.3070495377534
 30
0.0
 40
0.5
100
AcDbArc
 50
90.0
 51
180.0
  0
LINE
  5
37B
330
1F
100
AcDbEntity
  8
INDUSA
  6
Continuous
100
AcDbLine
 10
530.3463198173224
 20
185.6070495377531
 30
0.0
 11
532.9112345212138
 21
185.6070495377531
 31
0.0
  0
LINE
  5
37C
330
1F
100
AcDbEntity
  8
INDUSA
  6
Continuous
100
AcDbLine
 10
533.7195248980792
 20
184.8070495377529
 30
0.0
 11
514.3731147365654
 21
184.8070495377529
 31
0.0
  0
LINE
  5
37D
330
1F
100
AcDbEntity
  8
INDUSA
  6
Continuous
100
AcDbLine
 10
529.9461481802604
 20
187.3099644399113
 30
0.0
 11
557.6517010062413
 21
187.7935666633608
 31
0.0
  0
LINE
  5
380
330
1F
100
AcDbEntity
  8
INDUSA
  6
Continuous
100
AcDbLine
 10
489.0549711857645
 20
194.8070495377529
 30
0.0
 11
559.0376684488801
 21
194.8070495377529
 31
0.0
  0
ARC
  5
382
330
1F
100
AcDbEntity
  8
INDUSA
  6
Continuous
100
AcDbCircle
 10
563.915588248713
 20
185.1070495377531
 30
0.0
 40
0.3000000000000123
100
AcDbArc
 50
270.0
 51
1.000000000001776
  0
ARC
  5
383
330
1F
100
AcDbEntity
  8
INDUSA
  6
Continuous
100
AcDbCircle
 10
563.5549711857645
 20
194.3070495377529
 30
0.0
 40
0.5000000000000058
100
AcDbArc
 50
1.000000000001776
 51
90.0
  0
LINE
  5
384
330
1F
100
AcDbEntity
  8
INDUSA
  6
Continuous
100
AcDbLine
 10
564.0548950333427
 20
194.3157757409713
 30
0.0
 11
564.2155425572598
 21
185.1122852596841
 31
0.0
  0
LINE
  5
385
330
1F
100
AcDbEntity
  8
INDUSA
  6
Continuous
100
AcDbLine
 10
543.4314051134308
 20
185.6070495377531
 30
0.0
 11
549.6612345212138
 21
185.6070495377531
 31
0.0
  0
LINE
  5
386
330
1F
100
AcDbEntity
  8
INDUSA
  6
Continuous
100
AcDbLine
 10
550.4695248980793
 20
184.8070495377529
 30
0.0
 11
542.6231147365654
 21
184.8070495377529
 31
0.0
  0
LINE
  5
387
330
1F
100
AcDbEntity
  8
INDUSA
  6
Continuous
100
AcDbLine
 10
551.931405113431
 20
185.6070495377531
 30
0.0
 11
557.6240361756081
 21
185.6070495377531
 31
0.0
  0
LINE
  5
389
330
1F
100
AcDbEntity
  8
INDUSA
  6
Continuous
100
AcDbLine
 10
558.5807339729492
 20
184.8070495377529
 30
0.0
 11
551.1231147365654
 21
184.8070495377529
 31
0.0
  0
LINE
  5
38A
330
1F
100
AcDbEntity
  8
INDUSA
  6
Continuous
100
AcDbLine
 10
558.5377446013019
 20
194.3157757409713
 30
0.0
 11
558.4376172372166
 21
188.5794828943368
 31
0.0
  0
LINE
  5
38B
330
1F
100
AcDbEntity
  8
INDUSA
  6
Continuous
100
AcDbLine
 10
563.0636225542066
 20
193.8070495377529
 30
0.0
 11
563.2032630736323
 21
185.8070495377529
 31
0.0
  0
LINE
  5
38C
330
1F
100
AcDbEntity
  8
INDUSA
  6
Continuous
100
AcDbLine
 10
559.529017080438
 20
193.8070495377529
 30
0.0
 11
559.4071284649914
 21
186.8240554355867
 31
0.0
  0
LINE
  5
38D
330
1F
100
AcDbEntity
  8
INDUSA
  6
Continuous
100
AcDbLine
 10
559.4071284649914
 20
185.8070495377529
 30
0.0
 11
563.2032630736323
 21
185.8070495377529
 31
0.0
  0
LINE
  5
38E
330
1F
100
AcDbEntity
  8
INDUSA
  6
Continuous
100
AcDbLine
 10
558.5807339729492
 20
184.8070495377529
 30
0.0
 11
563.915588248713
 21
184.8070495377529
 31
0.0
  0
LINE
  5
390
330
1F
100
AcDbEntity
  8
INDUSA
  6
Continuous
100
AcDbLine
 10
559.4071284649914
 20
185.8070495377529
 30
0.0
 11
559.4071284649914
 21
186.8240554355867
 31
0.0
  0
ARC
  5
391
330
1F
100
AcDbEntity
  8
INDUSA
  6
Continuous
100
AcDbCircle
 10
557.6240361756081
 20
185.3070495377529
 30
0.0
 40
0.2999999999999829
100
AcDbArc
 50
45.00000000000001
 51
90.0
  0
LINE
  5
392
330
1F
100
AcDbEntity
  8
INDUSA
  6
Continuous
100
AcDbLine
 10
558.5463198173224
 20
184.8090299647507
 30
0.0
 11
557.8361682099641
 21
185.5191815721087
 31
0.0
  0
ARC
  5
393
330
1F
100
AcDbEntity
  8
INDUSA
  6
Continuous
100
AcDbCircle
 10
557.6377390810916
 20
188.5934448194863
 30
0.0
 40
0.8000000000000046
100
AcDbArc
 50
271.0000000000018
 51
359.0000000000243
  0
LINE
  5
394
330
1F
100
AcDbEntity
  8
INDUSA
  6
Continuous
100
AcDbLine
 10
559.529017080438
 20
193.8070495377529
 30
0.0
 11
563.0636225542066
 21
193.8070495377529
 31
0.0
  0
LINE
  5
395
330
1F
100
AcDbEntity
  8
INDUSA
  6
Continuous
100
AcDbLine
 10
559.0376684488801
 20
194.8070495377529
 30
0.0
 11
563.5549711857645
 21
194.8070495377529
 31
0.0
  0
ARC
  5
396
330
1F
100
AcDbEntity
  8
INDUSA
  6
Continuous
100
AcDbCircle
 10
559.0376684488801
 20
194.3070495377529
 30
0.0
 40
0.5
100
AcDbArc
 50
90.0
 51
178.9999999999982
  0
ARC
  5
397
330
1F
100
AcDbEntity
  8
INDUSA
  6
Continuous
100
AcDbCircle
 10
551.931405113431
 20
185.3070495377529
 30
0.0
 40
0.2999999999999829
100
AcDbArc
 50
90.0
 51
150.0000000000025
  0
ARC
  5
398
330
1F
100
AcDbEntity
  8
INDUSA
  6
Continuous
100
AcDbCircle
 10
551.1231147365654
 20
185.1070495377531
 30
0.0
 40
0.3000000000000078
100
AcDbArc
 50
270.0
 51
329.9999999999995
  0
LINE
  5
399
330
1F
100
AcDbEntity
  8
INDUSA
  6
Continuous
100
AcDbLine
 10
550.4695248980793
 20
184.8070495377529
 30
0.0
 11
551.1231147365654
 21
184.8070495377529
 31
0.0
  0
ARC
  5
39A
330
1F
100
AcDbEntity
  8
INDUSA
  6
Continuous
100
AcDbCircle
 10
550.4695248980793
 20
185.1070495377531
 30
0.0
 40
0.2999999999999954
100
AcDbArc
 50
210.0000000000005
 51
270.0
  0
ARC
  5
39B
330
1F
100
AcDbEntity
  8
INDUSA
  6
Continuous
100
AcDbCircle
 10
549.6612345212138
 20
185.3070495377529
 30
0.0
 40
0.2999999999999829
100
AcDbArc
 50
29.99999999999832
 51
90.0
  0
LINE
  5
39C
330
1F
100
AcDbEntity
  8
INDUSA
  6
Continuous
100
AcDbLine
 10
551.3829223577008
 20
184.9570495377525
 30
0.0
 11
551.6715974922956
 21
185.4570495377526
 31
0.0
  0
LINE
  5
39D
330
1F
100
AcDbEntity
  8
INDUSA
  6
Continuous
100
AcDbLine
 10
550.209717276944
 20
184.9570495377525
 30
0.0
 11
549.921042142349
 21
185.4570495377526
 31
0.0
  0
LINE
  5
39E
330
1F
100
AcDbEntity
  8
INDUSA
  6
Continuous
100
AcDbLine
 10
535.1814051134311
 20
185.6070495377531
 30
0.0
 11
541.1612345212138
 21
185.6070495377531
 31
0.0
  0
LINE
  5
39F
330
1F
100
AcDbEntity
  8
INDUSA
  6
Continuous
100
AcDbLine
 10
541.9695248980793
 20
184.8070495377529
 30
0.0
 11
534.3731147365653
 21
184.8070495377529
 31
0.0
  0
ARC
  5
3A0
330
1F
100
AcDbEntity
  8
INDUSA
  6
Continuous
100
AcDbCircle
 10
542.6231147365654
 20
185.1070495377531
 30
0.0
 40
0.3000000000000078
100
AcDbArc
 50
270.0
 51
329.9999999999995
  0
LINE
  5
3A1
330
1F
100
AcDbEntity
  8
INDUSA
  6
Continuous
100
AcDbLine
 10
541.9695248980793
 20
184.8070495377529
 30
0.0
 11
542.6231147365654
 21
184.8070495377529
 31
0.0
  0
ARC
  5
3A2
330
1F
100
AcDbEntity
  8
INDUSA
  6
Continuous
100
AcDbCircle
 10
541.9695248980793
 20
185.1070495377531
 30
0.0
 40
0.3000000000000078
100
AcDbArc
 50
210.0000000000005
 51
270.0
  0
ARC
  5
3A3
330
1F
100
AcDbEntity
  8
INDUSA
  6
Continuous
100
AcDbCircle
 10
541.1612345212138
 20
185.3070495377529
 30
0.0
 40
0.2999999999999829
100
AcDbArc
 50
29.99999999999832
 51
90.0
  0
LINE
  5
3A4
330
1F
100
AcDbEntity
  8
INDUSA
  6
Continuous
100
AcDbLine
 10
542.8829223577008
 20
184.9570495377525
 30
0.0
 11
543.1715974922956
 21
185.4570495377526
 31
0.0
  0
LINE
  5
3A5
330
1F
100
AcDbEntity
  8
INDUSA
  6
Continuous
100
AcDbLine
 10
541.709717276944
 20
184.9570495377525
 30
0.0
 11
541.421042142349
 21
185.4570495377526
 31
0.0
  0
ARC
  5
3A6
330
1F
100
AcDbEntity
  8
INDUSA
  6
Continuous
100
AcDbCircle
 10
543.4314051134309
 20
185.3070495377524
 30
0.0
 40
0.2999999999999936
100
AcDbArc
 50
90.0
 51
150.0000000000025
  0
ARC
  5
3A7
330
1F
100
AcDbEntity
  8
INDUSA
  6
Continuous
100
AcDbCircle
 10
534.3731147365653
 20
185.1070495377531
 30
0.0
 40
0.2999999999999954
100
AcDbArc
 50
270.0
 51
329.9999999999995
  0
LINE
  5
3A8
330
1F
100
AcDbEntity
  8
INDUSA
  6
Continuous
100
AcDbLine
 10
533.7195248980792
 20
184.8070495377529
 30
0.0
 11
534.3731147365653
 21
184.8070495377529
 31
0.0
  0
ARC
  5
3A9
330
1F
100
AcDbEntity
  8
INDUSA
  6
Continuous
100
AcDbCircle
 10
533.7195248980792
 20
185.1070495377531
 30
0.0
 40
0.2999999999999954
100
AcDbArc
 50
210.0000000000005
 51
270.0
  0
ARC
  5
3AA
330
1F
100
AcDbEntity
  8
INDUSA
  6
Continuous
100
AcDbCircle
 10
535.1814051134311
 20
185.3070495377529
 30
0.0
 40
0.2999999999999936
100
AcDbArc
 50
90.0
 51
150.0000000000025
  0
ARC
  5
3AB
330
1F
100
AcDbEntity
  8
INDUSA
  6
Continuous
100
AcDbCircle
 10
532.9112345212138
 20
185.3070495377529
 30
0.0
 40
0.2999999999999936
100
AcDbArc
 50
29.99999999999832
 51
90.0
  0
LINE
  5
3AC
330
1F
100
AcDbEntity
  8
INDUSA
  6
Continuous
100
AcDbLine
 10
534.6329223577008
 20
184.9570495377525
 30
0.0
 11
534.9215974922956
 21
185.4570495377526
 31
0.0
  0
LINE
  5
3AD
330
1F
100
AcDbEntity
  8
INDUSA
  6
Continuous
100
AcDbLine
 10
533.4597172769441
 20
184.9570495377525
 30
0.0
 11
533.171042142349
 21
185.4570495377526
 31
0.0
  0
LINE
  5
3AE
330
1F
100
AcDbEntity
  8
INDUSA
  6
Continuous
100
AcDbLine
 10
490.4409386284032
 20
187.7935666633608
 30
0.0
 11
518.1464914543842
 21
187.3099644399113
 31
0.0
  0
LINE
  5
3AF
330
1F
100
AcDbEntity
  8
INDUSA
  6
Continuous
100
AcDbLine
 10
498.4314051134311
 20
185.6070495377531
 30
0.0
 11
504.6612345212138
 21
185.6070495377531
 31
0.0
  0
LINE
  5
3B0
330
1F
100
AcDbEntity
  8
INDUSA
  6
Continuous
100
AcDbLine
 10
505.4695248980793
 20
184.8070495377529
 30
0.0
 11
497.6231147365654
 21
184.8070495377529
 31
0.0
  0
LINE
  5
3B1
330
1F
100
AcDbEntity
  8
INDUSA
  6
Continuous
100
AcDbLine
 10
514.9215974922956
 20
185.4570495377526
 30
0.0
 11
514.6329223577009
 21
184.9570495377525
 31
0.0
  0
LINE
  5
3B4
330
1F
100
AcDbEntity
  8
INDUSA
  6
Continuous
100
AcDbLine
 10
528.7463198173225
 20
185.3070495377529
 30
0.0
 11
519.3463198173223
 21
185.3070495377529
 31
0.0
  0
ARC
  5
3B5
330
1F
100
AcDbEntity
  8
INDUSA
  6
Continuous
100
AcDbCircle
 10
530.3463198173224
 20
185.3070495377529
 30
0.0
 40
0.3000000000000057
100
AcDbArc
 50
90.0
 51
156.4218215217928
  0
ARC
  5
3B6
330
1F
100
AcDbEntity
  8
INDUSA
  6
Continuous
100
AcDbCircle
 10
529.8880622478268
 20
185.5070495377527
 30
0.0
 40
0.1999999999999805
100
AcDbArc
 50
270.0
 51
336.4218215218191
  0
LINE
  5
3B7
330
1F
100
AcDbEntity
  8
INDUSA
  6
Continuous
100
AcDbLine
 10
528.7463198173225
 20
185.3070495377529
 30
0.0
 11
529.8880622478268
 21
185.3070495377529
 31
0.0
  0
LINE
  5
3B8
330
1F
100
AcDbEntity
  8
INDUSA
  6
Continuous
100
AcDbLine
 10
528.8392130361358
 20
186.5999427565662
 30
0.0
 11
529.2564938055111
 21
187.0172235259416
 31
0.0
  0
ARC
  5
3B9
330
1F
100
AcDbEntity
  8
INDUSA
  6
Continuous
100
AcDbCircle
 10
529.9636005866978
 20
186.3101167447554
 30
0.0
 40
1.000000000000012
100
AcDbArc
 50
91.00000000000177
 51
135.0
  0
LINE
  5
3BA
330
1F
100
AcDbEntity
  8
INDUSA
  6
Continuous
100
AcDbLine
 10
528.5463198173224
 20
185.5070495377527
 30
0.0
 11
528.5463198173224
 21
185.8928359753796
 31
0.0
  0
ARC
  5
3BB
330
1F
100
AcDbEntity
  8
INDUSA
  6
Continuous
100
AcDbCircle
 10
528.7463198173225
 20
185.5070495377527
 30
0.0
 40
0.2000000000000028
100
AcDbArc
 50
180.0
 51
270.0
  0
ARC
  5
3BC
330
1F
100
AcDbEntity
  8
INDUSA
  6
Continuous
100
AcDbCircle
 10
529.5463198173224
 20
185.8928359753796
 30
0.0
 40
1.0
100
AcDbArc
 50
134.9999999999954
 51
180.0
  0
LINE
  5
3BD
330
1F
100
AcDbEntity
  8
INDUSA
  6
Continuous
100
AcDbLine
 10
518.8361458291335
 20
187.0172235259416
 30
0.0
 11
519.2534265985089
 21
186.5999427565662
 31
0.0
  0
LINE
  5
3BE
330
1F
100
AcDbEntity
  8
INDUSA
  6
Continuous
100
AcDbLine
 10
518.204577386818
 20
185.3070495377529
 30
0.0
 11
519.3463198173223
 21
185.3070495377529
 31
0.0
  0
ARC
  5
3BF
330
1F
100
AcDbEntity
  8
INDUSA
  6
Continuous
100
AcDbCircle
 10
518.5463198173224
 20
185.8928359753796
 30
0.0
 40
1.000000000000003
100
AcDbArc
 50
0.000000000000007
 51
45.00000000000461
  0
LINE
  5
3C0
330
1F
100
AcDbEntity
  8
INDUSA
  6
Continuous
100
AcDbLine
 10
519.5463198173224
 20
185.8928359753796
 30
0.0
 11
519.5463198173224
 21
185.5070495377527
 31
0.0
  0
ARC
  5
3C1
330
1F
100
AcDbEntity
  8
INDUSA
  6
Continuous
100
AcDbCircle
 10
519.3463198173223
 20
185.5070495377527
 30
0.0
 40
0.1999999999999957
100
AcDbArc
 50
270.0
 51
0.000000000000007
  0
ARC
  5
3C2
330
1F
100
AcDbEntity
  8
INDUSA
  6
Continuous
100
AcDbCircle
 10
518.1290390479471
 20
186.3101167447554
 30
0.0
 40
1.000000000000011
100
AcDbArc
 50
45.00000000000461
 51
88.99999999999826
  0
ARC
  5
3C3
330
1F
100
AcDbEntity
  8
INDUSA
  6
Continuous
100
AcDbCircle
 10
518.204577386818
 20
185.5070495377527
 30
0.0
 40
0.1999999999999854
100
AcDbArc
 50
203.5781784782072
 51
270.0
  0
ARC
  5
3C4
330
1F
100
AcDbEntity
  8
INDUSA
  6
Continuous
100
AcDbCircle
 10
517.7463198173224
 20
185.3070495377529
 30
0.0
 40
0.3000000000000009
100
AcDbArc
 50
23.57817847820715
 51
90.0
  0
ARC
  5
3C5
330
1F
100
AcDbEntity
  8
INDUSA
  6
Continuous
100
AcDbCircle
 10
515.181405113431
 20
185.3070495377529
 30
0.0
 40
0.2999999999999874
100
AcDbArc
 50
90.0
 51
150.0000000000025
  0
LINE
  5
3C6
330
1F
100
AcDbEntity
  8
INDUSA
  6
Continuous
100
AcDbLine
 10
515.181405113431
 20
185.6070495377531
 30
0.0
 11
517.7463198173224
 21
185.6070495377531
 31
0.0
  0
ARC
  5
3C7
330
1F
100
AcDbEntity
  8
INDUSA
  6
Continuous
100
AcDbCircle
 10
506.9314051134311
 20
185.3070495377529
 30
0.0
 40
0.2999999999999874
100
AcDbArc
 50
90.0
 51
150.0000000000025
  0
LINE
  5
3C8
330
1F
100
AcDbEntity
  8
INDUSA
  6
Continuous
100
AcDbLine
 10
506.6715974922956
 20
185.4570495377526
 30
0.0
 11
506.3829223577008
 21
184.9570495377525
 31
0.0
  0
LINE
  5
3C9
330
1F
100
AcDbEntity
  8
INDUSA
  6
Continuous
100
AcDbLine
 10
513.7195248980792
 20
184.8070495377529
 30
0.0
 11
506.1231147365654
 21
184.8070495377529
 31
0.0
  0
LINE
  5
3CA
330
1F
100
AcDbEntity
  8
INDUSA
  6
Continuous
100
AcDbLine
 10
506.9314051134311
 20
185.6070495377531
 30
0.0
 11
512.9112345212138
 21
185.6070495377531
 31
0.0
  0
ARC
  5
3CB
330
1F
100
AcDbEntity
  8
INDUSA
  6
Continuous
100
AcDbCircle
 10
514.3731147365654
 20
185.1070495377531
 30
0.0
 40
0.3000000000000016
100
AcDbArc
 50
270.0
 51
329.9999999999995
  0
LINE
  5
3CC
330
1F
100
AcDbEntity
  8
INDUSA
  6
Continuous
100
AcDbLine
 10
513.7195248980792
 20
184.8070495377529
 30
0.0
 11
514.3731147365654
 21
184.8070495377529
 31
0.0
  0
ARC
  5
3CD
330
1F
100
AcDbEntity
  8
INDUSA
  6
Continuous
100
AcDbCircle
 10
513.7195248980792
 20
185.1070495377531
 30
0.0
 40
0.3000000000000016
100
AcDbArc
 50
210.0000000000005
 51
270.0
  0
ARC
  5
3CE
330
1F
100
AcDbEntity
  8
INDUSA
  6
Continuous
100
AcDbCircle
 10
512.9112345212138
 20
185.3070495377529
 30
0.0
 40
0.2999999999999936
100
AcDbArc
 50
29.99999999999832
 51
90.0
  0
LINE
  5
3CF
330
1F
100
AcDbEntity
  8
INDUSA
  6
Continuous
100
AcDbLine
 10
513.171042142349
 20
185.4570495377526
 30
0.0
 11
513.459717276944
 21
184.9570495377525
 31
0.0
  0
ARC
  5
3D0
330
1F
100
AcDbEntity
  8
INDUSA
  6
Continuous
100
AcDbCircle
 10
506.1231147365654
 20
185.1070495377531
 30
0.0
 40
0.3000000000000016
100
AcDbArc
 50
270.0
 51
329.9999999999995
  0
LINE
  5
3D1
330
1F
100
AcDbEntity
  8
INDUSA
  6
Continuous
100
AcDbLine
 10
505.4695248980793
 20
184.8070495377529
 30
0.0
 11
506.1231147365654
 21
184.8070495377529
 31
0.0
  0
ARC
  5
3D2
330
1F
100
AcDbEntity
  8
INDUSA
  6
Continuous
100
AcDbCircle
 10
505.4695248980793
 20
185.1070495377531
 30
0.0
 40
0.2999999999999954
100
AcDbArc
 50
210.0000000000005
 51
270.0
  0
ARC
  5
3D3
330
1F
100
AcDbEntity
  8
INDUSA
  6
Continuous
100
AcDbCircle
 10
504.6612345212138
 20
185.3070495377529
 30
0.0
 40
0.2999999999999936
100
AcDbArc
 50
29.99999999999832
 51
90.0
  0
LINE
  5
3D4
330
1F
100
AcDbEntity
  8
INDUSA
  6
Continuous
100
AcDbLine
 10
504.921042142349
 20
185.4570495377526
 30
0.0
 11
505.209717276944
 21
184.9570495377525
 31
0.0
  0
LINE
  5
3D5
330
1F
100
AcDbEntity
  8
INDUSA
  6
Continuous
100
AcDbLine
 10
474.0463198173224
 20
185.8070495377529
 30
0.0
 11
488.6855111696534
 21
185.8070495377529
 31
0.0
  0
LINE
  5
3D6
330
1F
100
AcDbEntity
  8
INDUSA
  6
Continuous
100
AcDbLine
 10
473.3463198173224
 20
184.8070495377529
 30
0.0
 11
489.5119056616956
 21
184.8070495377529
 31
0.0
  0
LINE
  5
3D7
330
1F
100
AcDbEntity
  8
INDUSA
  6
Continuous
100
AcDbLine
 10
474.0463198173224
 20
190.8070495377529
 30
0.0
 11
482.4350144118453
 21
190.8070495377529
 31
0.0
  0
LINE
  5
3D8
330
1F
100
AcDbEntity
  8
INDUSA
  6
Continuous
100
AcDbLine
 10
473.5463198173224
 20
191.8070495377529
 30
0.0
 11
482.4350144118453
 21
191.8070495377529
 31
0.0
  0
ARC
  5
3D9
330
1F
100
AcDbEntity
  8
INDUSA
  6
Continuous
100
AcDbCircle
 10
490.4686034590366
 20
185.3070495377529
 30
0.0
 40
0.2999999999999829
100
AcDbArc
 50
90.0
 51
135.0
  0
LINE
  5
3DA
330
1F
100
AcDbEntity
  8
INDUSA
  6
Continuous
100
AcDbLine
 10
496.9351107424524
 20
184.8090299647507
 30
0.0
 11
489.5463198173224
 21
184.8090299647507
 31
0.0
  0
ARC
  5
3DC
330
1F
100
AcDbEntity
  8
INDUSA
  6
Continuous
100
AcDbCircle
 10
490.4549005535532
 20
188.5934448194863
 30
0.0
 40
0.8000000000000044
100
AcDbArc
 50
181.0000000000018
 51
268.9999999999983
  0
LINE
  5
3DD
330
1F
100
AcDbEntity
  8
INDUSA
  6
Continuous
100
AcDbLine
 10
490.4686034590366
 20
185.6070495377531
 30
0.0
 11
496.1612345212138
 21
185.6070495377531
 31
0.0
  0
ARC
  5
3DE
330
1F
100
AcDbEntity
  8
INDUSA
  6
Continuous
100
AcDbCircle
 10
497.6231147365654
 20
185.1070495377531
 30
0.0
 40
0.3000000000000078
100
AcDbArc
 50
270.0
 51
329.9999999999995
  0
LINE
  5
3DF
330
1F
100
AcDbEntity
  8
INDUSA
  6
Continuous
100
AcDbLine
 10
496.9695248980793
 20
184.8070495377529
 30
0.0
 11
497.6231147365654
 21
184.8070495377529
 31
0.0
  0
ARC
  5
3E0
330
1F
100
AcDbEntity
  8
INDUSA
  6
Continuous
100
AcDbCircle
 10
496.9695248980793
 20
185.1070495377531
 30
0.0
 40
0.3000000000000109
100
AcDbArc
 50
210.0000000000005
 51
270.0
  0
ARC
  5
3E1
330
1F
100
AcDbEntity
  8
INDUSA
  6
Continuous
100
AcDbCircle
 10
498.4314051134311
 20
185.3070495377529
 30
0.0
 40
0.2999999999999874
100
AcDbArc
 50
90.0
 51
150.0000000000025
  0
ARC
  5
3E2
330
1F
100
AcDbEntity
  8
INDUSA
  6
Continuous
100
AcDbCircle
 10
496.1612345212138
 20
185.3070495377529
 30
0.0
 40
0.2999999999999967
100
AcDbArc
 50
29.99999999999832
 51
90.0
  0
LINE
  5
3E3
330
1F
100
AcDbEntity
  8
INDUSA
  6
Continuous
100
AcDbLine
 10
498.1715974922956
 20
185.4570495377526
 30
0.0
 11
497.8829223577008
 21
184.9570495377525
 31
0.0
  0
LINE
  5
3E4
330
1F
100
AcDbEntity
  8
INDUSA
  6
Continuous
100
AcDbLine
 10
496.421042142349
 20
185.4570495377526
 30
0.0
 11
496.709717276944
 21
184.9570495377525
 31
0.0
  0
LINE
  5
3E5
330
1F
100
AcDbEntity
  8
INDUSA
  6
Continuous
100
AcDbLine
 10
489.6550223974279
 20
188.5794828943368
 30
0.0
 11
489.5548950333427
 21
194.3157757409713
 31
0.0
  0
LINE
  5
3E6
330
1F
100
AcDbEntity
  8
INDUSA
  6
Continuous
100
AcDbLine
 10
488.6855111696534
 20
186.8240554355862
 30
0.0
 11
488.5636225542066
 21
193.8070495377529
 31
0.0
  0
LINE
  5
3EA
330
1F
100
AcDbEntity
  8
INDUSA
  6
Continuous
100
AcDbLine
 10
488.6855111696534
 20
186.8240554355862
 30
0.0
 11
488.6855111696534
 21
185.8070495377529
 31
0.0
  0
LINE
  5
3EB
330
1F
100
AcDbEntity
  8
INDUSA
  6
Continuous
100
AcDbLine
 10
490.2564714246807
 20
185.5191815721087
 30
0.0
 11
489.5463198173224
 21
184.8090299647507
 31
0.0
  0
LINE
  5
3ED
330
1F
100
AcDbEntity
  8
INDUSA
  6
Continuous
100
AcDbLine
 10
485.029017080438
 20
193.8070495377529
 30
0.0
 11
488.5636225542066
 21
193.8070495377529
 31
0.0
  0
LINE
  5
3EE
330
1F
100
AcDbEntity
  8
INDUSA
  6
Continuous
100
AcDbLine
 10
484.5376684488801
 20
194.8070495377529
 30
0.0
 11
489.0549711857645
 21
194.8070495377529
 31
0.0
  0
ARC
  5
3F0
330
1F
100
AcDbEntity
  8
INDUSA
  6
Continuous
100
AcDbCircle
 10
489.0549711857645
 20
194.3070495377529
 30
0.0
 40
0.5
100
AcDbArc
 50
1.000000000001776
 51
90.0
  0
ARC
  5
3F3
330
1F
100
AcDbEntity
  8
INDUSA
  6
Continuous
100
AcDbCircle
 10
482.4350144118453
 20
141.8070495377529
 30
0.0
 40
50.00000000000003
100
AcDbArc
 50
89.3526718438744
 51
90.0
  0
ARC
  5
3F4
330
1F
100
AcDbEntity
  8
INDUSA
  6
Continuous
100
AcDbCircle
 10
483.0112005447165
 20
192.8037946254572
 30
0.0
 40
0.9999999999999953
100
AcDbArc
 50
269.3526718438483
 51
358.9999999999982
  0
ARC
  5
3F6
330
1F
100
AcDbEntity
  8
INDUSA
  6
Continuous
100
AcDbCircle
 10
484.5376684488801
 20
194.3070495377529
 30
0.0
 40
0.5000000000000058
100
AcDbArc
 50
90.0
 51
178.9999999999982
  0
LINE
  5
3F7
330
1F
100
AcDbEntity
  8
INDUSA
  6
Continuous
100
AcDbLine
 10
484.0110482398729
 20
192.7863422190199
 30
0.0
 11
484.0377446013019
 21
194.3157757409713
 31
0.0
  0
LINE
  5
3F8
330
1F
100
AcDbEntity
  8
INDUSA
  6
Continuous
100
AcDbLine
 10
484.9766518856534
 20
190.8070495377529
 30
0.0
 11
485.029017080438
 21
193.8070495377529
 31
0.0
  0
LINE
  5
3F9
330
1F
100
AcDbEntity
  8
INDUSA
  6
Continuous
100
AcDbLine
 10
474.0463198173224
 20
185.8070495377529
 30
0.0
 11
474.0463198173224
 21
190.8070495377529
 31
0.0
  0
LINE
  5
3FC
330
1F
100
AcDbEntity
  8
INDUSA
  6
Continuous
100
AcDbLine
 10
473.0463198173224
 20
185.1070495377531
 30
0.0
 11
473.0463198173224
 21
191.3070495377529
 31
0.0
  0
ARC
  5
3FD
330
1F
100
AcDbEntity
  8
INDUSA
  6
Continuous
100
AcDbCircle
 10
473.3463198173224
 20
185.1070495377531
 30
0.0
 40
0.3000000000000025
100
AcDbArc
 50
180.0
 51
270.0
  0
ARC
  5
3FE
330
1F
100
AcDbEntity
  8
INDUSA
  6
Continuous
100
AcDbCircle
 10
473.5463198173224
 20
191.3070495377529
 30
0.0
 40
0.5000000000000018
100
AcDbArc
 50
90.0
 51
180.0
  0
LINE
  5
420
330
1F
100
AcDbEntity
  8
INDUSA
  6
Continuous
100
AcDbLine
 10
289.5741060383425
 20
184.8070495377534
 30
0.0
 11
209.8355691755614
 21
184.8070495377534
 31
0.0
  0
LINE
  5
423
330
1F
100
AcDbEntity
  8
INDUSA
  6
Continuous
100
AcDbLine
 10
210.1961862385659
 20
194.8070495377534
 30
0.0
 11
289.2134889753941
 21
194.8070495377534
 31
0.0
  0
LINE
  5
427
330
1F
100
AcDbEntity
  8
INDUSA
  6
Continuous
100
AcDbLine
 10
209.6962623909316
 20
194.315775740972
 30
0.0
 11
209.6260191516698
 21
190.2915432588456
 31
0.0
  0
ARC
  5
428
330
1F
100
AcDbEntity
  8
INDUSA
  6
Continuous
100
AcDbCircle
 10
209.8355691755614
 20
185.1070495377534
 30
0.0
 40
0.3000000000000007
100
AcDbArc
 50
179.0000000000519
 51
270.0
  0
LINE
  5
42A
330
1F
100
AcDbEntity
  8
INDUSA
  6
Continuous
100
AcDbLine
 10
209.5356148670144
 20
185.1122852596843
 30
0.0
 11
209.6260191516698
 21
190.2915432588456
 31
0.0
  0
ARC
  5
42B
330
1F
100
AcDbEntity
  8
INDUSA
  6
Continuous
100
AcDbCircle
 10
210.1961862385098
 20
194.3070495377534
 30
0.0
 40
0.5000000000000044
100
AcDbArc
 50
90.0
 51
179.0000000000031
  0
LINE
  5
42C
330
1F
100
AcDbEntity
  8
INDUSA
  6
Continuous
100
AcDbLine
 10
289.7836560622341
 20
190.2915432588459
 30
0.0
 11
289.7134128229723
 21
194.315775740972
 31
0.0
  0
ARC
  5
42D
330
1F
100
AcDbEntity
  8
INDUSA
  6
Continuous
100
AcDbCircle
 10
289.5741060383425
 20
185.1070495377534
 30
0.0
 40
0.3000000000000078
100
AcDbArc
 50
270.0
 51
0.9999999999480312
  0
LINE
  5
42F
330
1F
100
AcDbEntity
  8
INDUSA
  6
Continuous
100
AcDbLine
 10
289.7836560622341
 20
190.2915432588459
 30
0.0
 11
289.8740603468894
 21
185.1122852596843
 31
0.0
  0
ARC
  5
430
330
1F
100
AcDbEntity
  8
INDUSA
  6
Continuous
100
AcDbCircle
 10
289.2134889753941
 20
194.3070495377534
 30
0.0
 40
0.5
100
AcDbArc
 50
1.000000000050635
 51
90.0
  0
LINE
  5
43D
330
1F
100
AcDbEntity
  8
INDUSA
100
AcDbLine
 10
482.4350144118453
 20
190.8070495377529
 30
0.0
 11
484.9766518856534
 21
190.8070495377529
 31
0.0
  0
LINE
  5
44A
330
1F
100
AcDbEntity
  8
SANINDUSA
100
AcDbLine
 10
518.1464914543844
 20
187.3099644399118
 30
0.0
 11
529.9461481802604
 21
187.3099644399113
 31
0.0
  0
ENDSEC
  0
SECTION
  2
OBJECTS
  0
DICTIONARY
  5
C
330
0
100
AcDbDictionary
281
     1
  3
ACAD_COLOR
350
47B
  3
ACAD_GROUP
350
D
  3
ACAD_LAYOUT
350
1A
  3
ACAD_MATERIAL
350
44E
  3
ACAD_MLEADERSTYLE
350
490
  3
ACAD_MLINESTYLE
350
17
  3
ACAD_PLOTSETTINGS
350
19
  3
ACAD_PLOTSTYLENAME
350
E
  3
ACAD_SCALELIST
350
47E
  3
ACAD_TABLESTYLE
350
47C
  3
ACAD_VISUALSTYLE
350
467
  3
ACDB_RECOMPOSE_DATA
350
4AD
  3
AcDbVariableDictionary
350
443
  3
ASE_INDEX_DICTIONARY
350
43F
  3
DWGPROPS
350
4AE
  0
DICTIONARY
  5
495
330
10
100
AcDbDictionary
280
     1
281
     1
  3
ADSK_XREC_LAYER_RECONCILED
360
496
  0
DICTIONARY
  5
497
330
9B
100
AcDbDictionary
280
     1
281
     1
  3
ADSK_XREC_LAYER_RECONCILED
360
498
  0
DICTIONARY
  5
499
330
9D
100
AcDbDictionary
280
     1
281
     1
  3
ADSK_XREC_LAYER_RECONCILED
360
49A
  0
DICTIONARY
  5
49B
330
9E
100
AcDbDictionary
280
     1
281
     1
  3
ADSK_XREC_LAYER_RECONCILED
360
49C
  0
DICTIONARY
  5
49D
330
9F
100
AcDbDictionary
280
     1
281
     1
  3
ADSK_XREC_LAYER_RECONCILED
360
49E
  0
DICTIONARY
  5
49F
330
A0
100
AcDbDictionary
280
     1
281
     1
  3
ADSK_XREC_LAYER_RECONCILED
360
4A0
  0
DICTIONARY
  5
4A1
330
A1
100
AcDbDictionary
280
     1
281
     1
  3
ADSK_XREC_LAYER_RECONCILED
360
4A2
  0
DICTIONARY
  5
4A3
330
44B
100
AcDbDictionary
280
     1
281
     1
  3
ADSK_XREC_LAYER_RECONCILED
360
4A4
  0
DICTIONARY
  5
47B
102
{ACAD_REACTORS
330
C
102
}
330
C
100
AcDbDictionary
281
     1
  0
DICTIONARY
  5
D
102
{ACAD_REACTORS
330
C
102
}
330
C
100
AcDbDictionary
281
     1
  0
DICTIONARY
  5
1A
102
{ACAD_REACTORS
330
C
102
}
330
C
100
AcDbDictionary
281
     1
  3
Layout1
350
1E
  3
Layout2
350
26
  3
Model
350
22
  0
DICTIONARY
  5
44E
102
{ACAD_REACTORS
330
C
102
}
330
C
100
AcDbDictionary
281
     1
  3
ByBlock
350
457
  3
ByLayer
350
44F
  3
Global
350
45F
  0
DICTIONARY
  5
490
102
{ACAD_REACTORS
330
C
102
}
330
C
100
AcDbDictionary
281
     1
  3
Standard
350
491
  0
DICTIONARY
  5
17
102
{ACAD_REACTORS
330
C
102
}
330
C
100
AcDbDictionary
281
     1
  3
Standard
350
18
  0
DICTIONARY
  5
19
102
{ACAD_REACTORS
330
C
102
}
330
C
100
AcDbDictionary
281
     1
  0
ACDBDICTIONARYWDFLT
  5
E
102
{ACAD_REACTORS
330
C
102
}
330
C
100
AcDbDictionary
281
     1
  3
Normal
350
F
100
AcDbDictionaryWithDefault
340
F
  0
DICTIONARY
  5
47E
102
{ACAD_REACTORS
330
C
102
}
330
C
100
AcDbDictionary
281
     1
  3
A0
350
47F
  3
A1
350
480
  3
A2
350
481
  3
A3
350
482
  3
A4
350
483
  3
A5
350
484
  3
A6
350
485
  3
A7
350
486
  3
A8
350
487
  3
A9
350
488
  3
B0
350
489
  3
B1
350
48A
  3
B2
350
48B
  3
B3
350
48C
  3
B4
350
48D
  3
B5
350
48E
  3
B6
350
48F
  0
DICTIONARY
  5
47C
102
{ACAD_REACTORS
330
C
102
}
330
C
100
AcDbDictionary
281
     1
  3
Standard
350
47D
  0
DICTIONARY
  5
467
102
{ACAD_REACTORS
330
C
102
}
330
C
100
AcDbDictionary
281
     1
  3
2dWireframe
350
46D
  3
3D Hidden
350
46F
  3
3dWireframe
350
46E
  3
Basic
350
46C
  3
Brighten
350
473
  3
ColorChange
350
477
  3
Conceptual
350
470
  3
Dim
350
472
  3
EdgeColorOff
350
47A
  3
Facepattern
350
476
  3
Flat
350
468
  3
FlatWithEdges
350
469
  3
Gouraud
350
46A
  3
GouraudWithEdges
350
46B
  3
JitterOff
350
478
  3
Linepattern
350
475
  3
OverhangOff
350
479
  3
Realistic
350
471
  3
Thicken
350
474
  0
XRECORD
  5
4AD
102
{ACAD_REACTORS
330
C
102
}
330
C
100
AcDbXrecord
280
     1
 90
        1
330
47D
  0
DICTIONARY
  5
443
102
{ACAD_REACTORS
330
C
102
}
330
C
100
AcDbDictionary
281
     1
  3
CANNOSCALE
350
4A7
  3
CMLEADERSTYLE
350
4A6
  3
CTABLESTYLE
350
4A5
  3
DIMASSOC
350
445
  3
HIDETEXT
350
444
  3
INDEXCTL
350
4A9
  3
SORTENTS
350
4A8
  3
XCLIPFRAME
350
4AA
  0
DICTIONARY
  5
43F
102
{ACAD_REACTORS
330
C
102
}
330
C
100
AcDbDictionary
281
     1
  3
ASEBlockHierarchyIndexRecord
350
441
1001
DCO15
1040
1475296467.375
  0
XRECORD
  5
4AE
102
{ACAD_REACTORS
330
C
102
}
330
C
100
AcDbXrecord
280
     1
  1
DWGPROPS COOKIE
  2

  3

  4

  6

  7

  8
Julio
  9

300
=
301
=
302
=
303
=
304
=
305
=
306
=
307
=
308
=
309
=
 40
0.0050817476851852
 41
2452878.397743773
 42
2456149.683071285
  1

 90
        0
  0
XRECORD
  5
496
102
{ACAD_REACTORS
330
495
102
}
330
495
100
AcDbXrecord
280
     1
290
     1
  0
XRECORD
  5
498
102
{ACAD_REACTORS
330
497
102
}
330
497
100
AcDbXrecord
280
     1
290
     1
  0
XRECORD
  5
49A
102
{ACAD_REACTORS
330
499
102
}
330
499
100
AcDbXrecord
280
     1
290
     1
  0
XRECORD
  5
49C
102
{ACAD_REACTORS
330
49B
102
}
330
49B
100
AcDbXrecord
280
     1
290
     1
  0
XRECORD
  5
49E
102
{ACAD_REACTORS
330
49D
102
}
330
49D
100
AcDbXrecord
280
     1
290
     1
  0
XRECORD
  5
4A0
102
{ACAD_REACTORS
330
49F
102
}
330
49F
100
AcDbXrecord
280
     1
290
     1
  0
XRECORD
  5
4A2
102
{ACAD_REACTORS
330
4A1
102
}
330
4A1
100
AcDbXrecord
280
     1
290
     1
  0
XRECORD
  5
4A4
102
{ACAD_REACTORS
330
4A3
102
}
330
4A3
100
AcDbXrecord
280
     1
290
     1
  0
LAYOUT
  5
1E
102
{ACAD_XDICTIONARY
360
4AF
102
}
102
{ACAD_REACTORS
330
1A
102
}
330
1A
100
AcDbPlotSettings
  1

  2
PLOTER 500
  4

  6

 40
0.0
 41
0.0
 42
0.0
 43
0.0
 44
0.0
 45
0.0
 46
0.0
 47
0.0
 48
0.0
 49
0.0
140
0.0
141
0.0
142
1.0
143
1.0
 70
   688
 72
     0
 73
     0
 74
     5
  7

 75
    16
147
1.0
148
0.0
149
0.0
100
AcDbLayout
  1
Layout1
 70
     1
 71
     1
 10
0.0
 20
0.0
 11
420.0
 21
297.0
 12
0.0
 22
0.0
 32
0.0
 14
1.000000000000000E+20
 24
1.000000000000000E+20
 34
1.000000000000000E+20
 15
-1.000000000000000E+20
 25
-1.000000000000000E+20
 35
-1.000000000000000E+20
146
0.0
 13
0.0
 23
0.0
 33
0.0
 16
1.0
 26
0.0
 36
0.0
 17
0.0
 27
1.0
 37
0.0
 76
     0
330
1B
  0
LAYOUT
  5
26
102
{ACAD_XDICTIONARY
360
4B3
102
}
102
{ACAD_REACTORS
330
1A
102
}
330
1A
100
AcDbPlotSettings
  1

  2
PLOTER 500
  4

  6

 40
0.0
 41
0.0
 42
0.0
 43
0.0
 44
0.0
 45
0.0
 46
0.0
 47
0.0
 48
0.0
 49
0.0
140
0.0
141
0.0
142
1.0
143
1.0
 70
   688
 72
     0
 73
     0
 74
     5
  7

 75
    16
147
1.0
148
0.0
149
0.0
100
AcDbLayout
  1
Layout2
 70
     1
 71
     2
 10
0.0
 20
0.0
 11
12.0
 21
9.0
 12
0.0
 22
0.0
 32
0.0
 14
0.0
 24
0.0
 34
0.0
 15
0.0
 25
0.0
 35
0.0
146
0.0
 13
0.0
 23
0.0
 33
0.0
 16
1.0
 26
0.0
 36
0.0
 17
0.0
 27
1.0
 37
0.0
 76
     0
330
23
  0
LAYOUT
  5
22
102
{ACAD_XDICTIONARY
360
4B1
102
}
102
{ACAD_REACTORS
330
1A
102
}
330
1A
100
AcDbPlotSettings
  1

  2
PLOTER 500
  4

  6

 40
0.0
 41
0.0
 42
0.0
 43
0.0
 44
0.0
 45
0.0
 46
0.0
 47
0.0
 48
0.0
 49
0.0
140
0.0
141
0.0
142
1.0
143
1.0
 70
  1712
 72
     0
 73
     0
 74
     0
  7

 75
     0
147
1.0
148
0.0
149
0.0
100
AcDbLayout
  1
Model
 70
     1
 71
     0
 10
0.0
 20
0.0
 11
12.0
 21
9.0
 12
0.0
 22
0.0
 32
0.0
 14
0.0
 24
0.0
 34
0.0
 15
0.0
 25
0.0
 35
0.0
146
0.0
 13
0.0
 23
0.0
 33
0.0
 16
1.0
 26
0.0
 36
0.0
 17
0.0
 27
1.0
 37
0.0
 76
     0
330
1F
331
44C
  0
MATERIAL
  5
457
102
{ACAD_XDICTIONARY
360
458
102
}
102
{ACAD_REACTORS
330
44E
102
}
330
44E
100
AcDbMaterial
  1
ByBlock
 72
     0
 43
0.0008202099737533
 43
0.0
 43
0.0
 43
0.0
 43
0.0
 43
0.0008202099737533
 43
0.0
 43
0.0
 43
0.0
 43
0.0
 43
1.0
 43
0.0
 43
0.0
 43
0.0
 43
0.0
 43
1.0
 77
     0
 47
0.0008202099737533
 47
0.0
 47
0.0
 47
0.0
 47
0.0
 47
0.0008202099737533
 47
0.0
 47
0.0
 47
0.0
 47
0.0
 47
1.0
 47
0.0
 47
0.0
 47
0.0
 47
0.0
 47
1.0
171
     0
 49
0.0008202099737533
 49
0.0
 49
0.0
 49
0.0
 49
0.0
 49
0.0008202099737533
 49
0.0
 49
0.0
 49
0.0
 49
0.0
 49
1.0
 49
0.0
 49
0.0
 49
0.0
 49
0.0
 49
1.0
175
     0
142
0.0008202099737533
142
0.0
142
0.0
142
0.0
142
0.0
142
0.0008202099737533
142
0.0
142
0.0
142
0.0
142
0.0
142
1.0
142
0.0
142
0.0
142
0.0
142
0.0
142
1.0
179
     0
144
0.0008202099737533
144
0.0
144
0.0
144
0.0
144
0.0
144
0.0008202099737533
144
0.0
144
0.0
144
0.0
144
0.0
144
1.0
144
0.0
144
0.0
144
0.0
144
0.0
144
1.0
147
0.0008202099737533
147
0.0
147
0.0
147
0.0
147
0.0
147
0.0008202099737533
147
0.0
147
0.0
147
0.0
147
0.0
147
1.0
147
0.0
147
0.0
147
0.0
147
0.0
147
1.0
  0
MATERIAL
  5
44F
102
{ACAD_XDICTIONARY
360
450
102
}
102
{ACAD_REACTORS
330
44E
102
}
330
44E
100
AcDbMaterial
  1
ByLayer
 72
     0
 43
0.0008202099737533
 43
0.0
 43
0.0
 43
0.0
 43
0.0
 43
0.0008202099737533
 43
0.0
 43
0.0
 43
0.0
 43
0.0
 43
1.0
 43
0.0
 43
0.0
 43
0.0
 43
0.0
 43
1.0
 77
     0
 47
0.0008202099737533
 47
0.0
 47
0.0
 47
0.0
 47
0.0
 47
0.0008202099737533
 47
0.0
 47
0.0
 47
0.0
 47
0.0
 47
1.0
 47
0.0
 47
0.0
 47
0.0
 47
0.0
 47
1.0
171
     0
 49
0.0008202099737533
 49
0.0
 49
0.0
 49
0.0
 49
0.0
 49
0.0008202099737533
 49
0.0
 49
0.0
 49
0.0
 49
0.0
 49
1.0
 49
0.0
 49
0.0
 49
0.0
 49
0.0
 49
1.0
175
     0
142
0.0008202099737533
142
0.0
142
0.0
142
0.0
142
0.0
142
0.0008202099737533
142
0.0
142
0.0
142
0.0
142
0.0
142
1.0
142
0.0
142
0.0
142
0.0
142
0.0
142
1.0
179
     0
144
0.0008202099737533
144
0.0
144
0.0
144
0.0
144
0.0
144
0.0008202099737533
144
0.0
144
0.0
144
0.0
144
0.0
144
1.0
144
0.0
144
0.0
144
0.0
144
0.0
144
1.0
147
0.0008202099737533
147
0.0
147
0.0
147
0.0
147
0.0
147
0.0008202099737533
147
0.0
147
0.0
147
0.0
147
0.0
147
1.0
147
0.0
147
0.0
147
0.0
147
0.0
147
1.0
  0
MATERIAL
  5
45F
102
{ACAD_XDICTIONARY
360
460
102
}
102
{ACAD_REACTORS
330
44E
102
}
330
44E
100
AcDbMaterial
  1
Global
 72
     0
 43
0.0008202099737533
 43
0.0
 43
0.0
 43
0.0
 43
0.0
 43
0.0008202099737533
 43
0.0
 43
0.0
 43
0.0
 43
0.0
 43
1.0
 43
0.0
 43
0.0
 43
0.0
 43
0.0
 43
1.0
 77
     0
 47
0.0008202099737533
 47
0.0
 47
0.0
 47
0.0
 47
0.0
 47
0.0008202099737533
 47
0.0
 47
0.0
 47
0.0
 47
0.0
 47
1.0
 47
0.0
 47
0.0
 47
0.0
 47
0.0
 47
1.0
171
     0
 49
0.0008202099737533
 49
0.0
 49
0.0
 49
0.0
 49
0.0
 49
0.0008202099737533
 49
0.0
 49
0.0
 49
0.0
 49
0.0
 49
1.0
 49
0.0
 49
0.0
 49
0.0
 49
0.0
 49
1.0
175
     0
142
0.0008202099737533
142
0.0
142
0.0
142
0.0
142
0.0
142
0.0008202099737533
142
0.0
142
0.0
142
0.0
142
0.0
142
1.0
142
0.0
142
0.0
142
0.0
142
0.0
142
1.0
179
     0
144
0.0008202099737533
144
0.0
144
0.0
144
0.0
144
0.0
144
0.0008202099737533
144
0.0
144
0.0
144
0.0
144
0.0
144
1.0
144
0.0
144
0.0
144
0.0
144
0.0
144
1.0
147
0.0008202099737533
147
0.0
147
0.0
147
0.0
147
0.0
147
0.0008202099737533
147
0.0
147
0.0
147
0.0
147
0.0
147
1.0
147
0.0
147
0.0
147
0.0
147
0.0
147
1.0
  0
MLEADERSTYLE
  5
491
102
{ACAD_REACTORS
330
490
102
}
330
490
100
AcDbMLeaderStyle
170
     2
171
     1
172
     0
 90
        2
 40
0.0
 41
0.0
173
     1
 91
-1056964608
340
14
 92
       -2
290
     1
 42
2.0
291
     1
 43
0.36
  3
Standard
 44
4.0
300

342
11
174
     1
178
     6
175
     1
176
     0
 93
-1056964608
 45
4.0
292
     0
297
     0
 46
4.0
 94
-1056964608
 47
1.0
 49
1.0
140
1.0
293
     1
141
0.0
294
     1
177
     0
142
1.0
295
     0
296
     0
143
0.125
1001
ACAD_MLEADERVER
1070
     2
  0
MLINESTYLE
  5
18
102
{ACAD_REACTORS
330
17
102
}
330
17
100
AcDbMlineStyle
  2
STANDARD
 70
     0
  3

 62
   256
 51
90.0
 52
90.0
 71
     2
 49
0.5
 62
   256
  6
BYLAYER
 49
-0.5
 62
   256
  6
BYLAYER
  0
ACDBPLACEHOLDER
  5
F
102
{ACAD_REACTORS
330
E
102
}
330
E
  0
SCALE
  5
47F
102
{ACAD_REACTORS
330
47E
102
}
330
47E
100
AcDbScale
 70
     0
300
1:1
140
1.0
141
1.0
290
     1
  0
SCALE
  5
480
102
{ACAD_REACTORS
330
47E
102
}
330
47E
100
AcDbScale
 70
     0
300
1:2
140
1.0
141
2.0
290
     0
  0
SCALE
  5
481
102
{ACAD_REACTORS
330
47E
102
}
330
47E
100
AcDbScale
 70
     0
300
1:4
140
1.0
141
4.0
290
     0
  0
SCALE
  5
482
102
{ACAD_REACTORS
330
47E
102
}
330
47E
100
AcDbScale
 70
     0
300
1:5
140
1.0
141
5.0
290
     0
  0
SCALE
  5
483
102
{ACAD_REACTORS
330
47E
102
}
330
47E
100
AcDbScale
 70
     0
300
1:8
140
1.0
141
8.0
290
     0
  0
SCALE
  5
484
102
{ACAD_REACTORS
330
47E
102
}
330
47E
100
AcDbScale
 70
     0
300
1:10
140
1.0
141
10.0
290
     0
  0
SCALE
  5
485
102
{ACAD_REACTORS
330
47E
102
}
330
47E
100
AcDbScale
 70
     0
300
1:16
140
1.0
141
16.0
290
     0
  0
SCALE
  5
486
102
{ACAD_REACTORS
330
47E
102
}
330
47E
100
AcDbScale
 70
     0
300
1:20
140
1.0
141
20.0
290
     0
  0
SCALE
  5
487
102
{ACAD_REACTORS
330
47E
102
}
330
47E
100
AcDbScale
 70
     0
300
1:30
140
1.0
141
30.0
290
     0
  0
SCALE
  5
488
102
{ACAD_REACTORS
330
47E
102
}
330
47E
100
AcDbScale
 70
     0
300
1:40
140
1.0
141
40.0
290
     0
  0
SCALE
  5
489
102
{ACAD_REACTORS
330
47E
102
}
330
47E
100
AcDbScale
 70
     0
300
1:50
140
1.0
141
50.0
290
     0
  0
SCALE
  5
48A
102
{ACAD_REACTORS
330
47E
102
}
330
47E
100
AcDbScale
 70
     0
300
1:100
140
1.0
141
100.0
290
     0
  0
SCALE
  5
48B
102
{ACAD_REACTORS
330
47E
102
}
330
47E
100
AcDbScale
 70
     0
300
2:1
140
2.0
141
1.0
290
     0
  0
SCALE
  5
48C
102
{ACAD_REACTORS
330
47E
102
}
330
47E
100
AcDbScale
 70
     0
300
4:1
140
4.0
141
1.0
290
     0
  0
SCALE
  5
48D
102
{ACAD_REACTORS
330
47E
102
}
330
47E
100
AcDbScale
 70
     0
300
8:1
140
8.0
141
1.0
290
     0
  0
SCALE
  5
48E
102
{ACAD_REACTORS
330
47E
102
}
330
47E
100
AcDbScale
 70
     0
300
10:1
140
10.0
141
1.0
290
     0
  0
SCALE
  5
48F
102
{ACAD_REACTORS
330
47E
102
}
330
47E
100
AcDbScale
 70
     0
300
100:1
140
100.0
141
1.0
290
     0
  0
TABLESTYLE
  5
47D
102
{ACAD_XDICTIONARY
360
4AB
102
}
102
{ACAD_REACTORS
330
47C
102
}
330
47C
100
AcDbTableStyle
  3
Standard
 70
     0
 71
     0
 40
1.5
 41
1.5
280
     0
281
     0
  7
Standard
140
4.5
170
     2
 62
     0
 63
     7
283
     0
274
    -2
284
     1
 64
     0
275
    -2
285
     1
 65
     0
276
    -2
286
     1
 66
     0
277
    -2
287
     1
 67
     0
278
    -2
288
     1
 68
     0
279
    -2
289
     1
 69
     0
  7
Standard
140
6.0
170
     5
 62
     0
 63
     7
283
     0
274
    -2
284
     1
 64
     0
275
    -2
285
     1
 65
     0
276
    -2
286
     1
 66
     0
277
    -2
287
     1
 67
     0
278
    -2
288
     1
 68
     0
279
    -2
289
     1
 69
     0
  7
Standard
140
4.5
170
     5
 62
     0
 63
     7
283
     0
274
    -2
284
     1
 64
     0
275
    -2
285
     1
 65
     0
276
    -2
286
     1
 66
     0
277
    -2
287
     1
 67
     0
278
    -2
288
     1
 68
     0
279
    -2
289
     1
 69
     0
  0
VISUALSTYLE
  5
46D
102
{ACAD_XDICTIONARY
360
4C2
102
}
102
{ACAD_REACTORS
330
467
102
}
330
467
100
AcDbVisualStyle
  2
2dWireframe
 70
     4
 71
     0
 72
     2
 73
     0
 90
        0
 40
-0.6
 41
-30.0
 62
     5
 63
     7
 74
     1
 91
        4
 64
     7
 65
   257
 75
     1
175
     1
 42
1.0
 92
        0
 66
   257
 43
1.0
 76
     1
 77
     6
 78
     2
 67
     7
 79
     5
170
     0
171
     0
290
     0
174
     0
 93
        1
 44
0.0
173
     0
291
     0
 45
0.0
1001
ACAD
1000
AcDbSavedByObjectVersion
1070
     0
  0
VISUALSTYLE
  5
46F
102
{ACAD_XDICTIONARY
360
4C6
102
}
102
{ACAD_REACTORS
330
467
102
}
330
467
100
AcDbVisualStyle
  2
3D Hidden
 70
     6
 71
     1
 72
     2
 73
     2
 90
        0
 40
-0.6
 41
-30.0
 62
     5
 63
     7
 74
     2
 91
        2
 64
     7
 65
   257
 75
     2
175
     1
 42
179.0
 92
        0
 66
   257
 43
1.0
 76
     1
 77
     6
 78
     2
 67
     7
 79
     3
170
     0
171
     0
290
     0
174
     0
 93
        1
 44
0.0
173
     0
291
     0
 45
0.0
1001
ACAD
1000
AcDbSavedByObjectVersion
1070
     0
  0
VISUALSTYLE
  5
46E
102
{ACAD_XDICTIONARY
360
4C4
102
}
102
{ACAD_REACTORS
330
467
102
}
330
467
100
AcDbVisualStyle
  2
3dWireframe
 70
     5
 71
     0
 72
     2
 73
     0
 90
        0
 40
-0.6
 41
-30.0
 62
     5
 63
     7
 74
     1
 91
        4
 64
     7
 65
   257
 75
     1
175
     1
 42
1.0
 92
        0
 66
   257
 43
1.0
 76
     1
 77
     6
 78
     2
 67
     7
 79
     5
170
     0
171
     0
290
     0
174
     0
 93
        1
 44
0.0
173
     0
291
     0
 45
0.0
1001
ACAD
1000
AcDbSavedByObjectVersion
1070
     0
  0
VISUALSTYLE
  5
46C
102
{ACAD_XDICTIONARY
360
4C0
102
}
102
{ACAD_REACTORS
330
467
102
}
330
467
100
AcDbVisualStyle
  2
Basic
 70
     7
 71
     1
 72
     0
 73
     1
 90
        0
 40
-0.6
 41
-30.0
 62
     5
 63
     7
 74
     0
 91
        4
 64
     7
 65
   257
 75
     1
175
     1
 42
1.0
 92
        8
 66
     7
 43
1.0
 76
     1
 77
     6
 78
     2
 67
     7
 79
     5
170
     0
171
     0
290
     0
174
     0
 93
        1
 44
0.0
173
     0
291
     1
 45
0.0
1001
ACAD
1000
AcDbSavedByObjectVersion
1070
     0
  0
VISUALSTYLE
  5
473
102
{ACAD_XDICTIONARY
360
4CE
102
}
102
{ACAD_REACTORS
330
467
102
}
330
467
100
AcDbVisualStyle
  2
Brighten
 70
    12
 71
     2
 72
     2
 73
     0
 90
        0
 40
-0.6
 41
-30.0
 62
     5
 63
     7
 74
     1
 91
        4
 64
     7
 65
   257
 75
     1
175
     1
 42
1.0
 92
        8
 66
     7
 43
1.0
 76
     1
 77
     6
 78
     2
 67
     7
 79
     5
170
     0
171
     0
290
     0
174
     0
 93
        1
 44
50.0
173
     0
291
     1
 45
0.0
1001
ACAD
1000
AcDbSavedByObjectVersion
1070
     0
  0
VISUALSTYLE
  5
477
102
{ACAD_XDICTIONARY
360
4D6
102
}
102
{ACAD_REACTORS
330
467
102
}
330
467
100
AcDbVisualStyle
  2
ColorChange
 70
    16
 71
     2
 72
     2
 73
     3
 90
        0
 40
-0.6
 41
-30.0
 62
     5
 63
     8
 74
     1
 91
        4
 64
     7
 65
   257
 75
     1
175
     1
 42
1.0
 92
        8
 66
     8
 43
1.0
 76
     1
 77
     6
 78
     2
 67
     7
 79
     5
170
     0
171
     0
290
     0
174
     0
 93
        1
 44
0.0
173
     0
291
     1
 45
0.0
1001
ACAD
1000
AcDbSavedByObjectVersion
1070
     0
  0
VISUALSTYLE
  5
470
102
{ACAD_XDICTIONARY
360
4C8
102
}
102
{ACAD_REACTORS
330
467
102
}
330
467
100
AcDbVisualStyle
  2
Conceptual
 70
     9
 71
     3
 72
     2
 73
     0
 90
        0
 40
-0.6
 41
-30.0
 62
     5
 63
     7
 74
     2
 91
        2
 64
     7
 65
   257
 75
     1
175
     1
 42
179.0
 92
        8
 66
     7
 43
1.0
 76
     1
 77
     6
 78
     2
 67
     7
 79
     3
170
     0
171
     0
290
     0
174
     0
 93
        1
 44
0.0
173
     0
291
     0
 45
0.0
1001
ACAD
1000
AcDbSavedByObjectVersion
1070
     0
  0
VISUALSTYLE
  5
472
102
{ACAD_XDICTIONARY
360
4CC
102
}
102
{ACAD_REACTORS
330
467
102
}
330
467
100
AcDbVisualStyle
  2
Dim
 70
    11
 71
     2
 72
     2
 73
     0
 90
        0
 40
-0.6
 41
-30.0
 62
     5
 63
     7
 74
     1
 91
        4
 64
     7
 65
   257
 75
     1
175
     1
 42
1.0
 92
        8
 66
     7
 43
1.0
 76
     1
 77
     6
 78
     2
 67
     7
 79
     5
170
     0
171
     0
290
     0
174
     0
 93
        1
 44
-50.0
173
     0
291
     1
 45
0.0
1001
ACAD
1000
AcDbSavedByObjectVersion
1070
     0
  0
VISUALSTYLE
  5
47A
102
{ACAD_XDICTIONARY
360
4DC
102
}
102
{ACAD_REACTORS
330
467
102
}
330
467
100
AcDbVisualStyle
  2
EdgeColorOff
 70
    22
 71
     2
 72
     2
 73
     0
 90
        0
 40
-0.6
 41
-30.0
 62
     5
 63
     7
 74
     1
 91
        4
 64
     7
 65
   257
 75
     1
175
     1
 42
1.0
 92
        8
 66
     7
 43
1.0
 76
     1
 77
     6
 78
     2
 67
     7
 79
     5
170
     0
171
     0
290
     0
174
     0
 93
        1
 44
0.0
173
     0
291
     1
 45
0.0
1001
ACAD
1000
AcDbSavedByObjectVersion
1070
     0
  0
VISUALSTYLE
  5
476
102
{ACAD_XDICTIONARY
360
4D4
102
}
102
{ACAD_REACTORS
330
467
102
}
330
467
100
AcDbVisualStyle
  2
Facepattern
 70
    15
 71
     2
 72
     2
 73
     0
 90
        0
 40
-0.6
 41
-30.0
 62
     5
 63
     7
 74
     1
 91
        4
 64
     7
 65
   257
 75
     1
175
     1
 42
1.0
 92
        8
 66
     7
 43
1.0
 76
     1
 77
     6
 78
     2
 67
     7
 79
     5
170
     0
171
     0
290
     0
174
     0
 93
        1
 44
0.0
173
     0
291
     1
 45
0.0
1001
ACAD
1000
AcDbSavedByObjectVersion
1070
     0
  0
VISUALSTYLE
  5
468
102
{ACAD_XDICTIONARY
360
4B8
102
}
102
{ACAD_REACTORS
330
467
102
}
330
467
100
AcDbVisualStyle
  2
Flat
 70
     0
 71
     2
 72
     1
 73
     1
 90
        2
 40
-0.6
 41
30.0
 62
     5
 63
     7
 74
     0
 91
        4
 64
     7
 65
   257
 75
     1
175
     1
 42
1.0
 92
        8
 66
     7
 43
1.0
 76
     1
 77
     6
 78
     2
 67
     7
 79
     5
170
     0
171
     0
290
     0
174
     0
 93
       13
 44
0.0
173
     0
291
     1
 45
0.0
1001
ACAD
1000
AcDbSavedByObjectVersion
1070
     0
  0
VISUALSTYLE
  5
469
102
{ACAD_XDICTIONARY
360
4BA
102
}
102
{ACAD_REACTORS
330
467
102
}
330
467
100
AcDbVisualStyle
  2
FlatWithEdges
 70
     1
 71
     2
 72
     1
 73
     1
 90
        2
 40
-0.6
 41
30.0
 62
     5
 63
     7
 74
     1
 91
        4
 64
     7
 65
   257
 75
     1
175
     1
 42
1.0
 92
        0
 66
   257
 43
1.0
 76
     1
 77
     6
 78
     2
 67
     7
 79
     5
170
     0
171
     0
290
     0
174
     0
 93
       13
 44
0.0
173
     0
291
     1
 45
0.0
1001
ACAD
1000
AcDbSavedByObjectVersion
1070
     0
  0
VISUALSTYLE
  5
46A
102
{ACAD_XDICTIONARY
360
4BC
102
}
102
{ACAD_REACTORS
330
467
102
}
330
467
100
AcDbVisualStyle
  2
Gouraud
 70
     2
 71
     2
 72
     2
 73
     1
 90
        2
 40
-0.6
 41
30.0
 62
     5
 63
     7
 74
     0
 91
        4
 64
     7
 65
   257
 75
     1
175
     1
 42
1.0
 92
        0
 66
     7
 43
1.0
 76
     1
 77
     6
 78
     2
 67
     7
 79
     5
170
     0
171
     0
290
     0
174
     0
 93
       13
 44
0.0
173
     0
291
     1
 45
0.0
1001
ACAD
1000
AcDbSavedByObjectVersion
1070
     0
  0
VISUALSTYLE
  5
46B
102
{ACAD_XDICTIONARY
360
4BE
102
}
102
{ACAD_REACTORS
330
467
102
}
330
467
100
AcDbVisualStyle
  2
GouraudWithEdges
 70
     3
 71
     2
 72
     2
 73
     1
 90
        2
 40
-0.6
 41
30.0
 62
     5
 63
     7
 74
     1
 91
        4
 64
     7
 65
   257
 75
     1
175
     1
 42
1.0
 92
        0
 66
   257
 43
1.0
 76
     1
 77
     6
 78
     2
 67
     7
 79
     5
170
     0
171
     0
290
     0
174
     0
 93
       13
 44
0.0
173
     0
291
     1
 45
0.0
1001
ACAD
1000
AcDbSavedByObjectVersion
1070
     0
  0
VISUALSTYLE
  5
478
102
{ACAD_XDICTIONARY
360
4D8
102
}
102
{ACAD_REACTORS
330
467
102
}
330
467
100
AcDbVisualStyle
  2
JitterOff
 70
    20
 71
     2
 72
     2
 73
     0
 90
        0
 40
-0.6
 41
-30.0
 62
     5
 63
     7
 74
     1
 91
        4
 64
     7
 65
   257
 75
     1
175
     1
 42
1.0
 92
       10
 66
     7
 43
1.0
 76
     1
 77
     6
 78
     2
 67
     7
 79
     5
170
     0
171
     0
290
     0
174
     0
 93
        1
 44
0.0
173
     0
291
     1
 45
0.0
1001
ACAD
1000
AcDbSavedByObjectVersion
1070
     0
  0
VISUALSTYLE
  5
475
102
{ACAD_XDICTIONARY
360
4D2
102
}
102
{ACAD_REACTORS
330
467
102
}
330
467
100
AcDbVisualStyle
  2
Linepattern
 70
    14
 71
     2
 72
     2
 73
     0
 90
        0
 40
-0.6
 41
-30.0
 62
     5
 63
     7
 74
     1
 91
        4
 64
     7
 65
   257
 75
     7
175
     7
 42
1.0
 92
        8
 66
     7
 43
1.0
 76
     1
 77
     6
 78
     2
 67
     7
 79
     5
170
     0
171
     0
290
     0
174
     0
 93
        1
 44
0.0
173
     0
291
     1
 45
0.0
1001
ACAD
1000
AcDbSavedByObjectVersion
1070
     0
  0
VISUALSTYLE
  5
479
102
{ACAD_XDICTIONARY
360
4DA
102
}
102
{ACAD_REACTORS
330
467
102
}
330
467
100
AcDbVisualStyle
  2
OverhangOff
 70
    21
 71
     2
 72
     2
 73
     0
 90
        0
 40
-0.6
 41
-30.0
 62
     5
 63
     7
 74
     1
 91
        4
 64
     7
 65
   257
 75
     1
175
     1
 42
1.0
 92
        9
 66
     7
 43
1.0
 76
     1
 77
     6
 78
     2
 67
     7
 79
     5
170
     0
171
     0
290
     0
174
     0
 93
        1
 44
0.0
173
     0
291
     1
 45
0.0
1001
ACAD
1000
AcDbSavedByObjectVersion
1070
     0
  0
VISUALSTYLE
  5
471
102
{ACAD_XDICTIONARY
360
4CA
102
}
102
{ACAD_REACTORS
330
467
102
}
330
467
100
AcDbVisualStyle
  2
Realistic
 70
     8
 71
     2
 72
     2
 73
     0
 90
        0
 40
-0.6
 41
-30.0
 62
     5
 63
     7
 74
     1
 91
        0
 64
     7
 65
   257
 75
     1
175
     1
 42
1.0
 92
        8
 66
     8
 43
1.0
 76
     1
 77
     6
 78
     2
 67
     7
 79
     5
170
     0
171
     0
290
     0
174
     0
 93
       13
 44
0.0
173
     0
291
     0
 45
0.0
1001
ACAD
1000
AcDbSavedByObjectVersion
1070
     0
  0
VISUALSTYLE
  5
474
102
{ACAD_XDICTIONARY
360
4D0
102
}
102
{ACAD_REACTORS
330
467
102
}
330
467
100
AcDbVisualStyle
  2
Thicken
 70
    13
 71
     2
 72
     2
 73
     0
 90
        0
 40
-0.6
 41
-30.0
 62
     5
 63
     7
 74
     1
 91
        4
 64
     7
 65
   257
 75
     1
175
     1
 42
1.0
 92
       12
 66
     7
 43
1.0
 76
     1
 77
     6
 78
     2
 67
     7
 79
     5
170
     0
171
     0
290
     0
174
     0
 93
        1
 44
0.0
173
     0
291
     1
 45
0.0
1001
ACAD
1000
AcDbSavedByObjectVersion
1070
     0
  0
DICTIONARYVAR
  5
4A7
102
{ACAD_REACTORS
330
443
102
}
330
443
100
DictionaryVariables
280
     0
  1
1:1
  0
DICTIONARYVAR
  5
4A6
102
{ACAD_REACTORS
330
443
102
}
330
443
100
DictionaryVariables
280
     0
  1
STANDARD
  0
DICTIONARYVAR
  5
4A5
102
{ACAD_REACTORS
330
443
102
}
330
443
100
DictionaryVariables
280
     0
  1
STANDARD
  0
DICTIONARYVAR
  5
445
102
{ACAD_REACTORS
330
443
102
}
330
443
100
DictionaryVariables
280
     0
  1
2
  0
DICTIONARYVAR
  5
444
102
{ACAD_REACTORS
330
443
102
}
330
443
100
DictionaryVariables
280
     0
  1
1
  0
DICTIONARYVAR
  5
4A9
102
{ACAD_REACTORS
330
443
102
}
330
443
100
DictionaryVariables
280
     0
  1
0
  0
DICTIONARYVAR
  5
4A8
102
{ACAD_REACTORS
330
443
102
}
330
443
100
DictionaryVariables
280
     0
  1
127
  0
DICTIONARYVAR
  5
4AA
102
{ACAD_REACTORS
330
443
102
}
330
443
100
DictionaryVariables
280
     0
  1
2
  0
XRECORD
  5
441
102
{ACAD_REACTORS
330
43F
102
}
330
43F
100
AcDbXrecord
280
     1
  0
DICTIONARY
  5
4AF
330
1E
100
AcDbDictionary
280
     1
281
     1
  3
ACAD_XREC_ROUNDTRIP
360
4B0
  0
DICTIONARY
  5
4B3
330
26
100
AcDbDictionary
280
     1
281
     1
  3
ACAD_XREC_ROUNDTRIP
360
4B4
  0
DICTIONARY
  5
4B1
330
22
100
AcDbDictionary
280
     1
281
     1
  3
ACAD_XREC_ROUNDTRIP
360
4B2
  0
DICTIONARY
  5
458
330
457
100
AcDbDictionary
280
     1
281
     1
  3
ACAD_XREC_ROUNDTRIP
360
4B6
  3
BUMPTILE
360
45A
  3
DIFFUSETILE
360
459
  3
OPACITYTILE
360
45D
  3
REFLECTIONTILE
360
45C
  3
REFRACTIONTILE
360
45E
  3
SPECULARTILE
360
45B
  0
DICTIONARY
  5
450
330
44F
100
AcDbDictionary
280
     1
281
     1
  3
ACAD_XREC_ROUNDTRIP
360
4B5
  3
BUMPTILE
360
452
  3
DIFFUSETILE
360
451
  3
OPACITYTILE
360
455
  3
REFLECTIONTILE
360
454
  3
REFRACTIONTILE
360
456
  3
SPECULARTILE
360
453
  0
DICTIONARY
  5
460
330
45F
100
AcDbDictionary
280
     1
281
     1
  3
ACAD_XREC_ROUNDTRIP
360
4B7
  3
BUMPTILE
360
462
  3
DIFFUSETILE
360
461
  3
OPACITYTILE
360
465
  3
REFLECTIONTILE
360
464
  3
REFRACTIONTILE
360
466
  3
SPECULARTILE
360
463
  0
DICTIONARY
  5
4AB
330
47D
100
AcDbDictionary
280
     1
281
     1
  3
ACAD_ROUNDTRIP_2008_TABLESTYLE_CELLSTYLEMAP
360
4AC
  3
ACAD_XREC_ROUNDTRIP
360
4DE
  0
DICTIONARY
  5
4C2
330
46D
100
AcDbDictionary
280
     1
281
     1
  3
ACAD_XREC_ROUNDTRIP
360
4C3
  0
DICTIONARY
  5
4C6
330
46F
100
AcDbDictionary
280
     1
281
     1
  3
ACAD_XREC_ROUNDTRIP
360
4C7
  0
DICTIONARY
  5
4C4
330
46E
100
AcDbDictionary
280
     1
281
     1
  3
ACAD_XREC_ROUNDTRIP
360
4C5
  0
DICTIONARY
  5
4C0
330
46C
100
AcDbDictionary
280
     1
281
     1
  3
ACAD_XREC_ROUNDTRIP
360
4C1
  0
DICTIONARY
  5
4CE
330
473
100
AcDbDictionary
280
     1
281
     1
  3
ACAD_XREC_ROUNDTRIP
360
4CF
  0
DICTIONARY
  5
4D6
330
477
100
AcDbDictionary
280
     1
281
     1
  3
ACAD_XREC_ROUNDTRIP
360
4D7
  0
DICTIONARY
  5
4C8
330
470
100
AcDbDictionary
280
     1
281
     1
  3
ACAD_XREC_ROUNDTRIP
360
4C9
  0
DICTIONARY
  5
4CC
330
472
100
AcDbDictionary
280
     1
281
     1
  3
ACAD_XREC_ROUNDTRIP
360
4CD
  0
DICTIONARY
  5
4DC
330
47A
100
AcDbDictionary
280
     1
281
     1
  3
ACAD_XREC_ROUNDTRIP
360
4DD
  0
DICTIONARY
  5
4D4
330
476
100
AcDbDictionary
280
     1
281
     1
  3
ACAD_XREC_ROUNDTRIP
360
4D5
  0
DICTIONARY
  5
4B8
330
468
100
AcDbDictionary
280
     1
281
     1
  3
ACAD_XREC_ROUNDTRIP
360
4B9
  0
DICTIONARY
  5
4BA
330
469
100
AcDbDictionary
280
     1
281
     1
  3
ACAD_XREC_ROUNDTRIP
360
4BB
  0
DICTIONARY
  5
4BC
330
46A
100
AcDbDictionary
280
     1
281
     1
  3
ACAD_XREC_ROUNDTRIP
360
4BD
  0
DICTIONARY
  5
4BE
330
46B
100
AcDbDictionary
280
     1
281
     1
  3
ACAD_XREC_ROUNDTRIP
360
4BF
  0
DICTIONARY
  5
4D8
330
478
100
AcDbDictionary
280
     1
281
     1
  3
ACAD_XREC_ROUNDTRIP
360
4D9
  0
DICTIONARY
  5
4D2
330
475
100
AcDbDictionary
280
     1
281
     1
  3
ACAD_XREC_ROUNDTRIP
360
4D3
  0
DICTIONARY
  5
4DA
330
479
100
AcDbDictionary
280
     1
281
     1
  3
ACAD_XREC_ROUNDTRIP
360
4DB
  0
DICTIONARY
  5
4CA
330
471
100
AcDbDictionary
280
     1
281
     1
  3
ACAD_XREC_ROUNDTRIP
360
4CB
  0
DICTIONARY
  5
4D0
330
474
100
AcDbDictionary
280
     1
281
     1
  3
ACAD_XREC_ROUNDTRIP
360
4D1
  0
XRECORD
  5
4B0
102
{ACAD_REACTORS
330
4AF
102
}
330
4AF
100
AcDbXrecord
280
     1
102
SHADEPLOT
 70
     0
102
SHADEPLOTRESLEVEL
 70
     2
102
SHADEPLOTCUSTOMDPI
 70
   300
  0
XRECORD
  5
4B4
102
{ACAD_REACTORS
330
4B3
102
}
330
4B3
100
AcDbXrecord
280
     1
102
SHADEPLOT
 70
     0
102
SHADEPLOTRESLEVEL
 70
     2
102
SHADEPLOTCUSTOMDPI
 70
   300
  0
XRECORD
  5
4B2
102
{ACAD_REACTORS
330
4B1
102
}
330
4B1
100
AcDbXrecord
280
     1
102
SHADEPLOT
 70
     0
102
SHADEPLOTRESLEVEL
 70
     2
102
SHADEPLOTCUSTOMDPI
 70
   300
  0
XRECORD
  5
4B6
102
{ACAD_REACTORS
330
458
102
}
330
458
100
AcDbXrecord
280
     1
102
MATERIAL
148
0.0
149
0.0
149
0.0
 93
        0
 94
      127
282
     0
 72
     0
 77
     0
171
     0
175
     0
179
     0
273
     0
  0
XRECORD
  5
45A
102
{ACAD_REACTORS
330
458
102
}
330
458
100
AcDbXrecord
280
     1
270
     1
271
     1
  0
XRECORD
  5
459
102
{ACAD_REACTORS
330
458
102
}
330
458
100
AcDbXrecord
280
     1
270
     1
271
     1
  0
XRECORD
  5
45D
102
{ACAD_REACTORS
330
458
102
}
330
458
100
AcDbXrecord
280
     1
270
     1
271
     1
  0
XRECORD
  5
45C
102
{ACAD_REACTORS
330
458
102
}
330
458
100
AcDbXrecord
280
     1
270
     1
271
     1
  0
XRECORD
  5
45E
102
{ACAD_REACTORS
330
458
102
}
330
458
100
AcDbXrecord
280
     1
270
     1
271
     1
  0
XRECORD
  5
45B
102
{ACAD_REACTORS
330
458
102
}
330
458
100
AcDbXrecord
280
     1
270
     1
271
     1
  0
XRECORD
  5
4B5
102
{ACAD_REACTORS
330
450
102
}
330
450
100
AcDbXrecord
280
     1
102
MATERIAL
148
0.0
149
0.0
149
0.0
 93
        0
 94
      127
282
     0
 72
     0
 77
     0
171
     0
175
     0
179
     0
273
     0
  0
XRECORD
  5
452
102
{ACAD_REACTORS
330
450
102
}
330
450
100
AcDbXrecord
280
     1
270
     1
271
     1
  0
XRECORD
  5
451
102
{ACAD_REACTORS
330
450
102
}
330
450
100
AcDbXrecord
280
     1
270
     1
271
     1
  0
XRECORD
  5
455
102
{ACAD_REACTORS
330
450
102
}
330
450
100
AcDbXrecord
280
     1
270
     1
271
     1
  0
XRECORD
  5
454
102
{ACAD_REACTORS
330
450
102
}
330
450
100
AcDbXrecord
280
     1
270
     1
271
     1
  0
XRECORD
  5
456
102
{ACAD_REACTORS
330
450
102
}
330
450
100
AcDbXrecord
280
     1
270
     1
271
     1
  0
XRECORD
  5
453
102
{ACAD_REACTORS
330
450
102
}
330
450
100
AcDbXrecord
280
     1
270
     1
271
     1
  0
XRECORD
  5
4B7
102
{ACAD_REACTORS
330
460
102
}
330
460
100
AcDbXrecord
280
     1
102
MATERIAL
148
0.0
149
0.0
149
0.0
 93
        0
 94
      127
282
     0
 72
     0
 77
     0
171
     0
175
     0
179
     0
273
     0
  0
XRECORD
  5
462
102
{ACAD_REACTORS
330
460
102
}
330
460
100
AcDbXrecord
280
     1
270
     1
271
     1
  0
XRECORD
  5
461
102
{ACAD_REACTORS
330
460
102
}
330
460
100
AcDbXrecord
280
     1
270
     1
271
     1
  0
XRECORD
  5
465
102
{ACAD_REACTORS
330
460
102
}
330
460
100
AcDbXrecord
280
     1
270
     1
271
     1
  0
XRECORD
  5
464
102
{ACAD_REACTORS
330
460
102
}
330
460
100
AcDbXrecord
280
     1
270
     1
271
     1
  0
XRECORD
  5
466
102
{ACAD_REACTORS
330
460
102
}
330
460
100
AcDbXrecord
280
     1
270
     1
271
     1
  0
XRECORD
  5
463
102
{ACAD_REACTORS
330
460
102
}
330
460
100
AcDbXrecord
280
     1
270
     1
271
     1
  0
CELLSTYLEMAP
  5
4AC
102
{ACAD_REACTORS
330
4AB
102
}
330
4AB
100
AcDbCellStyleMap
 90
        3
300
CELLSTYLE
  1
TABLEFORMAT_BEGIN
 90
        5
170
     1
 91
        0
 92
    32768
 62
   257
 93
        1
300
CONTENTFORMAT
  1
CONTENTFORMAT_BEGIN
 90
        0
 91
        0
 92
      512
 93
        0
300

 40
0.0
140
1.0
 94
        5
 62
     0
340
11
144
6.0
309
CONTENTFORMAT_END
171
     1
301
MARGIN
  1
CELLMARGIN_BEGIN
 40
1.5
 40
1.5
 40
1.5
 40
1.5
 40
4.5
 40
4.5
309
CELLMARGIN_END
 94
        6
 95
        1
302
GRIDFORMAT
  1
GRIDFORMAT_BEGIN
 90
        0
 91
        1
 62
     0
 92
       -2
340
0
 93
        0
 40
1.125
309
GRIDFORMAT_END
 95
        2
302
GRIDFORMAT
  1
GRIDFORMAT_BEGIN
 90
        0
 91
        1
 62
     0
 92
       -2
340
0
 93
        0
 40
1.125
309
GRIDFORMAT_END
 95
        4
302
GRIDFORMAT
  1
GRIDFORMAT_BEGIN
 90
        0
 91
        1
 62
     0
 92
       -2
340
0
 93
        0
 40
1.125
309
GRIDFORMAT_END
 95
        8
302
GRIDFORMAT
  1
GRIDFORMAT_BEGIN
 90
        0
 91
        1
 62
     0
 92
       -2
340
0
 93
        0
 40
1.125
309
GRIDFORMAT_END
 95
       16
302
GRIDFORMAT
  1
GRIDFORMAT_BEGIN
 90
        0
 91
        1
 62
     0
 92
       -2
340
0
 93
        0
 40
1.125
309
GRIDFORMAT_END
 95
       32
302
GRIDFORMAT
  1
GRIDFORMAT_BEGIN
 90
        0
 91
        1
 62
     0
 92
       -2
340
0
 93
        0
 40
1.125
309
GRIDFORMAT_END
309
TABLEFORMAT_END
  1
CELLSTYLE_BEGIN
 90
        1
 91
        1
300
_TITLE
309
CELLSTYLE_END
300
CELLSTYLE
  1
TABLEFORMAT_BEGIN
 90
        5
170
     1
 91
        0
 92
        0
 62
   257
 93
        1
300
CONTENTFORMAT
  1
CONTENTFORMAT_BEGIN
 90
        0
 91
        0
 92
      512
 93
        0
300

 40
0.0
140
1.0
 94
        5
 62
     0
340
11
144
4.5
309
CONTENTFORMAT_END
171
     1
301
MARGIN
  1
CELLMARGIN_BEGIN
 40
1.5
 40
1.5
 40
1.5
 40
1.5
 40
4.5
 40
4.5
309
CELLMARGIN_END
 94
        6
 95
        1
302
GRIDFORMAT
  1
GRIDFORMAT_BEGIN
 90
        0
 91
        1
 62
     0
 92
       -2
340
0
 93
        0
 40
1.125
309
GRIDFORMAT_END
 95
        2
302
GRIDFORMAT
  1
GRIDFORMAT_BEGIN
 90
        0
 91
        1
 62
     0
 92
       -2
340
0
 93
        0
 40
1.125
309
GRIDFORMAT_END
 95
        4
302
GRIDFORMAT
  1
GRIDFORMAT_BEGIN
 90
        0
 91
        1
 62
     0
 92
       -2
340
0
 93
        0
 40
1.125
309
GRIDFORMAT_END
 95
        8
302
GRIDFORMAT
  1
GRIDFORMAT_BEGIN
 90
        0
 91
        1
 62
     0
 92
       -2
340
0
 93
        0
 40
1.125
309
GRIDFORMAT_END
 95
       16
302
GRIDFORMAT
  1
GRIDFORMAT_BEGIN
 90
        0
 91
        1
 62
     0
 92
       -2
340
0
 93
        0
 40
1.125
309
GRIDFORMAT_END
 95
       32
302
GRIDFORMAT
  1
GRIDFORMAT_BEGIN
 90
        0
 91
        1
 62
     0
 92
       -2
340
0
 93
        0
 40
1.125
309
GRIDFORMAT_END
309
TABLEFORMAT_END
  1
CELLSTYLE_BEGIN
 90
        2
 91
        1
300
_HEADER
309
CELLSTYLE_END
300
CELLSTYLE
  1
TABLEFORMAT_BEGIN
 90
        5
170
     1
 91
        0
 92
        0
 62
   257
 93
        1
300
CONTENTFORMAT
  1
CONTENTFORMAT_BEGIN
 90
        0
 91
        0
 92
      512
 93
        0
300

 40
0.0
140
1.0
 94
        2
 62
     0
340
11
144
4.5
309
CONTENTFORMAT_END
171
     1
301
MARGIN
  1
CELLMARGIN_BEGIN
 40
1.5
 40
1.5
 40
1.5
 40
1.5
 40
4.5
 40
4.5
309
CELLMARGIN_END
 94
        6
 95
        1
302
GRIDFORMAT
  1
GRIDFORMAT_BEGIN
 90
        0
 91
        1
 62
     0
 92
       -2
340
0
 93
        0
 40
1.125
309
GRIDFORMAT_END
 95
        2
302
GRIDFORMAT
  1
GRIDFORMAT_BEGIN
 90
        0
 91
        1
 62
     0
 92
       -2
340
0
 93
        0
 40
1.125
309
GRIDFORMAT_END
 95
        4
302
GRIDFORMAT
  1
GRIDFORMAT_BEGIN
 90
        0
 91
        1
 62
     0
 92
       -2
340
0
 93
        0
 40
1.125
309
GRIDFORMAT_END
 95
        8
302
GRIDFORMAT
  1
GRIDFORMAT_BEGIN
 90
        0
 91
        1
 62
     0
 92
       -2
340
0
 93
        0
 40
1.125
309
GRIDFORMAT_END
 95
       16
302
GRIDFORMAT
  1
GRIDFORMAT_BEGIN
 90
        0
 91
        1
 62
     0
 92
       -2
340
0
 93
        0
 40
1.125
309
GRIDFORMAT_END
 95
       32
302
GRIDFORMAT
  1
GRIDFORMAT_BEGIN
 90
        0
 91
        1
 62
     0
 92
       -2
340
0
 93
        0
 40
1.125
309
GRIDFORMAT_END
309
TABLEFORMAT_END
  1
CELLSTYLE_BEGIN
 90
        3
 91
        2
300
_DATA
309
CELLSTYLE_END
  0
XRECORD
  5
4DE
102
{ACAD_REACTORS
330
4AB
102
}
330
4AB
100
AcDbXrecord
280
     1
102
ACAD_ROUNDTRIP_PRE2007_TABLESTYLE
 90
      512
 91
        0
  1

 92
      512
 93
        0
  2

 94
      512
 95
        0
  3

  0
XRECORD
  5
4C3
102
{ACAD_REACTORS
330
4C2
102
}
330
4C2
100
AcDbXrecord
280
     1
102
RTVSPropertyOp0
 70
     1
102
RTVSPropertyOp1
 70
     1
102
RTVSPropertyOp2
 70
     1
102
RTVSPropertyOp3
 70
     1
102
RTVSPropertyOp4
 70
     1
102
RTVSPropertyOp5
 70
     1
102
RTVSPropertyOp6
 70
     1
102
RTVSPropertyOp7
 70
     1
102
RTVSPropertyOp8
 70
     1
102
RTVSPropertyOp9
 70
     1
102
RTVSPropertyOp10
 70
     1
102
RTVSPropertyOp11
 70
     1
102
RTVSPropertyOp12
 70
     1
102
RTVSPropertyOp13
 70
     1
102
RTVSPropertyOp14
 70
     1
102
RTVSPropertyOp15
 70
     1
102
RTVSPropertyOp16
 70
     1
102
RTVSPropertyOp17
 70
     1
102
RTVSPropertyOp18
 70
     1
102
RTVSPropertyOp19
 70
     1
102
RTVSPropertyOp20
 70
     1
102
RTVSPropertyOp21
 70
     1
102
RTVSPropertyOp22
 70
     1
102
RTVSPropertyOp23
 70
     1
102
RTVSPropertyOp24
 70
     1
102
RTVSPropertyOp25
 70
     1
102
RTVSPropertyOp26
 70
     1
102
RTVSPropertyOp27
 70
     1
  0
XRECORD
  5
4C7
102
{ACAD_REACTORS
330
4C6
102
}
330
4C6
100
AcDbXrecord
280
     1
102
RTVSPropertyOp0
 70
     1
102
RTVSPropertyOp1
 70
     1
102
RTVSPropertyOp2
 70
     1
102
RTVSPropertyOp3
 70
     1
102
RTVSPropertyOp4
 70
     1
102
RTVSPropertyOp5
 70
     1
102
RTVSPropertyOp6
 70
     1
102
RTVSPropertyOp7
 70
     1
102
RTVSPropertyOp8
 70
     1
102
RTVSPropertyOp9
 70
     1
102
RTVSPropertyOp10
 70
     1
102
RTVSPropertyOp11
 70
     1
102
RTVSPropertyOp12
 70
     1
102
RTVSPropertyOp13
 70
     1
102
RTVSPropertyOp14
 70
     1
102
RTVSPropertyOp15
 70
     1
102
RTVSPropertyOp16
 70
     1
102
RTVSPropertyOp17
 70
     1
102
RTVSPropertyOp18
 70
     1
102
RTVSPropertyOp19
 70
     1
102
RTVSPropertyOp20
 70
     1
102
RTVSPropertyOp21
 70
     1
102
RTVSPropertyOp22
 70
     1
102
RTVSPropertyOp23
 70
     1
102
RTVSPropertyOp24
 70
     1
102
RTVSPropertyOp25
 70
     1
102
RTVSPropertyOp26
 70
     1
102
RTVSPropertyOp27
 70
     1
  0
XRECORD
  5
4C5
102
{ACAD_REACTORS
330
4C4
102
}
330
4C4
100
AcDbXrecord
280
     1
102
RTVSPropertyOp0
 70
     1
102
RTVSPropertyOp1
 70
     1
102
RTVSPropertyOp2
 70
     1
102
RTVSPropertyOp3
 70
     1
102
RTVSPropertyOp4
 70
     1
102
RTVSPropertyOp5
 70
     1
102
RTVSPropertyOp6
 70
     1
102
RTVSPropertyOp7
 70
     1
102
RTVSPropertyOp8
 70
     1
102
RTVSPropertyOp9
 70
     1
102
RTVSPropertyOp10
 70
     1
102
RTVSPropertyOp11
 70
     1
102
RTVSPropertyOp12
 70
     1
102
RTVSPropertyOp13
 70
     1
102
RTVSPropertyOp14
 70
     1
102
RTVSPropertyOp15
 70
     1
102
RTVSPropertyOp16
 70
     1
102
RTVSPropertyOp17
 70
     1
102
RTVSPropertyOp18
 70
     1
102
RTVSPropertyOp19
 70
     1
102
RTVSPropertyOp20
 70
     1
102
RTVSPropertyOp21
 70
     1
102
RTVSPropertyOp22
 70
     1
102
RTVSPropertyOp23
 70
     1
102
RTVSPropertyOp24
 70
     1
102
RTVSPropertyOp25
 70
     1
102
RTVSPropertyOp26
 70
     1
102
RTVSPropertyOp27
 70
     1
  0
XRECORD
  5
4C1
102
{ACAD_REACTORS
330
4C0
102
}
330
4C0
100
AcDbXrecord
280
     1
102
RTVSPropertyOp0
 70
     1
102
RTVSPropertyOp1
 70
     1
102
RTVSPropertyOp2
 70
     1
102
RTVSPropertyOp3
 70
     1
102
RTVSPropertyOp4
 70
     1
102
RTVSPropertyOp5
 70
     1
102
RTVSPropertyOp6
 70
     1
102
RTVSPropertyOp7
 70
     1
102
RTVSPropertyOp8
 70
     1
102
RTVSPropertyOp9
 70
     1
102
RTVSPropertyOp10
 70
     1
102
RTVSPropertyOp11
 70
     1
102
RTVSPropertyOp12
 70
     1
102
RTVSPropertyOp13
 70
     1
102
RTVSPropertyOp14
 70
     1
102
RTVSPropertyOp15
 70
     1
102
RTVSPropertyOp16
 70
     1
102
RTVSPropertyOp17
 70
     1
102
RTVSPropertyOp18
 70
     1
102
RTVSPropertyOp19
 70
     1
102
RTVSPropertyOp20
 70
     1
102
RTVSPropertyOp21
 70
     1
102
RTVSPropertyOp22
 70
     1
102
RTVSPropertyOp23
 70
     1
102
RTVSPropertyOp24
 70
     1
102
RTVSPropertyOp25
 70
     1
102
RTVSPropertyOp26
 70
     1
102
RTVSPropertyOp27
 70
     1
  0
XRECORD
  5
4CF
102
{ACAD_REACTORS
330
4CE
102
}
330
4CE
100
AcDbXrecord
280
     1
102
RTVSPropertyOp0
 70
     1
102
RTVSPropertyOp1
 70
     1
102
RTVSPropertyOp2
 70
     1
102
RTVSPropertyOp3
 70
     1
102
RTVSPropertyOp4
 70
     1
102
RTVSPropertyOp5
 70
     1
102
RTVSPropertyOp6
 70
     1
102
RTVSPropertyOp7
 70
     1
102
RTVSPropertyOp8
 70
     1
102
RTVSPropertyOp9
 70
     1
102
RTVSPropertyOp10
 70
     1
102
RTVSPropertyOp11
 70
     1
102
RTVSPropertyOp12
 70
     1
102
RTVSPropertyOp13
 70
     1
102
RTVSPropertyOp14
 70
     1
102
RTVSPropertyOp15
 70
     1
102
RTVSPropertyOp16
 70
     1
102
RTVSPropertyOp17
 70
     1
102
RTVSPropertyOp18
 70
     1
102
RTVSPropertyOp19
 70
     1
102
RTVSPropertyOp20
 70
     1
102
RTVSPropertyOp21
 70
     1
102
RTVSPropertyOp22
 70
     1
102
RTVSPropertyOp23
 70
     1
102
RTVSPropertyOp24
 70
     1
102
RTVSPropertyOp25
 70
     1
102
RTVSPropertyOp26
 70
     1
102
RTVSPropertyOp27
 70
     1
  0
XRECORD
  5
4D7
102
{ACAD_REACTORS
330
4D6
102
}
330
4D6
100
AcDbXrecord
280
     1
102
RTVSPropertyOp0
 70
     1
102
RTVSPropertyOp1
 70
     1
102
RTVSPropertyOp2
 70
     1
102
RTVSPropertyOp3
 70
     1
102
RTVSPropertyOp4
 70
     1
102
RTVSPropertyOp5
 70
     1
102
RTVSPropertyOp6
 70
     1
102
RTVSPropertyOp7
 70
     1
102
RTVSPropertyOp8
 70
     1
102
RTVSPropertyOp9
 70
     1
102
RTVSPropertyOp10
 70
     1
102
RTVSPropertyOp11
 70
     1
102
RTVSPropertyOp12
 70
     1
102
RTVSPropertyOp13
 70
     1
102
RTVSPropertyOp14
 70
     1
102
RTVSPropertyOp15
 70
     1
102
RTVSPropertyOp16
 70
     1
102
RTVSPropertyOp17
 70
     1
102
RTVSPropertyOp18
 70
     1
102
RTVSPropertyOp19
 70
     1
102
RTVSPropertyOp20
 70
     1
102
RTVSPropertyOp21
 70
     1
102
RTVSPropertyOp22
 70
     1
102
RTVSPropertyOp23
 70
     1
102
RTVSPropertyOp24
 70
     1
102
RTVSPropertyOp25
 70
     1
102
RTVSPropertyOp26
 70
     1
102
RTVSPropertyOp27
 70
     1
  0
XRECORD
  5
4C9
102
{ACAD_REACTORS
330
4C8
102
}
330
4C8
100
AcDbXrecord
280
     1
102
RTVSPropertyOp0
 70
     1
102
RTVSPropertyOp1
 70
     1
102
RTVSPropertyOp2
 70
     1
102
RTVSPropertyOp3
 70
     1
102
RTVSPropertyOp4
 70
     1
102
RTVSPropertyOp5
 70
     1
102
RTVSPropertyOp6
 70
     1
102
RTVSPropertyOp7
 70
     1
102
RTVSPropertyOp8
 70
     1
102
RTVSPropertyOp9
 70
     1
102
RTVSPropertyOp10
 70
     1
102
RTVSPropertyOp11
 70
     1
102
RTVSPropertyOp12
 70
     1
102
RTVSPropertyOp13
 70
     1
102
RTVSPropertyOp14
 70
     1
102
RTVSPropertyOp15
 70
     1
102
RTVSPropertyOp16
 70
     1
102
RTVSPropertyOp17
 70
     1
102
RTVSPropertyOp18
 70
     1
102
RTVSPropertyOp19
 70
     1
102
RTVSPropertyOp20
 70
     1
102
RTVSPropertyOp21
 70
     1
102
RTVSPropertyOp22
 70
     1
102
RTVSPropertyOp23
 70
     1
102
RTVSPropertyOp24
 70
     1
102
RTVSPropertyOp25
 70
     1
102
RTVSPropertyOp26
 70
     1
102
RTVSPropertyOp27
 70
     1
  0
XRECORD
  5
4CD
102
{ACAD_REACTORS
330
4CC
102
}
330
4CC
100
AcDbXrecord
280
     1
102
RTVSPropertyOp0
 70
     1
102
RTVSPropertyOp1
 70
     1
102
RTVSPropertyOp2
 70
     1
102
RTVSPropertyOp3
 70
     1
102
RTVSPropertyOp4
 70
     1
102
RTVSPropertyOp5
 70
     1
102
RTVSPropertyOp6
 70
     1
102
RTVSPropertyOp7
 70
     1
102
RTVSPropertyOp8
 70
     1
102
RTVSPropertyOp9
 70
     1
102
RTVSPropertyOp10
 70
     1
102
RTVSPropertyOp11
 70
     1
102
RTVSPropertyOp12
 70
     1
102
RTVSPropertyOp13
 70
     1
102
RTVSPropertyOp14
 70
     1
102
RTVSPropertyOp15
 70
     1
102
RTVSPropertyOp16
 70
     1
102
RTVSPropertyOp17
 70
     1
102
RTVSPropertyOp18
 70
     1
102
RTVSPropertyOp19
 70
     1
102
RTVSPropertyOp20
 70
     1
102
RTVSPropertyOp21
 70
     1
102
RTVSPropertyOp22
 70
     1
102
RTVSPropertyOp23
 70
     1
102
RTVSPropertyOp24
 70
     1
102
RTVSPropertyOp25
 70
     1
102
RTVSPropertyOp26
 70
     1
102
RTVSPropertyOp27
 70
     1
  0
XRECORD
  5
4DD
102
{ACAD_REACTORS
330
4DC
102
}
330
4DC
100
AcDbXrecord
280
     1
102
RTVSPropertyOp0
 70
     0
102
RTVSPropertyOp1
 70
     0
102
RTVSPropertyOp2
 70
     0
102
RTVSPropertyOp3
 70
     0
102
RTVSPropertyOp4
 70
     0
102
RTVSPropertyOp5
 70
     0
102
RTVSPropertyOp6
 70
     0
102
RTVSPropertyOp7
 70
     0
102
RTVSPropertyOp8
 70
     0
102
RTVSPropertyOp9
 70
     0
102
RTVSPropertyOp10
 70
     0
102
RTVSPropertyOp11
 70
     0
102
RTVSPropertyOp12
 70
     0
102
RTVSPropertyOp13
 70
     0
102
RTVSPropertyOp14
 70
     2
102
RTVSPropertyOp15
 70
     0
102
RTVSPropertyOp16
 70
     0
102
RTVSPropertyOp17
 70
     0
102
RTVSPropertyOp18
 70
     0
102
RTVSPropertyOp19
 70
     0
102
RTVSPropertyOp20
 70
     0
102
RTVSPropertyOp21
 70
     0
102
RTVSPropertyOp22
 70
     0
102
RTVSPropertyOp23
 70
     0
102
RTVSPropertyOp24
 70
     0
102
RTVSPropertyOp25
 70
     0
102
RTVSPropertyOp26
 70
     0
102
RTVSPropertyOp27
 70
     0
  0
XRECORD
  5
4D5
102
{ACAD_REACTORS
330
4D4
102
}
330
4D4
100
AcDbXrecord
280
     1
102
RTVSPropertyOp0
 70
     1
102
RTVSPropertyOp1
 70
     1
102
RTVSPropertyOp2
 70
     1
102
RTVSPropertyOp3
 70
     1
102
RTVSPropertyOp4
 70
     1
102
RTVSPropertyOp5
 70
     1
102
RTVSPropertyOp6
 70
     1
102
RTVSPropertyOp7
 70
     1
102
RTVSPropertyOp8
 70
     1
102
RTVSPropertyOp9
 70
     1
102
RTVSPropertyOp10
 70
     1
102
RTVSPropertyOp11
 70
     1
102
RTVSPropertyOp12
 70
     1
102
RTVSPropertyOp13
 70
     1
102
RTVSPropertyOp14
 70
     1
102
RTVSPropertyOp15
 70
     1
102
RTVSPropertyOp16
 70
     1
102
RTVSPropertyOp17
 70
     1
102
RTVSPropertyOp18
 70
     1
102
RTVSPropertyOp19
 70
     1
102
RTVSPropertyOp20
 70
     1
102
RTVSPropertyOp21
 70
     1
102
RTVSPropertyOp22
 70
     1
102
RTVSPropertyOp23
 70
     1
102
RTVSPropertyOp24
 70
     1
102
RTVSPropertyOp25
 70
     1
102
RTVSPropertyOp26
 70
     1
102
RTVSPropertyOp27
 70
     1
  0
XRECORD
  5
4B9
102
{ACAD_REACTORS
330
4B8
102
}
330
4B8
100
AcDbXrecord
280
     1
102
RTVSPropertyOp0
 70
     1
102
RTVSPropertyOp1
 70
     1
102
RTVSPropertyOp2
 70
     1
102
RTVSPropertyOp3
 70
     1
102
RTVSPropertyOp4
 70
     1
102
RTVSPropertyOp5
 70
     1
102
RTVSPropertyOp6
 70
     1
102
RTVSPropertyOp7
 70
     1
102
RTVSPropertyOp8
 70
     1
102
RTVSPropertyOp9
 70
     1
102
RTVSPropertyOp10
 70
     1
102
RTVSPropertyOp11
 70
     1
102
RTVSPropertyOp12
 70
     1
102
RTVSPropertyOp13
 70
     1
102
RTVSPropertyOp14
 70
     1
102
RTVSPropertyOp15
 70
     1
102
RTVSPropertyOp16
 70
     1
102
RTVSPropertyOp17
 70
     1
102
RTVSPropertyOp18
 70
     1
102
RTVSPropertyOp19
 70
     1
102
RTVSPropertyOp20
 70
     1
102
RTVSPropertyOp21
 70
     1
102
RTVSPropertyOp22
 70
     1
102
RTVSPropertyOp23
 70
     1
102
RTVSPropertyOp24
 70
     1
102
RTVSPropertyOp25
 70
     1
102
RTVSPropertyOp26
 70
     1
102
RTVSPropertyOp27
 70
     1
  0
XRECORD
  5
4BB
102
{ACAD_REACTORS
330
4BA
102
}
330
4BA
100
AcDbXrecord
280
     1
102
RTVSPropertyOp0
 70
     1
102
RTVSPropertyOp1
 70
     1
102
RTVSPropertyOp2
 70
     1
102
RTVSPropertyOp3
 70
     1
102
RTVSPropertyOp4
 70
     1
102
RTVSPropertyOp5
 70
     1
102
RTVSPropertyOp6
 70
     1
102
RTVSPropertyOp7
 70
     1
102
RTVSPropertyOp8
 70
     1
102
RTVSPropertyOp9
 70
     1
102
RTVSPropertyOp10
 70
     1
102
RTVSPropertyOp11
 70
     1
102
RTVSPropertyOp12
 70
     1
102
RTVSPropertyOp13
 70
     1
102
RTVSPropertyOp14
 70
     1
102
RTVSPropertyOp15
 70
     1
102
RTVSPropertyOp16
 70
     1
102
RTVSPropertyOp17
 70
     1
102
RTVSPropertyOp18
 70
     1
102
RTVSPropertyOp19
 70
     1
102
RTVSPropertyOp20
 70
     1
102
RTVSPropertyOp21
 70
     1
102
RTVSPropertyOp22
 70
     1
102
RTVSPropertyOp23
 70
     1
102
RTVSPropertyOp24
 70
     1
102
RTVSPropertyOp25
 70
     1
102
RTVSPropertyOp26
 70
     1
102
RTVSPropertyOp27
 70
     1
  0
XRECORD
  5
4BD
102
{ACAD_REACTORS
330
4BC
102
}
330
4BC
100
AcDbXrecord
280
     1
102
RTVSPropertyOp0
 70
     1
102
RTVSPropertyOp1
 70
     1
102
RTVSPropertyOp2
 70
     1
102
RTVSPropertyOp3
 70
     1
102
RTVSPropertyOp4
 70
     1
102
RTVSPropertyOp5
 70
     1
102
RTVSPropertyOp6
 70
     1
102
RTVSPropertyOp7
 70
     1
102
RTVSPropertyOp8
 70
     1
102
RTVSPropertyOp9
 70
     1
102
RTVSPropertyOp10
 70
     1
102
RTVSPropertyOp11
 70
     1
102
RTVSPropertyOp12
 70
     1
102
RTVSPropertyOp13
 70
     1
102
RTVSPropertyOp14
 70
     1
102
RTVSPropertyOp15
 70
     1
102
RTVSPropertyOp16
 70
     1
102
RTVSPropertyOp17
 70
     1
102
RTVSPropertyOp18
 70
     1
102
RTVSPropertyOp19
 70
     1
102
RTVSPropertyOp20
 70
     1
102
RTVSPropertyOp21
 70
     1
102
RTVSPropertyOp22
 70
     1
102
RTVSPropertyOp23
 70
     1
102
RTVSPropertyOp24
 70
     1
102
RTVSPropertyOp25
 70
     1
102
RTVSPropertyOp26
 70
     1
102
RTVSPropertyOp27
 70
     1
  0
XRECORD
  5
4BF
102
{ACAD_REACTORS
330
4BE
102
}
330
4BE
100
AcDbXrecord
280
     1
102
RTVSPropertyOp0
 70
     1
102
RTVSPropertyOp1
 70
     1
102
RTVSPropertyOp2
 70
     1
102
RTVSPropertyOp3
 70
     1
102
RTVSPropertyOp4
 70
     1
102
RTVSPropertyOp5
 70
     1
102
RTVSPropertyOp6
 70
     1
102
RTVSPropertyOp7
 70
     1
102
RTVSPropertyOp8
 70
     1
102
RTVSPropertyOp9
 70
     1
102
RTVSPropertyOp10
 70
     1
102
RTVSPropertyOp11
 70
     1
102
RTVSPropertyOp12
 70
     1
102
RTVSPropertyOp13
 70
     1
102
RTVSPropertyOp14
 70
     1
102
RTVSPropertyOp15
 70
     1
102
RTVSPropertyOp16
 70
     1
102
RTVSPropertyOp17
 70
     1
102
RTVSPropertyOp18
 70
     1
102
RTVSPropertyOp19
 70
     1
102
RTVSPropertyOp20
 70
     1
102
RTVSPropertyOp21
 70
     1
102
RTVSPropertyOp22
 70
     1
102
RTVSPropertyOp23
 70
     1
102
RTVSPropertyOp24
 70
     1
102
RTVSPropertyOp25
 70
     1
102
RTVSPropertyOp26
 70
     1
102
RTVSPropertyOp27
 70
     1
  0
XRECORD
  5
4D9
102
{ACAD_REACTORS
330
4D8
102
}
330
4D8
100
AcDbXrecord
280
     1
102
RTVSPropertyOp0
 70
     0
102
RTVSPropertyOp1
 70
     0
102
RTVSPropertyOp2
 70
     0
102
RTVSPropertyOp3
 70
     0
102
RTVSPropertyOp4
 70
     0
102
RTVSPropertyOp5
 70
     0
102
RTVSPropertyOp6
 70
     0
102
RTVSPropertyOp7
 70
     0
102
RTVSPropertyOp8
 70
     0
102
RTVSPropertyOp9
 70
     0
102
RTVSPropertyOp10
 70
     0
102
RTVSPropertyOp11
 70
     0
102
RTVSPropertyOp12
 70
     0
102
RTVSPropertyOp13
 70
     0
102
RTVSPropertyOp14
 70
     2
102
RTVSPropertyOp15
 70
     0
102
RTVSPropertyOp16
 70
     0
102
RTVSPropertyOp17
 70
     0
102
RTVSPropertyOp18
 70
     0
102
RTVSPropertyOp19
 70
     0
102
RTVSPropertyOp20
 70
     0
102
RTVSPropertyOp21
 70
     0
102
RTVSPropertyOp22
 70
     0
102
RTVSPropertyOp23
 70
     0
102
RTVSPropertyOp24
 70
     0
102
RTVSPropertyOp25
 70
     0
102
RTVSPropertyOp26
 70
     0
102
RTVSPropertyOp27
 70
     0
  0
XRECORD
  5
4D3
102
{ACAD_REACTORS
330
4D2
102
}
330
4D2
100
AcDbXrecord
280
     1
102
RTVSPropertyOp0
 70
     1
102
RTVSPropertyOp1
 70
     1
102
RTVSPropertyOp2
 70
     1
102
RTVSPropertyOp3
 70
     1
102
RTVSPropertyOp4
 70
     1
102
RTVSPropertyOp5
 70
     1
102
RTVSPropertyOp6
 70
     1
102
RTVSPropertyOp7
 70
     1
102
RTVSPropertyOp8
 70
     1
102
RTVSPropertyOp9
 70
     1
102
RTVSPropertyOp10
 70
     1
102
RTVSPropertyOp11
 70
     1
102
RTVSPropertyOp12
 70
     1
102
RTVSPropertyOp13
 70
     1
102
RTVSPropertyOp14
 70
     1
102
RTVSPropertyOp15
 70
     1
102
RTVSPropertyOp16
 70
     1
102
RTVSPropertyOp17
 70
     1
102
RTVSPropertyOp18
 70
     1
102
RTVSPropertyOp19
 70
     1
102
RTVSPropertyOp20
 70
     1
102
RTVSPropertyOp21
 70
     1
102
RTVSPropertyOp22
 70
     1
102
RTVSPropertyOp23
 70
     1
102
RTVSPropertyOp24
 70
     1
102
RTVSPropertyOp25
 70
     1
102
RTVSPropertyOp26
 70
     1
102
RTVSPropertyOp27
 70
     1
  0
XRECORD
  5
4DB
102
{ACAD_REACTORS
330
4DA
102
}
330
4DA
100
AcDbXrecord
280
     1
102
RTVSPropertyOp0
 70
     0
102
RTVSPropertyOp1
 70
     0
102
RTVSPropertyOp2
 70
     0
102
RTVSPropertyOp3
 70
     0
102
RTVSPropertyOp4
 70
     0
102
RTVSPropertyOp5
 70
     0
102
RTVSPropertyOp6
 70
     0
102
RTVSPropertyOp7
 70
     0
102
RTVSPropertyOp8
 70
     0
102
RTVSPropertyOp9
 70
     0
102
RTVSPropertyOp10
 70
     0
102
RTVSPropertyOp11
 70
     0
102
RTVSPropertyOp12
 70
     0
102
RTVSPropertyOp13
 70
     0
102
RTVSPropertyOp14
 70
     2
102
RTVSPropertyOp15
 70
     0
102
RTVSPropertyOp16
 70
     0
102
RTVSPropertyOp17
 70
     0
102
RTVSPropertyOp18
 70
     0
102
RTVSPropertyOp19
 70
     0
102
RTVSPropertyOp20
 70
     0
102
RTVSPropertyOp21
 70
     0
102
RTVSPropertyOp22
 70
     0
102
RTVSPropertyOp23
 70
     0
102
RTVSPropertyOp24
 70
     0
102
RTVSPropertyOp25
 70
     0
102
RTVSPropertyOp26
 70
     0
102
RTVSPropertyOp27
 70
     0
  0
XRECORD
  5
4CB
102
{ACAD_REACTORS
330
4CA
102
}
330
4CA
100
AcDbXrecord
280
     1
102
RTVSPropertyOp0
 70
     1
102
RTVSPropertyOp1
 70
     1
102
RTVSPropertyOp2
 70
     1
102
RTVSPropertyOp3
 70
     1
102
RTVSPropertyOp4
 70
     1
102
RTVSPropertyOp5
 70
     1
102
RTVSPropertyOp6
 70
     1
102
RTVSPropertyOp7
 70
     1
102
RTVSPropertyOp8
 70
     1
102
RTVSPropertyOp9
 70
     1
102
RTVSPropertyOp10
 70
     1
102
RTVSPropertyOp11
 70
     1
102
RTVSPropertyOp12
 70
     1
102
RTVSPropertyOp13
 70
     1
102
RTVSPropertyOp14
 70
     1
102
RTVSPropertyOp15
 70
     1
102
RTVSPropertyOp16
 70
     1
102
RTVSPropertyOp17
 70
     1
102
RTVSPropertyOp18
 70
     1
102
RTVSPropertyOp19
 70
     1
102
RTVSPropertyOp20
 70
     1
102
RTVSPropertyOp21
 70
     1
102
RTVSPropertyOp22
 70
     1
102
RTVSPropertyOp23
 70
     1
102
RTVSPropertyOp24
 70
     1
102
RTVSPropertyOp25
 70
     1
102
RTVSPropertyOp26
 70
     1
102
RTVSPropertyOp27
 70
     1
  0
XRECORD
  5
4D1
102
{ACAD_REACTORS
330
4D0
102
}
330
4D0
100
AcDbXrecord
280
     1
102
RTVSPropertyOp0
 70
     1
102
RTVSPropertyOp1
 70
     1
102
RTVSPropertyOp2
 70
     1
102
RTVSPropertyOp3
 70
     1
102
RTVSPropertyOp4
 70
     1
102
RTVSPropertyOp5
 70
     1
102
RTVSPropertyOp6
 70
     1
102
RTVSPropertyOp7
 70
     1
102
RTVSPropertyOp8
 70
     1
102
RTVSPropertyOp9
 70
     1
102
RTVSPropertyOp10
 70
     1
102
RTVSPropertyOp11
 70
     1
102
RTVSPropertyOp12
 70
     1
102
RTVSPropertyOp13
 70
     1
102
RTVSPropertyOp14
 70
     1
102
RTVSPropertyOp15
 70
     1
102
RTVSPropertyOp16
 70
     1
102
RTVSPropertyOp17
 70
     1
102
RTVSPropertyOp18
 70
     1
102
RTVSPropertyOp19
 70
     1
102
RTVSPropertyOp20
 70
     1
102
RTVSPropertyOp21
 70
     1
102
RTVSPropertyOp22
 70
     1
102
RTVSPropertyOp23
 70
     1
102
RTVSPropertyOp24
 70
     1
102
RTVSPropertyOp25
 70
     1
102
RTVSPropertyOp26
 70
     1
102
RTVSPropertyOp27
 70
     1
  0
ENDSEC
  0
EOF
